  0
SECTION
  2
HEADER
  9
$ACADVER
  1
AC1015
  9
$ACADMAINTVER
 70
     6
  9
$DWGCODEPAGE
  3
ANSI_932
  9
$INSBASE
 10
0.0
 20
0.0
 30
0.0
  9
$EXTMIN
 10
0.0
 20
0.0
 30
0.0
  9
$EXTMAX
 10
840.0
 20
594.0
 30
0.0
  9
$LIMMIN
 10
0.0
 20
0.0
  9
$LIMMAX
 10
840.0
 20
594.0
  9
$ORTHOMODE
 70
     0
  9
$REGENMODE
 70
     1
  9
$FILLMODE
 70
     1
  9
$QTEXTMODE
 70
     0
  9
$MIRRTEXT
 70
     1
  9
$LTSCALE
 40
2.0
  9
$ATTMODE
 70
     1
  9
$TEXTSIZE
 40
2.5
  9
$TRACEWID
 40
1.0
  9
$TEXTSTYLE
  7
Standard
  9
$CLAYER
  8
0
  9
$CELTYPE
  6
ByLayer
  9
$CECOLOR
 62
   256
  9
$CELTSCALE
 40
1.0
  9
$DISPSILH
 70
     0
  9
$DIMSCALE
 40
1.0
  9
$DIMASZ
 40
2.5
  9
$DIMEXO
 40
0.625
  9
$DIMDLI
 40
3.75
  9
$DIMRND
 40
0.0
  9
$DIMDLE
 40
0.0
  9
$DIMEXE
 40
1.25
  9
$DIMTP
 40
0.0
  9
$DIMTM
 40
0.0
  9
$DIMTXT
 40
2.5
  9
$DIMCEN
 40
2.5
  9
$DIMTSZ
 40
0.0
  9
$DIMTOL
 70
     0
  9
$DIMLIM
 70
     0
  9
$DIMTIH
 70
     0
  9
$DIMTOH
 70
     0
  9
$DIMSE1
 70
     0
  9
$DIMSE2
 70
     0
  9
$DIMTAD
 70
     1
  9
$DIMZIN
 70
     8
  9
$DIMBLK
  1

  9
$DIMASO
 70
     1
  9
$DIMSHO
 70
     1
  9
$DIMPOST
  1

  9
$DIMAPOST
  1

  9
$DIMALT
 70
     0
  9
$DIMALTD
 70
     3
  9
$DIMALTF
 40
0.03937007874016
  9
$DIMLFAC
 40
1.0
  9
$DIMTOFL
 70
     1
  9
$DIMTVP
 40
0.0
  9
$DIMTIX
 70
     0
  9
$DIMSOXD
 70
     0
  9
$DIMSAH
 70
     0
  9
$DIMBLK1
  1

  9
$DIMBLK2
  1

  9
$DIMSTYLE
  2
ISO-25
  9
$DIMCLRD
 70
     0
  9
$DIMCLRE
 70
     0
  9
$DIMCLRT
 70
     0
  9
$DIMTFAC
 40
1.0
  9
$DIMGAP
 40
0.625
  9
$DIMJUST
 70
     0
  9
$DIMSD1
 70
     0
  9
$DIMSD2
 70
     0
  9
$DIMTOLJ
 70
     0
  9
$DIMTZIN
 70
     8
  9
$DIMALTZ
 70
     0
  9
$DIMALTTZ
 70
     0
  9
$DIMUPT
 70
     0
  9
$DIMDEC
 70
     2
  9
$DIMTDEC
 70
     2
  9
$DIMALTU
 70
     2
  9
$DIMALTTD
 70
     3
  9
$DIMTXSTY
  7
Standard
  9
$DIMAUNIT
 70
     0
  9
$DIMADEC
 70
     0
  9
$DIMALTRND
 40
0.0
  9
$DIMAZIN
 70
     0
  9
$DIMDSEP
 70
    46
  9
$DIMATFIT
 70
     3
  9
$DIMFRAC
 70
     0
  9
$DIMLDRBLK
  1

  9
$DIMLUNIT
 70
     2
  9
$DIMLWD
 70
    -2
  9
$DIMLWE
 70
    -2
  9
$DIMTMOVE
 70
     0
  9
$LUNITS
 70
     2
  9
$LUPREC
 70
     4
  9
$SKETCHINC
 40
1.0
  9
$FILLETRAD
 40
10.0
  9
$AUNITS
 70
     0
  9
$AUPREC
 70
     0
  9
$MENU
  1
.
  9
$ELEVATION
 40
0.0
  9
$PELEVATION
 40
0.0
  9
$THICKNESS
 40
0.0
  9
$LIMCHECK
 70
     0
  9
$CHAMFERA
 40
10.0
  9
$CHAMFERB
 40
10.0
  9
$CHAMFERC
 40
20.0
  9
$CHAMFERD
 40
0.0
  9
$SKPOLY
 70
     0
  9
$TDCREATE
 40
2457770.000000
  9
$TDUCREATE
 40
0.000000000
  9
$TDUPDATE
 40
2457770.000000
  9
$TDUUPDATE
 40
2457770.000000
  9
$TDINDWG
 40
0.0
  9
$TDUSRTIMER
 40
0.0
  9
$USRTIMER
 70
     1
  9
$ANGBASE
 50
0.0
  9
$ANGDIR
 70
     0
  9
$PDMODE
 70
     0
  9
$PDSIZE
 40
0.0
  9
$PLINEWID
 40
0.0
  9
$SPLFRAME
 70
     0
  9
$SPLINETYPE
 70
     6
  9
$SPLINESEGS
 70
     8
  9
$HANDSEED
  5
0217
  9
$SURFTAB1
 70
     6
  9
$SURFTAB2
 70
     6
  9
$SURFTYPE
 70
     6
  9
$SURFU
 70
     6
  9
$SURFV
 70
     6
  9
$UCSBASE
  2

  9
$UCSNAME
  2

  9
$UCSORG
 10
0.0
 20
0.0
 30
0.0
  9
$UCSXDIR
 10
1.0
 20
0.0
 30
0.0
  9
$UCSYDIR
 10
0.0
 20
1.0
 30
0.0
  9
$UCSORTHOREF
  2

  9
$UCSORTHOVIEW
 70
     0
  9
$UCSORGTOP
 10
0.0
 20
0.0
 30
0.0
  9
$UCSORGBOTTOM
 10
0.0
 20
0.0
 30
0.0
  9
$UCSORGLEFT
 10
0.0
 20
0.0
 30
0.0
  9
$UCSORGRIGHT
 10
0.0
 20
0.0
 30
0.0
  9
$UCSORGFRONT
 10
0.0
 20
0.0
 30
0.0
  9
$UCSORGBACK
 10
0.0
 20
0.0
 30
0.0
  9
$PUCSBASE
  2

  9
$PUCSNAME
  2

  9
$PUCSORG
 10
0.0
 20
0.0
 30
0.0
  9
$PUCSXDIR
 10
1.0
 20
0.0
 30
0.0
  9
$PUCSYDIR
 10
0.0
 20
1.0
 30
0.0
  9
$PUCSORTHOREF
  2

  9
$PUCSORTHOVIEW
 70
     0
  9
$PUCSORGTOP
 10
0.0
 20
0.0
 30
0.0
  9
$PUCSORGBOTTOM
 10
0.0
 20
0.0
 30
0.0
  9
$PUCSORGLEFT
 10
0.0
 20
0.0
 30
0.0
  9
$PUCSORGRIGHT
 10
0.0
 20
0.0
 30
0.0
  9
$PUCSORGFRONT
 10
0.0
 20
0.0
 30
0.0
  9
$PUCSORGBACK
 10
0.0
 20
0.0
 30
0.0
  9
$USERI1
 70
     0
  9
$USERI2
 70
     0
  9
$USERI3
 70
     0
  9
$USERI4
 70
     0
  9
$USERI5
 70
     0
  9
$USERR1
 40
0.0
  9
$USERR2
 40
0.0
  9
$USERR3
 40
0.0
  9
$USERR4
 40
0.0
  9
$USERR5
 40
0.0
  9
$WORLDVIEW
 70
     1
  9
$SHADEDGE
 70
     3
  9
$SHADEDIF
 70
    70
  9
$TILEMODE
 70
     1
  9
$MAXACTVP
 70
    64
  9
$PINSBASE
 10
0.0
 20
0.0
 30
0.0
  9
$PLIMCHECK
 70
     0
  9
$PEXTMIN
 10
1.000000E+20
 20
1.000000E+20
 30
1.000000E+20
  9
$PEXTMAX
 10
-1.000000E+20
 20
-1.000000E+20
 30
-1.000000E+20
  9
$PLIMMIN
 10
0.0
 20
0.0
  9
$PLIMMAX
 10
0.0
 20
0.0
  9
$UNITMODE
 70
     0
  9
$VISRETAIN
 70
     0
  9
$PLINEGEN
 70
     0
  9
$PSLTSCALE
 70
     1
  9
$TREEDEPTH
 70
  3020
  9
$CMLSTYLE
  2
STANDARD
  9
$CMLJUST
 70
     0
  9
$CMLSCALE
 40
20.0
  9
$PROXYGRAPHICS
 70
     1
  9
$MEASUREMENT
 70
     1
  9
$CELWEIGHT
370
    -1
  9
$ENDCAPS
280
     0
  9
$JOINSTYLE
280
     0
  9
$LWDISPLAY
290
     0
  9
$INSUNITS
 70
     4
  9
$HYPERLINKBASE
  1

  9
$STYLESHEET
  1

  9
$XEDIT
290
     1
  9
$CEPSNTYPE
380
     0
  9
$PSTYLEMODE
290
     1
  9
$FINGERPRINTGUID
  2
{E41573FC-254B-2BFF-D455-06C6BD243F6A}
  9
$VERSIONGUID
  2
{E41573FC-254B-2BFF-D455-06C6BD243F6A}
  9
$EXTNAMES
290
     1
  9
$PSVPSCALE
 40
0.0
  0
ENDSEC
  0
SECTION
  2
CLASSES
  0
ENDSEC
  0
SECTION
  2
TABLES
  0
TABLE
  2
VPORT
  5
8
330
0
100
AcDbSymbolTable
 70
     3
  0
VPORT
  5
29
330
8
100
AcDbSymbolTableRecord
100
AcDbViewportTableRecord
  2
*Active
 70
     0
 10
0.0
 20
0.0
 11
1.0
 21
1.0
 12
420.0
 22
297.0
 13
0.0
 23
0.0
 14
10.0
 24
10.0
 15
0.0
 25
0.0
 16
0.0
 26
0.0
 36
1.0
 17
0.0
 27
0.0
 37
0.0
 40
594.0
 41
1.414141414
 42
50.0
 43
0.0
 44
0.0
 50
0.0
 51
0.0
 71
     0
 72
  1000
 73
     1
 74
     3
 75
     0
 76
     0
 77
     0
 78
     0
281
     0
 65
     0
110
0.0
120
0.0
130
0.0
111
1.0
121
0.0
131
0.0
112
0.0
122
1.0
132
0.0
 79
     0
146
0.0
  0
ENDTAB
  0
TABLE
  2
LTYPE
  5
5
330
0
100
AcDbSymbolTable
 70
     6
  0
LTYPE
  5
14
330
5
100
AcDbSymbolTableRecord
100
AcDbLinetypeTableRecord
  2
ByBlock
 70
     0
  3

 72
    65
 73
     0
 40
0.0
  0
LTYPE
  5
15
330
5
100
AcDbSymbolTableRecord
100
AcDbLinetypeTableRecord
  2
ByLayer
 70
     0
  3

 72
    65
 73
     0
 40
0.0
  0
LTYPE
  5
16
330
5
100
AcDbSymbolTableRecord
100
AcDbLinetypeTableRecord
  2
Continuous
 70
     0
  3
Solid line
 72
    65
 73
     0
 40
0.0
  0
LTYPE
  5
17C
330
5
100
AcDbSymbolTableRecord
100
AcDbLinetypeTableRecord
  2
LTYPE1
 70
     0
  3
HIDDEN
 72
    65
 73
     2
 40
2.0
 49
1.2
 74
     0
 49
-0.8
 74
     0
  0
LTYPE
  5
180
330
5
100
AcDbSymbolTableRecord
100
AcDbLinetypeTableRecord
  2
LTYPE2
 70
     0
  3
CENTER
 72
    65
 73
     4
 40
12.0
 49
8.4
 74
     0
 49
-1.2
 74
     0
 49
1.2
 74
     0
 49
-1.2
 74
     0
  0
LTYPE
  5
193
330
5
100
AcDbSymbolTableRecord
100
AcDbLinetypeTableRecord
  2
LTYPE3
 70
     0
  3
PHANTOM
 72
    65
 73
     6
 40
12.0
 49
9.0
 74
     0
 49
-0.6
 74
     0
 49
0.6
 74
     0
 49
-0.6
 74
     0
 49
0.6
 74
     0
 49
-0.6
 74
     0
  0
ENDTAB
  0
TABLE
  2
LAYER
  5
2
330
0
100
AcDbSymbolTable
 70
   128
  0
LAYER
  5
10
330
2
100
AcDbSymbolTableRecord
100
AcDbLayerTableRecord
  2
0
 70
     0
 62
     7
  6
Continuous
290
     1
370
    -3
390
F
  0
LAYER
  5
2A
330
2
100
AcDbSymbolTableRecord
100
AcDbLayerTableRecord
  2
2
 70
     0
 62
     7
  6
Continuous
290
     1
370
    -3
390
F
  0
LAYER
  5
2B
330
2
100
AcDbSymbolTableRecord
100
AcDbLayerTableRecord
  2
3
 70
     0
 62
     7
  6
Continuous
290
     1
370
    -3
390
F
  0
LAYER
  5
2C
330
2
100
AcDbSymbolTableRecord
100
AcDbLayerTableRecord
  2
4
 70
     0
 62
     7
  6
Continuous
290
     1
370
    -3
390
F
  0
LAYER
  5
2D
330
2
100
AcDbSymbolTableRecord
100
AcDbLayerTableRecord
  2
5
 70
     0
 62
     7
  6
Continuous
290
     1
370
    -3
390
F
  0
LAYER
  5
2E
330
2
100
AcDbSymbolTableRecord
100
AcDbLayerTableRecord
  2
6
 70
     0
 62
     7
  6
Continuous
290
     1
370
    -3
390
F
  0
LAYER
  5
2F
330
2
100
AcDbSymbolTableRecord
100
AcDbLayerTableRecord
  2
7
 70
     0
 62
     7
  6
Continuous
290
     1
370
    -3
390
F
  0
LAYER
  5
30
330
2
100
AcDbSymbolTableRecord
100
AcDbLayerTableRecord
  2
8
 70
     0
 62
     7
  6
Continuous
290
     1
370
    -3
390
F
  0
LAYER
  5
31
330
2
100
AcDbSymbolTableRecord
100
AcDbLayerTableRecord
  2
9
 70
     0
 62
     7
  6
Continuous
290
     1
370
    -3
390
F
  0
LAYER
  5
32
330
2
100
AcDbSymbolTableRecord
100
AcDbLayerTableRecord
  2
10
 70
     0
 62
     7
  6
Continuous
290
     1
370
    -3
390
F
  0
LAYER
  5
33
330
2
100
AcDbSymbolTableRecord
100
AcDbLayerTableRecord
  2
11
 70
     0
 62
     7
  6
Continuous
290
     1
370
    -3
390
F
  0
LAYER
  5
34
330
2
100
AcDbSymbolTableRecord
100
AcDbLayerTableRecord
  2
12
 70
     0
 62
     7
  6
Continuous
290
     1
370
    -3
390
F
  0
LAYER
  5
35
330
2
100
AcDbSymbolTableRecord
100
AcDbLayerTableRecord
  2
13
 70
     0
 62
     7
  6
Continuous
290
     1
370
    -3
390
F
  0
LAYER
  5
36
330
2
100
AcDbSymbolTableRecord
100
AcDbLayerTableRecord
  2
14
 70
     0
 62
     7
  6
Continuous
290
     1
370
    -3
390
F
  0
LAYER
  5
37
330
2
100
AcDbSymbolTableRecord
100
AcDbLayerTableRecord
  2
15
 70
     0
 62
     7
  6
Continuous
290
     1
370
    -3
390
F
  0
LAYER
  5
38
330
2
100
AcDbSymbolTableRecord
100
AcDbLayerTableRecord
  2
16
 70
     0
 62
     7
  6
Continuous
290
     1
370
    -3
390
F
  0
LAYER
  5
39
330
2
100
AcDbSymbolTableRecord
100
AcDbLayerTableRecord
  2
17
 70
     0
 62
     7
  6
Continuous
290
     1
370
    -3
390
F
  0
LAYER
  5
3A
330
2
100
AcDbSymbolTableRecord
100
AcDbLayerTableRecord
  2
18
 70
     0
 62
     7
  6
Continuous
290
     1
370
    -3
390
F
  0
LAYER
  5
3B
330
2
100
AcDbSymbolTableRecord
100
AcDbLayerTableRecord
  2
19
 70
     0
 62
     7
  6
Continuous
290
     1
370
    -3
390
F
  0
LAYER
  5
3C
330
2
100
AcDbSymbolTableRecord
100
AcDbLayerTableRecord
  2
20
 70
     0
 62
     7
  6
Continuous
290
     1
370
    -3
390
F
  0
LAYER
  5
3D
330
2
100
AcDbSymbolTableRecord
100
AcDbLayerTableRecord
  2
21
 70
     0
 62
     7
  6
Continuous
290
     1
370
    -3
390
F
  0
LAYER
  5
3E
330
2
100
AcDbSymbolTableRecord
100
AcDbLayerTableRecord
  2
22
 70
     0
 62
     7
  6
Continuous
290
     1
370
    -3
390
F
  0
LAYER
  5
3F
330
2
100
AcDbSymbolTableRecord
100
AcDbLayerTableRecord
  2
23
 70
     0
 62
     7
  6
Continuous
290
     1
370
    -3
390
F
  0
LAYER
  5
40
330
2
100
AcDbSymbolTableRecord
100
AcDbLayerTableRecord
  2
24
 70
     0
 62
     7
  6
Continuous
290
     1
370
    -3
390
F
  0
LAYER
  5
41
330
2
100
AcDbSymbolTableRecord
100
AcDbLayerTableRecord
  2
25
 70
     0
 62
     7
  6
Continuous
290
     1
370
    -3
390
F
  0
LAYER
  5
42
330
2
100
AcDbSymbolTableRecord
100
AcDbLayerTableRecord
  2
26
 70
     0
 62
     7
  6
Continuous
290
     1
370
    -3
390
F
  0
LAYER
  5
43
330
2
100
AcDbSymbolTableRecord
100
AcDbLayerTableRecord
  2
27
 70
     0
 62
     7
  6
Continuous
290
     1
370
    -3
390
F
  0
LAYER
  5
44
330
2
100
AcDbSymbolTableRecord
100
AcDbLayerTableRecord
  2
28
 70
     0
 62
     7
  6
Continuous
290
     1
370
    -3
390
F
  0
LAYER
  5
45
330
2
100
AcDbSymbolTableRecord
100
AcDbLayerTableRecord
  2
29
 70
     0
 62
     7
  6
Continuous
290
     1
370
    -3
390
F
  0
LAYER
  5
46
330
2
100
AcDbSymbolTableRecord
100
AcDbLayerTableRecord
  2
30
 70
     0
 62
     7
  6
Continuous
290
     1
370
    -3
390
F
  0
LAYER
  5
47
330
2
100
AcDbSymbolTableRecord
100
AcDbLayerTableRecord
  2
31
 70
     0
 62
     7
  6
Continuous
290
     1
370
    -3
390
F
  0
LAYER
  5
48
330
2
100
AcDbSymbolTableRecord
100
AcDbLayerTableRecord
  2
32
 70
     0
 62
     7
  6
Continuous
290
     1
370
    -3
390
F
  0
LAYER
  5
49
330
2
100
AcDbSymbolTableRecord
100
AcDbLayerTableRecord
  2
33
 70
     0
 62
     7
  6
Continuous
290
     1
370
    -3
390
F
  0
LAYER
  5
4A
330
2
100
AcDbSymbolTableRecord
100
AcDbLayerTableRecord
  2
34
 70
     0
 62
     7
  6
Continuous
290
     1
370
    -3
390
F
  0
LAYER
  5
4B
330
2
100
AcDbSymbolTableRecord
100
AcDbLayerTableRecord
  2
35
 70
     0
 62
     7
  6
Continuous
290
     1
370
    -3
390
F
  0
LAYER
  5
4C
330
2
100
AcDbSymbolTableRecord
100
AcDbLayerTableRecord
  2
36
 70
     0
 62
     7
  6
Continuous
290
     1
370
    -3
390
F
  0
LAYER
  5
4D
330
2
100
AcDbSymbolTableRecord
100
AcDbLayerTableRecord
  2
37
 70
     0
 62
     7
  6
Continuous
290
     1
370
    -3
390
F
  0
LAYER
  5
4E
330
2
100
AcDbSymbolTableRecord
100
AcDbLayerTableRecord
  2
38
 70
     0
 62
     7
  6
Continuous
290
     1
370
    -3
390
F
  0
LAYER
  5
4F
330
2
100
AcDbSymbolTableRecord
100
AcDbLayerTableRecord
  2
39
 70
     0
 62
     7
  6
Continuous
290
     1
370
    -3
390
F
  0
LAYER
  5
50
330
2
100
AcDbSymbolTableRecord
100
AcDbLayerTableRecord
  2
40
 70
     0
 62
     7
  6
Continuous
290
     1
370
    -3
390
F
  0
LAYER
  5
51
330
2
100
AcDbSymbolTableRecord
100
AcDbLayerTableRecord
  2
41
 70
     0
 62
     7
  6
Continuous
290
     1
370
    -3
390
F
  0
LAYER
  5
52
330
2
100
AcDbSymbolTableRecord
100
AcDbLayerTableRecord
  2
42
 70
     0
 62
     7
  6
Continuous
290
     1
370
    -3
390
F
  0
LAYER
  5
53
330
2
100
AcDbSymbolTableRecord
100
AcDbLayerTableRecord
  2
43
 70
     0
 62
     7
  6
Continuous
290
     1
370
    -3
390
F
  0
LAYER
  5
54
330
2
100
AcDbSymbolTableRecord
100
AcDbLayerTableRecord
  2
44
 70
     0
 62
     7
  6
Continuous
290
     1
370
    -3
390
F
  0
LAYER
  5
55
330
2
100
AcDbSymbolTableRecord
100
AcDbLayerTableRecord
  2
45
 70
     0
 62
     7
  6
Continuous
290
     1
370
    -3
390
F
  0
LAYER
  5
56
330
2
100
AcDbSymbolTableRecord
100
AcDbLayerTableRecord
  2
46
 70
     0
 62
     7
  6
Continuous
290
     1
370
    -3
390
F
  0
LAYER
  5
57
330
2
100
AcDbSymbolTableRecord
100
AcDbLayerTableRecord
  2
47
 70
     0
 62
     7
  6
Continuous
290
     1
370
    -3
390
F
  0
LAYER
  5
58
330
2
100
AcDbSymbolTableRecord
100
AcDbLayerTableRecord
  2
48
 70
     0
 62
     7
  6
Continuous
290
     1
370
    -3
390
F
  0
LAYER
  5
59
330
2
100
AcDbSymbolTableRecord
100
AcDbLayerTableRecord
  2
49
 70
     0
 62
     7
  6
Continuous
290
     1
370
    -3
390
F
  0
LAYER
  5
5A
330
2
100
AcDbSymbolTableRecord
100
AcDbLayerTableRecord
  2
50
 70
     0
 62
     7
  6
Continuous
290
     1
370
    -3
390
F
  0
LAYER
  5
5B
330
2
100
AcDbSymbolTableRecord
100
AcDbLayerTableRecord
  2
51
 70
     0
 62
     7
  6
Continuous
290
     1
370
    -3
390
F
  0
LAYER
  5
5C
330
2
100
AcDbSymbolTableRecord
100
AcDbLayerTableRecord
  2
52
 70
     0
 62
     7
  6
Continuous
290
     1
370
    -3
390
F
  0
LAYER
  5
5D
330
2
100
AcDbSymbolTableRecord
100
AcDbLayerTableRecord
  2
53
 70
     0
 62
     7
  6
Continuous
290
     1
370
    -3
390
F
  0
LAYER
  5
5E
330
2
100
AcDbSymbolTableRecord
100
AcDbLayerTableRecord
  2
54
 70
     0
 62
     7
  6
Continuous
290
     1
370
    -3
390
F
  0
LAYER
  5
5F
330
2
100
AcDbSymbolTableRecord
100
AcDbLayerTableRecord
  2
55
 70
     0
 62
     7
  6
Continuous
290
     1
370
    -3
390
F
  0
LAYER
  5
60
330
2
100
AcDbSymbolTableRecord
100
AcDbLayerTableRecord
  2
56
 70
     0
 62
     7
  6
Continuous
290
     1
370
    -3
390
F
  0
LAYER
  5
61
330
2
100
AcDbSymbolTableRecord
100
AcDbLayerTableRecord
  2
57
 70
     0
 62
     7
  6
Continuous
290
     1
370
    -3
390
F
  0
LAYER
  5
62
330
2
100
AcDbSymbolTableRecord
100
AcDbLayerTableRecord
  2
58
 70
     0
 62
     7
  6
Continuous
290
     1
370
    -3
390
F
  0
LAYER
  5
63
330
2
100
AcDbSymbolTableRecord
100
AcDbLayerTableRecord
  2
59
 70
     0
 62
     7
  6
Continuous
290
     1
370
    -3
390
F
  0
LAYER
  5
64
330
2
100
AcDbSymbolTableRecord
100
AcDbLayerTableRecord
  2
60
 70
     0
 62
     7
  6
Continuous
290
     1
370
    -3
390
F
  0
LAYER
  5
65
330
2
100
AcDbSymbolTableRecord
100
AcDbLayerTableRecord
  2
61
 70
     0
 62
     7
  6
Continuous
290
     1
370
    -3
390
F
  0
LAYER
  5
66
330
2
100
AcDbSymbolTableRecord
100
AcDbLayerTableRecord
  2
62
 70
     0
 62
     7
  6
Continuous
290
     1
370
    -3
390
F
  0
LAYER
  5
67
330
2
100
AcDbSymbolTableRecord
100
AcDbLayerTableRecord
  2
63
 70
     0
 62
     7
  6
Continuous
290
     1
370
    -3
390
F
  0
LAYER
  5
68
330
2
100
AcDbSymbolTableRecord
100
AcDbLayerTableRecord
  2
64
 70
     0
 62
     7
  6
Continuous
290
     1
370
    -3
390
F
  0
LAYER
  5
69
330
2
100
AcDbSymbolTableRecord
100
AcDbLayerTableRecord
  2
65
 70
     0
 62
     7
  6
Continuous
290
     1
370
    -3
390
F
  0
LAYER
  5
6A
330
2
100
AcDbSymbolTableRecord
100
AcDbLayerTableRecord
  2
66
 70
     0
 62
     7
  6
Continuous
290
     1
370
    -3
390
F
  0
LAYER
  5
6B
330
2
100
AcDbSymbolTableRecord
100
AcDbLayerTableRecord
  2
67
 70
     0
 62
     7
  6
Continuous
290
     1
370
    -3
390
F
  0
LAYER
  5
6C
330
2
100
AcDbSymbolTableRecord
100
AcDbLayerTableRecord
  2
68
 70
     0
 62
     7
  6
Continuous
290
     1
370
    -3
390
F
  0
LAYER
  5
6D
330
2
100
AcDbSymbolTableRecord
100
AcDbLayerTableRecord
  2
69
 70
     0
 62
     7
  6
Continuous
290
     1
370
    -3
390
F
  0
LAYER
  5
6E
330
2
100
AcDbSymbolTableRecord
100
AcDbLayerTableRecord
  2
70
 70
     0
 62
     7
  6
Continuous
290
     1
370
    -3
390
F
  0
LAYER
  5
6F
330
2
100
AcDbSymbolTableRecord
100
AcDbLayerTableRecord
  2
71
 70
     0
 62
     7
  6
Continuous
290
     1
370
    -3
390
F
  0
LAYER
  5
70
330
2
100
AcDbSymbolTableRecord
100
AcDbLayerTableRecord
  2
72
 70
     0
 62
     7
  6
Continuous
290
     1
370
    -3
390
F
  0
LAYER
  5
71
330
2
100
AcDbSymbolTableRecord
100
AcDbLayerTableRecord
  2
73
 70
     0
 62
     7
  6
Continuous
290
     1
370
    -3
390
F
  0
LAYER
  5
72
330
2
100
AcDbSymbolTableRecord
100
AcDbLayerTableRecord
  2
74
 70
     0
 62
     7
  6
Continuous
290
     1
370
    -3
390
F
  0
LAYER
  5
73
330
2
100
AcDbSymbolTableRecord
100
AcDbLayerTableRecord
  2
75
 70
     0
 62
     7
  6
Continuous
290
     1
370
    -3
390
F
  0
LAYER
  5
74
330
2
100
AcDbSymbolTableRecord
100
AcDbLayerTableRecord
  2
76
 70
     0
 62
     7
  6
Continuous
290
     1
370
    -3
390
F
  0
LAYER
  5
75
330
2
100
AcDbSymbolTableRecord
100
AcDbLayerTableRecord
  2
77
 70
     0
 62
     7
  6
Continuous
290
     1
370
    -3
390
F
  0
LAYER
  5
76
330
2
100
AcDbSymbolTableRecord
100
AcDbLayerTableRecord
  2
78
 70
     0
 62
     7
  6
Continuous
290
     1
370
    -3
390
F
  0
LAYER
  5
77
330
2
100
AcDbSymbolTableRecord
100
AcDbLayerTableRecord
  2
79
 70
     0
 62
     7
  6
Continuous
290
     1
370
    -3
390
F
  0
LAYER
  5
78
330
2
100
AcDbSymbolTableRecord
100
AcDbLayerTableRecord
  2
80
 70
     0
 62
     7
  6
Continuous
290
     1
370
    -3
390
F
  0
LAYER
  5
79
330
2
100
AcDbSymbolTableRecord
100
AcDbLayerTableRecord
  2
81
 70
     0
 62
     7
  6
Continuous
290
     1
370
    -3
390
F
  0
LAYER
  5
7A
330
2
100
AcDbSymbolTableRecord
100
AcDbLayerTableRecord
  2
82
 70
     0
 62
     7
  6
Continuous
290
     1
370
    -3
390
F
  0
LAYER
  5
7B
330
2
100
AcDbSymbolTableRecord
100
AcDbLayerTableRecord
  2
83
 70
     0
 62
     7
  6
Continuous
290
     1
370
    -3
390
F
  0
LAYER
  5
7C
330
2
100
AcDbSymbolTableRecord
100
AcDbLayerTableRecord
  2
84
 70
     0
 62
     7
  6
Continuous
290
     1
370
    -3
390
F
  0
LAYER
  5
7D
330
2
100
AcDbSymbolTableRecord
100
AcDbLayerTableRecord
  2
85
 70
     0
 62
     7
  6
Continuous
290
     1
370
    -3
390
F
  0
LAYER
  5
7E
330
2
100
AcDbSymbolTableRecord
100
AcDbLayerTableRecord
  2
86
 70
     0
 62
     7
  6
Continuous
290
     1
370
    -3
390
F
  0
LAYER
  5
7F
330
2
100
AcDbSymbolTableRecord
100
AcDbLayerTableRecord
  2
87
 70
     0
 62
     7
  6
Continuous
290
     1
370
    -3
390
F
  0
LAYER
  5
80
330
2
100
AcDbSymbolTableRecord
100
AcDbLayerTableRecord
  2
88
 70
     0
 62
     7
  6
Continuous
290
     1
370
    -3
390
F
  0
LAYER
  5
81
330
2
100
AcDbSymbolTableRecord
100
AcDbLayerTableRecord
  2
89
 70
     0
 62
     7
  6
Continuous
290
     1
370
    -3
390
F
  0
LAYER
  5
82
330
2
100
AcDbSymbolTableRecord
100
AcDbLayerTableRecord
  2
90
 70
     0
 62
     7
  6
Continuous
290
     1
370
    -3
390
F
  0
LAYER
  5
83
330
2
100
AcDbSymbolTableRecord
100
AcDbLayerTableRecord
  2
91
 70
     0
 62
     7
  6
Continuous
290
     1
370
    -3
390
F
  0
LAYER
  5
84
330
2
100
AcDbSymbolTableRecord
100
AcDbLayerTableRecord
  2
92
 70
     0
 62
     7
  6
Continuous
290
     1
370
    -3
390
F
  0
LAYER
  5
85
330
2
100
AcDbSymbolTableRecord
100
AcDbLayerTableRecord
  2
93
 70
     0
 62
     7
  6
Continuous
290
     1
370
    -3
390
F
  0
LAYER
  5
86
330
2
100
AcDbSymbolTableRecord
100
AcDbLayerTableRecord
  2
94
 70
     0
 62
     7
  6
Continuous
290
     1
370
    -3
390
F
  0
LAYER
  5
87
330
2
100
AcDbSymbolTableRecord
100
AcDbLayerTableRecord
  2
95
 70
     0
 62
     7
  6
Continuous
290
     1
370
    -3
390
F
  0
LAYER
  5
88
330
2
100
AcDbSymbolTableRecord
100
AcDbLayerTableRecord
  2
96
 70
     0
 62
     7
  6
Continuous
290
     1
370
    -3
390
F
  0
LAYER
  5
89
330
2
100
AcDbSymbolTableRecord
100
AcDbLayerTableRecord
  2
97
 70
     0
 62
     7
  6
Continuous
290
     1
370
    -3
390
F
  0
LAYER
  5
8A
330
2
100
AcDbSymbolTableRecord
100
AcDbLayerTableRecord
  2
98
 70
     0
 62
     7
  6
Continuous
290
     1
370
    -3
390
F
  0
LAYER
  5
8B
330
2
100
AcDbSymbolTableRecord
100
AcDbLayerTableRecord
  2
99
 70
     0
 62
     7
  6
Continuous
290
     1
370
    -3
390
F
  0
LAYER
  5
8C
330
2
100
AcDbSymbolTableRecord
100
AcDbLayerTableRecord
  2
100
 70
     0
 62
     7
  6
Continuous
290
     1
370
    -3
390
F
  0
LAYER
  5
8D
330
2
100
AcDbSymbolTableRecord
100
AcDbLayerTableRecord
  2
101
 70
     0
 62
     7
  6
Continuous
290
     1
370
    -3
390
F
  0
LAYER
  5
8E
330
2
100
AcDbSymbolTableRecord
100
AcDbLayerTableRecord
  2
102
 70
     0
 62
     7
  6
Continuous
290
     1
370
    -3
390
F
  0
LAYER
  5
8F
330
2
100
AcDbSymbolTableRecord
100
AcDbLayerTableRecord
  2
103
 70
     0
 62
     7
  6
Continuous
290
     1
370
    -3
390
F
  0
LAYER
  5
90
330
2
100
AcDbSymbolTableRecord
100
AcDbLayerTableRecord
  2
104
 70
     0
 62
     7
  6
Continuous
290
     1
370
    -3
390
F
  0
LAYER
  5
91
330
2
100
AcDbSymbolTableRecord
100
AcDbLayerTableRecord
  2
105
 70
     0
 62
     7
  6
Continuous
290
     1
370
    -3
390
F
  0
LAYER
  5
92
330
2
100
AcDbSymbolTableRecord
100
AcDbLayerTableRecord
  2
106
 70
     0
 62
     7
  6
Continuous
290
     1
370
    -3
390
F
  0
LAYER
  5
93
330
2
100
AcDbSymbolTableRecord
100
AcDbLayerTableRecord
  2
107
 70
     0
 62
     7
  6
Continuous
290
     1
370
    -3
390
F
  0
LAYER
  5
94
330
2
100
AcDbSymbolTableRecord
100
AcDbLayerTableRecord
  2
108
 70
     0
 62
     7
  6
Continuous
290
     1
370
    -3
390
F
  0
LAYER
  5
95
330
2
100
AcDbSymbolTableRecord
100
AcDbLayerTableRecord
  2
109
 70
     0
 62
     7
  6
Continuous
290
     1
370
    -3
390
F
  0
LAYER
  5
96
330
2
100
AcDbSymbolTableRecord
100
AcDbLayerTableRecord
  2
110
 70
     0
 62
     7
  6
Continuous
290
     1
370
    -3
390
F
  0
LAYER
  5
97
330
2
100
AcDbSymbolTableRecord
100
AcDbLayerTableRecord
  2
111
 70
     0
 62
     7
  6
Continuous
290
     1
370
    -3
390
F
  0
LAYER
  5
98
330
2
100
AcDbSymbolTableRecord
100
AcDbLayerTableRecord
  2
112
 70
     0
 62
     7
  6
Continuous
290
     1
370
    -3
390
F
  0
LAYER
  5
99
330
2
100
AcDbSymbolTableRecord
100
AcDbLayerTableRecord
  2
113
 70
     0
 62
     7
  6
Continuous
290
     1
370
    -3
390
F
  0
LAYER
  5
9A
330
2
100
AcDbSymbolTableRecord
100
AcDbLayerTableRecord
  2
114
 70
     0
 62
     7
  6
Continuous
290
     1
370
    -3
390
F
  0
LAYER
  5
9B
330
2
100
AcDbSymbolTableRecord
100
AcDbLayerTableRecord
  2
115
 70
     0
 62
     7
  6
Continuous
290
     1
370
    -3
390
F
  0
LAYER
  5
9C
330
2
100
AcDbSymbolTableRecord
100
AcDbLayerTableRecord
  2
116
 70
     0
 62
     7
  6
Continuous
290
     1
370
    -3
390
F
  0
LAYER
  5
9D
330
2
100
AcDbSymbolTableRecord
100
AcDbLayerTableRecord
  2
117
 70
     0
 62
     7
  6
Continuous
290
     1
370
    -3
390
F
  0
LAYER
  5
9E
330
2
100
AcDbSymbolTableRecord
100
AcDbLayerTableRecord
  2
118
 70
     0
 62
     7
  6
Continuous
290
     1
370
    -3
390
F
  0
LAYER
  5
9F
330
2
100
AcDbSymbolTableRecord
100
AcDbLayerTableRecord
  2
119
 70
     0
 62
     7
  6
Continuous
290
     1
370
    -3
390
F
  0
LAYER
  5
A0
330
2
100
AcDbSymbolTableRecord
100
AcDbLayerTableRecord
  2
120
 70
     0
 62
     7
  6
Continuous
290
     1
370
    -3
390
F
  0
LAYER
  5
A1
330
2
100
AcDbSymbolTableRecord
100
AcDbLayerTableRecord
  2
121
 70
     0
 62
     7
  6
Continuous
290
     1
370
    -3
390
F
  0
LAYER
  5
A2
330
2
100
AcDbSymbolTableRecord
100
AcDbLayerTableRecord
  2
122
 70
     0
 62
     7
  6
Continuous
290
     1
370
    -3
390
F
  0
LAYER
  5
A3
330
2
100
AcDbSymbolTableRecord
100
AcDbLayerTableRecord
  2
123
 70
     0
 62
     7
  6
Continuous
290
     1
370
    -3
390
F
  0
LAYER
  5
A4
330
2
100
AcDbSymbolTableRecord
100
AcDbLayerTableRecord
  2
124
 70
     0
 62
     7
  6
Continuous
290
     1
370
    -3
390
F
  0
LAYER
  5
A5
330
2
100
AcDbSymbolTableRecord
100
AcDbLayerTableRecord
  2
125
 70
     0
 62
     7
  6
Continuous
290
     1
370
    -3
390
F
  0
LAYER
  5
A6
330
2
100
AcDbSymbolTableRecord
100
AcDbLayerTableRecord
  2
126
 70
     0
 62
     7
  6
Continuous
290
     1
370
    -3
390
F
  0
LAYER
  5
A7
330
2
100
AcDbSymbolTableRecord
100
AcDbLayerTableRecord
  2
127
 70
     0
 62
     7
  6
Continuous
290
     1
370
    -3
390
F
  0
LAYER
  5
A8
330
2
100
AcDbSymbolTableRecord
100
AcDbLayerTableRecord
  2
128
 70
     0
 62
     7
  6
Continuous
290
     1
370
    -3
390
F
  0
ENDTAB
  0
TABLE
  2
STYLE
  5
3
330
0
100
AcDbSymbolTable
 70
    12
  0
STYLE
  5
11
330
3
100
AcDbSymbolTableRecord
100
AcDbTextStyleTableRecord
  2
Standard
 70
     0
 40
0.0
 41
1.0
 50
0.0
 71
     0
 42
2.5
  3
txt.shx
  4
extfont.shx
  0
STYLE
  5
B1
330
3
100
AcDbSymbolTableRecord
100
AcDbTextStyleTableRecord
  2
KANJI0
 70
     0
 40
6.0
 41
0.6
 50
0.0
 71
     0
 42
6.0
  3
txt.shx
  4
extfont.shx
  0
STYLE
  5
1D3
330
3
100
AcDbSymbolTableRecord
100
AcDbTextStyleTableRecord
  2
KANJI1
 70
     0
 40
6.0
 41
1.0
 50
0.0
 71
     0
 42
6.0
  3
txt.shx
  4
extfont.shx
  0
STYLE
  5
1D6
330
3
100
AcDbSymbolTableRecord
100
AcDbTextStyleTableRecord
  2
KANJI2
 70
     4
 40
5.0
 41
1.0
 50
0.0
 71
     0
 42
5.0
  3
txt.shx
  4
extfont.shx
  0
STYLE
  5
1DC
330
3
100
AcDbSymbolTableRecord
100
AcDbTextStyleTableRecord
  2
KANJI3
 70
     4
 40
5.0
 41
1.0
 50
0.0
 71
     0
 42
5.0
  3
txt.shx
  4
extfont.shx
  0
STYLE
  5
1E5
330
3
100
AcDbSymbolTableRecord
100
AcDbTextStyleTableRecord
  2
KANJI4
 70
     0
 40
6.0
 41
0.45
 50
0.0
 71
     0
 42
6.0
  3
txt.shx
  4
extfont.shx
  0
STYLE
  5
1EF
330
3
100
AcDbSymbolTableRecord
100
AcDbTextStyleTableRecord
  2
KANJI5
 70
     4
 40
3.333333333
 41
1.5
 50
0.0
 71
     0
 42
3.333333333
  3
txt.shx
  4
extfont.shx
  0
STYLE
  5
1F5
330
3
100
AcDbSymbolTableRecord
100
AcDbTextStyleTableRecord
  2
KANJI6
 70
     0
 40
6.0
 41
0.9
 50
0.0
 71
     0
 42
6.0
  3
txt.shx
  4
extfont.shx
  0
STYLE
  5
207
330
3
100
AcDbSymbolTableRecord
100
AcDbTextStyleTableRecord
  2
KANJI7
 70
     0
 40
6.0
 41
0.666666667
 50
0.0
 71
     0
 42
6.0
  3
txt.shx
  4
extfont.shx
  0
STYLE
  5
20B
330
3
100
AcDbSymbolTableRecord
100
AcDbTextStyleTableRecord
  2
KANJI8
 70
     0
 40
6.0
 41
0.333333333
 50
0.0
 71
     0
 42
6.0
  3
txt.shx
  4
extfont.shx
  0
STYLE
  5
214
330
3
100
AcDbSymbolTableRecord
100
AcDbTextStyleTableRecord
  2
KANJI9
 70
     0
 40
6.0
 41
0.6
 50
0.0
 71
     0
 42
6.0
  3
txt.shx
  4
extfont.shx
  0
STYLE
  5
216
330
3
100
AcDbSymbolTableRecord
100
AcDbTextStyleTableRecord
  2
KANJI10
 70
     0
 40
6.0
 41
0.666666667
 50
0.0
 71
     0
 42
6.0
  3
txt.shx
  4
extfont.shx
  0
ENDTAB
  0
TABLE
  2
VIEW
  5
6
330
0
100
AcDbSymbolTable
 70
     0
  0
ENDTAB
  0
TABLE
  2
UCS
  5
7
330
0
100
AcDbSymbolTable
 70
     0
  0
ENDTAB
  0
TABLE
  2
APPID
  5
9
330
0
100
AcDbSymbolTable
 70
     1
  0
APPID
  5
12
330
9
100
AcDbSymbolTableRecord
100
AcDbRegAppTableRecord
  2
ACAD
 70
     0
  0
ENDTAB
  0
TABLE
  2
DIMSTYLE
  5
A
330
0
100
AcDbSymbolTable
 70
     1
100
AcDbDimStyleTable
 71
     0
  0
DIMSTYLE
105
27
330
A
100
AcDbSymbolTableRecord
100
AcDbDimStyleTableRecord
  2
ISO-25
 70
    64
  3

  4

 40
1.0
 41
2.5
 42
0.625
 43
3.75
 44
1.25
 45
0.0
 46
0.0
 47
0.0
 48
0.0
 71
     0
 72
     0
 73
     0
 74
     0
 75
     0
 76
     0
 77
     1
 78
     8
 79
     0
140
2.5
141
2.5
142
0.0
143
0.039370079
144
1.0
145
0.0
146
1.0
147
0.625
148
0.0
170
     0
171
     3
172
     1
173
     0
174
     0
175
     0
176
     0
177
     0
178
     0
179
     0
270
     2
271
     2
272
     2
273
     2
274
     3
275
     0
276
     0
277
     2
278
    46
279
     0
280
     0
281
     0
282
     0
283
     1
284
     8
285
     0
286
     0
288
     0
289
     3
340
11
341
0
342
0
343
0
344
0
371
    -2
372
    -2
  0
ENDTAB
  0
TABLE
  2
BLOCK_RECORD
  5
1
330
0
100
AcDbSymbolTable
 70
     3
  0
BLOCK_RECORD
  5
1F
330
1
100
AcDbSymbolTableRecord
100
AcDbBlockTableRecord
  2
*Model_Space
340
22
  0
BLOCK_RECORD
  5
1B
330
1
100
AcDbSymbolTableRecord
100
AcDbBlockTableRecord
  2
*Paper_Space
340
1E
  0
BLOCK_RECORD
  5
23
330
1
100
AcDbSymbolTableRecord
100
AcDbBlockTableRecord
  2
*Paper_Space0
340
26
  0
ENDTAB
  0
ENDSEC
  0
SECTION
  2
BLOCKS
  0
BLOCK
  5
1C
330
1B
100
AcDbEntity
 67
     1
  8
0
100
AcDbBlockBegin
  2
*Paper_Space
 70
     0
 10
0.0
 20
0.0
 30
0.0
  3
*Paper_Space
  1

  0
ENDBLK
  5
1D
330
1B
100
AcDbEntity
  8
0
100
AcDbBlockEnd
  0
BLOCK
  5
20
330
1F
100
AcDbEntity
  8
0
100
AcDbBlockBegin
  2
*Model_Space
 70
     0
 10
0.0
 20
0.0
 30
0.0
  3
*Model_Space
  1

  0
ENDBLK
  5
21
330
1F
100
AcDbEntity
  8
0
100
AcDbBlockEnd
  0
BLOCK
  5
24
330
23
100
AcDbEntity
 67
     1
  8
0
100
AcDbBlockBegin
  2
*Paper_Space0
 70
     0
 10
0.0
 20
0.0
 30
0.0
  3
*Paper_Space0
  1

  0
ENDBLK
  5
25
330
23
100
AcDbEntity
  8
0
100
AcDbBlockEnd
  0
ENDSEC
  0
SECTION
  2
ENTITIES
  0
LINE
  5
A9
330
1F
100
AcDbEntity
  8
7
  6
Continuous
 62
     2
100
AcDbLine
 10
602.247256391
 20
293.918792896
 30
0.0
 11
602.247256391
 21
310.918792896
 31
0.0
  0
LINE
  5
AA
330
1F
100
AcDbEntity
  8
7
  6
Continuous
 62
     2
100
AcDbLine
 10
602.247256391
 20
306.918792896
 30
0.0
 11
597.41762726
 21
308.212888122
 31
0.0
  0
LINE
  5
AB
330
1F
100
AcDbEntity
  8
7
  6
Continuous
 62
     2
100
AcDbLine
 10
602.247256391
 20
306.918792896
 30
0.0
 11
597.41762726
 21
305.624697671
 31
0.0
  0
LWPOLYLINE
  5
AD
330
1F
100
AcDbEntity
  8
7
  6
Continuous
 62
     2
100
AcDbPolyline
 90
     3
 70
   128
 43
0.0
 10
602.247256391
 20
306.918792896
 10
367.247256391
 20
306.918792896
 10
372.076885522
 20
305.624697671
  0
LINE
  5
AE
330
1F
100
AcDbEntity
  8
7
  6
Continuous
 62
     2
100
AcDbLine
 10
367.247256391
 20
306.918792896
 30
0.0
 11
372.076885522
 21
308.212888122
 31
0.0
  0
LINE
  5
AF
330
1F
100
AcDbEntity
  8
7
  6
Continuous
 62
     2
100
AcDbLine
 10
367.247256391
 20
288.718792896
 30
0.0
 11
367.247256391
 21
310.918792896
 31
0.0
  0
TEXT
  5
B0
330
1F
100
AcDbEntity
  8
7
  6
Continuous
 62
     2
100
AcDbText
 10
478.747256391
 20
308.918792896
 30
0.0
 40
6.0
  1
２３５
 41
0.6
  7
KANJI0
 72
     5
 11
490.747256391
 21
308.918792896
 31
0.0
100
AcDbText
  0
LINE
  5
B2
330
1F
100
AcDbEntity
  8
7
  6
Continuous
 62
     2
100
AcDbLine
 10
217.542743609
 20
129.918792896
 30
0.0
 11
217.542743609
 21
112.918792896
 31
0.0
  0
LINE
  5
B3
330
1F
100
AcDbEntity
  8
7
  6
Continuous
 62
     2
100
AcDbLine
 10
217.542743609
 20
116.918792896
 30
0.0
 11
222.37237274
 21
115.624697671
 31
0.0
  0
LINE
  5
B4
330
1F
100
AcDbEntity
  8
7
  6
Continuous
 62
     2
100
AcDbLine
 10
217.542743609
 20
116.918792896
 30
0.0
 11
222.37237274
 21
118.212888122
 31
0.0
  0
LWPOLYLINE
  5
B6
330
1F
100
AcDbEntity
  8
7
  6
Continuous
 62
     2
100
AcDbPolyline
 90
     3
 70
   128
 43
0.0
 10
217.542743609
 20
116.918792896
 10
267.542743609
 20
116.918792896
 10
262.713114478
 20
118.212888122
  0
LINE
  5
B7
330
1F
100
AcDbEntity
  8
7
  6
Continuous
 62
     2
100
AcDbLine
 10
267.542743609
 20
116.918792896
 30
0.0
 11
262.713114478
 21
115.624697671
 31
0.0
  0
LINE
  5
B8
330
1F
100
AcDbEntity
  8
7
  6
Continuous
 62
     2
100
AcDbLine
 10
267.542743609
 20
129.918792896
 30
0.0
 11
267.542743609
 21
112.918792896
 31
0.0
  0
TEXT
  5
B9
330
1F
100
AcDbEntity
  8
7
  6
Continuous
 62
     2
100
AcDbText
 10
238.642743609
 20
118.918792896
 30
0.0
 40
6.0
  1
５０
 41
0.6
  7
KANJI0
 72
     5
 11
246.442743609
 21
118.918792896
 31
0.0
100
AcDbText
  0
LINE
  5
BA
330
1F
100
AcDbEntity
  8
7
  6
Continuous
 62
     2
100
AcDbLine
 10
269.542743609
 20
131.918792896
 30
0.0
 11
321.542743609
 21
131.918792896
 31
0.0
  0
LINE
  5
BB
330
1F
100
AcDbEntity
  8
7
  6
Continuous
 62
     2
100
AcDbLine
 10
317.542743609
 20
131.918792896
 30
0.0
 11
318.836838834
 21
136.748422028
 31
0.0
  0
LINE
  5
BC
330
1F
100
AcDbEntity
  8
7
  6
Continuous
 62
     2
100
AcDbLine
 10
317.542743609
 20
131.918792896
 30
0.0
 11
316.248648383
 21
136.748422028
 31
0.0
  0
LWPOLYLINE
  5
BE
330
1F
100
AcDbEntity
  8
7
  6
Continuous
 62
     2
100
AcDbPolyline
 90
     3
 70
   128
 43
0.0
 10
317.542743609
 20
131.918792896
 10
317.542743609
 20
146.918792896
 10
316.248648383
 20
142.089163765
  0
LINE
  5
BF
330
1F
100
AcDbEntity
  8
7
  6
Continuous
 62
     2
100
AcDbLine
 10
317.542743609
 20
146.918792896
 30
0.0
 11
318.836838834
 21
142.089163765
 31
0.0
  0
LINE
  5
C0
330
1F
100
AcDbEntity
  8
7
  6
Continuous
 62
     2
100
AcDbLine
 10
244.542743934
 20
146.918792896
 30
0.0
 11
321.542743609
 21
146.918792896
 31
0.0
  0
TEXT
  5
C1
330
1F
100
AcDbEntity
  8
7
  6
Continuous
 62
     2
100
AcDbText
 10
315.542743609
 20
135.518792896
 30
0.0
 40
6.0
  1
１５
 50
90.0
 41
0.6
  7
KANJI0
 72
     5
 11
315.542743609
 21
143.318792896
 31
0.0
100
AcDbText
  0
LINE
  5
C2
330
1F
100
AcDbEntity
  8
7
  6
Continuous
 62
     2
100
AcDbLine
 10
317.542743609
 20
146.918792896
 30
0.0
 11
318.836838834
 21
151.748422028
 31
0.0
  0
LINE
  5
C3
330
1F
100
AcDbEntity
  8
7
  6
Continuous
 62
     2
100
AcDbLine
 10
317.542743609
 20
146.918792896
 30
0.0
 11
316.248648383
 21
151.748422028
 31
0.0
  0
LWPOLYLINE
  5
C5
330
1F
100
AcDbEntity
  8
7
  6
Continuous
 62
     2
100
AcDbPolyline
 90
     3
 70
   128
 43
0.0
 10
317.542743609
 20
146.918792896
 10
317.542743609
 20
206.918792896
 10
316.248648383
 20
202.089163765
  0
LINE
  5
C6
330
1F
100
AcDbEntity
  8
7
  6
Continuous
 62
     2
100
AcDbLine
 10
317.542743609
 20
206.918792896
 30
0.0
 11
318.836838834
 21
202.089163765
 31
0.0
  0
LINE
  5
C7
330
1F
100
AcDbEntity
  8
7
  6
Continuous
 62
     2
100
AcDbLine
 10
244.542743934
 20
206.918792896
 30
0.0
 11
321.542743609
 21
206.918792896
 31
0.0
  0
TEXT
  5
C8
330
1F
100
AcDbEntity
  8
7
  6
Continuous
 62
     2
100
AcDbText
 10
315.542743609
 20
173.018792896
 30
0.0
 40
6.0
  1
６０
 50
90.0
 41
0.6
  7
KANJI0
 72
     5
 11
315.542743609
 21
180.818792896
 31
0.0
100
AcDbText
  0
LINE
  5
C9
330
1F
100
AcDbEntity
  8
7
  6
Continuous
 62
     2
100
AcDbLine
 10
317.542743609
 20
206.918792896
 30
0.0
 11
318.836838834
 21
211.748422028
 31
0.0
  0
LINE
  5
CA
330
1F
100
AcDbEntity
  8
7
  6
Continuous
 62
     2
100
AcDbLine
 10
317.542743609
 20
206.918792896
 30
0.0
 11
316.248648383
 21
211.748422028
 31
0.0
  0
LWPOLYLINE
  5
CC
330
1F
100
AcDbEntity
  8
7
  6
Continuous
 62
     2
100
AcDbPolyline
 90
     3
 70
   128
 43
0.0
 10
317.542743609
 20
206.918792896
 10
317.542743609
 20
266.918792896
 10
316.248648383
 20
262.089163765
  0
LINE
  5
CD
330
1F
100
AcDbEntity
  8
7
  6
Continuous
 62
     2
100
AcDbLine
 10
317.542743609
 20
266.918792896
 30
0.0
 11
318.836838834
 21
262.089163765
 31
0.0
  0
LINE
  5
CE
330
1F
100
AcDbEntity
  8
7
  6
Continuous
 62
     2
100
AcDbLine
 10
244.542743934
 20
266.918792896
 30
0.0
 11
321.542743609
 21
266.918792896
 31
0.0
  0
TEXT
  5
CF
330
1F
100
AcDbEntity
  8
7
  6
Continuous
 62
     2
100
AcDbText
 10
315.542743609
 20
233.018792896
 30
0.0
 40
6.0
  1
６０
 50
90.0
 41
0.6
  7
KANJI0
 72
     5
 11
315.542743609
 21
240.818792896
 31
0.0
100
AcDbText
  0
LINE
  5
D0
330
1F
100
AcDbEntity
  8
7
  6
Continuous
 62
     2
100
AcDbLine
 10
319.542743609
 20
131.918792896
 30
0.0
 11
336.542743609
 21
131.918792896
 31
0.0
  0
LINE
  5
D1
330
1F
100
AcDbEntity
  8
7
  6
Continuous
 62
     2
100
AcDbLine
 10
332.542743609
 20
131.918792896
 30
0.0
 11
333.836838834
 21
136.748422028
 31
0.0
  0
LINE
  5
D2
330
1F
100
AcDbEntity
  8
7
  6
Continuous
 62
     2
100
AcDbLine
 10
332.542743609
 20
131.918792896
 30
0.0
 11
331.248648383
 21
136.748422028
 31
0.0
  0
LWPOLYLINE
  5
D4
330
1F
100
AcDbEntity
  8
7
  6
Continuous
 62
     2
100
AcDbPolyline
 90
     3
 70
   128
 43
0.0
 10
332.542743609
 20
131.918792896
 10
332.542743609
 20
271.918792896
 10
331.248648383
 20
267.089163765
  0
LINE
  5
D5
330
1F
100
AcDbEntity
  8
7
  6
Continuous
 62
     2
100
AcDbLine
 10
332.542743609
 20
271.918792896
 30
0.0
 11
333.836838834
 21
267.089163765
 31
0.0
  0
LINE
  5
D6
330
1F
100
AcDbEntity
  8
7
  6
Continuous
 62
     2
100
AcDbLine
 10
309.542743609
 20
271.918792896
 30
0.0
 11
336.542743609
 21
271.918792896
 31
0.0
  0
TEXT
  5
D7
330
1F
100
AcDbEntity
  8
7
  6
Continuous
 62
     2
100
AcDbText
 10
330.542743609
 20
195.918792896
 30
0.0
 40
6.0
  1
１４０
 50
90.0
 41
0.6
  7
KANJI0
 72
     5
 11
330.542743609
 21
207.918792896
 31
0.0
100
AcDbText
  0
LINE
  5
D8
330
1F
100
AcDbEntity
  8
7
  6
Continuous
 62
     2
100
AcDbLine
 10
307.542743609
 20
293.918792896
 30
0.0
 11
307.542743609
 21
310.918792896
 31
0.0
  0
LINE
  5
D9
330
1F
100
AcDbEntity
  8
7
  6
Continuous
 62
     2
100
AcDbLine
 10
307.542743609
 20
306.918792896
 30
0.0
 11
302.713114478
 21
308.212888122
 31
0.0
  0
LINE
  5
DA
330
1F
100
AcDbEntity
  8
7
  6
Continuous
 62
     2
100
AcDbLine
 10
307.542743609
 20
306.918792896
 30
0.0
 11
302.713114478
 21
305.624697671
 31
0.0
  0
LWPOLYLINE
  5
DC
330
1F
100
AcDbEntity
  8
7
  6
Continuous
 62
     2
100
AcDbPolyline
 90
     3
 70
   128
 43
0.0
 10
307.542743609
 20
306.918792896
 10
177.542743609
 20
306.918792896
 10
182.37237274
 20
305.624697671
  0
LINE
  5
DD
330
1F
100
AcDbEntity
  8
7
  6
Continuous
 62
     2
100
AcDbLine
 10
177.542743609
 20
306.918792896
 30
0.0
 11
182.37237274
 21
308.212888122
 31
0.0
  0
LINE
  5
DE
330
1F
100
AcDbEntity
  8
7
  6
Continuous
 62
     2
100
AcDbLine
 10
177.542743609
 20
293.918792896
 30
0.0
 11
177.542743609
 21
310.918792896
 31
0.0
  0
TEXT
  5
DF
330
1F
100
AcDbEntity
  8
7
  6
Continuous
 62
     2
100
AcDbText
 10
236.542743609
 20
308.918792896
 30
0.0
 40
6.0
  1
１３０
 41
0.6
  7
KANJI0
 72
     5
 11
248.542743609
 21
308.918792896
 31
0.0
100
AcDbText
  0
LINE
  5
E0
330
1F
100
AcDbEntity
  8
7
  6
Continuous
 62
     2
100
AcDbLine
 10
602.247256391
 20
355.081207104
 30
0.0
 11
602.247256391
 21
333.081207104
 31
0.0
  0
LINE
  5
E1
330
1F
100
AcDbEntity
  8
7
  6
Continuous
 62
     2
100
AcDbLine
 10
602.247256391
 20
337.081207104
 30
0.0
 11
597.41762726
 21
338.375302329
 31
0.0
  0
LINE
  5
E2
330
1F
100
AcDbEntity
  8
7
  6
Continuous
 62
     2
100
AcDbLine
 10
602.247256391
 20
337.081207104
 30
0.0
 11
597.41762726
 21
335.787111878
 31
0.0
  0
LWPOLYLINE
  5
E4
330
1F
100
AcDbEntity
  8
7
  6
Continuous
 62
     2
100
AcDbPolyline
 90
     3
 70
   128
 43
0.0
 10
602.247256391
 20
337.081207104
 10
581.247256391
 20
337.081207104
 10
586.076885522
 20
335.787111878
  0
LINE
  5
E5
330
1F
100
AcDbEntity
  8
7
  6
Continuous
 62
     2
100
AcDbLine
 10
581.247256391
 20
337.081207104
 30
0.0
 11
586.076885522
 21
338.375302329
 31
0.0
  0
LINE
  5
E6
330
1F
100
AcDbEntity
  8
7
  6
Continuous
 62
     2
100
AcDbLine
 10
581.247256391
 20
415.081207104
 30
0.0
 11
581.247256391
 21
333.081207104
 31
0.0
  0
TEXT
  5
E7
330
1F
100
AcDbEntity
  8
7
  6
Continuous
 62
     2
100
AcDbText
 10
587.847256391
 20
339.081207104
 30
0.0
 40
6.0
  1
２１
 41
0.6
  7
KANJI0
 72
     5
 11
595.647256391
 21
339.081207104
 31
0.0
100
AcDbText
  0
LINE
  5
E8
330
1F
100
AcDbEntity
  8
7
  6
Continuous
 62
     2
100
AcDbLine
 10
581.247256391
 20
337.081207104
 30
0.0
 11
586.076885522
 21
335.787111878
 31
0.0
  0
LINE
  5
E9
330
1F
100
AcDbEntity
  8
7
  6
Continuous
 62
     2
100
AcDbLine
 10
581.247256391
 20
337.081207104
 30
0.0
 11
586.076885522
 21
338.375302329
 31
0.0
  0
LWPOLYLINE
  5
EB
330
1F
100
AcDbEntity
  8
7
  6
Continuous
 62
     2
100
AcDbPolyline
 90
     4
 70
   128
 43
0.0
 10
588.747256391
 20
337.081207104
 10
581.247256391
 20
337.081207104
 10
577.247256391
 20
337.081207104
 10
569.747256391
 20
337.081207104
  0
LINE
  5
EC
330
1F
100
AcDbEntity
  8
7
  6
Continuous
 62
     2
100
AcDbLine
 10
577.247256391
 20
337.081207104
 30
0.0
 11
572.41762726
 21
338.375302329
 31
0.0
  0
LINE
  5
ED
330
1F
100
AcDbEntity
  8
7
  6
Continuous
 62
     2
100
AcDbLine
 10
577.247256391
 20
337.081207104
 30
0.0
 11
572.41762726
 21
335.787111878
 31
0.0
  0
LINE
  5
EE
330
1F
100
AcDbEntity
  8
7
  6
Continuous
 62
     2
100
AcDbLine
 10
577.247256391
 20
415.081207104
 30
0.0
 11
577.247256391
 21
333.081207104
 31
0.0
  0
TEXT
  5
EF
330
1F
100
AcDbEntity
  8
7
  6
Continuous
 62
     2
100
AcDbText
 10
577.447256391
 20
339.081207104
 30
0.0
 40
6.0
  1
４
 41
0.6
  7
KANJI0
100
AcDbText
  0
LINE
  5
F0
330
1F
100
AcDbEntity
  8
7
  6
Continuous
 62
     2
100
AcDbLine
 10
577.247256391
 20
337.081207104
 30
0.0
 11
572.41762726
 21
338.375302329
 31
0.0
  0
LINE
  5
F1
330
1F
100
AcDbEntity
  8
7
  6
Continuous
 62
     2
100
AcDbLine
 10
577.247256391
 20
337.081207104
 30
0.0
 11
572.41762726
 21
335.787111878
 31
0.0
  0
LWPOLYLINE
  5
F3
330
1F
100
AcDbEntity
  8
7
  6
Continuous
 62
     2
100
AcDbPolyline
 90
     3
 70
   128
 43
0.0
 10
577.247256391
 20
337.081207104
 10
524.247256391
 20
337.081207104
 10
529.076885522
 20
335.787111878
  0
LINE
  5
F4
330
1F
100
AcDbEntity
  8
7
  6
Continuous
 62
     2
100
AcDbLine
 10
524.247256391
 20
337.081207104
 30
0.0
 11
529.076885522
 21
338.375302329
 31
0.0
  0
LINE
  5
F5
330
1F
100
AcDbEntity
  8
7
  6
Continuous
 62
     2
100
AcDbLine
 10
524.247256391
 20
366.081207104
 30
0.0
 11
524.247256391
 21
333.081207104
 31
0.0
  0
TEXT
  5
F6
330
1F
100
AcDbEntity
  8
7
  6
Continuous
 62
     2
100
AcDbText
 10
546.847256391
 20
339.081207104
 30
0.0
 40
6.0
  1
５３
 41
0.6
  7
KANJI0
 72
     5
 11
554.647256391
 21
339.081207104
 31
0.0
100
AcDbText
  0
LINE
  5
F7
330
1F
100
AcDbEntity
  8
7
  6
Continuous
 62
     2
100
AcDbLine
 10
526.247256391
 20
419.081207104
 30
0.0
 11
543.247256391
 21
419.081207104
 31
0.0
  0
LINE
  5
F8
330
1F
100
AcDbEntity
  8
7
  6
Continuous
 62
     2
100
AcDbLine
 10
539.247256391
 20
419.081207104
 30
0.0
 11
540.541351617
 21
423.910836235
 31
0.0
  0
LINE
  5
F9
330
1F
100
AcDbEntity
  8
7
  6
Continuous
 62
     2
100
AcDbLine
 10
539.247256391
 20
419.081207104
 30
0.0
 11
537.953161166
 21
423.910836235
 31
0.0
  0
LWPOLYLINE
  5
FB
330
1F
100
AcDbEntity
  8
7
  6
Continuous
 62
     2
100
AcDbPolyline
 90
     4
 70
   128
 43
0.0
 10
539.247256391
 20
426.581207104
 10
539.247256391
 20
419.081207104
 10
539.247256391
 20
415.081207104
 10
539.247256391
 20
407.581207104
  0
LINE
  5
FC
330
1F
100
AcDbEntity
  8
7
  6
Continuous
 62
     2
100
AcDbLine
 10
539.247256391
 20
415.081207104
 30
0.0
 11
537.953161166
 21
410.251577972
 31
0.0
  0
LINE
  5
FD
330
1F
100
AcDbEntity
  8
7
  6
Continuous
 62
     2
100
AcDbLine
 10
539.247256391
 20
415.081207104
 30
0.0
 11
540.541351617
 21
410.251577972
 31
0.0
  0
LINE
  5
FE
330
1F
100
AcDbEntity
  8
7
  6
Continuous
 62
     2
100
AcDbLine
 10
526.247256391
 20
415.081207104
 30
0.0
 11
543.247256391
 21
415.081207104
 31
0.0
  0
TEXT
  5
FF
330
1F
100
AcDbEntity
  8
7
  6
Continuous
 62
     2
100
AcDbText
 10
537.247256391
 20
415.281207104
 30
0.0
 40
6.0
  1
４
 50
90.0
 41
0.6
  7
KANJI0
100
AcDbText
  0
LINE
  5
100
330
1F
100
AcDbEntity
  8
7
  6
Continuous
 62
     2
100
AcDbLine
 10
581.247256391
 20
387.081207104
 30
0.0
 11
633.247256391
 21
387.081207104
 31
0.0
  0
LINE
  5
101
330
1F
100
AcDbEntity
  8
7
  6
Continuous
 62
     2
100
AcDbLine
 10
629.247256391
 20
387.081207104
 30
0.0
 11
630.541351617
 21
391.910836235
 31
0.0
  0
LINE
  5
102
330
1F
100
AcDbEntity
  8
7
  6
Continuous
 62
     2
100
AcDbLine
 10
629.247256391
 20
387.081207104
 30
0.0
 11
627.953161166
 21
391.910836235
 31
0.0
  0
LWPOLYLINE
  5
104
330
1F
100
AcDbEntity
  8
7
  6
Continuous
 62
     2
100
AcDbPolyline
 90
     3
 70
   128
 43
0.0
 10
629.247256391
 20
387.081207104
 10
629.247256391
 20
447.081207104
 10
627.953161166
 20
442.251577972
  0
LINE
  5
105
330
1F
100
AcDbEntity
  8
7
  6
Continuous
 62
     2
100
AcDbLine
 10
629.247256391
 20
447.081207104
 30
0.0
 11
630.541351617
 21
442.251577972
 31
0.0
  0
LINE
  5
106
330
1F
100
AcDbEntity
  8
7
  6
Continuous
 62
     2
100
AcDbLine
 10
581.247256391
 20
447.081207104
 30
0.0
 11
633.247256391
 21
447.081207104
 31
0.0
  0
TEXT
  5
107
330
1F
100
AcDbEntity
  8
7
  6
Continuous
 62
     2
100
AcDbText
 10
627.247256391
 20
413.181207104
 30
0.0
 40
6.0
  1
６０
 50
90.0
 41
0.6
  7
KANJI0
 72
     5
 11
627.247256391
 21
420.981207104
 31
0.0
100
AcDbText
  0
LINE
  5
108
330
1F
100
AcDbEntity
  8
7
  6
Continuous
 62
     2
100
AcDbLine
 10
546.247256391
 20
381.081207104
 30
0.0
 11
645.247256391
 21
381.081207104
 31
0.0
  0
LINE
  5
109
330
1F
100
AcDbEntity
  8
7
  6
Continuous
 62
     2
100
AcDbLine
 10
641.247256391
 20
381.081207104
 30
0.0
 11
642.541351617
 21
385.910836235
 31
0.0
  0
LINE
  5
10A
330
1F
100
AcDbEntity
  8
7
  6
Continuous
 62
     2
100
AcDbLine
 10
641.247256391
 20
381.081207104
 30
0.0
 11
639.953161166
 21
385.910836235
 31
0.0
  0
LWPOLYLINE
  5
10C
330
1F
100
AcDbEntity
  8
7
  6
Continuous
 62
     2
100
AcDbPolyline
 90
     3
 70
   128
 43
0.0
 10
641.247256391
 20
381.081207104
 10
641.247256391
 20
453.081207104
 10
639.953161166
 20
448.251577972
  0
LINE
  5
10D
330
1F
100
AcDbEntity
  8
7
  6
Continuous
 62
     2
100
AcDbLine
 10
641.247256391
 20
453.081207104
 30
0.0
 11
642.541351617
 21
448.251577972
 31
0.0
  0
LINE
  5
10E
330
1F
100
AcDbEntity
  8
7
  6
Continuous
 62
     2
100
AcDbLine
 10
546.247256391
 20
453.081207104
 30
0.0
 11
645.247256391
 21
453.081207104
 31
0.0
  0
TEXT
  5
10F
330
1F
100
AcDbEntity
  8
7
  6
Continuous
 62
     2
100
AcDbText
 10
639.247256391
 20
413.181207104
 30
0.0
 40
6.0
  1
７２
 50
90.0
 41
0.6
  7
KANJI0
 72
     5
 11
639.247256391
 21
420.981207104
 31
0.0
100
AcDbText
  0
LINE
  5
110
330
1F
100
AcDbEntity
  8
7
  6
Continuous
 62
     2
100
AcDbLine
 10
511.547256391
 20
438.081207104
 30
0.0
 11
621.247256391
 21
438.081207104
 31
0.0
  0
LINE
  5
111
330
1F
100
AcDbEntity
  8
7
  6
Continuous
 62
     2
100
AcDbLine
 10
617.247256391
 20
438.081207104
 30
0.0
 11
615.953161166
 21
433.251577972
 31
0.0
  0
LINE
  5
112
330
1F
100
AcDbEntity
  8
7
  6
Continuous
 62
     2
100
AcDbLine
 10
617.247256391
 20
438.081207104
 30
0.0
 11
618.541351617
 21
433.251577972
 31
0.0
  0
LWPOLYLINE
  5
114
330
1F
100
AcDbEntity
  8
7
  6
Continuous
 62
     2
100
AcDbPolyline
 90
     3
 70
   128
 43
0.0
 10
617.247256391
 20
438.081207104
 10
617.247256391
 20
396.081207104
 10
618.541351617
 20
400.910836235
  0
LINE
  5
115
330
1F
100
AcDbEntity
  8
7
  6
Continuous
 62
     2
100
AcDbLine
 10
617.247256391
 20
396.081207104
 30
0.0
 11
615.953161166
 21
400.910836235
 31
0.0
  0
LINE
  5
116
330
1F
100
AcDbEntity
  8
7
  6
Continuous
 62
     2
100
AcDbLine
 10
511.547256391
 20
396.081207104
 30
0.0
 11
621.247256391
 21
396.081207104
 31
0.0
  0
TEXT
  5
117
330
1F
100
AcDbEntity
  8
7
  6
Continuous
 62
     2
100
AcDbText
 10
615.247256391
 20
413.181207104
 30
0.0
 40
6.0
  1
４２
 50
90.0
 41
0.6
  7
KANJI0
 72
     5
 11
615.247256391
 21
420.981207104
 31
0.0
100
AcDbText
  0
LINE
  5
118
330
1F
100
AcDbEntity
  8
7
  6
Continuous
 62
     2
100
AcDbLine
 10
515.992406333
 20
391.123988119
 30
0.0
 11
513.925364075
 21
395.676716565
 31
0.0
  0
LINE
  5
119
330
1F
100
AcDbEntity
  8
7
  6
Continuous
 62
     2
100
AcDbLine
 10
515.992406333
 20
391.123988119
 30
0.0
 11
511.925931003
 21
394.03324548
 31
0.0
  0
LWPOLYLINE
  5
11B
330
1F
100
AcDbEntity
  8
7
  6
Continuous
 62
     2
100
AcDbPolyline
 90
     3
 70
   128
 43
0.0
 10
511.229992837
 20
396.917900243
 10
515.992406333
 20
391.123988119
 10
542.717102725
 20
358.610947705
  0
LINE
  5
11C
330
1F
100
AcDbEntity
  8
7
  6
Continuous
 62
     2
100
AcDbLine
 10
532.502106449
 20
371.038426089
 30
0.0
 11
534.569148708
 21
366.485697643
 31
0.0
  0
LINE
  5
11D
330
1F
100
AcDbEntity
  8
7
  6
Continuous
 62
     2
100
AcDbLine
 10
532.502106449
 20
371.038426089
 30
0.0
 11
536.568581779
 21
368.129168727
 31
0.0
  0
TEXT
  5
11E
330
1F
100
AcDbEntity
  8
7
  6
Continuous
 62
     2
100
AcDbText
 10
536.642284365
 20
369.151184036
 30
0.0
 40
6.0
  1
φ２６
 50
309.419129019
 41
0.6
  7
KANJI0
 72
     5
 11
544.262145958
 21
359.880924637
 31
0.0
100
AcDbText
  0
LINE
  5
11F
330
1F
100
AcDbEntity
  8
7
  6
Continuous
 62
     2
100
AcDbLine
 10
543.246323729
 20
384.08245025
 30
0.0
 11
547.885905038
 21
385.946393727
 31
0.0
  0
LINE
  5
120
330
1F
100
AcDbEntity
  8
7
  6
Continuous
 62
     2
100
AcDbLine
 10
543.246323729
 20
384.08245025
 30
0.0
 11
546.332347267
 21
388.016463306
 31
0.0
  0
LINE
  5
121
330
1F
100
AcDbEntity
  8
7
  6
Continuous
 62
     2
100
AcDbLine
 10
539.247256391
 20
381.081207104
 30
0.0
 11
550.65578618
 21
389.643146412
 31
0.0
  0
TEXT
  5
122
330
1F
100
AcDbEntity
  8
7
  6
Continuous
 62
     2
100
AcDbText
 10
543.216743874
 20
386.560834039
 30
0.0
 40
6.0
  1
Ｒ５
 50
36.887706484
 41
0.6
  7
KANJI0
 72
     5
 11
549.455288921
 21
391.242773348
 31
0.0
100
AcDbText
  0
LINE
  5
123
330
1F
100
AcDbEntity
  8
7
  6
Continuous
 62
     2
100
AcDbLine
 10
535.988239755
 20
386.787838807
 30
0.0
 11
531.467531118
 21
384.651675559
 31
0.0
  0
LINE
  5
124
330
1F
100
AcDbEntity
  8
7
  6
Continuous
 62
     2
100
AcDbLine
 10
535.988239755
 20
386.787838807
 30
0.0
 11
533.141272856
 21
382.677512849
 31
0.0
  0
LINE
  5
125
330
1F
100
AcDbEntity
  8
7
  6
Continuous
 62
     2
100
AcDbLine
 10
537.513755552
 20
388.081207104
 30
0.0
 11
528.80423585
 21
380.697070745
 31
0.0
  0
TEXT
  5
126
330
1F
100
AcDbEntity
  8
7
  6
Continuous
 62
     2
100
AcDbText
 10
527.510867553
 20
382.222586543
 30
0.0
 40
6.0
  1
Ｒ２
 50
40.292064893
 41
0.6
  7
KANJI0
 72
     5
 11
533.460379163
 21
387.266722901
 31
0.0
100
AcDbText
  0
LINE
  5
127
330
1F
100
AcDbEntity
  8
7
  6
Continuous
 62
     2
100
AcDbLine
 10
477.408075459
 20
396.977899009
 30
0.0
 11
473.056964956
 21
394.514600937
 31
0.0
  0
LINE
  5
128
330
1F
100
AcDbEntity
  8
7
  6
Continuous
 62
     2
100
AcDbLine
 10
477.408075459
 20
396.977899009
 30
0.0
 11
474.871552265
 21
392.66906505
 31
0.0
  0
LINE
  5
129
330
1F
100
AcDbEntity
  8
7
  6
Continuous
 62
     2
100
AcDbLine
 10
479.547256391
 20
399.081207104
 30
0.0
 11
469.601877037
 21
389.302606058
 31
0.0
  0
TEXT
  5
12A
330
1F
100
AcDbEntity
  8
7
  6
Continuous
 62
     2
100
AcDbText
 10
468.199671641
 20
390.728726679
 30
0.0
 40
6.0
  1
Ｒ３
 50
44.515540715
 41
0.6
  7
KANJI0
 72
     5
 11
473.761542064
 21
396.197327725
 31
0.0
100
AcDbText
  0
LINE
  5
12B
330
1F
100
AcDbEntity
  8
7
  6
Continuous
 62
     2
100
AcDbLine
 10
600.78508983
 20
353.547974228
 30
0.0
 11
603.28790656
 21
349.21947467
 31
0.0
  0
LINE
  5
12C
330
1F
100
AcDbEntity
  8
7
  6
Continuous
 62
     2
100
AcDbLine
 10
600.78508983
 20
353.547974228
 30
0.0
 11
605.116842478
 21
351.050792015
 31
0.0
  0
LINE
  5
12D
330
1F
100
AcDbEntity
  8
7
  6
Continuous
 62
     2
100
AcDbLine
 10
597.247256391
 20
357.081207104
 30
0.0
 11
610.456276557
 21
343.889363817
 31
0.0
  0
TEXT
  5
12E
330
1F
100
AcDbEntity
  8
7
  6
Continuous
 62
     2
100
AcDbText
 10
606.350549541
 20
350.816340479
 30
0.0
 40
6.0
  1
Ｒ５
 50
315.037277665
 41
0.6
  7
KANJI0
 72
     5
 11
611.869569707
 21
345.304497193
 31
0.0
100
AcDbText
  0
LINE
  5
12F
330
1F
100
AcDbEntity
  8
7
  6
Continuous
 62
     2
100
AcDbLine
 10
584.002445437
 20
420.117476743
 30
0.0
 11
588.20629015
 21
422.824447306
 31
0.0
  0
LINE
  5
130
330
1F
100
AcDbEntity
  8
7
  6
Continuous
 62
     2
100
AcDbLine
 10
584.002445437
 20
420.117476743
 30
0.0
 11
586.28959647
 21
424.563704374
 31
0.0
  0
LINE
  5
131
330
1F
100
AcDbEntity
  8
7
  6
Continuous
 62
     2
100
AcDbLine
 10
581.247256391
 20
417.081207104
 30
0.0
 11
596.369100327
 21
433.745760739
 31
0.0
  0
TEXT
  5
132
330
1F
100
AcDbEntity
  8
7
  6
Continuous
 62
     2
100
AcDbText
 10
584.001636468
 20
423.092787553
 30
0.0
 40
6.0
  1
Ｒ４．１
 50
47.778592654
 41
0.6
  7
KANJI0
 72
     5
 11
594.887993186
 21
435.089755395
 31
0.0
100
AcDbText
  0
LINE
  5
133
330
1F
100
AcDbEntity
  8
7
  6
Continuous
 62
     2
100
AcDbLine
 10
602.247256391
 20
479.081207104
 30
0.0
 11
602.247256391
 21
508.081207104
 31
0.0
  0
LINE
  5
134
330
1F
100
AcDbEntity
  8
7
  6
Continuous
 62
     2
100
AcDbLine
 10
602.247256391
 20
504.081207104
 30
0.0
 11
597.41762726
 21
505.375302329
 31
0.0
  0
LINE
  5
135
330
1F
100
AcDbEntity
  8
7
  6
Continuous
 62
     2
100
AcDbLine
 10
602.247256391
 20
504.081207104
 30
0.0
 11
597.41762726
 21
502.787111878
 31
0.0
  0
LWPOLYLINE
  5
137
330
1F
100
AcDbEntity
  8
7
  6
Continuous
 62
     2
100
AcDbPolyline
 90
     3
 70
   128
 43
0.0
 10
602.247256391
 20
504.081207104
 10
512.547256391
 20
504.081207104
 10
517.376885522
 20
502.787111878
  0
LINE
  5
138
330
1F
100
AcDbEntity
  8
7
  6
Continuous
 62
     2
100
AcDbLine
 10
512.547256391
 20
504.081207104
 30
0.0
 11
517.376885522
 21
505.375302329
 31
0.0
  0
LINE
  5
139
330
1F
100
AcDbEntity
  8
7
  6
Continuous
 62
     2
100
AcDbLine
 10
512.547256391
 20
437.081207104
 30
0.0
 11
512.547256391
 21
508.081207104
 31
0.0
  0
TEXT
  5
13A
330
1F
100
AcDbEntity
  8
7
  6
Continuous
 62
     2
100
AcDbText
 10
549.297256391
 20
506.081207104
 30
0.0
 40
6.0
  1
８９．７
 41
0.6
  7
KANJI0
 72
     5
 11
565.497256391
 21
506.081207104
 31
0.0
100
AcDbText
  0
LINE
  5
13B
330
1F
100
AcDbEntity
  8
7
  6
Continuous
 62
     2
100
AcDbLine
 10
512.547256391
 20
504.081207104
 30
0.0
 11
507.71762726
 21
505.375302329
 31
0.0
  0
LINE
  5
13C
330
1F
100
AcDbEntity
  8
7
  6
Continuous
 62
     2
100
AcDbLine
 10
512.547256391
 20
504.081207104
 30
0.0
 11
507.71762726
 21
502.787111878
 31
0.0
  0
LWPOLYLINE
  5
13E
330
1F
100
AcDbEntity
  8
7
  6
Continuous
 62
     2
100
AcDbPolyline
 90
     3
 70
   128
 43
0.0
 10
512.547256391
 20
504.081207104
 10
476.547256391
 20
504.081207104
 10
481.376885522
 20
502.787111878
  0
LINE
  5
13F
330
1F
100
AcDbEntity
  8
7
  6
Continuous
 62
     2
100
AcDbLine
 10
476.547256391
 20
504.081207104
 30
0.0
 11
481.376885522
 21
505.375302329
 31
0.0
  0
LINE
  5
140
330
1F
100
AcDbEntity
  8
7
  6
Continuous
 62
     2
100
AcDbLine
 10
476.547256391
 20
437.081207104
 30
0.0
 11
476.547256391
 21
508.081207104
 31
0.0
  0
TEXT
  5
141
330
1F
100
AcDbEntity
  8
7
  6
Continuous
 62
     2
100
AcDbText
 10
490.647256391
 20
506.081207104
 30
0.0
 40
6.0
  1
３６
 41
0.6
  7
KANJI0
 72
     5
 11
498.447256391
 21
506.081207104
 31
0.0
100
AcDbText
  0
LINE
  5
142
330
1F
100
AcDbEntity
  8
7
  6
Continuous
 62
     2
100
AcDbLine
 10
602.247256391
 20
492.081207104
 30
0.0
 11
597.41762726
 21
493.375302329
 31
0.0
  0
LINE
  5
143
330
1F
100
AcDbEntity
  8
7
  6
Continuous
 62
     2
100
AcDbLine
 10
602.247256391
 20
492.081207104
 30
0.0
 11
597.41762726
 21
490.787111878
 31
0.0
  0
LWPOLYLINE
  5
145
330
1F
100
AcDbEntity
  8
7
  6
Continuous
 62
     2
100
AcDbPolyline
 90
     3
 70
   128
 43
0.0
 10
602.247256391
 20
492.081207104
 10
579.247256391
 20
492.081207104
 10
584.076885522
 20
490.787111878
  0
LINE
  5
146
330
1F
100
AcDbEntity
  8
7
  6
Continuous
 62
     2
100
AcDbLine
 10
579.247256391
 20
492.081207104
 30
0.0
 11
584.076885522
 21
493.375302329
 31
0.0
  0
LINE
  5
147
330
1F
100
AcDbEntity
  8
7
  6
Continuous
 62
     2
100
AcDbLine
 10
579.247256391
 20
449.081207104
 30
0.0
 11
579.247256391
 21
496.081207104
 31
0.0
  0
TEXT
  5
148
330
1F
100
AcDbEntity
  8
7
  6
Continuous
 62
     2
100
AcDbText
 10
586.847256391
 20
494.081207104
 30
0.0
 40
6.0
  1
２３
 41
0.6
  7
KANJI0
 72
     5
 11
594.647256391
 21
494.081207104
 31
0.0
100
AcDbText
  0
LINE
  5
149
330
1F
100
AcDbEntity
  8
7
  6
Continuous
 62
     2
100
AcDbLine
 10
579.247256391
 20
492.081207104
 30
0.0
 11
574.41762726
 21
493.375302329
 31
0.0
  0
LINE
  5
14A
330
1F
100
AcDbEntity
  8
7
  6
Continuous
 62
     2
100
AcDbLine
 10
579.247256391
 20
492.081207104
 30
0.0
 11
574.41762726
 21
490.787111878
 31
0.0
  0
LWPOLYLINE
  5
14C
330
1F
100
AcDbEntity
  8
7
  6
Continuous
 62
     2
100
AcDbPolyline
 90
     3
 70
   128
 43
0.0
 10
579.247256391
 20
492.081207104
 10
554.247256391
 20
492.081207104
 10
559.076885522
 20
490.787111878
  0
LINE
  5
14D
330
1F
100
AcDbEntity
  8
7
  6
Continuous
 62
     2
100
AcDbLine
 10
554.247256391
 20
492.081207104
 30
0.0
 11
559.076885522
 21
493.375302329
 31
0.0
  0
LINE
  5
14E
330
1F
100
AcDbEntity
  8
7
  6
Continuous
 62
     2
100
AcDbLine
 10
554.247256391
 20
419.081207104
 30
0.0
 11
554.247256391
 21
496.081207104
 31
0.0
  0
TEXT
  5
14F
330
1F
100
AcDbEntity
  8
7
  6
Continuous
 62
     2
100
AcDbText
 10
562.847256391
 20
494.081207104
 30
0.0
 40
6.0
  1
２５
 41
0.6
  7
KANJI0
 72
     5
 11
570.647256391
 21
494.081207104
 31
0.0
100
AcDbText
  0
LINE
  5
150
330
1F
100
AcDbEntity
  8
7
  6
Continuous
 62
     2
100
AcDbLine
 10
539.247256391
 20
455.081207104
 30
0.0
 11
539.247256391
 21
496.081207104
 31
0.0
  0
LINE
  5
151
330
1F
100
AcDbEntity
  8
7
  6
Continuous
 62
     2
100
AcDbLine
 10
539.247256391
 20
492.081207104
 30
0.0
 11
534.41762726
 21
493.375302329
 31
0.0
  0
LINE
  5
152
330
1F
100
AcDbEntity
  8
7
  6
Continuous
 62
     2
100
AcDbLine
 10
539.247256391
 20
492.081207104
 30
0.0
 11
534.41762726
 21
490.787111878
 31
0.0
  0
LWPOLYLINE
  5
154
330
1F
100
AcDbEntity
  8
7
  6
Continuous
 62
     2
100
AcDbPolyline
 90
     3
 70
   128
 43
0.0
 10
539.247256391
 20
492.081207104
 10
509.247256391
 20
492.081207104
 10
514.076885522
 20
490.787111878
  0
LINE
  5
155
330
1F
100
AcDbEntity
  8
7
  6
Continuous
 62
     2
100
AcDbLine
 10
509.247256391
 20
492.081207104
 30
0.0
 11
514.076885522
 21
493.375302329
 31
0.0
  0
LINE
  5
156
330
1F
100
AcDbEntity
  8
7
  6
Continuous
 62
     2
100
AcDbLine
 10
509.247256391
 20
455.081207104
 30
0.0
 11
509.247256391
 21
496.081207104
 31
0.0
  0
TEXT
  5
157
330
1F
100
AcDbEntity
  8
7
  6
Continuous
 62
     2
100
AcDbText
 10
520.347256391
 20
494.081207104
 30
0.0
 40
6.0
  1
３０
 41
0.6
  7
KANJI0
 72
     5
 11
528.147256391
 21
494.081207104
 31
0.0
100
AcDbText
  0
LINE
  5
158
330
1F
100
AcDbEntity
  8
0
  6
Continuous
 62
     1
100
AcDbLine
 10
367.247256391
 20
131.918792896
 30
0.0
 11
369.847256391
 21
131.918792896
 31
0.0
  0
LINE
  5
159
330
1F
100
AcDbEntity
  8
0
  6
Continuous
 62
     1
100
AcDbLine
 10
602.247256391
 20
289.318792896
 30
0.0
 11
602.247256391
 21
291.918792896
 31
0.0
  0
LINE
  5
15A
330
1F
100
AcDbEntity
  8
0
  6
Continuous
 62
     1
100
AcDbLine
 10
369.847256391
 20
131.918792896
 30
0.0
 11
369.847256391
 21
286.718792896
 31
0.0
  0
LINE
  5
15B
330
1F
100
AcDbEntity
  8
0
  6
Continuous
 62
     1
100
AcDbLine
 10
372.447256391
 20
289.318792896
 30
0.0
 11
602.247256391
 21
289.318792896
 31
0.0
  0
ARC
  5
15C
330
1F
100
AcDbEntity
  8
0
  6
Continuous
 62
     1
100
AcDbCircle
 10
372.447256391
 20
286.718792896
 30
0.0
 40
2.6
100
AcDbArc
 50
90.0
 51
180.0
  0
LINE
  5
15D
330
1F
100
AcDbEntity
  8
0
  6
Continuous
 62
     1
100
AcDbLine
 10
367.247256391
 20
131.918792896
 30
0.0
 11
367.247256391
 21
286.718792896
 31
0.0
  0
LINE
  5
15E
330
1F
100
AcDbEntity
  8
0
  6
Continuous
 62
     1
100
AcDbLine
 10
372.447256391
 20
291.918792896
 30
0.0
 11
602.247256391
 21
291.918792896
 31
0.0
  0
ARC
  5
15F
330
1F
100
AcDbEntity
  8
0
  6
Continuous
 62
     1
100
AcDbCircle
 10
372.447256391
 20
286.718792896
 30
0.0
 40
5.2
100
AcDbArc
 50
90.0
 51
180.0
  0
LWPOLYLINE
  5
162
330
1F
100
AcDbEntity
  8
0
  6
Continuous
 62
     2
100
AcDbPolyline
 90
     4
 70
   128
 43
0.0
 10
375.347256391
 20
139.413239397
 42
0.53293871
 10
375.347256391
 20
143.166016147
 42
0.266469355
 10
375.347256391
 20
150.671569646
 42
0.53293871
 10
375.347256391
 20
154.424346396
 42
0.0
  0
LINE
  5
164
330
1F
100
AcDbEntity
  8
0
  6
Continuous
 62
     2
100
AcDbLine
 10
376.347256391
 20
152.547958021
 30
0.0
 11
376.347256391
 21
141.289627772
 31
0.0
  0
LINE
  5
165
330
1F
100
AcDbEntity
  8
0
  6
Continuous
 62
     2
100
AcDbLine
 10
369.847256391
 20
143.166016147
 30
0.0
 11
375.347256391
 21
143.166016147
 31
0.0
  0
LINE
  5
166
330
1F
100
AcDbEntity
  8
0
  6
Continuous
 62
     2
100
AcDbLine
 10
369.847256391
 20
150.671569646
 30
0.0
 11
375.347256391
 21
150.671569646
 31
0.0
  0
LINE
  5
167
330
1F
100
AcDbEntity
  8
0
  6
Continuous
 62
     2
100
AcDbLine
 10
369.847256391
 20
154.424346396
 30
0.0
 11
375.347256391
 21
154.424346396
 31
0.0
  0
LINE
  5
168
330
1F
100
AcDbEntity
  8
0
  6
Continuous
 62
     2
100
AcDbLine
 10
369.847256391
 20
139.413239397
 30
0.0
 11
375.347256391
 21
139.413239397
 31
0.0
  0
LWPOLYLINE
  5
16B
330
1F
100
AcDbEntity
  8
0
  6
Continuous
 62
     2
100
AcDbPolyline
 90
     4
 70
   128
 43
0.0
 10
375.347256391
 20
199.413239397
 42
0.53293871
 10
375.347256391
 20
203.166016147
 42
0.266469355
 10
375.347256391
 20
210.671569646
 42
0.53293871
 10
375.347256391
 20
214.424346396
 42
0.0
  0
LINE
  5
16D
330
1F
100
AcDbEntity
  8
0
  6
Continuous
 62
     2
100
AcDbLine
 10
376.347256391
 20
212.547958021
 30
0.0
 11
376.347256391
 21
201.289627772
 31
0.0
  0
LINE
  5
16E
330
1F
100
AcDbEntity
  8
0
  6
Continuous
 62
     2
100
AcDbLine
 10
369.847256391
 20
203.166016147
 30
0.0
 11
375.347256391
 21
203.166016147
 31
0.0
  0
LINE
  5
16F
330
1F
100
AcDbEntity
  8
0
  6
Continuous
 62
     2
100
AcDbLine
 10
369.847256391
 20
210.671569646
 30
0.0
 11
375.347256391
 21
210.671569646
 31
0.0
  0
LINE
  5
170
330
1F
100
AcDbEntity
  8
0
  6
Continuous
 62
     2
100
AcDbLine
 10
369.847256391
 20
214.424346396
 30
0.0
 11
375.347256391
 21
214.424346396
 31
0.0
  0
LINE
  5
171
330
1F
100
AcDbEntity
  8
0
  6
Continuous
 62
     2
100
AcDbLine
 10
369.847256391
 20
199.413239397
 30
0.0
 11
375.347256391
 21
199.413239397
 31
0.0
  0
LWPOLYLINE
  5
174
330
1F
100
AcDbEntity
  8
0
  6
Continuous
 62
     2
100
AcDbPolyline
 90
     4
 70
   128
 43
0.0
 10
375.347256391
 20
259.413239397
 42
0.53293871
 10
375.347256391
 20
263.166016147
 42
0.266469355
 10
375.347256391
 20
270.671569646
 42
0.53293871
 10
375.347256391
 20
274.424346396
 42
0.0
  0
LINE
  5
176
330
1F
100
AcDbEntity
  8
0
  6
Continuous
 62
     2
100
AcDbLine
 10
376.347256391
 20
272.547958021
 30
0.0
 11
376.347256391
 21
261.289627772
 31
0.0
  0
LINE
  5
177
330
1F
100
AcDbEntity
  8
0
  6
Continuous
 62
     2
100
AcDbLine
 10
369.847256391
 20
263.166016147
 30
0.0
 11
375.347256391
 21
263.166016147
 31
0.0
  0
LINE
  5
178
330
1F
100
AcDbEntity
  8
0
  6
Continuous
 62
     2
100
AcDbLine
 10
369.847256391
 20
270.671569646
 30
0.0
 11
375.347256391
 21
270.671569646
 31
0.0
  0
LINE
  5
179
330
1F
100
AcDbEntity
  8
0
  6
Continuous
 62
     2
100
AcDbLine
 10
369.847256391
 20
274.424346396
 30
0.0
 11
375.347256391
 21
274.424346396
 31
0.0
  0
LINE
  5
17A
330
1F
100
AcDbEntity
  8
0
  6
Continuous
 62
     2
100
AcDbLine
 10
369.847256391
 20
259.413239397
 30
0.0
 11
375.347256391
 21
259.413239397
 31
0.0
  0
LINE
  5
17B
330
1F
100
AcDbEntity
  8
0
  6
Continuous
 62
     1
100
AcDbLine
 10
307.542743609
 20
291.918792896
 30
0.0
 11
177.542743609
 21
291.918792896
 31
0.0
  0
LINE
  5
17D
330
1F
100
AcDbEntity
  8
0
  6
LTYPE1
 62
     2
100
AcDbLine
 10
307.542743609
 20
289.318792896
 30
0.0
 11
177.542743609
 21
289.318792896
 31
0.0
  0
LINE
  5
17E
330
1F
100
AcDbEntity
  8
0
  6
Continuous
 62
     1
100
AcDbLine
 10
307.542743609
 20
271.918792896
 30
0.0
 11
307.542743609
 21
291.918792896
 31
0.0
  0
LINE
  5
17F
330
1F
100
AcDbEntity
  8
0
  6
Continuous
 62
     1
100
AcDbLine
 10
177.542743609
 20
271.918792896
 30
0.0
 11
177.542743609
 21
291.918792896
 31
0.0
  0
LINE
  5
181
330
1F
100
AcDbEntity
  8
0
  6
LTYPE2
 62
     2
100
AcDbLine
 10
242.542743609
 20
131.918792896
 30
0.0
 11
242.542743609
 21
291.918792896
 31
0.0
  0
CIRCLE
  5
182
330
1F
100
AcDbEntity
  8
0
  6
Continuous
 62
     1
100
AcDbCircle
 10
242.542743934
 20
146.918792896
 30
0.0
 40
4.6
  0
CIRCLE
  5
183
330
1F
100
AcDbEntity
  8
0
  6
Continuous
 62
     2
100
AcDbCircle
 10
242.542743934
 20
146.918792896
 30
0.0
 40
3.0
  0
LWPOLYLINE
  5
185
330
1F
100
AcDbEntity
  8
0
  6
LTYPE1
 62
     2
100
AcDbPolyline
 90
     6
 70
   129
 43
0.0
 10
242.542743934
 20
154.424346396
 10
236.042743934
 20
150.671569646
 10
236.042743934
 20
143.166016147
 10
242.542743934
 20
139.413239397
 10
249.042743934
 20
143.166016147
 10
249.042743934
 20
150.671569646
  0
CIRCLE
  5
186
330
1F
100
AcDbEntity
  8
0
  6
Continuous
 62
     1
100
AcDbCircle
 10
242.542743934
 20
206.918792896
 30
0.0
 40
4.6
  0
CIRCLE
  5
187
330
1F
100
AcDbEntity
  8
0
  6
Continuous
 62
     2
100
AcDbCircle
 10
242.542743934
 20
206.918792896
 30
0.0
 40
3.0
  0
LWPOLYLINE
  5
189
330
1F
100
AcDbEntity
  8
0
  6
LTYPE1
 62
     2
100
AcDbPolyline
 90
     6
 70
   129
 43
0.0
 10
242.542743934
 20
214.424346396
 10
236.042743934
 20
210.671569646
 10
236.042743934
 20
203.166016147
 10
242.542743934
 20
199.413239397
 10
249.042743934
 20
203.166016147
 10
249.042743934
 20
210.671569646
  0
CIRCLE
  5
18A
330
1F
100
AcDbEntity
  8
0
  6
Continuous
 62
     1
100
AcDbCircle
 10
242.542743934
 20
266.918792896
 30
0.0
 40
4.6
  0
CIRCLE
  5
18B
330
1F
100
AcDbEntity
  8
0
  6
Continuous
 62
     2
100
AcDbCircle
 10
242.542743934
 20
266.918792896
 30
0.0
 40
3.0
  0
LWPOLYLINE
  5
18D
330
1F
100
AcDbEntity
  8
0
  6
LTYPE1
 62
     2
100
AcDbPolyline
 90
     6
 70
   129
 43
0.0
 10
242.542743934
 20
274.424346396
 10
236.042743934
 20
270.671569646
 10
236.042743934
 20
263.166016147
 10
242.542743934
 20
259.413239397
 10
249.042743934
 20
263.166016147
 10
249.042743934
 20
270.671569646
  0
ARC
  5
18E
330
1F
100
AcDbEntity
  8
0
  6
Continuous
 62
     1
100
AcDbCircle
 10
221.314250673
 20
136.918792896
 30
0.0
 40
5.0
100
AcDbArc
 50
195.945395901
 51
270.0
  0
LINE
  5
18F
330
1F
100
AcDbEntity
  8
0
  6
Continuous
 62
     1
100
AcDbLine
 10
216.506630222
 20
135.545189751
 30
0.0
 11
177.542743609
 21
271.918792896
 31
0.0
  0
ARC
  5
190
330
1F
100
AcDbEntity
  8
0
  6
Continuous
 62
     1
100
AcDbCircle
 10
263.771236545
 20
136.918792896
 30
0.0
 40
5.0
100
AcDbArc
 50
270.0
 51
344.054604099
  0
LINE
  5
191
330
1F
100
AcDbEntity
  8
0
  6
Continuous
 62
     1
100
AcDbLine
 10
268.578857291
 20
135.545190784
 30
0.0
 11
307.542743609
 21
271.918792896
 31
0.0
  0
LINE
  5
192
330
1F
100
AcDbEntity
  8
0
  6
Continuous
 62
     1
100
AcDbLine
 10
221.314250673
 20
131.918792896
 30
0.0
 11
263.771236545
 21
131.918792896
 31
0.0
  0
LINE
  5
194
330
1F
100
AcDbEntity
  8
0
  6
LTYPE3
 62
     2
100
AcDbLine
 10
217.542743609
 20
131.918792896
 30
0.0
 11
216.506630222
 21
135.545189751
 31
0.0
  0
LINE
  5
195
330
1F
100
AcDbEntity
  8
0
  6
LTYPE3
 62
     2
100
AcDbLine
 10
217.542743609
 20
131.918792896
 30
0.0
 11
221.314250673
 21
131.918792896
 31
0.0
  0
LINE
  5
196
330
1F
100
AcDbEntity
  8
0
  6
LTYPE3
 62
     2
100
AcDbLine
 10
267.542743609
 20
131.918792896
 30
0.0
 11
268.578857291
 21
135.545190784
 31
0.0
  0
LINE
  5
197
330
1F
100
AcDbEntity
  8
0
  6
LTYPE3
 62
     2
100
AcDbLine
 10
263.771236545
 20
131.918792896
 30
0.0
 11
267.542743609
 21
131.918792896
 31
0.0
  0
LINE
  5
198
330
1F
100
AcDbEntity
  8
0
  6
LTYPE1
 62
     2
100
AcDbLine
 10
369.847256391
 20
482.081207104
 30
0.0
 11
369.847256391
 21
352.081207104
 31
0.0
  0
ARC
  5
199
330
1F
100
AcDbEntity
  8
0
  6
Continuous
 62
     1
100
AcDbCircle
 10
597.247256391
 20
477.081207104
 30
0.0
 40
5.0
100
AcDbArc
 50
0.0
 51
90.0
  0
LINE
  5
19A
330
1F
100
AcDbEntity
  8
0
  6
Continuous
 62
     1
100
AcDbLine
 10
602.247256391
 20
477.081207104
 30
0.0
 11
602.247256391
 21
357.081207104
 31
0.0
  0
ARC
  5
19B
330
1F
100
AcDbEntity
  8
0
  6
Continuous
 62
     1
100
AcDbCircle
 10
597.247256391
 20
357.081207104
 30
0.0
 40
5.0
100
AcDbArc
 50
270.0
 51
0.0
  0
LINE
  5
19C
330
1F
100
AcDbEntity
  8
0
  6
Continuous
 62
     1
100
AcDbLine
 10
367.247256391
 20
482.081207104
 30
0.0
 11
367.247256391
 21
352.081207104
 31
0.0
  0
LWPOLYLINE
  5
19F
330
1F
100
AcDbEntity
  8
0
  6
Continuous
 62
     1
100
AcDbPolyline
 90
     2
 70
   129
 43
0.0
 10
520.668150357
 20
417.081207104
 42
1.704336207
 10
527.826362425
 20
417.081207104
 42
1.704336206
  0
LWPOLYLINE
  5
1A2
330
1F
100
AcDbEntity
  8
0
  6
Continuous
 62
     1
100
AcDbPolyline
 90
     2
 70
   129
 43
0.0
 10
579.247256391
 20
413.50210107
 42
1.704336207
 10
579.247256391
 20
420.660313137
 42
1.704336207
  0
CIRCLE
  5
1A3
330
1F
100
AcDbEntity
  8
0
  6
Continuous
 62
     1
100
AcDbCircle
 10
579.247256391
 20
387.081207104
 30
0.0
 40
1.2
  0
CIRCLE
  5
1A4
330
1F
100
AcDbEntity
  8
0
  6
Continuous
 62
     1
100
AcDbCircle
 10
554.247256391
 20
417.081207104
 30
0.0
 40
1.2
  0
CIRCLE
  5
1A5
330
1F
100
AcDbEntity
  8
0
  6
Continuous
 62
     1
100
AcDbCircle
 10
579.247256391
 20
447.081207104
 30
0.0
 40
1.2
  0
ARC
  5
1A6
330
1F
100
AcDbEntity
  8
0
  6
Continuous
 62
     1
100
AcDbCircle
 10
539.247256391
 20
381.081207104
 30
0.0
 40
5.0
100
AcDbArc
 50
269.999825147
 51
90.000174853
  0
ARC
  5
1A7
330
1F
100
AcDbEntity
  8
0
  6
Continuous
 62
     1
100
AcDbCircle
 10
509.247256391
 20
381.081207104
 30
0.0
 40
5.0
100
AcDbArc
 50
90.000247279
 51
270.0
  0
ARC
  5
1A8
330
1F
100
AcDbEntity
  8
0
  6
Continuous
 62
     1
100
AcDbCircle
 10
539.247256391
 20
453.081207104
 30
0.0
 40
5.0
100
AcDbArc
 50
269.999825147
 51
90.000174853
  0
ARC
  5
1A9
330
1F
100
AcDbEntity
  8
0
  6
Continuous
 62
     1
100
AcDbCircle
 10
509.247256391
 20
453.081207104
 30
0.0
 40
5.0
100
AcDbArc
 50
90.0
 51
269.999752721
  0
ARC
  5
1AA
330
1F
100
AcDbEntity
  8
0
  6
Continuous
 62
     1
100
AcDbCircle
 10
479.547256391
 20
399.081207104
 30
0.0
 40
3.0
100
AcDbArc
 50
180.0
 51
270.0
  0
LINE
  5
1AB
330
1F
100
AcDbEntity
  8
0
  6
Continuous
 62
     1
100
AcDbLine
 10
509.547256391
 20
396.081207104
 30
0.0
 11
479.547256391
 21
396.081207104
 31
0.0
  0
ARC
  5
1AC
330
1F
100
AcDbEntity
  8
0
  6
Continuous
 62
     1
100
AcDbCircle
 10
509.547256391
 20
399.081207104
 30
0.0
 40
3.0
100
AcDbArc
 50
270.0
 51
0.0
  0
LINE
  5
1AD
330
1F
100
AcDbEntity
  8
0
  6
Continuous
 62
     1
100
AcDbLine
 10
512.547256391
 20
399.081207104
 30
0.0
 11
512.547256391
 21
435.081207104
 31
0.0
  0
ARC
  5
1AE
330
1F
100
AcDbEntity
  8
0
  6
Continuous
 62
     1
100
AcDbCircle
 10
509.547256391
 20
435.081207104
 30
0.0
 40
3.0
100
AcDbArc
 50
360.0
 51
90.0
  0
LINE
  5
1AF
330
1F
100
AcDbEntity
  8
0
  6
Continuous
 62
     1
100
AcDbLine
 10
476.547256391
 20
399.081207104
 30
0.0
 11
476.547256391
 21
435.081207104
 31
0.0
  0
LINE
  5
1B0
330
1F
100
AcDbEntity
  8
0
  6
Continuous
 62
     1
100
AcDbLine
 10
509.547256391
 20
438.081207104
 30
0.0
 11
479.547256391
 21
438.081207104
 31
0.0
  0
ARC
  5
1B1
330
1F
100
AcDbEntity
  8
0
  6
Continuous
 62
     1
100
AcDbCircle
 10
479.547256391
 20
435.081207104
 30
0.0
 40
3.0
100
AcDbArc
 50
90.0
 51
180.0
  0
LINE
  5
1B2
330
1F
100
AcDbEntity
  8
0
  6
Continuous
 62
     1
100
AcDbLine
 10
367.247256391
 20
352.081207104
 30
0.0
 11
597.247256391
 21
352.081207104
 31
0.0
  0
LINE
  5
1B3
330
1F
100
AcDbEntity
  8
0
  6
Continuous
 62
     1
100
AcDbLine
 10
367.247256391
 20
482.081207104
 30
0.0
 11
597.247256391
 21
482.081207104
 31
0.0
  0
ARC
  5
1B4
330
1F
100
AcDbEntity
  8
0
  6
Continuous
 62
     1
100
AcDbCircle
 10
537.513755552
 20
446.081207104
 30
0.0
 40
2.0
100
AcDbArc
 50
90.00020445
 51
152.181474101
  0
LINE
  5
1B5
330
1F
100
AcDbEntity
  8
0
  6
Continuous
 62
     1
100
AcDbLine
 10
539.247241132
 20
448.081207104
 30
0.0
 11
537.513748416
 21
448.081207104
 31
0.0
  0
LINE
  5
1B6
330
1F
100
AcDbEntity
  8
0
  6
Continuous
 62
     1
100
AcDbLine
 10
537.51374746
 20
458.081207104
 30
0.0
 11
539.247241132
 21
458.081207104
 31
0.0
  0
ARC
  5
1B7
330
1F
100
AcDbEntity
  8
0
  6
Continuous
 62
     1
100
AcDbCircle
 10
537.513755552
 20
460.081207104
 30
0.0
 40
2.0
100
AcDbArc
 50
207.81775267
 51
269.999768176
  0
ARC
  5
1B8
330
1F
100
AcDbEntity
  8
0
  6
Continuous
 62
     1
100
AcDbCircle
 10
524.247256391
 20
453.081207104
 30
0.0
 40
13.0
100
AcDbArc
 50
207.818079806
 51
332.181920194
  0
LWPOLYLINE
  5
1BA
330
1F
100
AcDbEntity
  8
0
  6
Continuous
 62
     1
100
AcDbPolyline
 90
     3
 70
   128
 43
0.0
 10
512.749617487
 20
447.014552373
 42
0.27817809
 10
510.980752558
 20
448.081207104
 42
0.0
 10
509.247234812
 20
448.081207104
 42
0.0
  0
LWPOLYLINE
  5
1BD
330
1F
100
AcDbEntity
  8
0
  6
Continuous
 62
     1
100
AcDbPolyline
 90
     3
 70
   128
 43
0.0
 10
509.247256391
 20
458.081207104
 42
0.0
 10
510.980744869
 20
458.081207104
 42
0.278180943
 10
512.749623784
 20
459.14787377
 42
0.0
  0
ARC
  5
1BE
330
1F
100
AcDbEntity
  8
0
  6
Continuous
 62
     1
100
AcDbCircle
 10
524.247256391
 20
453.081207104
 30
0.0
 40
13.0
100
AcDbArc
 50
27.818198764
 51
152.181860715
  0
ARC
  5
1BF
330
1F
100
AcDbEntity
  8
0
  6
Continuous
 62
     1
100
AcDbCircle
 10
510.98075723
 20
388.081207104
 30
0.0
 40
2.0
100
AcDbArc
 50
269.99984545
 51
332.181860715
  0
LINE
  5
1C0
330
1F
100
AcDbEntity
  8
0
  6
Continuous
 62
     1
100
AcDbLine
 10
510.980751835
 20
386.081207104
 30
0.0
 11
509.247234812
 21
386.081207104
 31
0.0
  0
LINE
  5
1C1
330
1F
100
AcDbEntity
  8
0
  6
Continuous
 62
     1
100
AcDbLine
 10
509.247256391
 20
376.081207104
 30
0.0
 11
510.980751835
 21
376.081207104
 31
0.0
  0
ARC
  5
1C2
330
1F
100
AcDbEntity
  8
0
  6
Continuous
 62
     1
100
AcDbCircle
 10
510.98075723
 20
374.081207104
 30
0.0
 40
2.0
100
AcDbArc
 50
27.818139285
 51
90.00015455
  0
ARC
  5
1C3
330
1F
100
AcDbEntity
  8
0
  6
Continuous
 62
     1
100
AcDbCircle
 10
524.247256391
 20
381.081207104
 30
0.0
 40
13.0
100
AcDbArc
 50
207.818139285
 51
332.181902773
  0
ARC
  5
1C4
330
1F
100
AcDbEntity
  8
0
  6
Continuous
 62
     1
100
AcDbCircle
 10
537.513755552
 20
374.081207104
 30
0.0
 40
2.0
100
AcDbArc
 50
90.000231824
 51
152.181587338
  0
LINE
  5
1C5
330
1F
100
AcDbEntity
  8
0
  6
Continuous
 62
     1
100
AcDbLine
 10
537.51374746
 20
376.081207104
 30
0.0
 11
539.247241132
 21
376.081207104
 31
0.0
  0
ARC
  5
1C6
330
1F
100
AcDbEntity
  8
0
  6
Continuous
 62
     1
100
AcDbCircle
 10
524.247256391
 20
381.081207104
 30
0.0
 40
13.0
100
AcDbArc
 50
27.818181343
 51
152.181860715
  0
ARC
  5
1C7
330
1F
100
AcDbEntity
  8
0
  6
Continuous
 62
     1
100
AcDbCircle
 10
537.513755552
 20
388.081207104
 30
0.0
 40
2.0
100
AcDbArc
 50
207.817865907
 51
270.0
  0
LINE
  5
1C8
330
1F
100
AcDbEntity
  8
0
  6
Continuous
 62
     1
100
AcDbLine
 10
539.247241132
 20
386.081207104
 30
0.0
 11
537.513755552
 21
386.081207104
 31
0.0
  0
LINE
  5
1C9
330
1F
100
AcDbEntity
  8
0
  6
LTYPE2
 62
     2
100
AcDbLine
 10
504.247256391
 20
381.081207104
 30
0.0
 11
544.247256391
 21
381.081207104
 31
0.0
  0
LINE
  5
1CA
330
1F
100
AcDbEntity
  8
0
  6
LTYPE2
 62
     2
100
AcDbLine
 10
504.247256391
 20
453.081207104
 30
0.0
 11
544.247256391
 21
453.081207104
 31
0.0
  0
LINE
  5
1CB
330
1F
100
AcDbEntity
  8
0
  6
LTYPE2
 62
     2
100
AcDbLine
 10
524.247256391
 20
466.081207104
 30
0.0
 11
524.247256391
 21
368.081207104
 31
0.0
  0
LINE
  5
1CC
330
1F
100
AcDbEntity
  8
0
  6
LTYPE2
 62
     2
100
AcDbLine
 10
541.917256391
 20
417.081207104
 30
0.0
 11
602.247256391
 21
417.081207104
 31
0.0
  0
LINE
  5
1CD
330
1F
100
AcDbEntity
  8
0
  6
LTYPE2
 62
     2
100
AcDbLine
 10
367.247256391
 20
417.081207104
 30
0.0
 11
530.007256391
 21
417.081207104
 31
0.0
  0
CIRCLE
  5
1CE
330
1F
100
AcDbEntity
  8
0
  6
Continuous
 62
     2
100
AcDbCircle
 10
579.247256391
 20
387.081207104
 30
0.0
 40
1.5
  0
CIRCLE
  5
1CF
330
1F
100
AcDbEntity
  8
0
  6
Continuous
 62
     2
100
AcDbCircle
 10
554.247256391
 20
417.081207104
 30
0.0
 40
1.5
  0
CIRCLE
  5
1D0
330
1F
100
AcDbEntity
  8
0
  6
Continuous
 62
     2
100
AcDbCircle
 10
579.247256391
 20
447.081207104
 30
0.0
 40
1.5
  0
LINE
  5
1D1
330
1F
100
AcDbEntity
  8
2
  6
Continuous
 62
     2
100
AcDbLine
 10
445.0
 20
20.0
 30
0.0
 11
815.0
 21
20.0
 31
0.0
  0
TEXT
  5
1D2
330
1F
100
AcDbEntity
  8
2
  6
Continuous
 62
     2
100
AcDbText
 10
447.0
 20
23.0
 30
0.0
 40
6.0
  1
オオハシ産業株式会社
 41
1.0
  7
KANJI1
 72
     5
 11
527.0
 21
23.0
 31
0.0
100
AcDbText
  0
LINE
  5
1D4
330
1F
100
AcDbEntity
  8
2
  6
Continuous
 62
     2
100
AcDbLine
 10
815.0
 20
32.0
 30
0.0
 11
445.0
 21
32.0
 31
0.0
  0
TEXT
  5
1D5
330
1F
100
AcDbEntity
  8
2
  6
Continuous
 62
     2
100
AcDbText
 10
708.5
 20
55.0
 30
0.0
 40
5.0
  1
仕上
 41
1.0
  7
KANJI2
 72
     5
 11
716.0
 21
55.0
 31
0.0
100
AcDbText
  0
LINE
  5
1D7
330
1F
100
AcDbEntity
  8
2
  6
Continuous
 62
     2
100
AcDbLine
 10
705.0
 20
68.0
 30
0.0
 11
815.0
 21
68.0
 31
0.0
  0
LINE
  5
1D8
330
1F
100
AcDbEntity
  8
2
  6
Continuous
 62
     2
100
AcDbLine
 10
705.0
 20
56.0
 30
0.0
 11
815.0
 21
56.0
 31
0.0
  0
TEXT
  5
1D9
330
1F
100
AcDbEntity
  8
2
  6
Continuous
 62
     2
100
AcDbText
 10
708.5
 20
67.0
 30
0.0
 40
5.0
  1
規格
 41
1.0
  7
KANJI2
 72
     5
 11
716.0
 21
67.0
 31
0.0
100
AcDbText
  0
TEXT
  5
1DA
330
1F
100
AcDbEntity
  8
2
  6
Continuous
 62
     2
100
AcDbText
 10
708.5
 20
79.0
 30
0.0
 40
5.0
  1
材質
 41
1.0
  7
KANJI2
 72
     5
 11
716.0
 21
79.0
 31
0.0
100
AcDbText
  0
TEXT
  5
1DB
330
1F
100
AcDbEntity
  8
2
  6
Continuous
 62
     2
100
AcDbText
 10
708.5
 20
91.0
 30
0.0
 40
5.0
  1
品番
 41
1.0
  7
KANJI3
 72
     5
 11
716.0
 21
91.0
 31
0.0
100
AcDbText
  0
TEXT
  5
1DD
330
1F
100
AcDbEntity
  8
2
  6
Continuous
 62
     2
100
AcDbText
 10
708.5
 20
103.0
 30
0.0
 40
5.0
  1
図名
 41
1.0
  7
KANJI2
 72
     5
 11
716.0
 21
103.0
 31
0.0
100
AcDbText
  0
LINE
  5
1DE
330
1F
100
AcDbEntity
  8
2
  6
Continuous
 62
     2
100
AcDbLine
 10
705.0
 20
80.0
 30
0.0
 11
815.0
 21
80.0
 31
0.0
  0
LINE
  5
1DF
330
1F
100
AcDbEntity
  8
2
  6
Continuous
 62
     2
100
AcDbLine
 10
705.0
 20
92.0
 30
0.0
 11
815.0
 21
92.0
 31
0.0
  0
LINE
  5
1E0
330
1F
100
AcDbEntity
  8
2
  6
Continuous
 62
     2
100
AcDbLine
 10
705.0
 20
104.0
 30
0.0
 11
815.0
 21
104.0
 31
0.0
  0
LINE
  5
1E1
330
1F
100
AcDbEntity
  8
2
  6
Continuous
 62
     2
100
AcDbLine
 10
531.0
 20
32.0
 30
0.0
 11
531.0
 21
20.0
 31
0.0
  0
TEXT
  5
1E2
330
1F
100
AcDbEntity
  8
2
  6
Continuous
 62
     2
100
AcDbText
 10
534.5
 20
31.0
 30
0.0
 40
5.0
  1
作図
 41
1.0
  7
KANJI2
 72
     5
 11
542.0
 21
31.0
 31
0.0
100
AcDbText
  0
LINE
  5
1E3
330
1F
100
AcDbEntity
  8
2
  6
Continuous
 62
     2
100
AcDbLine
 10
571.0
 20
20.0
 30
0.0
 11
571.0
 21
32.0
 31
0.0
  0
TEXT
  5
1E4
330
1F
100
AcDbEntity
  8
2
  6
Continuous
 62
     2
100
AcDbText
 10
573.0
 20
23.0
 30
0.0
 40
6.0
  1
FD=
 41
0.9
  7
KANJI4
 72
     5
 11
582.3
 21
23.0
 31
0.0
100
AcDbText
  0
LINE
  5
1E6
330
1F
100
AcDbEntity
  8
2
  6
Continuous
 62
     2
100
AcDbLine
 10
611.0
 20
20.0
 30
0.0
 11
611.0
 21
32.0
 31
0.0
  0
TEXT
  5
1E7
330
1F
100
AcDbEntity
  8
2
  6
Continuous
 62
     2
100
AcDbText
 10
613.0
 20
23.0
 30
0.0
 40
6.0
  1
NO=
 41
0.9
  7
KANJI4
 72
     5
 11
622.3
 21
23.0
 31
0.0
100
AcDbText
  0
LINE
  5
1E8
330
1F
100
AcDbEntity
  8
2
  6
Continuous
 62
     2
100
AcDbLine
 10
661.0
 20
32.0
 30
0.0
 11
661.0
 21
20.0
 31
0.0
  0
TEXT
  5
1E9
330
1F
100
AcDbEntity
  8
2
  6
Continuous
 62
     2
100
AcDbText
 10
664.5
 20
31.0
 30
0.0
 40
5.0
  1
日付
 41
1.0
  7
KANJI2
 72
     5
 11
672.0
 21
31.0
 31
0.0
100
AcDbText
  0
LINE
  5
1EA
330
1F
100
AcDbEntity
  8
2
  6
Continuous
 62
     2
100
AcDbLine
 10
705.0
 20
20.0
 30
0.0
 11
705.0
 21
104.0
 31
0.0
  0
TEXT
  5
1EB
330
1F
100
AcDbEntity
  8
2
  6
Continuous
 62
     2
100
AcDbText
 10
664.5
 20
43.0
 30
0.0
 40
5.0
  1
尺度
 41
1.0
  7
KANJI2
 72
     5
 11
672.0
 21
43.0
 31
0.0
100
AcDbText
  0
LINE
  5
1EC
330
1F
100
AcDbEntity
  8
2
  6
Continuous
 62
     2
100
AcDbLine
 10
661.0
 20
44.0
 30
0.0
 11
815.0
 21
44.0
 31
0.0
  0
TEXT
  5
1ED
330
1F
100
AcDbEntity
  8
2
  6
Continuous
 62
     2
100
AcDbText
 10
708.5
 20
31.0
 30
0.0
 40
5.0
  1
品名
 41
1.0
  7
KANJI2
 72
     5
 11
716.0
 21
31.0
 31
0.0
100
AcDbText
  0
TEXT
  5
1EE
330
1F
100
AcDbEntity
  8
2
  6
Continuous
 62
     2
100
AcDbText
 10
708.5
 20
43.0
 30
0.0
 40
3.333333333
  1
その他
 41
1.5
  7
KANJI5
 72
     5
 11
721.0
 21
43.0
 31
0.0
100
AcDbText
  0
LINE
  5
1F0
330
1F
100
AcDbEntity
  8
2
  6
Continuous
 62
     2
100
AcDbLine
 10
815.0
 20
20.0
 30
0.0
 11
815.0
 21
104.0
 31
0.0
  0
LINE
  5
1F1
330
1F
100
AcDbEntity
  8
2
  6
Continuous
 62
     2
100
AcDbLine
 10
445.0
 20
20.0
 30
0.0
 11
445.0
 21
32.0
 31
0.0
  0
LWPOLYLINE
  5
1F3
330
1F
100
AcDbEntity
  8
2
  6
Continuous
 62
     2
100
AcDbPolyline
 90
     5
 70
   128
 43
0.0
 10
815.0
 20
100.0
 10
815.0
 20
574.0
 10
25.0
 20
574.0
 10
25.0
 20
20.0
 10
445.0
 20
20.0
  0
TEXT
  5
1F4
330
1F
100
AcDbEntity
  8
2
  6
Continuous
 62
     2
100
AcDbText
 10
717.0
 20
58.4
 30
0.0
 40
6.0
  1
－－－
 41
0.9
  7
KANJI6
 72
     5
 11
734.4
 21
58.4
 31
0.0
100
AcDbText
  0
TEXT
  5
1F6
330
1F
100
AcDbEntity
  8
2
  6
Continuous
 62
     2
100
AcDbText
 10
717.0
 20
34.4
 30
0.0
 40
6.0
  1
－－－
 41
0.9
  7
KANJI6
 72
     5
 11
734.4
 21
34.4
 31
0.0
100
AcDbText
  0
TEXT
  5
1F7
330
1F
100
AcDbEntity
  8
2
  6
Continuous
 62
     2
100
AcDbText
 10
475.0
 20
37.0
 30
0.0
 40
6.0
  1
特記　　寸法指示無い公差は±０．５以内とする．
 41
0.9
  7
KANJI6
 72
     5
 11
612.4
 21
37.0
 31
0.0
100
AcDbText
  0
LINE
  5
1F8
330
1F
100
AcDbEntity
  8
2
  6
Continuous
 62
     2
100
AcDbLine
 10
661.0
 20
56.0
 30
0.0
 11
661.0
 21
32.0
 31
0.0
  0
TEXT
  5
1F9
330
1F
100
AcDbEntity
  8
2
  6
Continuous
 62
     2
100
AcDbText
 10
664.5
 20
55.0
 30
0.0
 40
5.0
  1
用紙
 41
1.0
  7
KANJI2
 72
     5
 11
672.0
 21
55.0
 31
0.0
100
AcDbText
  0
LINE
  5
1FA
330
1F
100
AcDbEntity
  8
2
  6
Continuous
 62
     2
100
AcDbLine
 10
661.0
 20
56.0
 30
0.0
 11
705.0
 21
56.0
 31
0.0
  0
TEXT
  5
1FB
330
1F
100
AcDbEntity
  8
2
  6
Continuous
 62
     2
100
AcDbText
 10
541.0
 20
22.4
 30
0.0
 40
6.0
  1
大橋　一之
 41
0.9
  7
KANJI6
 72
     5
 11
570.4
 21
22.4
 31
0.0
100
AcDbText
  0
TEXT
  5
1FC
330
1F
100
AcDbEntity
  8
2
  6
Continuous
 62
     2
100
AcDbText
 10
717.0
 20
94.4
 30
0.0
 40
6.0
  1
アダプター
 41
0.9
  7
KANJI6
 72
     5
 11
746.4
 21
94.4
 31
0.0
100
AcDbText
  0
TEXT
  5
1FD
330
1F
100
AcDbEntity
  8
2
  6
Continuous
 62
     2
100
AcDbText
 10
717.0
 20
70.4
 30
0.0
 40
6.0
  1
SPCC t=2.6
 41
0.9
  7
KANJI4
 72
     5
 11
749.4
 21
70.4
 31
0.0
100
AcDbText
  0
TEXT
  5
1FE
330
1F
100
AcDbEntity
  8
2
  6
Continuous
 62
     2
100
AcDbText
 10
717.0
 20
46.4
 30
0.0
 40
6.0
  1
黒色半艶塗装
 41
0.9
  7
KANJI6
 72
     5
 11
752.4
 21
46.4
 31
0.0
100
AcDbText
  0
TEXT
  5
1FF
330
1F
100
AcDbEntity
  8
2
  6
Continuous
 62
     2
100
AcDbText
 10
677.0
 20
46.4
 30
0.0
 40
6.0
  1
A3
 41
0.9
  7
KANJI4
 72
     5
 11
683.0
 21
46.4
 31
0.0
100
AcDbText
  0
TEXT
  5
200
330
1F
100
AcDbEntity
  8
2
  6
Continuous
 62
     2
100
AcDbText
 10
669.0
 20
22.4
 30
0.0
 40
6.0
  1
2016/10/24
 41
0.9
  7
KANJI4
 72
     5
 11
701.4
 21
22.4
 31
0.0
100
AcDbText
  0
TEXT
  5
201
330
1F
100
AcDbEntity
  8
2
  6
Continuous
 62
     2
100
AcDbText
 10
587.0
 20
22.4
 30
0.0
 40
6.0
  1
ヒビノ
 41
0.9
  7
KANJI6
 72
     5
 11
604.4
 21
22.4
 31
0.0
100
AcDbText
  0
LINE
  5
202
330
1F
100
AcDbEntity
  8
7
  6
Continuous
 62
     2
100
AcDbLine
 10
236.487256391
 20
199.581207104
 30
0.0
 11
232.262134608
 21
196.907568026
 31
0.0
  0
LINE
  5
203
330
1F
100
AcDbEntity
  8
7
  6
Continuous
 62
     2
100
AcDbLine
 10
236.487256391
 20
199.581207104
 30
0.0
 11
234.165013132
 21
195.15320685
 31
0.0
  0
LWPOLYLINE
  5
205
330
1F
100
AcDbEntity
  8
7
  6
Continuous
 62
     2
100
AcDbPolyline
 90
     3
 70
   128
 43
0.0
 10
236.487256391
 20
199.581207104
 10
196.797256391
 20
156.531207104
 10
163.997256391
 20
156.531207104
  0
TEXT
  5
206
330
1F
100
AcDbEntity
  8
7
  6
Continuous
 62
     2
100
AcDbText
 10
163.997256391
 20
158.531207104
 30
0.0
 40
6.0
  1
3-M6溶接ナット
 41
0.666666667
  7
KANJI7
 72
     5
 11
196.797256391
 21
158.531207104
 31
0.0
100
AcDbText
  0
TEXT
  5
208
330
1F
100
AcDbEntity
  8
2
  6
Continuous
 62
     2
100
AcDbText
 10
717.0
 20
82.4
 30
0.0
 40
6.0
  1
C28B-001
 41
0.9
  7
KANJI4
 72
     5
 11
742.8
 21
82.4
 31
0.0
100
AcDbText
  0
TEXT
  5
209
330
1F
100
AcDbEntity
  8
2
  6
Continuous
 62
     2
100
AcDbText
 10
677.0
 20
34.4
 30
0.0
 40
6.0
  1
１／２
 41
0.9
  7
KANJI6
 72
     5
 11
694.4
 21
34.4
 31
0.0
100
AcDbText
  0
TEXT
  5
20A
330
1F
100
AcDbEntity
  8
2
  6
Continuous
 62
     2
100
AcDbText
 10
623.0
 20
22.4
 30
0.0
 40
6.0
  1
CTLB-C28B-001
 41
0.666666667
  7
KANJI8
 72
     5
 11
656.2
 21
22.4
 31
0.0
100
AcDbText
  0
LINE
  5
20C
330
1F
100
AcDbEntity
  8
7
  6
Continuous
 62
     2
100
AcDbLine
 10
370.447256391
 20
291.918792896
 30
0.0
 11
348.247256391
 21
291.918792896
 31
0.0
  0
LINE
  5
20D
330
1F
100
AcDbEntity
  8
7
  6
Continuous
 62
     2
100
AcDbLine
 10
352.247256391
 20
291.918792896
 30
0.0
 11
350.953161166
 21
287.089163765
 31
0.0
  0
LINE
  5
20E
330
1F
100
AcDbEntity
  8
7
  6
Continuous
 62
     2
100
AcDbLine
 10
352.247256391
 20
291.918792896
 30
0.0
 11
353.541351617
 21
287.089163765
 31
0.0
  0
LWPOLYLINE
  5
210
330
1F
100
AcDbEntity
  8
7
  6
Continuous
 62
     2
100
AcDbPolyline
 90
     3
 70
   128
 43
0.0
 10
352.247256391
 20
291.918792896
 10
352.247256391
 20
131.918792896
 10
353.541351617
 20
136.748422028
  0
LINE
  5
211
330
1F
100
AcDbEntity
  8
7
  6
Continuous
 62
     2
100
AcDbLine
 10
352.247256391
 20
131.918792896
 30
0.0
 11
350.953161166
 21
136.748422028
 31
0.0
  0
LINE
  5
212
330
1F
100
AcDbEntity
  8
7
  6
Continuous
 62
     2
100
AcDbLine
 10
365.247256391
 20
131.918792896
 30
0.0
 11
348.247256391
 21
131.918792896
 31
0.0
  0
TEXT
  5
213
330
1F
100
AcDbEntity
  8
7
  6
Continuous
 62
     2
100
AcDbText
 10
350.247256391
 20
205.918792896
 30
0.0
 40
6.0
  1
１６０
 50
90.0
 41
0.6
  7
KANJI9
 72
     5
 11
350.247256391
 21
217.918792896
 31
0.0
100
AcDbText
  0
TEXT
  5
215
330
1F
100
AcDbEntity
  8
2
  6
Continuous
 62
     2
100
AcDbText
 10
717.0
 20
22.4
 30
0.0
 40
6.0
  1
ヒビノ（株）　新　CTLB-28-1 アダプター
 41
0.666666667
  7
KANJI10
 72
     5
 11
806.8
 21
22.4
 31
0.0
100
AcDbText
  0
ENDSEC
  0
SECTION
  2
OBJECTS
  0
DICTIONARY
  5
C
330
0
100
AcDbDictionary
280
     0
281
     1
  3
ACAD_GROUP
350
D
  3
ACAD_LAYOUT
350
1A
  3
ACAD_MLINESTYLE
350
17
  3
ACAD_PLOTSETTINGS
350
19
  3
ACAD_PLOTSTYLENAME
350
E
  0
DICTIONARY
  5
D
102
{ACAD_REACTORS
330
C
102
}
330
C
100
AcDbDictionary
280
     0
281
     1
  0
DICTIONARY
  5
1A
102
{ACAD_REACTORS
330
C
102
}
330
C
100
AcDbDictionary
280
     0
281
     1
  3
Model
350
22
  3
ﾚｲｱｳﾄ1
350
1E
  3
ﾚｲｱｳﾄ2
350
26
  0
LAYOUT
  5
22
102
{ACAD_REACTORS
330
1A
102
}
330
1A
100
AcDbPlotSettings
  1

  2

  4

  6

 40
0.0
 41
0.0
 42
0.0
 43
0.0
 44
0.0
 45
0.0
 46
0.0
 47
0.0
 48
0.0
 49
0.0
140
0.0
141
0.0
142
1.0
143
1.0
 70
  1712
 72
     0
 73
     0
 74
     0
  7

 75
     0
147
1.0
148
0.0
149
0.0
100
AcDbLayout
  1
Model
 70
     1
 71
     0
 10
0.0
 20
0.0
 11
0.0
 21
0.0
 12
0.0
 22
0.0
 32
0.0
 14
0.0
 24
0.0
 34
0.0
 15
0.0
 25
0.0
 35
0.0
146
0.0
 13
0.0
 23
0.0
 33
0.0
 16
1.0
 26
0.0
 36
0.0
 17
0.0
 27
1.0
 37
0.0
 76
     0
330
1F
331
0
345
0
346
0
  0
LAYOUT
  5
1E
102
{ACAD_REACTORS
330
1A
102
}
330
1A
100
AcDbPlotSettings
  1

  2

  4

  6

 40
0.0
 41
0.0
 42
0.0
 43
0.0
 44
0.0
 45
0.0
 46
0.0
 47
0.0
 48
0.0
 49
0.0
140
0.0
141
0.0
142
1.0
143
1.0
 70
   688
 72
     0
 73
     0
 74
     5
  7

 75
    16
147
1.0
148
0.0
149
0.0
100
AcDbLayout
  1
ﾚｲｱｳﾄ1
 70
     1
 71
     1
 10
0.0
 20
0.0
 11
0.0
 21
0.0
 12
0.0
 22
0.0
 32
0.0
 14
0.0
 24
0.0
 34
0.0
 15
0.0
 25
0.0
 35
0.0
146
0.0
 13
0.0
 23
0.0
 33
0.0
 16
1.0
 26
0.0
 36
0.0
 17
0.0
 27
1.0
 37
0.0
 76
     0
330
1B
331
0
345
0
346
0
  0
LAYOUT
  5
26
102
{ACAD_REACTORS
330
1A
102
}
330
1A
100
AcDbPlotSettings
  1

  2

  4

  6

 40
0.0
 41
0.0
 42
0.0
 43
0.0
 44
0.0
 45
0.0
 46
0.0
 47
0.0
 48
0.0
 49
0.0
140
0.0
141
0.0
142
1.0
143
1.0
 70
   688
 72
     0
 73
     0
 74
     5
  7

 75
    16
147
1.0
148
0.0
149
0.0
100
AcDbLayout
  1
ﾚｲｱｳﾄ2
 70
     1
 71
     2
 10
0.0
 20
0.0
 11
0.0
 21
0.0
 12
0.0
 22
0.0
 32
0.0
 14
0.0
 24
0.0
 34
0.0
 15
0.0
 25
0.0
 35
0.0
146
0.0
 13
0.0
 23
0.0
 33
0.0
 16
1.0
 26
0.0
 36
0.0
 17
0.0
 27
1.0
 37
0.0
 76
     0
330
23
331
0
345
0
346
0
  0
DICTIONARY
  5
17
102
{ACAD_REACTORS
330
C
102
}
330
C
100
AcDbDictionary
280
     0
281
     1
  3
Standard
350
18
  0
MLINESTYLE
  5
18
102
{ACAD_REACTORS
330
17
102
}
330
17
100
AcDbMlineStyle
  2
STANDARD
 70
     0
  3

 62
   256
 51
90.0
 52
90.0
 71
     2
 49
0.5
 62
   256
  6
ByLayer
 49
-0.5
 62
   256
  6
ByLayer
  0
DICTIONARY
  5
19
102
{ACAD_REACTORS
330
C
102
}
330
C
100
AcDbDictionary
280
     0
281
     1
  0
ACDBDICTIONARYWDFLT
  5
E
330
C
100
AcDbDictionary
281
     0
  3
Normal
350
F
100
AcDbDictionaryWithDefault
340
F
  0
ACDBPLACEHOLDER
  5
F
102
{ACAD_REACTORS
330
E
102
}
330
E
  0
ENDSEC
  0
EOF
