  0
SECTION
  2
HEADER
  9
$ACADVER
  1
AC1009
  9
$INSBASE
 10
0.0
 20
0.0
 30
0.0
  9
$EXTMIN
 10
-350.02746372486848
 20
-533.98221788421051
 30
-0.0011329625585716
  9
$EXTMAX
 10
550.02746791582013
 20
804.16795378046288
 30
0.0000000259324437
  9
$LIMMIN
 10
0.0
 20
0.0
  9
$LIMMAX
 10
0.0
 20
0.0
  9
$ORTHOMODE
 70
     0
  9
$REGENMODE
 70
     1
  9
$FILLMODE
 70
     1
  9
$QTEXTMODE
 70
     0
  9
$MIRRTEXT
 70
     1
  9
$DRAGMODE
 70
     2
  9
$LTSCALE
 40
25.399999999999999
  9
$OSMODE
 70
   231
  9
$ATTMODE
 70
     1
  9
$TEXTSIZE
 40
0.0
  9
$TRACEWID
 40
1.0
  9
$TEXTSTYLE
  7
STANDARD
  9
$CLAYER
  8
DATA
  9
$CELTYPE
  6
BYLAYER
  9
$CECOLOR
 62
   256
  9
$DIMSCALE
 40
1.0
  9
$DIMASZ
 40
0.18
  9
$DIMEXO
 40
0.0625
  9
$DIMDLI
 40
0.38
  9
$DIMRND
 40
0.0
  9
$DIMDLE
 40
0.0
  9
$DIMEXE
 40
0.18
  9
$DIMTP
 40
0.0
  9
$DIMTM
 40
0.0
  9
$DIMTXT
 40
0.18
  9
$DIMCEN
 40
0.09
  9
$DIMTSZ
 40
0.0
  9
$DIMTOL
 70
     0
  9
$DIMLIM
 70
     0
  9
$DIMTIH
 70
     1
  9
$DIMTOH
 70
     1
  9
$DIMSE1
 70
     0
  9
$DIMSE2
 70
     0
  9
$DIMTAD
 70
     0
  9
$DIMZIN
 70
     0
  9
$DIMBLK
  1

  9
$DIMASO
 70
     1
  9
$DIMSHO
 70
     1
  9
$DIMPOST
  1

  9
$DIMAPOST
  1

  9
$DIMALT
 70
     0
  9
$DIMALTD
 70
     2
  9
$DIMALTF
 40
25.399999999999999
  9
$DIMLFAC
 40
1.0
  9
$DIMTOFL
 70
     0
  9
$DIMTVP
 40
0.0
  9
$DIMTIX
 70
     0
  9
$DIMSOXD
 70
     0
  9
$DIMSAH
 70
     0
  9
$DIMBLK1
  1

  9
$DIMBLK2
  1

  9
$DIMSTYLE
  2
STANDARD
  9
$DIMCLRD
 70
     0
  9
$DIMCLRE
 70
     0
  9
$DIMCLRT
 70
     0
  9
$DIMTFAC
 40
1.0
  9
$DIMGAP
 40
0.09
  9
$LUNITS
 70
     2
  9
$LUPREC
 70
     4
  9
$SKETCHINC
 40
0.1
  9
$FILLETRAD
 40
0.0
  9
$AUNITS
 70
     0
  9
$AUPREC
 70
     0
  9
$MENU
  1
acad
  9
$ELEVATION
 40
0.0
  9
$PELEVATION
 40
0.0
  9
$THICKNESS
 40
0.0
  9
$LIMCHECK
 70
     0
  9
$BLIPMODE
 70
     0
  9
$CHAMFERA
 40
0.0
  9
$CHAMFERB
 40
0.0
  9
$SKPOLY
 70
     0
  9
$TDCREATE
 40
2455155.477650464
  9
$TDUPDATE
 40
2455155.4797109258
  9
$TDINDWG
 40
0.0002722106
  9
$TDUSRTIMER
 40
0.000272037
  9
$USRTIMER
 70
     1
  9
$ANGBASE
 50
0.0
  9
$ANGDIR
 70
     0
  9
$PDMODE
 70
     1
  9
$PDSIZE
 40
-2.0
  9
$PLINEWID
 40
0.0
  9
$COORDS
 70
     1
  9
$SPLFRAME
 70
     0
  9
$SPLINETYPE
 70
     6
  9
$SPLINESEGS
 70
     8
  9
$ATTDIA
 70
     0
  9
$ATTREQ
 70
     1
  9
$HANDLING
 70
     1
  9
$HANDSEED
  5
1279
  9
$SURFTAB1
 70
     6
  9
$SURFTAB2
 70
     6
  9
$SURFTYPE
 70
     6
  9
$SURFU
 70
     6
  9
$SURFV
 70
     6
  9
$UCSNAME
  2

  9
$UCSORG
 10
0.0
 20
0.0
 30
0.0
  9
$UCSXDIR
 10
1.0
 20
0.0
 30
0.0
  9
$UCSYDIR
 10
0.0
 20
1.0
 30
0.0
  9
$PUCSNAME
  2

  9
$PUCSORG
 10
0.0
 20
0.0
 30
0.0
  9
$PUCSXDIR
 10
1.0
 20
0.0
 30
0.0
  9
$PUCSYDIR
 10
0.0
 20
1.0
 30
0.0
  9
$USERI1
 70
     0
  9
$USERI2
 70
     0
  9
$USERI3
 70
     0
  9
$USERI4
 70
     0
  9
$USERI5
 70
     0
  9
$USERR1
 40
0.0
  9
$USERR2
 40
0.0
  9
$USERR3
 40
0.0
  9
$USERR4
 40
0.0
  9
$USERR5
 40
0.0
  9
$WORLDVIEW
 70
     1
  9
$SHADEDGE
 70
     3
  9
$SHADEDIF
 70
    70
  9
$TILEMODE
 70
     1
  9
$MAXACTVP
 70
    64
  9
$PLIMCHECK
 70
     0
  9
$PEXTMIN
 10
1.0000000000000000E+020
 20
1.0000000000000000E+020
 30
1.0000000000000000E+020
  9
$PEXTMAX
 10
-1.0000000000000000E+020
 20
-1.0000000000000000E+020
 30
-1.0000000000000000E+020
  9
$PLIMMIN
 10
0.0
 20
0.0
  9
$PLIMMAX
 10
12.0
 20
9.0
  9
$UNITMODE
 70
     0
  9
$VISRETAIN
 70
     0
  9
$PLINEGEN
 70
     1
  9
$PSLTSCALE
 70
     0
  0
ENDSEC
  0
SECTION
  2
TABLES
  0
TABLE
  2
VPORT
 70
     1
  0
VPORT
  2
*ACTIVE
 70
     0
 10
0.0
 20
0.0
 11
1.0
 21
1.0
 12
100.00000209547581
 22
135.09286794812621
 13
0.0
 23
0.0
 14
1.0
 24
1.0
 15
0.0
 25
0.0
 16
0.0
 26
0.0
 36
1.0
 17
0.0
 27
0.0
 37
0.0
 40
1348.0015839714069
 41
1.9729729729729719
 42
50.0
 43
0.0
 44
0.0
 50
0.0
 51
0.0
 71
     0
 72
  2000
 73
     1
 74
     1
 75
     0
 76
     0
 77
     0
 78
     0
  0
ENDTAB
  0
TABLE
  2
LTYPE
 70
    13
  0
LTYPE
  2
CONTINUOUS
 70
     0
  3
Solid line
 72
    65
 73
     0
 40
0.0
  0
ENDTAB
  0
TABLE
  2
LAYER
 70
     5
  0
LAYER
  2
0
 70
     0
 62
     7
  6
CONTINUOUS
  0
LAYER
  2
DATA
 70
     0
 62
     7
  6
CONTINUOUS
  0
LAYER
  2
HIBINO-BASE
 70
     0
 62
     7
  6
CONTINUOUS
  0
LAYER
  2
SPEC
 70
     0
 62
     7
  6
CONTINUOUS
  0
LAYER
  2
DIMNSIONS
 70
     0
 62
     7
  6
CONTINUOUS
  0
ENDTAB
  0
TABLE
  2
STYLE
 70
     3
  0
STYLE
  2
STANDARD
 70
     0
 40
0.0
 41
1.0
 50
0.0
 71
     0
 42
0.0
  3
txt
  4
BIGFONT.SHX
  0
ENDTAB
  0
TABLE
  2
VIEW
 70
     0
  0
ENDTAB
  0
TABLE
  2
UCS
 70
     0
  0
ENDTAB
  0
TABLE
  2
APPID
 70
     3
  0
APPID
  2
ACAD
 70
     0
  0
APPID
  2
ACADANNOTATIVE
 70
     0
  0
APPID
  2
ACAD_MLEADERVER
 70
     0
  0
ENDTAB
  0
TABLE
  2
DIMSTYLE
 70
     2
  0
DIMSTYLE
  2
STANDARD
 70
     0
  3

  4

  5

  6

  7

 40
1.0
 41
0.18
 42
0.0625
 43
0.38
 44
0.18
 45
0.0
 46
0.0
 47
0.0
 48
0.0
140
0.18
141
0.09
142
0.0
143
25.399999999999999
144
1.0
145
0.0
146
1.0
147
0.09
 71
     0
 72
     0
 73
     1
 74
     1
 75
     0
 76
     0
 77
     0
 78
     0
170
     0
171
     2
172
     0
173
     0
174
     0
175
     0
176
     0
177
     0
178
     0
  0
ENDTAB
  0
ENDSEC
  0
SECTION
  2
BLOCKS
  0
BLOCK
  8
0
  2
$MODEL_SPACE
 70
     0
 10
0.0
 20
0.0
 30
0.0
  3
$MODEL_SPACE
  1

  0
ENDBLK
  5
AFF
  8
0
  0
BLOCK
 67
     1
  8
0
  2
$PAPER_SPACE
 70
     0
 10
0.0
 20
0.0
 30
0.0
  3
$PAPER_SPACE
  1

  0
ENDBLK
  5
AFB
 67
     1
  8
0
  0
BLOCK
  8
DATA
  2
____
 70
     0
 10
0.0
 20
0.0
 30
0.0
  3
____
  1

  0
LINE
  5
30
  8
0
  6
CONTINUOUS
 62
     7
 10
329.27354231499987
 20
275.30107518999989
 30
0.0
 11
327.85932875299989
 21
276.71528875199999
 31
0.0
  0
LINE
  5
31
  8
0
  6
CONTINUOUS
 62
     7
 10
336.34461012700001
 20
282.37214300199997
 30
0.0
 11
334.93039656500002
 21
283.78635656400002
 31
0.0
  0
LINE
  5
32
  8
0
  6
CONTINUOUS
 62
     7
 10
350.486745751
 20
296.51427862499992
 30
0.0
 11
349.07253218900013
 21
297.92849218799989
 31
0.0
  0
LINE
  5
33
  8
0
  6
CONTINUOUS
 62
     7
 10
355.55781356300002
 20
304.41377356200002
 30
0.0
 11
327.85932875299989
 21
276.71528875199999
 31
0.0
  0
LINE
  5
34
  8
0
  6
CONTINUOUS
 62
     7
 10
356.14359999999999
 20
309.99955999999997
 30
0.0
 11
356.14359999999999
 21
305.827987124
 31
0.0
  0
ARC
  5
35
  8
0
  6
CONTINUOUS
 62
     7
 10
354.14359999999999
 20
305.827987124
 30
0.0
 40
2.0000000000000151
 50
315.0
 51
0.0
  0
LINE
  5
36
  8
0
  6
CONTINUOUS
 62
     7
 10
358.14359999999999
 20
309.99955999999997
 30
0.0
 11
358.14359999999999
 21
305.82799013999988
 31
0.0
  0
ARC
  5
37
  8
0
  6
CONTINUOUS
 62
     7
 10
354.14359999999999
 20
305.827987124
 30
0.0
 40
3.9999999999998912
 50
315.00007727499838
 51
0.0000431979993323
  0
LINE
  5
38
  8
0
  6
CONTINUOUS
 62
     7
 10
356.97203094000008
 20
302.99956381399988
 30
0.0
 11
329.27354231499987
 21
275.30107518999989
 31
0.0
  0
ENDBLK
  5
39
  8
DATA
  0
ENDSEC
  0
SECTION
  2
ENTITIES
  0
LINE
  5
3A
  8
HIBINO-BASE
  6
CONTINUOUS
 62
     7
 10
-350.0
 20
804.1271999999999
 30
0.0
 11
549.99999999999989
 21
804.1271999999999
 31
0.0
  0
LINE
  5
3B
  8
HIBINO-BASE
  6
CONTINUOUS
 62
     7
 10
549.99999999999989
 20
-495.87279999999993
 30
0.0
 11
-350.0
 21
-495.87279999999993
 31
0.0
  0
LINE
  5
3C
  8
HIBINO-BASE
  6
CONTINUOUS
 62
     7
 10
-350.0
 20
-495.87279999999993
 30
0.0
 11
-350.0
 21
804.1271999999999
 31
0.0
  0
TEXT
  5
3D
  8
HIBINO-BASE
 62
     7
 10
-314.07999999999998
 20
-527.91605999999979
 30
0.0
 40
18.00010546875
  1
Hibino Corporation
 41
0.7
 11
-314.07999999999998
 21
-509.91595453124978
 31
0.0
 73
     3
  0
LINE
  5
3E
  8
HIBINO-BASE
  6
CONTINUOUS
 62
     7
 10
549.99999999999989
 20
804.1271999999999
 30
0.0
 11
549.99999999999989
 21
-495.87279999999993
 31
0.0
  0
LINE
  5
3F
  8
HIBINO-BASE
  6
CONTINUOUS
 62
     7
 10
100.0
 20
-383.37279999999998
 30
0.0
 11
549.99999999999989
 21
-383.37279999999998
 31
0.0
  0
LINE
  5
40
  8
HIBINO-BASE
  6
CONTINUOUS
 62
     7
 10
100.0
 20
-495.87279999999993
 30
0.0
 11
100.0
 21
-383.37279999999998
 31
0.0
  0
TEXT
  5
41
  8
HIBINO-BASE
 62
     7
 10
104.5
 20
-396.87293
 30
0.0
 40
9.0000527343750001
  1
NOTE
 41
0.7
 11
104.5
 21
-387.87287726562488
 31
0.0
 73
     3
  0
LINE
  5
42
  8
HIBINO-BASE
  6
CONTINUOUS
 62
     7
 10
275.0
 20
-495.87279999999993
 30
0.0
 11
275.0
 21
-383.37279999999998
 31
0.0
  0
TEXT
  5
43
  8
HIBINO-BASE
 62
     7
 10
279.49999999999989
 20
-396.87293
 30
0.0
 40
9.0000527343750001
  1
TITLE
 41
0.7
 11
279.49999999999989
 21
-387.87287726562488
 31
0.0
 73
     3
  0
TEXT
  5
44
  8
HIBINO-BASE
 62
     7
 10
350.34199999999998
 20
-527.91605999999979
 30
0.0
 40
18.00010546875
  1
ヒビノ株式会社
 41
0.7
 11
350.34199999999998
 21
-509.91595453124978
 31
0.0
 73
     3
  0
LINE
  5
45
  8
HIBINO-BASE
  6
CONTINUOUS
 62
     7
 10
100.0
 20
-445.87279999999993
 30
0.0
 11
549.99999999999989
 21
-445.87279999999993
 31
0.0
  0
TEXT
  5
46
  8
HIBINO-BASE
 62
     7
 10
341.99999999999989
 20
-459.09092999999979
 30
0.0
 40
9.0000527343750001
  1
DRAWN
 41
0.7
 11
341.99999999999989
 21
-450.0908772656249
 31
0.0
 73
     3
  0
TEXT
  5
47
  8
HIBINO-BASE
 62
     7
 10
217.0
 20
-459.09092999999979
 30
0.0
 40
9.0000527343750001
  1
DATE
 41
0.7
 11
217.0
 21
-450.0908772656249
 31
0.0
 73
     3
  0
TEXT
  5
48
  8
HIBINO-BASE
 62
     7
 10
105.5
 20
-458.97010999999992
 30
0.0
 40
8.1443339843750007
  1
図面サイズ
 41
0.7
 11
105.5
 21
-450.82577601562491
 31
0.0
 73
     3
  0
TEXT
  5
49
  8
HIBINO-BASE
 62
     7
 10
167.0
 20
-459.09092999999979
 30
0.0
 40
9.0000527343750001
  1
SCALE
 41
0.7
 11
167.0
 21
-450.0908772656249
 31
0.0
 73
     3
  0
TEXT
  5
4A
  8
HIBINO-BASE
 62
     7
 10
279.49999999999989
 20
-459.09092999999979
 30
0.0
 40
9.0000527343750001
  1
DESIGN
 41
0.7
 11
279.49999999999989
 21
-450.0908772656249
 31
0.0
 73
     3
  0
TEXT
  5
4B
  8
HIBINO-BASE
 62
     7
 10
467.0
 20
-459.09092999999979
 30
0.0
 40
9.0000527343750001
  1
DRAWING NO.
 41
0.7
 11
467.0
 21
-450.0908772656249
 31
0.0
 73
     3
  0
TEXT
  5
4C
  8
HIBINO-BASE
 62
     7
 10
404.49999999999989
 20
-459.09092999999979
 30
0.0
 40
9.0000527343750001
  1
CHECK
 41
0.7
 11
404.49999999999989
 21
-450.0908772656249
 31
0.0
 73
     3
  0
LINE
  5
4D
  8
HIBINO-BASE
  6
CONTINUOUS
 62
     7
 10
171.875
 20
-489.62279999999993
 30
0.0
 11
190.625
 21
-470.87279999999993
 31
0.0
  0
TEXT
  5
4E
  8
HIBINO-BASE
 62
     7
 10
168.75
 20
-479.45125999999988
 30
0.0
 40
10.858855468750001
  1
1
 41
0.7
 11
168.75
 21
-468.59240453124988
 31
0.0
 73
     3
  0
LINE
  5
4F
  8
HIBINO-BASE
  6
CONTINUOUS
 62
     7
 10
162.5
 20
-495.87279999999993
 30
0.0
 11
162.5
 21
-445.87279999999993
 31
0.0
  0
LINE
  5
50
  8
HIBINO-BASE
  6
CONTINUOUS
 62
     7
 10
212.5
 20
-495.87279999999993
 30
0.0
 11
212.5
 21
-445.87279999999993
 31
0.0
  0
LINE
  5
51
  8
HIBINO-BASE
  6
CONTINUOUS
 62
     7
 10
337.5
 20
-445.87279999999993
 30
0.0
 11
337.5
 21
-495.87279999999993
 31
0.0
  0
LINE
  5
52
  8
HIBINO-BASE
  6
CONTINUOUS
 62
     7
 10
462.5
 20
-445.87279999999993
 30
0.0
 11
462.5
 21
-495.87279999999993
 31
0.0
  0
LINE
  5
53
  8
HIBINO-BASE
  6
CONTINUOUS
 62
     7
 10
400.0
 20
-495.87279999999993
 30
0.0
 11
400.0
 21
-445.87279999999993
 31
0.0
  0
TEXT
  5
54
  8
HIBINO-BASE
 62
     7
 10
119.5545
 20
-483.38048999999978
 30
0.0
 40
16.288283203125001
  1
A4
 41
0.7
 11
119.5545
 21
-467.09220679687479
 31
0.0
 73
     3
  0
TEXT
  5
55
  8
HIBINO-BASE
 62
     7
 10
216.7825
 20
-482.5109299999998
 30
0.0
 40
9.0000527343750001
  1
'03.05.
 41
0.7
 11
216.7825
 21
-473.5108772656248
 31
0.0
 73
     3
  0
TEXT
  5
56
  8
HIBINO-BASE
 62
     7
 10
187.5
 20
-488.82625999999988
 30
0.0
 40
10.858855468750001
  1
5
 41
0.7
 11
187.5
 21
-477.96740453124988
 31
0.0
 73
     3
  0
TEXT
  5
57
  8
HIBINO-BASE
 62
     7
 10
345.02905005517312
 20
-481.55456666666652
 30
0.0
 40
8.1442057291666661
  1
N.Sasaki
 41
0.7
 11
345.02905005517312
 21
-473.41036093749977
 31
0.0
 73
     3
  0
LINE
  5
58
  8
SPEC
  6
CONTINUOUS
 62
     7
 10
-312.5
 20
716.6271999999999
 30
0.0
 11
100.0
 21
716.6271999999999
 31
0.0
  0
LINE
  5
59
  8
SPEC
  6
CONTINUOUS
 62
     7
 10
-312.5
 20
735.3771999999999
 30
0.0
 11
100.0
 21
735.3771999999999
 31
0.0
  0
LINE
  5
5A
  8
SPEC
  6
CONTINUOUS
 62
     7
 10
-312.5
 20
754.1271999999999
 30
0.0
 11
100.0
 21
754.1271999999999
 31
0.0
  0
LINE
  5
5B
  8
SPEC
  6
CONTINUOUS
 62
     7
 10
-312.5
 20
754.1271999999999
 30
0.0
 11
-312.5
 21
716.6271999999999
 31
0.0
  0
TEXT
  5
5C
  8
SPEC
 62
     7
 10
-306.25
 20
761.09369999999979
 30
0.0
 40
12.21630859375
  1
仕様
 41
0.7
 11
-306.25
 21
773.3100085937499
 31
0.0
 73
     3
  0
LINE
  5
5D
  8
SPEC
  6
CONTINUOUS
 62
     7
 10
-150.0
 20
754.1271999999999
 30
0.0
 11
-150.0
 21
716.6271999999999
 31
0.0
  0
LINE
  5
5E
  8
SPEC
  6
CONTINUOUS
 62
     7
 10
100.0
 20
754.1271999999999
 30
0.0
 11
100.0
 21
716.6271999999999
 31
0.0
  0
TEXT
  5
5F
  8
SPEC
 62
     7
 10
-308.0
 20
739.31677999999965
 30
0.0
 40
9.5014023437499997
  1
寸法
 41
0.7
 11
-308.0
 21
748.81818234374964
 31
0.0
 73
     3
  0
TEXT
  5
60
  8
SPEC
 62
     7
 10
-308.0
 20
720.56677999999965
 30
0.0
 40
9.5014023437499997
  1
重量
 41
0.7
 11
-308.0
 21
730.06818234374964
 31
0.0
 73
     3
  0
TEXT
  5
61
  8
SPEC
 62
     7
 10
-145.5
 20
739.31677999999965
 30
0.0
 40
9.5014023437499997
  1
145(W)×225(H)×155(D)mm
 41
0.7
 11
-145.5
 21
748.81818234374964
 31
0.0
 73
     3
  0
TEXT
  5
62
  8
SPEC
 62
     7
 10
-145.5
 20
720.56677999999965
 30
0.0
 40
9.5014023437499997
  1
約2.5kg(1個)
 41
0.7
 11
-145.5
 21
730.06818234374964
 31
0.0
 73
     3
  0
LINE
  5
63
  8
DIMNSIONS
  6
CONTINUOUS
 62
     7
 10
361.99416179186881
 20
460.6494596542023
 30
0.0
 11
400.0
 21
350.0
 31
0.0
  0
LINE
  5
64
  8
DIMNSIONS
  6
CONTINUOUS
 62
     7
 10
361.99416179186881
 20
460.6494596542023
 30
0.0
 11
369.23245251237188
 21
449.91825235323631
 31
0.0
  0
LINE
  5
65
  8
DIMNSIONS
  6
CONTINUOUS
 62
     7
 10
361.99416179186881
 20
460.6494596542023
 30
0.0
 11
362.89710178531868
 21
447.73681615803719
 31
0.0
  0
LINE
  5
66
  8
DIMNSIONS
  6
CONTINUOUS
 62
     7
 10
400.0
 20
350.0
 30
0.0
 11
471.73611111111109
 21
350.0
 31
0.0
  0
TEXT
  5
67
  8
DIMNSIONS
 62
     7
 10
410.0
 20
354.96944444444438
 30
0.0
 40
13.57367621527778
  1
6-φ9.2
 41
0.7
 11
410.0
 21
368.54312065972221
 31
0.0
 73
     3
  0
LINE
  5
68
  8
DIMNSIONS
  6
CONTINUOUS
 62
     7
 10
267.33060049769892
 20
-188.62597584415971
 30
0.0
 11
325.0
 21
-262.5
 31
0.0
  0
LINE
  5
69
  8
DIMNSIONS
  6
CONTINUOUS
 62
     7
 10
267.33060049769892
 20
-188.62597584415971
 30
0.0
 11
277.66827818559528
 21
-196.41597473453129
 31
0.0
  0
LINE
  5
6A
  8
DIMNSIONS
  6
CONTINUOUS
 62
     7
 10
267.33060049769892
 20
-188.62597584415971
 30
0.0
 11
272.38829254636693
 21
-200.54115162262241
 31
0.0
  0
LINE
  5
6B
  8
DIMNSIONS
  6
CONTINUOUS
 62
     7
 10
325.0
 20
-262.5
 30
0.0
 11
396.73611111111109
 21
-262.5
 31
0.0
  0
TEXT
  5
6C
  8
DIMNSIONS
 62
     7
 10
335.0
 20
-257.53055555555551
 30
0.0
 40
13.57367621527778
  1
6-φ9.2
 41
0.7
 11
335.0
 21
-243.95687934027771
 31
0.0
 73
     3
  0
TEXT
  5
6D
  8
DIMNSIONS
 62
     7
 10
-0.0000000000000007
 20
-434.52530000000002
 30
0.0
 40
12.21630859375
  1
(単位：mm)
 41
0.7
 11
0.0
 21
-422.30899140625002
 31
0.0
 73
     3
  0
LINE
  5
6E
  8
DIMNSIONS
  6
CONTINUOUS
 62
     7
 10
-185.0
 20
200.0
 30
0.0
 11
-260.0
 21
200.0
 31
0.0
  0
LINE
  5
6F
  8
DIMNSIONS
  6
CONTINUOUS
 62
     7
 10
-207.5
 20
354.62639999999999
 30
0.0
 11
-260.0
 21
354.62639999999999
 31
0.0
  0
LINE
  5
70
  8
DIMNSIONS
  6
CONTINUOUS
 62
     7
 10
-250.0
 20
200.0
 30
0.0
 11
-250.0
 21
354.62639999999999
 31
0.0
  0
LINE
  5
71
  8
DIMNSIONS
  6
CONTINUOUS
 62
     7
 10
-250.0
 20
200.0
 30
0.0
 11
-253.3501989757512
 21
212.50311279296881
 31
0.0
  0
LINE
  5
72
  8
DIMNSIONS
  6
CONTINUOUS
 62
     7
 10
-250.0
 20
200.0
 30
0.0
 11
-246.6498010242488
 21
212.50311279296881
 31
0.0
  0
LINE
  5
73
  8
DIMNSIONS
  6
CONTINUOUS
 62
     7
 10
-250.0
 20
354.62639999999999
 30
0.0
 11
-246.6498010242488
 21
342.1232872070313
 31
0.0
  0
LINE
  5
74
  8
DIMNSIONS
  6
CONTINUOUS
 62
     7
 10
-250.0
 20
354.62639999999999
 30
0.0
 11
-253.3501989757512
 21
342.1232872070313
 31
0.0
  0
TEXT
  5
75
  8
DIMNSIONS
 62
     7
 10
-254.7225
 20
265.4069491589122
 30
0.0
 40
12.21630859375
  1
155
 50
90.0
 41
0.7
 11
-266.93880859375003
 21
265.4069491589122
 31
0.0
 73
     3
  0
LINE
  5
76
  8
DIMNSIONS
  6
CONTINUOUS
 62
     7
 10
-173.4708
 20
-24.09690000000003
 30
0.0
 11
-235.0
 21
-24.09690000000003
 31
0.0
  0
LINE
  5
77
  8
DIMNSIONS
  6
CONTINUOUS
 62
     7
 10
-173.4708
 20
-151.09690000000001
 30
0.0
 11
-235.0
 21
-151.09690000000001
 31
0.0
  0
LINE
  5
78
  8
DIMNSIONS
  6
CONTINUOUS
 62
     7
 10
-225.0
 20
-24.09690000000003
 30
0.0
 11
-225.0
 21
-151.09690000000001
 31
0.0
  0
LINE
  5
79
  8
DIMNSIONS
  6
CONTINUOUS
 62
     7
 10
-225.0
 20
-24.09690000000003
 30
0.0
 11
-221.6498010242488
 21
-36.600012792968784
 31
0.0
  0
LINE
  5
7A
  8
DIMNSIONS
  6
CONTINUOUS
 62
     7
 10
-225.0
 20
-24.09690000000003
 30
0.0
 11
-228.3501989757512
 21
-36.600012792968784
 31
0.0
  0
LINE
  5
7B
  8
DIMNSIONS
  6
CONTINUOUS
 62
     7
 10
-225.0
 20
-151.09690000000001
 30
0.0
 11
-228.3501989757512
 21
-138.5937872070312
 31
0.0
  0
LINE
  5
7C
  8
DIMNSIONS
  6
CONTINUOUS
 62
     7
 10
-225.0
 20
-151.09690000000001
 30
0.0
 11
-221.6498010242488
 21
-138.5937872070312
 31
0.0
  0
TEXT
  5
7D
  8
DIMNSIONS
 62
     7
 10
-229.7225
 20
-99.503150841087759
 30
0.0
 40
12.21630859375
  1
127
 50
90.0
 41
0.7
 11
-241.93880859375
 21
-99.503150841087759
 31
0.0
 73
     3
  0
LINE
  5
7E
  8
DIMNSIONS
  6
CONTINUOUS
 62
     7
 10
-185.0
 20
-165.09690000000001
 30
0.0
 11
-260.0
 21
-165.09690000000001
 31
0.0
  0
LINE
  5
7F
  8
DIMNSIONS
  6
CONTINUOUS
 62
     7
 10
-185.0
 20
-10.09690000000003
 30
0.0
 11
-260.0
 21
-10.09690000000003
 31
0.0
  0
LINE
  5
80
  8
DIMNSIONS
  6
CONTINUOUS
 62
     7
 10
-250.0
 20
-165.09690000000001
 30
0.0
 11
-250.0
 21
-10.09690000000003
 31
0.0
  0
LINE
  5
81
  8
DIMNSIONS
  6
CONTINUOUS
 62
     7
 10
-250.0
 20
-165.09690000000001
 30
0.0
 11
-253.3501989757512
 21
-152.5937872070312
 31
0.0
  0
LINE
  5
82
  8
DIMNSIONS
  6
CONTINUOUS
 62
     7
 10
-250.0
 20
-165.09690000000001
 30
0.0
 11
-246.6498010242488
 21
-152.5937872070312
 31
0.0
  0
LINE
  5
83
  8
DIMNSIONS
  6
CONTINUOUS
 62
     7
 10
-250.0
 20
-10.09690000000003
 30
0.0
 11
-246.6498010242488
 21
-22.60001279296878
 31
0.0
  0
LINE
  5
84
  8
DIMNSIONS
  6
CONTINUOUS
 62
     7
 10
-250.0
 20
-10.09690000000003
 30
0.0
 11
-253.3501989757512
 21
-22.60001279296878
 31
0.0
  0
TEXT
  5
85
  8
DIMNSIONS
 62
     7
 10
-254.7225
 20
-99.503150841087759
 30
0.0
 40
12.21630859375
  1
155
 50
90.0
 41
0.7
 11
-266.93880859375003
 21
-99.503150841087759
 31
0.0
 73
     3
  0
LINE
  5
86
  8
DIMNSIONS
  6
CONTINUOUS
 62
     7
 10
-159.8708
 20
-10.496900000000039
 30
0.0
 11
-159.8708
 21
34.999999999999957
 31
0.0
  0
LINE
  5
87
  8
DIMNSIONS
  6
CONTINUOUS
 62
     7
 10
-90.020799999999966
 20
-10.496900000000039
 30
0.0
 11
-90.020799999999966
 21
34.999999999999957
 31
0.0
  0
LINE
  5
88
  8
DIMNSIONS
  6
CONTINUOUS
 62
     7
 10
-159.8708
 20
24.999999999999961
 30
0.0
 11
-90.020799999999966
 21
24.999999999999961
 31
0.0
  0
LINE
  5
89
  8
DIMNSIONS
  6
CONTINUOUS
 62
     7
 10
-159.8708
 20
24.999999999999961
 30
0.0
 11
-147.3676872070312
 21
28.350198975751169
 31
0.0
  0
LINE
  5
8A
  8
DIMNSIONS
  6
CONTINUOUS
 62
     7
 10
-159.8708
 20
24.999999999999961
 30
0.0
 11
-147.3676872070312
 21
21.649801024248749
 31
0.0
  0
LINE
  5
8B
  8
DIMNSIONS
  6
CONTINUOUS
 62
     7
 10
-90.020799999999966
 20
24.999999999999961
 30
0.0
 11
-102.5239127929687
 21
21.649801024248749
 31
0.0
  0
LINE
  5
8C
  8
DIMNSIONS
  6
CONTINUOUS
 62
     7
 10
-90.020799999999966
 20
24.999999999999961
 30
0.0
 11
-102.5239127929687
 21
28.350198975751169
 31
0.0
  0
TEXT
  5
8D
  8
DIMNSIONS
 62
     7
 10
-132.88329999999991
 20
29.72249999999995
 30
0.0
 40
12.21630859375
  1
70
 41
0.7
 11
-132.88329999999991
 21
41.938808593749947
 31
0.0
 73
     3
  0
LINE
  5
8E
  8
DIMNSIONS
  6
CONTINUOUS
 62
     7
 10
-175.0
 20
-0.0969000000000335
 30
0.0
 11
-175.0
 21
84.999999999999957
 31
0.0
  0
LINE
  5
8F
  8
DIMNSIONS
  6
CONTINUOUS
 62
     7
 10
-74.999999999999986
 20
-0.0969000000000335
 30
0.0
 11
-74.999999999999986
 21
84.999999999999957
 31
0.0
  0
LINE
  5
90
  8
DIMNSIONS
  6
CONTINUOUS
 62
     7
 10
-175.0
 20
74.999999999999957
 30
0.0
 11
-74.999999999999986
 21
74.999999999999957
 31
0.0
  0
LINE
  5
91
  8
DIMNSIONS
  6
CONTINUOUS
 62
     7
 10
-175.0
 20
74.999999999999957
 30
0.0
 11
-162.49688720703119
 21
78.350198975751184
 31
0.0
  0
LINE
  5
92
  8
DIMNSIONS
  6
CONTINUOUS
 62
     7
 10
-175.0
 20
74.999999999999957
 30
0.0
 11
-162.49688720703119
 21
71.649801024248731
 31
0.0
  0
LINE
  5
93
  8
DIMNSIONS
  6
CONTINUOUS
 62
     7
 10
-74.999999999999986
 20
74.999999999999957
 30
0.0
 11
-87.503112792968736
 21
71.649801024248731
 31
0.0
  0
LINE
  5
94
  8
DIMNSIONS
  6
CONTINUOUS
 62
     7
 10
-74.999999999999986
 20
74.999999999999957
 30
0.0
 11
-87.503112792968736
 21
78.350198975751184
 31
0.0
  0
TEXT
  5
95
  8
DIMNSIONS
 62
     7
 10
-136.9062508410878
 20
79.722499999999968
 30
0.0
 40
12.21630859375
  1
100
 41
0.7
 11
-136.9062508410878
 21
91.938808593749968
 31
0.0
 73
     3
  0
LINE
  5
96
  8
DIMNSIONS
  6
CONTINUOUS
 62
     7
 10
-185.0
 20
-10.09690000000003
 30
0.0
 11
-285.0
 21
-10.09690000000003
 31
0.0
  0
LINE
  5
97
  8
DIMNSIONS
  6
CONTINUOUS
 62
     7
 10
-201.5
 20
-200.0
 30
0.0
 11
-285.0
 21
-200.0
 31
0.0
  0
LINE
  5
98
  8
DIMNSIONS
  6
CONTINUOUS
 62
     7
 10
-275.0
 20
-10.09690000000003
 30
0.0
 11
-275.0
 21
-200.0
 31
0.0
  0
LINE
  5
99
  8
DIMNSIONS
  6
CONTINUOUS
 62
     7
 10
-275.0
 20
-10.09690000000003
 30
0.0
 11
-271.6498010242488
 21
-22.60001279296878
 31
0.0
  0
LINE
  5
9A
  8
DIMNSIONS
  6
CONTINUOUS
 62
     7
 10
-275.0
 20
-10.09690000000003
 30
0.0
 11
-278.3501989757512
 21
-22.60001279296878
 31
0.0
  0
LINE
  5
9B
  8
DIMNSIONS
  6
CONTINUOUS
 62
     7
 10
-275.0
 20
-200.0
 30
0.0
 11
-278.3501989757512
 21
-187.49688720703119
 31
0.0
  0
LINE
  5
9C
  8
DIMNSIONS
  6
CONTINUOUS
 62
     7
 10
-275.0
 20
-200.0
 30
0.0
 11
-271.6498010242488
 21
-187.49688720703119
 31
0.0
  0
TEXT
  5
9D
  8
DIMNSIONS
 62
     7
 10
-279.72250000000008
 20
-116.9547008410877
 30
0.0
 40
12.21630859375
  1
190
 50
90.0
 41
0.7
 11
-291.93880859375008
 21
-116.9547008410877
 31
0.0
 73
     3
  0
LINE
  5
9E
  8
DIMNSIONS
  6
CONTINUOUS
 62
     7
 10
25.0
 20
-175.09690000000001
 30
0.0
 11
25.0
 21
-310.0
 31
0.0
  0
LINE
  5
9F
  8
DIMNSIONS
  6
CONTINUOUS
 62
     7
 10
179.62639999999999
 20
-210.0
 30
0.0
 11
179.62639999999999
 21
-310.0
 31
0.0
  0
LINE
  5
A0
  8
DIMNSIONS
  6
CONTINUOUS
 62
     7
 10
25.0
 20
-300.0
 30
0.0
 11
179.62639999999999
 21
-300.0
 31
0.0
  0
LINE
  5
A1
  8
DIMNSIONS
  6
CONTINUOUS
 62
     7
 10
25.0
 20
-300.0
 30
0.0
 11
37.50311279296875
 21
-296.6498010242488
 31
0.0
  0
LINE
  5
A2
  8
DIMNSIONS
  6
CONTINUOUS
 62
     7
 10
25.0
 20
-300.0
 30
0.0
 11
37.50311279296875
 21
-303.3501989757512
 31
0.0
  0
LINE
  5
A3
  8
DIMNSIONS
  6
CONTINUOUS
 62
     7
 10
179.62639999999999
 20
-300.0
 30
0.0
 11
167.12328720703121
 21
-303.3501989757512
 31
0.0
  0
LINE
  5
A4
  8
DIMNSIONS
  6
CONTINUOUS
 62
     7
 10
179.62639999999999
 20
-300.0
 30
0.0
 11
167.12328720703121
 21
-296.6498010242488
 31
0.0
  0
TEXT
  5
A5
  8
DIMNSIONS
 62
     7
 10
90.406949158912226
 20
-295.27749999999997
 30
0.0
 40
12.21630859375
  1
155
 41
0.7
 11
90.406949158912226
 21
-283.06119140624997
 31
0.0
 73
     3
  0
TEXT
  5
A6
  8
DIMNSIONS
 62
     7
 10
44.317345642808121
 20
-233.6690201193791
 30
0.0
 40
12.21630859375
  1
0～20°
 50
348.00000000728352
 41
0.7
 11
46.857259016567212
 21
-221.71966717825589
 31
0.0
 73
     3
  0
TEXT
  5
A7
  8
DIMNSIONS
 62
     7
 10
29.37015564280814
 20
-253.3972201193792
 30
0.0
 40
12.21630859375
  1
(1°刻み)
 50
348.00000000728352
 41
0.7
 11
31.910069016567221
 21
-241.44786717825599
 31
0.0
 73
     3
  0
LINE
  5
A8
  8
DIMNSIONS
  6
CONTINUOUS
 62
     7
 10
-197.5
 20
-204.0
 30
0.0
 11
-197.5
 21
-310.0
 31
0.0
  0
LINE
  5
A9
  8
DIMNSIONS
  6
CONTINUOUS
 62
     7
 10
-52.500000000000021
 20
-234.69847848399999
 30
0.0
 11
-52.500000000000021
 21
-310.0
 31
0.0
  0
LINE
  5
AA
  8
DIMNSIONS
  6
CONTINUOUS
 62
     7
 10
-197.5
 20
-300.0
 30
0.0
 11
-52.500000000000021
 21
-300.0
 31
0.0
  0
LINE
  5
AB
  8
DIMNSIONS
  6
CONTINUOUS
 62
     7
 10
-197.5
 20
-300.0
 30
0.0
 11
-184.99688720703119
 21
-296.6498010242488
 31
0.0
  0
LINE
  5
AC
  8
DIMNSIONS
  6
CONTINUOUS
 62
     7
 10
-197.5
 20
-300.0
 30
0.0
 11
-184.99688720703119
 21
-303.3501989757512
 31
0.0
  0
LINE
  5
AD
  8
DIMNSIONS
  6
CONTINUOUS
 62
     7
 10
-52.500000000000021
 20
-300.0
 30
0.0
 11
-65.003112792968764
 21
-303.3501989757512
 31
0.0
  0
LINE
  5
AE
  8
DIMNSIONS
  6
CONTINUOUS
 62
     7
 10
-52.500000000000021
 20
-300.0
 30
0.0
 11
-65.003112792968764
 21
-296.6498010242488
 31
0.0
  0
TEXT
  5
AF
  8
DIMNSIONS
 62
     7
 10
-136.9062508410878
 20
-295.27749999999997
 30
0.0
 40
12.21630859375
  1
145
 41
0.7
 11
-136.9062508410878
 21
-283.06119140624997
 31
0.0
 73
     3
  0
LINE
  5
B0
  8
DIMNSIONS
  6
CONTINUOUS
 62
     7
 10
136.54026999999999
 20
-65.788160000000033
 30
0.0
 11
202.61374000000001
 21
12.95504999999997
 31
0.0
  0
LINE
  5
B1
  8
DIMNSIONS
  6
CONTINUOUS
 62
     7
 10
99.846599999999995
 20
-44.603080000000027
 30
0.0
 11
135.00357
 21
51.989819999999952
 31
0.0
  0
ARC
  5
B2
  8
DIMNSIONS
  6
CONTINUOUS
 62
     7
 10
58.120100000000001
 20
-159.2456
 30
0.0
 40
214.79207215754701
 50
49.999969580340462
 51
69.999983989889017
  0
LINE
  5
B3
  8
DIMNSIONS
  6
CONTINUOUS
 62
     7
 10
131.5833717041063
 20
42.592904681989538
 30
0.0
 11
147.95584089562129
 21
41.160499233804543
 31
0.0
  0
LINE
  5
B4
  8
DIMNSIONS
  6
CONTINUOUS
 62
     7
 10
131.5833717041063
 20
42.592904681989538
 30
0.0
 11
145.0461432225438
 21
33.166170579584588
 31
0.0
  0
LINE
  5
B5
  8
DIMNSIONS
  6
CONTINUOUS
 62
     7
 10
196.18586999999999
 20
5.2945999999999449
 30
0.0
 11
181.41418143275661
 21
12.499233902390261
 31
0.0
  0
LINE
  5
B6
  8
DIMNSIONS
  6
CONTINUOUS
 62
     7
 10
196.18586999999999
 20
5.2945999999999449
 30
0.0
 11
186.99552939517031
 21
18.919840268058241
 31
0.0
  0
TEXT
  5
B7
  8
DIMNSIONS
 62
     7
 10
162.88326184125319
 20
65.92980548562106
 30
0.0
 40
12.21630859375
  1
20～40°
 50
323.9999999905391
 41
0.7
 11
170.06382787174519
 21
75.813006745307845
 31
0.0
 73
     3
  0
TEXT
  5
B8
  8
DIMNSIONS
 62
     7
 10
143.00346184125311
 20
56.104915485621063
 30
0.0
 40
12.21630859375
  1
(1°刻み)
 50
323.9999999905391
 41
0.7
 11
150.1840278717452
 21
65.988116745307849
 31
0.0
 73
     3
  0
LINE
  5
B9
  8
DIMNSIONS
  6
CONTINUOUS
 62
     7
 10
54.699890000000003
 20
-168.64252999999999
 30
0.0
 11
37.422559999999997
 21
-216.11157
 31
0.0
  0
LINE
  5
BA
  8
DIMNSIONS
  6
CONTINUOUS
 62
     7
 10
96.426400000000001
 20
-176.0
 30
0.0
 11
96.426400000000001
 21
-226.5155400000001
 31
0.0
  0
ARC
  5
BB
  8
DIMNSIONS
  6
CONTINUOUS
 62
     7
 10
96.426400000000001
 20
-54.000000000000021
 30
0.0
 40
162.51554139314339
 50
249.99998452747059
 51
270.0
  0
LINE
  5
BC
  8
DIMNSIONS
  6
CONTINUOUS
 62
     7
 10
96.426400000000001
 20
-216.51554139314339
 30
0.0
 11
80.551399999999987
 21
-220.7692348229875
 31
0.0
  0
LINE
  5
BD
  8
DIMNSIONS
  6
CONTINUOUS
 62
     7
 10
96.426400000000001
 20
-216.51554139314339
 30
0.0
 11
80.551399999999987
 21
-212.26184796329929
 31
0.0
  0
LINE
  5
BE
  8
DIMNSIONS
  6
CONTINUOUS
 62
     7
 10
40.842770000000009
 20
-206.71464
 30
0.0
 11
57.215239191515039
 21
-208.14704544818511
 31
0.0
  0
LINE
  5
BF
  8
DIMNSIONS
  6
CONTINUOUS
 62
     7
 10
40.842770000000009
 20
-206.71464
 30
0.0
 11
54.305541518437572
 21
-216.141374102405
 31
0.0
  0
LINE
  5
C0
  8
DIMNSIONS
  6
CONTINUOUS
 62
     7
 10
264.5
 20
-20.400000000000041
 30
0.0
 11
264.5
 21
35.0
 31
0.0
  0
LINE
  5
C1
  8
DIMNSIONS
  6
CONTINUOUS
 62
     7
 10
385.5
 20
-20.400000000000041
 30
0.0
 11
385.5
 21
35.0
 31
0.0
  0
LINE
  5
C2
  8
DIMNSIONS
  6
CONTINUOUS
 62
     7
 10
264.5
 20
25.0
 30
0.0
 11
385.5
 21
25.0
 31
0.0
  0
LINE
  5
C3
  8
DIMNSIONS
  6
CONTINUOUS
 62
     7
 10
264.5
 20
25.0
 30
0.0
 11
277.00311279296881
 21
28.350198975751209
 31
0.0
  0
LINE
  5
C4
  8
DIMNSIONS
  6
CONTINUOUS
 62
     7
 10
264.5
 20
25.0
 30
0.0
 11
277.00311279296881
 21
21.649801024248791
 31
0.0
  0
LINE
  5
C5
  8
DIMNSIONS
  6
CONTINUOUS
 62
     7
 10
385.5
 20
25.0
 30
0.0
 11
372.99688720703119
 21
21.64980102424877
 31
0.0
  0
LINE
  5
C6
  8
DIMNSIONS
  6
CONTINUOUS
 62
     7
 10
385.5
 20
25.0
 30
0.0
 11
372.99688720703119
 21
28.350198975751209
 31
0.0
  0
TEXT
  5
C7
  8
DIMNSIONS
 62
     7
 10
313.0937491589122
 20
29.7225
 30
0.0
 40
12.21630859375
  1
121
 41
0.7
 11
313.0937491589122
 21
41.938808593749989
 31
0.0
 73
     3
  0
LINE
  5
C8
  8
DIMNSIONS
  6
CONTINUOUS
 62
     7
 10
252.5
 20
-16.000000000000021
 30
0.0
 11
252.5
 21
84.999939999999924
 31
0.0
  0
LINE
  5
C9
  8
DIMNSIONS
  6
CONTINUOUS
 62
     7
 10
397.5
 20
-16.000000000000021
 30
0.0
 11
397.5
 21
84.999939999999924
 31
0.0
  0
LINE
  5
CA
  8
DIMNSIONS
  6
CONTINUOUS
 62
     7
 10
252.5
 20
74.999939999999924
 30
0.0
 11
397.5
 21
74.999939999999924
 31
0.0
  0
LINE
  5
CB
  8
DIMNSIONS
  6
CONTINUOUS
 62
     7
 10
252.5
 20
74.999939999999924
 30
0.0
 11
265.00311279296869
 21
78.350138975751136
 31
0.0
  0
LINE
  5
CC
  8
DIMNSIONS
  6
CONTINUOUS
 62
     7
 10
252.5
 20
74.999939999999924
 30
0.0
 11
265.00311279296869
 21
71.649741024248698
 31
0.0
  0
LINE
  5
CD
  8
DIMNSIONS
  6
CONTINUOUS
 62
     7
 10
397.5
 20
74.999939999999924
 30
0.0
 11
384.99688720703119
 21
71.649741024248698
 31
0.0
  0
LINE
  5
CE
  8
DIMNSIONS
  6
CONTINUOUS
 62
     7
 10
397.5
 20
74.999939999999924
 30
0.0
 11
384.99688720703119
 21
78.35013897575115
 31
0.0
  0
TEXT
  5
CF
  8
DIMNSIONS
 62
     7
 10
313.0937491589122
 20
79.722439999999921
 30
0.0
 40
12.21630859375
  1
145
 41
0.7
 11
313.0937491589122
 21
91.938748593749906
 31
0.0
 73
     3
  0
LINE
  5
D0
  8
DIMNSIONS
  6
CONTINUOUS
 62
     7
 10
400.10000000000002
 20
-35.000000000000028
 30
0.0
 11
447.5
 21
-35.000000000000028
 31
0.0
  0
LINE
  5
D1
  8
DIMNSIONS
  6
CONTINUOUS
 62
     7
 10
400.10000000000002
 20
-110.0
 30
0.0
 11
447.5
 21
-110.0
 31
0.0
  0
LINE
  5
D2
  8
DIMNSIONS
  6
CONTINUOUS
 62
     7
 10
437.5
 20
-35.000000000000028
 30
0.0
 11
437.5
 21
-110.0
 31
0.0
  0
LINE
  5
D3
  8
DIMNSIONS
  6
CONTINUOUS
 62
     7
 10
437.5
 20
-35.000000000000028
 30
0.0
 11
440.85019897575108
 21
-47.503112792968778
 31
0.0
  0
LINE
  5
D4
  8
DIMNSIONS
  6
CONTINUOUS
 62
     7
 10
437.5
 20
-35.000000000000028
 30
0.0
 11
434.1498010242488
 21
-47.503112792968778
 31
0.0
  0
LINE
  5
D5
  8
DIMNSIONS
  6
CONTINUOUS
 62
     7
 10
437.5
 20
-110.0
 30
0.0
 11
434.1498010242488
 21
-97.496887207031293
 31
0.0
  0
LINE
  5
D6
  8
DIMNSIONS
  6
CONTINUOUS
 62
     7
 10
437.5
 20
-110.0
 30
0.0
 11
440.85019897575108
 21
-97.496887207031293
 31
0.0
  0
TEXT
  5
D7
  8
DIMNSIONS
 62
     7
 10
432.77749999999992
 20
-80.437500000000043
 30
0.0
 40
12.21630859375
  1
75
 50
90.0
 41
0.7
 11
420.56119140624992
 21
-80.437500000000043
 31
0.0
 73
     3
  0
LINE
  5
D8
  8
DIMNSIONS
  6
CONTINUOUS
 62
     7
 10
400.10000000000002
 20
-110.0
 30
0.0
 11
447.5
 21
-110.0
 31
0.0
  0
LINE
  5
D9
  8
DIMNSIONS
  6
CONTINUOUS
 62
     7
 10
400.10000000000002
 20
-185.0
 30
0.0
 11
447.5
 21
-185.0
 31
0.0
  0
LINE
  5
DA
  8
DIMNSIONS
  6
CONTINUOUS
 62
     7
 10
437.5
 20
-110.0
 30
0.0
 11
437.5
 21
-185.0
 31
0.0
  0
LINE
  5
DB
  8
DIMNSIONS
  6
CONTINUOUS
 62
     7
 10
437.5
 20
-110.0
 30
0.0
 11
440.85019897575108
 21
-122.50311279296881
 31
0.0
  0
LINE
  5
DC
  8
DIMNSIONS
  6
CONTINUOUS
 62
     7
 10
437.5
 20
-110.0
 30
0.0
 11
434.1498010242488
 21
-122.50311279296881
 31
0.0
  0
LINE
  5
DD
  8
DIMNSIONS
  6
CONTINUOUS
 62
     7
 10
437.5
 20
-185.0
 30
0.0
 11
434.1498010242488
 21
-172.49688720703119
 31
0.0
  0
LINE
  5
DE
  8
DIMNSIONS
  6
CONTINUOUS
 62
     7
 10
437.5
 20
-185.0
 30
0.0
 11
440.85019897575108
 21
-172.49688720703119
 31
0.0
  0
TEXT
  5
DF
  8
DIMNSIONS
 62
     7
 10
432.77749999999992
 20
-155.4375
 30
0.0
 40
12.21630859375
  1
75
 50
90.0
 41
0.7
 11
420.56119140624992
 21
-155.4375
 31
0.0
 73
     3
  0
LINE
  5
E0
  8
DIMNSIONS
  6
CONTINUOUS
 62
     7
 10
401.49999999999989
 20
-200.0
 30
0.0
 11
485.0
 21
-200.0
 31
0.0
  0
LINE
  5
E1
  8
DIMNSIONS
  6
CONTINUOUS
 62
     7
 10
401.49999999999989
 20
-20.000000000000028
 30
0.0
 11
485.0
 21
-20.000000000000028
 31
0.0
  0
LINE
  5
E2
  8
DIMNSIONS
  6
CONTINUOUS
 62
     7
 10
475.0
 20
-200.0
 30
0.0
 11
475.0
 21
-20.000000000000028
 31
0.0
  0
LINE
  5
E3
  8
DIMNSIONS
  6
CONTINUOUS
 62
     7
 10
475.0
 20
-200.0
 30
0.0
 11
471.6498010242488
 21
-187.49688720703119
 31
0.0
  0
LINE
  5
E4
  8
DIMNSIONS
  6
CONTINUOUS
 62
     7
 10
475.0
 20
-200.0
 30
0.0
 11
478.35019897575108
 21
-187.49688720703119
 31
0.0
  0
LINE
  5
E5
  8
DIMNSIONS
  6
CONTINUOUS
 62
     7
 10
475.0
 20
-20.000000000000028
 30
0.0
 11
478.35019897575108
 21
-32.503112792968771
 31
0.0
  0
LINE
  5
E6
  8
DIMNSIONS
  6
CONTINUOUS
 62
     7
 10
475.0
 20
-20.000000000000028
 30
0.0
 11
471.6498010242488
 21
-32.503112792968771
 31
0.0
  0
TEXT
  5
E7
  8
DIMNSIONS
 62
     7
 10
470.27749999999992
 20
-121.9062508410877
 30
0.0
 40
12.21630859375
  1
180
 50
90.0
 41
0.7
 11
458.06119140624992
 21
-121.9062508410877
 31
0.0
 73
     3
  0
LINE
  5
E8
  8
DIMNSIONS
  6
CONTINUOUS
 62
     7
 10
223.50017
 20
450.0
 30
0.0
 11
165.0
 21
450.0
 31
0.0
  0
LINE
  5
E9
  8
DIMNSIONS
  6
CONTINUOUS
 62
     7
 10
223.50017
 20
629.99955999999986
 30
0.0
 11
165.0
 21
629.99955999999986
 31
0.0
  0
LINE
  5
EA
  8
DIMNSIONS
  6
CONTINUOUS
 62
     7
 10
175.0
 20
450.0
 30
0.0
 11
175.0
 21
629.99955999999986
 31
0.0
  0
LINE
  5
EB
  8
DIMNSIONS
  6
CONTINUOUS
 62
     7
 10
175.0
 20
450.0
 30
0.0
 11
171.6498010242488
 21
462.50311279296881
 31
0.0
  0
LINE
  5
EC
  8
DIMNSIONS
  6
CONTINUOUS
 62
     7
 10
175.0
 20
450.0
 30
0.0
 11
178.3501989757512
 21
462.50311279296881
 31
0.0
  0
LINE
  5
ED
  8
DIMNSIONS
  6
CONTINUOUS
 62
     7
 10
175.0
 20
629.99955999999986
 30
0.0
 11
178.3501989757512
 21
617.49644720703122
 31
0.0
  0
LINE
  5
EE
  8
DIMNSIONS
  6
CONTINUOUS
 62
     7
 10
175.0
 20
629.99955999999986
 30
0.0
 11
171.6498010242488
 21
617.49644720703122
 31
0.0
  0
TEXT
  5
EF
  8
DIMNSIONS
 62
     7
 10
170.2775
 20
528.09352915891225
 30
0.0
 40
12.21630859375
  1
180
 50
90.0
 41
0.7
 11
158.06119140625
 21
528.09352915891225
 31
0.0
 73
     3
  0
LINE
  5
F0
  8
DIMNSIONS
  6
CONTINUOUS
 62
     7
 10
227.50018
 20
445.99999000000003
 30
0.0
 11
227.50018
 21
315.0
 31
0.0
  0
LINE
  5
F1
  8
DIMNSIONS
  6
CONTINUOUS
 62
     7
 10
372.49999999999858
 20
414.45300227594493
 30
0.0
 11
372.49999999999858
 21
315.0
 31
0.0
  0
LINE
  5
F2
  8
DIMNSIONS
  6
CONTINUOUS
 62
     7
 10
227.50018
 20
325.0
 30
0.0
 11
372.49999999999858
 21
325.0
 31
0.0
  0
LINE
  5
F3
  8
DIMNSIONS
  6
CONTINUOUS
 62
     7
 10
227.50018
 20
325.0
 30
0.0
 11
240.00329279296881
 21
328.35019897575131
 31
0.0
  0
LINE
  5
F4
  8
DIMNSIONS
  6
CONTINUOUS
 62
     7
 10
227.50018
 20
325.0
 30
0.0
 11
240.00329279296881
 21
321.64980102424869
 31
0.0
  0
LINE
  5
F5
  8
DIMNSIONS
  6
CONTINUOUS
 62
     7
 10
372.49999999999858
 20
325.0
 30
0.0
 11
359.99688720703
 21
321.64980102424869
 31
0.0
  0
LINE
  5
F6
  8
DIMNSIONS
  6
CONTINUOUS
 62
     7
 10
372.49999999999858
 20
325.0
 30
0.0
 11
359.99688720703
 21
328.35019897575131
 31
0.0
  0
TEXT
  5
F7
  8
DIMNSIONS
 62
     7
 10
288.09383915891158
 20
329.72250000000003
 30
0.0
 40
12.21630859375
  1
145
 41
0.7
 11
288.09383915891158
 21
341.93880859375003
 31
0.0
 73
     3
  0
LINE
  5
F8
  8
DIMNSIONS
  6
CONTINUOUS
 62
     7
 10
224.90016
 20
614.99959999999987
 30
0.0
 11
202.5
 21
614.99959999999987
 31
0.0
  0
LINE
  5
F9
  8
DIMNSIONS
  6
CONTINUOUS
 62
     7
 10
224.90016
 20
539.99977999999999
 30
0.0
 11
202.5
 21
539.99977999999999
 31
0.0
  0
LINE
  5
FA
  8
DIMNSIONS
  6
CONTINUOUS
 62
     7
 10
212.5
 20
614.99959999999987
 30
0.0
 11
212.5
 21
539.99977999999999
 31
0.0
  0
LINE
  5
FB
  8
DIMNSIONS
  6
CONTINUOUS
 62
     7
 10
212.5
 20
614.99959999999987
 30
0.0
 11
215.8501989757512
 21
602.49648720703124
 31
0.0
  0
LINE
  5
FC
  8
DIMNSIONS
  6
CONTINUOUS
 62
     7
 10
212.5
 20
614.99959999999987
 30
0.0
 11
209.1498010242488
 21
602.49648720703124
 31
0.0
  0
LINE
  5
FD
  8
DIMNSIONS
  6
CONTINUOUS
 62
     7
 10
212.5
 20
539.99977999999999
 30
0.0
 11
209.1498010242488
 21
552.50289279296885
 31
0.0
  0
LINE
  5
FE
  8
DIMNSIONS
  6
CONTINUOUS
 62
     7
 10
212.5
 20
539.99977999999999
 30
0.0
 11
215.8501989757512
 21
552.50289279296885
 31
0.0
  0
TEXT
  5
FF
  8
DIMNSIONS
 62
     7
 10
207.7775
 20
569.56218999999987
 30
0.0
 40
12.21630859375
  1
75
 50
90.0
 41
0.7
 11
195.56119140625
 21
569.56218999999987
 31
0.0
 73
     3
  0
LINE
  5
100
  8
DIMNSIONS
  6
CONTINUOUS
 62
     7
 10
224.90016
 20
539.99977999999999
 30
0.0
 11
202.5
 21
539.99977999999999
 31
0.0
  0
LINE
  5
101
  8
DIMNSIONS
  6
CONTINUOUS
 62
     7
 10
224.90016
 20
464.99997000000002
 30
0.0
 11
202.5
 21
464.99997000000002
 31
0.0
  0
LINE
  5
102
  8
DIMNSIONS
  6
CONTINUOUS
 62
     7
 10
212.5
 20
539.99977999999999
 30
0.0
 11
212.5
 21
464.99997000000002
 31
0.0
  0
LINE
  5
103
  8
DIMNSIONS
  6
CONTINUOUS
 62
     7
 10
212.5
 20
539.99977999999999
 30
0.0
 11
215.8501989757512
 21
527.49666720703112
 31
0.0
  0
LINE
  5
104
  8
DIMNSIONS
  6
CONTINUOUS
 62
     7
 10
212.5
 20
539.99977999999999
 30
0.0
 11
209.1498010242488
 21
527.49666720703112
 31
0.0
  0
LINE
  5
105
  8
DIMNSIONS
  6
CONTINUOUS
 62
     7
 10
212.5
 20
464.99997000000002
 30
0.0
 11
209.1498010242488
 21
477.50308279296871
 31
0.0
  0
LINE
  5
106
  8
DIMNSIONS
  6
CONTINUOUS
 62
     7
 10
212.5
 20
464.99997000000002
 30
0.0
 11
215.8501989757512
 21
477.50308279296871
 31
0.0
  0
TEXT
  5
107
  8
DIMNSIONS
 62
     7
 10
207.7775
 20
494.56237499999997
 30
0.0
 40
12.21630859375
  1
75
 50
90.0
 41
0.7
 11
195.56119140625
 21
494.56237499999997
 31
0.0
 73
     3
  0
LINE
  5
108
  8
DIMNSIONS
  6
CONTINUOUS
 62
     7
 10
239.50014999999999
 20
450.39998000000003
 30
0.0
 11
239.50014999999999
 21
352.5
 31
0.0
  0
LINE
  5
109
  8
DIMNSIONS
  6
CONTINUOUS
 62
     7
 10
360.49984999999998
 20
450.39998000000003
 30
0.0
 11
360.49984999999998
 21
352.5
 31
0.0
  0
LINE
  5
10A
  8
DIMNSIONS
  6
CONTINUOUS
 62
     7
 10
239.50014999999999
 20
362.5
 30
0.0
 11
360.49984999999998
 21
362.5
 31
0.0
  0
LINE
  5
10B
  8
DIMNSIONS
  6
CONTINUOUS
 62
     7
 10
239.50014999999999
 20
362.5
 30
0.0
 11
252.00326279296871
 21
365.85019897575131
 31
0.0
  0
LINE
  5
10C
  8
DIMNSIONS
  6
CONTINUOUS
 62
     7
 10
239.50014999999999
 20
362.5
 30
0.0
 11
252.00326279296871
 21
359.14980102424869
 31
0.0
  0
LINE
  5
10D
  8
DIMNSIONS
  6
CONTINUOUS
 62
     7
 10
360.49984999999998
 20
362.5
 30
0.0
 11
347.99673720703129
 21
359.14980102424869
 31
0.0
  0
LINE
  5
10E
  8
DIMNSIONS
  6
CONTINUOUS
 62
     7
 10
360.49984999999998
 20
362.5
 30
0.0
 11
347.99673720703129
 21
365.85019897575131
 31
0.0
  0
TEXT
  5
10F
  8
DIMNSIONS
 62
     7
 10
288.0937491589122
 20
367.22250000000003
 30
0.0
 40
12.21630859375
  1
121
 41
0.7
 11
288.0937491589122
 21
379.43880859375003
 31
0.0
 73
     3
  0
LINE
  5
110
  8
DIMNSIONS
  6
CONTINUOUS
 62
     7
 10
454.14359999999999
 20
639.99955999999986
 30
0.0
 11
454.14359999999999
 21
660.0
 31
0.0
  0
LINE
  5
111
  8
DIMNSIONS
  6
CONTINUOUS
 62
     7
 10
460.14359999999988
 20
639.99955999999986
 30
0.0
 11
460.14359999999988
 21
660.0
 31
0.0
  0
LINE
  5
112
  8
DIMNSIONS
  6
CONTINUOUS
 62
     7
 10
460.14359999999988
 20
650.0
 30
0.0
 11
454.14359999999999
 21
650.0
 31
0.0
  0
LINE
  5
113
  8
DIMNSIONS
  6
CONTINUOUS
 62
     7
 10
454.14359999999999
 20
650.0
 30
0.0
 11
429.14359999999999
 21
650.0
 31
0.0
  0
LINE
  5
114
  8
DIMNSIONS
  6
CONTINUOUS
 62
     7
 10
454.14359999999999
 20
650.0
 30
0.0
 11
441.64048720703107
 21
646.64980102424875
 31
0.0
  0
LINE
  5
115
  8
DIMNSIONS
  6
CONTINUOUS
 62
     7
 10
454.14359999999999
 20
650.0
 30
0.0
 11
441.64048720703107
 21
653.35019897575125
 31
0.0
  0
LINE
  5
116
  8
DIMNSIONS
  6
CONTINUOUS
 62
     7
 10
460.14359999999988
 20
650.0
 30
0.0
 11
482.93749999999989
 21
650.0
 31
0.0
  0
LINE
  5
117
  8
DIMNSIONS
  6
CONTINUOUS
 62
     7
 10
460.14359999999988
 20
650.0
 30
0.0
 11
472.64671279296869
 21
653.35019897575125
 31
0.0
  0
LINE
  5
118
  8
DIMNSIONS
  6
CONTINUOUS
 62
     7
 10
460.14359999999988
 20
650.0
 30
0.0
 11
472.64671279296869
 21
646.64980102424875
 31
0.0
  0
TEXT
  5
119
  8
DIMNSIONS
 62
     7
 10
475.0
 20
654.72249999999997
 30
0.0
 40
12.21630859375
  1
6
 41
0.7
 11
475.0
 21
666.93880859374985
 31
0.0
 73
     3
  0
LINE
  5
11A
  8
DIMNSIONS
  6
CONTINUOUS
 62
     7
 10
460.14359999999988
 20
639.99955999999986
 30
0.0
 11
460.14359999999988
 21
685.0
 31
0.0
  0
LINE
  5
11B
  8
DIMNSIONS
  6
CONTINUOUS
 62
     7
 10
450.0
 20
639.99955999999986
 30
0.0
 11
450.0
 21
685.0
 31
0.0
  0
LINE
  5
11C
  8
DIMNSIONS
  6
CONTINUOUS
 62
     7
 10
450.0
 20
675.0
 30
0.0
 11
460.14359999999988
 21
675.0
 31
0.0
  0
LINE
  5
11D
  8
DIMNSIONS
  6
CONTINUOUS
 62
     7
 10
460.14359999999988
 20
675.0
 30
0.0
 11
485.14359999999988
 21
675.0
 31
0.0
  0
LINE
  5
11E
  8
DIMNSIONS
  6
CONTINUOUS
 62
     7
 10
460.14359999999988
 20
675.0
 30
0.0
 11
472.64671279296869
 21
678.35019897575125
 31
0.0
  0
LINE
  5
11F
  8
DIMNSIONS
  6
CONTINUOUS
 62
     7
 10
460.14359999999988
 20
675.0
 30
0.0
 11
472.64671279296869
 21
671.64980102424875
 31
0.0
  0
LINE
  5
120
  8
DIMNSIONS
  6
CONTINUOUS
 62
     7
 10
450.0
 20
675.0
 30
0.0
 11
421.625
 21
675.0
 31
0.0
  0
LINE
  5
121
  8
DIMNSIONS
  6
CONTINUOUS
 62
     7
 10
450.0
 20
675.0
 30
0.0
 11
437.49688720703108
 21
671.64980102424875
 31
0.0
  0
LINE
  5
122
  8
DIMNSIONS
  6
CONTINUOUS
 62
     7
 10
450.0
 20
675.0
 30
0.0
 11
437.49688720703108
 21
678.35019897575125
 31
0.0
  0
TEXT
  5
123
  8
DIMNSIONS
 62
     7
 10
421.625
 20
679.72249999999997
 30
0.0
 40
12.21630859375
  1
10
 41
0.7
 11
421.625
 21
691.93880859374985
 31
0.0
 73
     3
  0
LINE
  5
124
  8
DIMNSIONS
  6
CONTINUOUS
 62
     7
 10
71.915267529524229
 20
-33.743320450481569
 30
0.0
 11
100.0
 21
149.99999999999989
 31
0.0
  0
LINE
  5
125
  8
DIMNSIONS
  6
CONTINUOUS
 62
     7
 10
71.915267529524229
 20
-33.743320450481569
 30
0.0
 11
70.56223282360672
 21
-20.870055139170461
 31
0.0
  0
LINE
  5
126
  8
DIMNSIONS
  6
CONTINUOUS
 62
     7
 10
71.915267529524229
 20
-33.743320450481569
 30
0.0
 11
77.180137757653213
 21
-21.918228308270411
 31
0.0
  0
LINE
  5
127
  8
DIMNSIONS
  6
CONTINUOUS
 62
     7
 10
100.0
 20
149.99999999999989
 30
0.0
 11
304.02777777777783
 21
149.99999999999989
 31
0.0
  0
TEXT
  5
128
  8
DIMNSIONS
 62
     7
 10
110.0
 20
154.96944444444441
 30
0.0
 40
13.57367621527778
  1
φ20安全ワイヤー通し穴
 41
0.7
 11
110.0
 21
168.54312065972209
 31
0.0
 73
     3
  0
LINE
  5
129
  8
DIMNSIONS
  6
CONTINUOUS
 62
     7
 10
-88.309983449026575
 20
-20.929392031747931
 30
0.0
 11
-50.000000000000021
 21
50.0
 31
0.0
  0
LINE
  5
12A
  8
DIMNSIONS
  6
CONTINUOUS
 62
     7
 10
-88.309983449026575
 20
-20.929392031747931
 30
0.0
 11
-85.178504131000523
 21
-8.3697144892471709
 31
0.0
  0
LINE
  5
12B
  8
DIMNSIONS
  6
CONTINUOUS
 62
     7
 10
-88.309983449026575
 20
-20.929392031747931
 30
0.0
 11
-79.318204036940031
 21
-11.618131875614379
 31
0.0
  0
LINE
  5
12C
  8
DIMNSIONS
  6
CONTINUOUS
 62
     7
 10
-50.000000000000021
 20
50.0
 30
0.0
 11
21.7361111111111
 21
50.0
 31
0.0
  0
TEXT
  5
12D
  8
DIMNSIONS
 62
     7
 10
-40.000000000000007
 20
54.969444444444441
 30
0.0
 40
13.57367621527778
  1
4-φ7.2
 41
0.7
 11
-40.000000000000007
 21
68.54312065972222
 31
0.0
 73
     3
  0
LINE
  5
12E
  8
DIMNSIONS
  6
CONTINUOUS
 62
     7
 10
-185.0
 20
-10.09690000000003
 30
0.0
 11
-310.0
 21
-10.09690000000003
 31
0.0
  0
LINE
  5
12F
  8
DIMNSIONS
  6
CONTINUOUS
 62
     7
 10
-96.999999999999943
 20
-235.54701294800009
 30
0.0
 11
-310.0
 21
-235.54701294800009
 31
0.0
  0
LINE
  5
130
  8
DIMNSIONS
  6
CONTINUOUS
 62
     7
 10
-300.0
 20
-10.09690000000003
 30
0.0
 11
-300.0
 21
-235.54701294800009
 31
0.0
  0
LINE
  5
131
  8
DIMNSIONS
  6
CONTINUOUS
 62
     7
 10
-300.0
 20
-10.09690000000003
 30
0.0
 11
-296.6498010242488
 21
-22.60001279296878
 31
0.0
  0
LINE
  5
132
  8
DIMNSIONS
  6
CONTINUOUS
 62
     7
 10
-300.0
 20
-10.09690000000003
 30
0.0
 11
-303.3501989757512
 21
-22.60001279296878
 31
0.0
  0
LINE
  5
133
  8
DIMNSIONS
  6
CONTINUOUS
 62
     7
 10
-300.0
 20
-235.54701294800009
 30
0.0
 11
-303.3501989757512
 21
-223.04390015503131
 31
0.0
  0
LINE
  5
134
  8
DIMNSIONS
  6
CONTINUOUS
 62
     7
 10
-300.0
 20
-235.54701294800009
 30
0.0
 11
-296.6498010242488
 21
-223.04390015503131
 31
0.0
  0
TEXT
  5
135
  8
DIMNSIONS
 62
     7
 10
-304.72250000000008
 20
-134.72820731508779
 30
0.0
 40
12.21630859375
  1
225
 50
90.0
 41
0.7
 11
-316.93880859375008
 21
-134.72820731508779
 31
0.0
 73
     3
  0
LINE
  5
136
  8
DIMNSIONS
  6
CONTINUOUS
 62
     7
 10
-69.584169987654022
 20
-226.41629260386981
 30
0.0
 11
-37.500000000000021
 21
-337.5
 31
0.0
  0
LINE
  5
137
  8
DIMNSIONS
  6
CONTINUOUS
 62
     7
 10
-69.584169987654022
 20
-226.41629260386981
 30
0.0
 11
-62.724802372099717
 21
-237.39357544642729
 31
0.0
  0
LINE
  5
138
  8
DIMNSIONS
  6
CONTINUOUS
 62
     7
 10
-69.584169987654022
 20
-226.41629260386981
 30
0.0
 11
-69.132424799966472
 21
-239.3525822178288
 31
0.0
  0
LINE
  5
139
  8
DIMNSIONS
  6
CONTINUOUS
 62
     7
 10
-37.500000000000021
 20
-337.5
 30
0.0
 11
166.52777777777769
 21
-337.5
 31
0.0
  0
TEXT
  5
13A
  8
DIMNSIONS
 62
     7
 10
-27.500000000000011
 20
-332.53055555555551
 30
0.0
 40
13.57367621527778
  1
φ20安全ワイヤー通し穴
 41
0.7
 11
-27.500000000000011
 21
-318.95687934027779
 31
0.0
 73
     3
  0
LINE
  5
13B
  8
DIMNSIONS
  6
CONTINUOUS
 62
     7
 10
176.45483094000011
 20
-218.999996186
 30
0.0
 11
176.45483094000011
 21
-275.02136450464621
 31
0.0
  0
LINE
  5
13C
  8
DIMNSIONS
  6
CONTINUOUS
 62
     7
 10
141.6852745030067
 20
-241.76955262173789
 30
0.0
 11
128.3564601354291
 21
-255.0983669888341
 31
0.0
  0
ARC
  5
13D
  8
DIMNSIONS
  6
CONTINUOUS
 62
     7
 10
176.45483094000011
 20
-206.99999618600009
 30
0.0
 40
58.021368318646132
 50
224.99999999896551
 51
270.0
  0
LINE
  5
13E
  8
DIMNSIONS
  6
CONTINUOUS
 62
     7
 10
176.45483094000011
 20
-265.02136450464621
 30
0.0
 11
163.9517181470313
 21
-268.37156348039741
 31
0.0
  0
LINE
  5
13F
  8
DIMNSIONS
  6
CONTINUOUS
 62
     7
 10
176.45483094000011
 20
-265.02136450464621
 30
0.0
 11
163.9517181470313
 21
-261.67116552889502
 31
0.0
  0
LINE
  5
140
  8
DIMNSIONS
  6
CONTINUOUS
 62
     7
 10
135.42752794742219
 20
-248.0272991770963
 30
0.0
 11
146.63751220334859
 21
-254.49938660486691
 31
0.0
  0
LINE
  5
141
  8
DIMNSIONS
  6
CONTINUOUS
 62
     7
 10
135.42752794742219
 20
-248.0272991770963
 30
0.0
 11
141.89961537519281
 21
-259.23728343302258
 31
0.0
  0
TEXT
  5
142
  8
DIMNSIONS
 62
     7
 10
138.24005102878459
 20
-280.90714731137427
 30
0.0
 40
12.21630859375
  1
45°
 50
343.6575752979806
 41
0.7
 11
141.67744320667211
 21
-269.184411680425
 31
0.0
 73
     3
  0
LINE
  5
143
  8
DIMNSIONS
  6
CONTINUOUS
 62
     7
 10
328.00000000000011
 20
414.45299705199989
 30
0.0
 11
140.0
 21
414.45299705199989
 31
0.0
  0
LINE
  5
144
  8
DIMNSIONS
  6
CONTINUOUS
 62
     7
 10
223.50017
 20
629.99955999999986
 30
0.0
 11
140.0
 21
629.99955999999986
 31
0.0
  0
LINE
  5
145
  8
DIMNSIONS
  6
CONTINUOUS
 62
     7
 10
150.0
 20
414.45299705199989
 30
0.0
 11
150.0
 21
629.99955999999986
 31
0.0
  0
LINE
  5
146
  8
DIMNSIONS
  6
CONTINUOUS
 62
     7
 10
150.0
 20
414.45299705199989
 30
0.0
 11
146.64980102424869
 21
426.95610984496858
 31
0.0
  0
LINE
  5
147
  8
DIMNSIONS
  6
CONTINUOUS
 62
     7
 10
150.0
 20
414.45299705199989
 30
0.0
 11
153.3501989757512
 21
426.95610984496858
 31
0.0
  0
LINE
  5
148
  8
DIMNSIONS
  6
CONTINUOUS
 62
     7
 10
150.0
 20
629.99955999999986
 30
0.0
 11
153.3501989757512
 21
617.49644720703122
 31
0.0
  0
LINE
  5
149
  8
DIMNSIONS
  6
CONTINUOUS
 62
     7
 10
150.0
 20
629.99955999999986
 30
0.0
 11
146.64980102424869
 21
617.49644720703122
 31
0.0
  0
TEXT
  5
14A
  8
DIMNSIONS
 62
     7
 10
145.27749999999989
 20
510.32002768491208
 30
0.0
 40
12.21630859375
  1
216
 50
90.0
 41
0.7
 11
133.06119140624989
 21
510.32002768491208
 31
0.0
 73
     3
  0
LINE
  5
14B
  8
DIMNSIONS
  6
CONTINUOUS
 62
     7
 10
372.49999999999858
 20
414.45300227594493
 30
0.0
 11
372.49999999999858
 21
377.5
 31
0.0
  0
LINE
  5
14C
  8
DIMNSIONS
  6
CONTINUOUS
 62
     7
 10
328.00000000000011
 20
414.45300109800002
 30
0.0
 11
328.00000000000011
 21
377.5
 31
0.0
  0
LINE
  5
14D
  8
DIMNSIONS
  6
CONTINUOUS
 62
     7
 10
328.00000000000011
 20
387.5
 30
0.0
 11
283.25018000000011
 21
387.5
 31
0.0
  0
LINE
  5
14E
  8
DIMNSIONS
  6
CONTINUOUS
 62
     7
 10
372.49999999999858
 20
387.5
 30
0.0
 11
328.00000000000011
 21
387.5
 31
0.0
  0
LINE
  5
14F
  8
DIMNSIONS
  6
CONTINUOUS
 62
     7
 10
372.49999999999858
 20
387.5
 30
0.0
 11
359.99688720703
 21
384.1498010242488
 31
0.0
  0
LINE
  5
150
  8
DIMNSIONS
  6
CONTINUOUS
 62
     7
 10
372.49999999999858
 20
387.5
 30
0.0
 11
359.99688720703
 21
390.8501989757512
 31
0.0
  0
LINE
  5
151
  8
DIMNSIONS
  6
CONTINUOUS
 62
     7
 10
328.00000000000011
 20
387.5
 30
0.0
 11
340.50311279296881
 21
390.8501989757512
 31
0.0
  0
LINE
  5
152
  8
DIMNSIONS
  6
CONTINUOUS
 62
     7
 10
328.00000000000011
 20
387.5
 30
0.0
 11
340.50311279296881
 21
384.1498010242488
 31
0.0
  0
TEXT
  5
153
  8
DIMNSIONS
 62
     7
 10
283.25018000000011
 20
392.22250000000003
 30
0.0
 40
12.21630859375
  1
44.5
 41
0.7
 11
283.25018000000011
 21
404.43880859375003
 31
0.0
 73
     3
  0
LINE
  5
154
  8
DIMNSIONS
  6
CONTINUOUS
 62
     7
 10
427.85932875299989
 20
406.71528875199988
 30
0.0
 11
427.85932875299989
 21
390.0
 31
0.0
  0
LINE
  5
155
  8
DIMNSIONS
  6
CONTINUOUS
 62
     7
 10
460.14359999999988
 20
439.99955999999992
 30
0.0
 11
460.14359999999988
 21
390.0
 31
0.0
  0
LINE
  5
156
  8
DIMNSIONS
  6
CONTINUOUS
 62
     7
 10
460.14359999999988
 20
400.0
 30
0.0
 11
510.27777777777771
 21
400.0
 31
0.0
  0
LINE
  5
157
  8
DIMNSIONS
  6
CONTINUOUS
 62
     7
 10
427.85932875299989
 20
400.0
 30
0.0
 11
460.14359999999988
 21
400.0
 31
0.0
  0
LINE
  5
158
  8
DIMNSIONS
  6
CONTINUOUS
 62
     7
 10
427.85932875299989
 20
400.0
 30
0.0
 11
440.36244154596858
 21
403.35019897575108
 31
0.0
  0
LINE
  5
159
  8
DIMNSIONS
  6
CONTINUOUS
 62
     7
 10
427.85932875299989
 20
400.0
 30
0.0
 11
440.36244154596858
 21
396.6498010242488
 31
0.0
  0
LINE
  5
15A
  8
DIMNSIONS
  6
CONTINUOUS
 62
     7
 10
460.14359999999988
 20
400.0
 30
0.0
 11
447.64048720703107
 21
396.6498010242488
 31
0.0
  0
LINE
  5
15B
  8
DIMNSIONS
  6
CONTINUOUS
 62
     7
 10
460.14359999999988
 20
400.0
 30
0.0
 11
447.64048720703107
 21
403.35019897575108
 31
0.0
  0
TEXT
  5
15C
  8
DIMNSIONS
 62
     7
 10
475.0
 20
404.96944444444449
 30
0.0
 40
13.57367621527778
  1
32.3
 41
0.7
 11
475.0
 21
418.54312065972221
 31
0.0
 73
     3
  0
LINE
  5
15D
  8
DATA
  6
CONTINUOUS
 62
     7
 10
148.7563423149999
 20
-234.69848481
 30
0.0
 11
147.34212875299991
 21
-233.2842712480001
 31
0.0
  0
LINE
  5
15E
  8
DATA
  6
CONTINUOUS
 62
     7
 10
155.82741012700001
 20
-227.627416998
 30
0.0
 11
154.41319656499999
 21
-226.21320343599999
 31
0.0
  0
LINE
  5
15F
  8
DATA
  6
CONTINUOUS
 62
     7
 10
169.969545751
 20
-213.48528137500011
 30
0.0
 11
168.5553321890001
 21
-212.07106781200011
 31
0.0
  0
LINE
  5
160
  8
DATA
  6
CONTINUOUS
 62
     7
 10
175.04061356299991
 20
-205.58578643800001
 30
0.0
 11
147.34212875299991
 21
-233.2842712480001
 31
0.0
  0
LINE
  5
161
  8
DATA
  6
CONTINUOUS
 62
     7
 10
175.62639999999999
 20
-200.0
 30
0.0
 11
175.62639999999999
 21
-204.171572876
 31
0.0
  0
ARC
  5
162
  8
DATA
  6
CONTINUOUS
 62
     7
 10
173.62639999999999
 20
-204.171572876
 30
0.0
 40
2.0000000000000151
 50
315.0
 51
0.0
  0
LINE
  5
163
  8
DATA
  6
CONTINUOUS
 62
     7
 10
177.62639999999999
 20
-200.0
 30
0.0
 11
177.62639999999999
 21
-204.17156986000001
 31
0.0
  0
ARC
  5
164
  8
DATA
  6
CONTINUOUS
 62
     7
 10
173.62639999999999
 20
-204.171572876
 30
0.0
 40
3.9999999999998912
 50
315.00007727499838
 51
0.0000431979993323
  0
LINE
  5
165
  8
DATA
  6
CONTINUOUS
 62
     7
 10
176.45483094000011
 20
-206.999996186
 30
0.0
 11
148.7563423149999
 21
-234.69848481
 31
0.0
  0
CIRCLE
  5
166
  8
DATA
  6
CONTINUOUS
 62
     7
 10
70.404338718000105
 20
-43.628516155500002
 30
0.0
 40
10.0
  0
ARC
  5
167
  8
DATA
  6
CONTINUOUS
 62
     7
 10
-79.633527563685291
 20
337.87035756188118
 30
0.0
 40
5.1206761341043077
 50
187.700208790586
 51
206.1356133365143
  0
ARC
  5
168
  8
DATA
  6
CONTINUOUS
 62
     7
 10
-77.97472965336722
 20
338.744901252175
 30
0.0
 40
6.9953143728722731
 50
206.58142447369801
 51
232.11215545134399
  0
ARC
  5
169
  8
DATA
  6
CONTINUOUS
 62
     7
 10
-75.207781299995617
 20
342.40398957718838
 30
0.0
 40
11.58252520715914
 50
232.4257594921699
 51
272.2651165856056
  0
ARC
  5
16A
  8
DATA
  6
CONTINUOUS
 62
     7
 10
-69.866472436314751
 20
337.87035756188118
 30
0.0
 40
5.1206761341043077
 50
333.86438666348562
 51
352.29979120941459
  0
ARC
  5
16B
  8
DATA
  6
CONTINUOUS
 62
     7
 10
-71.525270346632809
 20
338.744901252175
 30
0.0
 40
6.9953143728722527
 50
307.88784454865601
 51
333.41857552630182
  0
ARC
  5
16C
  8
DATA
  6
CONTINUOUS
 62
     7
 10
-74.292218700004383
 20
342.40398957718838
 30
0.0
 40
11.582525207159129
 50
267.7348834143944
 51
307.5742405078301
  0
LINE
  5
16D
  8
DATA
  6
CONTINUOUS
 62
     7
 10
-175.0
 20
200.0
 30
0.0
 11
-175.0
 21
203.60000000000011
 31
0.0
  0
LINE
  5
16E
  8
DATA
  6
CONTINUOUS
 62
     7
 10
-75.000000000000014
 20
200.0
 30
0.0
 11
-75.000000000000014
 21
203.60000000000011
 31
0.0
  0
LINE
  5
16F
  8
DATA
  6
CONTINUOUS
 62
     7
 10
-175.0
 20
201.60000000000011
 30
0.0
 11
-75.000000000000014
 21
201.60000000000011
 31
0.0
  0
LINE
  5
170
  8
DATA
  6
CONTINUOUS
 62
     7
 10
-175.0
 20
200.0
 30
0.0
 11
-75.000000000000014
 21
200.0
 31
0.0
  0
LINE
  5
171
  8
DATA
  6
CONTINUOUS
 62
     7
 10
-110.0
 20
322.44238875900021
 30
0.0
 11
-108.0
 21
322.44238875900021
 31
0.0
  0
LINE
  5
172
  8
DATA
  6
CONTINUOUS
 62
     7
 10
-142.0
 20
322.44238875900021
 30
0.0
 11
-140.0
 21
322.44238875900021
 31
0.0
  0
ARC
  5
173
  8
DATA
  6
CONTINUOUS
 62
     7
 10
-106.0
 20
205.60000000000011
 30
0.0
 40
4.0
 50
180.0
 51
270.0
  0
LINE
  5
174
  8
DATA
  6
CONTINUOUS
 62
     7
 10
-110.0
 20
205.60000000000011
 30
0.0
 11
-110.0
 21
322.44238875900021
 31
0.0
  0
LINE
  5
175
  8
DATA
  6
CONTINUOUS
 62
     7
 10
-106.0
 20
203.60000000000011
 30
0.0
 11
-75.000000000000014
 21
203.60000000000011
 31
0.0
  0
ARC
  5
176
  8
DATA
  6
CONTINUOUS
 62
     7
 10
-106.0
 20
205.60000000000011
 30
0.0
 40
2.0
 50
180.0
 51
270.0
  0
LINE
  5
177
  8
DATA
  6
CONTINUOUS
 62
     7
 10
-108.0
 20
205.60000000000011
 30
0.0
 11
-108.0
 21
322.44238875900021
 31
0.0
  0
LINE
  5
178
  8
DATA
  6
CONTINUOUS
 62
     7
 10
-144.0
 20
203.60000000000011
 30
0.0
 11
-175.0
 21
203.60000000000011
 31
0.0
  0
ARC
  5
179
  8
DATA
  6
CONTINUOUS
 62
     7
 10
-144.0
 20
205.60000000000011
 30
0.0
 40
2.0
 50
270.0
 51
0.0
  0
LINE
  5
17A
  8
DATA
  6
CONTINUOUS
 62
     7
 10
-142.0
 20
205.60000000000011
 30
0.0
 11
-142.0
 21
322.44238875900021
 31
0.0
  0
LINE
  5
17B
  8
DATA
  6
CONTINUOUS
 62
     7
 10
-140.0
 20
205.60000000000011
 30
0.0
 11
-140.0
 21
322.44238875900021
 31
0.0
  0
ARC
  5
17C
  8
DATA
  6
CONTINUOUS
 62
     7
 10
-144.0
 20
205.60000000000011
 30
0.0
 40
4.0
 50
270.0
 51
0.0
  0
LINE
  5
17D
  8
DATA
  6
CONTINUOUS
 62
     7
 10
-52.500000000000021
 20
354.62637456800002
 30
0.0
 11
-52.500000000000021
 21
348.62637456800002
 31
0.0
  0
LINE
  5
17E
  8
DATA
  6
CONTINUOUS
 62
     7
 10
-197.5
 20
354.62637456800002
 30
0.0
 11
-52.500000000000021
 21
354.62637456800002
 31
0.0
  0
ARC
  5
17F
  8
DATA
  6
CONTINUOUS
 62
     7
 10
-99.722737956999964
 20
346.62637456800002
 30
0.0
 40
4.0
 50
90.0
 51
110.0000000000018
  0
POLYLINE
  5
180
  8
DATA
  6
CONTINUOUS
 62
     7
 66
     1
 10
0.0
 20
0.0
 30
0.0
  0
VERTEX
  5
B2D
  8
DATA
  6
CONTINUOUS
 62
     7
 10
-86.413349639999979
 20
344.48273626800011
 30
0.0
  0
VERTEX
  5
B2E
  8
DATA
  6
CONTINUOUS
 62
     7
 10
-104.815959713
 20
344.48273626800011
 30
0.0
  0
VERTEX
  5
B2F
  8
DATA
  6
CONTINUOUS
 62
     7
 10
-105.5
 20
346.36212150900002
 30
0.0
  0
SEQEND
  5
B30
  8
DATA
  6
CONTINUOUS
 62
     7
  0
LINE
  5
186
  8
DATA
  6
CONTINUOUS
 62
     7
 10
-105.5
 20
346.36212150900002
 30
0.0
 11
-105.5
 21
348.78033423900001
 31
0.0
  0
LINE
  5
187
  8
DATA
  6
CONTINUOUS
 62
     7
 10
-105.5
 20
348.78033423900001
 30
0.0
 11
-101.09081853000001
 21
350.3851450520001
 31
0.0
  0
LINE
  5
188
  8
DATA
  6
CONTINUOUS
 62
     7
 10
-197.5
 20
354.62637456800002
 30
0.0
 11
-197.5
 21
348.62637456800002
 31
0.0
  0
LINE
  5
189
  8
DATA
  6
CONTINUOUS
 62
     7
 10
-163.586650359
 20
344.48273626800011
 30
0.0
 11
-174.6398166999999
 21
348.50575980999997
 31
0.0
  0
LINE
  5
18A
  8
DATA
  6
CONTINUOUS
 62
     7
 10
-175.323856987
 20
348.62637456800002
 30
0.0
 11
-197.5
 21
348.62637456800002
 31
0.0
  0
ARC
  5
18B
  8
DATA
  6
CONTINUOUS
 62
     7
 10
-175.323856987
 20
346.62637456800002
 30
0.0
 40
1.99999999999994
 50
69.999999999999346
 51
90.0
  0
ARC
  5
18C
  8
DATA
  6
CONTINUOUS
 62
     7
 10
-150.27726204300001
 20
346.62637456800002
 30
0.0
 40
3.999999999999881
 50
69.999999999999346
 51
90.0
  0
POLYLINE
  5
18D
  8
DATA
  6
CONTINUOUS
 62
     7
 66
     1
 10
0.0
 20
0.0
 30
0.0
  0
VERTEX
  5
B31
  8
DATA
  6
CONTINUOUS
 62
     7
 10
-163.586650359
 20
344.48273626800011
 30
0.0
  0
VERTEX
  5
B32
  8
DATA
  6
CONTINUOUS
 62
     7
 10
-145.184040286
 20
344.48273626800011
 30
0.0
  0
VERTEX
  5
B33
  8
DATA
  6
CONTINUOUS
 62
     7
 10
-144.5
 20
346.36212150900002
 30
0.0
  0
SEQEND
  5
B34
  8
DATA
  6
CONTINUOUS
 62
     7
  0
LINE
  5
193
  8
DATA
  6
CONTINUOUS
 62
     7
 10
-144.5
 20
346.36212150900002
 30
0.0
 11
-144.5
 21
348.78033423900001
 31
0.0
  0
LINE
  5
194
  8
DATA
  6
CONTINUOUS
 62
     7
 10
-144.5
 20
348.78033423900001
 30
0.0
 11
-148.909181469
 21
350.3851450520001
 31
0.0
  0
LINE
  5
195
  8
DATA
  6
CONTINUOUS
 62
     7
 10
-86.413349639999979
 20
344.48273626800011
 30
0.0
 11
-75.36018806300001
 21
348.50575807600012
 31
0.0
  0
ARC
  5
196
  8
DATA
  6
CONTINUOUS
 62
     7
 10
-74.676143012000011
 20
346.62637456800002
 30
0.0
 40
2.0
 50
90.000154549998342
 51
110.0001452290004
  0
LINE
  5
197
  8
DATA
  6
CONTINUOUS
 62
     7
 10
-74.676148407000028
 20
348.62637456800002
 30
0.0
 11
-52.500000000000021
 21
348.62637456800002
 31
0.0
  0
LINE
  5
198
  8
DATA
  6
CONTINUOUS
 62
     7
 10
-197.5
 20
352.62637456800002
 30
0.0
 11
-52.500000000000021
 21
352.62637456800002
 31
0.0
  0
ARC
  5
199
  8
DATA
  6
CONTINUOUS
 62
     7
 10
-74.676143012000011
 20
346.62637456800002
 30
0.0
 40
4.0
 50
90.0
 51
110.0000000000001
  0
LINE
  5
19A
  8
DATA
  6
CONTINUOUS
 62
     7
 10
-74.676143012000011
 20
350.62637456800002
 30
0.0
 11
-52.500000000000021
 21
350.62637456800002
 31
0.0
  0
LINE
  5
19B
  8
DATA
  6
CONTINUOUS
 62
     7
 10
-74.676143012000011
 20
350.62637456800002
 30
0.0
 11
-99.722737956999964
 21
350.62637456800002
 31
0.0
  0
LINE
  5
19C
  8
DATA
  6
CONTINUOUS
 62
     7
 10
-72.000000000000014
 20
352.52637456800022
 30
0.0
 11
-72.000000000000014
 21
350.62637456800002
 31
0.0
  0
LINE
  5
19D
  8
DATA
  6
CONTINUOUS
 62
     7
 10
-86.413349639999979
 20
344.48273626800011
 30
0.0
 11
-87.097389927000009
 21
346.36212150900002
 31
0.0
  0
LINE
  5
19E
  8
DATA
  6
CONTINUOUS
 62
     7
 10
-87.097389927000009
 20
346.36212150900002
 30
0.0
 11
-105.5
 21
346.36212150900002
 31
0.0
  0
LINE
  5
19F
  8
DATA
  6
CONTINUOUS
 62
     7
 10
-87.097389927000009
 20
346.36212150900002
 30
0.0
 11
-76.044223586000058
 21
350.3851450520001
 31
0.0
  0
LINE
  5
1A0
  8
DATA
  6
CONTINUOUS
 62
     7
 10
-97.0
 20
352.62637456800002
 30
0.0
 11
-97.0
 21
350.62637456800002
 31
0.0
  0
LINE
  5
1A1
  8
DATA
  6
CONTINUOUS
 62
     7
 10
-163.586650359
 20
344.48273626800011
 30
0.0
 11
-162.90261007300001
 21
346.36212150900002
 31
0.0
  0
LINE
  5
1A2
  8
DATA
  6
CONTINUOUS
 62
     7
 10
-162.90261007300001
 20
346.36212150900002
 30
0.0
 11
-144.5
 21
346.36212150900002
 31
0.0
  0
ARC
  5
1A3
  8
DATA
  6
CONTINUOUS
 62
     7
 10
-175.323856987
 20
346.62637456800002
 30
0.0
 40
3.999999999999881
 50
69.999999999999346
 51
90.0
  0
LINE
  5
1A4
  8
DATA
  6
CONTINUOUS
 62
     7
 10
-175.323856987
 20
350.62637456800002
 30
0.0
 11
-197.5
 21
350.62637456800002
 31
0.0
  0
LINE
  5
1A5
  8
DATA
  6
CONTINUOUS
 62
     7
 10
-178.0
 20
352.52637456800022
 30
0.0
 11
-178.0
 21
350.62637456800002
 31
0.0
  0
LINE
  5
1A6
  8
DATA
  6
CONTINUOUS
 62
     7
 10
-162.90261007300001
 20
346.36212150900002
 30
0.0
 11
-173.95577641400001
 21
350.3851450520001
 31
0.0
  0
LINE
  5
1A7
  8
DATA
  6
CONTINUOUS
 62
     7
 10
-153.0
 20
352.62637456800002
 30
0.0
 11
-153.0
 21
350.62637456800002
 31
0.0
  0
LINE
  5
1A8
  8
DATA
  6
CONTINUOUS
 62
     7
 10
-175.323856987
 20
350.62637456800002
 30
0.0
 11
-150.27726204300001
 21
350.62637456800002
 31
0.0
  0
LINE
  5
1A9
  8
DATA
  6
CONTINUOUS
 62
     7
 10
-87.000000000000014
 20
322.3421035849999
 30
0.0
 11
-62.500000000000021
 21
322.3421035849999
 31
0.0
  0
ARC
  5
1AA
  8
DATA
  6
CONTINUOUS
 62
     7
 10
-87.000000000000014
 20
332.3421035849999
 30
0.0
 40
9.9999999999999751
 50
179.99996908999901
 51
270.0
  0
ARC
  5
1AB
  8
DATA
  6
CONTINUOUS
 62
     7
 10
-62.500000000000021
 20
332.3421035849999
 30
0.0
 40
10.0
 50
270.0
 51
0.0000309100009872
  0
LINE
  5
1AC
  8
DATA
  6
CONTINUOUS
 62
     7
 10
-52.500000000000021
 20
348.62637456800002
 30
0.0
 11
-52.500000000000021
 21
332.34210897900022
 31
0.0
  0
LINE
  5
1AD
  8
DATA
  6
CONTINUOUS
 62
     7
 10
-97.0
 20
344.48273626800011
 30
0.0
 11
-97.0
 21
332.34210897900022
 31
0.0
  0
LINE
  5
1AE
  8
DATA
  6
CONTINUOUS
 62
     7
 10
-107.0
 20
264.92637456800003
 30
0.0
 11
-108.0
 21
264.92637456800003
 31
0.0
  0
POLYLINE
  5
1AF
  8
DATA
  6
CONTINUOUS
 62
     7
 66
     1
 10
0.0
 20
0.0
 30
0.0
  0
VERTEX
  5
B35
  8
DATA
  6
CONTINUOUS
 62
     7
 10
-107.0
 20
264.92637456800003
 30
0.0
  0
VERTEX
  5
B36
  8
DATA
  6
CONTINUOUS
 62
     7
 10
-107.0
 20
277.92637456800003
 30
0.0
  0
VERTEX
  5
B37
  8
DATA
  6
CONTINUOUS
 62
     7
 10
-108.0
 20
277.92637456800003
 30
0.0
  0
SEQEND
  5
B38
  8
DATA
  6
CONTINUOUS
 62
     7
  0
LINE
  5
1B5
  8
DATA
  6
CONTINUOUS
 62
     7
 10
-105.2999999999999
 20
276.92637456800003
 30
0.0
 11
-107.0
 21
276.92637456800003
 31
0.0
  0
ARC
  5
1B6
  8
DATA
  6
CONTINUOUS
 62
     7
 10
-105.2999999999999
 20
273.92637456800003
 30
0.0
 40
3.0
 50
0.0
 51
90.0
  0
LINE
  5
1B7
  8
DATA
  6
CONTINUOUS
 62
     7
 10
-105.2999999999999
 20
265.92637456800003
 30
0.0
 11
-107.0
 21
265.92637456800003
 31
0.0
  0
LINE
  5
1B8
  8
DATA
  6
CONTINUOUS
 62
     7
 10
-102.2999999999999
 20
268.92637456800003
 30
0.0
 11
-102.2999999999999
 21
273.92637456800003
 31
0.0
  0
ARC
  5
1B9
  8
DATA
  6
CONTINUOUS
 62
     7
 10
-105.2999999999999
 20
268.92637456800003
 30
0.0
 40
3.0
 50
270.0
 51
0.0
  0
LINE
  5
1BA
  8
DATA
  6
CONTINUOUS
 62
     7
 10
-105.7999999999999
 20
265.92637456800003
 30
0.0
 11
-105.7999999999999
 21
276.92637456800003
 31
0.0
  0
LINE
  5
1BB
  8
DATA
  6
CONTINUOUS
 62
     7
 10
-120.7999999999999
 20
268.42637456800003
 30
0.0
 11
-114.7999999999999
 21
268.42637456800003
 31
0.0
  0
POLYLINE
  5
1BC
  8
DATA
  6
CONTINUOUS
 62
     7
 66
     1
 10
0.0
 20
0.0
 30
0.0
  0
VERTEX
  5
B39
  8
DATA
  6
CONTINUOUS
 62
     7
 10
-120.7999999999999
 20
268.42637456800003
 30
0.0
  0
VERTEX
  5
B3A
  8
DATA
  6
CONTINUOUS
 62
     7
 10
-120.7999999999999
 20
274.42637456800003
 30
0.0
  0
VERTEX
  5
B3B
  8
DATA
  6
CONTINUOUS
 62
     7
 10
-114.7999999999999
 20
274.42637456800003
 30
0.0
  0
SEQEND
  5
B3C
  8
DATA
  6
CONTINUOUS
 62
     7
  0
LINE
  5
1C2
  8
DATA
  6
CONTINUOUS
 62
     7
 10
-143.0
 20
264.92637456800003
 30
0.0
 11
-142.0
 21
264.92637456800003
 31
0.0
  0
POLYLINE
  5
1C3
  8
DATA
  6
CONTINUOUS
 62
     7
 66
     1
 10
0.0
 20
0.0
 30
0.0
  0
VERTEX
  5
B3D
  8
DATA
  6
CONTINUOUS
 62
     7
 10
-143.0
 20
264.92637456800003
 30
0.0
  0
VERTEX
  5
B3E
  8
DATA
  6
CONTINUOUS
 62
     7
 10
-143.0
 20
277.92637456800003
 30
0.0
  0
VERTEX
  5
B3F
  8
DATA
  6
CONTINUOUS
 62
     7
 10
-142.0
 20
277.92637456800003
 30
0.0
  0
SEQEND
  5
B40
  8
DATA
  6
CONTINUOUS
 62
     7
  0
LINE
  5
1C9
  8
DATA
  6
CONTINUOUS
 62
     7
 10
-144.69999999999999
 20
276.92637456800003
 30
0.0
 11
-143.0
 21
276.92637456800003
 31
0.0
  0
ARC
  5
1CA
  8
DATA
  6
CONTINUOUS
 62
     7
 10
-144.69999999999999
 20
273.92637456800003
 30
0.0
 40
3.0
 50
90.0
 51
180.0
  0
LINE
  5
1CB
  8
DATA
  6
CONTINUOUS
 62
     7
 10
-144.69999999999999
 20
265.92637456800003
 30
0.0
 11
-143.0
 21
265.92637456800003
 31
0.0
  0
LINE
  5
1CC
  8
DATA
  6
CONTINUOUS
 62
     7
 10
-147.69999999999999
 20
268.92637456800003
 30
0.0
 11
-147.69999999999999
 21
273.92637456800003
 31
0.0
  0
ARC
  5
1CD
  8
DATA
  6
CONTINUOUS
 62
     7
 10
-144.69999999999999
 20
268.92637456800003
 30
0.0
 40
3.0
 50
180.0
 51
270.0
  0
LINE
  5
1CE
  8
DATA
  6
CONTINUOUS
 62
     7
 10
-144.19999999999999
 20
265.92637456800003
 30
0.0
 11
-144.19999999999999
 21
276.92637456800003
 31
0.0
  0
LINE
  5
1CF
  8
DATA
  6
CONTINUOUS
 62
     7
 10
-129.19999999999999
 20
268.42637456800003
 30
0.0
 11
-135.19999999999999
 21
268.42637456800003
 31
0.0
  0
POLYLINE
  5
1D0
  8
DATA
  6
CONTINUOUS
 62
     7
 66
     1
 10
0.0
 20
0.0
 30
0.0
  0
VERTEX
  5
B41
  8
DATA
  6
CONTINUOUS
 62
     7
 10
-129.19999999999999
 20
268.42637456800003
 30
0.0
  0
VERTEX
  5
B42
  8
DATA
  6
CONTINUOUS
 62
     7
 10
-129.19999999999999
 20
274.42637456800003
 30
0.0
  0
VERTEX
  5
B43
  8
DATA
  6
CONTINUOUS
 62
     7
 10
-135.19999999999999
 20
274.42637456800003
 30
0.0
  0
SEQEND
  5
B44
  8
DATA
  6
CONTINUOUS
 62
     7
  0
ARC
  5
1D6
  8
DATA
  6
CONTINUOUS
 62
     7
 10
-114.7999999999999
 20
333.42637456800009
 30
0.0
 40
6.0
 50
323.13010235399958
 51
36.869897646000311
  0
ARC
  5
1D7
  8
DATA
  6
CONTINUOUS
 62
     7
 10
-115.7
 20
332.42637456800009
 30
0.0
 40
1.0
 50
180.0
 51
270.0
  0
LINE
  5
1D8
  8
DATA
  6
CONTINUOUS
 62
     7
 10
-116.7
 20
332.42637456800009
 30
0.0
 11
-116.7
 21
334.42638219800011
 31
0.0
  0
ARC
  5
1D9
  8
DATA
  6
CONTINUOUS
 62
     7
 10
-115.7
 20
334.42637456800009
 30
0.0
 40
1.0
 50
90.0
 51
179.9995628679973
  0
LINE
  5
1DA
  8
DATA
  6
CONTINUOUS
 62
     7
 10
-113.6000076289999
 20
331.42637456800009
 30
0.0
 11
-115.7
 21
331.42637456800009
 31
0.0
  0
ARC
  5
1DB
  8
DATA
  6
CONTINUOUS
 62
     7
 10
-113.59999999999999
 20
331.82637456800012
 30
0.0
 40
0.4000000000000909
 50
269.9989071700096
 51
0.0
  0
ARC
  5
1DC
  8
DATA
  6
CONTINUOUS
 62
     7
 10
-113.59999999999999
 20
335.02637456800022
 30
0.0
 40
0.3999999999999773
 50
0.0
 51
90.000772747988847
  0
LINE
  5
1DD
  8
DATA
  6
CONTINUOUS
 62
     7
 10
-113.60000539399989
 20
335.42637456800009
 30
0.0
 11
-115.7
 21
335.42637456800009
 31
0.0
  0
ARC
  5
1DE
  8
DATA
  6
CONTINUOUS
 62
     7
 10
-135.2000053940001
 20
333.42637456800009
 30
0.0
 40
6.0
 50
143.1301023539996
 51
216.86989764600031
  0
ARC
  5
1DF
  8
DATA
  6
CONTINUOUS
 62
     7
 10
-134.3000053939999
 20
332.42637456800009
 30
0.0
 40
1.0
 50
270.0
 51
0.0
  0
LINE
  5
1E0
  8
DATA
  6
CONTINUOUS
 62
     7
 10
-133.3000053939999
 20
332.42637456800009
 30
0.0
 11
-133.3000053939999
 21
334.42638219800011
 31
0.0
  0
ARC
  5
1E1
  8
DATA
  6
CONTINUOUS
 62
     7
 10
-134.3000053939999
 20
334.42637456800009
 30
0.0
 40
1.0
 50
0.0004371320026646
 51
90.0
  0
LINE
  5
1E2
  8
DATA
  6
CONTINUOUS
 62
     7
 10
-136.39999776500011
 20
331.42637456800009
 30
0.0
 11
-134.3000053939999
 21
331.42637456800009
 31
0.0
  0
ARC
  5
1E3
  8
DATA
  6
CONTINUOUS
 62
     7
 10
-136.400005394
 20
331.82637456800012
 30
0.0
 40
0.3999999999999773
 50
180.0
 51
270.0010928299904
  0
ARC
  5
1E4
  8
DATA
  6
CONTINUOUS
 62
     7
 10
-136.400005394
 20
335.02637456800022
 30
0.0
 40
0.3999999999998636
 50
89.999227252011167
 51
180.0
  0
LINE
  5
1E5
  8
DATA
  6
CONTINUOUS
 62
     7
 10
-136.40000000000001
 20
335.42637456800009
 30
0.0
 11
-134.3000053939999
 21
335.42637456800009
 31
0.0
  0
LINE
  5
1E6
  8
DATA
  6
CONTINUOUS
 62
     7
 10
-138.40000000000001
 20
322.42637456800009
 30
0.0
 11
-136.7999999999999
 21
322.42637456800009
 31
0.0
  0
LINE
  5
1E7
  8
DATA
  6
CONTINUOUS
 62
     7
 10
-113.2
 20
322.42637456800009
 30
0.0
 11
-111.59999999999999
 21
322.42637456800009
 31
0.0
  0
LINE
  5
1E8
  8
DATA
  6
CONTINUOUS
 62
     7
 10
-72.694444444000084
 20
352.42637456800003
 30
0.0
 11
-72.694444444000084
 21
350.82637456800001
 31
0.0
  0
LINE
  5
1E9
  8
DATA
  6
CONTINUOUS
 62
     7
 10
-177.3055555549999
 20
352.42637456800003
 30
0.0
 11
-177.3055555549999
 21
350.82637456800001
 31
0.0
  0
ARC
  5
1EA
  8
DATA
  6
CONTINUOUS
 62
     7
 10
-142.0
 20
348.82637456800001
 30
0.0
 40
3.6000000000000218
 50
0.0
 51
90.0
  0
ARC
  5
1EB
  8
DATA
  6
CONTINUOUS
 62
     7
 10
-108.0
 20
348.82637456800001
 30
0.0
 40
3.5999999999999082
 50
90.0
 51
180.0
  0
LINE
  5
1EC
  8
DATA
  6
CONTINUOUS
 62
     7
 10
-136.7999999999999
 20
322.42637456800009
 30
0.0
 11
-136.7999999999999
 21
348.82637996300008
 31
0.0
  0
ARC
  5
1ED
  8
DATA
  6
CONTINUOUS
 62
     7
 10
-134.7999999999999
 20
348.82637456800001
 30
0.0
 40
2.0
 50
90.000154550001639
 51
179.99984545000169
  0
LINE
  5
1EE
  8
DATA
  6
CONTINUOUS
 62
     7
 10
-134.80000539400001
 20
350.82637456800001
 30
0.0
 11
-115.2
 21
350.82637456800001
 31
0.0
  0
ARC
  5
1EF
  8
DATA
  6
CONTINUOUS
 62
     7
 10
-115.2
 20
348.82637456800001
 30
0.0
 40
2.0
 50
0.0
 51
90.0
  0
LINE
  5
1F0
  8
DATA
  6
CONTINUOUS
 62
     7
 10
-113.2
 20
322.42637456800009
 30
0.0
 11
-113.2
 21
348.82637456800001
 31
0.0
  0
LINE
  5
1F1
  8
DATA
  6
CONTINUOUS
 62
     7
 10
-111.59999999999999
 20
261.42637456300008
 30
0.0
 11
-111.59999999999999
 21
348.82637996300008
 31
0.0
  0
ARC
  5
1F2
  8
DATA
  6
CONTINUOUS
 62
     7
 10
-115.2
 20
348.82637456800001
 30
0.0
 40
3.6000000000000849
 50
0.0000858609980172
 51
90.0
  0
ARC
  5
1F3
  8
DATA
  6
CONTINUOUS
 62
     7
 10
-134.7999999999999
 20
348.82637456800001
 30
0.0
 40
3.5999999999999082
 50
90.0
 51
180.0
  0
LINE
  5
1F4
  8
DATA
  6
CONTINUOUS
 62
     7
 10
-138.40000000000001
 20
261.42637465299998
 30
0.0
 11
-138.40000000000001
 21
348.82637456800001
 31
0.0
  0
LINE
  5
1F5
  8
DATA
  6
CONTINUOUS
 62
     7
 10
-177.3055555549999
 20
352.42637456800003
 30
0.0
 11
-142.0
 21
352.42637456800003
 31
0.0
  0
LINE
  5
1F6
  8
DATA
  6
CONTINUOUS
 62
     7
 10
-108.0
 20
352.42637456800003
 30
0.0
 11
-72.694444444000084
 21
352.42637456800003
 31
0.0
  0
LINE
  5
1F7
  8
DATA
  6
CONTINUOUS
 62
     7
 10
-134.7999999999999
 20
352.42637456800003
 30
0.0
 11
-115.2
 21
352.42637456800003
 31
0.0
  0
LINE
  5
1F8
  8
DATA
  6
CONTINUOUS
 62
     7
 10
-110.0
 20
261.42637456300008
 30
0.0
 11
-110.0
 21
348.82637456800001
 31
0.0
  0
LINE
  5
1F9
  8
DATA
  6
CONTINUOUS
 62
     7
 10
-140.0
 20
261.42637465299998
 30
0.0
 11
-140.0
 21
348.82637456800001
 31
0.0
  0
ARC
  5
1FA
  8
DATA
  6
CONTINUOUS
 62
     7
 10
-142.0
 20
348.82637456800001
 30
0.0
 40
2.0
 50
0.0
 51
90.0
  0
LINE
  5
1FB
  8
DATA
  6
CONTINUOUS
 62
     7
 10
-177.3055555549999
 20
350.82637456800001
 30
0.0
 11
-142.0
 21
350.82637456800001
 31
0.0
  0
ARC
  5
1FC
  8
DATA
  6
CONTINUOUS
 62
     7
 10
-108.0
 20
348.82637456800001
 30
0.0
 40
2.0
 50
90.0
 51
180.0
  0
LINE
  5
1FD
  8
DATA
  6
CONTINUOUS
 62
     7
 10
-108.0
 20
350.82637456800001
 30
0.0
 11
-72.694444444000084
 21
350.82637456800001
 31
0.0
  0
LINE
  5
1FE
  8
DATA
  6
CONTINUOUS
 62
     7
 10
-114.7999999999999
 20
296.42637456800009
 30
0.0
 11
-111.59999999999999
 21
296.42637456800009
 31
0.0
  0
LINE
  5
1FF
  8
DATA
  6
CONTINUOUS
 62
     7
 10
-114.7999999999999
 20
261.42637456300008
 30
0.0
 11
-114.7999999999999
 21
296.42637456800009
 31
0.0
  0
LINE
  5
200
  8
DATA
  6
CONTINUOUS
 62
     7
 10
-110.0
 20
261.42637456300008
 30
0.0
 11
-114.7999999999999
 21
261.4263745770001
 31
0.0
  0
LINE
  5
201
  8
DATA
  6
CONTINUOUS
 62
     7
 10
-135.19999999999999
 20
296.42637456800009
 30
0.0
 11
-138.40000000000001
 21
296.42637456800009
 31
0.0
  0
LINE
  5
202
  8
DATA
  6
CONTINUOUS
 62
     7
 10
-135.19999999999999
 20
261.42637456300008
 30
0.0
 11
-135.19999999999999
 21
296.42637456800009
 31
0.0
  0
LINE
  5
203
  8
DATA
  6
CONTINUOUS
 62
     7
 10
-140.0
 20
261.42637456300008
 30
0.0
 11
-135.19999999999999
 21
261.4263745770001
 31
0.0
  0
ARC
  5
204
  8
DATA
  6
CONTINUOUS
 62
     7
 10
-79.633527563685291
 20
336.49812085411872
 30
0.0
 40
5.1206761341043077
 50
153.86438666348559
 51
180.1553233769624
  0
ARC
  5
205
  8
DATA
  6
CONTINUOUS
 62
     7
 10
-77.97472965336722
 20
335.6235771638249
 30
0.0
 40
6.9953143728722971
 50
127.88784454865581
 51
153.41857552630191
  0
ARC
  5
206
  8
DATA
  6
CONTINUOUS
 62
     7
 10
-75.207781299995617
 20
331.96448883881152
 30
0.0
 40
11.582525207159129
 50
87.734883414394346
 51
127.5742405078301
  0
ARC
  5
207
  8
DATA
  6
CONTINUOUS
 62
     7
 10
-79.633527563685291
 20
336.47035756188131
 30
0.0
 40
5.120676134104297
 50
179.84467662303749
 51
206.1356133365143
  0
ARC
  5
208
  8
DATA
  6
CONTINUOUS
 62
     7
 10
-77.97472965336722
 20
337.34490125217508
 30
0.0
 40
6.9953143728722731
 50
206.58142447369801
 51
232.11215545134419
  0
ARC
  5
209
  8
DATA
  6
CONTINUOUS
 62
     7
 10
-75.207781299995617
 20
341.00398957718852
 30
0.0
 40
11.58252520715916
 50
232.42575949216999
 51
272.2651165856056
  0
ARC
  5
20A
  8
DATA
  6
CONTINUOUS
 62
     7
 10
-69.866472436314751
 20
336.47035756188131
 30
0.0
 40
5.1206761341043077
 50
333.86438666348562
 51
0.1553233769624853
  0
ARC
  5
20B
  8
DATA
  6
CONTINUOUS
 62
     7
 10
-71.525270346632809
 20
337.34490125217508
 30
0.0
 40
6.9953143728722971
 50
307.88784454865578
 51
333.41857552630199
  0
ARC
  5
20C
  8
DATA
  6
CONTINUOUS
 62
     7
 10
-74.292218700004383
 20
341.00398957718852
 30
0.0
 40
11.582525207159129
 50
267.7348834143944
 51
307.5742405078301
  0
ARC
  5
20D
  8
DATA
  6
CONTINUOUS
 62
     7
 10
-71.525270346632809
 20
335.6235771638249
 30
0.0
 40
6.9953143728722731
 50
26.581424473698139
 51
52.112155451344222
  0
ARC
  5
20E
  8
DATA
  6
CONTINUOUS
 62
     7
 10
-74.292218700004383
 20
331.96448883881152
 30
0.0
 40
11.58252520715916
 50
52.425759492169931
 51
92.265116585605639
  0
ARC
  5
20F
  8
DATA
  6
CONTINUOUS
 62
     7
 10
-69.866472436314751
 20
336.49812085411872
 30
0.0
 40
5.120676134104297
 50
359.8446766230374
 51
26.135613336514378
  0
ARC
  5
210
  8
DATA
  6
CONTINUOUS
 62
     7
 10
-191.5
 20
-194.0
 30
0.0
 40
6.0
 50
180.0
 51
270.0
  0
LINE
  5
211
  8
DATA
  6
CONTINUOUS
 62
     7
 10
-191.5
 20
-200.0
 30
0.0
 11
-58.500000000000021
 21
-200.0
 31
0.0
  0
ARC
  5
212
  8
DATA
  6
CONTINUOUS
 62
     7
 10
-58.500000000000021
 20
-194.0
 30
0.0
 40
6.0
 50
270.0
 51
0.0
  0
LINE
  5
213
  8
DATA
  6
CONTINUOUS
 62
     7
 10
-197.5
 20
-26.000000000000028
 30
0.0
 11
-197.5
 21
-194.0
 31
0.0
  0
ARC
  5
214
  8
DATA
  6
CONTINUOUS
 62
     7
 10
-191.5
 20
-26.000000000000028
 30
0.0
 40
6.0
 50
90.0
 51
180.0
  0
LINE
  5
215
  8
DATA
  6
CONTINUOUS
 62
     7
 10
-74.999999999999986
 20
-20.000000000000028
 30
0.0
 11
-58.500000000000021
 21
-20.000000000000028
 31
0.0
  0
ARC
  5
216
  8
DATA
  6
CONTINUOUS
 62
     7
 10
-58.500000000000021
 20
-26.000000000000028
 30
0.0
 40
6.0
 50
0.0
 51
90.0
  0
LINE
  5
217
  8
DATA
  6
CONTINUOUS
 62
     7
 10
-52.500000000000021
 20
-26.000000000000028
 30
0.0
 11
-52.500000000000021
 21
-194.0
 31
0.0
  0
CIRCLE
  5
218
  8
DATA
  6
CONTINUOUS
 62
     7
 10
-185.5
 20
-110.0
 30
0.0
 40
4.6000000000000227
  0
CIRCLE
  5
219
  8
DATA
  6
CONTINUOUS
 62
     7
 10
-185.5
 20
-185.0
 30
0.0
 40
4.6000000000000227
  0
CIRCLE
  5
21A
  8
DATA
  6
CONTINUOUS
 62
     7
 10
-64.499999999999986
 20
-185.0
 30
0.0
 40
4.5999999999999934
  0
CIRCLE
  5
21B
  8
DATA
  6
CONTINUOUS
 62
     7
 10
-64.499999999999986
 20
-110.0
 30
0.0
 40
4.5999999999999934
  0
CIRCLE
  5
21C
  8
DATA
  6
CONTINUOUS
 62
     7
 10
-64.499999999999986
 20
-35.000000000000028
 30
0.0
 40
4.5999999999999934
  0
CIRCLE
  5
21D
  8
DATA
  6
CONTINUOUS
 62
     7
 10
-185.5
 20
-35.000000000000028
 30
0.0
 40
4.6000000000000227
  0
TEXT
  5
21E
  8
DATA
 62
     7
 10
350.0
 20
-440.21829999999989
 30
0.0
 40
12.21630859375
  1
JBL-1 MKII
 41
0.7
 11
350.0
 21
-428.00199140624989
 31
0.0
 73
     3
  0
TEXT
  5
21F
  8
DATA
 62
     7
 10
350.0
 20
-403.9683
 30
0.0
 40
12.21630859375
  1
JBL
 41
0.7
 11
350.0
 21
-391.75199140625
 31
0.0
 73
     3
  0
TEXT
  5
220
  8
DATA
 62
     7
 10
337.5
 20
-421.3531099999999
 30
0.0
 40
8.1443339843750007
  1
マウントブラケット（8330A、8340A用）
 41
0.7
 11
337.5
 21
-413.20877601562489
 31
0.0
 73
     3
  0
CIRCLE
  5
221
  8
DATA
  6
CONTINUOUS
 62
     7
 10
86.665000000000006
 20
-165.57380000000001
 30
0.0
 40
3.0
  0
CIRCLE
  5
222
  8
DATA
  6
CONTINUOUS
 62
     7
 10
76.977800000000002
 20
-164.29849999999999
 30
0.0
 40
3.0
  0
CIRCLE
  5
223
  8
DATA
  6
CONTINUOUS
 62
     7
 10
67.438700000000011
 20
-162.18369999999999
 30
0.0
 40
3.0
  0
CIRCLE
  5
224
  8
DATA
  6
CONTINUOUS
 62
     7
 10
130.11239999999989
 20
-73.448600000000042
 30
0.0
 40
3.0
  0
CIRCLE
  5
225
  8
DATA
  6
CONTINUOUS
 62
     7
 10
122.36069999999999
 20
-67.500500000000045
 30
0.0
 40
3.0
  0
CIRCLE
  5
226
  8
DATA
  6
CONTINUOUS
 62
     7
 10
119.24979999999999
 20
-75.107800000000054
 30
0.0
 40
3.0
  0
CIRCLE
  5
227
  8
DATA
  6
CONTINUOUS
 62
     7
 10
115.8944
 20
-82.576600000000028
 30
0.0
 40
3.0
  0
CIRCLE
  5
228
  8
DATA
  6
CONTINUOUS
 62
     7
 10
112.2984
 20
-89.900600000000054
 30
0.0
 40
3.0
  0
CIRCLE
  5
229
  8
DATA
  6
CONTINUOUS
 62
     7
 10
108.4658
 20
-97.073900000000023
 30
0.0
 40
3.0
  0
CIRCLE
  5
22A
  8
DATA
  6
CONTINUOUS
 62
     7
 10
114.12009999999999
 20
-62.250700000000023
 30
0.0
 40
2.999999999999992
  0
CIRCLE
  5
22B
  8
DATA
  6
CONTINUOUS
 62
     7
 10
111.6841
 20
-70.100200000000015
 30
0.0
 40
3.0
  0
CIRCLE
  5
22C
  8
DATA
  6
CONTINUOUS
 62
     7
 10
108.9924
 20
-77.832900000000052
 30
0.0
 40
2.999999999999992
  0
CIRCLE
  5
22D
  8
DATA
  6
CONTINUOUS
 62
     7
 10
106.0484
 20
-85.442600000000013
 30
0.0
 40
3.0
  0
CIRCLE
  5
22E
  8
DATA
  6
CONTINUOUS
 62
     7
 10
102.8556
 20
-92.922600000000045
 30
0.0
 40
3.0
  0
CIRCLE
  5
22F
  8
DATA
  6
CONTINUOUS
 62
     7
 10
105.4534
 20
-57.739100000000043
 30
0.0
 40
3.0000000000000031
  0
CIRCLE
  5
230
  8
DATA
  6
CONTINUOUS
 62
     7
 10
103.7107
 20
-65.771000000000043
 30
0.0
 40
3.0
  0
CIRCLE
  5
231
  8
DATA
  6
CONTINUOUS
 62
     7
 10
101.7032
 20
-73.708900000000014
 30
0.0
 40
3.0
  0
CIRCLE
  5
232
  8
DATA
  6
CONTINUOUS
 62
     7
 10
99.433599999999998
 20
-81.546200000000042
 30
0.0
 40
3.0
  0
CIRCLE
  5
233
  8
DATA
  6
CONTINUOUS
 62
     7
 10
96.904899999999998
 20
-89.276000000000025
 30
0.0
 40
3.0
  0
CIRCLE
  5
234
  8
DATA
  6
CONTINUOUS
 62
     7
 10
94.082400000000007
 20
-70.235900000000015
 30
0.0
 40
3.0
  0
CIRCLE
  5
235
  8
DATA
  6
CONTINUOUS
 62
     7
 10
92.504499999999979
 20
-78.241100000000003
 30
0.0
 40
3.0
  0
CIRCLE
  5
236
  8
DATA
  6
CONTINUOUS
 62
     7
 10
90.659099999999995
 20
-86.16190000000006
 30
0.0
 40
3.0000000000000009
  0
CIRCLE
  5
237
  8
DATA
  6
CONTINUOUS
 62
     7
 10
58.120100000000001
 20
-159.2456
 30
0.0
 40
3.0
  0
LINE
  5
238
  8
DATA
  6
CONTINUOUS
 62
     7
 10
28.600000000000009
 20
-10.09690000000003
 30
0.0
 11
28.600000000000009
 21
-165.09690000000001
 31
0.0
  0
LINE
  5
239
  8
DATA
  6
CONTINUOUS
 62
     7
 10
25.0
 20
-10.09690000000003
 30
0.0
 11
25.0
 21
-165.09690000000001
 31
0.0
  0
LINE
  5
23A
  8
DATA
  6
CONTINUOUS
 62
     7
 10
28.600000000000009
 20
-165.09690000000001
 30
0.0
 11
25.0
 21
-165.09690000000001
 31
0.0
  0
CIRCLE
  5
23B
  8
DATA
  6
CONTINUOUS
 62
     7
 10
85.555400000000006
 20
-157.43029999999999
 30
0.0
 40
3.0
  0
CIRCLE
  5
23C
  8
DATA
  6
CONTINUOUS
 62
     7
 10
76.582300000000004
 20
-156.08920000000001
 30
0.0
 40
2.999999999999996
  0
CIRCLE
  5
23D
  8
DATA
  6
CONTINUOUS
 62
     7
 10
67.760099999999994
 20
-153.97120000000001
 30
0.0
 40
3.0
  0
CIRCLE
  5
23E
  8
DATA
  6
CONTINUOUS
 62
     7
 10
93.075999999999979
 20
-149.94149999999999
 30
0.0
 40
3.0
  0
CIRCLE
  5
23F
  8
DATA
  6
CONTINUOUS
 62
     7
 10
84.726900000000001
 20
-149.28440000000001
 30
0.0
 40
3.0
  0
CIRCLE
  5
240
  8
DATA
  6
CONTINUOUS
 62
     7
 10
76.466900000000024
 20
-147.90219999999999
 30
0.0
 40
3.0
  0
CIRCLE
  5
241
  8
DATA
  6
CONTINUOUS
 62
     7
 10
68.358699999999985
 20
-145.80520000000001
 30
0.0
 40
3.0
  0
CIRCLE
  5
242
  8
DATA
  6
CONTINUOUS
 62
     7
 10
91.820800000000006
 20
-141.8794
 30
0.0
 40
3.0
  0
CIRCLE
  5
243
  8
DATA
  6
CONTINUOUS
 62
     7
 10
84.179200000000023
 20
-141.14359999999999
 30
0.0
 40
3.0
  0
CIRCLE
  5
244
  8
DATA
  6
CONTINUOUS
 62
     7
 10
76.630700000000004
 20
-139.74459999999999
 30
0.0
 40
3.0
  0
CIRCLE
  5
245
  8
DATA
  6
CONTINUOUS
 62
     7
 10
69.232900000000001
 20
-137.69300000000001
 30
0.0
 40
2.999999999999996
  0
CIRCLE
  5
246
  8
DATA
  6
CONTINUOUS
 62
     7
 10
90.8459
 20
-133.80510000000001
 30
0.0
 40
3.0
  0
CIRCLE
  5
247
  8
DATA
  6
CONTINUOUS
 62
     7
 10
83.911599999999964
 20
-133.01509999999999
 30
0.0
 40
3.0000000000000009
  0
CIRCLE
  5
248
  8
DATA
  6
CONTINUOUS
 62
     7
 10
77.07259999999998
 20
-131.62370000000001
 30
0.0
 40
3.0
  0
CIRCLE
  5
249
  8
DATA
  6
CONTINUOUS
 62
     7
 10
70.380899999999997
 20
-129.64150000000001
 30
0.0
 40
3.0
  0
LINE
  5
24A
  8
DATA
  6
CONTINUOUS
 62
     7
 10
52.811100000000003
 20
-10.09690000000003
 30
0.0
 11
25.0
 21
-10.09690000000003
 31
0.0
  0
LINE
  5
24B
  8
DATA
  6
CONTINUOUS
 62
     7
 10
52.811100000000003
 20
-10.09690000000003
 30
0.0
 11
143.1132999999999
 21
-63.147500000000029
 31
0.0
  0
LINE
  5
24C
  8
DATA
  6
CONTINUOUS
 62
     7
 10
28.600000000000009
 20
-165.09690000000001
 30
0.0
 11
80.477200000000025
 21
-178.9973
 31
0.0
  0
LINE
  5
24D
  8
DATA
  6
CONTINUOUS
 62
     7
 10
80.477200000000025
 20
-178.9973
 30
0.0
 11
99.764300000000006
 21
-182.24799999999999
 31
0.0
  0
LINE
  5
24E
  8
DATA
  6
CONTINUOUS
 62
     7
 10
99.764300000000006
 20
-182.24799999999999
 30
0.0
 11
143.1132999999999
 21
-63.147500000000029
 31
0.0
  0
ARC
  5
24F
  8
DATA
  6
CONTINUOUS
 62
     7
 10
95.390399999999985
 20
-62.153200000000012
 30
0.0
 40
2.9999734415491068
 50
128.68993378351109
 51
36.8275366067801
  0
POLYLINE
  5
250
  8
DATA
  6
CONTINUOUS
 62
     7
 66
     1
 10
0.0
 20
0.0
 30
0.0
 70
   128
  0
VERTEX
  5
B45
  8
DATA
  6
CONTINUOUS
 62
     7
 10
93.347300000000004
 20
-171.82140000000001
 30
0.0
  0
VERTEX
  5
B46
  8
DATA
  6
CONTINUOUS
 62
     7
 10
93.347068753186804
 20
-171.8218070927137
 30
0.0
 42
0.0839609845947185
  0
VERTEX
  5
B47
  8
DATA
  6
CONTINUOUS
 62
     7
 10
92.679371598773443
 20
-173.65630993084321
 30
0.0
  0
VERTEX
  5
B48
  8
DATA
  6
CONTINUOUS
 62
     7
 10
92.679299999999984
 20
-173.6567
 30
0.0
  0
VERTEX
  5
B49
  8
DATA
  6
CONTINUOUS
 62
     7
 10
92.679299999999984
 20
-173.6567
 30
0.0
  0
SEQEND
  5
B4A
  8
DATA
  6
CONTINUOUS
 62
     7
  0
POLYLINE
  5
257
  8
DATA
  6
CONTINUOUS
 62
     7
 66
     1
 10
0.0
 20
0.0
 30
0.0
 70
   128
  0
VERTEX
  5
B4B
  8
DATA
  6
CONTINUOUS
 62
     7
 10
92.679299999999984
 20
-173.6567
 30
0.0
  0
VERTEX
  5
B4C
  8
DATA
  6
CONTINUOUS
 62
     7
 10
92.679260139657231
 20
-173.65695212476959
 30
0.0
 42
0.0707079468984028
  0
VERTEX
  5
B4D
  8
DATA
  6
CONTINUOUS
 62
     7
 10
92.671960286469485
 20
-174.12428537760459
 30
0.0
  0
VERTEX
  5
B4E
  8
DATA
  6
CONTINUOUS
 62
     7
 10
92.671999999999997
 20
-174.12459999999999
 30
0.0
  0
VERTEX
  5
B4F
  8
DATA
  6
CONTINUOUS
 62
     7
 10
92.671999999999997
 20
-174.12459999999999
 30
0.0
  0
VERTEX
  5
B50
  8
DATA
  6
CONTINUOUS
 62
     7
 10
92.671999999999997
 20
-174.12459999999999
 30
0.0
 42
0.087198016978202
  0
VERTEX
  5
B51
  8
DATA
  6
CONTINUOUS
 62
     7
 10
92.797500000000014
 20
-174.52459999999999
 30
0.0
  0
VERTEX
  5
B52
  8
DATA
  6
CONTINUOUS
 62
     7
 10
92.797500000000014
 20
-174.52459999999999
 30
0.0
  0
VERTEX
  5
B53
  8
DATA
  6
CONTINUOUS
 62
     7
 10
92.797500000000014
 20
-174.52459999999999
 30
0.0
 42
0.113498573563348
  0
VERTEX
  5
B54
  8
DATA
  6
CONTINUOUS
 62
     7
 10
93.038800000000023
 20
-174.80250000000001
 30
0.0
  0
VERTEX
  5
B55
  8
DATA
  6
CONTINUOUS
 62
     7
 10
93.038800000000023
 20
-174.80250000000001
 30
0.0
  0
VERTEX
  5
B56
  8
DATA
  6
CONTINUOUS
 62
     7
 10
93.038854542323662
 20
-174.80253832502311
 30
0.0
 42
0.1326248324553175
  0
VERTEX
  5
B57
  8
DATA
  6
CONTINUOUS
 62
     7
 10
93.363192488423522
 20
-174.92049082954011
 30
0.0
  0
VERTEX
  5
B58
  8
DATA
  6
CONTINUOUS
 62
     7
 10
93.363299999999995
 20
-174.9205
 30
0.0
  0
VERTEX
  5
B59
  8
DATA
  6
CONTINUOUS
 62
     7
 10
93.363299999999995
 20
-174.9205
 30
0.0
  0
VERTEX
  5
B5A
  8
DATA
  6
CONTINUOUS
 62
     7
 10
93.363299999999995
 20
-174.9205
 30
0.0
 42
0.1202419588897337
  0
VERTEX
  5
B5B
  8
DATA
  6
CONTINUOUS
 62
     7
 10
93.726799999999997
 20
-174.86279999999999
 30
0.0
  0
VERTEX
  5
B5C
  8
DATA
  6
CONTINUOUS
 62
     7
 10
93.726799999999997
 20
-174.86279999999999
 30
0.0
  0
VERTEX
  5
B5D
  8
DATA
  6
CONTINUOUS
 62
     7
 10
93.726799999999997
 20
-174.86279999999999
 30
0.0
 42
0.093081947679857
  0
VERTEX
  5
B5E
  8
DATA
  6
CONTINUOUS
 62
     7
 10
94.080100000000002
 20
-174.6371
 30
0.0
  0
VERTEX
  5
B5F
  8
DATA
  6
CONTINUOUS
 62
     7
 10
94.080100000000002
 20
-174.6371
 30
0.0
  0
VERTEX
  5
B60
  8
DATA
  6
CONTINUOUS
 62
     7
 10
94.080279522795564
 20
-174.6369357032066
 30
0.0
 42
0.0737473843270774
  0
VERTEX
  5
B61
  8
DATA
  6
CONTINUOUS
 62
     7
 10
94.375117311240771
 20
-174.27413946014619
 30
0.0
  0
VERTEX
  5
B62
  8
DATA
  6
CONTINUOUS
 62
     7
 10
94.375200000000007
 20
-174.274
 30
0.0
  0
VERTEX
  5
B63
  8
DATA
  6
CONTINUOUS
 62
     7
 10
94.375200000000007
 20
-174.274
 30
0.0
  0
VERTEX
  5
B64
  8
DATA
  6
CONTINUOUS
 62
     7
 10
94.375200000000007
 20
-174.274
 30
0.0
  0
SEQEND
  5
B65
  8
DATA
  6
CONTINUOUS
 62
     7
  0
POLYLINE
  5
273
  8
DATA
  6
CONTINUOUS
 62
     7
 66
     1
 10
0.0
 20
0.0
 30
0.0
 70
   128
  0
VERTEX
  5
B66
  8
DATA
  6
CONTINUOUS
 62
     7
 10
94.375200000000007
 20
-174.274
 30
0.0
  0
VERTEX
  5
B67
  8
DATA
  6
CONTINUOUS
 62
     7
 10
94.375404142129867
 20
-174.2736406230535
 30
0.0
 42
0.0839655735843707
  0
VERTEX
  5
B68
  8
DATA
  6
CONTINUOUS
 62
     7
 10
95.043120559290045
 20
-172.43903283635129
 30
0.0
  0
VERTEX
  5
B69
  8
DATA
  6
CONTINUOUS
 62
     7
 10
95.043200000000013
 20
-172.43860000000001
 30
0.0
  0
VERTEX
  5
B6A
  8
DATA
  6
CONTINUOUS
 62
     7
 10
95.043200000000013
 20
-172.43860000000001
 30
0.0
  0
SEQEND
  5
B6B
  8
DATA
  6
CONTINUOUS
 62
     7
  0
POLYLINE
  5
27A
  8
DATA
  6
CONTINUOUS
 62
     7
 66
     1
 10
0.0
 20
0.0
 30
0.0
 70
   128
  0
VERTEX
  5
B6C
  8
DATA
  6
CONTINUOUS
 62
     7
 10
93.393500000000003
 20
-171.749
 30
0.0
 42
0.0125898567972731
  0
VERTEX
  5
B6D
  8
DATA
  6
CONTINUOUS
 62
     7
 10
93.347322366552504
 20
-171.821362923913
 30
0.0
  0
VERTEX
  5
B6E
  8
DATA
  6
CONTINUOUS
 62
     7
 10
93.347300000000004
 20
-171.82140000000001
 30
0.0
  0
VERTEX
  5
B6F
  8
DATA
  6
CONTINUOUS
 62
     7
 10
93.347300000000004
 20
-171.82140000000001
 30
0.0
  0
SEQEND
  5
B70
  8
DATA
  6
CONTINUOUS
 62
     7
  0
POLYLINE
  5
280
  8
DATA
  6
CONTINUOUS
 62
     7
 66
     1
 10
0.0
 20
0.0
 30
0.0
 70
   128
  0
VERTEX
  5
B71
  8
DATA
  6
CONTINUOUS
 62
     7
 10
95.043200000000013
 20
-172.43860000000001
 30
0.0
  0
VERTEX
  5
B72
  8
DATA
  6
CONTINUOUS
 62
     7
 10
95.043331935039504
 20
-172.43775241732189
 30
0.0
 42
0.0117772063659052
  0
VERTEX
  5
B73
  8
DATA
  6
CONTINUOUS
 62
     7
 10
95.054304218613638
 20
-172.3543891011299
 30
0.0
  0
VERTEX
  5
B74
  8
DATA
  6
CONTINUOUS
 62
     7
 10
95.054400000000001
 20
-172.3535
 30
0.0
  0
VERTEX
  5
B75
  8
DATA
  6
CONTINUOUS
 62
     7
 10
95.054400000000001
 20
-172.3535
 30
0.0
  0
SEQEND
  5
B76
  8
DATA
  6
CONTINUOUS
 62
     7
  0
POLYLINE
  5
287
  8
DATA
  6
CONTINUOUS
 62
     7
 66
     1
 10
0.0
 20
0.0
 30
0.0
 70
   128
  0
VERTEX
  5
B77
  8
DATA
  6
CONTINUOUS
 62
     7
 10
82.796599999999984
 20
-173.6437
 30
0.0
 42
0.0882669803015371
  0
VERTEX
  5
B78
  8
DATA
  6
CONTINUOUS
 62
     7
 10
82.951800000000006
 20
-174.0641
 30
0.0
  0
VERTEX
  5
B79
  8
DATA
  6
CONTINUOUS
 62
     7
 10
82.951800000000006
 20
-174.0641
 30
0.0
  0
VERTEX
  5
B7A
  8
DATA
  6
CONTINUOUS
 62
     7
 10
82.951814572692513
 20
-174.06412424138139
 30
0.0
 42
0.1139803398273931
  0
VERTEX
  5
B7B
  8
DATA
  6
CONTINUOUS
 62
     7
 10
83.226686231158183
 20
-174.34859106601871
 30
0.0
  0
VERTEX
  5
B7C
  8
DATA
  6
CONTINUOUS
 62
     7
 10
83.22669999999998
 20
-174.3486
 30
0.0
  0
VERTEX
  5
B7D
  8
DATA
  6
CONTINUOUS
 62
     7
 10
83.22669999999998
 20
-174.3486
 30
0.0
  0
VERTEX
  5
B7E
  8
DATA
  6
CONTINUOUS
 62
     7
 10
83.226779898566846
 20
-174.34865008205071
 30
0.0
 42
0.1298931862526696
  0
VERTEX
  5
B7F
  8
DATA
  6
CONTINUOUS
 62
     7
 10
83.585723274760269
 20
-174.46030100673531
 30
0.0
  0
VERTEX
  5
B80
  8
DATA
  6
CONTINUOUS
 62
     7
 10
83.585700000000003
 20
-174.46029999999999
 30
0.0
  0
VERTEX
  5
B81
  8
DATA
  6
CONTINUOUS
 62
     7
 10
83.585700000000003
 20
-174.46029999999999
 30
0.0
  0
VERTEX
  5
B82
  8
DATA
  6
CONTINUOUS
 62
     7
 10
83.585934355385206
 20
-174.46030972710571
 30
0.0
 42
0.1155717352971104
  0
VERTEX
  5
B83
  8
DATA
  6
CONTINUOUS
 62
     7
 10
83.982145082883875
 20
-174.3846689520216
 30
0.0
  0
VERTEX
  5
B84
  8
DATA
  6
CONTINUOUS
 62
     7
 10
83.982300000000023
 20
-174.38460000000001
 30
0.0
  0
VERTEX
  5
B85
  8
DATA
  6
CONTINUOUS
 62
     7
 10
83.982300000000023
 20
-174.38460000000001
 30
0.0
  0
VERTEX
  5
B86
  8
DATA
  6
CONTINUOUS
 62
     7
 10
83.982408853151142
 20
-174.38455326882919
 30
0.0
 42
0.0897512970211451
  0
VERTEX
  5
B87
  8
DATA
  6
CONTINUOUS
 62
     7
 10
84.364983344850231
 20
-174.1314159430531
 30
0.0
  0
VERTEX
  5
B88
  8
DATA
  6
CONTINUOUS
 62
     7
 10
84.365000000000023
 20
-174.13140000000001
 30
0.0
  0
VERTEX
  5
B89
  8
DATA
  6
CONTINUOUS
 62
     7
 10
84.365000000000023
 20
-174.13140000000001
 30
0.0
  0
VERTEX
  5
B8A
  8
DATA
  6
CONTINUOUS
 62
     7
 10
84.365000000000023
 20
-174.13140000000001
 30
0.0
  0
SEQEND
  5
B8B
  8
DATA
  6
CONTINUOUS
 62
     7
  0
POLYLINE
  5
29D
  8
DATA
  6
CONTINUOUS
 62
     7
 66
     1
 10
0.0
 20
0.0
 30
0.0
 70
   128
  0
VERTEX
  5
B8C
  8
DATA
  6
CONTINUOUS
 62
     7
 10
84.365000000000023
 20
-174.13140000000001
 30
0.0
  0
VERTEX
  5
B8D
  8
DATA
  6
CONTINUOUS
 62
     7
 10
84.36504196944712
 20
-174.13135288443539
 30
0.0
 42
0.0692638265486935
  0
VERTEX
  5
B8E
  8
DATA
  6
CONTINUOUS
 62
     7
 10
84.607985214637566
 20
-173.76803052362769
 30
0.0
  0
VERTEX
  5
B8F
  8
DATA
  6
CONTINUOUS
 62
     7
 10
84.608000000000004
 20
-173.768
 30
0.0
  0
VERTEX
  5
B90
  8
DATA
  6
CONTINUOUS
 62
     7
 10
84.608000000000004
 20
-173.768
 30
0.0
  0
VERTEX
  5
B91
  8
DATA
  6
CONTINUOUS
 62
     7
 10
84.608123010253976
 20
-173.76774930042339
 30
0.0
 42
0.0642805189132552
  0
VERTEX
  5
B92
  8
DATA
  6
CONTINUOUS
 62
     7
 10
84.752763959737976
 20
-173.34237835514961
 30
0.0
  0
VERTEX
  5
B93
  8
DATA
  6
CONTINUOUS
 62
     7
 10
84.752799999999993
 20
-173.34219999999999
 30
0.0
  0
VERTEX
  5
B94
  8
DATA
  6
CONTINUOUS
 62
     7
 10
84.752799999999993
 20
-173.34219999999999
 30
0.0
  0
VERTEX
  5
B95
  8
DATA
  6
CONTINUOUS
 62
     7
 10
84.752799999999993
 20
-173.34219999999999
 30
0.0
 42
0.0684901874626284
  0
VERTEX
  5
B96
  8
DATA
  6
CONTINUOUS
 62
     7
 10
84.780199999999994
 20
-172.91069999999999
 30
0.0
  0
VERTEX
  5
B97
  8
DATA
  6
CONTINUOUS
 62
     7
 10
84.780199999999994
 20
-172.91069999999999
 30
0.0
  0
SEQEND
  5
B98
  8
DATA
  6
CONTINUOUS
 62
     7
  0
POLYLINE
  5
2AB
  8
DATA
  6
CONTINUOUS
 62
     7
 66
     1
 10
0.0
 20
0.0
 30
0.0
 70
   128
  0
VERTEX
  5
B99
  8
DATA
  6
CONTINUOUS
 62
     7
 10
84.780199999999994
 20
-172.91069999999999
 30
0.0
  0
VERTEX
  5
B9A
  8
DATA
  6
CONTINUOUS
 62
     7
 10
84.780188155921877
 20
-172.91057095903929
 30
0.0
 42
0.0941934495421233
  0
VERTEX
  5
B9B
  8
DATA
  6
CONTINUOUS
 62
     7
 10
84.650445250415302
 20
-172.45828970402081
 30
0.0
  0
VERTEX
  5
B9C
  8
DATA
  6
CONTINUOUS
 62
     7
 10
84.650400000000005
 20
-172.45820000000001
 30
0.0
  0
VERTEX
  5
B9D
  8
DATA
  6
CONTINUOUS
 62
     7
 10
84.650400000000005
 20
-172.45820000000001
 30
0.0
  0
VERTEX
  5
B9E
  8
DATA
  6
CONTINUOUS
 62
     7
 10
84.65026815104595
 20
-172.4579471315748
 30
0.0
 42
0.1258365324338829
  0
VERTEX
  5
B9F
  8
DATA
  6
CONTINUOUS
 62
     7
 10
84.378120125078453
 20
-172.1544472110034
 30
0.0
  0
VERTEX
  5
BA0
  8
DATA
  6
CONTINUOUS
 62
     7
 10
84.377899999999968
 20
-172.15430000000001
 30
0.0
  0
VERTEX
  5
BA1
  8
DATA
  6
CONTINUOUS
 62
     7
 10
84.377899999999968
 20
-172.15430000000001
 30
0.0
  0
VERTEX
  5
BA2
  8
DATA
  6
CONTINUOUS
 62
     7
 10
84.377899999999968
 20
-172.15430000000001
 30
0.0
 42
0.1469872836800537
  0
VERTEX
  5
BA3
  8
DATA
  6
CONTINUOUS
 62
     7
 10
84.007699999999986
 20
-172.04929999999999
 30
0.0
  0
VERTEX
  5
BA4
  8
DATA
  6
CONTINUOUS
 62
     7
 10
84.007699999999986
 20
-172.04929999999999
 30
0.0
  0
VERTEX
  5
BA5
  8
DATA
  6
CONTINUOUS
 62
     7
 10
84.007699999999986
 20
-172.04929999999999
 30
0.0
 42
0.1260096018311315
  0
VERTEX
  5
BA6
  8
DATA
  6
CONTINUOUS
 62
     7
 10
83.600800000000007
 20
-172.16030000000001
 30
0.0
  0
VERTEX
  5
BA7
  8
DATA
  6
CONTINUOUS
 62
     7
 10
83.600800000000007
 20
-172.16030000000001
 30
0.0
  0
VERTEX
  5
BA8
  8
DATA
  6
CONTINUOUS
 62
     7
 10
83.600800000000007
 20
-172.16030000000001
 30
0.0
 42
0.09437422882069
  0
VERTEX
  5
BA9
  8
DATA
  6
CONTINUOUS
 62
     7
 10
83.224099999999964
 20
-172.4691
 30
0.0
  0
VERTEX
  5
BAA
  8
DATA
  6
CONTINUOUS
 62
     7
 10
83.224099999999964
 20
-172.4691
 30
0.0
  0
SEQEND
  5
BAB
  8
DATA
  6
CONTINUOUS
 62
     7
  0
LINE
  5
2BF
  8
DATA
  6
CONTINUOUS
 62
     7
 10
83.224099999999964
 20
-172.4691
 30
0.0
 11
84.074100000000001
 21
-170.53370000000001
 31
0.0
  0
LINE
  5
2C0
  8
DATA
  6
CONTINUOUS
 62
     7
 10
84.074100000000001
 20
-170.53360000000001
 30
0.0
 11
85.590000000000003
 21
-171.08539999999999
 31
0.0
  0
LINE
  5
2C1
  8
DATA
  6
CONTINUOUS
 62
     7
 10
72.930499999999981
 20
-169.10239999999999
 30
0.0
 11
73.564700000000002
 21
-168.959
 31
0.0
  0
LINE
  5
2C2
  8
DATA
  6
CONTINUOUS
 62
     7
 10
73.564700000000002
 20
-168.959
 30
0.0
 11
72.228700000000003
 21
-172.62970000000001
 31
0.0
  0
POLYLINE
  5
2C3
  8
DATA
  6
CONTINUOUS
 62
     7
 66
     1
 10
0.0
 20
0.0
 30
0.0
 70
   128
  0
VERTEX
  5
BAC
  8
DATA
  6
CONTINUOUS
 62
     7
 10
75.543199999999999
 20
-170.7184
 30
0.0
 42
0.0840021086783614
  0
VERTEX
  5
BAD
  8
DATA
  6
CONTINUOUS
 62
     7
 10
74.875200000000007
 20
-172.55369999999999
 30
0.0
  0
VERTEX
  5
BAE
  8
DATA
  6
CONTINUOUS
 62
     7
 10
74.875200000000007
 20
-172.55369999999999
 30
0.0
  0
SEQEND
  5
BAF
  8
DATA
  6
CONTINUOUS
 62
     7
  0
POLYLINE
  5
2C8
  8
DATA
  6
CONTINUOUS
 62
     7
 66
     1
 10
0.0
 20
0.0
 30
0.0
 70
   128
  0
VERTEX
  5
BB0
  8
DATA
  6
CONTINUOUS
 62
     7
 10
74.875200000000007
 20
-172.55369999999999
 30
0.0
 42
0.070819958575299
  0
VERTEX
  5
BB1
  8
DATA
  6
CONTINUOUS
 62
     7
 10
74.867800000000003
 20
-173.02160000000001
 30
0.0
  0
VERTEX
  5
BB2
  8
DATA
  6
CONTINUOUS
 62
     7
 10
74.867800000000003
 20
-173.02160000000001
 30
0.0
  0
VERTEX
  5
BB3
  8
DATA
  6
CONTINUOUS
 62
     7
 10
74.867827556446372
 20
-173.02180990650481
 30
0.0
 42
0.0870695827915136
  0
VERTEX
  5
BB4
  8
DATA
  6
CONTINUOUS
 62
     7
 10
74.993284126799423
 20
-173.42137630199281
 30
0.0
  0
VERTEX
  5
BB5
  8
DATA
  6
CONTINUOUS
 62
     7
 10
74.993399999999994
 20
-173.42160000000001
 30
0.0
  0
VERTEX
  5
BB6
  8
DATA
  6
CONTINUOUS
 62
     7
 10
74.993399999999994
 20
-173.42160000000001
 30
0.0
  0
VERTEX
  5
BB7
  8
DATA
  6
CONTINUOUS
 62
     7
 10
74.993399999999994
 20
-173.42160000000001
 30
0.0
 42
0.1134985735633046
  0
VERTEX
  5
BB8
  8
DATA
  6
CONTINUOUS
 62
     7
 10
75.234700000000004
 20
-173.6995
 30
0.0
  0
VERTEX
  5
BB9
  8
DATA
  6
CONTINUOUS
 62
     7
 10
75.234700000000004
 20
-173.6995
 30
0.0
  0
VERTEX
  5
BBA
  8
DATA
  6
CONTINUOUS
 62
     7
 10
75.234754542323714
 20
-173.6995383250231
 30
0.0
 42
0.1326248324554163
  0
VERTEX
  5
BBB
  8
DATA
  6
CONTINUOUS
 62
     7
 10
75.559092488423502
 20
-173.81749082954011
 30
0.0
  0
VERTEX
  5
BBC
  8
DATA
  6
CONTINUOUS
 62
     7
 10
75.559200000000004
 20
-173.8175
 30
0.0
  0
VERTEX
  5
BBD
  8
DATA
  6
CONTINUOUS
 62
     7
 10
75.559200000000004
 20
-173.8175
 30
0.0
  0
VERTEX
  5
BBE
  8
DATA
  6
CONTINUOUS
 62
     7
 10
75.559200000000004
 20
-173.8175
 30
0.0
 42
0.1202419588896589
  0
VERTEX
  5
BBF
  8
DATA
  6
CONTINUOUS
 62
     7
 10
75.922700000000006
 20
-173.75980000000001
 30
0.0
  0
VERTEX
  5
BC0
  8
DATA
  6
CONTINUOUS
 62
     7
 10
75.922700000000006
 20
-173.75980000000001
 30
0.0
  0
VERTEX
  5
BC1
  8
DATA
  6
CONTINUOUS
 62
     7
 10
75.922823687556374
 20
-173.75975016229401
 30
0.0
 42
0.0929835550578559
  0
VERTEX
  5
BC2
  8
DATA
  6
CONTINUOUS
 62
     7
 10
76.275869763896253
 20
-173.5342222795573
 30
0.0
  0
VERTEX
  5
BC3
  8
DATA
  6
CONTINUOUS
 62
     7
 10
76.276000000000025
 20
-173.5341
 30
0.0
  0
VERTEX
  5
BC4
  8
DATA
  6
CONTINUOUS
 62
     7
 10
76.276000000000025
 20
-173.5341
 30
0.0
  0
VERTEX
  5
BC5
  8
DATA
  6
CONTINUOUS
 62
     7
 10
76.276000000000025
 20
-173.5341
 30
0.0
 42
0.0738179724943501
  0
VERTEX
  5
BC6
  8
DATA
  6
CONTINUOUS
 62
     7
 10
76.570999999999984
 20
-173.17099999999999
 30
0.0
  0
VERTEX
  5
BC7
  8
DATA
  6
CONTINUOUS
 62
     7
 10
76.570999999999984
 20
-173.17099999999999
 30
0.0
  0
VERTEX
  5
BC8
  8
DATA
  6
CONTINUOUS
 62
     7
 10
76.570999999999984
 20
-173.17099999999999
 30
0.0
  0
SEQEND
  5
BC9
  8
DATA
  6
CONTINUOUS
 62
     7
  0
POLYLINE
  5
2E3
  8
DATA
  6
CONTINUOUS
 62
     7
 66
     1
 10
0.0
 20
0.0
 30
0.0
 70
   128
  0
VERTEX
  5
BCA
  8
DATA
  6
CONTINUOUS
 62
     7
 10
76.570999999999984
 20
-173.17099999999999
 30
0.0
 42
0.0840109259931024
  0
VERTEX
  5
BCB
  8
DATA
  6
CONTINUOUS
 62
     7
 10
77.239000000000004
 20
-171.3356
 30
0.0
  0
VERTEX
  5
BCC
  8
DATA
  6
CONTINUOUS
 62
     7
 10
77.239000000000004
 20
-171.3356
 30
0.0
  0
SEQEND
  5
BCD
  8
DATA
  6
CONTINUOUS
 62
     7
  0
POLYLINE
  5
2E8
  8
DATA
  6
CONTINUOUS
 62
     7
 66
     1
 10
0.0
 20
0.0
 30
0.0
 70
   128
  0
VERTEX
  5
BCE
  8
DATA
  6
CONTINUOUS
 62
     7
 10
77.239000000000004
 20
-171.3356
 30
0.0
 42
0.0708515679352138
  0
VERTEX
  5
BCF
  8
DATA
  6
CONTINUOUS
 62
     7
 10
77.24639999999998
 20
-170.86779999999999
 30
0.0
  0
VERTEX
  5
BD0
  8
DATA
  6
CONTINUOUS
 62
     7
 10
77.24639999999998
 20
-170.86779999999999
 30
0.0
  0
VERTEX
  5
BD1
  8
DATA
  6
CONTINUOUS
 62
     7
 10
77.24639999999998
 20
-170.86779999999999
 30
0.0
 42
0.087198016978215
  0
VERTEX
  5
BD2
  8
DATA
  6
CONTINUOUS
 62
     7
 10
77.120900000000006
 20
-170.46780000000001
 30
0.0
  0
VERTEX
  5
BD3
  8
DATA
  6
CONTINUOUS
 62
     7
 10
77.120900000000006
 20
-170.46780000000001
 30
0.0
  0
VERTEX
  5
BD4
  8
DATA
  6
CONTINUOUS
 62
     7
 10
77.120900000000006
 20
-170.46780000000001
 30
0.0
 42
0.1136024585789873
  0
VERTEX
  5
BD5
  8
DATA
  6
CONTINUOUS
 62
     7
 10
76.879499999999993
 20
-170.18989999999999
 30
0.0
  0
VERTEX
  5
BD6
  8
DATA
  6
CONTINUOUS
 62
     7
 10
76.879499999999993
 20
-170.18989999999999
 30
0.0
  0
VERTEX
  5
BD7
  8
DATA
  6
CONTINUOUS
 62
     7
 10
76.879269694381662
 20
-170.18973817212881
 30
0.0
 42
0.1324709397961449
  0
VERTEX
  5
BD8
  8
DATA
  6
CONTINUOUS
 62
     7
 10
76.555330760911346
 20
-170.0718198239301
 30
0.0
  0
VERTEX
  5
BD9
  8
DATA
  6
CONTINUOUS
 62
     7
 10
76.555100000000024
 20
-170.0718
 30
0.0
  0
VERTEX
  5
BDA
  8
DATA
  6
CONTINUOUS
 62
     7
 10
76.555100000000024
 20
-170.0718
 30
0.0
  0
VERTEX
  5
BDB
  8
DATA
  6
CONTINUOUS
 62
     7
 10
76.554883269042861
 20
-170.07178232173339
 30
0.0
 42
0.1200631556971587
  0
VERTEX
  5
BDC
  8
DATA
  6
CONTINUOUS
 62
     7
 10
76.191775254110055
 20
-170.12948473340469
 30
0.0
  0
VERTEX
  5
BDD
  8
DATA
  6
CONTINUOUS
 62
     7
 10
76.191500000000005
 20
-170.12960000000001
 30
0.0
  0
VERTEX
  5
BDE
  8
DATA
  6
CONTINUOUS
 62
     7
 10
76.191500000000005
 20
-170.12960000000001
 30
0.0
  0
VERTEX
  5
BDF
  8
DATA
  6
CONTINUOUS
 62
     7
 10
76.191500000000005
 20
-170.12960000000001
 30
0.0
 42
0.0930583757793899
  0
VERTEX
  5
BE0
  8
DATA
  6
CONTINUOUS
 62
     7
 10
75.838300000000004
 20
-170.3553
 30
0.0
  0
VERTEX
  5
BE1
  8
DATA
  6
CONTINUOUS
 62
     7
 10
75.838300000000004
 20
-170.3553
 30
0.0
  0
VERTEX
  5
BE2
  8
DATA
  6
CONTINUOUS
 62
     7
 10
75.838120477204214
 20
-170.3554642967936
 30
0.0
 42
0.0737473843270115
  0
VERTEX
  5
BE3
  8
DATA
  6
CONTINUOUS
 62
     7
 10
75.543282688759305
 20
-170.7182605398537
 30
0.0
  0
VERTEX
  5
BE4
  8
DATA
  6
CONTINUOUS
 62
     7
 10
75.543199999999999
 20
-170.7184
 30
0.0
  0
VERTEX
  5
BE5
  8
DATA
  6
CONTINUOUS
 62
     7
 10
75.543199999999999
 20
-170.7184
 30
0.0
  0
SEQEND
  5
BE6
  8
DATA
  6
CONTINUOUS
 62
     7
  0
LINE
  5
302
  8
DATA
  6
CONTINUOUS
 62
     7
 10
63.391399999999997
 20
-166.98759999999999
 30
0.0
 11
64.025499999999994
 21
-166.8443
 31
0.0
  0
LINE
  5
303
  8
DATA
  6
CONTINUOUS
 62
     7
 10
64.025499999999994
 20
-166.8443
 30
0.0
 11
62.689500000000002
 21
-170.51490000000001
 31
0.0
  0
POLYLINE
  5
304
  8
DATA
  6
CONTINUOUS
 62
     7
 66
     1
 10
0.0
 20
0.0
 30
0.0
 70
   128
  0
VERTEX
  5
BE7
  8
DATA
  6
CONTINUOUS
 62
     7
 10
65.214799999999997
 20
-170.85210000000001
 30
0.0
 42
0.0882669803015658
  0
VERTEX
  5
BE8
  8
DATA
  6
CONTINUOUS
 62
     7
 10
65.370000000000005
 20
-171.27250000000001
 30
0.0
  0
VERTEX
  5
BE9
  8
DATA
  6
CONTINUOUS
 62
     7
 10
65.370000000000005
 20
-171.27250000000001
 30
0.0
  0
VERTEX
  5
BEA
  8
DATA
  6
CONTINUOUS
 62
     7
 10
65.370014572692497
 20
-171.2725242413814
 30
0.0
 42
0.1139803398275313
  0
VERTEX
  5
BEB
  8
DATA
  6
CONTINUOUS
 62
     7
 10
65.644886231158125
 20
-171.55699106601861
 30
0.0
  0
VERTEX
  5
BEC
  8
DATA
  6
CONTINUOUS
 62
     7
 10
65.644900000000007
 20
-171.55699999999999
 30
0.0
  0
VERTEX
  5
BED
  8
DATA
  6
CONTINUOUS
 62
     7
 10
65.644900000000007
 20
-171.55699999999999
 30
0.0
  0
VERTEX
  5
BEE
  8
DATA
  6
CONTINUOUS
 62
     7
 10
65.644900000000007
 20
-171.55699999999999
 30
0.0
 42
0.129991457042034
  0
VERTEX
  5
BEF
  8
DATA
  6
CONTINUOUS
 62
     7
 10
66.003900000000002
 20
-171.6687
 30
0.0
  0
VERTEX
  5
BF0
  8
DATA
  6
CONTINUOUS
 62
     7
 10
66.003900000000002
 20
-171.6687
 30
0.0
  0
VERTEX
  5
BF1
  8
DATA
  6
CONTINUOUS
 62
     7
 10
66.004134355385034
 20
-171.66870972710569
 30
0.0
 42
0.1155717352970241
  0
VERTEX
  5
BF2
  8
DATA
  6
CONTINUOUS
 62
     7
 10
66.400345082883689
 20
-171.5930689520217
 30
0.0
  0
VERTEX
  5
BF3
  8
DATA
  6
CONTINUOUS
 62
     7
 10
66.400499999999994
 20
-171.59299999999999
 30
0.0
  0
VERTEX
  5
BF4
  8
DATA
  6
CONTINUOUS
 62
     7
 10
66.400499999999994
 20
-171.59299999999999
 30
0.0
  0
VERTEX
  5
BF5
  8
DATA
  6
CONTINUOUS
 62
     7
 10
66.400809053764959
 20
-171.59286725982079
 30
0.0
 42
0.0896339210209983
  0
VERTEX
  5
BF6
  8
DATA
  6
CONTINUOUS
 62
     7
 10
66.782907291189844
 20
-171.34008002765691
 30
0.0
  0
VERTEX
  5
BF7
  8
DATA
  6
CONTINUOUS
 62
     7
 10
66.783199999999994
 20
-171.3398
 30
0.0
  0
VERTEX
  5
BF8
  8
DATA
  6
CONTINUOUS
 62
     7
 10
66.783199999999994
 20
-171.3398
 30
0.0
  0
VERTEX
  5
BF9
  8
DATA
  6
CONTINUOUS
 62
     7
 10
66.783199999999994
 20
-171.3398
 30
0.0
  0
SEQEND
  5
BFA
  8
DATA
  6
CONTINUOUS
 62
     7
  0
POLYLINE
  5
319
  8
DATA
  6
CONTINUOUS
 62
     7
 66
     1
 10
0.0
 20
0.0
 30
0.0
 70
   128
  0
VERTEX
  5
BFB
  8
DATA
  6
CONTINUOUS
 62
     7
 10
66.783199999999994
 20
-171.3398
 30
0.0
  0
VERTEX
  5
BFC
  8
DATA
  6
CONTINUOUS
 62
     7
 10
66.783241969446976
 20
-171.33975288443551
 30
0.0
 42
0.0692638265487703
  0
VERTEX
  5
BFD
  8
DATA
  6
CONTINUOUS
 62
     7
 10
67.026185214637607
 20
-170.9764305236275
 30
0.0
  0
VERTEX
  5
BFE
  8
DATA
  6
CONTINUOUS
 62
     7
 10
67.026200000000003
 20
-170.97640000000001
 30
0.0
  0
VERTEX
  5
BFF
  8
DATA
  6
CONTINUOUS
 62
     7
 10
67.026200000000003
 20
-170.97640000000001
 30
0.0
  0
VERTEX
  5
C00
  8
DATA
  6
CONTINUOUS
 62
     7
 10
67.026200000000003
 20
-170.97640000000001
 30
0.0
 42
0.0643641703922321
  0
VERTEX
  5
C01
  8
DATA
  6
CONTINUOUS
 62
     7
 10
67.170999999999992
 20
-170.5506
 30
0.0
  0
VERTEX
  5
C02
  8
DATA
  6
CONTINUOUS
 62
     7
 10
67.170999999999992
 20
-170.5506
 30
0.0
  0
VERTEX
  5
C03
  8
DATA
  6
CONTINUOUS
 62
     7
 10
67.170999999999992
 20
-170.5506
 30
0.0
 42
0.0684901874626322
  0
VERTEX
  5
C04
  8
DATA
  6
CONTINUOUS
 62
     7
 10
67.198399999999992
 20
-170.1191
 30
0.0
  0
VERTEX
  5
C05
  8
DATA
  6
CONTINUOUS
 62
     7
 10
67.198399999999992
 20
-170.1191
 30
0.0
  0
SEQEND
  5
C06
  8
DATA
  6
CONTINUOUS
 62
     7
  0
POLYLINE
  5
326
  8
DATA
  6
CONTINUOUS
 62
     7
 66
     1
 10
0.0
 20
0.0
 30
0.0
 70
   128
  0
VERTEX
  5
C07
  8
DATA
  6
CONTINUOUS
 62
     7
 10
67.198399999999992
 20
-170.1191
 30
0.0
 42
0.0942906214397518
  0
VERTEX
  5
C08
  8
DATA
  6
CONTINUOUS
 62
     7
 10
67.0685
 20
-169.66659999999999
 30
0.0
  0
VERTEX
  5
C09
  8
DATA
  6
CONTINUOUS
 62
     7
 10
67.0685
 20
-169.66659999999999
 30
0.0
  0
VERTEX
  5
C0A
  8
DATA
  6
CONTINUOUS
 62
     7
 10
67.0685
 20
-169.66659999999999
 30
0.0
 42
0.1260345132403278
  0
VERTEX
  5
C0B
  8
DATA
  6
CONTINUOUS
 62
     7
 10
66.796099999999996
 20
-169.36279999999999
 30
0.0
  0
VERTEX
  5
C0C
  8
DATA
  6
CONTINUOUS
 62
     7
 10
66.796099999999996
 20
-169.36279999999999
 30
0.0
  0
VERTEX
  5
C0D
  8
DATA
  6
CONTINUOUS
 62
     7
 10
66.796099999999996
 20
-169.36279999999999
 30
0.0
 42
0.1470738617249929
  0
VERTEX
  5
C0E
  8
DATA
  6
CONTINUOUS
 62
     7
 10
66.425900000000013
 20
-169.2577
 30
0.0
  0
VERTEX
  5
C0F
  8
DATA
  6
CONTINUOUS
 62
     7
 10
66.425900000000013
 20
-169.2577
 30
0.0
  0
VERTEX
  5
C10
  8
DATA
  6
CONTINUOUS
 62
     7
 10
66.425900000000013
 20
-169.2577
 30
0.0
 42
0.1260096018311977
  0
VERTEX
  5
C11
  8
DATA
  6
CONTINUOUS
 62
     7
 10
66.019000000000005
 20
-169.36869999999999
 30
0.0
  0
VERTEX
  5
C12
  8
DATA
  6
CONTINUOUS
 62
     7
 10
66.019000000000005
 20
-169.36869999999999
 30
0.0
  0
VERTEX
  5
C13
  8
DATA
  6
CONTINUOUS
 62
     7
 10
66.018775698109295
 20
-169.3688221966203
 30
0.0
 42
0.0941963726545453
  0
VERTEX
  5
C14
  8
DATA
  6
CONTINUOUS
 62
     7
 10
65.642460965920776
 20
-169.6773074483136
 30
0.0
  0
VERTEX
  5
C15
  8
DATA
  6
CONTINUOUS
 62
     7
 10
65.642300000000006
 20
-169.67750000000001
 30
0.0
  0
VERTEX
  5
C16
  8
DATA
  6
CONTINUOUS
 62
     7
 10
65.642300000000006
 20
-169.67750000000001
 30
0.0
  0
SEQEND
  5
C17
  8
DATA
  6
CONTINUOUS
 62
     7
  0
LINE
  5
338
  8
DATA
  6
CONTINUOUS
 62
     7
 10
65.642300000000006
 20
-169.67750000000001
 30
0.0
 11
66.492199999999997
 21
-167.74209999999999
 31
0.0
  0
LINE
  5
339
  8
DATA
  6
CONTINUOUS
 62
     7
 10
66.492199999999997
 20
-167.74209999999999
 30
0.0
 11
68.008200000000002
 21
-168.2938
 31
0.0
  0
POLYLINE
  5
33A
  8
DATA
  6
CONTINUOUS
 62
     7
 66
     1
 10
0.0
 20
0.0
 30
0.0
 70
   128
  0
VERTEX
  5
C18
  8
DATA
  6
CONTINUOUS
 62
     7
 10
53.448000000000008
 20
-164.4871
 30
0.0
 42
-0.0725450493963073
  0
VERTEX
  5
C19
  8
DATA
  6
CONTINUOUS
 62
     7
 10
53.728000000000002
 20
-164.1199
 30
0.0
  0
VERTEX
  5
C1A
  8
DATA
  6
CONTINUOUS
 62
     7
 10
53.728000000000002
 20
-164.1199
 30
0.0
  0
VERTEX
  5
C1B
  8
DATA
  6
CONTINUOUS
 62
     7
 10
53.728000000000002
 20
-164.1199
 30
0.0
 42
-0.0891321358670869
  0
VERTEX
  5
C1C
  8
DATA
  6
CONTINUOUS
 62
     7
 10
54.071300000000001
 20
-163.8888
 30
0.0
  0
VERTEX
  5
C1D
  8
DATA
  6
CONTINUOUS
 62
     7
 10
54.071300000000001
 20
-163.8888
 30
0.0
  0
VERTEX
  5
C1E
  8
DATA
  6
CONTINUOUS
 62
     7
 10
54.071323804460377
 20
-163.88878983989949
 30
0.0
 42
-0.1172837701628789
  0
VERTEX
  5
C1F
  8
DATA
  6
CONTINUOUS
 62
     7
 10
54.427405664270722
 20
-163.82770036070369
 30
0.0
  0
VERTEX
  5
C20
  8
DATA
  6
CONTINUOUS
 62
     7
 10
54.427400000000013
 20
-163.82769999999999
 30
0.0
  0
VERTEX
  5
C21
  8
DATA
  6
CONTINUOUS
 62
     7
 10
54.427400000000013
 20
-163.82769999999999
 30
0.0
  0
VERTEX
  5
C22
  8
DATA
  6
CONTINUOUS
 62
     7
 10
54.427400000000013
 20
-163.82769999999999
 30
0.0
 42
-0.1382614629218334
  0
VERTEX
  5
C23
  8
DATA
  6
CONTINUOUS
 62
     7
 10
54.743899999999989
 20
-163.94569999999999
 30
0.0
  0
VERTEX
  5
C24
  8
DATA
  6
CONTINUOUS
 62
     7
 10
54.743899999999989
 20
-163.94569999999999
 30
0.0
  0
VERTEX
  5
C25
  8
DATA
  6
CONTINUOUS
 62
     7
 10
54.743975965767213
 20
-163.94575597743241
 30
0.0
 42
-0.1237980251805876
  0
VERTEX
  5
C26
  8
DATA
  6
CONTINUOUS
 62
     7
 10
54.974504975960024
 20
-164.2254104861679
 30
0.0
  0
VERTEX
  5
C27
  8
DATA
  6
CONTINUOUS
 62
     7
 10
54.974499999999999
 20
-164.22540000000001
 30
0.0
  0
VERTEX
  5
C28
  8
DATA
  6
CONTINUOUS
 62
     7
 10
54.974499999999999
 20
-164.22540000000001
 30
0.0
  0
VERTEX
  5
C29
  8
DATA
  6
CONTINUOUS
 62
     7
 10
54.974605403981933
 20
-164.22561362324109
 30
0.0
 42
-0.0945074212647005
  0
VERTEX
  5
C2A
  8
DATA
  6
CONTINUOUS
 62
     7
 10
55.08529153007759
 20
-164.62569624345031
 30
0.0
  0
VERTEX
  5
C2B
  8
DATA
  6
CONTINUOUS
 62
     7
 10
55.085299999999997
 20
-164.6258
 30
0.0
  0
VERTEX
  5
C2C
  8
DATA
  6
CONTINUOUS
 62
     7
 10
55.085299999999997
 20
-164.6258
 30
0.0
  0
SEQEND
  5
C2D
  8
DATA
  6
CONTINUOUS
 62
     7
  0
POLYLINE
  5
351
  8
DATA
  6
CONTINUOUS
 62
     7
 66
     1
 10
0.0
 20
0.0
 30
0.0
 70
   128
  0
VERTEX
  5
C2E
  8
DATA
  6
CONTINUOUS
 62
     7
 10
55.085299999999997
 20
-164.6258
 30
0.0
  0
VERTEX
  5
C2F
  8
DATA
  6
CONTINUOUS
 62
     7
 10
55.085307826352448
 20
-164.62610559176181
 30
0.0
 42
-0.0692363291371318
  0
VERTEX
  5
C30
  8
DATA
  6
CONTINUOUS
 62
     7
 10
55.047976841748252
 20
-164.9561001881909
 30
0.0
  0
VERTEX
  5
C31
  8
DATA
  6
CONTINUOUS
 62
     7
 10
55.047900000000013
 20
-164.9564
 30
0.0
  0
VERTEX
  5
C32
  8
DATA
  6
CONTINUOUS
 62
     7
 10
55.047900000000013
 20
-164.9564
 30
0.0
  0
VERTEX
  5
C33
  8
DATA
  6
CONTINUOUS
 62
     7
 10
55.047850090058262
 20
-164.9565988079346
 30
0.0
 42
-0.0644998838044048
  0
VERTEX
  5
C34
  8
DATA
  6
CONTINUOUS
 62
     7
 10
54.922756872481749
 20
-165.27459678191411
 30
0.0
  0
VERTEX
  5
C35
  8
DATA
  6
CONTINUOUS
 62
     7
 10
54.922700000000013
 20
-165.2747
 30
0.0
  0
VERTEX
  5
C36
  8
DATA
  6
CONTINUOUS
 62
     7
 10
54.922700000000013
 20
-165.2747
 30
0.0
  0
VERTEX
  5
C37
  8
DATA
  6
CONTINUOUS
 62
     7
 10
54.922546833775129
 20
-165.27497834462901
 30
0.0
 42
-0.0687742361046313
  0
VERTEX
  5
C38
  8
DATA
  6
CONTINUOUS
 62
     7
 10
54.726736148224141
 20
-165.5377601968593
 30
0.0
  0
VERTEX
  5
C39
  8
DATA
  6
CONTINUOUS
 62
     7
 10
54.726500000000001
 20
-165.53800000000001
 30
0.0
  0
VERTEX
  5
C3A
  8
DATA
  6
CONTINUOUS
 62
     7
 10
54.726500000000001
 20
-165.53800000000001
 30
0.0
  0
VERTEX
  5
C3B
  8
DATA
  6
CONTINUOUS
 62
     7
 10
54.726041426508452
 20
-165.5384611691905
 30
0.0
 42
-0.0830440741304787
  0
VERTEX
  5
C3C
  8
DATA
  6
CONTINUOUS
 62
     7
 10
54.486166182347461
 20
-165.7106217354364
 30
0.0
  0
VERTEX
  5
C3D
  8
DATA
  6
CONTINUOUS
 62
     7
 10
54.485600000000012
 20
-165.71090000000001
 30
0.0
  0
VERTEX
  5
C3E
  8
DATA
  6
CONTINUOUS
 62
     7
 10
54.485600000000012
 20
-165.71090000000001
 30
0.0
  0
VERTEX
  5
C3F
  8
DATA
  6
CONTINUOUS
 62
     7
 10
54.485414141155822
 20
-165.71098875455621
 30
0.0
 42
-0.108233012847746
  0
VERTEX
  5
C40
  8
DATA
  6
CONTINUOUS
 62
     7
 10
54.232417389462171
 20
-165.7701968990992
 30
0.0
  0
VERTEX
  5
C41
  8
DATA
  6
CONTINUOUS
 62
     7
 10
54.232200000000013
 20
-165.77019999999999
 30
0.0
  0
VERTEX
  5
C42
  8
DATA
  6
CONTINUOUS
 62
     7
 10
54.232200000000013
 20
-165.77019999999999
 30
0.0
  0
VERTEX
  5
C43
  8
DATA
  6
CONTINUOUS
 62
     7
 10
54.232200000000013
 20
-165.77019999999999
 30
0.0
  0
SEQEND
  5
C44
  8
DATA
  6
CONTINUOUS
 62
     7
  0
POLYLINE
  5
369
  8
DATA
  6
CONTINUOUS
 62
     7
 66
     1
 10
0.0
 20
0.0
 30
0.0
 70
   128
  0
VERTEX
  5
C45
  8
DATA
  6
CONTINUOUS
 62
     7
 10
54.232200000000013
 20
-165.77019999999999
 30
0.0
 42
0.1330403971638556
  0
VERTEX
  5
C46
  8
DATA
  6
CONTINUOUS
 62
     7
 10
53.248699999999999
 20
-166.2526
 30
0.0
  0
VERTEX
  5
C47
  8
DATA
  6
CONTINUOUS
 62
     7
 10
53.248699999999999
 20
-166.2526
 30
0.0
  0
VERTEX
  5
C48
  8
DATA
  6
CONTINUOUS
 62
     7
 10
53.248575101921247
 20
-166.2527041778913
 30
0.0
 42
0.0968396842610498
  0
VERTEX
  5
C49
  8
DATA
  6
CONTINUOUS
 62
     7
 10
52.446053760499652
 20
-167.2399990755975
 30
0.0
  0
VERTEX
  5
C4A
  8
DATA
  6
CONTINUOUS
 62
     7
 10
52.446000000000012
 20
-167.24010000000001
 30
0.0
  0
VERTEX
  5
C4B
  8
DATA
  6
CONTINUOUS
 62
     7
 10
52.446000000000012
 20
-167.24010000000001
 30
0.0
  0
SEQEND
  5
C4C
  8
DATA
  6
CONTINUOUS
 62
     7
  0
LINE
  5
372
  8
DATA
  6
CONTINUOUS
 62
     7
 10
52.446000000000012
 20
-167.24010000000001
 30
0.0
 11
54.090400000000002
 21
-167.83869999999999
 31
0.0
  0
POLYLINE
  5
373
  8
DATA
  6
CONTINUOUS
 62
     7
 66
     1
 10
0.0
 20
0.0
 30
0.0
 70
   128
  0
VERTEX
  5
C4D
  8
DATA
  6
CONTINUOUS
 62
     7
 10
56.685500000000012
 20
-165.66550000000001
 30
0.0
  0
VERTEX
  5
C4E
  8
DATA
  6
CONTINUOUS
 62
     7
 10
56.685268753186897
 20
-165.6659070927135
 30
0.0
 42
0.0839609845947385
  0
VERTEX
  5
C4F
  8
DATA
  6
CONTINUOUS
 62
     7
 10
56.017571598773458
 20
-167.5004099308434
 30
0.0
  0
VERTEX
  5
C50
  8
DATA
  6
CONTINUOUS
 62
     7
 10
56.017500000000013
 20
-167.5008
 30
0.0
  0
VERTEX
  5
C51
  8
DATA
  6
CONTINUOUS
 62
     7
 10
56.017500000000013
 20
-167.5008
 30
0.0
  0
SEQEND
  5
C52
  8
DATA
  6
CONTINUOUS
 62
     7
  0
POLYLINE
  5
37A
  8
DATA
  6
CONTINUOUS
 62
     7
 66
     1
 10
0.0
 20
0.0
 30
0.0
 70
   128
  0
VERTEX
  5
C53
  8
DATA
  6
CONTINUOUS
 62
     7
 10
56.017500000000013
 20
-167.5008
 30
0.0
  0
VERTEX
  5
C54
  8
DATA
  6
CONTINUOUS
 62
     7
 10
56.017460139657253
 20
-167.5010521247697
 30
0.0
 42
0.0707079468985178
  0
VERTEX
  5
C55
  8
DATA
  6
CONTINUOUS
 62
     7
 10
56.010160286469521
 20
-167.9683853776047
 30
0.0
  0
VERTEX
  5
C56
  8
DATA
  6
CONTINUOUS
 62
     7
 10
56.010200000000012
 20
-167.96870000000001
 30
0.0
  0
VERTEX
  5
C57
  8
DATA
  6
CONTINUOUS
 62
     7
 10
56.010200000000012
 20
-167.96870000000001
 30
0.0
  0
VERTEX
  5
C58
  8
DATA
  6
CONTINUOUS
 62
     7
 10
56.010200000000012
 20
-167.96870000000001
 30
0.0
 42
0.087198016978208
  0
VERTEX
  5
C59
  8
DATA
  6
CONTINUOUS
 62
     7
 10
56.135700000000007
 20
-168.36869999999999
 30
0.0
  0
VERTEX
  5
C5A
  8
DATA
  6
CONTINUOUS
 62
     7
 10
56.135700000000007
 20
-168.36869999999999
 30
0.0
  0
VERTEX
  5
C5B
  8
DATA
  6
CONTINUOUS
 62
     7
 10
56.135700000000007
 20
-168.36869999999999
 30
0.0
 42
0.1136024585790233
  0
VERTEX
  5
C5C
  8
DATA
  6
CONTINUOUS
 62
     7
 10
56.377100000000013
 20
-168.64660000000001
 30
0.0
  0
VERTEX
  5
C5D
  8
DATA
  6
CONTINUOUS
 62
     7
 10
56.377100000000013
 20
-168.64660000000001
 30
0.0
  0
VERTEX
  5
C5E
  8
DATA
  6
CONTINUOUS
 62
     7
 10
56.37715599013773
 20
-168.6466393692624
 30
0.0
 42
0.1325649467529075
  0
VERTEX
  5
C5F
  8
DATA
  6
CONTINUOUS
 62
     7
 10
56.70130070828278
 20
-168.76468288909501
 30
0.0
  0
VERTEX
  5
C60
  8
DATA
  6
CONTINUOUS
 62
     7
 10
56.701500000000003
 20
-168.7647
 30
0.0
  0
VERTEX
  5
C61
  8
DATA
  6
CONTINUOUS
 62
     7
 10
56.701500000000003
 20
-168.7647
 30
0.0
  0
VERTEX
  5
C62
  8
DATA
  6
CONTINUOUS
 62
     7
 10
56.701633122715151
 20
-168.7647108585266
 30
0.0
 42
0.1201148718055325
  0
VERTEX
  5
C63
  8
DATA
  6
CONTINUOUS
 62
     7
 10
57.064887207358993
 20
-168.7069472605686
 30
0.0
  0
VERTEX
  5
C64
  8
DATA
  6
CONTINUOUS
 62
     7
 10
57.065000000000012
 20
-168.70689999999999
 30
0.0
  0
VERTEX
  5
C65
  8
DATA
  6
CONTINUOUS
 62
     7
 10
57.065000000000012
 20
-168.70689999999999
 30
0.0
  0
VERTEX
  5
C66
  8
DATA
  6
CONTINUOUS
 62
     7
 10
57.065000000000012
 20
-168.70689999999999
 30
0.0
 42
0.0930819476798564
  0
VERTEX
  5
C67
  8
DATA
  6
CONTINUOUS
 62
     7
 10
57.418300000000002
 20
-168.4812
 30
0.0
  0
VERTEX
  5
C68
  8
DATA
  6
CONTINUOUS
 62
     7
 10
57.418300000000002
 20
-168.4812
 30
0.0
  0
VERTEX
  5
C69
  8
DATA
  6
CONTINUOUS
 62
     7
 10
57.4184795227956
 20
-168.48103570320649
 30
0.0
 42
0.073747384327151
  0
VERTEX
  5
C6A
  8
DATA
  6
CONTINUOUS
 62
     7
 10
57.713317311240743
 20
-168.11823946014621
 30
0.0
  0
VERTEX
  5
C6B
  8
DATA
  6
CONTINUOUS
 62
     7
 10
57.713400000000007
 20
-168.1181
 30
0.0
  0
VERTEX
  5
C6C
  8
DATA
  6
CONTINUOUS
 62
     7
 10
57.713400000000007
 20
-168.1181
 30
0.0
  0
VERTEX
  5
C6D
  8
DATA
  6
CONTINUOUS
 62
     7
 10
57.713400000000007
 20
-168.1181
 30
0.0
  0
SEQEND
  5
C6E
  8
DATA
  6
CONTINUOUS
 62
     7
  0
POLYLINE
  5
397
  8
DATA
  6
CONTINUOUS
 62
     7
 66
     1
 10
0.0
 20
0.0
 30
0.0
 70
   128
  0
VERTEX
  5
C6F
  8
DATA
  6
CONTINUOUS
 62
     7
 10
57.713400000000007
 20
-168.1181
 30
0.0
  0
VERTEX
  5
C70
  8
DATA
  6
CONTINUOUS
 62
     7
 10
57.713604142129789
 20
-168.11774062305361
 30
0.0
 42
0.0839655735843403
  0
VERTEX
  5
C71
  8
DATA
  6
CONTINUOUS
 62
     7
 10
58.381320559290067
 20
-166.28313283635131
 30
0.0
  0
VERTEX
  5
C72
  8
DATA
  6
CONTINUOUS
 62
     7
 10
58.381399999999999
 20
-166.28270000000001
 30
0.0
  0
VERTEX
  5
C73
  8
DATA
  6
CONTINUOUS
 62
     7
 10
58.381399999999999
 20
-166.28270000000001
 30
0.0
  0
SEQEND
  5
C74
  8
DATA
  6
CONTINUOUS
 62
     7
  0
POLYLINE
  5
39E
  8
DATA
  6
CONTINUOUS
 62
     7
 66
     1
 10
0.0
 20
0.0
 30
0.0
 70
   128
  0
VERTEX
  5
C75
  8
DATA
  6
CONTINUOUS
 62
     7
 10
58.381399999999999
 20
-166.28270000000001
 30
0.0
  0
VERTEX
  5
C76
  8
DATA
  6
CONTINUOUS
 62
     7
 10
58.381415696452763
 20
-166.28260075928381
 30
0.0
 42
0.0707245577138435
  0
VERTEX
  5
C77
  8
DATA
  6
CONTINUOUS
 62
     7
 10
58.388732699372561
 20
-165.81515905415071
 30
0.0
  0
VERTEX
  5
C78
  8
DATA
  6
CONTINUOUS
 62
     7
 10
58.3887
 20
-165.81489999999999
 30
0.0
  0
VERTEX
  5
C79
  8
DATA
  6
CONTINUOUS
 62
     7
 10
58.3887
 20
-165.81489999999999
 30
0.0
  0
VERTEX
  5
C7A
  8
DATA
  6
CONTINUOUS
 62
     7
 10
58.3887
 20
-165.81489999999999
 30
0.0
 42
0.0871980169782278
  0
VERTEX
  5
C7B
  8
DATA
  6
CONTINUOUS
 62
     7
 10
58.263200000000012
 20
-165.41489999999999
 30
0.0
  0
VERTEX
  5
C7C
  8
DATA
  6
CONTINUOUS
 62
     7
 10
58.263200000000012
 20
-165.41489999999999
 30
0.0
  0
VERTEX
  5
C7D
  8
DATA
  6
CONTINUOUS
 62
     7
 10
58.263200000000012
 20
-165.41489999999999
 30
0.0
 42
0.1134985735632672
  0
VERTEX
  5
C7E
  8
DATA
  6
CONTINUOUS
 62
     7
 10
58.021900000000002
 20
-165.137
 30
0.0
  0
VERTEX
  5
C7F
  8
DATA
  6
CONTINUOUS
 62
     7
 10
58.021900000000002
 20
-165.137
 30
0.0
  0
VERTEX
  5
C80
  8
DATA
  6
CONTINUOUS
 62
     7
 10
58.021683597421877
 20
-165.13684794131899
 30
0.0
 42
0.1324831135388202
  0
VERTEX
  5
C81
  8
DATA
  6
CONTINUOUS
 62
     7
 10
57.697713100062657
 20
-165.01892688232871
 30
0.0
  0
VERTEX
  5
C82
  8
DATA
  6
CONTINUOUS
 62
     7
 10
57.697400000000002
 20
-165.0189
 30
0.0
  0
VERTEX
  5
C83
  8
DATA
  6
CONTINUOUS
 62
     7
 10
57.697400000000002
 20
-165.0189
 30
0.0
  0
VERTEX
  5
C84
  8
DATA
  6
CONTINUOUS
 62
     7
 10
57.697266877284889
 20
-165.01888914147341
 30
0.0
 42
0.120114871805627
  0
VERTEX
  5
C85
  8
DATA
  6
CONTINUOUS
 62
     7
 10
57.334012792641182
 20
-165.07665273943141
 30
0.0
  0
VERTEX
  5
C86
  8
DATA
  6
CONTINUOUS
 62
     7
 10
57.3339
 20
-165.07669999999999
 30
0.0
  0
VERTEX
  5
C87
  8
DATA
  6
CONTINUOUS
 62
     7
 10
57.3339
 20
-165.07669999999999
 30
0.0
  0
VERTEX
  5
C88
  8
DATA
  6
CONTINUOUS
 62
     7
 10
57.333776312443668
 20
-165.0767498377059
 30
0.0
 42
0.0929835550578076
  0
VERTEX
  5
C89
  8
DATA
  6
CONTINUOUS
 62
     7
 10
56.980730236103668
 20
-165.30227772044279
 30
0.0
  0
VERTEX
  5
C8A
  8
DATA
  6
CONTINUOUS
 62
     7
 10
56.980600000000003
 20
-165.30240000000001
 30
0.0
  0
VERTEX
  5
C8B
  8
DATA
  6
CONTINUOUS
 62
     7
 10
56.980600000000003
 20
-165.30240000000001
 30
0.0
  0
VERTEX
  5
C8C
  8
DATA
  6
CONTINUOUS
 62
     7
 10
56.980420477204333
 20
-165.30256429679349
 30
0.0
 42
0.0737473843270853
  0
VERTEX
  5
C8D
  8
DATA
  6
CONTINUOUS
 62
     7
 10
56.685582688759283
 20
-165.66536053985371
 30
0.0
  0
VERTEX
  5
C8E
  8
DATA
  6
CONTINUOUS
 62
     7
 10
56.685500000000012
 20
-165.66550000000001
 30
0.0
  0
VERTEX
  5
C8F
  8
DATA
  6
CONTINUOUS
 62
     7
 10
56.685500000000012
 20
-165.66550000000001
 30
0.0
  0
SEQEND
  5
C90
  8
DATA
  6
CONTINUOUS
 62
     7
  0
LINE
  5
3BB
  8
DATA
  6
CONTINUOUS
 62
     7
 10
54.361400000000003
 20
-157.8775
 30
0.0
 11
51.1571
 21
-159.3717
 31
0.0
  0
LINE
  5
3BC
  8
DATA
  6
CONTINUOUS
 62
     7
 10
51.1571
 20
-159.3717
 30
0.0
 11
51.584600000000002
 21
-158.197
 31
0.0
  0
LINE
  5
3BD
  8
DATA
  6
CONTINUOUS
 62
     7
 10
51.584600000000002
 20
-158.19710000000001
 30
0.0
 11
49.235400000000013
 21
-157.34200000000001
 31
0.0
  0
LINE
  5
3BE
  8
DATA
  6
CONTINUOUS
 62
     7
 10
52.86719999999999
 20
-154.67320000000001
 30
0.0
 11
54.361400000000003
 21
-157.8775
 31
0.0
  0
LINE
  5
3BF
  8
DATA
  6
CONTINUOUS
 62
     7
 10
52.439700000000002
 20
-155.84780000000001
 30
0.0
 11
52.86719999999999
 21
-154.67320000000001
 31
0.0
  0
LINE
  5
3C0
  8
DATA
  6
CONTINUOUS
 62
     7
 10
52.439700000000002
 20
-155.84780000000001
 30
0.0
 11
50.090400000000002
 21
-154.99279999999999
 31
0.0
  0
LINE
  5
3C1
  8
DATA
  6
CONTINUOUS
 62
     7
 10
49.235400000000013
 20
-157.34200000000001
 30
0.0
 11
50.090400000000002
 21
-154.99279999999999
 31
0.0
  0
LINE
  5
3C2
  8
DATA
  6
CONTINUOUS
 62
     7
 10
61.579500000000003
 20
-150.01730000000001
 30
0.0
 11
62.213700000000003
 21
-149.874
 31
0.0
  0
LINE
  5
3C3
  8
DATA
  6
CONTINUOUS
 62
     7
 10
62.213700000000003
 20
-149.874
 30
0.0
 11
60.87769999999999
 21
-153.54470000000001
 31
0.0
  0
POLYLINE
  5
3C4
  8
DATA
  6
CONTINUOUS
 62
     7
 66
     1
 10
0.0
 20
0.0
 30
0.0
 70
   128
  0
VERTEX
  5
C91
  8
DATA
  6
CONTINUOUS
 62
     7
 10
61.5533
 20
-142.28899999999999
 30
0.0
 42
-0.072545049396428
  0
VERTEX
  5
C92
  8
DATA
  6
CONTINUOUS
 62
     7
 10
61.833300000000001
 20
-141.92179999999999
 30
0.0
  0
VERTEX
  5
C93
  8
DATA
  6
CONTINUOUS
 62
     7
 10
61.833300000000001
 20
-141.92179999999999
 30
0.0
  0
VERTEX
  5
C94
  8
DATA
  6
CONTINUOUS
 62
     7
 10
61.833300000000001
 20
-141.92179999999999
 30
0.0
 42
-0.0892001556113353
  0
VERTEX
  5
C95
  8
DATA
  6
CONTINUOUS
 62
     7
 10
62.17649999999999
 20
-141.69069999999999
 30
0.0
  0
VERTEX
  5
C96
  8
DATA
  6
CONTINUOUS
 62
     7
 10
62.17649999999999
 20
-141.69069999999999
 30
0.0
  0
VERTEX
  5
C97
  8
DATA
  6
CONTINUOUS
 62
     7
 10
62.176523804460473
 20
-141.69068983989951
 30
0.0
 42
-0.1172837701628633
  0
VERTEX
  5
C98
  8
DATA
  6
CONTINUOUS
 62
     7
 10
62.532605664270633
 20
-141.62960036070371
 30
0.0
  0
VERTEX
  5
C99
  8
DATA
  6
CONTINUOUS
 62
     7
 10
62.532600000000002
 20
-141.62960000000001
 30
0.0
  0
VERTEX
  5
C9A
  8
DATA
  6
CONTINUOUS
 62
     7
 10
62.532600000000002
 20
-141.62960000000001
 30
0.0
  0
VERTEX
  5
C9B
  8
DATA
  6
CONTINUOUS
 62
     7
 10
62.532679268722461
 20
-141.6296065264128
 30
0.0
 42
-0.1381596073872967
  0
VERTEX
  5
C9C
  8
DATA
  6
CONTINUOUS
 62
     7
 10
62.849102493573469
 20
-141.74752871089771
 30
0.0
  0
VERTEX
  5
C9D
  8
DATA
  6
CONTINUOUS
 62
     7
 10
62.849200000000003
 20
-141.74760000000001
 30
0.0
  0
VERTEX
  5
C9E
  8
DATA
  6
CONTINUOUS
 62
     7
 10
62.849200000000003
 20
-141.74760000000001
 30
0.0
  0
VERTEX
  5
C9F
  8
DATA
  6
CONTINUOUS
 62
     7
 10
62.849275965767212
 20
-141.7476559774324
 30
0.0
 42
-0.1237980251805092
  0
VERTEX
  5
CA0
  8
DATA
  6
CONTINUOUS
 62
     7
 10
63.079804975960037
 20
-142.02731048616801
 30
0.0
  0
VERTEX
  5
CA1
  8
DATA
  6
CONTINUOUS
 62
     7
 10
63.079800000000013
 20
-142.0273
 30
0.0
  0
VERTEX
  5
CA2
  8
DATA
  6
CONTINUOUS
 62
     7
 10
63.079800000000013
 20
-142.0273
 30
0.0
  0
VERTEX
  5
CA3
  8
DATA
  6
CONTINUOUS
 62
     7
 10
63.079800000000013
 20
-142.0273
 30
0.0
 42
-0.0946780382834501
  0
VERTEX
  5
CA4
  8
DATA
  6
CONTINUOUS
 62
     7
 10
63.1905
 20
-142.42769999999999
 30
0.0
  0
VERTEX
  5
CA5
  8
DATA
  6
CONTINUOUS
 62
     7
 10
63.1905
 20
-142.42769999999999
 30
0.0
  0
SEQEND
  5
CA6
  8
DATA
  6
CONTINUOUS
 62
     7
  0
POLYLINE
  5
3DB
  8
DATA
  6
CONTINUOUS
 62
     7
 66
     1
 10
0.0
 20
0.0
 30
0.0
 70
   128
  0
VERTEX
  5
CA7
  8
DATA
  6
CONTINUOUS
 62
     7
 10
63.1905
 20
-142.42769999999999
 30
0.0
 42
-0.0695252525123572
  0
VERTEX
  5
CA8
  8
DATA
  6
CONTINUOUS
 62
     7
 10
63.153100000000002
 20
-142.75829999999999
 30
0.0
  0
VERTEX
  5
CA9
  8
DATA
  6
CONTINUOUS
 62
     7
 10
63.153100000000002
 20
-142.75829999999999
 30
0.0
  0
VERTEX
  5
CAA
  8
DATA
  6
CONTINUOUS
 62
     7
 10
63.153100000000002
 20
-142.75829999999999
 30
0.0
 42
-0.064771314022928
  0
VERTEX
  5
CAB
  8
DATA
  6
CONTINUOUS
 62
     7
 10
63.027900000000002
 20
-143.07660000000001
 30
0.0
  0
VERTEX
  5
CAC
  8
DATA
  6
CONTINUOUS
 62
     7
 10
63.027900000000002
 20
-143.07660000000001
 30
0.0
  0
VERTEX
  5
CAD
  8
DATA
  6
CONTINUOUS
 62
     7
 10
63.027900000000002
 20
-143.07660000000001
 30
0.0
 42
-0.0691074746053888
  0
VERTEX
  5
CAE
  8
DATA
  6
CONTINUOUS
 62
     7
 10
62.831700000000012
 20
-143.3398
 30
0.0
  0
VERTEX
  5
CAF
  8
DATA
  6
CONTINUOUS
 62
     7
 10
62.831700000000012
 20
-143.3398
 30
0.0
  0
VERTEX
  5
CB0
  8
DATA
  6
CONTINUOUS
 62
     7
 10
62.831700000000012
 20
-143.3398
 30
0.0
 42
-0.0834977411759296
  0
VERTEX
  5
CB1
  8
DATA
  6
CONTINUOUS
 62
     7
 10
62.590800000000002
 20
-143.5127
 30
0.0
  0
VERTEX
  5
CB2
  8
DATA
  6
CONTINUOUS
 62
     7
 10
62.590800000000002
 20
-143.5127
 30
0.0
  0
VERTEX
  5
CB3
  8
DATA
  6
CONTINUOUS
 62
     7
 10
62.590800000000002
 20
-143.5127
 30
0.0
 42
-0.1084618781624547
  0
VERTEX
  5
CB4
  8
DATA
  6
CONTINUOUS
 62
     7
 10
62.337500000000013
 20
-143.57210000000001
 30
0.0
  0
VERTEX
  5
CB5
  8
DATA
  6
CONTINUOUS
 62
     7
 10
62.337500000000013
 20
-143.57210000000001
 30
0.0
  0
VERTEX
  5
CB6
  8
DATA
  6
CONTINUOUS
 62
     7
 10
62.337500000000013
 20
-143.57210000000001
 30
0.0
  0
SEQEND
  5
CB7
  8
DATA
  6
CONTINUOUS
 62
     7
  0
POLYLINE
  5
3ED
  8
DATA
  6
CONTINUOUS
 62
     7
 66
     1
 10
0.0
 20
0.0
 30
0.0
 70
   128
  0
VERTEX
  5
CB8
  8
DATA
  6
CONTINUOUS
 62
     7
 10
62.337500000000013
 20
-143.57210000000001
 30
0.0
  0
VERTEX
  5
CB9
  8
DATA
  6
CONTINUOUS
 62
     7
 10
62.337504339811261
 20
-143.57209915867961
 30
0.0
 42
0.1330142517414437
  0
VERTEX
  5
CBA
  8
DATA
  6
CONTINUOUS
 62
     7
 10
61.353931903411102
 20
-144.0544719938168
 30
0.0
  0
VERTEX
  5
CBB
  8
DATA
  6
CONTINUOUS
 62
     7
 10
61.35390000000001
 20
-144.05449999999999
 30
0.0
  0
VERTEX
  5
CBC
  8
DATA
  6
CONTINUOUS
 62
     7
 10
61.35390000000001
 20
-144.05449999999999
 30
0.0
  0
VERTEX
  5
CBD
  8
DATA
  6
CONTINUOUS
 62
     7
 10
61.353775101921158
 20
-144.05460417789141
 30
0.0
 42
0.0968396842610514
  0
VERTEX
  5
CBE
  8
DATA
  6
CONTINUOUS
 62
     7
 10
60.551253760499677
 20
-145.0418990755974
 30
0.0
  0
VERTEX
  5
CBF
  8
DATA
  6
CONTINUOUS
 62
     7
 10
60.551200000000001
 20
-145.042
 30
0.0
  0
VERTEX
  5
CC0
  8
DATA
  6
CONTINUOUS
 62
     7
 10
60.551200000000001
 20
-145.042
 30
0.0
  0
SEQEND
  5
CC1
  8
DATA
  6
CONTINUOUS
 62
     7
  0
LINE
  5
3F8
  8
DATA
  6
CONTINUOUS
 62
     7
 10
60.551200000000001
 20
-145.042
 30
0.0
 11
62.195700000000002
 21
-145.64060000000001
 31
0.0
  0
POLYLINE
  5
3F9
  8
DATA
  6
CONTINUOUS
 62
     7
 66
     1
 10
0.0
 20
0.0
 30
0.0
 70
   128
  0
VERTEX
  5
CC2
  8
DATA
  6
CONTINUOUS
 62
     7
 10
62.401700000000012
 20
-134.16739999999999
 30
0.0
  0
VERTEX
  5
CC3
  8
DATA
  6
CONTINUOUS
 62
     7
 10
62.40172333044508
 20
-134.16736015541539
 30
0.0
 42
-0.0703514001325279
  0
VERTEX
  5
CC4
  8
DATA
  6
CONTINUOUS
 62
     7
 10
62.687454746394799
 20
-133.80684302317221
 30
0.0
  0
VERTEX
  5
CC5
  8
DATA
  6
CONTINUOUS
 62
     7
 10
62.6875
 20
-133.80680000000001
 30
0.0
  0
VERTEX
  5
CC6
  8
DATA
  6
CONTINUOUS
 62
     7
 10
62.6875
 20
-133.80680000000001
 30
0.0
  0
VERTEX
  5
CC7
  8
DATA
  6
CONTINUOUS
 62
     7
 10
62.687670616657151
 20
-133.8066392223113
 30
0.0
 42
-0.0861963004031755
  0
VERTEX
  5
CC8
  8
DATA
  6
CONTINUOUS
 62
     7
 10
63.032036697714339
 20
-133.57917132254951
 30
0.0
  0
VERTEX
  5
CC9
  8
DATA
  6
CONTINUOUS
 62
     7
 10
63.032200000000003
 20
-133.57910000000001
 30
0.0
  0
VERTEX
  5
CCA
  8
DATA
  6
CONTINUOUS
 62
     7
 10
63.032200000000003
 20
-133.57910000000001
 30
0.0
  0
VERTEX
  5
CCB
  8
DATA
  6
CONTINUOUS
 62
     7
 10
63.032200000000003
 20
-133.57910000000001
 30
0.0
 42
-0.1124822611881258
  0
VERTEX
  5
CCC
  8
DATA
  6
CONTINUOUS
 62
     7
 10
63.389000000000003
 20
-133.5154
 30
0.0
  0
VERTEX
  5
CCD
  8
DATA
  6
CONTINUOUS
 62
     7
 10
63.389000000000003
 20
-133.5154
 30
0.0
  0
VERTEX
  5
CCE
  8
DATA
  6
CONTINUOUS
 62
     7
 10
63.389000000000003
 20
-133.5154
 30
0.0
 42
-0.1326570189611671
  0
VERTEX
  5
CCF
  8
DATA
  6
CONTINUOUS
 62
     7
 10
63.709400000000002
 20
-133.6241
 30
0.0
  0
VERTEX
  5
CD0
  8
DATA
  6
CONTINUOUS
 62
     7
 10
63.709400000000002
 20
-133.6241
 30
0.0
  0
VERTEX
  5
CD1
  8
DATA
  6
CONTINUOUS
 62
     7
 10
63.709400000000002
 20
-133.6241
 30
0.0
 42
-0.1213159389435672
  0
VERTEX
  5
CD2
  8
DATA
  6
CONTINUOUS
 62
     7
 10
63.950000000000003
 20
-133.89060000000001
 30
0.0
  0
VERTEX
  5
CD3
  8
DATA
  6
CONTINUOUS
 62
     7
 10
63.950000000000003
 20
-133.89060000000001
 30
0.0
  0
VERTEX
  5
CD4
  8
DATA
  6
CONTINUOUS
 62
     7
 10
63.950026497190812
 20
-133.8906477684738
 30
0.0
 42
-0.0940990798636339
  0
VERTEX
  5
CD5
  8
DATA
  6
CONTINUOUS
 62
     7
 10
64.078096043948221
 20
-134.27867000963681
 30
0.0
  0
VERTEX
  5
CD6
  8
DATA
  6
CONTINUOUS
 62
     7
 10
64.078100000000006
 20
-134.27869999999999
 30
0.0
  0
VERTEX
  5
CD7
  8
DATA
  6
CONTINUOUS
 62
     7
 10
64.078100000000006
 20
-134.27869999999999
 30
0.0
  0
SEQEND
  5
CD8
  8
DATA
  6
CONTINUOUS
 62
     7
  0
POLYLINE
  5
411
  8
DATA
  6
CONTINUOUS
 62
     7
 66
     1
 10
0.0
 20
0.0
 30
0.0
 70
   128
  0
VERTEX
  5
CD9
  8
DATA
  6
CONTINUOUS
 62
     7
 10
64.078100000000006
 20
-134.27869999999999
 30
0.0
 42
-0.0766550251090489
  0
VERTEX
  5
CDA
  8
DATA
  6
CONTINUOUS
 62
     7
 10
64.093199999999996
 20
-134.5309
 30
0.0
  0
VERTEX
  5
CDB
  8
DATA
  6
CONTINUOUS
 62
     7
 10
64.093199999999996
 20
-134.5309
 30
0.0
  0
VERTEX
  5
CDC
  8
DATA
  6
CONTINUOUS
 62
     7
 10
64.093166396862671
 20
-134.5312968092218
 30
0.0
 42
-0.0656803987558746
  0
VERTEX
  5
CDD
  8
DATA
  6
CONTINUOUS
 62
     7
 10
64.035509680020766
 20
-134.79449654404621
 30
0.0
  0
VERTEX
  5
CDE
  8
DATA
  6
CONTINUOUS
 62
     7
 10
64.03540000000001
 20
-134.79480000000001
 30
0.0
  0
VERTEX
  5
CDF
  8
DATA
  6
CONTINUOUS
 62
     7
 10
64.03540000000001
 20
-134.79480000000001
 30
0.0
  0
VERTEX
  5
CE0
  8
DATA
  6
CONTINUOUS
 62
     7
 10
64.03540000000001
 20
-134.79480000000001
 30
0.0
 42
-0.0646913612869289
  0
VERTEX
  5
CE1
  8
DATA
  6
CONTINUOUS
 62
     7
 10
63.912100000000002
 20
-135.03559999999999
 30
0.0
  0
VERTEX
  5
CE2
  8
DATA
  6
CONTINUOUS
 62
     7
 10
63.912100000000002
 20
-135.03559999999999
 30
0.0
  0
VERTEX
  5
CE3
  8
DATA
  6
CONTINUOUS
 62
     7
 10
63.912020569887531
 20
-135.03571542530119
 30
0.0
 42
-0.0723298021988569
  0
VERTEX
  5
CE4
  8
DATA
  6
CONTINUOUS
 62
     7
 10
63.739967716048689
 20
-135.2214645823278
 30
0.0
  0
VERTEX
  5
CE5
  8
DATA
  6
CONTINUOUS
 62
     7
 10
63.739800000000002
 20
-135.2216
 30
0.0
  0
VERTEX
  5
CE6
  8
DATA
  6
CONTINUOUS
 62
     7
 10
63.739800000000002
 20
-135.2216
 30
0.0
  0
VERTEX
  5
CE7
  8
DATA
  6
CONTINUOUS
 62
     7
 10
63.739711681308748
 20
-135.2216703789571
 30
0.0
 42
-0.090638809851524
  0
VERTEX
  5
CE8
  8
DATA
  6
CONTINUOUS
 62
     7
 10
63.541243642022678
 20
-135.32805378703031
 30
0.0
  0
VERTEX
  5
CE9
  8
DATA
  6
CONTINUOUS
 62
     7
 10
63.5411
 20
-135.32810000000001
 30
0.0
  0
VERTEX
  5
CEA
  8
DATA
  6
CONTINUOUS
 62
     7
 10
63.5411
 20
-135.32810000000001
 30
0.0
  0
VERTEX
  5
CEB
  8
DATA
  6
CONTINUOUS
 62
     7
 10
63.5410095420619
 20
-135.328127811889
 30
0.0
 42
-0.1170299486663974
  0
VERTEX
  5
CEC
  8
DATA
  6
CONTINUOUS
 62
     7
 10
63.342307699521399
 20
-135.3411182342754
 30
0.0
  0
VERTEX
  5
CED
  8
DATA
  6
CONTINUOUS
 62
     7
 10
63.342200000000012
 20
-135.34110000000001
 30
0.0
  0
VERTEX
  5
CEE
  8
DATA
  6
CONTINUOUS
 62
     7
 10
63.342200000000012
 20
-135.34110000000001
 30
0.0
  0
SEQEND
  5
CEF
  8
DATA
  6
CONTINUOUS
 62
     7
  0
LINE
  5
429
  8
DATA
  6
CONTINUOUS
 62
     7
 10
63.342200000000012
 20
-135.34110000000001
 30
0.0
 11
62.853999999999999
 21
-135.1634
 31
0.0
  0
POLYLINE
  5
42A
  8
DATA
  6
CONTINUOUS
 62
     7
 66
     1
 10
0.0
 20
0.0
 30
0.0
 70
   128
  0
VERTEX
  5
CF0
  8
DATA
  6
CONTINUOUS
 62
     7
 10
63.342200000000012
 20
-135.34110000000001
 30
0.0
 42
-0.1181573396032611
  0
VERTEX
  5
CF1
  8
DATA
  6
CONTINUOUS
 62
     7
 10
63.515700000000002
 20
-135.60040000000001
 30
0.0
  0
VERTEX
  5
CF2
  8
DATA
  6
CONTINUOUS
 62
     7
 10
63.515700000000002
 20
-135.60040000000001
 30
0.0
  0
VERTEX
  5
CF3
  8
DATA
  6
CONTINUOUS
 62
     7
 10
63.51587159250559
 20
-135.6008417594293
 30
0.0
 42
-0.0894207841385461
  0
VERTEX
  5
CF4
  8
DATA
  6
CONTINUOUS
 62
     7
 10
63.583993664014457
 20
-135.95103950056981
 30
0.0
  0
VERTEX
  5
CF5
  8
DATA
  6
CONTINUOUS
 62
     7
 10
63.584000000000003
 20
-135.95150000000001
 30
0.0
  0
VERTEX
  5
CF6
  8
DATA
  6
CONTINUOUS
 62
     7
 10
63.584000000000003
 20
-135.95150000000001
 30
0.0
  0
VERTEX
  5
CF7
  8
DATA
  6
CONTINUOUS
 62
     7
 10
63.584012398528174
 20
-135.95199296548091
 30
0.0
 42
-0.0726572417801443
  0
VERTEX
  5
CF8
  8
DATA
  6
CONTINUOUS
 62
     7
 10
63.537050186968102
 20
-136.34174652787181
 30
0.0
  0
VERTEX
  5
CF9
  8
DATA
  6
CONTINUOUS
 62
     7
 10
63.536900000000003
 20
-136.34229999999999
 30
0.0
  0
VERTEX
  5
CFA
  8
DATA
  6
CONTINUOUS
 62
     7
 10
63.536900000000003
 20
-136.34229999999999
 30
0.0
  0
VERTEX
  5
CFB
  8
DATA
  6
CONTINUOUS
 62
     7
 10
63.536793964436271
 20
-136.34269900189179
 30
0.0
 42
-0.0678301336681698
  0
VERTEX
  5
CFC
  8
DATA
  6
CONTINUOUS
 62
     7
 10
63.381751893488371
 20
-136.71437073049549
 30
0.0
  0
VERTEX
  5
CFD
  8
DATA
  6
CONTINUOUS
 62
     7
 10
63.381500000000003
 20
-136.7148
 30
0.0
  0
VERTEX
  5
CFE
  8
DATA
  6
CONTINUOUS
 62
     7
 10
63.381500000000003
 20
-136.7148
 30
0.0
  0
VERTEX
  5
CFF
  8
DATA
  6
CONTINUOUS
 62
     7
 10
63.381333428594559
 20
-136.71508378203799
 30
0.0
 42
-0.0737232731541415
  0
VERTEX
  5
D00
  8
DATA
  6
CONTINUOUS
 62
     7
 10
63.141027121328818
 20
-137.01349025146061
 30
0.0
  0
VERTEX
  5
D01
  8
DATA
  6
CONTINUOUS
 62
     7
 10
63.140800000000013
 20
-137.0137
 30
0.0
  0
VERTEX
  5
D02
  8
DATA
  6
CONTINUOUS
 62
     7
 10
63.140800000000013
 20
-137.0137
 30
0.0
  0
SEQEND
  5
D03
  8
DATA
  6
CONTINUOUS
 62
     7
  0
POLYLINE
  5
43F
  8
DATA
  6
CONTINUOUS
 62
     7
 66
     1
 10
0.0
 20
0.0
 30
0.0
 70
   128
  0
VERTEX
  5
D04
  8
DATA
  6
CONTINUOUS
 62
     7
 10
63.140800000000013
 20
-137.0137
 30
0.0
  0
VERTEX
  5
D05
  8
DATA
  6
CONTINUOUS
 62
     7
 10
63.14065237191646
 20
-137.0138280054687
 30
0.0
 42
-0.0883904528734714
  0
VERTEX
  5
D06
  8
DATA
  6
CONTINUOUS
 62
     7
 10
62.78067505101491
 20
-137.2286337739763
 30
0.0
  0
VERTEX
  5
D07
  8
DATA
  6
CONTINUOUS
 62
     7
 10
62.780500000000004
 20
-137.2287
 30
0.0
  0
VERTEX
  5
D08
  8
DATA
  6
CONTINUOUS
 62
     7
 10
62.780500000000004
 20
-137.2287
 30
0.0
  0
VERTEX
  5
D09
  8
DATA
  6
CONTINUOUS
 62
     7
 10
62.780500000000004
 20
-137.2287
 30
0.0
 42
-0.1148226473664421
  0
VERTEX
  5
D0A
  8
DATA
  6
CONTINUOUS
 62
     7
 10
62.414000000000001
 20
-137.27340000000001
 30
0.0
  0
VERTEX
  5
D0B
  8
DATA
  6
CONTINUOUS
 62
     7
 10
62.414000000000001
 20
-137.27340000000001
 30
0.0
  0
VERTEX
  5
D0C
  8
DATA
  6
CONTINUOUS
 62
     7
 10
62.413800863885442
 20
-137.2733751634245
 30
0.0
 42
-0.1318829241550373
  0
VERTEX
  5
D0D
  8
DATA
  6
CONTINUOUS
 62
     7
 10
62.090320757240782
 20
-137.14179153097371
 30
0.0
  0
VERTEX
  5
D0E
  8
DATA
  6
CONTINUOUS
 62
     7
 10
62.090200000000003
 20
-137.14169999999999
 30
0.0
  0
VERTEX
  5
D0F
  8
DATA
  6
CONTINUOUS
 62
     7
 10
62.090200000000003
 20
-137.14169999999999
 30
0.0
  0
VERTEX
  5
D10
  8
DATA
  6
CONTINUOUS
 62
     7
 10
62.090071509772393
 20
-137.14160216650211
 30
0.0
 42
-0.1175908554941917
  0
VERTEX
  5
D11
  8
DATA
  6
CONTINUOUS
 62
     7
 10
61.852690989853841
 20
-136.85158749096959
 30
0.0
  0
VERTEX
  5
D12
  8
DATA
  6
CONTINUOUS
 62
     7
 10
61.852600000000002
 20
-136.85140000000001
 30
0.0
  0
VERTEX
  5
D13
  8
DATA
  6
CONTINUOUS
 62
     7
 10
61.852600000000002
 20
-136.85140000000001
 30
0.0
  0
VERTEX
  5
D14
  8
DATA
  6
CONTINUOUS
 62
     7
 10
61.852600000000002
 20
-136.85140000000001
 30
0.0
 42
-0.0910272036912467
  0
VERTEX
  5
D15
  8
DATA
  6
CONTINUOUS
 62
     7
 10
61.732900000000001
 20
-136.44120000000001
 30
0.0
  0
VERTEX
  5
D16
  8
DATA
  6
CONTINUOUS
 62
     7
 10
61.732900000000001
 20
-136.44120000000001
 30
0.0
  0
VERTEX
  5
D17
  8
DATA
  6
CONTINUOUS
 62
     7
 10
61.732899949492243
 20
-136.44119956336399
 30
0.0
 42
-0.072634335497132
  0
VERTEX
  5
D18
  8
DATA
  6
CONTINUOUS
 62
     7
 10
61.74708722087815
 20
-135.96607233349829
 30
0.0
  0
VERTEX
  5
D19
  8
DATA
  6
CONTINUOUS
 62
     7
 10
61.74710000000001
 20
-135.96600000000001
 30
0.0
  0
VERTEX
  5
D1A
  8
DATA
  6
CONTINUOUS
 62
     7
 10
61.74710000000001
 20
-135.96600000000001
 30
0.0
  0
VERTEX
  5
D1B
  8
DATA
  6
CONTINUOUS
 62
     7
 10
61.74710000000001
 20
-135.96600000000001
 30
0.0
  0
SEQEND
  5
D1C
  8
DATA
  6
CONTINUOUS
 62
     7
  0
LINE
  5
459
  8
DATA
  6
CONTINUOUS
 62
     7
 10
63.755400000000002
 20
-129.30850000000001
 30
0.0
 11
65.091499999999996
 21
-125.6378
 31
0.0
  0
LINE
  5
45A
  8
DATA
  6
CONTINUOUS
 62
     7
 10
65.091399999999993
 20
-125.6378
 30
0.0
 11
62.871500000000012
 21
-127.7397
 31
0.0
  0
LINE
  5
45B
  8
DATA
  6
CONTINUOUS
 62
     7
 10
62.871500000000012
 20
-127.7397
 30
0.0
 11
64.670100000000005
 21
-128.39429999999999
 31
0.0
  0
LINE
  5
45C
  8
DATA
  6
CONTINUOUS
 62
     7
 10
130.75049999999999
 20
-67.77800000000002
 30
0.0
 11
132.0865
 21
-64.107300000000038
 31
0.0
  0
LINE
  5
45D
  8
DATA
  6
CONTINUOUS
 62
     7
 10
132.0865
 20
-64.107300000000038
 30
0.0
 11
129.8665
 21
-66.20920000000001
 31
0.0
  0
LINE
  5
45E
  8
DATA
  6
CONTINUOUS
 62
     7
 10
129.8665
 20
-66.20920000000001
 30
0.0
 11
131.6652
 21
-66.863800000000026
 31
0.0
  0
POLYLINE
  5
45F
  8
DATA
  6
CONTINUOUS
 62
     7
 66
     1
 10
0.0
 20
0.0
 30
0.0
 70
   128
  0
VERTEX
  5
D1D
  8
DATA
  6
CONTINUOUS
 62
     7
 10
133.80799999999999
 20
-65.773100000000014
 30
0.0
  0
VERTEX
  5
D1E
  8
DATA
  6
CONTINUOUS
 62
     7
 10
133.80779585787019
 20
-65.773459376946477
 30
0.0
 42
0.0839655735843452
  0
VERTEX
  5
D1F
  8
DATA
  6
CONTINUOUS
 62
     7
 10
133.14007944070991
 20
-67.608067163648741
 30
0.0
  0
VERTEX
  5
D20
  8
DATA
  6
CONTINUOUS
 62
     7
 10
133.13999999999999
 20
-67.608500000000035
 30
0.0
  0
VERTEX
  5
D21
  8
DATA
  6
CONTINUOUS
 62
     7
 10
133.13999999999999
 20
-67.608500000000035
 30
0.0
  0
SEQEND
  5
D22
  8
DATA
  6
CONTINUOUS
 62
     7
  0
POLYLINE
  5
466
  8
DATA
  6
CONTINUOUS
 62
     7
 66
     1
 10
0.0
 20
0.0
 30
0.0
 70
   128
  0
VERTEX
  5
D23
  8
DATA
  6
CONTINUOUS
 62
     7
 10
133.13999999999999
 20
-67.608500000000035
 30
0.0
  0
VERTEX
  5
D24
  8
DATA
  6
CONTINUOUS
 62
     7
 10
133.1399671519851
 20
-67.608707770370444
 30
0.0
 42
0.0707212646096174
  0
VERTEX
  5
D25
  8
DATA
  6
CONTINUOUS
 62
     7
 10
133.13267832556241
 20
-68.076128361886418
 30
0.0
  0
VERTEX
  5
D26
  8
DATA
  6
CONTINUOUS
 62
     7
 10
133.1327
 20
-68.07630000000006
 30
0.0
  0
VERTEX
  5
D27
  8
DATA
  6
CONTINUOUS
 62
     7
 10
133.1327
 20
-68.07630000000006
 30
0.0
  0
VERTEX
  5
D28
  8
DATA
  6
CONTINUOUS
 62
     7
 10
133.1327
 20
-68.07630000000006
 30
0.0
 42
0.0871980169782036
  0
VERTEX
  5
D29
  8
DATA
  6
CONTINUOUS
 62
     7
 10
133.25819999999999
 20
-68.476300000000037
 30
0.0
  0
VERTEX
  5
D2A
  8
DATA
  6
CONTINUOUS
 62
     7
 10
133.25819999999999
 20
-68.476300000000037
 30
0.0
  0
VERTEX
  5
D2B
  8
DATA
  6
CONTINUOUS
 62
     7
 10
133.25819999999999
 20
-68.476300000000037
 30
0.0
 42
0.113602458579004
  0
VERTEX
  5
D2C
  8
DATA
  6
CONTINUOUS
 62
     7
 10
133.49959999999999
 20
-68.754200000000026
 30
0.0
  0
VERTEX
  5
D2D
  8
DATA
  6
CONTINUOUS
 62
     7
 10
133.49959999999999
 20
-68.754200000000026
 30
0.0
  0
VERTEX
  5
D2E
  8
DATA
  6
CONTINUOUS
 62
     7
 10
133.49959999999999
 20
-68.754200000000026
 30
0.0
 42
0.1328482795081501
  0
VERTEX
  5
D2F
  8
DATA
  6
CONTINUOUS
 62
     7
 10
133.82400000000001
 20
-68.872300000000052
 30
0.0
  0
VERTEX
  5
D30
  8
DATA
  6
CONTINUOUS
 62
     7
 10
133.82400000000001
 20
-68.872300000000052
 30
0.0
  0
VERTEX
  5
D31
  8
DATA
  6
CONTINUOUS
 62
     7
 10
133.82400000000001
 20
-68.872300000000052
 30
0.0
 42
0.1203564301522985
  0
VERTEX
  5
D32
  8
DATA
  6
CONTINUOUS
 62
     7
 10
134.1876
 20
-68.814499999999995
 30
0.0
  0
VERTEX
  5
D33
  8
DATA
  6
CONTINUOUS
 62
     7
 10
134.1876
 20
-68.814499999999995
 30
0.0
  0
VERTEX
  5
D34
  8
DATA
  6
CONTINUOUS
 62
     7
 10
134.1876
 20
-68.814499999999995
 30
0.0
 42
0.0930583757794202
  0
VERTEX
  5
D35
  8
DATA
  6
CONTINUOUS
 62
     7
 10
134.54079999999999
 20
-68.588800000000049
 30
0.0
  0
VERTEX
  5
D36
  8
DATA
  6
CONTINUOUS
 62
     7
 10
134.54079999999999
 20
-68.588800000000049
 30
0.0
  0
VERTEX
  5
D37
  8
DATA
  6
CONTINUOUS
 62
     7
 10
134.54079999999999
 20
-68.588800000000049
 30
0.0
 42
0.0738914072073655
  0
VERTEX
  5
D38
  8
DATA
  6
CONTINUOUS
 62
     7
 10
134.83590000000001
 20
-68.225700000000018
 30
0.0
  0
VERTEX
  5
D39
  8
DATA
  6
CONTINUOUS
 62
     7
 10
134.83590000000001
 20
-68.225700000000018
 30
0.0
  0
VERTEX
  5
D3A
  8
DATA
  6
CONTINUOUS
 62
     7
 10
134.83590000000001
 20
-68.225700000000018
 30
0.0
  0
SEQEND
  5
D3B
  8
DATA
  6
CONTINUOUS
 62
     7
  0
POLYLINE
  5
480
  8
DATA
  6
CONTINUOUS
 62
     7
 66
     1
 10
0.0
 20
0.0
 30
0.0
 70
   128
  0
VERTEX
  5
D3C
  8
DATA
  6
CONTINUOUS
 62
     7
 10
134.83590000000001
 20
-68.225700000000018
 30
0.0
 42
0.0840272237046327
  0
VERTEX
  5
D3D
  8
DATA
  6
CONTINUOUS
 62
     7
 10
135.50389999999999
 20
-66.390400000000071
 30
0.0
  0
VERTEX
  5
D3E
  8
DATA
  6
CONTINUOUS
 62
     7
 10
135.50389999999999
 20
-66.390400000000071
 30
0.0
  0
SEQEND
  5
D3F
  8
DATA
  6
CONTINUOUS
 62
     7
  0
POLYLINE
  5
485
  8
DATA
  6
CONTINUOUS
 62
     7
 66
     1
 10
0.0
 20
0.0
 30
0.0
 70
   128
  0
VERTEX
  5
D40
  8
DATA
  6
CONTINUOUS
 62
     7
 10
135.50389999999999
 20
-66.390400000000071
 30
0.0
 42
0.0708182601263188
  0
VERTEX
  5
D41
  8
DATA
  6
CONTINUOUS
 62
     7
 10
135.51130000000001
 20
-65.922600000000045
 30
0.0
  0
VERTEX
  5
D42
  8
DATA
  6
CONTINUOUS
 62
     7
 10
135.51130000000001
 20
-65.922600000000045
 30
0.0
  0
VERTEX
  5
D43
  8
DATA
  6
CONTINUOUS
 62
     7
 10
135.51128208708971
 20
-65.922463486810329
 30
0.0
 42
0.0871394373995257
  0
VERTEX
  5
D44
  8
DATA
  6
CONTINUOUS
 62
     7
 10
135.38569538198689
 20
-65.522591089451851
 30
0.0
  0
VERTEX
  5
D45
  8
DATA
  6
CONTINUOUS
 62
     7
 10
135.38570000000001
 20
-65.522600000000025
 30
0.0
  0
VERTEX
  5
D46
  8
DATA
  6
CONTINUOUS
 62
     7
 10
135.38570000000001
 20
-65.522600000000025
 30
0.0
  0
VERTEX
  5
D47
  8
DATA
  6
CONTINUOUS
 62
     7
 10
135.38570000000001
 20
-65.522600000000025
 30
0.0
 42
0.1134985735633525
  0
VERTEX
  5
D48
  8
DATA
  6
CONTINUOUS
 62
     7
 10
135.14439999999999
 20
-65.244700000000023
 30
0.0
  0
VERTEX
  5
D49
  8
DATA
  6
CONTINUOUS
 62
     7
 10
135.14439999999999
 20
-65.244700000000023
 30
0.0
  0
VERTEX
  5
D4A
  8
DATA
  6
CONTINUOUS
 62
     7
 10
135.14439999999999
 20
-65.244700000000023
 30
0.0
 42
0.1327349534502728
  0
VERTEX
  5
D4B
  8
DATA
  6
CONTINUOUS
 62
     7
 10
134.81989999999999
 20
-65.126600000000025
 30
0.0
  0
VERTEX
  5
D4C
  8
DATA
  6
CONTINUOUS
 62
     7
 10
134.81989999999999
 20
-65.126600000000025
 30
0.0
  0
VERTEX
  5
D4D
  8
DATA
  6
CONTINUOUS
 62
     7
 10
134.81989999999999
 20
-65.126600000000025
 30
0.0
 42
0.1202419588897391
  0
VERTEX
  5
D4E
  8
DATA
  6
CONTINUOUS
 62
     7
 10
134.4564
 20
-65.184300000000036
 30
0.0
  0
VERTEX
  5
D4F
  8
DATA
  6
CONTINUOUS
 62
     7
 10
134.4564
 20
-65.184300000000036
 30
0.0
  0
VERTEX
  5
D50
  8
DATA
  6
CONTINUOUS
 62
     7
 10
134.45627631244361
 20
-65.184349837706037
 30
0.0
 42
0.0929835550578233
  0
VERTEX
  5
D51
  8
DATA
  6
CONTINUOUS
 62
     7
 10
134.1032302361038
 20
-65.409877720442779
 30
0.0
  0
VERTEX
  5
D52
  8
DATA
  6
CONTINUOUS
 62
     7
 10
134.10310000000001
 20
-65.410000000000025
 30
0.0
  0
VERTEX
  5
D53
  8
DATA
  6
CONTINUOUS
 62
     7
 10
134.10310000000001
 20
-65.410000000000025
 30
0.0
  0
VERTEX
  5
D54
  8
DATA
  6
CONTINUOUS
 62
     7
 10
134.10292047720421
 20
-65.41016429679361
 30
0.0
 42
0.0737473843270766
  0
VERTEX
  5
D55
  8
DATA
  6
CONTINUOUS
 62
     7
 10
133.80808268875921
 20
-65.772960539853855
 30
0.0
  0
VERTEX
  5
D56
  8
DATA
  6
CONTINUOUS
 62
     7
 10
133.80799999999999
 20
-65.773100000000014
 30
0.0
  0
VERTEX
  5
D57
  8
DATA
  6
CONTINUOUS
 62
     7
 10
133.80799999999999
 20
-65.773100000000014
 30
0.0
  0
SEQEND
  5
D58
  8
DATA
  6
CONTINUOUS
 62
     7
  0
POLYLINE
  5
49F
  8
DATA
  6
CONTINUOUS
 62
     7
 66
     1
 10
0.0
 20
0.0
 30
0.0
 70
   128
  0
VERTEX
  5
D59
  8
DATA
  6
CONTINUOUS
 62
     7
 10
122.7932
 20
-58.637400000000028
 30
0.0
  0
VERTEX
  5
D5A
  8
DATA
  6
CONTINUOUS
 62
     7
 10
122.7933489021955
 20
-58.637145699402069
 30
0.0
 42
-0.0702768770532376
  0
VERTEX
  5
D5B
  8
DATA
  6
CONTINUOUS
 62
     7
 10
123.0787272037159
 20
-58.276964377213829
 30
0.0
  0
VERTEX
  5
D5C
  8
DATA
  6
CONTINUOUS
 62
     7
 10
123.0789
 20
-58.276800000000037
 30
0.0
  0
VERTEX
  5
D5D
  8
DATA
  6
CONTINUOUS
 62
     7
 10
123.0789
 20
-58.276800000000037
 30
0.0
  0
VERTEX
  5
D5E
  8
DATA
  6
CONTINUOUS
 62
     7
 10
123.07907061665701
 20
-58.276639222311381
 30
0.0
 42
-0.0861963004032414
  0
VERTEX
  5
D5F
  8
DATA
  6
CONTINUOUS
 62
     7
 10
123.4234366977141
 20
-58.04917132254964
 30
0.0
  0
VERTEX
  5
D60
  8
DATA
  6
CONTINUOUS
 62
     7
 10
123.42359999999999
 20
-58.049100000000038
 30
0.0
  0
VERTEX
  5
D61
  8
DATA
  6
CONTINUOUS
 62
     7
 10
123.42359999999999
 20
-58.049100000000038
 30
0.0
  0
VERTEX
  5
D62
  8
DATA
  6
CONTINUOUS
 62
     7
 10
123.4237363257546
 20
-58.04904226859108
 30
0.0
 42
-0.1123249309082964
  0
VERTEX
  5
D63
  8
DATA
  6
CONTINUOUS
 62
     7
 10
123.7803666998223
 20
-57.985298439054183
 30
0.0
  0
VERTEX
  5
D64
  8
DATA
  6
CONTINUOUS
 62
     7
 10
123.7804
 20
-57.985300000000016
 30
0.0
  0
VERTEX
  5
D65
  8
DATA
  6
CONTINUOUS
 62
     7
 10
123.7804
 20
-57.985300000000016
 30
0.0
  0
VERTEX
  5
D66
  8
DATA
  6
CONTINUOUS
 62
     7
 10
123.78055814981229
 20
-57.985310127375058
 30
0.0
 42
-0.1324120599219429
  0
VERTEX
  5
D67
  8
DATA
  6
CONTINUOUS
 62
     7
 10
124.1007454509738
 20
-58.093996401202247
 30
0.0
  0
VERTEX
  5
D68
  8
DATA
  6
CONTINUOUS
 62
     7
 10
124.1009
 20
-58.094100000000019
 30
0.0
  0
VERTEX
  5
D69
  8
DATA
  6
CONTINUOUS
 62
     7
 10
124.1009
 20
-58.094100000000019
 30
0.0
  0
VERTEX
  5
D6A
  8
DATA
  6
CONTINUOUS
 62
     7
 10
124.1009
 20
-58.094100000000019
 30
0.0
 42
-0.1214528108337843
  0
VERTEX
  5
D6B
  8
DATA
  6
CONTINUOUS
 62
     7
 10
124.34139999999999
 20
-58.360600000000026
 30
0.0
  0
VERTEX
  5
D6C
  8
DATA
  6
CONTINUOUS
 62
     7
 10
124.34139999999999
 20
-58.360600000000026
 30
0.0
  0
VERTEX
  5
D6D
  8
DATA
  6
CONTINUOUS
 62
     7
 10
124.3414264971907
 20
-58.36064776847369
 30
0.0
 42
-0.0940990798636855
  0
VERTEX
  5
D6E
  8
DATA
  6
CONTINUOUS
 62
     7
 10
124.4694960439482
 20
-58.748670009636953
 30
0.0
  0
VERTEX
  5
D6F
  8
DATA
  6
CONTINUOUS
 62
     7
 10
124.4695
 20
-58.748700000000042
 30
0.0
  0
VERTEX
  5
D70
  8
DATA
  6
CONTINUOUS
 62
     7
 10
124.4695
 20
-58.748700000000042
 30
0.0
  0
SEQEND
  5
D71
  8
DATA
  6
CONTINUOUS
 62
     7
  0
POLYLINE
  5
4B9
  8
DATA
  6
CONTINUOUS
 62
     7
 66
     1
 10
0.0
 20
0.0
 30
0.0
 70
   128
  0
VERTEX
  5
D72
  8
DATA
  6
CONTINUOUS
 62
     7
 10
124.4695
 20
-58.748700000000042
 30
0.0
 42
-0.0766550251089471
  0
VERTEX
  5
D73
  8
DATA
  6
CONTINUOUS
 62
     7
 10
124.4846
 20
-59.00090000000003
 30
0.0
  0
VERTEX
  5
D74
  8
DATA
  6
CONTINUOUS
 62
     7
 10
124.4846
 20
-59.00090000000003
 30
0.0
  0
VERTEX
  5
D75
  8
DATA
  6
CONTINUOUS
 62
     7
 10
124.4846
 20
-59.00090000000003
 30
0.0
 42
-0.0660454021274595
  0
VERTEX
  5
D76
  8
DATA
  6
CONTINUOUS
 62
     7
 10
124.4268
 20
-59.264800000000037
 30
0.0
  0
VERTEX
  5
D77
  8
DATA
  6
CONTINUOUS
 62
     7
 10
124.4268
 20
-59.264800000000037
 30
0.0
  0
VERTEX
  5
D78
  8
DATA
  6
CONTINUOUS
 62
     7
 10
124.4268
 20
-59.264800000000037
 30
0.0
 42
-0.064691361287013
  0
VERTEX
  5
D79
  8
DATA
  6
CONTINUOUS
 62
     7
 10
124.3035
 20
-59.505600000000051
 30
0.0
  0
VERTEX
  5
D7A
  8
DATA
  6
CONTINUOUS
 62
     7
 10
124.3035
 20
-59.505600000000051
 30
0.0
  0
VERTEX
  5
D7B
  8
DATA
  6
CONTINUOUS
 62
     7
 10
124.3035
 20
-59.505600000000051
 30
0.0
 42
-0.0724788491092274
  0
VERTEX
  5
D7C
  8
DATA
  6
CONTINUOUS
 62
     7
 10
124.13120000000001
 20
-59.691500000000048
 30
0.0
  0
VERTEX
  5
D7D
  8
DATA
  6
CONTINUOUS
 62
     7
 10
124.13120000000001
 20
-59.691500000000048
 30
0.0
  0
VERTEX
  5
D7E
  8
DATA
  6
CONTINUOUS
 62
     7
 10
124.13120000000001
 20
-59.691500000000048
 30
0.0
 42
-0.0910423939601436
  0
VERTEX
  5
D7F
  8
DATA
  6
CONTINUOUS
 62
     7
 10
123.9325
 20
-59.79800000000003
 30
0.0
  0
VERTEX
  5
D80
  8
DATA
  6
CONTINUOUS
 62
     7
 10
123.9325
 20
-59.79800000000003
 30
0.0
  0
VERTEX
  5
D81
  8
DATA
  6
CONTINUOUS
 62
     7
 10
123.9325
 20
-59.79800000000003
 30
0.0
 42
-0.1172751194811519
  0
VERTEX
  5
D82
  8
DATA
  6
CONTINUOUS
 62
     7
 10
123.7336
 20
-59.811100000000039
 30
0.0
  0
VERTEX
  5
D83
  8
DATA
  6
CONTINUOUS
 62
     7
 10
123.7336
 20
-59.811100000000039
 30
0.0
  0
SEQEND
  5
D84
  8
DATA
  6
CONTINUOUS
 62
     7
  0
LINE
  5
4CD
  8
DATA
  6
CONTINUOUS
 62
     7
 10
123.7336
 20
-59.811100000000039
 30
0.0
 11
123.2454
 21
-59.633400000000023
 31
0.0
  0
POLYLINE
  5
4CE
  8
DATA
  6
CONTINUOUS
 62
     7
 66
     1
 10
0.0
 20
0.0
 30
0.0
 70
   128
  0
VERTEX
  5
D85
  8
DATA
  6
CONTINUOUS
 62
     7
 10
123.7336
 20
-59.811100000000039
 30
0.0
 42
-0.1181573396032001
  0
VERTEX
  5
D86
  8
DATA
  6
CONTINUOUS
 62
     7
 10
123.9071
 20
-60.070400000000028
 30
0.0
  0
VERTEX
  5
D87
  8
DATA
  6
CONTINUOUS
 62
     7
 10
123.9071
 20
-60.070400000000028
 30
0.0
  0
VERTEX
  5
D88
  8
DATA
  6
CONTINUOUS
 62
     7
 10
123.9071
 20
-60.070400000000028
 30
0.0
 42
-0.0897051242390965
  0
VERTEX
  5
D89
  8
DATA
  6
CONTINUOUS
 62
     7
 10
123.97539999999999
 20
-60.42150000000003
 30
0.0
  0
VERTEX
  5
D8A
  8
DATA
  6
CONTINUOUS
 62
     7
 10
123.97539999999999
 20
-60.42150000000003
 30
0.0
  0
VERTEX
  5
D8B
  8
DATA
  6
CONTINUOUS
 62
     7
 10
123.97539999999999
 20
-60.42150000000003
 30
0.0
 42
-0.0728862162215009
  0
VERTEX
  5
D8C
  8
DATA
  6
CONTINUOUS
 62
     7
 10
123.92829999999999
 20
-60.812300000000022
 30
0.0
  0
VERTEX
  5
D8D
  8
DATA
  6
CONTINUOUS
 62
     7
 10
123.92829999999999
 20
-60.812300000000022
 30
0.0
  0
VERTEX
  5
D8E
  8
DATA
  6
CONTINUOUS
 62
     7
 10
123.92829999999999
 20
-60.812300000000022
 30
0.0
 42
-0.0680284813645752
  0
VERTEX
  5
D8F
  8
DATA
  6
CONTINUOUS
 62
     7
 10
123.77290000000001
 20
-61.18480000000001
 30
0.0
  0
VERTEX
  5
D90
  8
DATA
  6
CONTINUOUS
 62
     7
 10
123.77290000000001
 20
-61.18480000000001
 30
0.0
  0
VERTEX
  5
D91
  8
DATA
  6
CONTINUOUS
 62
     7
 10
123.77290000000001
 20
-61.18480000000001
 30
0.0
 42
-0.0739028667116217
  0
VERTEX
  5
D92
  8
DATA
  6
CONTINUOUS
 62
     7
 10
123.5322
 20
-61.48370000000002
 30
0.0
  0
VERTEX
  5
D93
  8
DATA
  6
CONTINUOUS
 62
     7
 10
123.5322
 20
-61.48370000000002
 30
0.0
  0
SEQEND
  5
D94
  8
DATA
  6
CONTINUOUS
 62
     7
  0
POLYLINE
  5
4DF
  8
DATA
  6
CONTINUOUS
 62
     7
 66
     1
 10
0.0
 20
0.0
 30
0.0
 70
   128
  0
VERTEX
  5
D95
  8
DATA
  6
CONTINUOUS
 62
     7
 10
123.5322
 20
-61.48370000000002
 30
0.0
 42
-0.0884537432576054
  0
VERTEX
  5
D96
  8
DATA
  6
CONTINUOUS
 62
     7
 10
123.172
 20
-61.698700000000031
 30
0.0
  0
VERTEX
  5
D97
  8
DATA
  6
CONTINUOUS
 62
     7
 10
123.172
 20
-61.698700000000031
 30
0.0
  0
VERTEX
  5
D98
  8
DATA
  6
CONTINUOUS
 62
     7
 10
123.172
 20
-61.698700000000031
 30
0.0
 42
-0.1149355281840753
  0
VERTEX
  5
D99
  8
DATA
  6
CONTINUOUS
 62
     7
 10
122.80540000000001
 20
-61.743300000000019
 30
0.0
  0
VERTEX
  5
D9A
  8
DATA
  6
CONTINUOUS
 62
     7
 10
122.80540000000001
 20
-61.743300000000019
 30
0.0
  0
VERTEX
  5
D9B
  8
DATA
  6
CONTINUOUS
 62
     7
 10
122.80540000000001
 20
-61.743300000000019
 30
0.0
 42
-0.1321513798889622
  0
VERTEX
  5
D9C
  8
DATA
  6
CONTINUOUS
 62
     7
 10
122.4817
 20
-61.611700000000042
 30
0.0
  0
VERTEX
  5
D9D
  8
DATA
  6
CONTINUOUS
 62
     7
 10
122.4817
 20
-61.611700000000042
 30
0.0
  0
VERTEX
  5
D9E
  8
DATA
  6
CONTINUOUS
 62
     7
 10
122.4816917312283
 20
-61.611693708192007
 30
0.0
 42
-0.1177278151476164
  0
VERTEX
  5
D9F
  8
DATA
  6
CONTINUOUS
 62
     7
 10
122.2440295425299
 20
-61.321360909539138
 30
0.0
  0
VERTEX
  5
DA0
  8
DATA
  6
CONTINUOUS
 62
     7
 10
122.244
 20
-61.321300000000029
 30
0.0
  0
VERTEX
  5
DA1
  8
DATA
  6
CONTINUOUS
 62
     7
 10
122.244
 20
-61.321300000000029
 30
0.0
  0
VERTEX
  5
DA2
  8
DATA
  6
CONTINUOUS
 62
     7
 10
122.244
 20
-61.321300000000029
 30
0.0
 42
-0.0910272036911956
  0
VERTEX
  5
DA3
  8
DATA
  6
CONTINUOUS
 62
     7
 10
122.12430000000001
 20
-60.911100000000033
 30
0.0
  0
VERTEX
  5
DA4
  8
DATA
  6
CONTINUOUS
 62
     7
 10
122.12430000000001
 20
-60.911100000000033
 30
0.0
  0
VERTEX
  5
DA5
  8
DATA
  6
CONTINUOUS
 62
     7
 10
122.12430000000001
 20
-60.911100000000033
 30
0.0
 42
-0.0726564326561206
  0
VERTEX
  5
DA6
  8
DATA
  6
CONTINUOUS
 62
     7
 10
122.13849999999999
 20
-60.436000000000043
 30
0.0
  0
VERTEX
  5
DA7
  8
DATA
  6
CONTINUOUS
 62
     7
 10
122.13849999999999
 20
-60.436000000000043
 30
0.0
  0
VERTEX
  5
DA8
  8
DATA
  6
CONTINUOUS
 62
     7
 10
122.13849999999999
 20
-60.436000000000043
 30
0.0
  0
SEQEND
  5
DA9
  8
DATA
  6
CONTINUOUS
 62
     7
  0
POLYLINE
  5
4F5
  8
DATA
  6
CONTINUOUS
 62
     7
 66
     1
 10
0.0
 20
0.0
 30
0.0
 70
   128
  0
VERTEX
  5
DAA
  8
DATA
  6
CONTINUOUS
 62
     7
 10
125.2671
 20
-62.07360000000002
 30
0.0
 42
0.0882669803015057
  0
VERTEX
  5
DAB
  8
DATA
  6
CONTINUOUS
 62
     7
 10
125.42230000000001
 20
-62.494000000000021
 30
0.0
  0
VERTEX
  5
DAC
  8
DATA
  6
CONTINUOUS
 62
     7
 10
125.42230000000001
 20
-62.494000000000021
 30
0.0
  0
VERTEX
  5
DAD
  8
DATA
  6
CONTINUOUS
 62
     7
 10
125.4223145726925
 20
-62.494024241381467
 30
0.0
 42
0.1139803398275034
  0
VERTEX
  5
DAE
  8
DATA
  6
CONTINUOUS
 62
     7
 10
125.6971862311581
 20
-62.77849106601866
 30
0.0
  0
VERTEX
  5
DAF
  8
DATA
  6
CONTINUOUS
 62
     7
 10
125.6972
 20
-62.778500000000037
 30
0.0
  0
VERTEX
  5
DB0
  8
DATA
  6
CONTINUOUS
 62
     7
 10
125.6972
 20
-62.778500000000037
 30
0.0
  0
VERTEX
  5
DB1
  8
DATA
  6
CONTINUOUS
 62
     7
 10
125.6972
 20
-62.778500000000037
 30
0.0
 42
0.1299816959334326
  0
VERTEX
  5
DB2
  8
DATA
  6
CONTINUOUS
 62
     7
 10
126.0562
 20
-62.890100000000039
 30
0.0
  0
VERTEX
  5
DB3
  8
DATA
  6
CONTINUOUS
 62
     7
 10
126.0562
 20
-62.890100000000039
 30
0.0
  0
VERTEX
  5
DB4
  8
DATA
  6
CONTINUOUS
 62
     7
 10
126.0562
 20
-62.890100000000039
 30
0.0
 42
0.1156739744337301
  0
VERTEX
  5
DB5
  8
DATA
  6
CONTINUOUS
 62
     7
 10
126.4528
 20
-62.814500000000031
 30
0.0
  0
VERTEX
  5
DB6
  8
DATA
  6
CONTINUOUS
 62
     7
 10
126.4528
 20
-62.814500000000031
 30
0.0
  0
VERTEX
  5
DB7
  8
DATA
  6
CONTINUOUS
 62
     7
 10
126.452908853151
 20
-62.814453268829268
 30
0.0
 42
0.08975129702108
  0
VERTEX
  5
DB8
  8
DATA
  6
CONTINUOUS
 62
     7
 10
126.8354833448503
 20
-62.561315943053103
 30
0.0
  0
VERTEX
  5
DB9
  8
DATA
  6
CONTINUOUS
 62
     7
 10
126.8355
 20
-62.561300000000053
 30
0.0
  0
VERTEX
  5
DBA
  8
DATA
  6
CONTINUOUS
 62
     7
 10
126.8355
 20
-62.561300000000053
 30
0.0
  0
VERTEX
  5
DBB
  8
DATA
  6
CONTINUOUS
 62
     7
 10
126.8355
 20
-62.561300000000053
 30
0.0
  0
SEQEND
  5
DBC
  8
DATA
  6
CONTINUOUS
 62
     7
  0
POLYLINE
  5
509
  8
DATA
  6
CONTINUOUS
 62
     7
 66
     1
 10
0.0
 20
0.0
 30
0.0
 70
   128
  0
VERTEX
  5
DBD
  8
DATA
  6
CONTINUOUS
 62
     7
 10
126.8355
 20
-62.561300000000053
 30
0.0
  0
VERTEX
  5
DBE
  8
DATA
  6
CONTINUOUS
 62
     7
 10
126.83554196944689
 20
-62.561252884435589
 30
0.0
 42
0.0692638265487088
  0
VERTEX
  5
DBF
  8
DATA
  6
CONTINUOUS
 62
     7
 10
127.0784852146375
 20
-62.19793052362769
 30
0.0
  0
VERTEX
  5
DC0
  8
DATA
  6
CONTINUOUS
 62
     7
 10
127.07850000000001
 20
-62.197900000000033
 30
0.0
  0
VERTEX
  5
DC1
  8
DATA
  6
CONTINUOUS
 62
     7
 10
127.07850000000001
 20
-62.197900000000033
 30
0.0
  0
VERTEX
  5
DC2
  8
DATA
  6
CONTINUOUS
 62
     7
 10
127.07862301025391
 20
-62.197649300423443
 30
0.0
 42
0.0642805189131893
  0
VERTEX
  5
DC3
  8
DATA
  6
CONTINUOUS
 62
     7
 10
127.22326395973801
 20
-61.772278355149709
 30
0.0
  0
VERTEX
  5
DC4
  8
DATA
  6
CONTINUOUS
 62
     7
 10
127.22329999999999
 20
-61.772100000000023
 30
0.0
  0
VERTEX
  5
DC5
  8
DATA
  6
CONTINUOUS
 62
     7
 10
127.22329999999999
 20
-61.772100000000023
 30
0.0
  0
VERTEX
  5
DC6
  8
DATA
  6
CONTINUOUS
 62
     7
 10
127.22329999999999
 20
-61.772100000000023
 30
0.0
 42
0.0684901874626293
  0
VERTEX
  5
DC7
  8
DATA
  6
CONTINUOUS
 62
     7
 10
127.25069999999999
 20
-61.340600000000009
 30
0.0
  0
VERTEX
  5
DC8
  8
DATA
  6
CONTINUOUS
 62
     7
 10
127.25069999999999
 20
-61.340600000000009
 30
0.0
  0
SEQEND
  5
DC9
  8
DATA
  6
CONTINUOUS
 62
     7
  0
POLYLINE
  5
517
  8
DATA
  6
CONTINUOUS
 62
     7
 66
     1
 10
0.0
 20
0.0
 30
0.0
 70
   128
  0
VERTEX
  5
DCA
  8
DATA
  6
CONTINUOUS
 62
     7
 10
127.25069999999999
 20
-61.340600000000009
 30
0.0
  0
VERTEX
  5
DCB
  8
DATA
  6
CONTINUOUS
 62
     7
 10
127.25068815592179
 20
-61.34047095903923
 30
0.0
 42
0.0941934495420837
  0
VERTEX
  5
DCC
  8
DATA
  6
CONTINUOUS
 62
     7
 10
127.1209452504153
 20
-60.88818970402076
 30
0.0
  0
VERTEX
  5
DCD
  8
DATA
  6
CONTINUOUS
 62
     7
 10
127.12090000000001
 20
-60.888100000000037
 30
0.0
  0
VERTEX
  5
DCE
  8
DATA
  6
CONTINUOUS
 62
     7
 10
127.12090000000001
 20
-60.888100000000037
 30
0.0
  0
VERTEX
  5
DCF
  8
DATA
  6
CONTINUOUS
 62
     7
 10
127.12076815104589
 20
-60.887847131574802
 30
0.0
 42
0.1258365324338724
  0
VERTEX
  5
DD0
  8
DATA
  6
CONTINUOUS
 62
     7
 10
126.8486201250784
 20
-60.584347211003347
 30
0.0
  0
VERTEX
  5
DD1
  8
DATA
  6
CONTINUOUS
 62
     7
 10
126.8484
 20
-60.584200000000038
 30
0.0
  0
VERTEX
  5
DD2
  8
DATA
  6
CONTINUOUS
 62
     7
 10
126.8484
 20
-60.584200000000038
 30
0.0
  0
VERTEX
  5
DD3
  8
DATA
  6
CONTINUOUS
 62
     7
 10
126.8484
 20
-60.584200000000038
 30
0.0
 42
0.1469872836800559
  0
VERTEX
  5
DD4
  8
DATA
  6
CONTINUOUS
 62
     7
 10
126.4782
 20
-60.479200000000041
 30
0.0
  0
VERTEX
  5
DD5
  8
DATA
  6
CONTINUOUS
 62
     7
 10
126.4782
 20
-60.479200000000041
 30
0.0
  0
VERTEX
  5
DD6
  8
DATA
  6
CONTINUOUS
 62
     7
 10
126.4782
 20
-60.479200000000041
 30
0.0
 42
0.126239336263904
  0
VERTEX
  5
DD7
  8
DATA
  6
CONTINUOUS
 62
     7
 10
126.07129999999999
 20
-60.590200000000031
 30
0.0
  0
VERTEX
  5
DD8
  8
DATA
  6
CONTINUOUS
 62
     7
 10
126.07129999999999
 20
-60.590200000000031
 30
0.0
  0
VERTEX
  5
DD9
  8
DATA
  6
CONTINUOUS
 62
     7
 10
126.07129999999999
 20
-60.590200000000031
 30
0.0
 42
0.094359788046648
  0
VERTEX
  5
DDA
  8
DATA
  6
CONTINUOUS
 62
     7
 10
125.6947
 20
-60.898900000000019
 30
0.0
  0
VERTEX
  5
DDB
  8
DATA
  6
CONTINUOUS
 62
     7
 10
125.6947
 20
-60.898900000000019
 30
0.0
  0
SEQEND
  5
DDC
  8
DATA
  6
CONTINUOUS
 62
     7
  0
LINE
  5
52B
  8
DATA
  6
CONTINUOUS
 62
     7
 10
125.69459999999999
 20
-60.898900000000019
 30
0.0
 11
126.5446
 21
-58.963500000000039
 31
0.0
  0
LINE
  5
52C
  8
DATA
  6
CONTINUOUS
 62
     7
 10
126.5446
 20
-58.963500000000039
 30
0.0
 11
128.06059999999999
 21
-59.515300000000011
 31
0.0
  0
POLYLINE
  5
52D
  8
DATA
  6
CONTINUOUS
 62
     7
 66
     1
 10
0.0
 20
0.0
 30
0.0
 70
   128
  0
VERTEX
  5
DDD
  8
DATA
  6
CONTINUOUS
 62
     7
 10
114.5526
 20
-53.387600000000049
 30
0.0
 42
-0.0705056859028035
  0
VERTEX
  5
DDE
  8
DATA
  6
CONTINUOUS
 62
     7
 10
114.83839999999999
 20
-53.027000000000051
 30
0.0
  0
VERTEX
  5
DDF
  8
DATA
  6
CONTINUOUS
 62
     7
 10
114.83839999999999
 20
-53.027000000000051
 30
0.0
  0
VERTEX
  5
DE0
  8
DATA
  6
CONTINUOUS
 62
     7
 10
114.83839999999999
 20
-53.027000000000051
 30
0.0
 42
-0.08630416991127
  0
VERTEX
  5
DE1
  8
DATA
  6
CONTINUOUS
 62
     7
 10
115.1831
 20
-52.799300000000038
 30
0.0
  0
VERTEX
  5
DE2
  8
DATA
  6
CONTINUOUS
 62
     7
 10
115.1831
 20
-52.799300000000038
 30
0.0
  0
VERTEX
  5
DE3
  8
DATA
  6
CONTINUOUS
 62
     7
 10
115.1830785226515
 20
-52.799309100571442
 30
0.0
 42
-0.1123716792371489
  0
VERTEX
  5
DE4
  8
DATA
  6
CONTINUOUS
 62
     7
 10
115.53984612462349
 20
-52.735497475951682
 30
0.0
  0
VERTEX
  5
DE5
  8
DATA
  6
CONTINUOUS
 62
     7
 10
115.5399
 20
-52.73550000000003
 30
0.0
  0
VERTEX
  5
DE6
  8
DATA
  6
CONTINUOUS
 62
     7
 10
115.5399
 20
-52.73550000000003
 30
0.0
  0
VERTEX
  5
DE7
  8
DATA
  6
CONTINUOUS
 62
     7
 10
115.5399712432807
 20
-52.735504564786872
 30
0.0
 42
-0.1324027788855876
  0
VERTEX
  5
DE8
  8
DATA
  6
CONTINUOUS
 62
     7
 10
115.86013489257761
 20
-52.844189323595991
 30
0.0
  0
VERTEX
  5
DE9
  8
DATA
  6
CONTINUOUS
 62
     7
 10
115.8603
 20
-52.844300000000032
 30
0.0
  0
VERTEX
  5
DEA
  8
DATA
  6
CONTINUOUS
 62
     7
 10
115.8603
 20
-52.844300000000032
 30
0.0
  0
VERTEX
  5
DEB
  8
DATA
  6
CONTINUOUS
 62
     7
 10
115.8603
 20
-52.844300000000032
 30
0.0
 42
-0.1213159389434606
  0
VERTEX
  5
DEC
  8
DATA
  6
CONTINUOUS
 62
     7
 10
116.1009
 20
-53.11080000000004
 30
0.0
  0
VERTEX
  5
DED
  8
DATA
  6
CONTINUOUS
 62
     7
 10
116.1009
 20
-53.11080000000004
 30
0.0
  0
VERTEX
  5
DEE
  8
DATA
  6
CONTINUOUS
 62
     7
 10
116.1009
 20
-53.11080000000004
 30
0.0
 42
-0.0942349920872126
  0
VERTEX
  5
DEF
  8
DATA
  6
CONTINUOUS
 62
     7
 10
116.2289
 20
-53.498800000000053
 30
0.0
  0
VERTEX
  5
DF0
  8
DATA
  6
CONTINUOUS
 62
     7
 10
116.2289
 20
-53.498800000000053
 30
0.0
  0
SEQEND
  5
DF1
  8
DATA
  6
CONTINUOUS
 62
     7
  0
POLYLINE
  5
543
  8
DATA
  6
CONTINUOUS
 62
     7
 66
     1
 10
0.0
 20
0.0
 30
0.0
 70
   128
  0
VERTEX
  5
DF2
  8
DATA
  6
CONTINUOUS
 62
     7
 10
116.2289
 20
-53.498800000000053
 30
0.0
  0
VERTEX
  5
DF3
  8
DATA
  6
CONTINUOUS
 62
     7
 10
116.228939484759
 20
-53.49898279981025
 30
0.0
 42
-0.0764570434036621
  0
VERTEX
  5
DF4
  8
DATA
  6
CONTINUOUS
 62
     7
 10
116.2441046565251
 20
-53.750949804237337
 30
0.0
  0
VERTEX
  5
DF5
  8
DATA
  6
CONTINUOUS
 62
     7
 10
116.2441
 20
-53.751000000000033
 30
0.0
  0
VERTEX
  5
DF6
  8
DATA
  6
CONTINUOUS
 62
     7
 10
116.2441
 20
-53.751000000000033
 30
0.0
  0
VERTEX
  5
DF7
  8
DATA
  6
CONTINUOUS
 62
     7
 10
116.244085872174
 20
-53.751166831196713
 30
0.0
 42
-0.0657909940624129
  0
VERTEX
  5
DF8
  8
DATA
  6
CONTINUOUS
 62
     7
 10
116.18627484456231
 20
-54.014793209635997
 30
0.0
  0
VERTEX
  5
DF9
  8
DATA
  6
CONTINUOUS
 62
     7
 10
116.1862
 20
-54.015000000000029
 30
0.0
  0
VERTEX
  5
DFA
  8
DATA
  6
CONTINUOUS
 62
     7
 10
116.1862
 20
-54.015000000000029
 30
0.0
  0
VERTEX
  5
DFB
  8
DATA
  6
CONTINUOUS
 62
     7
 10
116.1861627732448
 20
-54.015103911203752
 30
0.0
 42
-0.0645453551927424
  0
VERTEX
  5
DFC
  8
DATA
  6
CONTINUOUS
 62
     7
 10
116.06304389268939
 20
-54.255736094063643
 30
0.0
  0
VERTEX
  5
DFD
  8
DATA
  6
CONTINUOUS
 62
     7
 10
116.063
 20
-54.255800000000022
 30
0.0
  0
VERTEX
  5
DFE
  8
DATA
  6
CONTINUOUS
 62
     7
 10
116.063
 20
-54.255800000000022
 30
0.0
  0
VERTEX
  5
DFF
  8
DATA
  6
CONTINUOUS
 62
     7
 10
116.0628792671785
 20
-54.255975203750538
 30
0.0
 42
-0.0723208815671717
  0
VERTEX
  5
E00
  8
DATA
  6
CONTINUOUS
 62
     7
 10
115.8907313259849
 20
-54.441594096196752
 30
0.0
  0
VERTEX
  5
E01
  8
DATA
  6
CONTINUOUS
 62
     7
 10
115.89060000000001
 20
-54.441700000000019
 30
0.0
  0
VERTEX
  5
E02
  8
DATA
  6
CONTINUOUS
 62
     7
 10
115.89060000000001
 20
-54.441700000000019
 30
0.0
  0
VERTEX
  5
E03
  8
DATA
  6
CONTINUOUS
 62
     7
 10
115.89060000000001
 20
-54.441700000000019
 30
0.0
 42
-0.091042393960196
  0
VERTEX
  5
E04
  8
DATA
  6
CONTINUOUS
 62
     7
 10
115.6919
 20
-54.548200000000037
 30
0.0
  0
VERTEX
  5
E05
  8
DATA
  6
CONTINUOUS
 62
     7
 10
115.6919
 20
-54.548200000000037
 30
0.0
  0
VERTEX
  5
E06
  8
DATA
  6
CONTINUOUS
 62
     7
 10
115.69184505077941
 20
-54.54821689449993
 30
0.0
 42
-0.1170712864794401
  0
VERTEX
  5
E07
  8
DATA
  6
CONTINUOUS
 62
     7
 10
115.4930738603117
 20
-54.561195569983482
 30
0.0
  0
VERTEX
  5
E08
  8
DATA
  6
CONTINUOUS
 62
     7
 10
115.4931
 20
-54.561200000000028
 30
0.0
  0
VERTEX
  5
E09
  8
DATA
  6
CONTINUOUS
 62
     7
 10
115.4931
 20
-54.561200000000028
 30
0.0
  0
SEQEND
  5
E0A
  8
DATA
  6
CONTINUOUS
 62
     7
  0
LINE
  5
55D
  8
DATA
  6
CONTINUOUS
 62
     7
 10
115.4931
 20
-54.561200000000028
 30
0.0
 11
115.00490000000001
 21
-54.383500000000019
 31
0.0
  0
POLYLINE
  5
55E
  8
DATA
  6
CONTINUOUS
 62
     7
 66
     1
 10
0.0
 20
0.0
 30
0.0
 70
   128
  0
VERTEX
  5
E0B
  8
DATA
  6
CONTINUOUS
 62
     7
 10
115.4931
 20
-54.561200000000028
 30
0.0
 42
-0.1182090389245079
  0
VERTEX
  5
E0C
  8
DATA
  6
CONTINUOUS
 62
     7
 10
115.6665
 20
-54.820500000000038
 30
0.0
  0
VERTEX
  5
E0D
  8
DATA
  6
CONTINUOUS
 62
     7
 10
115.6665
 20
-54.820500000000038
 30
0.0
  0
VERTEX
  5
E0E
  8
DATA
  6
CONTINUOUS
 62
     7
 10
115.6665
 20
-54.820500000000038
 30
0.0
 42
-0.0897014629218411
  0
VERTEX
  5
E0F
  8
DATA
  6
CONTINUOUS
 62
     7
 10
115.73480000000001
 20
-55.171600000000041
 30
0.0
  0
VERTEX
  5
E10
  8
DATA
  6
CONTINUOUS
 62
     7
 10
115.73480000000001
 20
-55.171600000000041
 30
0.0
  0
VERTEX
  5
E11
  8
DATA
  6
CONTINUOUS
 62
     7
 10
115.7348042199414
 20
-55.171764577715301
 30
0.0
 42
-0.0728134401912825
  0
VERTEX
  5
E12
  8
DATA
  6
CONTINUOUS
 62
     7
 10
115.6878120479999
 20
-55.562355623585887
 30
0.0
  0
VERTEX
  5
E13
  8
DATA
  6
CONTINUOUS
 62
     7
 10
115.6878
 20
-55.562400000000018
 30
0.0
  0
VERTEX
  5
E14
  8
DATA
  6
CONTINUOUS
 62
     7
 10
115.6878
 20
-55.562400000000018
 30
0.0
  0
VERTEX
  5
E15
  8
DATA
  6
CONTINUOUS
 62
     7
 10
115.6878
 20
-55.562400000000018
 30
0.0
 42
-0.0680385363270893
  0
VERTEX
  5
E16
  8
DATA
  6
CONTINUOUS
 62
     7
 10
115.53230000000001
 20
-55.93490000000002
 30
0.0
  0
VERTEX
  5
E17
  8
DATA
  6
CONTINUOUS
 62
     7
 10
115.53230000000001
 20
-55.93490000000002
 30
0.0
  0
VERTEX
  5
E18
  8
DATA
  6
CONTINUOUS
 62
     7
 10
115.53230000000001
 20
-55.93490000000002
 30
0.0
 42
-0.0739112781191843
  0
VERTEX
  5
E19
  8
DATA
  6
CONTINUOUS
 62
     7
 10
115.29170000000001
 20
-56.233900000000027
 30
0.0
  0
VERTEX
  5
E1A
  8
DATA
  6
CONTINUOUS
 62
     7
 10
115.29170000000001
 20
-56.233900000000027
 30
0.0
  0
SEQEND
  5
E1B
  8
DATA
  6
CONTINUOUS
 62
     7
  0
POLYLINE
  5
570
  8
DATA
  6
CONTINUOUS
 62
     7
 66
     1
 10
0.0
 20
0.0
 30
0.0
 70
   128
  0
VERTEX
  5
E1C
  8
DATA
  6
CONTINUOUS
 62
     7
 10
115.29170000000001
 20
-56.233900000000027
 30
0.0
  0
VERTEX
  5
E1D
  8
DATA
  6
CONTINUOUS
 62
     7
 10
115.29155237191659
 20
-56.234028005468623
 30
0.0
 42
-0.088390452873626
  0
VERTEX
  5
E1E
  8
DATA
  6
CONTINUOUS
 62
     7
 10
114.931575051015
 20
-56.448833773976268
 30
0.0
  0
VERTEX
  5
E1F
  8
DATA
  6
CONTINUOUS
 62
     7
 10
114.9314
 20
-56.44890000000003
 30
0.0
  0
VERTEX
  5
E20
  8
DATA
  6
CONTINUOUS
 62
     7
 10
114.9314
 20
-56.44890000000003
 30
0.0
  0
VERTEX
  5
E21
  8
DATA
  6
CONTINUOUS
 62
     7
 10
114.9314
 20
-56.44890000000003
 30
0.0
 42
-0.1149808635768422
  0
VERTEX
  5
E22
  8
DATA
  6
CONTINUOUS
 62
     7
 10
114.56489999999999
 20
-56.49350000000004
 30
0.0
  0
VERTEX
  5
E23
  8
DATA
  6
CONTINUOUS
 62
     7
 10
114.56489999999999
 20
-56.49350000000004
 30
0.0
  0
VERTEX
  5
E24
  8
DATA
  6
CONTINUOUS
 62
     7
 10
114.56489999999999
 20
-56.49350000000004
 30
0.0
 42
-0.1320362878952485
  0
VERTEX
  5
E25
  8
DATA
  6
CONTINUOUS
 62
     7
 10
114.2411
 20
-56.361900000000048
 30
0.0
  0
VERTEX
  5
E26
  8
DATA
  6
CONTINUOUS
 62
     7
 10
114.2411
 20
-56.361900000000048
 30
0.0
  0
VERTEX
  5
E27
  8
DATA
  6
CONTINUOUS
 62
     7
 10
114.2411
 20
-56.361900000000048
 30
0.0
 42
-0.1178417440423266
  0
VERTEX
  5
E28
  8
DATA
  6
CONTINUOUS
 62
     7
 10
114.0035
 20
-56.071500000000043
 30
0.0
  0
VERTEX
  5
E29
  8
DATA
  6
CONTINUOUS
 62
     7
 10
114.0035
 20
-56.071500000000043
 30
0.0
  0
VERTEX
  5
E2A
  8
DATA
  6
CONTINUOUS
 62
     7
 10
114.00341064199959
 20
-56.071322108842423
 30
0.0
 42
-0.0909171716985649
  0
VERTEX
  5
E2B
  8
DATA
  6
CONTINUOUS
 62
     7
 10
113.8837240823769
 20
-55.661533372271862
 30
0.0
  0
VERTEX
  5
E2C
  8
DATA
  6
CONTINUOUS
 62
     7
 10
113.8837
 20
-55.66130000000004
 30
0.0
  0
VERTEX
  5
E2D
  8
DATA
  6
CONTINUOUS
 62
     7
 10
113.8837
 20
-55.66130000000004
 30
0.0
  0
VERTEX
  5
E2E
  8
DATA
  6
CONTINUOUS
 62
     7
 10
113.8837
 20
-55.66130000000004
 30
0.0
 42
-0.072756811431322
  0
VERTEX
  5
E2F
  8
DATA
  6
CONTINUOUS
 62
     7
 10
113.898
 20
-55.186200000000028
 30
0.0
  0
VERTEX
  5
E30
  8
DATA
  6
CONTINUOUS
 62
     7
 10
113.898
 20
-55.186200000000028
 30
0.0
  0
VERTEX
  5
E31
  8
DATA
  6
CONTINUOUS
 62
     7
 10
113.898
 20
-55.186200000000028
 30
0.0
  0
SEQEND
  5
E32
  8
DATA
  6
CONTINUOUS
 62
     7
  0
POLYLINE
  5
588
  8
DATA
  6
CONTINUOUS
 62
     7
 66
     1
 10
0.0
 20
0.0
 30
0.0
 70
   128
  0
VERTEX
  5
E33
  8
DATA
  6
CONTINUOUS
 62
     7
 10
117.8158
 20
-54.575300000000013
 30
0.0
  0
VERTEX
  5
E34
  8
DATA
  6
CONTINUOUS
 62
     7
 10
117.81571295875899
 20
-54.575453211800209
 30
0.0
 42
0.0839781296938092
  0
VERTEX
  5
E35
  8
DATA
  6
CONTINUOUS
 62
     7
 10
117.14785233545049
 20
-56.410314847897858
 30
0.0
  0
VERTEX
  5
E36
  8
DATA
  6
CONTINUOUS
 62
     7
 10
117.1478
 20
-56.410600000000038
 30
0.0
  0
VERTEX
  5
E37
  8
DATA
  6
CONTINUOUS
 62
     7
 10
117.1478
 20
-56.410600000000038
 30
0.0
  0
SEQEND
  5
E38
  8
DATA
  6
CONTINUOUS
 62
     7
  0
POLYLINE
  5
58F
  8
DATA
  6
CONTINUOUS
 62
     7
 66
     1
 10
0.0
 20
0.0
 30
0.0
 70
   128
  0
VERTEX
  5
E39
  8
DATA
  6
CONTINUOUS
 62
     7
 10
117.1478
 20
-56.410600000000038
 30
0.0
  0
VERTEX
  5
E3A
  8
DATA
  6
CONTINUOUS
 62
     7
 10
117.14776715198509
 20
-56.410807770370532
 30
0.0
 42
0.0707212646095997
  0
VERTEX
  5
E3B
  8
DATA
  6
CONTINUOUS
 62
     7
 10
117.1404783255625
 20
-56.878228361886499
 30
0.0
  0
VERTEX
  5
E3C
  8
DATA
  6
CONTINUOUS
 62
     7
 10
117.1405
 20
-56.87840000000002
 30
0.0
  0
VERTEX
  5
E3D
  8
DATA
  6
CONTINUOUS
 62
     7
 10
117.1405
 20
-56.87840000000002
 30
0.0
  0
VERTEX
  5
E3E
  8
DATA
  6
CONTINUOUS
 62
     7
 10
117.1405
 20
-56.87840000000002
 30
0.0
 42
0.0871980169782783
  0
VERTEX
  5
E3F
  8
DATA
  6
CONTINUOUS
 62
     7
 10
117.26600000000001
 20
-57.278400000000033
 30
0.0
  0
VERTEX
  5
E40
  8
DATA
  6
CONTINUOUS
 62
     7
 10
117.26600000000001
 20
-57.278400000000033
 30
0.0
  0
VERTEX
  5
E41
  8
DATA
  6
CONTINUOUS
 62
     7
 10
117.26600000000001
 20
-57.278400000000033
 30
0.0
 42
0.1136024585790687
  0
VERTEX
  5
E42
  8
DATA
  6
CONTINUOUS
 62
     7
 10
117.5074
 20
-57.556300000000022
 30
0.0
  0
VERTEX
  5
E43
  8
DATA
  6
CONTINUOUS
 62
     7
 10
117.5074
 20
-57.556300000000022
 30
0.0
  0
VERTEX
  5
E44
  8
DATA
  6
CONTINUOUS
 62
     7
 10
117.5074
 20
-57.556300000000022
 30
0.0
 42
0.1328482795080829
  0
VERTEX
  5
E45
  8
DATA
  6
CONTINUOUS
 62
     7
 10
117.8318
 20
-57.674400000000048
 30
0.0
  0
VERTEX
  5
E46
  8
DATA
  6
CONTINUOUS
 62
     7
 10
117.8318
 20
-57.674400000000048
 30
0.0
  0
VERTEX
  5
E47
  8
DATA
  6
CONTINUOUS
 62
     7
 10
117.8318
 20
-57.674400000000048
 30
0.0
 42
0.1202419588896502
  0
VERTEX
  5
E48
  8
DATA
  6
CONTINUOUS
 62
     7
 10
118.1953
 20
-57.616700000000037
 30
0.0
  0
VERTEX
  5
E49
  8
DATA
  6
CONTINUOUS
 62
     7
 10
118.1953
 20
-57.616700000000037
 30
0.0
  0
VERTEX
  5
E4A
  8
DATA
  6
CONTINUOUS
 62
     7
 10
118.1953
 20
-57.616700000000037
 30
0.0
 42
0.0931833119992221
  0
VERTEX
  5
E4B
  8
DATA
  6
CONTINUOUS
 62
     7
 10
118.54859999999999
 20
-57.390900000000038
 30
0.0
  0
VERTEX
  5
E4C
  8
DATA
  6
CONTINUOUS
 62
     7
 10
118.54859999999999
 20
-57.390900000000038
 30
0.0
  0
VERTEX
  5
E4D
  8
DATA
  6
CONTINUOUS
 62
     7
 10
118.54859999999999
 20
-57.390900000000038
 30
0.0
 42
0.0738914072073883
  0
VERTEX
  5
E4E
  8
DATA
  6
CONTINUOUS
 62
     7
 10
118.8437
 20
-57.027800000000042
 30
0.0
  0
VERTEX
  5
E4F
  8
DATA
  6
CONTINUOUS
 62
     7
 10
118.8437
 20
-57.027800000000042
 30
0.0
  0
VERTEX
  5
E50
  8
DATA
  6
CONTINUOUS
 62
     7
 10
118.8437
 20
-57.027800000000042
 30
0.0
  0
SEQEND
  5
E51
  8
DATA
  6
CONTINUOUS
 62
     7
  0
POLYLINE
  5
5A9
  8
DATA
  6
CONTINUOUS
 62
     7
 66
     1
 10
0.0
 20
0.0
 30
0.0
 70
   128
  0
VERTEX
  5
E52
  8
DATA
  6
CONTINUOUS
 62
     7
 10
118.8437
 20
-57.027900000000038
 30
0.0
  0
VERTEX
  5
E53
  8
DATA
  6
CONTINUOUS
 62
     7
 10
118.8439041421298
 20
-57.027540623053589
 30
0.0
 42
0.0839655735843471
  0
VERTEX
  5
E54
  8
DATA
  6
CONTINUOUS
 62
     7
 10
119.51162055928999
 20
-55.192932836351382
 30
0.0
  0
VERTEX
  5
E55
  8
DATA
  6
CONTINUOUS
 62
     7
 10
119.5117
 20
-55.192500000000017
 30
0.0
  0
VERTEX
  5
E56
  8
DATA
  6
CONTINUOUS
 62
     7
 10
119.5117
 20
-55.192500000000017
 30
0.0
  0
SEQEND
  5
E57
  8
DATA
  6
CONTINUOUS
 62
     7
  0
POLYLINE
  5
5B0
  8
DATA
  6
CONTINUOUS
 62
     7
 66
     1
 10
0.0
 20
0.0
 30
0.0
 70
   128
  0
VERTEX
  5
E58
  8
DATA
  6
CONTINUOUS
 62
     7
 10
119.5117
 20
-55.192500000000017
 30
0.0
  0
VERTEX
  5
E59
  8
DATA
  6
CONTINUOUS
 62
     7
 10
119.5117328480149
 20
-55.192292229629523
 30
0.0
 42
0.0707212646096157
  0
VERTEX
  5
E5A
  8
DATA
  6
CONTINUOUS
 62
     7
 10
119.5190216744375
 20
-54.724871638113612
 30
0.0
  0
VERTEX
  5
E5B
  8
DATA
  6
CONTINUOUS
 62
     7
 10
119.51900000000001
 20
-54.724700000000041
 30
0.0
  0
VERTEX
  5
E5C
  8
DATA
  6
CONTINUOUS
 62
     7
 10
119.51900000000001
 20
-54.724700000000041
 30
0.0
  0
VERTEX
  5
E5D
  8
DATA
  6
CONTINUOUS
 62
     7
 10
119.51900000000001
 20
-54.724700000000041
 30
0.0
 42
0.0871980169782227
  0
VERTEX
  5
E5E
  8
DATA
  6
CONTINUOUS
 62
     7
 10
119.3935
 20
-54.324700000000028
 30
0.0
  0
VERTEX
  5
E5F
  8
DATA
  6
CONTINUOUS
 62
     7
 10
119.3935
 20
-54.324700000000028
 30
0.0
  0
VERTEX
  5
E60
  8
DATA
  6
CONTINUOUS
 62
     7
 10
119.3935
 20
-54.324700000000028
 30
0.0
 42
0.1134985735634043
  0
VERTEX
  5
E61
  8
DATA
  6
CONTINUOUS
 62
     7
 10
119.15219999999999
 20
-54.046800000000047
 30
0.0
  0
VERTEX
  5
E62
  8
DATA
  6
CONTINUOUS
 62
     7
 10
119.15219999999999
 20
-54.046800000000047
 30
0.0
  0
VERTEX
  5
E63
  8
DATA
  6
CONTINUOUS
 62
     7
 10
119.15219999999999
 20
-54.046800000000047
 30
0.0
 42
0.1327349534503504
  0
VERTEX
  5
E64
  8
DATA
  6
CONTINUOUS
 62
     7
 10
118.82769999999999
 20
-53.928700000000049
 30
0.0
  0
VERTEX
  5
E65
  8
DATA
  6
CONTINUOUS
 62
     7
 10
118.82769999999999
 20
-53.928700000000049
 30
0.0
  0
VERTEX
  5
E66
  8
DATA
  6
CONTINUOUS
 62
     7
 10
118.82769999999999
 20
-53.928700000000049
 30
0.0
 42
0.1202419588897013
  0
VERTEX
  5
E67
  8
DATA
  6
CONTINUOUS
 62
     7
 10
118.46420000000001
 20
-53.986400000000032
 30
0.0
  0
VERTEX
  5
E68
  8
DATA
  6
CONTINUOUS
 62
     7
 10
118.46420000000001
 20
-53.986400000000032
 30
0.0
  0
VERTEX
  5
E69
  8
DATA
  6
CONTINUOUS
 62
     7
 10
118.4638045176639
 20
-53.986559552529933
 30
0.0
 42
0.092873898809957
  0
VERTEX
  5
E6A
  8
DATA
  6
CONTINUOUS
 62
     7
 10
118.1112166551915
 20
-54.21190269030248
 30
0.0
  0
VERTEX
  5
E6B
  8
DATA
  6
CONTINUOUS
 62
     7
 10
118.1109
 20
-54.21220000000001
 30
0.0
  0
VERTEX
  5
E6C
  8
DATA
  6
CONTINUOUS
 62
     7
 10
118.1109
 20
-54.21220000000001
 30
0.0
  0
VERTEX
  5
E6D
  8
DATA
  6
CONTINUOUS
 62
     7
 10
118.1109
 20
-54.21220000000001
 30
0.0
 42
0.0738914072073523
  0
VERTEX
  5
E6E
  8
DATA
  6
CONTINUOUS
 62
     7
 10
117.8158
 20
-54.575300000000013
 30
0.0
  0
VERTEX
  5
E6F
  8
DATA
  6
CONTINUOUS
 62
     7
 10
117.8158
 20
-54.575300000000013
 30
0.0
  0
SEQEND
  5
E70
  8
DATA
  6
CONTINUOUS
 62
     7
  0
POLYLINE
  5
5CA
  8
DATA
  6
CONTINUOUS
 62
     7
 66
     1
 10
0.0
 20
0.0
 30
0.0
 70
   128
  0
VERTEX
  5
E71
  8
DATA
  6
CONTINUOUS
 62
     7
 10
105.9115
 20
-48.885300000000022
 30
0.0
  0
VERTEX
  5
E72
  8
DATA
  6
CONTINUOUS
 62
     7
 10
105.9115207691506
 20
-48.885262586199161
 30
0.0
 42
-0.072511984343468
  0
VERTEX
  5
E73
  8
DATA
  6
CONTINUOUS
 62
     7
 10
106.1916264058823
 20
-48.517974164028807
 30
0.0
  0
VERTEX
  5
E74
  8
DATA
  6
CONTINUOUS
 62
     7
 10
106.19159999999999
 20
-48.518000000000022
 30
0.0
  0
VERTEX
  5
E75
  8
DATA
  6
CONTINUOUS
 62
     7
 10
106.19159999999999
 20
-48.518000000000022
 30
0.0
  0
VERTEX
  5
E76
  8
DATA
  6
CONTINUOUS
 62
     7
 10
106.19159999999999
 20
-48.518000000000022
 30
0.0
 42
-0.0892001556113546
  0
VERTEX
  5
E77
  8
DATA
  6
CONTINUOUS
 62
     7
 10
106.5348
 20
-48.286900000000031
 30
0.0
  0
VERTEX
  5
E78
  8
DATA
  6
CONTINUOUS
 62
     7
 10
106.5348
 20
-48.286900000000031
 30
0.0
  0
VERTEX
  5
E79
  8
DATA
  6
CONTINUOUS
 62
     7
 10
106.5348
 20
-48.286900000000031
 30
0.0
 42
-0.117428169686721
  0
VERTEX
  5
E7A
  8
DATA
  6
CONTINUOUS
 62
     7
 10
106.8909
 20
-48.22590000000001
 30
0.0
  0
VERTEX
  5
E7B
  8
DATA
  6
CONTINUOUS
 62
     7
 10
106.8909
 20
-48.22590000000001
 30
0.0
  0
VERTEX
  5
E7C
  8
DATA
  6
CONTINUOUS
 62
     7
 10
106.8909
 20
-48.22590000000001
 30
0.0
 42
-0.1383770005122524
  0
VERTEX
  5
E7D
  8
DATA
  6
CONTINUOUS
 62
     7
 10
107.2075
 20
-48.343900000000048
 30
0.0
  0
VERTEX
  5
E7E
  8
DATA
  6
CONTINUOUS
 62
     7
 10
107.2075
 20
-48.343900000000048
 30
0.0
  0
VERTEX
  5
E7F
  8
DATA
  6
CONTINUOUS
 62
     7
 10
107.2075
 20
-48.343900000000048
 30
0.0
 42
-0.1239506448550365
  0
VERTEX
  5
E80
  8
DATA
  6
CONTINUOUS
 62
     7
 10
107.43810000000001
 20
-48.623600000000039
 30
0.0
  0
VERTEX
  5
E81
  8
DATA
  6
CONTINUOUS
 62
     7
 10
107.43810000000001
 20
-48.623600000000039
 30
0.0
  0
VERTEX
  5
E82
  8
DATA
  6
CONTINUOUS
 62
     7
 10
107.4382006918206
 20
-48.623804183627698
 30
0.0
 42
-0.0944532169861367
  0
VERTEX
  5
E83
  8
DATA
  6
CONTINUOUS
 62
     7
 10
107.5487814923909
 20
-49.023673281788831
 30
0.0
  0
VERTEX
  5
E84
  8
DATA
  6
CONTINUOUS
 62
     7
 10
107.5488
 20
-49.023900000000019
 30
0.0
  0
VERTEX
  5
E85
  8
DATA
  6
CONTINUOUS
 62
     7
 10
107.5488
 20
-49.023900000000019
 30
0.0
  0
SEQEND
  5
E86
  8
DATA
  6
CONTINUOUS
 62
     7
  0
POLYLINE
  5
5E1
  8
DATA
  6
CONTINUOUS
 62
     7
 66
     1
 10
0.0
 20
0.0
 30
0.0
 70
   128
  0
VERTEX
  5
E87
  8
DATA
  6
CONTINUOUS
 62
     7
 10
107.5488
 20
-49.023900000000019
 30
0.0
 42
-0.0695422223688553
  0
VERTEX
  5
E88
  8
DATA
  6
CONTINUOUS
 62
     7
 10
107.51139999999999
 20
-49.354600000000019
 30
0.0
  0
VERTEX
  5
E89
  8
DATA
  6
CONTINUOUS
 62
     7
 10
107.51139999999999
 20
-49.354600000000019
 30
0.0
  0
VERTEX
  5
E8A
  8
DATA
  6
CONTINUOUS
 62
     7
 10
107.51139999999999
 20
-49.354600000000019
 30
0.0
 42
-0.0646307515317749
  0
VERTEX
  5
E8B
  8
DATA
  6
CONTINUOUS
 62
     7
 10
107.3862
 20
-49.672900000000013
 30
0.0
  0
VERTEX
  5
E8C
  8
DATA
  6
CONTINUOUS
 62
     7
 10
107.3862
 20
-49.672900000000013
 30
0.0
  0
VERTEX
  5
E8D
  8
DATA
  6
CONTINUOUS
 62
     7
 10
107.38617135795219
 20
-49.672952050379742
 30
0.0
 42
-0.0688806131905646
  0
VERTEX
  5
E8E
  8
DATA
  6
CONTINUOUS
 62
     7
 10
107.19000493369499
 20
-49.9360949941874
 30
0.0
  0
VERTEX
  5
E8F
  8
DATA
  6
CONTINUOUS
 62
     7
 10
107.19
 20
-49.936100000000032
 30
0.0
  0
VERTEX
  5
E90
  8
DATA
  6
CONTINUOUS
 62
     7
 10
107.19
 20
-49.936100000000032
 30
0.0
  0
VERTEX
  5
E91
  8
DATA
  6
CONTINUOUS
 62
     7
 10
107.19
 20
-49.936100000000032
 30
0.0
 42
-0.0834977411759638
  0
VERTEX
  5
E92
  8
DATA
  6
CONTINUOUS
 62
     7
 10
106.9491
 20
-50.10900000000003
 30
0.0
  0
VERTEX
  5
E93
  8
DATA
  6
CONTINUOUS
 62
     7
 10
106.9491
 20
-50.10900000000003
 30
0.0
  0
VERTEX
  5
E94
  8
DATA
  6
CONTINUOUS
 62
     7
 10
106.9491
 20
-50.10900000000003
 30
0.0
 42
-0.1084618781626018
  0
VERTEX
  5
E95
  8
DATA
  6
CONTINUOUS
 62
     7
 10
106.69580000000001
 20
-50.168400000000048
 30
0.0
  0
VERTEX
  5
E96
  8
DATA
  6
CONTINUOUS
 62
     7
 10
106.69580000000001
 20
-50.168400000000048
 30
0.0
  0
VERTEX
  5
E97
  8
DATA
  6
CONTINUOUS
 62
     7
 10
106.69580000000001
 20
-50.168400000000048
 30
0.0
  0
SEQEND
  5
E98
  8
DATA
  6
CONTINUOUS
 62
     7
  0
POLYLINE
  5
5F4
  8
DATA
  6
CONTINUOUS
 62
     7
 66
     1
 10
0.0
 20
0.0
 30
0.0
 70
   128
  0
VERTEX
  5
E99
  8
DATA
  6
CONTINUOUS
 62
     7
 10
106.69580000000001
 20
-50.168400000000048
 30
0.0
  0
VERTEX
  5
E9A
  8
DATA
  6
CONTINUOUS
 62
     7
 10
106.6956581336625
 20
-50.168427502359492
 30
0.0
 42
0.1329805568718286
  0
VERTEX
  5
E9B
  8
DATA
  6
CONTINUOUS
 62
     7
 10
105.712294261545
 20
-50.650617275272452
 30
0.0
  0
VERTEX
  5
E9C
  8
DATA
  6
CONTINUOUS
 62
     7
 10
105.7122
 20
-50.650700000000022
 30
0.0
  0
VERTEX
  5
E9D
  8
DATA
  6
CONTINUOUS
 62
     7
 10
105.7122
 20
-50.650700000000022
 30
0.0
  0
VERTEX
  5
E9E
  8
DATA
  6
CONTINUOUS
 62
     7
 10
105.7121709321531
 20
-50.650724245585053
 30
0.0
 42
0.0968579810390188
  0
VERTEX
  5
E9F
  8
DATA
  6
CONTINUOUS
 62
     7
 10
104.9095365816144
 20
-51.63823131345822
 30
0.0
  0
VERTEX
  5
EA0
  8
DATA
  6
CONTINUOUS
 62
     7
 10
104.90949999999999
 20
-51.638300000000051
 30
0.0
  0
VERTEX
  5
EA1
  8
DATA
  6
CONTINUOUS
 62
     7
 10
104.90949999999999
 20
-51.638300000000051
 30
0.0
  0
SEQEND
  5
EA2
  8
DATA
  6
CONTINUOUS
 62
     7
  0
LINE
  5
5FF
  8
DATA
  6
CONTINUOUS
 62
     7
 10
104.90949999999999
 20
-51.638300000000051
 30
0.0
 11
106.554
 21
-52.236800000000052
 31
0.0
  0
POLYLINE
  5
600
  8
DATA
  6
CONTINUOUS
 62
     7
 66
     1
 10
0.0
 20
0.0
 30
0.0
 70
   128
  0
VERTEX
  5
EA3
  8
DATA
  6
CONTINUOUS
 62
     7
 10
108.35980000000001
 20
-52.312100000000051
 30
0.0
  0
VERTEX
  5
EA4
  8
DATA
  6
CONTINUOUS
 62
     7
 10
108.3598240835391
 20
-52.31223419683468
 30
0.0
 42
0.0882085035599643
  0
VERTEX
  5
EA5
  8
DATA
  6
CONTINUOUS
 62
     7
 10
108.51488097463179
 20
-52.732396621870983
 30
0.0
  0
VERTEX
  5
EA6
  8
DATA
  6
CONTINUOUS
 62
     7
 10
108.515
 20
-52.732600000000041
 30
0.0
  0
VERTEX
  5
EA7
  8
DATA
  6
CONTINUOUS
 62
     7
 10
108.515
 20
-52.732600000000041
 30
0.0
  0
VERTEX
  5
EA8
  8
DATA
  6
CONTINUOUS
 62
     7
 10
108.51501457269249
 20
-52.732624241381437
 30
0.0
 42
0.1139803398273972
  0
VERTEX
  5
EA9
  8
DATA
  6
CONTINUOUS
 62
     7
 10
108.78988623115811
 20
-53.017091066018651
 30
0.0
  0
VERTEX
  5
EAA
  8
DATA
  6
CONTINUOUS
 62
     7
 10
108.7899
 20
-53.017100000000021
 30
0.0
  0
VERTEX
  5
EAB
  8
DATA
  6
CONTINUOUS
 62
     7
 10
108.7899
 20
-53.017100000000021
 30
0.0
  0
VERTEX
  5
EAC
  8
DATA
  6
CONTINUOUS
 62
     7
 10
108.7900802532974
 20
-53.017212877064892
 30
0.0
 42
0.1297824115723375
  0
VERTEX
  5
EAD
  8
DATA
  6
CONTINUOUS
 62
     7
 10
109.1487519607082
 20
-53.128693596652703
 30
0.0
  0
VERTEX
  5
EAE
  8
DATA
  6
CONTINUOUS
 62
     7
 10
109.1489
 20
-53.12870000000003
 30
0.0
  0
VERTEX
  5
EAF
  8
DATA
  6
CONTINUOUS
 62
     7
 10
109.1489
 20
-53.12870000000003
 30
0.0
  0
VERTEX
  5
EB0
  8
DATA
  6
CONTINUOUS
 62
     7
 10
109.1489
 20
-53.12870000000003
 30
0.0
 42
0.1157972494775928
  0
VERTEX
  5
EB1
  8
DATA
  6
CONTINUOUS
 62
     7
 10
109.5455
 20
-53.053000000000019
 30
0.0
  0
VERTEX
  5
EB2
  8
DATA
  6
CONTINUOUS
 62
     7
 10
109.5455
 20
-53.053000000000019
 30
0.0
  0
VERTEX
  5
EB3
  8
DATA
  6
CONTINUOUS
 62
     7
 10
109.5455
 20
-53.053000000000019
 30
0.0
 42
0.0899312690923001
  0
VERTEX
  5
EB4
  8
DATA
  6
CONTINUOUS
 62
     7
 10
109.9282
 20
-52.799800000000019
 30
0.0
  0
VERTEX
  5
EB5
  8
DATA
  6
CONTINUOUS
 62
     7
 10
109.9282
 20
-52.799800000000019
 30
0.0
  0
VERTEX
  5
EB6
  8
DATA
  6
CONTINUOUS
 62
     7
 10
109.9282
 20
-52.799800000000019
 30
0.0
  0
SEQEND
  5
EB7
  8
DATA
  6
CONTINUOUS
 62
     7
  0
POLYLINE
  5
616
  8
DATA
  6
CONTINUOUS
 62
     7
 66
     1
 10
0.0
 20
0.0
 30
0.0
 70
   128
  0
VERTEX
  5
EB8
  8
DATA
  6
CONTINUOUS
 62
     7
 10
109.9282
 20
-52.799800000000019
 30
0.0
  0
VERTEX
  5
EB9
  8
DATA
  6
CONTINUOUS
 62
     7
 10
109.9282419694468
 20
-52.799752884435819
 30
0.0
 42
0.0692638265486619
  0
VERTEX
  5
EBA
  8
DATA
  6
CONTINUOUS
 62
     7
 10
110.1711852146376
 20
-52.436430523627664
 30
0.0
  0
VERTEX
  5
EBB
  8
DATA
  6
CONTINUOUS
 62
     7
 10
110.1712
 20
-52.436400000000049
 30
0.0
  0
VERTEX
  5
EBC
  8
DATA
  6
CONTINUOUS
 62
     7
 10
110.1712
 20
-52.436400000000049
 30
0.0
  0
VERTEX
  5
EBD
  8
DATA
  6
CONTINUOUS
 62
     7
 10
110.1712
 20
-52.436400000000049
 30
0.0
 42
0.0643641703921593
  0
VERTEX
  5
EBE
  8
DATA
  6
CONTINUOUS
 62
     7
 10
110.316
 20
-52.010600000000039
 30
0.0
  0
VERTEX
  5
EBF
  8
DATA
  6
CONTINUOUS
 62
     7
 10
110.316
 20
-52.010600000000039
 30
0.0
  0
VERTEX
  5
EC0
  8
DATA
  6
CONTINUOUS
 62
     7
 10
110.316
 20
-52.010600000000039
 30
0.0
 42
0.0685359748965232
  0
VERTEX
  5
EC1
  8
DATA
  6
CONTINUOUS
 62
     7
 10
110.3434
 20
-51.579100000000039
 30
0.0
  0
VERTEX
  5
EC2
  8
DATA
  6
CONTINUOUS
 62
     7
 10
110.3434
 20
-51.579100000000039
 30
0.0
  0
SEQEND
  5
EC3
  8
DATA
  6
CONTINUOUS
 62
     7
  0
POLYLINE
  5
623
  8
DATA
  6
CONTINUOUS
 62
     7
 66
     1
 10
0.0
 20
0.0
 30
0.0
 70
   128
  0
VERTEX
  5
EC4
  8
DATA
  6
CONTINUOUS
 62
     7
 10
110.3434
 20
-51.579100000000039
 30
0.0
  0
VERTEX
  5
EC5
  8
DATA
  6
CONTINUOUS
 62
     7
 10
110.3433881559219
 20
-51.578970959039218
 30
0.0
 42
0.0941934495420876
  0
VERTEX
  5
EC6
  8
DATA
  6
CONTINUOUS
 62
     7
 10
110.2136452504153
 20
-51.126689704020741
 30
0.0
  0
VERTEX
  5
EC7
  8
DATA
  6
CONTINUOUS
 62
     7
 10
110.2136
 20
-51.12660000000001
 30
0.0
  0
VERTEX
  5
EC8
  8
DATA
  6
CONTINUOUS
 62
     7
 10
110.2136
 20
-51.12660000000001
 30
0.0
  0
VERTEX
  5
EC9
  8
DATA
  6
CONTINUOUS
 62
     7
 10
110.21354813294251
 20
-51.126500526012919
 30
0.0
 42
0.1259367759146783
  0
VERTEX
  5
ECA
  8
DATA
  6
CONTINUOUS
 62
     7
 10
109.94113013665179
 20
-50.8228201369975
 30
0.0
  0
VERTEX
  5
ECB
  8
DATA
  6
CONTINUOUS
 62
     7
 10
109.94110000000001
 20
-50.822800000000022
 30
0.0
  0
VERTEX
  5
ECC
  8
DATA
  6
CONTINUOUS
 62
     7
 10
109.94110000000001
 20
-50.822800000000022
 30
0.0
  0
VERTEX
  5
ECD
  8
DATA
  6
CONTINUOUS
 62
     7
 10
109.9410677885158
 20
-50.822779432596342
 30
0.0
 42
0.1468389710329614
  0
VERTEX
  5
ECE
  8
DATA
  6
CONTINUOUS
 62
     7
 10
109.57099224058339
 20
-50.717698622589602
 30
0.0
  0
VERTEX
  5
ECF
  8
DATA
  6
CONTINUOUS
 62
     7
 10
109.57089999999999
 20
-50.717700000000043
 30
0.0
  0
VERTEX
  5
ED0
  8
DATA
  6
CONTINUOUS
 62
     7
 10
109.57089999999999
 20
-50.717700000000043
 30
0.0
  0
VERTEX
  5
ED1
  8
DATA
  6
CONTINUOUS
 62
     7
 10
109.57089999999999
 20
-50.717700000000043
 30
0.0
 42
0.1260096018311321
  0
VERTEX
  5
ED2
  8
DATA
  6
CONTINUOUS
 62
     7
 10
109.164
 20
-50.828700000000019
 30
0.0
  0
VERTEX
  5
ED3
  8
DATA
  6
CONTINUOUS
 62
     7
 10
109.164
 20
-50.828700000000019
 30
0.0
  0
VERTEX
  5
ED4
  8
DATA
  6
CONTINUOUS
 62
     7
 10
109.1637756981093
 20
-50.82882219662028
 30
0.0
 42
0.0941963726544419
  0
VERTEX
  5
ED5
  8
DATA
  6
CONTINUOUS
 62
     7
 10
108.7874609659209
 20
-51.137307448313521
 30
0.0
  0
VERTEX
  5
ED6
  8
DATA
  6
CONTINUOUS
 62
     7
 10
108.7873
 20
-51.137500000000038
 30
0.0
  0
VERTEX
  5
ED7
  8
DATA
  6
CONTINUOUS
 62
     7
 10
108.7873
 20
-51.137500000000038
 30
0.0
  0
SEQEND
  5
ED8
  8
DATA
  6
CONTINUOUS
 62
     7
  0
LINE
  5
639
  8
DATA
  6
CONTINUOUS
 62
     7
 10
108.7873
 20
-51.137500000000038
 30
0.0
 11
109.6373
 21
-49.20210000000003
 31
0.0
  0
LINE
  5
63A
  8
DATA
  6
CONTINUOUS
 62
     7
 10
109.6373
 20
-49.20210000000003
 30
0.0
 11
111.1532
 21
-49.753900000000037
 31
0.0
  0
POLYLINE
  5
63B
  8
DATA
  6
CONTINUOUS
 62
     7
 66
     1
 10
0.0
 20
0.0
 30
0.0
 70
   128
  0
VERTEX
  5
ED9
  8
DATA
  6
CONTINUOUS
 62
     7
 10
96.884600000000006
 20
-45.14620000000005
 30
0.0
 42
-0.0726110388792283
  0
VERTEX
  5
EDA
  8
DATA
  6
CONTINUOUS
 62
     7
 10
97.164599999999993
 20
-44.778900000000043
 30
0.0
  0
VERTEX
  5
EDB
  8
DATA
  6
CONTINUOUS
 62
     7
 10
97.164599999999993
 20
-44.778900000000043
 30
0.0
  0
VERTEX
  5
EDC
  8
DATA
  6
CONTINUOUS
 62
     7
 10
97.164599999999993
 20
-44.778900000000043
 30
0.0
 42
-0.0892001556113248
  0
VERTEX
  5
EDD
  8
DATA
  6
CONTINUOUS
 62
     7
 10
97.507800000000003
 20
-44.547800000000016
 30
0.0
  0
VERTEX
  5
EDE
  8
DATA
  6
CONTINUOUS
 62
     7
 10
97.507800000000003
 20
-44.547800000000016
 30
0.0
  0
VERTEX
  5
EDF
  8
DATA
  6
CONTINUOUS
 62
     7
 10
97.507800000000003
 20
-44.547800000000016
 30
0.0
 42
-0.1174281696866808
  0
VERTEX
  5
EE0
  8
DATA
  6
CONTINUOUS
 62
     7
 10
97.863900000000001
 20
-44.486800000000038
 30
0.0
  0
VERTEX
  5
EE1
  8
DATA
  6
CONTINUOUS
 62
     7
 10
97.863900000000001
 20
-44.486800000000038
 30
0.0
  0
VERTEX
  5
EE2
  8
DATA
  6
CONTINUOUS
 62
     7
 10
97.863900000000001
 20
-44.486800000000038
 30
0.0
 42
-0.138377000512295
  0
VERTEX
  5
EE3
  8
DATA
  6
CONTINUOUS
 62
     7
 10
98.180499999999995
 20
-44.604800000000033
 30
0.0
  0
VERTEX
  5
EE4
  8
DATA
  6
CONTINUOUS
 62
     7
 10
98.180499999999995
 20
-44.604800000000033
 30
0.0
  0
VERTEX
  5
EE5
  8
DATA
  6
CONTINUOUS
 62
     7
 10
98.180499999999995
 20
-44.604800000000033
 30
0.0
 42
-0.1239506448550545
  0
VERTEX
  5
EE6
  8
DATA
  6
CONTINUOUS
 62
     7
 10
98.411100000000005
 20
-44.884500000000017
 30
0.0
  0
VERTEX
  5
EE7
  8
DATA
  6
CONTINUOUS
 62
     7
 10
98.411100000000005
 20
-44.884500000000017
 30
0.0
  0
VERTEX
  5
EE8
  8
DATA
  6
CONTINUOUS
 62
     7
 10
98.411100000000005
 20
-44.884500000000017
 30
0.0
 42
-0.0946911108527845
  0
VERTEX
  5
EE9
  8
DATA
  6
CONTINUOUS
 62
     7
 10
98.521800000000013
 20
-45.28480000000004
 30
0.0
  0
VERTEX
  5
EEA
  8
DATA
  6
CONTINUOUS
 62
     7
 10
98.521800000000013
 20
-45.28480000000004
 30
0.0
  0
SEQEND
  5
EEB
  8
DATA
  6
CONTINUOUS
 62
     7
  0
POLYLINE
  5
64F
  8
DATA
  6
CONTINUOUS
 62
     7
 66
     1
 10
0.0
 20
0.0
 30
0.0
 70
   128
  0
VERTEX
  5
EEC
  8
DATA
  6
CONTINUOUS
 62
     7
 10
98.521800000000013
 20
-45.28480000000004
 30
0.0
 42
-0.0695422223688576
  0
VERTEX
  5
EED
  8
DATA
  6
CONTINUOUS
 62
     7
 10
98.484399999999994
 20
-45.615500000000019
 30
0.0
  0
VERTEX
  5
EEE
  8
DATA
  6
CONTINUOUS
 62
     7
 10
98.484399999999994
 20
-45.615500000000019
 30
0.0
  0
VERTEX
  5
EEF
  8
DATA
  6
CONTINUOUS
 62
     7
 10
98.484399999999994
 20
-45.615500000000019
 30
0.0
 42
-0.06463075153176
  0
VERTEX
  5
EF0
  8
DATA
  6
CONTINUOUS
 62
     7
 10
98.359200000000016
 20
-45.933800000000048
 30
0.0
  0
VERTEX
  5
EF1
  8
DATA
  6
CONTINUOUS
 62
     7
 10
98.359200000000016
 20
-45.933800000000048
 30
0.0
  0
VERTEX
  5
EF2
  8
DATA
  6
CONTINUOUS
 62
     7
 10
98.359200000000016
 20
-45.933800000000048
 30
0.0
 42
-0.0691074746053627
  0
VERTEX
  5
EF3
  8
DATA
  6
CONTINUOUS
 62
     7
 10
98.162999999999997
 20
-46.197000000000031
 30
0.0
  0
VERTEX
  5
EF4
  8
DATA
  6
CONTINUOUS
 62
     7
 10
98.162999999999997
 20
-46.197000000000031
 30
0.0
  0
VERTEX
  5
EF5
  8
DATA
  6
CONTINUOUS
 62
     7
 10
98.162999999999997
 20
-46.197000000000031
 30
0.0
 42
-0.083497741176043
  0
VERTEX
  5
EF6
  8
DATA
  6
CONTINUOUS
 62
     7
 10
97.9221
 20
-46.36990000000003
 30
0.0
  0
VERTEX
  5
EF7
  8
DATA
  6
CONTINUOUS
 62
     7
 10
97.9221
 20
-46.36990000000003
 30
0.0
  0
VERTEX
  5
EF8
  8
DATA
  6
CONTINUOUS
 62
     7
 10
97.9221
 20
-46.36990000000003
 30
0.0
 42
-0.1084618781626003
  0
VERTEX
  5
EF9
  8
DATA
  6
CONTINUOUS
 62
     7
 10
97.668800000000005
 20
-46.42930000000004
 30
0.0
  0
VERTEX
  5
EFA
  8
DATA
  6
CONTINUOUS
 62
     7
 10
97.668800000000005
 20
-46.42930000000004
 30
0.0
  0
VERTEX
  5
EFB
  8
DATA
  6
CONTINUOUS
 62
     7
 10
97.668800000000005
 20
-46.42930000000004
 30
0.0
  0
SEQEND
  5
EFC
  8
DATA
  6
CONTINUOUS
 62
     7
  0
POLYLINE
  5
661
  8
DATA
  6
CONTINUOUS
 62
     7
 66
     1
 10
0.0
 20
0.0
 30
0.0
 70
   128
  0
VERTEX
  5
EFD
  8
DATA
  6
CONTINUOUS
 62
     7
 10
100.1221
 20
-46.324500000000022
 30
0.0
 42
0.0840109259930911
  0
VERTEX
  5
EFE
  8
DATA
  6
CONTINUOUS
 62
     7
 10
99.454099999999997
 20
-48.15990000000005
 30
0.0
  0
VERTEX
  5
EFF
  8
DATA
  6
CONTINUOUS
 62
     7
 10
99.454099999999997
 20
-48.15990000000005
 30
0.0
  0
SEQEND
  5
F00
  8
DATA
  6
CONTINUOUS
 62
     7
  0
POLYLINE
  5
666
  8
DATA
  6
CONTINUOUS
 62
     7
 66
     1
 10
0.0
 20
0.0
 30
0.0
 70
   128
  0
VERTEX
  5
F01
  8
DATA
  6
CONTINUOUS
 62
     7
 10
101.1499
 20
-48.77710000000004
 30
0.0
 42
0.0840272237046108
  0
VERTEX
  5
F02
  8
DATA
  6
CONTINUOUS
 62
     7
 10
101.81789999999999
 20
-46.941800000000022
 30
0.0
  0
VERTEX
  5
F03
  8
DATA
  6
CONTINUOUS
 62
     7
 10
101.81789999999999
 20
-46.941800000000022
 30
0.0
  0
SEQEND
  5
F04
  8
DATA
  6
CONTINUOUS
 62
     7
  0
POLYLINE
  5
66B
  8
DATA
  6
CONTINUOUS
 62
     7
 66
     1
 10
0.0
 20
0.0
 30
0.0
 70
   128
  0
VERTEX
  5
F05
  8
DATA
  6
CONTINUOUS
 62
     7
 10
101.81789999999999
 20
-46.941800000000022
 30
0.0
 42
0.0708182601263707
  0
VERTEX
  5
F06
  8
DATA
  6
CONTINUOUS
 62
     7
 10
101.8253
 20
-46.474000000000039
 30
0.0
  0
VERTEX
  5
F07
  8
DATA
  6
CONTINUOUS
 62
     7
 10
101.8253
 20
-46.474000000000039
 30
0.0
  0
VERTEX
  5
F08
  8
DATA
  6
CONTINUOUS
 62
     7
 10
101.8253
 20
-46.474000000000039
 30
0.0
 42
0.087228709650186
  0
VERTEX
  5
F09
  8
DATA
  6
CONTINUOUS
 62
     7
 10
101.6998
 20
-46.074000000000041
 30
0.0
  0
VERTEX
  5
F0A
  8
DATA
  6
CONTINUOUS
 62
     7
 10
101.6998
 20
-46.074000000000041
 30
0.0
  0
VERTEX
  5
F0B
  8
DATA
  6
CONTINUOUS
 62
     7
 10
101.6996919951854
 20
-46.073797247718687
 30
0.0
 42
0.1133837968220765
  0
VERTEX
  5
F0C
  8
DATA
  6
CONTINUOUS
 62
     7
 10
101.458538306946
 20
-45.796200784615991
 30
0.0
  0
VERTEX
  5
F0D
  8
DATA
  6
CONTINUOUS
 62
     7
 10
101.4584
 20
-45.79610000000001
 30
0.0
  0
VERTEX
  5
F0E
  8
DATA
  6
CONTINUOUS
 62
     7
 10
101.4584
 20
-45.79610000000001
 30
0.0
  0
VERTEX
  5
F0F
  8
DATA
  6
CONTINUOUS
 62
     7
 10
101.4584
 20
-45.79610000000001
 30
0.0
 42
0.1326845489084311
  0
VERTEX
  5
F10
  8
DATA
  6
CONTINUOUS
 62
     7
 10
101.134
 20
-45.678000000000011
 30
0.0
  0
VERTEX
  5
F11
  8
DATA
  6
CONTINUOUS
 62
     7
 10
101.134
 20
-45.678000000000011
 30
0.0
  0
VERTEX
  5
F12
  8
DATA
  6
CONTINUOUS
 62
     7
 10
101.134
 20
-45.678000000000011
 30
0.0
 42
0.1201984623546372
  0
VERTEX
  5
F13
  8
DATA
  6
CONTINUOUS
 62
     7
 10
100.7704
 20
-45.73570000000003
 30
0.0
  0
VERTEX
  5
F14
  8
DATA
  6
CONTINUOUS
 62
     7
 10
100.7704
 20
-45.73570000000003
 30
0.0
  0
VERTEX
  5
F15
  8
DATA
  6
CONTINUOUS
 62
     7
 10
100.7704
 20
-45.73570000000003
 30
0.0
 42
0.0930583757794636
  0
VERTEX
  5
F16
  8
DATA
  6
CONTINUOUS
 62
     7
 10
100.41719999999999
 20
-45.961400000000012
 30
0.0
  0
VERTEX
  5
F17
  8
DATA
  6
CONTINUOUS
 62
     7
 10
100.41719999999999
 20
-45.961400000000012
 30
0.0
  0
VERTEX
  5
F18
  8
DATA
  6
CONTINUOUS
 62
     7
 10
100.4170204772043
 20
-45.961564296793561
 30
0.0
 42
0.0737473843270532
  0
VERTEX
  5
F19
  8
DATA
  6
CONTINUOUS
 62
     7
 10
100.1221826887593
 20
-46.324360539853707
 30
0.0
  0
VERTEX
  5
F1A
  8
DATA
  6
CONTINUOUS
 62
     7
 10
100.1221
 20
-46.324500000000022
 30
0.0
  0
VERTEX
  5
F1B
  8
DATA
  6
CONTINUOUS
 62
     7
 10
100.1221
 20
-46.324500000000022
 30
0.0
  0
SEQEND
  5
F1C
  8
DATA
  6
CONTINUOUS
 62
     7
  0
POLYLINE
  5
684
  8
DATA
  6
CONTINUOUS
 62
     7
 66
     1
 10
0.0
 20
0.0
 30
0.0
 70
   128
  0
VERTEX
  5
F1D
  8
DATA
  6
CONTINUOUS
 62
     7
 10
97.668800000000005
 20
-46.42930000000004
 30
0.0
 42
0.1120463615128419
  0
VERTEX
  5
F1E
  8
DATA
  6
CONTINUOUS
 62
     7
 10
96.851000000000013
 20
-46.785500000000027
 30
0.0
  0
VERTEX
  5
F1F
  8
DATA
  6
CONTINUOUS
 62
     7
 10
96.851000000000013
 20
-46.785500000000027
 30
0.0
  0
VERTEX
  5
F20
  8
DATA
  6
CONTINUOUS
 62
     7
 10
96.851000000000013
 20
-46.785500000000027
 30
0.0
 42
0.0850512667606411
  0
VERTEX
  5
F21
  8
DATA
  6
CONTINUOUS
 62
     7
 10
96.131100000000004
 20
-47.506700000000023
 30
0.0
  0
VERTEX
  5
F22
  8
DATA
  6
CONTINUOUS
 62
     7
 10
96.131100000000004
 20
-47.506700000000023
 30
0.0
  0
SEQEND
  5
F23
  8
DATA
  6
CONTINUOUS
 62
     7
  0
POLYLINE
  5
68C
  8
DATA
  6
CONTINUOUS
 62
     7
 66
     1
 10
0.0
 20
0.0
 30
0.0
 70
   128
  0
VERTEX
  5
F24
  8
DATA
  6
CONTINUOUS
 62
     7
 10
100.79770000000001
 20
-49.189400000000028
 30
0.0
 42
0.0882019022016185
  0
VERTEX
  5
F25
  8
DATA
  6
CONTINUOUS
 62
     7
 10
101.1499
 20
-48.77710000000004
 30
0.0
  0
VERTEX
  5
F26
  8
DATA
  6
CONTINUOUS
 62
     7
 10
101.1499
 20
-48.77710000000004
 30
0.0
  0
SEQEND
  5
F27
  8
DATA
  6
CONTINUOUS
 62
     7
  0
POLYLINE
  5
691
  8
DATA
  6
CONTINUOUS
 62
     7
 66
     1
 10
0.0
 20
0.0
 30
0.0
 70
   128
  0
VERTEX
  5
F28
  8
DATA
  6
CONTINUOUS
 62
     7
 10
99.454099999999997
 20
-48.15990000000005
 30
0.0
  0
VERTEX
  5
F29
  8
DATA
  6
CONTINUOUS
 62
     7
 10
99.454084787290483
 20
-48.159997694118893
 30
0.0
 42
0.0116168777985502
  0
VERTEX
  5
F2A
  8
DATA
  6
CONTINUOUS
 62
     7
 10
99.443226607880035
 20
-48.242254616217451
 30
0.0
  0
VERTEX
  5
F2B
  8
DATA
  6
CONTINUOUS
 62
     7
 10
99.443200000000004
 20
-48.242500000000028
 30
0.0
  0
VERTEX
  5
F2C
  8
DATA
  6
CONTINUOUS
 62
     7
 10
99.443200000000004
 20
-48.242500000000028
 30
0.0
  0
SEQEND
  5
F2D
  8
DATA
  6
CONTINUOUS
 62
     7
  0
LINE
  5
698
  8
DATA
  6
CONTINUOUS
 62
     7
 10
89.463399999999993
 20
-54.126100000000037
 30
0.0
 11
89.890900000000002
 21
-52.951500000000038
 31
0.0
  0
LINE
  5
699
  8
DATA
  6
CONTINUOUS
 62
     7
 10
89.890900000000002
 20
-52.951500000000038
 30
0.0
 11
87.541600000000003
 21
-52.096400000000038
 31
0.0
  0
LINE
  5
69A
  8
DATA
  6
CONTINUOUS
 62
     7
 10
90.745900000000006
 20
-50.602200000000039
 30
0.0
 11
91.173400000000001
 21
-49.427600000000041
 31
0.0
  0
LINE
  5
69B
  8
DATA
  6
CONTINUOUS
 62
     7
 10
90.745900000000006
 20
-50.602300000000042
 30
0.0
 11
88.396699999999981
 21
-49.747200000000042
 31
0.0
  0
LINE
  5
69C
  8
DATA
  6
CONTINUOUS
 62
     7
 10
87.541600000000003
 20
-52.096400000000038
 30
0.0
 11
88.396699999999981
 21
-49.747200000000042
 31
0.0
  0
LINE
  5
69D
  8
DATA
  6
CONTINUOUS
 62
     7
 10
91.173400000000001
 20
-49.427600000000041
 30
0.0
 11
91.389700000000005
 21
-49.891300000000022
 31
0.0
  0
LINE
  5
69E
  8
DATA
  6
CONTINUOUS
 62
     7
 10
89.927000000000007
 20
-53.909900000000022
 30
0.0
 11
89.463300000000004
 21
-54.126100000000037
 31
0.0
  0
LINE
  5
69F
  8
DATA
  6
CONTINUOUS
 62
     7
 10
89.209800000000001
 20
-58.199300000000022
 30
0.0
 11
89.843999999999994
 21
-58.05600000000004
 31
0.0
  0
LINE
  5
6A0
  8
DATA
  6
CONTINUOUS
 62
     7
 10
89.843999999999994
 20
-58.05600000000004
 30
0.0
 11
88.507900000000006
 21
-61.726700000000022
 31
0.0
  0
POLYLINE
  5
6A1
  8
DATA
  6
CONTINUOUS
 62
     7
 66
     1
 10
0.0
 20
0.0
 30
0.0
 70
   128
  0
VERTEX
  5
F2E
  8
DATA
  6
CONTINUOUS
 62
     7
 10
87.276899999999998
 20
-66.719700000000046
 30
0.0
  0
VERTEX
  5
F2F
  8
DATA
  6
CONTINUOUS
 62
     7
 10
87.277201384432701
 20
-66.719157348417781
 30
0.0
 42
-0.0723074213142025
  0
VERTEX
  5
F30
  8
DATA
  6
CONTINUOUS
 62
     7
 10
87.556452156810437
 20
-66.352838709015373
 30
0.0
  0
VERTEX
  5
F31
  8
DATA
  6
CONTINUOUS
 62
     7
 10
87.556899999999985
 20
-66.352400000000046
 30
0.0
  0
VERTEX
  5
F32
  8
DATA
  6
CONTINUOUS
 62
     7
 10
87.556899999999985
 20
-66.352400000000046
 30
0.0
  0
VERTEX
  5
F33
  8
DATA
  6
CONTINUOUS
 62
     7
 10
87.556899999999985
 20
-66.352400000000046
 30
0.0
 42
-0.0891321358670698
  0
VERTEX
  5
F34
  8
DATA
  6
CONTINUOUS
 62
     7
 10
87.900199999999998
 20
-66.121300000000019
 30
0.0
  0
VERTEX
  5
F35
  8
DATA
  6
CONTINUOUS
 62
     7
 10
87.900199999999998
 20
-66.121300000000019
 30
0.0
  0
VERTEX
  5
F36
  8
DATA
  6
CONTINUOUS
 62
     7
 10
87.900375650612844
 20
-66.121225132525666
 30
0.0
 42
-0.117158227737019
  0
VERTEX
  5
F37
  8
DATA
  6
CONTINUOUS
 62
     7
 10
88.256101786142196
 20
-66.060287377638844
 30
0.0
  0
VERTEX
  5
F38
  8
DATA
  6
CONTINUOUS
 62
     7
 10
88.256299999999982
 20
-66.060300000000041
 30
0.0
  0
VERTEX
  5
F39
  8
DATA
  6
CONTINUOUS
 62
     7
 10
88.256299999999982
 20
-66.060300000000041
 30
0.0
  0
VERTEX
  5
F3A
  8
DATA
  6
CONTINUOUS
 62
     7
 10
88.256379268722384
 20
-66.060306526412859
 30
0.0
 42
-0.1381596073873312
  0
VERTEX
  5
F3B
  8
DATA
  6
CONTINUOUS
 62
     7
 10
88.572802493573349
 20
-66.178228710897713
 30
0.0
  0
VERTEX
  5
F3C
  8
DATA
  6
CONTINUOUS
 62
     7
 10
88.572900000000004
 20
-66.178300000000036
 30
0.0
  0
VERTEX
  5
F3D
  8
DATA
  6
CONTINUOUS
 62
     7
 10
88.572900000000004
 20
-66.178300000000036
 30
0.0
  0
VERTEX
  5
F3E
  8
DATA
  6
CONTINUOUS
 62
     7
 10
88.572908087293314
 20
-66.178305957926213
 30
0.0
 42
-0.1237623588864397
  0
VERTEX
  5
F3F
  8
DATA
  6
CONTINUOUS
 62
     7
 10
88.803424026069266
 20
-66.457840000038715
 30
0.0
  0
VERTEX
  5
F40
  8
DATA
  6
CONTINUOUS
 62
     7
 10
88.803499999999985
 20
-66.458000000000013
 30
0.0
  0
VERTEX
  5
F41
  8
DATA
  6
CONTINUOUS
 62
     7
 10
88.803499999999985
 20
-66.458000000000013
 30
0.0
  0
VERTEX
  5
F42
  8
DATA
  6
CONTINUOUS
 62
     7
 10
88.803600691820606
 20
-66.458204183627657
 30
0.0
 42
-0.0944532169861234
  0
VERTEX
  5
F43
  8
DATA
  6
CONTINUOUS
 62
     7
 10
88.914181492390895
 20
-66.858073281788805
 30
0.0
  0
VERTEX
  5
F44
  8
DATA
  6
CONTINUOUS
 62
     7
 10
88.91419999999998
 20
-66.858300000000042
 30
0.0
  0
VERTEX
  5
F45
  8
DATA
  6
CONTINUOUS
 62
     7
 10
88.91419999999998
 20
-66.858300000000042
 30
0.0
  0
SEQEND
  5
F46
  8
DATA
  6
CONTINUOUS
 62
     7
  0
POLYLINE
  5
6BB
  8
DATA
  6
CONTINUOUS
 62
     7
 66
     1
 10
0.0
 20
0.0
 30
0.0
 70
   128
  0
VERTEX
  5
F47
  8
DATA
  6
CONTINUOUS
 62
     7
 10
88.91419999999998
 20
-66.858300000000042
 30
0.0
  0
VERTEX
  5
F48
  8
DATA
  6
CONTINUOUS
 62
     7
 10
88.914210618925154
 20
-66.858714878936581
 30
0.0
 42
-0.0692325022938758
  0
VERTEX
  5
F49
  8
DATA
  6
CONTINUOUS
 62
     7
 10
88.876879164512175
 20
-67.188691125512378
 30
0.0
  0
VERTEX
  5
F4A
  8
DATA
  6
CONTINUOUS
 62
     7
 10
88.876800000000003
 20
-67.189000000000021
 30
0.0
  0
VERTEX
  5
F4B
  8
DATA
  6
CONTINUOUS
 62
     7
 10
88.876800000000003
 20
-67.189000000000021
 30
0.0
  0
VERTEX
  5
F4C
  8
DATA
  6
CONTINUOUS
 62
     7
 10
88.876750090058223
 20
-67.189198807934673
 30
0.0
 42
-0.0644998838043112
  0
VERTEX
  5
F4D
  8
DATA
  6
CONTINUOUS
 62
     7
 10
88.751656872481732
 20
-67.50719678191426
 30
0.0
  0
VERTEX
  5
F4E
  8
DATA
  6
CONTINUOUS
 62
     7
 10
88.751599999999996
 20
-67.507300000000043
 30
0.0
  0
VERTEX
  5
F4F
  8
DATA
  6
CONTINUOUS
 62
     7
 10
88.751599999999996
 20
-67.507300000000043
 30
0.0
  0
VERTEX
  5
F50
  8
DATA
  6
CONTINUOUS
 62
     7
 10
88.751571357952287
 20
-67.507352050379609
 30
0.0
 42
-0.0688806131905987
  0
VERTEX
  5
F51
  8
DATA
  6
CONTINUOUS
 62
     7
 10
88.555404933695016
 20
-67.770494994187402
 30
0.0
  0
VERTEX
  5
F52
  8
DATA
  6
CONTINUOUS
 62
     7
 10
88.555400000000006
 20
-67.770500000000013
 30
0.0
  0
VERTEX
  5
F53
  8
DATA
  6
CONTINUOUS
 62
     7
 10
88.555400000000006
 20
-67.770500000000013
 30
0.0
  0
VERTEX
  5
F54
  8
DATA
  6
CONTINUOUS
 62
     7
 10
88.555400000000006
 20
-67.770500000000013
 30
0.0
 42
-0.0834977411759196
  0
VERTEX
  5
F55
  8
DATA
  6
CONTINUOUS
 62
     7
 10
88.314499999999981
 20
-67.943400000000054
 30
0.0
  0
VERTEX
  5
F56
  8
DATA
  6
CONTINUOUS
 62
     7
 10
88.314499999999981
 20
-67.943400000000054
 30
0.0
  0
VERTEX
  5
F57
  8
DATA
  6
CONTINUOUS
 62
     7
 10
88.314499999999981
 20
-67.943400000000054
 30
0.0
 42
-0.1084564577560826
  0
VERTEX
  5
F58
  8
DATA
  6
CONTINUOUS
 62
     7
 10
88.061199999999985
 20
-68.002800000000036
 30
0.0
  0
VERTEX
  5
F59
  8
DATA
  6
CONTINUOUS
 62
     7
 10
88.061199999999985
 20
-68.002800000000036
 30
0.0
  0
VERTEX
  5
F5A
  8
DATA
  6
CONTINUOUS
 62
     7
 10
88.061199999999985
 20
-68.002800000000036
 30
0.0
  0
SEQEND
  5
F5B
  8
DATA
  6
CONTINUOUS
 62
     7
  0
POLYLINE
  5
6D1
  8
DATA
  6
CONTINUOUS
 62
     7
 66
     1
 10
0.0
 20
0.0
 30
0.0
 70
   128
  0
VERTEX
  5
F5C
  8
DATA
  6
CONTINUOUS
 62
     7
 10
88.061099999999982
 20
-68.002800000000036
 30
0.0
 42
0.1330403971638543
  0
VERTEX
  5
F5D
  8
DATA
  6
CONTINUOUS
 62
     7
 10
87.077600000000004
 20
-68.48520000000002
 30
0.0
  0
VERTEX
  5
F5E
  8
DATA
  6
CONTINUOUS
 62
     7
 10
87.077600000000004
 20
-68.48520000000002
 30
0.0
  0
VERTEX
  5
F5F
  8
DATA
  6
CONTINUOUS
 62
     7
 10
87.077600000000004
 20
-68.48520000000002
 30
0.0
 42
0.0968957913863845
  0
VERTEX
  5
F60
  8
DATA
  6
CONTINUOUS
 62
     7
 10
86.274899999999988
 20
-69.472700000000032
 30
0.0
  0
VERTEX
  5
F61
  8
DATA
  6
CONTINUOUS
 62
     7
 10
86.274899999999988
 20
-69.472700000000032
 30
0.0
  0
SEQEND
  5
F62
  8
DATA
  6
CONTINUOUS
 62
     7
  0
LINE
  5
6D9
  8
DATA
  6
CONTINUOUS
 62
     7
 10
86.274899999999988
 20
-69.472700000000032
 30
0.0
 11
87.919399999999982
 21
-70.071200000000033
 31
0.0
  0
POLYLINE
  5
6DA
  8
DATA
  6
CONTINUOUS
 62
     7
 66
     1
 10
0.0
 20
0.0
 30
0.0
 70
   128
  0
VERTEX
  5
F63
  8
DATA
  6
CONTINUOUS
 62
     7
 10
85.673299999999998
 20
-74.715600000000052
 30
0.0
  0
VERTEX
  5
F64
  8
DATA
  6
CONTINUOUS
 62
     7
 10
85.673323330445058
 20
-74.715560155415389
 30
0.0
 42
-0.0703514001324678
  0
VERTEX
  5
F65
  8
DATA
  6
CONTINUOUS
 62
     7
 10
85.959054746394884
 20
-74.355043023172087
 30
0.0
  0
VERTEX
  5
F66
  8
DATA
  6
CONTINUOUS
 62
     7
 10
85.959100000000007
 20
-74.355000000000032
 30
0.0
  0
VERTEX
  5
F67
  8
DATA
  6
CONTINUOUS
 62
     7
 10
85.959100000000007
 20
-74.355000000000032
 30
0.0
  0
VERTEX
  5
F68
  8
DATA
  6
CONTINUOUS
 62
     7
 10
85.959270616656937
 20
-74.354839222311483
 30
0.0
 42
-0.0861963004033023
  0
VERTEX
  5
F69
  8
DATA
  6
CONTINUOUS
 62
     7
 10
86.303636697714325
 20
-74.127371322549592
 30
0.0
  0
VERTEX
  5
F6A
  8
DATA
  6
CONTINUOUS
 62
     7
 10
86.303799999999981
 20
-74.127300000000034
 30
0.0
  0
VERTEX
  5
F6B
  8
DATA
  6
CONTINUOUS
 62
     7
 10
86.303799999999981
 20
-74.127300000000034
 30
0.0
  0
VERTEX
  5
F6C
  8
DATA
  6
CONTINUOUS
 62
     7
 10
86.303778522651555
 20
-74.127309100571409
 30
0.0
 42
-0.1123716792371191
  0
VERTEX
  5
F6D
  8
DATA
  6
CONTINUOUS
 62
     7
 10
86.660546124623295
 20
-74.063497475951706
 30
0.0
  0
VERTEX
  5
F6E
  8
DATA
  6
CONTINUOUS
 62
     7
 10
86.660599999999988
 20
-74.063500000000033
 30
0.0
  0
VERTEX
  5
F6F
  8
DATA
  6
CONTINUOUS
 62
     7
 10
86.660599999999988
 20
-74.063500000000033
 30
0.0
  0
VERTEX
  5
F70
  8
DATA
  6
CONTINUOUS
 62
     7
 10
86.660647648090873
 20
-74.063503051221403
 30
0.0
 42
-0.1324929052874716
  0
VERTEX
  5
F71
  8
DATA
  6
CONTINUOUS
 62
     7
 10
86.981006414612139
 20
-74.172304302860113
 30
0.0
  0
VERTEX
  5
F72
  8
DATA
  6
CONTINUOUS
 62
     7
 10
86.98099999999998
 20
-74.172300000000007
 30
0.0
  0
VERTEX
  5
F73
  8
DATA
  6
CONTINUOUS
 62
     7
 10
86.98099999999998
 20
-74.172300000000007
 30
0.0
  0
VERTEX
  5
F74
  8
DATA
  6
CONTINUOUS
 62
     7
 10
86.98099999999998
 20
-74.172300000000007
 30
0.0
 42
-0.1213159389434222
  0
VERTEX
  5
F75
  8
DATA
  6
CONTINUOUS
 62
     7
 10
87.221599999999981
 20
-74.438800000000015
 30
0.0
  0
VERTEX
  5
F76
  8
DATA
  6
CONTINUOUS
 62
     7
 10
87.221599999999981
 20
-74.438800000000015
 30
0.0
  0
VERTEX
  5
F77
  8
DATA
  6
CONTINUOUS
 62
     7
 10
87.221599999999981
 20
-74.438800000000015
 30
0.0
 42
-0.0942279414150474
  0
VERTEX
  5
F78
  8
DATA
  6
CONTINUOUS
 62
     7
 10
87.349599999999995
 20
-74.826900000000023
 30
0.0
  0
VERTEX
  5
F79
  8
DATA
  6
CONTINUOUS
 62
     7
 10
87.349599999999995
 20
-74.826900000000023
 30
0.0
  0
SEQEND
  5
F7A
  8
DATA
  6
CONTINUOUS
 62
     7
  0
POLYLINE
  5
6F3
  8
DATA
  6
CONTINUOUS
 62
     7
 66
     1
 10
0.0
 20
0.0
 30
0.0
 70
   128
  0
VERTEX
  5
F7B
  8
DATA
  6
CONTINUOUS
 62
     7
 10
87.349599999999995
 20
-74.826900000000023
 30
0.0
  0
VERTEX
  5
F7C
  8
DATA
  6
CONTINUOUS
 62
     7
 10
87.349610515088827
 20
-74.82694864202206
 30
0.0
 42
-0.0764804222733418
  0
VERTEX
  5
F7D
  8
DATA
  6
CONTINUOUS
 62
     7
 10
87.364810196995094
 20
-75.078989993434377
 30
0.0
  0
VERTEX
  5
F7E
  8
DATA
  6
CONTINUOUS
 62
     7
 10
87.364800000000002
 20
-75.079100000000054
 30
0.0
  0
VERTEX
  5
F7F
  8
DATA
  6
CONTINUOUS
 62
     7
 10
87.364800000000002
 20
-75.079100000000054
 30
0.0
  0
VERTEX
  5
F80
  8
DATA
  6
CONTINUOUS
 62
     7
 10
87.364791534423077
 20
-75.079199893807342
 30
0.0
 42
-0.0657754369874785
  0
VERTEX
  5
F81
  8
DATA
  6
CONTINUOUS
 62
     7
 10
87.306985893912085
 20
-75.342762681044661
 30
0.0
  0
VERTEX
  5
F82
  8
DATA
  6
CONTINUOUS
 62
     7
 10
87.306899999999999
 20
-75.343000000000032
 30
0.0
  0
VERTEX
  5
F83
  8
DATA
  6
CONTINUOUS
 62
     7
 10
87.306899999999999
 20
-75.343000000000032
 30
0.0
  0
VERTEX
  5
F84
  8
DATA
  6
CONTINUOUS
 62
     7
 10
87.306862773244717
 20
-75.343103911203912
 30
0.0
 42
-0.0645453551927059
  0
VERTEX
  5
F85
  8
DATA
  6
CONTINUOUS
 62
     7
 10
87.183743892689549
 20
-75.583736094063482
 30
0.0
  0
VERTEX
  5
F86
  8
DATA
  6
CONTINUOUS
 62
     7
 10
87.183700000000002
 20
-75.583800000000053
 30
0.0
  0
VERTEX
  5
F87
  8
DATA
  6
CONTINUOUS
 62
     7
 10
87.183700000000002
 20
-75.583800000000053
 30
0.0
  0
VERTEX
  5
F88
  8
DATA
  6
CONTINUOUS
 62
     7
 10
87.183700000000002
 20
-75.583800000000053
 30
0.0
 42
-0.0724788491092283
  0
VERTEX
  5
F89
  8
DATA
  6
CONTINUOUS
 62
     7
 10
87.011400000000023
 20
-75.769700000000043
 30
0.0
  0
VERTEX
  5
F8A
  8
DATA
  6
CONTINUOUS
 62
     7
 10
87.011400000000023
 20
-75.769700000000043
 30
0.0
  0
VERTEX
  5
F8B
  8
DATA
  6
CONTINUOUS
 62
     7
 10
87.011295878532678
 20
-75.769782995372566
 30
0.0
 42
-0.0908831369267501
  0
VERTEX
  5
F8C
  8
DATA
  6
CONTINUOUS
 62
     7
 10
86.812599999999989
 20
-75.876200000000054
 30
0.0
  0
VERTEX
  5
F8D
  8
DATA
  6
CONTINUOUS
 62
     7
 10
86.812599999999989
 20
-75.876200000000054
 30
0.0
  0
VERTEX
  5
F8E
  8
DATA
  6
CONTINUOUS
 62
     7
 10
86.812599999999989
 20
-75.876200000000054
 30
0.0
 42
-0.1175257664642632
  0
VERTEX
  5
F8F
  8
DATA
  6
CONTINUOUS
 62
     7
 10
86.613799999999983
 20
-75.889200000000017
 30
0.0
  0
VERTEX
  5
F90
  8
DATA
  6
CONTINUOUS
 62
     7
 10
86.613799999999983
 20
-75.889200000000017
 30
0.0
  0
SEQEND
  5
F91
  8
DATA
  6
CONTINUOUS
 62
     7
  0
LINE
  5
70B
  8
DATA
  6
CONTINUOUS
 62
     7
 10
86.613799999999983
 20
-75.889300000000034
 30
0.0
 11
86.125600000000006
 21
-75.711600000000033
 31
0.0
  0
POLYLINE
  5
70C
  8
DATA
  6
CONTINUOUS
 62
     7
 66
     1
 10
0.0
 20
0.0
 30
0.0
 70
   128
  0
VERTEX
  5
F92
  8
DATA
  6
CONTINUOUS
 62
     7
 10
86.613799999999983
 20
-75.889200000000017
 30
0.0
  0
VERTEX
  5
F93
  8
DATA
  6
CONTINUOUS
 62
     7
 10
86.613943156692144
 20
-75.889332340948883
 30
0.0
 42
-0.1180318210462805
  0
VERTEX
  5
F94
  8
DATA
  6
CONTINUOUS
 62
     7
 10
86.787246799167903
 20
-76.148356348201986
 30
0.0
  0
VERTEX
  5
F95
  8
DATA
  6
CONTINUOUS
 62
     7
 10
86.787299999999988
 20
-76.148500000000013
 30
0.0
  0
VERTEX
  5
F96
  8
DATA
  6
CONTINUOUS
 62
     7
 10
86.787299999999988
 20
-76.148500000000013
 30
0.0
  0
VERTEX
  5
F97
  8
DATA
  6
CONTINUOUS
 62
     7
 10
86.787366811773069
 20
-76.148672004777453
 30
0.0
 42
-0.0895612808517734
  0
VERTEX
  5
F98
  8
DATA
  6
CONTINUOUS
 62
     7
 10
86.855496438646412
 20
-76.499430227464615
 30
0.0
  0
VERTEX
  5
F99
  8
DATA
  6
CONTINUOUS
 62
     7
 10
86.855500000000006
 20
-76.499700000000033
 30
0.0
  0
VERTEX
  5
F9A
  8
DATA
  6
CONTINUOUS
 62
     7
 10
86.855500000000006
 20
-76.499700000000033
 30
0.0
  0
VERTEX
  5
F9B
  8
DATA
  6
CONTINUOUS
 62
     7
 10
86.855503771433163
 20
-76.499847011944482
 30
0.0
 42
-0.0727835798034325
  0
VERTEX
  5
F9C
  8
DATA
  6
CONTINUOUS
 62
     7
 10
86.808558894166254
 20
-76.890282961997698
 30
0.0
  0
VERTEX
  5
F9D
  8
DATA
  6
CONTINUOUS
 62
     7
 10
86.808499999999967
 20
-76.890500000000031
 30
0.0
  0
VERTEX
  5
F9E
  8
DATA
  6
CONTINUOUS
 62
     7
 10
86.808499999999967
 20
-76.890500000000031
 30
0.0
  0
VERTEX
  5
F9F
  8
DATA
  6
CONTINUOUS
 62
     7
 10
86.808393964436263
 20
-76.890899001891867
 30
0.0
 42
-0.0678301336681325
  0
VERTEX
  5
FA0
  8
DATA
  6
CONTINUOUS
 62
     7
 10
86.653351893488349
 20
-77.262570730495582
 30
0.0
  0
VERTEX
  5
FA1
  8
DATA
  6
CONTINUOUS
 62
     7
 10
86.653099999999981
 20
-77.263000000000034
 30
0.0
  0
VERTEX
  5
FA2
  8
DATA
  6
CONTINUOUS
 62
     7
 10
86.653099999999981
 20
-77.263000000000034
 30
0.0
  0
VERTEX
  5
FA3
  8
DATA
  6
CONTINUOUS
 62
     7
 10
86.652933428594437
 20
-77.263283782038229
 30
0.0
 42
-0.0737232731541544
  0
VERTEX
  5
FA4
  8
DATA
  6
CONTINUOUS
 62
     7
 10
86.412627121328754
 20
-77.561690251460604
 30
0.0
  0
VERTEX
  5
FA5
  8
DATA
  6
CONTINUOUS
 62
     7
 10
86.412400000000005
 20
-77.561900000000023
 30
0.0
  0
VERTEX
  5
FA6
  8
DATA
  6
CONTINUOUS
 62
     7
 10
86.412400000000005
 20
-77.561900000000023
 30
0.0
  0
SEQEND
  5
FA7
  8
DATA
  6
CONTINUOUS
 62
     7
  0
POLYLINE
  5
723
  8
DATA
  6
CONTINUOUS
 62
     7
 66
     1
 10
0.0
 20
0.0
 30
0.0
 70
   128
  0
VERTEX
  5
FA8
  8
DATA
  6
CONTINUOUS
 62
     7
 10
86.412400000000005
 20
-77.561900000000023
 30
0.0
  0
VERTEX
  5
FA9
  8
DATA
  6
CONTINUOUS
 62
     7
 10
86.412252371916694
 20
-77.562028005468534
 30
0.0
 42
-0.0883904528736208
  0
VERTEX
  5
FAA
  8
DATA
  6
CONTINUOUS
 62
     7
 10
86.052275051015016
 20
-77.776833773976293
 30
0.0
  0
VERTEX
  5
FAB
  8
DATA
  6
CONTINUOUS
 62
     7
 10
86.052099999999967
 20
-77.776900000000026
 30
0.0
  0
VERTEX
  5
FAC
  8
DATA
  6
CONTINUOUS
 62
     7
 10
86.052099999999967
 20
-77.776900000000026
 30
0.0
  0
VERTEX
  5
FAD
  8
DATA
  6
CONTINUOUS
 62
     7
 10
86.052099999999967
 20
-77.776900000000026
 30
0.0
 42
-0.1149808635768459
  0
VERTEX
  5
FAE
  8
DATA
  6
CONTINUOUS
 62
     7
 10
85.685599999999965
 20
-77.821500000000015
 30
0.0
  0
VERTEX
  5
FAF
  8
DATA
  6
CONTINUOUS
 62
     7
 10
85.685599999999965
 20
-77.821500000000015
 30
0.0
  0
VERTEX
  5
FB0
  8
DATA
  6
CONTINUOUS
 62
     7
 10
85.685599999999965
 20
-77.821500000000015
 30
0.0
 42
-0.1320362878953255
  0
VERTEX
  5
FB1
  8
DATA
  6
CONTINUOUS
 62
     7
 10
85.361799999999988
 20
-77.689900000000023
 30
0.0
  0
VERTEX
  5
FB2
  8
DATA
  6
CONTINUOUS
 62
     7
 10
85.361799999999988
 20
-77.689900000000023
 30
0.0
  0
VERTEX
  5
FB3
  8
DATA
  6
CONTINUOUS
 62
     7
 10
85.361799999999988
 20
-77.689900000000023
 30
0.0
 42
-0.1178417440423279
  0
VERTEX
  5
FB4
  8
DATA
  6
CONTINUOUS
 62
     7
 10
85.124200000000002
 20
-77.399500000000032
 30
0.0
  0
VERTEX
  5
FB5
  8
DATA
  6
CONTINUOUS
 62
     7
 10
85.124200000000002
 20
-77.399500000000032
 30
0.0
  0
VERTEX
  5
FB6
  8
DATA
  6
CONTINUOUS
 62
     7
 10
85.124200000000002
 20
-77.399500000000032
 30
0.0
 42
-0.0910272036911972
  0
VERTEX
  5
FB7
  8
DATA
  6
CONTINUOUS
 62
     7
 10
85.004499999999979
 20
-76.989300000000014
 30
0.0
  0
VERTEX
  5
FB8
  8
DATA
  6
CONTINUOUS
 62
     7
 10
85.004499999999979
 20
-76.989300000000014
 30
0.0
  0
VERTEX
  5
FB9
  8
DATA
  6
CONTINUOUS
 62
     7
 10
85.004499999999979
 20
-76.989300000000014
 30
0.0
 42
-0.0726564326561076
  0
VERTEX
  5
FBA
  8
DATA
  6
CONTINUOUS
 62
     7
 10
85.018699999999981
 20
-76.514200000000017
 30
0.0
  0
VERTEX
  5
FBB
  8
DATA
  6
CONTINUOUS
 62
     7
 10
85.018699999999981
 20
-76.514200000000017
 30
0.0
  0
VERTEX
  5
FBC
  8
DATA
  6
CONTINUOUS
 62
     7
 10
85.018699999999981
 20
-76.514200000000017
 30
0.0
  0
SEQEND
  5
FBD
  8
DATA
  6
CONTINUOUS
 62
     7
  0
LINE
  5
73A
  8
DATA
  6
CONTINUOUS
 62
     7
 10
84.033600000000007
 20
-85.828900000000047
 30
0.0
 11
85.369600000000005
 21
-82.158200000000022
 31
0.0
  0
LINE
  5
73B
  8
DATA
  6
CONTINUOUS
 62
     7
 10
85.369600000000005
 20
-82.158200000000022
 30
0.0
 11
83.149600000000007
 21
-84.260100000000037
 31
0.0
  0
LINE
  5
73C
  8
DATA
  6
CONTINUOUS
 62
     7
 10
83.149600000000007
 20
-84.260100000000037
 30
0.0
 11
84.948300000000003
 21
-84.914700000000039
 31
0.0
  0
LINE
  5
73D
  8
DATA
  6
CONTINUOUS
 62
     7
 10
26.600000000000009
 20
-10.09690000000003
 30
0.0
 11
26.600000000000009
 21
-165.09690000000001
 31
0.0
  0
CIRCLE
  5
73E
  8
DATA
  6
CONTINUOUS
 62
     7
 10
-159.8708
 20
-24.09690000000003
 30
0.0
 40
3.6000000000000218
  0
CIRCLE
  5
73F
  8
DATA
  6
CONTINUOUS
 62
     7
 10
-159.8708
 20
-151.09690000000001
 30
0.0
 40
3.6000000000000218
  0
CIRCLE
  5
740
  8
DATA
  6
CONTINUOUS
 62
     7
 10
-90.020799999999966
 20
-151.09690000000001
 30
0.0
 40
3.5999999999999939
  0
CIRCLE
  5
741
  8
DATA
  6
CONTINUOUS
 62
     7
 10
-90.020799999999966
 20
-24.09690000000003
 30
0.0
 40
3.5999999999999939
  0
LINE
  5
742
  8
DATA
  6
CONTINUOUS
 62
     7
 10
-175.0
 20
-10.09690000000003
 30
0.0
 11
-175.0
 21
-165.09690000000001
 31
0.0
  0
LINE
  5
743
  8
DATA
  6
CONTINUOUS
 62
     7
 10
-175.0
 20
-165.09690000000001
 30
0.0
 11
-74.999999999999986
 21
-165.09690000000001
 31
0.0
  0
LINE
  5
744
  8
DATA
  6
CONTINUOUS
 62
     7
 10
-74.999999999999986
 20
-10.09690000000003
 30
0.0
 11
-74.999999999999986
 21
-165.09690000000001
 31
0.0
  0
LINE
  5
745
  8
DATA
  6
CONTINUOUS
 62
     7
 10
-175.0
 20
-10.09690000000003
 30
0.0
 11
-74.999999999999986
 21
-10.09690000000003
 31
0.0
  0
CIRCLE
  5
746
  8
DATA
  6
CONTINUOUS
 62
     7
 10
158.4264
 20
-110.0
 30
0.0
 40
3.2000000000000162
  0
CIRCLE
  5
747
  8
DATA
  6
CONTINUOUS
 62
     7
 10
158.4264
 20
-45.000000000000021
 30
0.0
 40
1.7000000000000171
  0
CIRCLE
  5
748
  8
DATA
  6
CONTINUOUS
 62
     7
 10
158.4264
 20
-175.0
 30
0.0
 40
1.7000000000000171
  0
CIRCLE
  5
749
  8
DATA
  6
CONTINUOUS
 62
     7
 10
158.4264
 20
-110.0
 30
0.0
 40
1.7000000000000171
  0
CIRCLE
  5
74A
  8
DATA
  6
CONTINUOUS
 62
     7
 10
158.4264
 20
-175.0
 30
0.0
 40
3.2000000000000162
  0
CIRCLE
  5
74B
  8
DATA
  6
CONTINUOUS
 62
     7
 10
158.4264
 20
-45.000000000000021
 30
0.0
 40
3.2000000000000162
  0
LINE
  5
74C
  8
DATA
  6
CONTINUOUS
 62
     7
 10
99.858400000000003
 20
-37.736200000000032
 30
0.0
 11
169.4828
 21
-26.001700000000039
 31
0.0
  0
LINE
  5
74D
  8
DATA
  6
CONTINUOUS
 62
     7
 10
99.764300000000006
 20
-182.24799999999999
 30
0.0
 11
171.61579999999989
 21
-194.3578
 31
0.0
  0
LINE
  5
74E
  8
DATA
  6
CONTINUOUS
 62
     7
 10
179.62639999999999
 20
-20.000000000000028
 30
0.0
 11
179.62639999999999
 21
-200.0
 31
0.0
  0
LINE
  5
74F
  8
DATA
  6
CONTINUOUS
 62
     7
 10
179.62639999999999
 20
-20.000000000000028
 30
0.0
 11
169.4828
 21
-20.000000000000028
 31
0.0
  0
LINE
  5
750
  8
DATA
  6
CONTINUOUS
 62
     7
 10
169.4828
 20
-20.000000000000028
 30
0.0
 11
169.4828
 21
-152.16329999999999
 31
0.0
  0
LINE
  5
751
  8
DATA
  6
CONTINUOUS
 62
     7
 10
171.90100000000001
 20
-200.0
 30
0.0
 11
169.4828
 21
-152.16329999999999
 31
0.0
  0
LINE
  5
752
  8
DATA
  6
CONTINUOUS
 62
     7
 10
179.62639999999999
 20
-200.0
 30
0.0
 11
171.90100000000001
 21
-200.0
 31
0.0
  0
LINE
  5
753
  8
DATA
  6
CONTINUOUS
 62
     7
 10
173.62639999999999
 20
-20.000000000000028
 30
0.0
 11
173.62639999999999
 21
-200.0
 31
0.0
  0
LINE
  5
754
  8
DATA
  6
CONTINUOUS
 62
     7
 10
175.62639999999999
 20
-20.000000000000028
 30
0.0
 11
175.62639999999999
 21
-200.0
 31
0.0
  0
LINE
  5
755
  8
DATA
  6
CONTINUOUS
 62
     7
 10
177.62639999999999
 20
-20.000000000000028
 30
0.0
 11
177.62639999999999
 21
-200.0
 31
0.0
  0
ARC
  5
756
  8
DATA
  6
CONTINUOUS
 62
     7
 10
258.5
 20
-194.0
 30
0.0
 40
6.0
 50
180.0
 51
270.0
  0
LINE
  5
757
  8
DATA
  6
CONTINUOUS
 62
     7
 10
258.5
 20
-200.0
 30
0.0
 11
391.5
 21
-200.0
 31
0.0
  0
ARC
  5
758
  8
DATA
  6
CONTINUOUS
 62
     7
 10
391.5
 20
-194.0
 30
0.0
 40
6.0
 50
270.0
 51
0.0
  0
LINE
  5
759
  8
DATA
  6
CONTINUOUS
 62
     7
 10
252.5
 20
-26.000000000000028
 30
0.0
 11
252.5
 21
-194.0
 31
0.0
  0
ARC
  5
75A
  8
DATA
  6
CONTINUOUS
 62
     7
 10
258.5
 20
-26.000000000000028
 30
0.0
 40
6.0
 50
90.0
 51
180.0
  0
LINE
  5
75B
  8
DATA
  6
CONTINUOUS
 62
     7
 10
258.5
 20
-20.000000000000028
 30
0.0
 11
391.5
 21
-20.000000000000028
 31
0.0
  0
ARC
  5
75C
  8
DATA
  6
CONTINUOUS
 62
     7
 10
391.5
 20
-26.000000000000028
 30
0.0
 40
6.0
 50
0.0
 51
90.0
  0
LINE
  5
75D
  8
DATA
  6
CONTINUOUS
 62
     7
 10
397.5
 20
-26.000000000000028
 30
0.0
 11
397.5
 21
-194.0
 31
0.0
  0
CIRCLE
  5
75E
  8
DATA
  6
CONTINUOUS
 62
     7
 10
264.5
 20
-110.0
 30
0.0
 40
4.5999999999999934
  0
CIRCLE
  5
75F
  8
DATA
  6
CONTINUOUS
 62
     7
 10
264.5
 20
-185.0
 30
0.0
 40
4.5999999999999934
  0
CIRCLE
  5
760
  8
DATA
  6
CONTINUOUS
 62
     7
 10
385.5
 20
-185.0
 30
0.0
 40
4.599999999999965
  0
CIRCLE
  5
761
  8
DATA
  6
CONTINUOUS
 62
     7
 10
385.5
 20
-110.0
 30
0.0
 40
4.599999999999965
  0
CIRCLE
  5
762
  8
DATA
  6
CONTINUOUS
 62
     7
 10
385.5
 20
-35.000000000000028
 30
0.0
 40
4.599999999999965
  0
CIRCLE
  5
763
  8
DATA
  6
CONTINUOUS
 62
     7
 10
264.5
 20
-35.000000000000028
 30
0.0
 40
4.5999999999999934
  0
CIRCLE
  5
764
  8
DATA
  6
CONTINUOUS
 62
     7
 10
96.426400000000001
 20
-54.000000000000021
 30
0.0
 40
6.5
  0
LINE
  5
765
  8
DATA
  6
CONTINUOUS
 62
     7
 10
93.176400000000001
 20
-53.000000000000021
 30
0.0
 11
95.426400000000001
 21
-53.000000000000021
 31
0.0
  0
LINE
  5
766
  8
DATA
  6
CONTINUOUS
 62
     7
 10
97.426400000000015
 20
-53.000000000000021
 30
0.0
 11
99.676400000000015
 21
-53.000000000000021
 31
0.0
  0
LINE
  5
767
  8
DATA
  6
CONTINUOUS
 62
     7
 10
93.176400000000001
 20
-55.000000000000021
 30
0.0
 11
95.426400000000001
 21
-55.000000000000021
 31
0.0
  0
LINE
  5
768
  8
DATA
  6
CONTINUOUS
 62
     7
 10
97.426400000000015
 20
-55.000000000000021
 30
0.0
 11
99.676400000000015
 21
-55.000000000000021
 31
0.0
  0
LINE
  5
769
  8
DATA
  6
CONTINUOUS
 62
     7
 10
95.426400000000001
 20
-57.250000000000021
 30
0.0
 11
95.426400000000001
 21
-55.000000000000021
 31
0.0
  0
LINE
  5
76A
  8
DATA
  6
CONTINUOUS
 62
     7
 10
95.426400000000001
 20
-53.000000000000021
 30
0.0
 11
95.426400000000001
 21
-50.750000000000021
 31
0.0
  0
LINE
  5
76B
  8
DATA
  6
CONTINUOUS
 62
     7
 10
97.426400000000015
 20
-57.250000000000021
 30
0.0
 11
97.426400000000015
 21
-55.000000000000021
 31
0.0
  0
LINE
  5
76C
  8
DATA
  6
CONTINUOUS
 62
     7
 10
97.426400000000015
 20
-53.000000000000021
 30
0.0
 11
97.426400000000015
 21
-50.750000000000021
 31
0.0
  0
LINE
  5
76D
  8
DATA
  6
CONTINUOUS
 62
     7
 10
93.176400000000001
 20
-55.000000000000021
 30
0.0
 11
93.176400000000001
 21
-53.000000000000021
 31
0.0
  0
LINE
  5
76E
  8
DATA
  6
CONTINUOUS
 62
     7
 10
99.676400000000015
 20
-55.000000000000021
 30
0.0
 11
99.676400000000015
 21
-53.000000000000021
 31
0.0
  0
LINE
  5
76F
  8
DATA
  6
CONTINUOUS
 62
     7
 10
95.426400000000001
 20
-50.750000000000021
 30
0.0
 11
97.426400000000015
 21
-50.750000000000021
 31
0.0
  0
LINE
  5
770
  8
DATA
  6
CONTINUOUS
 62
     7
 10
95.426400000000001
 20
-57.250000000000021
 30
0.0
 11
97.426400000000015
 21
-57.250000000000021
 31
0.0
  0
LINE
  5
771
  8
DATA
  6
CONTINUOUS
 62
     7
 10
93.176400000000001
 20
-165.0
 30
0.0
 11
95.426400000000001
 21
-165.0
 31
0.0
  0
LINE
  5
772
  8
DATA
  6
CONTINUOUS
 62
     7
 10
97.426400000000015
 20
-165.0
 30
0.0
 11
99.676400000000015
 21
-165.0
 31
0.0
  0
LINE
  5
773
  8
DATA
  6
CONTINUOUS
 62
     7
 10
93.176400000000001
 20
-167.0
 30
0.0
 11
95.426400000000001
 21
-167.0
 31
0.0
  0
LINE
  5
774
  8
DATA
  6
CONTINUOUS
 62
     7
 10
97.426400000000015
 20
-167.0
 30
0.0
 11
99.676400000000015
 21
-167.0
 31
0.0
  0
LINE
  5
775
  8
DATA
  6
CONTINUOUS
 62
     7
 10
95.426400000000001
 20
-169.25
 30
0.0
 11
95.426400000000001
 21
-167.0
 31
0.0
  0
LINE
  5
776
  8
DATA
  6
CONTINUOUS
 62
     7
 10
95.426400000000001
 20
-165.0
 30
0.0
 11
95.426400000000001
 21
-162.75
 31
0.0
  0
LINE
  5
777
  8
DATA
  6
CONTINUOUS
 62
     7
 10
97.426400000000015
 20
-169.25
 30
0.0
 11
97.426400000000015
 21
-167.0
 31
0.0
  0
LINE
  5
778
  8
DATA
  6
CONTINUOUS
 62
     7
 10
97.426400000000015
 20
-165.0
 30
0.0
 11
97.426400000000015
 21
-162.75
 31
0.0
  0
LINE
  5
779
  8
DATA
  6
CONTINUOUS
 62
     7
 10
93.176400000000001
 20
-167.0
 30
0.0
 11
93.176400000000001
 21
-165.0
 31
0.0
  0
LINE
  5
77A
  8
DATA
  6
CONTINUOUS
 62
     7
 10
99.676400000000015
 20
-167.0
 30
0.0
 11
99.676400000000015
 21
-165.0
 31
0.0
  0
LINE
  5
77B
  8
DATA
  6
CONTINUOUS
 62
     7
 10
95.426400000000001
 20
-162.75
 30
0.0
 11
97.426400000000015
 21
-162.75
 31
0.0
  0
LINE
  5
77C
  8
DATA
  6
CONTINUOUS
 62
     7
 10
95.426400000000001
 20
-169.25
 30
0.0
 11
97.426400000000015
 21
-169.25
 31
0.0
  0
CIRCLE
  5
77D
  8
DATA
  6
CONTINUOUS
 62
     7
 10
96.426400000000001
 20
-166.0
 30
0.0
 40
6.5
  0
TEXT
  5
77E
  8
DATA
 62
     7
 10
245.625
 20
286.34750000000003
 30
0.0
 40
12.21630859375
  1
壁面取り付けプレート
 41
0.7
 11
245.625
 21
298.56380859375003
 31
0.0
 73
     3
  0
ARC
  5
77F
  8
DATA
  6
CONTINUOUS
 62
     7
 10
233.50017
 20
455.99999000000003
 30
0.0
 40
5.9999899999999959
 50
180.0
 51
270.0
  0
LINE
  5
780
  8
DATA
  6
CONTINUOUS
 62
     7
 10
233.50017
 20
450.00000999999997
 30
0.0
 11
366.49982999999997
 21
450.00000999999997
 31
0.0
  0
ARC
  5
781
  8
DATA
  6
CONTINUOUS
 62
     7
 10
366.49982999999997
 20
455.99999000000003
 30
0.0
 40
5.9999799999999928
 50
270.0
 51
0.0
  0
LINE
  5
782
  8
DATA
  6
CONTINUOUS
 62
     7
 10
227.50018
 20
623.99956999999995
 30
0.0
 11
227.50018
 21
455.99999000000003
 31
0.0
  0
ARC
  5
783
  8
DATA
  6
CONTINUOUS
 62
     7
 10
233.50017
 20
623.99956999999995
 30
0.0
 40
5.9999900000000244
 50
90.0
 51
180.0
  0
LINE
  5
784
  8
DATA
  6
CONTINUOUS
 62
     7
 10
233.50017
 20
629.99955999999986
 30
0.0
 11
366.49982999999997
 21
629.99955999999986
 31
0.0
  0
ARC
  5
785
  8
DATA
  6
CONTINUOUS
 62
     7
 10
366.49982999999997
 20
623.99956999999995
 30
0.0
 40
5.9999900000000244
 50
0.0
 51
90.0
  0
LINE
  5
786
  8
DATA
  6
CONTINUOUS
 62
     7
 10
372.49982
 20
623.99956999999995
 30
0.0
 11
372.49999999999858
 21
424.45300227594493
 31
0.0
  0
LINE
  5
787
  8
DATA
  6
CONTINUOUS
 62
     7
 10
280.50004999999999
 20
497.83656000000002
 30
0.0
 11
280.50004999999999
 21
450.00000999999997
 31
0.0
  0
LINE
  5
788
  8
DATA
  6
CONTINUOUS
 62
     7
 10
262.14409000000001
 20
629.99955999999986
 30
0.0
 11
280.50004999999999
 21
497.83656000000002
 31
0.0
  0
LINE
  5
789
  8
DATA
  6
CONTINUOUS
 62
     7
 10
337.85590999999999
 20
629.99955999999986
 30
0.0
 11
319.49995000000001
 21
497.83656000000002
 31
0.0
  0
LINE
  5
78A
  8
DATA
  6
CONTINUOUS
 62
     7
 10
319.49995000000001
 20
497.83656000000002
 30
0.0
 11
319.49995000000001
 21
450.00000999999997
 31
0.0
  0
LINE
  5
78B
  8
DATA
  6
CONTINUOUS
 62
     7
 10
250.02892
 20
629.99955999999986
 30
0.0
 11
275.02886000000001
 21
450.00000999999997
 31
0.0
  0
LINE
  5
78C
  8
DATA
  6
CONTINUOUS
 62
     7
 10
349.97107999999997
 20
629.99955999999986
 30
0.0
 11
324.97113999999999
 21
450.00000999999997
 31
0.0
  0
LINE
  5
78D
  8
DATA
  6
CONTINUOUS
 62
     7
 10
297.15626999999989
 20
624.45276999999987
 30
0.0
 11
297.15626999999989
 21
621.91371000000004
 31
0.0
  0
POLYLINE
  5
78E
  8
DATA
  6
CONTINUOUS
 62
     7
 66
     1
 10
0.0
 20
0.0
 30
0.0
 70
   128
  0
VERTEX
  5
FBE
  8
DATA
  6
CONTINUOUS
 62
     7
 10
297.15626999999989
 20
621.91371000000004
 30
0.0
 42
0.0753155069135555
  0
VERTEX
  5
FBF
  8
DATA
  6
CONTINUOUS
 62
     7
 10
297.30574000000001
 20
621.30718000000002
 30
0.0
  0
VERTEX
  5
FC0
  8
DATA
  6
CONTINUOUS
 62
     7
 10
297.30574000000001
 20
621.30718000000002
 30
0.0
  0
VERTEX
  5
FC1
  8
DATA
  6
CONTINUOUS
 62
     7
 10
297.30574000000001
 20
621.30718000000002
 30
0.0
 42
0.0914545943888853
  0
VERTEX
  5
FC2
  8
DATA
  6
CONTINUOUS
 62
     7
 10
297.61227000000002
 20
620.83637999999985
 30
0.0
  0
VERTEX
  5
FC3
  8
DATA
  6
CONTINUOUS
 62
     7
 10
297.61227000000002
 20
620.83637999999985
 30
0.0
  0
VERTEX
  5
FC4
  8
DATA
  6
CONTINUOUS
 62
     7
 10
297.61231413817831
 20
620.83633458223426
 30
0.0
 42
0.122148059115241
  0
VERTEX
  5
FC5
  8
DATA
  6
CONTINUOUS
 62
     7
 10
298.0249835381556
 20
620.57956588524917
 30
0.0
  0
VERTEX
  5
FC6
  8
DATA
  6
CONTINUOUS
 62
     7
 10
298.02494000000002
 20
620.57957999999985
 30
0.0
  0
VERTEX
  5
FC7
  8
DATA
  6
CONTINUOUS
 62
     7
 10
298.02494000000002
 20
620.57957999999985
 30
0.0
  0
VERTEX
  5
FC8
  8
DATA
  6
CONTINUOUS
 62
     7
 10
298.02496025396999
 20
620.57957390473007
 30
0.0
 42
0.1472070228379462
  0
VERTEX
  5
FC9
  8
DATA
  6
CONTINUOUS
 62
     7
 10
298.47504057635439
 20
620.57957114558337
 30
0.0
  0
VERTEX
  5
FCA
  8
DATA
  6
CONTINUOUS
 62
     7
 10
298.47507000000002
 20
620.57957999999985
 30
0.0
  0
VERTEX
  5
FCB
  8
DATA
  6
CONTINUOUS
 62
     7
 10
298.47507000000002
 20
620.57957999999985
 30
0.0
  0
VERTEX
  5
FCC
  8
DATA
  6
CONTINUOUS
 62
     7
 10
298.47507000000002
 20
620.57957999999985
 30
0.0
 42
0.1307610627059441
  0
VERTEX
  5
FCD
  8
DATA
  6
CONTINUOUS
 62
     7
 10
298.88774000000001
 20
620.83637999999985
 30
0.0
  0
VERTEX
  5
FCE
  8
DATA
  6
CONTINUOUS
 62
     7
 10
298.88774000000001
 20
620.83637999999985
 30
0.0
  0
VERTEX
  5
FCF
  8
DATA
  6
CONTINUOUS
 62
     7
 10
298.88775227107442
 20
620.83639259915492
 30
0.0
 42
0.097823738634384
  0
VERTEX
  5
FD0
  8
DATA
  6
CONTINUOUS
 62
     7
 10
299.19421597085091
 20
621.30704556960825
 30
0.0
  0
VERTEX
  5
FD1
  8
DATA
  6
CONTINUOUS
 62
     7
 10
299.19427000000002
 20
621.30718000000002
 30
0.0
  0
VERTEX
  5
FD2
  8
DATA
  6
CONTINUOUS
 62
     7
 10
299.19427000000002
 20
621.30718000000002
 30
0.0
  0
VERTEX
  5
FD3
  8
DATA
  6
CONTINUOUS
 62
     7
 10
299.19434170251219
 20
621.30735112201126
 30
0.0
 42
0.0777211125352479
  0
VERTEX
  5
FD4
  8
DATA
  6
CONTINUOUS
 62
     7
 10
299.34369493453619
 20
621.91330576564201
 30
0.0
  0
VERTEX
  5
FD5
  8
DATA
  6
CONTINUOUS
 62
     7
 10
299.34372999999999
 20
621.91371000000004
 30
0.0
  0
VERTEX
  5
FD6
  8
DATA
  6
CONTINUOUS
 62
     7
 10
299.34372999999999
 20
621.91371000000004
 30
0.0
  0
VERTEX
  5
FD7
  8
DATA
  6
CONTINUOUS
 62
     7
 10
299.34372999999999
 20
621.91371000000004
 30
0.0
  0
SEQEND
  5
FD8
  8
DATA
  6
CONTINUOUS
 62
     7
  0
LINE
  5
7AA
  8
DATA
  6
CONTINUOUS
 62
     7
 10
299.34372999999999
 20
621.91371000000004
 30
0.0
 11
299.34372999999999
 21
624.45276999999987
 31
0.0
  0
LINE
  5
7AB
  8
DATA
  6
CONTINUOUS
 62
     7
 10
300.79293000000001
 20
622.3042499999998
 30
0.0
 11
302.16012999999998
 21
622.3042499999998
 31
0.0
  0
POLYLINE
  5
7AC
  8
DATA
  6
CONTINUOUS
 62
     7
 66
     1
 10
0.0
 20
0.0
 30
0.0
 70
   128
  0
VERTEX
  5
FD9
  8
DATA
  6
CONTINUOUS
 62
     7
 10
302.16012999999998
 20
622.3042499999998
 30
0.0
  0
VERTEX
  5
FDA
  8
DATA
  6
CONTINUOUS
 62
     7
 10
302.1601972619207
 20
622.30425944941703
 30
0.0
 42
0.1253195304074018
  0
VERTEX
  5
FDB
  8
DATA
  6
CONTINUOUS
 62
     7
 10
302.42640484611468
 20
622.41334715708501
 30
0.0
  0
VERTEX
  5
FDC
  8
DATA
  6
CONTINUOUS
 62
     7
 10
302.42653000000001
 20
622.41344000000004
 30
0.0
  0
VERTEX
  5
FDD
  8
DATA
  6
CONTINUOUS
 62
     7
 10
302.42653000000001
 20
622.41344000000004
 30
0.0
  0
VERTEX
  5
FDE
  8
DATA
  6
CONTINUOUS
 62
     7
 10
302.42679367433772
 20
622.4136314221488
 30
0.0
 42
0.0988861297466286
  0
VERTEX
  5
FDF
  8
DATA
  6
CONTINUOUS
 62
     7
 10
302.64713874109913
 20
622.65219705499919
 30
0.0
  0
VERTEX
  5
FE0
  8
DATA
  6
CONTINUOUS
 62
     7
 10
302.6473299999999
 20
622.65250999999989
 30
0.0
  0
VERTEX
  5
FE1
  8
DATA
  6
CONTINUOUS
 62
     7
 10
302.6473299999999
 20
622.65250999999989
 30
0.0
  0
VERTEX
  5
FE2
  8
DATA
  6
CONTINUOUS
 62
     7
 10
302.6473299999999
 20
622.65250999999989
 30
0.0
 42
0.0773050228172702
  0
VERTEX
  5
FE3
  8
DATA
  6
CONTINUOUS
 62
     7
 10
302.79306000000003
 20
622.98930999999982
 30
0.0
  0
VERTEX
  5
FE4
  8
DATA
  6
CONTINUOUS
 62
     7
 10
302.79306000000003
 20
622.98930999999982
 30
0.0
  0
VERTEX
  5
FE5
  8
DATA
  6
CONTINUOUS
 62
     7
 10
302.79315283841743
 20
622.98965581541813
 30
0.0
 42
0.0663357618643367
  0
VERTEX
  5
FE6
  8
DATA
  6
CONTINUOUS
 62
     7
 10
302.84386104004773
 20
623.37812145387045
 30
0.0
  0
VERTEX
  5
FE7
  8
DATA
  6
CONTINUOUS
 62
     7
 10
302.84385999999989
 20
623.37851000000001
 30
0.0
  0
VERTEX
  5
FE8
  8
DATA
  6
CONTINUOUS
 62
     7
 10
302.84385999999989
 20
623.37851000000001
 30
0.0
  0
VERTEX
  5
FE9
  8
DATA
  6
CONTINUOUS
 62
     7
 10
302.84386000498182
 20
623.37851758273348
 30
0.0
 42
0.0652959780732058
  0
VERTEX
  5
FEA
  8
DATA
  6
CONTINUOUS
 62
     7
 10
302.79309345288289
 20
623.76758432672113
 30
0.0
  0
VERTEX
  5
FEB
  8
DATA
  6
CONTINUOUS
 62
     7
 10
302.79306000000003
 20
623.76770999999985
 30
0.0
  0
VERTEX
  5
FEC
  8
DATA
  6
CONTINUOUS
 62
     7
 10
302.79306000000003
 20
623.76770999999985
 30
0.0
  0
VERTEX
  5
FED
  8
DATA
  6
CONTINUOUS
 62
     7
 10
302.7929883522005
 20
623.76797727614507
 30
0.0
 42
0.0734238500249556
  0
VERTEX
  5
FEE
  8
DATA
  6
CONTINUOUS
 62
     7
 10
302.64750770648521
 20
624.10408342942731
 30
0.0
  0
VERTEX
  5
FEF
  8
DATA
  6
CONTINUOUS
 62
     7
 10
302.6473299999999
 20
624.10437000000002
 30
0.0
  0
VERTEX
  5
FF0
  8
DATA
  6
CONTINUOUS
 62
     7
 10
302.6473299999999
 20
624.10437000000002
 30
0.0
  0
VERTEX
  5
FF1
  8
DATA
  6
CONTINUOUS
 62
     7
 10
302.6473299999999
 20
624.10437000000002
 30
0.0
 42
0.092827153474183
  0
VERTEX
  5
FF2
  8
DATA
  6
CONTINUOUS
 62
     7
 10
302.42653000000001
 20
624.34357
 30
0.0
  0
VERTEX
  5
FF3
  8
DATA
  6
CONTINUOUS
 62
     7
 10
302.42653000000001
 20
624.34357
 30
0.0
  0
VERTEX
  5
FF4
  8
DATA
  6
CONTINUOUS
 62
     7
 10
302.4262928785181
 20
624.34374151787188
 30
0.0
 42
0.1193759316815226
  0
VERTEX
  5
FF5
  8
DATA
  6
CONTINUOUS
 62
     7
 10
302.1604015422505
 20
624.45259869367521
 30
0.0
  0
VERTEX
  5
FF6
  8
DATA
  6
CONTINUOUS
 62
     7
 10
302.16012999999998
 20
624.45263999999986
 30
0.0
  0
VERTEX
  5
FF7
  8
DATA
  6
CONTINUOUS
 62
     7
 10
302.16012999999998
 20
624.45263999999986
 30
0.0
  0
SEQEND
  5
FF8
  8
DATA
  6
CONTINUOUS
 62
     7
  0
LINE
  5
7CD
  8
DATA
  6
CONTINUOUS
 62
     7
 10
302.16012999999998
 20
624.45263999999986
 30
0.0
 11
300.79293000000001
 21
624.45263999999986
 31
0.0
  0
LINE
  5
7CE
  8
DATA
  6
CONTINUOUS
 62
     7
 10
300.79293000000001
 20
624.45263999999986
 30
0.0
 11
300.79293000000001
 21
620.54651999999987
 31
0.0
  0
CIRCLE
  5
7CF
  8
DATA
  6
CONTINUOUS
 62
     7
 10
239.50014999999999
 20
614.99959999999987
 30
0.0
 40
4.5999899999999911
  0
CIRCLE
  5
7D0
  8
DATA
  6
CONTINUOUS
 62
     7
 10
239.50014999999999
 20
464.99997000000002
 30
0.0
 40
4.5999899999999911
  0
CIRCLE
  5
7D1
  8
DATA
  6
CONTINUOUS
 62
     7
 10
360.49984999999998
 20
464.99997000000002
 30
0.0
 40
4.5999899999999911
  0
CIRCLE
  5
7D2
  8
DATA
  6
CONTINUOUS
 62
     7
 10
360.49984999999998
 20
614.99959999999987
 30
0.0
 40
4.5999899999999911
  0
ARC
  5
7D3
  8
DATA
  6
CONTINUOUS
 62
     7
 10
94.611400000000003
 20
-157.98419999999999
 30
0.0
 40
2.9999083319328101
 50
328.68904027292172
 51
236.8264130892008
  0
LINE
  5
7D4
  8
DATA
  6
CONTINUOUS
 62
     7
 10
86.426400000000001
 20
-131.37932000000001
 30
0.0
 11
86.426400000000001
 21
-134.65088
 31
0.0
  0
LINE
  5
7D5
  8
DATA
  6
CONTINUOUS
 62
     7
 10
86.426400000000001
 20
-139.15611999999999
 30
0.0
 11
86.426400000000001
 21
-143.13108
 31
0.0
  0
LINE
  5
7D6
  8
DATA
  6
CONTINUOUS
 62
     7
 10
86.426400000000001
 20
-146.81220999999999
 30
0.0
 11
86.426400000000001
 21
-151.75658999999999
 31
0.0
  0
LINE
  5
7D7
  8
DATA
  6
CONTINUOUS
 62
     7
 10
86.426400000000001
 20
-154.55951999999999
 30
0.0
 11
86.426400000000001
 21
-160.30108000000001
 31
0.0
  0
LINE
  5
7D8
  8
DATA
  6
CONTINUOUS
 62
     7
 10
86.426400000000001
 20
-162.58330000000001
 30
0.0
 11
86.426400000000001
 21
-168.5643
 31
0.0
  0
LINE
  5
7D9
  8
DATA
  6
CONTINUOUS
 62
     7
 10
275.0
 20
-10.09690000000003
 30
0.0
 11
375.0
 21
-10.09690000000003
 31
0.0
  0
LINE
  5
7DA
  8
DATA
  6
CONTINUOUS
 62
     7
 10
375.0
 20
-10.09690000000003
 30
0.0
 11
375.0
 21
-20.000000000000028
 31
0.0
  0
LINE
  5
7DB
  8
DATA
  6
CONTINUOUS
 62
     7
 10
275.0
 20
-10.09690000000003
 30
0.0
 11
275.0
 21
-20.000000000000028
 31
0.0
  0
LINE
  5
7DC
  8
DATA
  6
CONTINUOUS
 62
     7
 10
-191.5
 20
-20.000000000000028
 30
0.0
 11
-175.0
 21
-20.000000000000028
 31
0.0
  0
LINE
  5
7DD
  8
DATA
  6
CONTINUOUS
 62
     7
 10
460.14359999999988
 20
629.99955999999986
 30
0.0
 11
460.14359999999988
 21
449.99955999999997
 31
0.0
  0
LINE
  5
7DE
  8
DATA
  6
CONTINUOUS
 62
     7
 10
460.14359999999988
 20
629.99955999999986
 30
0.0
 11
450.0
 21
629.99955999999986
 31
0.0
  0
LINE
  5
7DF
  8
DATA
  6
CONTINUOUS
 62
     7
 10
450.0
 20
629.99955999999986
 30
0.0
 11
450.0
 21
497.83625999999992
 31
0.0
  0
LINE
  5
7E0
  8
DATA
  6
CONTINUOUS
 62
     7
 10
452.41820000000001
 20
449.99955999999997
 30
0.0
 11
450.0
 21
497.83625999999992
 31
0.0
  0
LINE
  5
7E1
  8
DATA
  6
CONTINUOUS
 62
     7
 10
460.14359999999988
 20
449.99955999999997
 30
0.0
 11
452.41820000000001
 21
449.99955999999997
 31
0.0
  0
LINE
  5
7E2
  8
DATA
  6
CONTINUOUS
 62
     7
 10
454.14359999999999
 20
629.99955999999986
 30
0.0
 11
454.14359999999999
 21
449.99955999999997
 31
0.0
  0
LINE
  5
7E3
  8
DATA
  6
CONTINUOUS
 62
     7
 10
456.14359999999988
 20
629.99955999999986
 30
0.0
 11
456.14359999999988
 21
449.99955999999997
 31
0.0
  0
LINE
  5
7E4
  8
DATA
  6
CONTINUOUS
 62
     7
 10
458.14359999999999
 20
629.99955999999986
 30
0.0
 11
458.14359999999999
 21
449.99955999999997
 31
0.0
  0
LINE
  5
7E5
  8
DATA
  6
CONTINUOUS
 62
     7
 10
225.0
 20
275.0
 30
0.0
 11
425.0
 21
275.0
 31
0.0
  0
CIRCLE
  5
7E6
  8
DATA
  6
CONTINUOUS
 62
     7
 10
239.50014999999999
 20
539.99977999999999
 30
0.0
 40
4.5999899999999911
  0
CIRCLE
  5
7E7
  8
DATA
  6
CONTINUOUS
 62
     7
 10
360.49984999999998
 20
539.99977999999999
 30
0.0
 40
4.5999899999999911
  0
LINE
  5
7E8
  8
DATA
  6
CONTINUOUS
 62
     7
 10
297.0
 20
-200.0
 30
0.0
 11
297.0
 21
-224.698480545
 31
0.0
  0
ARC
  5
7E9
  8
DATA
  6
CONTINUOUS
 62
     7
 10
287.0
 20
-224.69848481
 30
0.0
 40
10.0
 50
270.0
 51
0.0000244330004762
  0
LINE
  5
7EA
  8
DATA
  6
CONTINUOUS
 62
     7
 10
252.5
 20
-193.999996697
 30
0.0
 11
252.5
 21
-224.69847848399999
 31
0.0
  0
ARC
  5
7EB
  8
DATA
  6
CONTINUOUS
 62
     7
 10
262.5
 20
-224.69848481
 30
0.0
 40
10.000000000000179
 50
179.9999637569999
 51
270.00004371299963
  0
LINE
  5
7EC
  8
DATA
  6
CONTINUOUS
 62
     7
 10
287.0
 20
-234.69848481
 30
0.0
 11
262.50000762899981
 21
-234.69848481
 31
0.0
  0
ARC
  5
7ED
  8
DATA
  6
CONTINUOUS
 62
     7
 10
269.86647625081469
 20
-219.17023083311869
 30
0.0
 40
5.1206761341043636
 50
187.700208790586
 51
206.13561333651401
  0
ARC
  5
7EE
  8
DATA
  6
CONTINUOUS
 62
     7
 10
271.52527416113281
 20
-218.2956871428249
 30
0.0
 40
6.9953143728722731
 50
206.58142447369801
 51
232.11215545134289
  0
ARC
  5
7EF
  8
DATA
  6
CONTINUOUS
 62
     7
 10
274.29222251450437
 20
-214.63659881781149
 30
0.0
 40
11.582525207159209
 50
232.42575949216911
 51
272.2651165856052
  0
ARC
  5
7F0
  8
DATA
  6
CONTINUOUS
 62
     7
 10
279.63353137818518
 20
-219.17023083311869
 30
0.0
 40
5.1206761341043077
 50
333.86438666348562
 51
352.29979120941459
  0
ARC
  5
7F1
  8
DATA
  6
CONTINUOUS
 62
     7
 10
277.974733467867
 20
-218.2956871428249
 30
0.0
 40
6.9953143728723397
 50
307.88784454865709
 51
333.41857552630159
  0
ARC
  5
7F2
  8
DATA
  6
CONTINUOUS
 62
     7
 10
275.20778511449538
 20
-214.63659881781149
 30
0.0
 40
11.582525207159129
 50
267.73488341439469
 51
307.57424050783089
  0
ARC
  5
7F3
  8
DATA
  6
CONTINUOUS
 62
     7
 10
269.86647625081469
 20
-220.54246754088129
 30
0.0
 40
5.1206761341043077
 50
153.86438666348559
 51
180.1553233769624
  0
ARC
  5
7F4
  8
DATA
  6
CONTINUOUS
 62
     7
 10
271.52527416113281
 20
-221.41701123117511
 30
0.0
 40
6.995314372872385
 50
127.8878445486568
 51
153.41857552630191
  0
ARC
  5
7F5
  8
DATA
  6
CONTINUOUS
 62
     7
 10
274.29222251450437
 20
-225.0760995561885
 30
0.0
 40
11.582525207159129
 50
87.734883414394758
 51
127.57424050783069
  0
ARC
  5
7F6
  8
DATA
  6
CONTINUOUS
 62
     7
 10
269.86647625081469
 20
-220.5702308331187
 30
0.0
 40
5.120676134104353
 50
179.84467662303749
 51
206.13561333651401
  0
ARC
  5
7F7
  8
DATA
  6
CONTINUOUS
 62
     7
 10
271.52527416113281
 20
-219.6956871428248
 30
0.0
 40
6.9953143728722731
 50
206.58142447369801
 51
232.112155451343
  0
ARC
  5
7F8
  8
DATA
  6
CONTINUOUS
 62
     7
 10
274.29222251450437
 20
-216.03659881781141
 30
0.0
 40
11.582525207159261
 50
232.42575949216931
 51
272.2651165856052
  0
ARC
  5
7F9
  8
DATA
  6
CONTINUOUS
 62
     7
 10
279.63353137818518
 20
-220.5702308331187
 30
0.0
 40
5.1206761341043077
 50
333.86438666348562
 51
0.1553233769624853
  0
ARC
  5
7FA
  8
DATA
  6
CONTINUOUS
 62
     7
 10
277.974733467867
 20
-219.6956871428248
 30
0.0
 40
6.995314372872385
 50
307.8878445486568
 51
333.41857552630182
  0
ARC
  5
7FB
  8
DATA
  6
CONTINUOUS
 62
     7
 10
275.20778511449538
 20
-216.03659881781141
 30
0.0
 40
11.582525207159129
 50
267.73488341439469
 51
307.57424050783072
  0
ARC
  5
7FC
  8
DATA
  6
CONTINUOUS
 62
     7
 10
277.974733467867
 20
-221.41701123117511
 30
0.0
 40
6.9953143728722731
 50
26.581424473698139
 51
52.112155451343043
  0
ARC
  5
7FD
  8
DATA
  6
CONTINUOUS
 62
     7
 10
275.20778511449538
 20
-225.0760995561885
 30
0.0
 40
11.582525207159261
 50
52.425759492169249
 51
92.265116585605213
  0
ARC
  5
7FE
  8
DATA
  6
CONTINUOUS
 62
     7
 10
279.63353137818518
 20
-220.54246754088129
 30
0.0
 40
5.120676134104353
 50
359.8446766230374
 51
26.135613336514091
  0
LINE
  5
7FF
  8
DATA
  6
CONTINUOUS
 62
     7
 10
-52.500000000000021
 20
-193.999996697
 30
0.0
 11
-52.500000000000021
 21
-224.69847848399999
 31
0.0
  0
TEXT
  5
800
  8
DATA
 62
     7
 10
211.62518
 20
669.28500999999983
 30
0.0
 40
12.21630859375
  1
刻印
 41
0.7
 11
211.62518
 21
681.50131859374983
 31
0.0
 73
     3
  0
LINE
  5
801
  8
DATA
  6
CONTINUOUS
 62
     7
 10
252.50018
 20
675.00000999999997
 30
0.0
 11
277.50018
 21
675.00000999999997
 31
0.0
  0
LINE
  5
802
  8
DATA
  6
CONTINUOUS
 62
     7
 10
277.50018
 20
675.00000999999997
 30
0.0
 11
295.98399000000001
 21
627.4674
 31
0.0
  0
LINE
  5
803
  8
DATA
  6
CONTINUOUS
 62
     7
 10
295.98399000000001
 20
627.4674
 30
0.0
 11
286.32373387454612
 21
640.76360187819535
 31
0.0
  0
LINE
  5
804
  8
DATA
  6
CONTINUOUS
 62
     7
 10
295.98399000000001
 20
627.4674
 30
0.0
 11
294.26606372739047
 21
643.8123766630905
 31
0.0
  0
ARC
  5
805
  8
DATA
  6
CONTINUOUS
 62
     7
 10
-62.499999999999957
 20
-225.54701294800009
 30
0.0
 40
10.0
 50
270.0
 51
0.0000299309999718
  0
LINE
  5
806
  8
DATA
  6
CONTINUOUS
 62
     7
 10
-96.999999999999943
 20
-200.0
 30
0.0
 11
-96.999999999999943
 21
-225.54700890199999
 31
0.0
  0
ARC
  5
807
  8
DATA
  6
CONTINUOUS
 62
     7
 10
-86.999999999999943
 20
-225.54701294800009
 30
0.0
 40
10.000000000000361
 50
179.99997680599981
 51
270.0
  0
LINE
  5
808
  8
DATA
  6
CONTINUOUS
 62
     7
 10
-96.999999999999943
 20
-206.3254834
 30
0.0
 11
-52.499999999999957
 21
-206.3254834
 31
0.0
  0
LINE
  5
809
  8
DATA
  6
CONTINUOUS
 62
     7
 10
-86.999999999999943
 20
-235.54701294800009
 30
0.0
 11
-62.499999999999957
 21
-235.54701294800009
 31
0.0
  0
POLYLINE
  5
80A
  8
DATA
  6
CONTINUOUS
 62
     7
 66
     1
 10
0.0
 20
0.0
 30
0.0
 70
   129
  0
VERTEX
  5
FF9
  8
DATA
  6
CONTINUOUS
 62
     7
 10
-64.749999999999957
 20
-221.40487732400001
 30
0.0
  0
VERTEX
  5
FFA
  8
DATA
  6
CONTINUOUS
 62
     7
 10
-64.749999999999929
 20
-221.40487732399691
 30
0.0
 42
0.0308289069996344
  0
VERTEX
  5
FFB
  8
DATA
  6
CONTINUOUS
 62
     7
 10
-64.788053018999975
 20
-220.78859315700001
 30
0.0
  0
VERTEX
  5
FFC
  8
DATA
  6
CONTINUOUS
 62
     7
 10
-64.788053018999975
 20
-220.78859315700001
 30
0.0
  0
VERTEX
  5
FFD
  8
DATA
  6
CONTINUOUS
 62
     7
 10
-64.788053018999975
 20
-220.78859315700001
 30
0.0
 42
0.0304257970000787
  0
VERTEX
  5
FFE
  8
DATA
  6
CONTINUOUS
 62
     7
 10
-64.901922470000002
 20
-220.17699928400009
 30
0.0
  0
VERTEX
  5
FFF
  8
DATA
  6
CONTINUOUS
 62
     7
 10
-64.901922470000002
 20
-220.17699928400009
 30
0.0
  0
VERTEX
  5
1000
  8
DATA
  6
CONTINUOUS
 62
     7
 10
-64.901922470000372
 20
-220.1769992839985
 30
0.0
 42
0.029607755999912
  0
VERTEX
  5
1001
  8
DATA
  6
CONTINUOUS
 62
     7
 10
-65.090741737000329
 20
-219.57475030500009
 30
0.0
  0
VERTEX
  5
1002
  8
DATA
  6
CONTINUOUS
 62
     7
 10
-65.090741737000329
 20
-219.57475030500009
 30
0.0
  0
VERTEX
  5
1003
  8
DATA
  6
CONTINUOUS
 62
     7
 10
-65.090741737000613
 20
-219.5747503049993
 30
0.0
 42
0.0284626549999331
  0
VERTEX
  5
1004
  8
DATA
  6
CONTINUOUS
 62
     7
 10
-65.353073791999975
 20
-218.98642969700009
 30
0.0
  0
VERTEX
  5
1005
  8
DATA
  6
CONTINUOUS
 62
     7
 10
-65.353073791999975
 20
-218.98642969700009
 30
0.0
  0
VERTEX
  5
1006
  8
DATA
  6
CONTINUOUS
 62
     7
 10
-65.353073792002007
 20
-218.9864296969962
 30
0.0
 42
0.0270987799996713
  0
VERTEX
  5
1007
  8
DATA
  6
CONTINUOUS
 62
     7
 10
-65.686922130000255
 20
-218.4165149370001
 30
0.0
  0
VERTEX
  5
1008
  8
DATA
  6
CONTINUOUS
 62
     7
 10
-65.686922130000255
 20
-218.4165149370001
 30
0.0
  0
VERTEX
  5
1009
  8
DATA
  6
CONTINUOUS
 62
     7
 10
-65.686922130000255
 20
-218.4165149370001
 30
0.0
 42
0.0256239270000727
  0
VERTEX
  5
100A
  8
DATA
  6
CONTINUOUS
 62
     7
 10
-66.089745962000009
 20
-217.86934341800011
 30
0.0
  0
VERTEX
  5
100B
  8
DATA
  6
CONTINUOUS
 62
     7
 10
-66.089745962000009
 20
-217.86934341800011
 30
0.0
  0
VERTEX
  5
100C
  8
DATA
  6
CONTINUOUS
 62
     7
 10
-66.089745962001686
 20
-217.8693434179981
 30
0.0
 42
0.024130572999951
  0
VERTEX
  5
100D
  8
DATA
  6
CONTINUOUS
 62
     7
 10
-66.55847955700024
 20
-217.34907944700001
 30
0.0
  0
VERTEX
  5
100E
  8
DATA
  6
CONTINUOUS
 62
     7
 10
-66.55847955700024
 20
-217.34907944700001
 30
0.0
  0
VERTEX
  5
100F
  8
DATA
  6
CONTINUOUS
 62
     7
 10
-66.558479557005271
 20
-217.34907944699501
 30
0.0
 42
0.0226890189997523
  0
VERTEX
  5
1010
  8
DATA
  6
CONTINUOUS
 62
     7
 10
-67.089555568999856
 20
-216.85968254700001
 30
0.0
  0
VERTEX
  5
1011
  8
DATA
  6
CONTINUOUS
 62
     7
 10
-67.089555568999856
 20
-216.85968254700001
 30
0.0
  0
VERTEX
  5
1012
  8
DATA
  6
CONTINUOUS
 62
     7
 10
-67.089555569002343
 20
-216.85968254699799
 30
0.0
 42
0.0213470119997585
  0
VERTEX
  5
1013
  8
DATA
  6
CONTINUOUS
 62
     7
 10
-67.678932188000033
 20
-216.40487732400001
 30
0.0
  0
VERTEX
  5
1014
  8
DATA
  6
CONTINUOUS
 62
     7
 10
-67.678932188000033
 20
-216.40487732400001
 30
0.0
  0
VERTEX
  5
1015
  8
DATA
  6
CONTINUOUS
 62
     7
 10
-67.678932188001667
 20
-216.4048773239989
 30
0.0
 42
0.0201331389999141
  0
VERTEX
  5
1016
  8
DATA
  6
CONTINUOUS
 62
     7
 10
-68.322123902999891
 20
-215.98812512000009
 30
0.0
  0
VERTEX
  5
1017
  8
DATA
  6
CONTINUOUS
 62
     7
 10
-68.322123902999891
 20
-215.98812512000009
 30
0.0
  0
VERTEX
  5
1018
  8
DATA
  6
CONTINUOUS
 62
     7
 10
-68.322123903000161
 20
-215.98812511999989
 30
0.0
 42
0.0190615839999642
  0
VERTEX
  5
1019
  8
DATA
  6
CONTINUOUS
 62
     7
 10
-69.014235637000141
 20
-215.61259767000001
 30
0.0
  0
VERTEX
  5
101A
  8
DATA
  6
CONTINUOUS
 62
     7
 10
-69.014235637000141
 20
-215.61259767000001
 30
0.0
  0
VERTEX
  5
101B
  8
DATA
  6
CONTINUOUS
 62
     7
 10
-69.014235636999615
 20
-215.6125976700003
 30
0.0
 42
0.0181367479998925
  0
VERTEX
  5
101C
  8
DATA
  6
CONTINUOUS
 62
     7
 10
-69.749999999999957
 20
-215.28115296700011
 30
0.0
  0
VERTEX
  5
101D
  8
DATA
  6
CONTINUOUS
 62
     7
 10
-69.749999999999957
 20
-215.28115296700011
 30
0.0
  0
VERTEX
  5
101E
  8
DATA
  6
CONTINUOUS
 62
     7
 10
-69.750000000000568
 20
-215.2811529669998
 30
0.0
 42
0.0173570479999615
  0
VERTEX
  5
101F
  8
DATA
  6
CONTINUOUS
 62
     7
 10
-70.523817383000235
 20
-214.99631350300001
 30
0.0
  0
VERTEX
  5
1020
  8
DATA
  6
CONTINUOUS
 62
     7
 10
-70.523817383000235
 20
-214.99631350300001
 30
0.0
  0
VERTEX
  5
1021
  8
DATA
  6
CONTINUOUS
 62
     7
 10
-70.523817383000235
 20
-214.99631350300001
 30
0.0
 42
0.0167177380000523
  0
VERTEX
  5
1022
  8
DATA
  6
CONTINUOUS
 62
     7
 10
-71.329798567000068
 20
-214.76024708
 30
0.0
  0
VERTEX
  5
1023
  8
DATA
  6
CONTINUOUS
 62
     7
 10
-71.329798567000068
 20
-214.76024708
 30
0.0
  0
VERTEX
  5
1024
  8
DATA
  6
CONTINUOUS
 62
     7
 10
-71.329798566999855
 20
-214.76024708000011
 30
0.0
 42
0.0162128689998871
  0
VERTEX
  5
1025
  8
DATA
  6
CONTINUOUS
 62
     7
 10
-72.161809549000239
 20
-214.57475030500009
 30
0.0
  0
VERTEX
  5
1026
  8
DATA
  6
CONTINUOUS
 62
     7
 10
-72.161809549000239
 20
-214.57475030500009
 30
0.0
  0
VERTEX
  5
1027
  8
DATA
  6
CONTINUOUS
 62
     7
 10
-72.161809549000239
 20
-214.57475030500009
 30
0.0
 42
0.0158365750000393
  0
VERTEX
  5
1028
  8
DATA
  6
CONTINUOUS
 62
     7
 10
-73.013518224000066
 20
-214.44123492099999
 30
0.0
  0
VERTEX
  5
1029
  8
DATA
  6
CONTINUOUS
 62
     7
 10
-73.013518224000066
 20
-214.44123492099999
 30
0.0
  0
VERTEX
  5
102A
  8
DATA
  6
CONTINUOUS
 62
     7
 10
-73.013518224000066
 20
-214.44123492099999
 30
0.0
 42
0.0155838790000021
  0
VERTEX
  5
102B
  8
DATA
  6
CONTINUOUS
 62
     7
 10
-73.878442572999987
 20
-214.3607170600001
 30
0.0
  0
VERTEX
  5
102C
  8
DATA
  6
CONTINUOUS
 62
     7
 10
-73.878442572999987
 20
-214.3607170600001
 30
0.0
  0
VERTEX
  5
102D
  8
DATA
  6
CONTINUOUS
 62
     7
 10
-73.878442572999987
 20
-214.3607170600001
 30
0.0
 42
0.0154511700000253
  0
VERTEX
  5
102E
  8
DATA
  6
CONTINUOUS
 62
     7
 10
-74.749999999999957
 20
-214.33380951199999
 30
0.0
  0
VERTEX
  5
102F
  8
DATA
  6
CONTINUOUS
 62
     7
 10
-74.749999999999957
 20
-214.33380951199999
 30
0.0
  0
VERTEX
  5
1030
  8
DATA
  6
CONTINUOUS
 62
     7
 10
-74.750000000001933
 20
-214.33380951199999
 30
0.0
 42
0.0154364709999534
  0
VERTEX
  5
1031
  8
DATA
  6
CONTINUOUS
 62
     7
 10
-75.621557427999903
 20
-214.3607170600001
 30
0.0
  0
VERTEX
  5
1032
  8
DATA
  6
CONTINUOUS
 62
     7
 10
-75.621557427999903
 20
-214.3607170600001
 30
0.0
  0
VERTEX
  5
1033
  8
DATA
  6
CONTINUOUS
 62
     7
 10
-75.621557427999903
 20
-214.3607170600001
 30
0.0
 42
0.015539560000055
  0
VERTEX
  5
1034
  8
DATA
  6
CONTINUOUS
 62
     7
 10
-76.486481777000293
 20
-214.44123492099999
 30
0.0
  0
VERTEX
  5
1035
  8
DATA
  6
CONTINUOUS
 62
     7
 10
-76.486481777000293
 20
-214.44123492099999
 30
0.0
  0
VERTEX
  5
1036
  8
DATA
  6
CONTINUOUS
 62
     7
 10
-76.486481777002197
 20
-214.4412349210003
 30
0.0
 42
0.0157619809999278
  0
VERTEX
  5
1037
  8
DATA
  6
CONTINUOUS
 62
     7
 10
-77.338190451000131
 20
-214.57475030500009
 30
0.0
  0
VERTEX
  5
1038
  8
DATA
  6
CONTINUOUS
 62
     7
 10
-77.338190451000131
 20
-214.57475030500009
 30
0.0
  0
VERTEX
  5
1039
  8
DATA
  6
CONTINUOUS
 62
     7
 10
-77.338190451000642
 20
-214.57475030500021
 30
0.0
 42
0.0161069559999918
  0
VERTEX
  5
103A
  8
DATA
  6
CONTINUOUS
 62
     7
 10
-78.170201434000262
 20
-214.76024708
 30
0.0
  0
VERTEX
  5
103B
  8
DATA
  6
CONTINUOUS
 62
     7
 10
-78.170201434000262
 20
-214.76024708
 30
0.0
  0
VERTEX
  5
103C
  8
DATA
  6
CONTINUOUS
 62
     7
 10
-78.170201434001811
 20
-214.7602470800004
 30
0.0
 42
0.0165791549999448
  0
VERTEX
  5
103D
  8
DATA
  6
CONTINUOUS
 62
     7
 10
-78.976182618000124
 20
-214.99631350300001
 30
0.0
  0
VERTEX
  5
103E
  8
DATA
  6
CONTINUOUS
 62
     7
 10
-78.976182618000124
 20
-214.99631350300001
 30
0.0
  0
VERTEX
  5
103F
  8
DATA
  6
CONTINUOUS
 62
     7
 10
-78.976182618000124
 20
-214.99631350300001
 30
0.0
 42
0.0171842830000075
  0
VERTEX
  5
1040
  8
DATA
  6
CONTINUOUS
 62
     7
 10
-79.749999999999957
 20
-215.28115296700011
 30
0.0
  0
VERTEX
  5
1041
  8
DATA
  6
CONTINUOUS
 62
     7
 10
-79.749999999999957
 20
-215.28115296700011
 30
0.0
  0
VERTEX
  5
1042
  8
DATA
  6
CONTINUOUS
 62
     7
 10
-79.749999999999957
 20
-215.28115296700011
 30
0.0
 42
0.0179283660000221
  0
VERTEX
  5
1043
  8
DATA
  6
CONTINUOUS
 62
     7
 10
-80.485764364000218
 20
-215.61259767000001
 30
0.0
  0
VERTEX
  5
1044
  8
DATA
  6
CONTINUOUS
 62
     7
 10
-80.485764364000218
 20
-215.61259767000001
 30
0.0
  0
VERTEX
  5
1045
  8
DATA
  6
CONTINUOUS
 62
     7
 10
-80.485764364000218
 20
-215.61259767000001
 30
0.0
 42
0.0188166049999992
  0
VERTEX
  5
1046
  8
DATA
  6
CONTINUOUS
 62
     7
 10
-81.177876097000023
 20
-215.98812512000009
 30
0.0
  0
VERTEX
  5
1047
  8
DATA
  6
CONTINUOUS
 62
     7
 10
-81.177876097000023
 20
-215.98812512000009
 30
0.0
  0
VERTEX
  5
1048
  8
DATA
  6
CONTINUOUS
 62
     7
 10
-81.177876097002198
 20
-215.9881251200014
 30
0.0
 42
0.0198516009999307
  0
VERTEX
  5
1049
  8
DATA
  6
CONTINUOUS
 62
     7
 10
-81.821067812000308
 20
-216.40487732400001
 30
0.0
  0
VERTEX
  5
104A
  8
DATA
  6
CONTINUOUS
 62
     7
 10
-81.821067812000308
 20
-216.40487732400001
 30
0.0
  0
VERTEX
  5
104B
  8
DATA
  6
CONTINUOUS
 62
     7
 10
-81.821067812000308
 20
-216.40487732400001
 30
0.0
 42
0.0210307680000849
  0
VERTEX
  5
104C
  8
DATA
  6
CONTINUOUS
 62
     7
 10
-82.41044443100003
 20
-216.85968254700001
 30
0.0
  0
VERTEX
  5
104D
  8
DATA
  6
CONTINUOUS
 62
     7
 10
-82.41044443100003
 20
-216.85968254700001
 30
0.0
  0
VERTEX
  5
104E
  8
DATA
  6
CONTINUOUS
 62
     7
 10
-82.410444431001181
 20
-216.859682547001
 30
0.0
 42
0.0223427749998918
  0
VERTEX
  5
104F
  8
DATA
  6
CONTINUOUS
 62
     7
 10
-82.941520443000115
 20
-217.34907944700001
 30
0.0
  0
VERTEX
  5
1050
  8
DATA
  6
CONTINUOUS
 62
     7
 10
-82.941520443000115
 20
-217.34907944700001
 30
0.0
  0
VERTEX
  5
1051
  8
DATA
  6
CONTINUOUS
 62
     7
 10
-82.941520443000826
 20
-217.34907944700069
 30
0.0
 42
0.0237630949999501
  0
VERTEX
  5
1052
  8
DATA
  6
CONTINUOUS
 62
     7
 10
-83.410254037999906
 20
-217.86934341800011
 30
0.0
  0
VERTEX
  5
1053
  8
DATA
  6
CONTINUOUS
 62
     7
 10
-83.410254037999906
 20
-217.86934341800011
 30
0.0
  0
VERTEX
  5
1054
  8
DATA
  6
CONTINUOUS
 62
     7
 10
-83.410254037999906
 20
-217.86934341800011
 30
0.0
 42
0.0252491760001257
  0
VERTEX
  5
1055
  8
DATA
  6
CONTINUOUS
 62
     7
 10
-83.81307787100009
 20
-218.4165149370001
 30
0.0
  0
VERTEX
  5
1056
  8
DATA
  6
CONTINUOUS
 62
     7
 10
-83.81307787100009
 20
-218.4165149370001
 30
0.0
  0
VERTEX
  5
1057
  8
DATA
  6
CONTINUOUS
 62
     7
 10
-83.81307787100009
 20
-218.4165149370001
 30
0.0
 42
0.0267365170003281
  0
VERTEX
  5
1058
  8
DATA
  6
CONTINUOUS
 62
     7
 10
-84.146926207999925
 20
-218.98642969700009
 30
0.0
  0
VERTEX
  5
1059
  8
DATA
  6
CONTINUOUS
 62
     7
 10
-84.146926207999925
 20
-218.98642969700009
 30
0.0
  0
VERTEX
  5
105A
  8
DATA
  6
CONTINUOUS
 62
     7
 10
-84.146926208000096
 20
-218.9864296970004
 30
0.0
 42
0.0281378349999488
  0
VERTEX
  5
105B
  8
DATA
  6
CONTINUOUS
 62
     7
 10
-84.409258263000027
 20
-219.57475030500009
 30
0.0
  0
VERTEX
  5
105C
  8
DATA
  6
CONTINUOUS
 62
     7
 10
-84.409258263000027
 20
-219.57475030500009
 30
0.0
  0
VERTEX
  5
105D
  8
DATA
  6
CONTINUOUS
 62
     7
 10
-84.409258263000623
 20
-219.5747503050016
 30
0.0
 42
0.0293480879997986
  0
VERTEX
  5
105E
  8
DATA
  6
CONTINUOUS
 62
     7
 10
-84.598077529999898
 20
-220.17699928400009
 30
0.0
  0
VERTEX
  5
105F
  8
DATA
  6
CONTINUOUS
 62
     7
 10
-84.598077529999898
 20
-220.17699928400009
 30
0.0
  0
VERTEX
  5
1060
  8
DATA
  6
CONTINUOUS
 62
     7
 10
-84.598077529999898
 20
-220.17699928400009
 30
0.0
 42
0.0302573150005783
  0
VERTEX
  5
1061
  8
DATA
  6
CONTINUOUS
 62
     7
 10
-84.71194698099994
 20
-220.78859315700001
 30
0.0
  0
VERTEX
  5
1062
  8
DATA
  6
CONTINUOUS
 62
     7
 10
-84.71194698099994
 20
-220.78859315700001
 30
0.0
  0
VERTEX
  5
1063
  8
DATA
  6
CONTINUOUS
 62
     7
 10
-84.711946980999969
 20
-220.78859315700061
 30
0.0
 42
0.0307704459999623
  0
VERTEX
  5
1064
  8
DATA
  6
CONTINUOUS
 62
     7
 10
-84.749999999999957
 20
-221.40487732400001
 30
0.0
  0
VERTEX
  5
1065
  8
DATA
  6
CONTINUOUS
 62
     7
 10
-84.749999999999957
 20
-221.40487732400001
 30
0.0
  0
VERTEX
  5
1066
  8
DATA
  6
CONTINUOUS
 62
     7
 10
-84.749999999999957
 20
-221.40487732400001
 30
0.0
 42
0.0308289070004199
  0
VERTEX
  5
1067
  8
DATA
  6
CONTINUOUS
 62
     7
 10
-84.71194698099994
 20
-222.02116149099999
 30
0.0
  0
VERTEX
  5
1068
  8
DATA
  6
CONTINUOUS
 62
     7
 10
-84.71194698099994
 20
-222.02116149099999
 30
0.0
  0
VERTEX
  5
1069
  8
DATA
  6
CONTINUOUS
 62
     7
 10
-84.71194698099994
 20
-222.02116149099999
 30
0.0
 42
0.0304257970000709
  0
VERTEX
  5
106A
  8
DATA
  6
CONTINUOUS
 62
     7
 10
-84.598077529999898
 20
-222.63275536399999
 30
0.0
  0
VERTEX
  5
106B
  8
DATA
  6
CONTINUOUS
 62
     7
 10
-84.598077529999898
 20
-222.63275536399999
 30
0.0
  0
VERTEX
  5
106C
  8
DATA
  6
CONTINUOUS
 62
     7
 10
-84.598077529999898
 20
-222.63275536399999
 30
0.0
 42
0.0296077560001653
  0
VERTEX
  5
106D
  8
DATA
  6
CONTINUOUS
 62
     7
 10
-84.409258263000027
 20
-223.23500434300001
 30
0.0
  0
VERTEX
  5
106E
  8
DATA
  6
CONTINUOUS
 62
     7
 10
-84.409258263000027
 20
-223.23500434300001
 30
0.0
  0
VERTEX
  5
106F
  8
DATA
  6
CONTINUOUS
 62
     7
 10
-84.409258262999955
 20
-223.23500434300021
 30
0.0
 42
0.0284626549999935
  0
VERTEX
  5
1070
  8
DATA
  6
CONTINUOUS
 62
     7
 10
-84.146926207999925
 20
-223.82332495
 30
0.0
  0
VERTEX
  5
1071
  8
DATA
  6
CONTINUOUS
 62
     7
 10
-84.146926207999925
 20
-223.82332495
 30
0.0
  0
VERTEX
  5
1072
  8
DATA
  6
CONTINUOUS
 62
     7
 10
-84.146926207999158
 20
-223.82332495000151
 30
0.0
 42
0.0270987799998398
  0
VERTEX
  5
1073
  8
DATA
  6
CONTINUOUS
 62
     7
 10
-83.81307787100009
 20
-224.39323971100009
 30
0.0
  0
VERTEX
  5
1074
  8
DATA
  6
CONTINUOUS
 62
     7
 10
-83.81307787100009
 20
-224.39323971100009
 30
0.0
  0
VERTEX
  5
1075
  8
DATA
  6
CONTINUOUS
 62
     7
 10
-83.813077870999791
 20
-224.3932397110006
 30
0.0
 42
0.0256239269999842
  0
VERTEX
  5
1076
  8
DATA
  6
CONTINUOUS
 62
     7
 10
-83.410254037999906
 20
-224.94041123
 30
0.0
  0
VERTEX
  5
1077
  8
DATA
  6
CONTINUOUS
 62
     7
 10
-83.410254037999906
 20
-224.94041123
 30
0.0
  0
VERTEX
  5
1078
  8
DATA
  6
CONTINUOUS
 62
     7
 10
-83.410254037999906
 20
-224.94041123
 30
0.0
 42
0.0241305730001453
  0
VERTEX
  5
1079
  8
DATA
  6
CONTINUOUS
 62
     7
 10
-82.941520443000115
 20
-225.4606752010001
 30
0.0
  0
VERTEX
  5
107A
  8
DATA
  6
CONTINUOUS
 62
     7
 10
-82.941520443000115
 20
-225.4606752010001
 30
0.0
  0
VERTEX
  5
107B
  8
DATA
  6
CONTINUOUS
 62
     7
 10
-82.941520443000115
 20
-225.4606752010001
 30
0.0
 42
0.0226890190000076
  0
VERTEX
  5
107C
  8
DATA
  6
CONTINUOUS
 62
     7
 10
-82.41044443100003
 20
-225.95007210099999
 30
0.0
  0
VERTEX
  5
107D
  8
DATA
  6
CONTINUOUS
 62
     7
 10
-82.41044443100003
 20
-225.95007210099999
 30
0.0
  0
VERTEX
  5
107E
  8
DATA
  6
CONTINUOUS
 62
     7
 10
-82.41044443100003
 20
-225.95007210099999
 30
0.0
 42
0.021347012000004
  0
VERTEX
  5
107F
  8
DATA
  6
CONTINUOUS
 62
     7
 10
-81.821067812000308
 20
-226.40487732400001
 30
0.0
  0
VERTEX
  5
1080
  8
DATA
  6
CONTINUOUS
 62
     7
 10
-81.821067812000308
 20
-226.40487732400001
 30
0.0
  0
VERTEX
  5
1081
  8
DATA
  6
CONTINUOUS
 62
     7
 10
-81.821067812000308
 20
-226.40487732400001
 30
0.0
 42
0.0201331390000785
  0
VERTEX
  5
1082
  8
DATA
  6
CONTINUOUS
 62
     7
 10
-81.177876097000023
 20
-226.82162952799999
 30
0.0
  0
VERTEX
  5
1083
  8
DATA
  6
CONTINUOUS
 62
     7
 10
-81.177876097000023
 20
-226.82162952799999
 30
0.0
  0
VERTEX
  5
1084
  8
DATA
  6
CONTINUOUS
 62
     7
 10
-81.177876096999327
 20
-226.82162952800039
 30
0.0
 42
0.0190615839999963
  0
VERTEX
  5
1085
  8
DATA
  6
CONTINUOUS
 62
     7
 10
-80.485764364000218
 20
-227.19715697700011
 30
0.0
  0
VERTEX
  5
1086
  8
DATA
  6
CONTINUOUS
 62
     7
 10
-80.485764364000218
 20
-227.19715697700011
 30
0.0
  0
VERTEX
  5
1087
  8
DATA
  6
CONTINUOUS
 62
     7
 10
-80.485764364000218
 20
-227.19715697700011
 30
0.0
 42
0.0181367480000139
  0
VERTEX
  5
1088
  8
DATA
  6
CONTINUOUS
 62
     7
 10
-79.749999999999957
 20
-227.528601681
 30
0.0
  0
VERTEX
  5
1089
  8
DATA
  6
CONTINUOUS
 62
     7
 10
-79.749999999999957
 20
-227.528601681
 30
0.0
  0
VERTEX
  5
108A
  8
DATA
  6
CONTINUOUS
 62
     7
 10
-79.749999999999645
 20
-227.52860168100011
 30
0.0
 42
0.0173570479999663
  0
VERTEX
  5
108B
  8
DATA
  6
CONTINUOUS
 62
     7
 10
-78.976182618000124
 20
-227.81344114400011
 30
0.0
  0
VERTEX
  5
108C
  8
DATA
  6
CONTINUOUS
 62
     7
 10
-78.976182618000124
 20
-227.81344114400011
 30
0.0
  0
VERTEX
  5
108D
  8
DATA
  6
CONTINUOUS
 62
     7
 10
-78.976182617997623
 20
-227.8134411440009
 30
0.0
 42
0.0167177379999629
  0
VERTEX
  5
108E
  8
DATA
  6
CONTINUOUS
 62
     7
 10
-78.170201434000262
 20
-228.04950756800011
 30
0.0
  0
VERTEX
  5
108F
  8
DATA
  6
CONTINUOUS
 62
     7
 10
-78.170201434000262
 20
-228.04950756800011
 30
0.0
  0
VERTEX
  5
1090
  8
DATA
  6
CONTINUOUS
 62
     7
 10
-78.170201433998031
 20
-228.04950756800059
 30
0.0
 42
0.0162128689999548
  0
VERTEX
  5
1091
  8
DATA
  6
CONTINUOUS
 62
     7
 10
-77.338190451000131
 20
-228.23500434300001
 30
0.0
  0
VERTEX
  5
1092
  8
DATA
  6
CONTINUOUS
 62
     7
 10
-77.338190451000131
 20
-228.23500434300001
 30
0.0
  0
VERTEX
  5
1093
  8
DATA
  6
CONTINUOUS
 62
     7
 10
-77.338190451000131
 20
-228.23500434300001
 30
0.0
 42
0.0158365750000327
  0
VERTEX
  5
1094
  8
DATA
  6
CONTINUOUS
 62
     7
 10
-76.486481777000293
 20
-228.36851972700001
 30
0.0
  0
VERTEX
  5
1095
  8
DATA
  6
CONTINUOUS
 62
     7
 10
-76.486481777000293
 20
-228.36851972700001
 30
0.0
  0
VERTEX
  5
1096
  8
DATA
  6
CONTINUOUS
 62
     7
 10
-76.48648177699944
 20
-228.36851972700009
 30
0.0
 42
0.0155838789999607
  0
VERTEX
  5
1097
  8
DATA
  6
CONTINUOUS
 62
     7
 10
-75.621557427999903
 20
-228.44903758800001
 30
0.0
  0
VERTEX
  5
1098
  8
DATA
  6
CONTINUOUS
 62
     7
 10
-75.621557427999903
 20
-228.44903758800001
 30
0.0
  0
VERTEX
  5
1099
  8
DATA
  6
CONTINUOUS
 62
     7
 10
-75.621557427999903
 20
-228.44903758800001
 30
0.0
 42
0.0154511700000478
  0
VERTEX
  5
109A
  8
DATA
  6
CONTINUOUS
 62
     7
 10
-74.749999999999957
 20
-228.47594513600009
 30
0.0
  0
VERTEX
  5
109B
  8
DATA
  6
CONTINUOUS
 62
     7
 10
-74.749999999999957
 20
-228.47594513600009
 30
0.0
  0
VERTEX
  5
109C
  8
DATA
  6
CONTINUOUS
 62
     7
 10
-74.749999999999957
 20
-228.47594513600009
 30
0.0
 42
0.0154364710000506
  0
VERTEX
  5
109D
  8
DATA
  6
CONTINUOUS
 62
     7
 10
-73.878442572999987
 20
-228.44903758800001
 30
0.0
  0
VERTEX
  5
109E
  8
DATA
  6
CONTINUOUS
 62
     7
 10
-73.878442572999987
 20
-228.44903758800001
 30
0.0
  0
VERTEX
  5
109F
  8
DATA
  6
CONTINUOUS
 62
     7
 10
-73.878442572999987
 20
-228.44903758800001
 30
0.0
 42
0.0155395600000805
  0
VERTEX
  5
10A0
  8
DATA
  6
CONTINUOUS
 62
     7
 10
-73.013518224000066
 20
-228.36851972700001
 30
0.0
  0
VERTEX
  5
10A1
  8
DATA
  6
CONTINUOUS
 62
     7
 10
-73.013518224000066
 20
-228.36851972700001
 30
0.0
  0
VERTEX
  5
10A2
  8
DATA
  6
CONTINUOUS
 62
     7
 10
-73.013518224000066
 20
-228.36851972700001
 30
0.0
 42
0.0157619810000168
  0
VERTEX
  5
10A3
  8
DATA
  6
CONTINUOUS
 62
     7
 10
-72.161809549000239
 20
-228.23500434300001
 30
0.0
  0
VERTEX
  5
10A4
  8
DATA
  6
CONTINUOUS
 62
     7
 10
-72.161809549000239
 20
-228.23500434300001
 30
0.0
  0
VERTEX
  5
10A5
  8
DATA
  6
CONTINUOUS
 62
     7
 10
-72.161809548999514
 20
-228.23500434299979
 30
0.0
 42
0.0161069560000267
  0
VERTEX
  5
10A6
  8
DATA
  6
CONTINUOUS
 62
     7
 10
-71.329798567000068
 20
-228.04950756800011
 30
0.0
  0
VERTEX
  5
10A7
  8
DATA
  6
CONTINUOUS
 62
     7
 10
-71.329798567000068
 20
-228.04950756800011
 30
0.0
  0
VERTEX
  5
10A8
  8
DATA
  6
CONTINUOUS
 62
     7
 10
-71.329798567000068
 20
-228.04950756800011
 30
0.0
 42
0.0165791550000059
  0
VERTEX
  5
10A9
  8
DATA
  6
CONTINUOUS
 62
     7
 10
-70.523817383000235
 20
-227.81344114400011
 30
0.0
  0
VERTEX
  5
10AA
  8
DATA
  6
CONTINUOUS
 62
     7
 10
-70.523817383000235
 20
-227.81344114400011
 30
0.0
  0
VERTEX
  5
10AB
  8
DATA
  6
CONTINUOUS
 62
     7
 10
-70.523817382999155
 20
-227.81344114399971
 30
0.0
 42
0.0171842829999266
  0
VERTEX
  5
10AC
  8
DATA
  6
CONTINUOUS
 62
     7
 10
-69.749999999999957
 20
-227.528601681
 30
0.0
  0
VERTEX
  5
10AD
  8
DATA
  6
CONTINUOUS
 62
     7
 10
-69.749999999999957
 20
-227.528601681
 30
0.0
  0
VERTEX
  5
10AE
  8
DATA
  6
CONTINUOUS
 62
     7
 10
-69.749999999999957
 20
-227.528601681
 30
0.0
 42
0.0179283660000341
  0
VERTEX
  5
10AF
  8
DATA
  6
CONTINUOUS
 62
     7
 10
-69.014235637000141
 20
-227.19715697700011
 30
0.0
  0
VERTEX
  5
10B0
  8
DATA
  6
CONTINUOUS
 62
     7
 10
-69.014235637000141
 20
-227.19715697700011
 30
0.0
  0
VERTEX
  5
10B1
  8
DATA
  6
CONTINUOUS
 62
     7
 10
-69.014235636998322
 20
-227.1971569769992
 30
0.0
 42
0.0188166049998574
  0
VERTEX
  5
10B2
  8
DATA
  6
CONTINUOUS
 62
     7
 10
-68.322123902999891
 20
-226.82162952799999
 30
0.0
  0
VERTEX
  5
10B3
  8
DATA
  6
CONTINUOUS
 62
     7
 10
-68.322123902999891
 20
-226.82162952799999
 30
0.0
  0
VERTEX
  5
10B4
  8
DATA
  6
CONTINUOUS
 62
     7
 10
-68.322123902999891
 20
-226.82162952799999
 30
0.0
 42
0.0198516010000683
  0
VERTEX
  5
10B5
  8
DATA
  6
CONTINUOUS
 62
     7
 10
-67.678932188000033
 20
-226.40487732400001
 30
0.0
  0
VERTEX
  5
10B6
  8
DATA
  6
CONTINUOUS
 62
     7
 10
-67.678932188000033
 20
-226.40487732400001
 30
0.0
  0
VERTEX
  5
10B7
  8
DATA
  6
CONTINUOUS
 62
     7
 10
-67.678932187998825
 20
-226.40487732399919
 30
0.0
 42
0.0210307679999028
  0
VERTEX
  5
10B8
  8
DATA
  6
CONTINUOUS
 62
     7
 10
-67.089555568999856
 20
-225.95007210099999
 30
0.0
  0
VERTEX
  5
10B9
  8
DATA
  6
CONTINUOUS
 62
     7
 10
-67.089555568999856
 20
-225.95007210099999
 30
0.0
  0
VERTEX
  5
10BA
  8
DATA
  6
CONTINUOUS
 62
     7
 10
-67.089555568999856
 20
-225.95007210099999
 30
0.0
 42
0.0223427750001015
  0
VERTEX
  5
10BB
  8
DATA
  6
CONTINUOUS
 62
     7
 10
-66.55847955700024
 20
-225.4606752010001
 30
0.0
  0
VERTEX
  5
10BC
  8
DATA
  6
CONTINUOUS
 62
     7
 10
-66.55847955700024
 20
-225.4606752010001
 30
0.0
  0
VERTEX
  5
10BD
  8
DATA
  6
CONTINUOUS
 62
     7
 10
-66.55847955700024
 20
-225.4606752010001
 30
0.0
 42
0.023763095000277
  0
VERTEX
  5
10BE
  8
DATA
  6
CONTINUOUS
 62
     7
 10
-66.089745962000009
 20
-224.94041123
 30
0.0
  0
VERTEX
  5
10BF
  8
DATA
  6
CONTINUOUS
 62
     7
 10
-66.089745962000009
 20
-224.94041123
 30
0.0
  0
VERTEX
  5
10C0
  8
DATA
  6
CONTINUOUS
 62
     7
 10
-66.089745962000009
 20
-224.94041123
 30
0.0
 42
0.02524917600011
  0
VERTEX
  5
10C1
  8
DATA
  6
CONTINUOUS
 62
     7
 10
-65.686922130000255
 20
-224.39323971100009
 30
0.0
  0
VERTEX
  5
10C2
  8
DATA
  6
CONTINUOUS
 62
     7
 10
-65.686922130000255
 20
-224.39323971100009
 30
0.0
  0
VERTEX
  5
10C3
  8
DATA
  6
CONTINUOUS
 62
     7
 10
-65.686922129998337
 20
-224.39323971099719
 30
0.0
 42
0.0267365169997623
  0
VERTEX
  5
10C4
  8
DATA
  6
CONTINUOUS
 62
     7
 10
-65.353073791999975
 20
-223.82332495
 30
0.0
  0
VERTEX
  5
10C5
  8
DATA
  6
CONTINUOUS
 62
     7
 10
-65.353073791999975
 20
-223.82332495
 30
0.0
  0
VERTEX
  5
10C6
  8
DATA
  6
CONTINUOUS
 62
     7
 10
-65.353073791999975
 20
-223.82332495
 30
0.0
 42
0.0281378350002449
  0
VERTEX
  5
10C7
  8
DATA
  6
CONTINUOUS
 62
     7
 10
-65.090741737000329
 20
-223.23500434300001
 30
0.0
  0
VERTEX
  5
10C8
  8
DATA
  6
CONTINUOUS
 62
     7
 10
-65.090741737000329
 20
-223.23500434300001
 30
0.0
  0
VERTEX
  5
10C9
  8
DATA
  6
CONTINUOUS
 62
     7
 10
-65.090741737000329
 20
-223.23500434300001
 30
0.0
 42
0.0293480880001048
  0
VERTEX
  5
10CA
  8
DATA
  6
CONTINUOUS
 62
     7
 10
-64.901922470000002
 20
-222.63275536399999
 30
0.0
  0
VERTEX
  5
10CB
  8
DATA
  6
CONTINUOUS
 62
     7
 10
-64.901922470000002
 20
-222.63275536399999
 30
0.0
  0
VERTEX
  5
10CC
  8
DATA
  6
CONTINUOUS
 62
     7
 10
-64.901922469999661
 20
-222.63275536399871
 30
0.0
 42
0.0302573149998491
  0
VERTEX
  5
10CD
  8
DATA
  6
CONTINUOUS
 62
     7
 10
-64.788053018999975
 20
-222.02116149099999
 30
0.0
  0
VERTEX
  5
10CE
  8
DATA
  6
CONTINUOUS
 62
     7
 10
-64.788053018999975
 20
-222.02116149099999
 30
0.0
  0
VERTEX
  5
10CF
  8
DATA
  6
CONTINUOUS
 62
     7
 10
-64.788053018999918
 20
-222.0211614909997
 30
0.0
 42
0.0307704459999465
  0
VERTEX
  5
10D0
  8
DATA
  6
CONTINUOUS
 62
     7
 10
-64.749999999999957
 20
-221.40487732400001
 30
0.0
  0
SEQEND
  5
10D1
  8
DATA
  6
CONTINUOUS
 62
     7
  0
POLYLINE
  5
8E4
  8
DATA
  6
CONTINUOUS
 62
     7
 66
     1
 10
0.0
 20
0.0
 30
0.0
 70
   128
  0
VERTEX
  5
10D2
  8
DATA
  6
CONTINUOUS
 62
     7
 10
-84.621170143999095
 20
-220.27350647400451
 30
0.0
 42
0.0300536239995917
  0
VERTEX
  5
10D3
  8
DATA
  6
CONTINUOUS
 62
     7
 10
-84.442031278000215
 20
-220.88347558300009
 30
0.0
  0
VERTEX
  5
10D4
  8
DATA
  6
CONTINUOUS
 62
     7
 10
-84.442031278000215
 20
-220.88347558300009
 30
0.0
  0
VERTEX
  5
10D5
  8
DATA
  6
CONTINUOUS
 62
     7
 10
-84.442031277999348
 20
-220.88347558300251
 30
0.0
 42
0.0289290129997054
  0
VERTEX
  5
10D6
  8
DATA
  6
CONTINUOUS
 62
     7
 10
-84.187661376999998
 20
-221.47992814400001
 30
0.0
  0
VERTEX
  5
10D7
  8
DATA
  6
CONTINUOUS
 62
     7
 10
-84.187661376999998
 20
-221.47992814400001
 30
0.0
  0
VERTEX
  5
10D8
  8
DATA
  6
CONTINUOUS
 62
     7
 10
-84.187661376998435
 20
-221.4799281440032
 30
0.0
 42
0.0275624569996666
  0
VERTEX
  5
10D9
  8
DATA
  6
CONTINUOUS
 62
     7
 10
-83.860034899000254
 20
-222.05823440000009
 30
0.0
  0
VERTEX
  5
10DA
  8
DATA
  6
CONTINUOUS
 62
     7
 10
-83.860034899000254
 20
-222.05823440000009
 30
0.0
  0
VERTEX
  5
10DB
  8
DATA
  6
CONTINUOUS
 62
     7
 10
-83.860034898999572
 20
-222.05823440000111
 30
0.0
 42
0.0260672349999673
  0
VERTEX
  5
10DC
  8
DATA
  6
CONTINUOUS
 62
     7
 10
-83.461694931000196
 20
-222.6139054490001
 30
0.0
  0
VERTEX
  5
10DD
  8
DATA
  6
CONTINUOUS
 62
     7
 10
-83.461694931000196
 20
-222.6139054490001
 30
0.0
  0
VERTEX
  5
10DE
  8
DATA
  6
CONTINUOUS
 62
     7
 10
-83.461694930999855
 20
-222.6139054490005
 30
0.0
 42
0.0245421769998354
  0
VERTEX
  5
10DF
  8
DATA
  6
CONTINUOUS
 62
     7
 10
-82.995733447999967
 20
-223.14262808800001
 30
0.0
  0
VERTEX
  5
10E0
  8
DATA
  6
CONTINUOUS
 62
     7
 10
-82.995733447999967
 20
-223.14262808800001
 30
0.0
  0
VERTEX
  5
10E1
  8
DATA
  6
CONTINUOUS
 62
     7
 10
-82.995733447999967
 20
-223.14262808800001
 30
0.0
 42
0.023063314000137
  0
VERTEX
  5
10E2
  8
DATA
  6
CONTINUOUS
 62
     7
 10
-82.465767314999951
 20
-223.64029829
 30
0.0
  0
VERTEX
  5
10E3
  8
DATA
  6
CONTINUOUS
 62
     7
 10
-82.465767314999951
 20
-223.64029829
 30
0.0
  0
VERTEX
  5
10E4
  8
DATA
  6
CONTINUOUS
 62
     7
 10
-82.465767314999951
 20
-223.64029829
 30
0.0
 42
0.0216827840000603
  0
VERTEX
  5
10E5
  8
DATA
  6
CONTINUOUS
 62
     7
 10
-81.875910212000178
 20
-224.1030530620001
 30
0.0
  0
VERTEX
  5
10E6
  8
DATA
  6
CONTINUOUS
 62
     7
 10
-81.875910212000178
 20
-224.1030530620001
 30
0.0
  0
VERTEX
  5
10E7
  8
DATA
  6
CONTINUOUS
 62
     7
 10
-81.875910211998871
 20
-224.10305306200101
 30
0.0
 42
0.0204321239998098
  0
VERTEX
  5
10E8
  8
DATA
  6
CONTINUOUS
 62
     7
 10
-81.230740699000265
 20
-224.5273004310001
 30
0.0
  0
VERTEX
  5
10E9
  8
DATA
  6
CONTINUOUS
 62
     7
 10
-81.230740699000265
 20
-224.5273004310001
 30
0.0
  0
VERTEX
  5
10EA
  8
DATA
  6
CONTINUOUS
 62
     7
 10
-81.230740699000137
 20
-224.5273004310001
 30
0.0
 42
0.0193272499999706
  0
VERTEX
  5
10EB
  8
DATA
  6
CONTINUOUS
 62
     7
 10
-80.535266680999896
 20
-224.90974732399999
 30
0.0
  0
VERTEX
  5
10EC
  8
DATA
  6
CONTINUOUS
 62
     7
 10
-80.535266680999896
 20
-224.90974732399999
 30
0.0
  0
VERTEX
  5
10ED
  8
DATA
  6
CONTINUOUS
 62
     7
 10
-80.535266680999896
 20
-224.90974732399999
 30
0.0
 42
0.0183734080002091
  0
VERTEX
  5
10EE
  8
DATA
  6
CONTINUOUS
 62
     7
 10
-79.794886533999914
 20
-225.247425128
 30
0.0
  0
VERTEX
  5
10EF
  8
DATA
  6
CONTINUOUS
 62
     7
 10
-79.794886533999914
 20
-225.247425128
 30
0.0
  0
VERTEX
  5
10F0
  8
DATA
  6
CONTINUOUS
 62
     7
 10
-79.794886533999914
 20
-225.247425128
 30
0.0
 42
0.0175692910001944
  0
VERTEX
  5
10F1
  8
DATA
  6
CONTINUOUS
 62
     7
 10
-79.015347203000104
 20
-225.53771273800001
 30
0.0
  0
VERTEX
  5
10F2
  8
DATA
  6
CONTINUOUS
 62
     7
 10
-79.015347203000104
 20
-225.53771273800001
 30
0.0
  0
VERTEX
  5
10F3
  8
DATA
  6
CONTINUOUS
 62
     7
 10
-79.015347203000104
 20
-225.53771273800001
 30
0.0
 42
0.0169100990000643
  0
VERTEX
  5
10F4
  8
DATA
  6
CONTINUOUS
 62
     7
 10
-78.202699592000002
 20
-225.7783568960001
 30
0.0
  0
VERTEX
  5
10F5
  8
DATA
  6
CONTINUOUS
 62
     7
 10
-78.202699592000002
 20
-225.7783568960001
 30
0.0
  0
VERTEX
  5
10F6
  8
DATA
  6
CONTINUOUS
 62
     7
 10
-78.20269959199986
 20
-225.7783568960001
 30
0.0
 42
0.01638967600001
  0
VERTEX
  5
10F7
  8
DATA
  6
CONTINUOUS
 62
     7
 10
-77.363251596000239
 20
-225.96748968399999
 30
0.0
  0
VERTEX
  5
10F8
  8
DATA
  6
CONTINUOUS
 62
     7
 10
-77.363251596000239
 20
-225.96748968399999
 30
0.0
  0
VERTEX
  5
10F9
  8
DATA
  6
CONTINUOUS
 62
     7
 10
-77.363251595998022
 20
-225.9674896840005
 30
0.0
 42
0.0160018979998817
  0
VERTEX
  5
10FA
  8
DATA
  6
CONTINUOUS
 62
     7
 10
-76.503519140000151
 20
-226.1036430260001
 30
0.0
  0
VERTEX
  5
10FB
  8
DATA
  6
CONTINUOUS
 62
     7
 10
-76.503519140000151
 20
-226.1036430260001
 30
0.0
  0
VERTEX
  5
10FC
  8
DATA
  6
CONTINUOUS
 62
     7
 10
-76.503519139999284
 20
-226.10364302600021
 30
0.0
 42
0.01574154899997
  0
VERTEX
  5
10FD
  8
DATA
  6
CONTINUOUS
 62
     7
 10
-75.630175599000211
 20
-226.185760079
 30
0.0
  0
VERTEX
  5
10FE
  8
DATA
  6
CONTINUOUS
 62
     7
 10
-75.630175599000211
 20
-226.185760079
 30
0.0
  0
VERTEX
  5
10FF
  8
DATA
  6
CONTINUOUS
 62
     7
 10
-75.630175599000211
 20
-226.185760079
 30
0.0
 42
0.0156048429999931
  0
VERTEX
  5
1100
  8
DATA
  6
CONTINUOUS
 62
     7
 10
-74.749999999999957
 20
-226.2132034360001
 30
0.0
  0
VERTEX
  5
1101
  8
DATA
  6
CONTINUOUS
 62
     7
 10
-74.749999999999957
 20
-226.2132034360001
 30
0.0
  0
VERTEX
  5
1102
  8
DATA
  6
CONTINUOUS
 62
     7
 10
-74.750000000000242
 20
-226.2132034360001
 30
0.0
 42
0.0155897019999862
  0
VERTEX
  5
1103
  8
DATA
  6
CONTINUOUS
 62
     7
 10
-73.86982440100013
 20
-226.185760079
 30
0.0
  0
VERTEX
  5
1104
  8
DATA
  6
CONTINUOUS
 62
     7
 10
-73.86982440100013
 20
-226.185760079
 30
0.0
  0
VERTEX
  5
1105
  8
DATA
  6
CONTINUOUS
 62
     7
 10
-73.869824400999619
 20
-226.185760079
 30
0.0
 42
0.0156958929999824
  0
VERTEX
  5
1106
  8
DATA
  6
CONTINUOUS
 62
     7
 10
-72.99648086000019
 20
-226.1036430260001
 30
0.0
  0
VERTEX
  5
1107
  8
DATA
  6
CONTINUOUS
 62
     7
 10
-72.99648086000019
 20
-226.1036430260001
 30
0.0
  0
VERTEX
  5
1108
  8
DATA
  6
CONTINUOUS
 62
     7
 10
-72.996480859999195
 20
-226.10364302599999
 30
0.0
 42
0.0159250389999925
  0
VERTEX
  5
1109
  8
DATA
  6
CONTINUOUS
 62
     7
 10
-72.13674840400013
 20
-225.96748968399999
 30
0.0
  0
VERTEX
  5
110A
  8
DATA
  6
CONTINUOUS
 62
     7
 10
-72.13674840400013
 20
-225.96748968399999
 30
0.0
  0
VERTEX
  5
110B
  8
DATA
  6
CONTINUOUS
 62
     7
 10
-72.136748403998084
 20
-225.96748968399959
 30
0.0
 42
0.0162805199998645
  0
VERTEX
  5
110C
  8
DATA
  6
CONTINUOUS
 62
     7
 10
-71.297300408999916
 20
-225.7783568960001
 30
0.0
  0
VERTEX
  5
110D
  8
DATA
  6
CONTINUOUS
 62
     7
 10
-71.297300408999916
 20
-225.7783568960001
 30
0.0
  0
VERTEX
  5
110E
  8
DATA
  6
CONTINUOUS
 62
     7
 10
-71.297300408995454
 20
-225.778356895999
 30
0.0
 42
0.0167672319998911
  0
VERTEX
  5
110F
  8
DATA
  6
CONTINUOUS
 62
     7
 10
-70.484652797000265
 20
-225.53771273800001
 30
0.0
  0
VERTEX
  5
1110
  8
DATA
  6
CONTINUOUS
 62
     7
 10
-70.484652797000265
 20
-225.53771273800001
 30
0.0
  0
VERTEX
  5
1111
  8
DATA
  6
CONTINUOUS
 62
     7
 10
-70.484652797000265
 20
-225.53771273800001
 30
0.0
 42
0.0173911360000445
  0
VERTEX
  5
1112
  8
DATA
  6
CONTINUOUS
 62
     7
 10
-69.705113467000004
 20
-225.247425128
 30
0.0
  0
VERTEX
  5
1113
  8
DATA
  6
CONTINUOUS
 62
     7
 10
-69.705113467000004
 20
-225.247425128
 30
0.0
  0
VERTEX
  5
1114
  8
DATA
  6
CONTINUOUS
 62
     7
 10
-69.705113466997076
 20
-225.24742512799881
 30
0.0
 42
0.0181584889999073
  0
VERTEX
  5
1115
  8
DATA
  6
CONTINUOUS
 62
     7
 10
-68.964733320000008
 20
-224.90974732399999
 30
0.0
  0
VERTEX
  5
1116
  8
DATA
  6
CONTINUOUS
 62
     7
 10
-68.964733320000008
 20
-224.90974732399999
 30
0.0
  0
VERTEX
  5
1117
  8
DATA
  6
CONTINUOUS
 62
     7
 10
-68.964733319999723
 20
-224.90974732399991
 30
0.0
 42
0.0190745959999244
  0
VERTEX
  5
1118
  8
DATA
  6
CONTINUOUS
 62
     7
 10
-68.269259302000108
 20
-224.5273004310001
 30
0.0
  0
VERTEX
  5
1119
  8
DATA
  6
CONTINUOUS
 62
     7
 10
-68.269259302000108
 20
-224.5273004310001
 30
0.0
  0
VERTEX
  5
111A
  8
DATA
  6
CONTINUOUS
 62
     7
 10
-68.269259301996854
 20
-224.52730043099811
 30
0.0
 42
0.0201418859998172
  0
VERTEX
  5
111B
  8
DATA
  6
CONTINUOUS
 62
     7
 10
-67.624089789000166
 20
-224.1030530620001
 30
0.0
  0
VERTEX
  5
111C
  8
DATA
  6
CONTINUOUS
 62
     7
 10
-67.624089789000166
 20
-224.1030530620001
 30
0.0
  0
VERTEX
  5
111D
  8
DATA
  6
CONTINUOUS
 62
     7
 10
-67.624089788999711
 20
-224.1030530619997
 30
0.0
 42
0.0213570960000249
  0
VERTEX
  5
111E
  8
DATA
  6
CONTINUOUS
 62
     7
 10
-67.034232684999978
 20
-223.64029829
 30
0.0
  0
VERTEX
  5
111F
  8
DATA
  6
CONTINUOUS
 62
     7
 10
-67.034232684999978
 20
-223.64029829
 30
0.0
  0
VERTEX
  5
1120
  8
DATA
  6
CONTINUOUS
 62
     7
 10
-67.034232684998472
 20
-223.64029828999881
 30
0.0
 42
0.0227074139998175
  0
VERTEX
  5
1121
  8
DATA
  6
CONTINUOUS
 62
     7
 10
-66.504266552999937
 20
-223.14262808800001
 30
0.0
  0
VERTEX
  5
1122
  8
DATA
  6
CONTINUOUS
 62
     7
 10
-66.504266552999937
 20
-223.14262808800001
 30
0.0
  0
VERTEX
  5
1123
  8
DATA
  6
CONTINUOUS
 62
     7
 10
-66.504266552998203
 20
-223.1426280879983
 30
0.0
 42
0.0241656999997713
  0
VERTEX
  5
1124
  8
DATA
  6
CONTINUOUS
 62
     7
 10
-66.038305070000149
 20
-222.6139054490001
 30
0.0
  0
VERTEX
  5
1125
  8
DATA
  6
CONTINUOUS
 62
     7
 10
-66.038305070000149
 20
-222.6139054490001
 30
0.0
  0
VERTEX
  5
1126
  8
DATA
  6
CONTINUOUS
 62
     7
 10
-66.038305070000149
 20
-222.6139054490001
 30
0.0
 42
0.0256853780000704
  0
VERTEX
  5
1127
  8
DATA
  6
CONTINUOUS
 62
     7
 10
-65.639965101000101
 20
-222.05823440000009
 30
0.0
  0
VERTEX
  5
1128
  8
DATA
  6
CONTINUOUS
 62
     7
 10
-65.639965101000101
 20
-222.05823440000009
 30
0.0
  0
VERTEX
  5
1129
  8
DATA
  6
CONTINUOUS
 62
     7
 10
-65.639965101000101
 20
-222.05823440000009
 30
0.0
 42
0.0271965120001021
  0
VERTEX
  5
112A
  8
DATA
  6
CONTINUOUS
 62
     7
 10
-65.312338622999931
 20
-221.47992814400001
 30
0.0
  0
VERTEX
  5
112B
  8
DATA
  6
CONTINUOUS
 62
     7
 10
-65.312338622999931
 20
-221.47992814400001
 30
0.0
  0
VERTEX
  5
112C
  8
DATA
  6
CONTINUOUS
 62
     7
 10
-65.31233862299932
 20
-221.47992814399879
 30
0.0
 42
0.0286055139999314
  0
VERTEX
  5
112D
  8
DATA
  6
CONTINUOUS
 62
     7
 10
-65.057968722000126
 20
-220.88347558300009
 30
0.0
  0
VERTEX
  5
112E
  8
DATA
  6
CONTINUOUS
 62
     7
 10
-65.057968722000126
 20
-220.88347558300009
 30
0.0
  0
VERTEX
  5
112F
  8
DATA
  6
CONTINUOUS
 62
     7
 10
-65.057968722000126
 20
-220.88347558300009
 30
0.0
 42
0.0298014610002915
  0
VERTEX
  5
1130
  8
DATA
  6
CONTINUOUS
 62
     7
 10
-64.878829857000213
 20
-220.27350647399999
 30
0.0
  0
VERTEX
  5
1131
  8
DATA
  6
CONTINUOUS
 62
     7
 10
-64.878829857000213
 20
-220.27350647399999
 30
0.0
  0
SEQEND
  5
1132
  8
DATA
  6
CONTINUOUS
 62
     7
  0
ARC
  5
946
  8
DATA
  6
CONTINUOUS
 62
     7
 10
362.5
 20
424.45299705199989
 30
0.0
 40
10.0
 50
270.0
 51
0.0000299309999718
  0
LINE
  5
947
  8
DATA
  6
CONTINUOUS
 62
     7
 10
328.00000000000011
 20
450.00000999999997
 30
0.0
 11
328.00000000000011
 21
424.45300109800002
 31
0.0
  0
ARC
  5
948
  8
DATA
  6
CONTINUOUS
 62
     7
 10
338.00000000000011
 20
424.45299705199989
 30
0.0
 40
10.000000000000361
 50
179.99997680599981
 51
270.0
  0
LINE
  5
949
  8
DATA
  6
CONTINUOUS
 62
     7
 10
328.00000000000011
 20
443.67452659999992
 30
0.0
 11
372.5
 21
443.67452659999992
 31
0.0
  0
LINE
  5
94A
  8
DATA
  6
CONTINUOUS
 62
     7
 10
338.00000000000011
 20
414.45299705199989
 30
0.0
 11
362.5
 21
414.45299705199989
 31
0.0
  0
POLYLINE
  5
94B
  8
DATA
  6
CONTINUOUS
 62
     7
 66
     1
 10
0.0
 20
0.0
 30
0.0
 70
   129
  0
VERTEX
  5
1133
  8
DATA
  6
CONTINUOUS
 62
     7
 10
360.25
 20
428.59513267599988
 30
0.0
  0
VERTEX
  5
1134
  8
DATA
  6
CONTINUOUS
 62
     7
 10
360.25
 20
428.59513267600329
 30
0.0
 42
0.0308289069996823
  0
VERTEX
  5
1135
  8
DATA
  6
CONTINUOUS
 62
     7
 10
360.21194698099998
 20
429.21141684299999
 30
0.0
  0
VERTEX
  5
1136
  8
DATA
  6
CONTINUOUS
 62
     7
 10
360.21194698099998
 20
429.21141684299999
 30
0.0
  0
VERTEX
  5
1137
  8
DATA
  6
CONTINUOUS
 62
     7
 10
360.21194698099998
 20
429.21141684299999
 30
0.0
 42
0.0304257970000727
  0
VERTEX
  5
1138
  8
DATA
  6
CONTINUOUS
 62
     7
 10
360.09807753000001
 20
429.82301071599989
 30
0.0
  0
VERTEX
  5
1139
  8
DATA
  6
CONTINUOUS
 62
     7
 10
360.09807753000001
 20
429.82301071599989
 30
0.0
  0
VERTEX
  5
113A
  8
DATA
  6
CONTINUOUS
 62
     7
 10
360.0980775299995
 20
429.8230107160017
 30
0.0
 42
0.0296077559998751
  0
VERTEX
  5
113B
  8
DATA
  6
CONTINUOUS
 62
     7
 10
359.90925826299969
 20
430.42525969499991
 30
0.0
  0
VERTEX
  5
113C
  8
DATA
  6
CONTINUOUS
 62
     7
 10
359.90925826299969
 20
430.42525969499991
 30
0.0
  0
VERTEX
  5
113D
  8
DATA
  6
CONTINUOUS
 62
     7
 10
359.90925826299957
 20
430.42525969500031
 30
0.0
 42
0.0284626549998727
  0
VERTEX
  5
113E
  8
DATA
  6
CONTINUOUS
 62
     7
 10
359.64692620800002
 20
431.01358030299991
 30
0.0
  0
VERTEX
  5
113F
  8
DATA
  6
CONTINUOUS
 62
     7
 10
359.64692620800002
 20
431.01358030299991
 30
0.0
  0
VERTEX
  5
1140
  8
DATA
  6
CONTINUOUS
 62
     7
 10
359.64692620799798
 20
431.01358030300361
 30
0.0
 42
0.0270987799996382
  0
VERTEX
  5
1141
  8
DATA
  6
CONTINUOUS
 62
     7
 10
359.31307786999969
 20
431.58349506299987
 30
0.0
  0
VERTEX
  5
1142
  8
DATA
  6
CONTINUOUS
 62
     7
 10
359.31307786999969
 20
431.58349506299987
 30
0.0
  0
VERTEX
  5
1143
  8
DATA
  6
CONTINUOUS
 62
     7
 10
359.31307786999969
 20
431.58349506299987
 30
0.0
 42
0.0256239270000727
  0
VERTEX
  5
1144
  8
DATA
  6
CONTINUOUS
 62
     7
 10
358.91025403800001
 20
432.13066658199989
 30
0.0
  0
VERTEX
  5
1145
  8
DATA
  6
CONTINUOUS
 62
     7
 10
358.91025403800001
 20
432.13066658199989
 30
0.0
  0
VERTEX
  5
1146
  8
DATA
  6
CONTINUOUS
 62
     7
 10
358.91025403799938
 20
432.13066658200057
 30
0.0
 42
0.0241305729998277
  0
VERTEX
  5
1147
  8
DATA
  6
CONTINUOUS
 62
     7
 10
358.44152044299972
 20
432.65093055300002
 30
0.0
  0
VERTEX
  5
1148
  8
DATA
  6
CONTINUOUS
 62
     7
 10
358.44152044299972
 20
432.65093055300002
 30
0.0
  0
VERTEX
  5
1149
  8
DATA
  6
CONTINUOUS
 62
     7
 10
358.44152044299631
 20
432.65093055300332
 30
0.0
 42
0.0226890189997355
  0
VERTEX
  5
114A
  8
DATA
  6
CONTINUOUS
 62
     7
 10
357.91044443100009
 20
433.140327453
 30
0.0
  0
VERTEX
  5
114B
  8
DATA
  6
CONTINUOUS
 62
     7
 10
357.91044443100009
 20
433.140327453
 30
0.0
  0
VERTEX
  5
114C
  8
DATA
  6
CONTINUOUS
 62
     7
 10
357.91044443099679
 20
433.14032745300261
 30
0.0
 42
0.0213470119998581
  0
VERTEX
  5
114D
  8
DATA
  6
CONTINUOUS
 62
     7
 10
357.32106781200002
 20
433.59513267599988
 30
0.0
  0
VERTEX
  5
114E
  8
DATA
  6
CONTINUOUS
 62
     7
 10
357.32106781200002
 20
433.59513267599988
 30
0.0
  0
VERTEX
  5
114F
  8
DATA
  6
CONTINUOUS
 62
     7
 10
357.32106781199968
 20
433.59513267600022
 30
0.0
 42
0.0201331389998216
  0
VERTEX
  5
1150
  8
DATA
  6
CONTINUOUS
 62
     7
 10
356.67787609700008
 20
434.01188487999991
 30
0.0
  0
VERTEX
  5
1151
  8
DATA
  6
CONTINUOUS
 62
     7
 10
356.67787609700008
 20
434.01188487999991
 30
0.0
  0
VERTEX
  5
1152
  8
DATA
  6
CONTINUOUS
 62
     7
 10
356.67787609699923
 20
434.01188488000048
 30
0.0
 42
0.0190615840000218
  0
VERTEX
  5
1153
  8
DATA
  6
CONTINUOUS
 62
     7
 10
355.98576436299987
 20
434.38741233000002
 30
0.0
  0
VERTEX
  5
1154
  8
DATA
  6
CONTINUOUS
 62
     7
 10
355.98576436299987
 20
434.38741233000002
 30
0.0
  0
VERTEX
  5
1155
  8
DATA
  6
CONTINUOUS
 62
     7
 10
355.98576436299919
 20
434.3874123300003
 30
0.0
 42
0.0181367479999181
  0
VERTEX
  5
1156
  8
DATA
  6
CONTINUOUS
 62
     7
 10
355.25000000000011
 20
434.71885703300001
 30
0.0
  0
VERTEX
  5
1157
  8
DATA
  6
CONTINUOUS
 62
     7
 10
355.25000000000011
 20
434.71885703300001
 30
0.0
  0
VERTEX
  5
1158
  8
DATA
  6
CONTINUOUS
 62
     7
 10
355.2500000000004
 20
434.71885703299972
 30
0.0
 42
0.0173570479999223
  0
VERTEX
  5
1159
  8
DATA
  6
CONTINUOUS
 62
     7
 10
354.47618261699972
 20
435.00369649700002
 30
0.0
  0
VERTEX
  5
115A
  8
DATA
  6
CONTINUOUS
 62
     7
 10
354.47618261699972
 20
435.00369649700002
 30
0.0
  0
VERTEX
  5
115B
  8
DATA
  6
CONTINUOUS
 62
     7
 10
354.47618261699972
 20
435.00369649700002
 30
0.0
 42
0.0167177380000531
  0
VERTEX
  5
115C
  8
DATA
  6
CONTINUOUS
 62
     7
 10
353.67020143299987
 20
435.23976291999992
 30
0.0
  0
VERTEX
  5
115D
  8
DATA
  6
CONTINUOUS
 62
     7
 10
353.67020143299987
 20
435.23976291999992
 30
0.0
  0
VERTEX
  5
115E
  8
DATA
  6
CONTINUOUS
 62
     7
 10
353.67020143299658
 20
435.23976292000083
 30
0.0
 42
0.0162128689999436
  0
VERTEX
  5
115F
  8
DATA
  6
CONTINUOUS
 62
     7
 10
352.83819045099978
 20
435.42525969499991
 30
0.0
  0
VERTEX
  5
1160
  8
DATA
  6
CONTINUOUS
 62
     7
 10
352.83819045099978
 20
435.42525969499991
 30
0.0
  0
VERTEX
  5
1161
  8
DATA
  6
CONTINUOUS
 62
     7
 10
352.83819045099978
 20
435.42525969499991
 30
0.0
 42
0.0158365750000389
  0
VERTEX
  5
1162
  8
DATA
  6
CONTINUOUS
 62
     7
 10
351.98648177599989
 20
435.55877507899987
 30
0.0
  0
VERTEX
  5
1163
  8
DATA
  6
CONTINUOUS
 62
     7
 10
351.98648177599989
 20
435.55877507899987
 30
0.0
  0
VERTEX
  5
1164
  8
DATA
  6
CONTINUOUS
 62
     7
 10
351.98648177599853
 20
435.55877507899999
 30
0.0
 42
0.0155838790000449
  0
VERTEX
  5
1165
  8
DATA
  6
CONTINUOUS
 62
     7
 10
351.12155742700003
 20
435.63929293999979
 30
0.0
  0
VERTEX
  5
1166
  8
DATA
  6
CONTINUOUS
 62
     7
 10
351.12155742700003
 20
435.63929293999979
 30
0.0
  0
VERTEX
  5
1167
  8
DATA
  6
CONTINUOUS
 62
     7
 10
351.12155742700003
 20
435.63929293999979
 30
0.0
 42
0.0154511700000258
  0
VERTEX
  5
1168
  8
DATA
  6
CONTINUOUS
 62
     7
 10
350.25000000000011
 20
435.66620048800002
 30
0.0
  0
VERTEX
  5
1169
  8
DATA
  6
CONTINUOUS
 62
     7
 10
350.25000000000011
 20
435.66620048800002
 30
0.0
  0
VERTEX
  5
116A
  8
DATA
  6
CONTINUOUS
 62
     7
 10
350.24999999999841
 20
435.66620048800002
 30
0.0
 42
0.0154364709999318
  0
VERTEX
  5
116B
  8
DATA
  6
CONTINUOUS
 62
     7
 10
349.3784425720001
 20
435.63929293999979
 30
0.0
  0
VERTEX
  5
116C
  8
DATA
  6
CONTINUOUS
 62
     7
 10
349.3784425720001
 20
435.63929293999979
 30
0.0
  0
VERTEX
  5
116D
  8
DATA
  6
CONTINUOUS
 62
     7
 10
349.3784425720001
 20
435.63929293999979
 30
0.0
 42
0.0155395600000559
  0
VERTEX
  5
116E
  8
DATA
  6
CONTINUOUS
 62
     7
 10
348.51351822299972
 20
435.55877507899987
 30
0.0
  0
VERTEX
  5
116F
  8
DATA
  6
CONTINUOUS
 62
     7
 10
348.51351822299972
 20
435.55877507899987
 30
0.0
  0
VERTEX
  5
1170
  8
DATA
  6
CONTINUOUS
 62
     7
 10
348.51351822299841
 20
435.55877507899982
 30
0.0
 42
0.0157619809999424
  0
VERTEX
  5
1171
  8
DATA
  6
CONTINUOUS
 62
     7
 10
347.66180954899988
 20
435.42525969499991
 30
0.0
  0
VERTEX
  5
1172
  8
DATA
  6
CONTINUOUS
 62
     7
 10
347.66180954899988
 20
435.42525969499991
 30
0.0
  0
VERTEX
  5
1173
  8
DATA
  6
CONTINUOUS
 62
     7
 10
347.66180954899983
 20
435.42525969499991
 30
0.0
 42
0.0161069559999633
  0
VERTEX
  5
1174
  8
DATA
  6
CONTINUOUS
 62
     7
 10
346.82979856599968
 20
435.23976291999992
 30
0.0
  0
VERTEX
  5
1175
  8
DATA
  6
CONTINUOUS
 62
     7
 10
346.82979856599968
 20
435.23976291999992
 30
0.0
  0
VERTEX
  5
1176
  8
DATA
  6
CONTINUOUS
 62
     7
 10
346.82979856599809
 20
435.23976291999958
 30
0.0
 42
0.0165791549999611
  0
VERTEX
  5
1177
  8
DATA
  6
CONTINUOUS
 62
     7
 10
346.02381738199989
 20
435.00369649700002
 30
0.0
  0
VERTEX
  5
1178
  8
DATA
  6
CONTINUOUS
 62
     7
 10
346.02381738199989
 20
435.00369649700002
 30
0.0
  0
VERTEX
  5
1179
  8
DATA
  6
CONTINUOUS
 62
     7
 10
346.02381738199989
 20
435.00369649700002
 30
0.0
 42
0.0171842830000079
  0
VERTEX
  5
117A
  8
DATA
  6
CONTINUOUS
 62
     7
 10
345.25000000000011
 20
434.71885703300001
 30
0.0
  0
VERTEX
  5
117B
  8
DATA
  6
CONTINUOUS
 62
     7
 10
345.25000000000011
 20
434.71885703300001
 30
0.0
  0
VERTEX
  5
117C
  8
DATA
  6
CONTINUOUS
 62
     7
 10
345.25000000000011
 20
434.71885703300001
 30
0.0
 42
0.0179283660000221
  0
VERTEX
  5
117D
  8
DATA
  6
CONTINUOUS
 62
     7
 10
344.5142356359998
 20
434.38741233000002
 30
0.0
  0
VERTEX
  5
117E
  8
DATA
  6
CONTINUOUS
 62
     7
 10
344.5142356359998
 20
434.38741233000002
 30
0.0
  0
VERTEX
  5
117F
  8
DATA
  6
CONTINUOUS
 62
     7
 10
344.5142356359998
 20
434.38741233000002
 30
0.0
 42
0.0188166049999966
  0
VERTEX
  5
1180
  8
DATA
  6
CONTINUOUS
 62
     7
 10
343.82212390299998
 20
434.01188487999991
 30
0.0
  0
VERTEX
  5
1181
  8
DATA
  6
CONTINUOUS
 62
     7
 10
343.82212390299998
 20
434.01188487999991
 30
0.0
  0
VERTEX
  5
1182
  8
DATA
  6
CONTINUOUS
 62
     7
 10
343.8221239029989
 20
434.01188487999917
 30
0.0
 42
0.0198516009998617
  0
VERTEX
  5
1183
  8
DATA
  6
CONTINUOUS
 62
     7
 10
343.17893218799969
 20
433.59513267599988
 30
0.0
  0
VERTEX
  5
1184
  8
DATA
  6
CONTINUOUS
 62
     7
 10
343.17893218799969
 20
433.59513267599988
 30
0.0
  0
VERTEX
  5
1185
  8
DATA
  6
CONTINUOUS
 62
     7
 10
343.17893218799969
 20
433.59513267599988
 30
0.0
 42
0.0210307680000826
  0
VERTEX
  5
1186
  8
DATA
  6
CONTINUOUS
 62
     7
 10
342.58955556900003
 20
433.140327453
 30
0.0
  0
VERTEX
  5
1187
  8
DATA
  6
CONTINUOUS
 62
     7
 10
342.58955556900003
 20
433.140327453
 30
0.0
  0
VERTEX
  5
1188
  8
DATA
  6
CONTINUOUS
 62
     7
 10
342.58955556899878
 20
433.14032745299892
 30
0.0
 42
0.0223427749998946
  0
VERTEX
  5
1189
  8
DATA
  6
CONTINUOUS
 62
     7
 10
342.05847955699988
 20
432.65093055300002
 30
0.0
  0
VERTEX
  5
118A
  8
DATA
  6
CONTINUOUS
 62
     7
 10
342.05847955699988
 20
432.65093055300002
 30
0.0
  0
VERTEX
  5
118B
  8
DATA
  6
CONTINUOUS
 62
     7
 10
342.05847955699949
 20
432.65093055299963
 30
0.0
 42
0.0237630949999381
  0
VERTEX
  5
118C
  8
DATA
  6
CONTINUOUS
 62
     7
 10
341.58974596199999
 20
432.13066658199989
 30
0.0
  0
VERTEX
  5
118D
  8
DATA
  6
CONTINUOUS
 62
     7
 10
341.58974596199999
 20
432.13066658199989
 30
0.0
  0
VERTEX
  5
118E
  8
DATA
  6
CONTINUOUS
 62
     7
 10
341.58974596199999
 20
432.13066658199989
 30
0.0
 42
0.0252491760001241
  0
VERTEX
  5
118F
  8
DATA
  6
CONTINUOUS
 62
     7
 10
341.18692212899992
 20
431.58349506299987
 30
0.0
  0
VERTEX
  5
1190
  8
DATA
  6
CONTINUOUS
 62
     7
 10
341.18692212899992
 20
431.58349506299987
 30
0.0
  0
VERTEX
  5
1191
  8
DATA
  6
CONTINUOUS
 62
     7
 10
341.18692212899992
 20
431.58349506299987
 30
0.0
 42
0.0267365170003286
  0
VERTEX
  5
1192
  8
DATA
  6
CONTINUOUS
 62
     7
 10
340.85307379199998
 20
431.01358030299991
 30
0.0
  0
VERTEX
  5
1193
  8
DATA
  6
CONTINUOUS
 62
     7
 10
340.85307379199998
 20
431.01358030299991
 30
0.0
  0
VERTEX
  5
1194
  8
DATA
  6
CONTINUOUS
 62
     7
 10
340.8530737919998
 20
431.0135803029994
 30
0.0
 42
0.0281378349999755
  0
VERTEX
  5
1195
  8
DATA
  6
CONTINUOUS
 62
     7
 10
340.59074173699997
 20
430.42525969499991
 30
0.0
  0
VERTEX
  5
1196
  8
DATA
  6
CONTINUOUS
 62
     7
 10
340.59074173699997
 20
430.42525969499991
 30
0.0
  0
VERTEX
  5
1197
  8
DATA
  6
CONTINUOUS
 62
     7
 10
340.59074173699958
 20
430.42525969499877
 30
0.0
 42
0.0293480879998712
  0
VERTEX
  5
1198
  8
DATA
  6
CONTINUOUS
 62
     7
 10
340.4019224700001
 20
429.82301071599989
 30
0.0
  0
VERTEX
  5
1199
  8
DATA
  6
CONTINUOUS
 62
     7
 10
340.4019224700001
 20
429.82301071599989
 30
0.0
  0
VERTEX
  5
119A
  8
DATA
  6
CONTINUOUS
 62
     7
 10
340.4019224700001
 20
429.82301071599989
 30
0.0
 42
0.0302573150005795
  0
VERTEX
  5
119B
  8
DATA
  6
CONTINUOUS
 62
     7
 10
340.28805301900007
 20
429.21141684299999
 30
0.0
  0
VERTEX
  5
119C
  8
DATA
  6
CONTINUOUS
 62
     7
 10
340.28805301900007
 20
429.21141684299999
 30
0.0
  0
VERTEX
  5
119D
  8
DATA
  6
CONTINUOUS
 62
     7
 10
340.28805301900007
 20
429.2114168429996
 30
0.0
 42
0.0307704459999562
  0
VERTEX
  5
119E
  8
DATA
  6
CONTINUOUS
 62
     7
 10
340.25000000000011
 20
428.59513267599988
 30
0.0
  0
VERTEX
  5
119F
  8
DATA
  6
CONTINUOUS
 62
     7
 10
340.25000000000011
 20
428.59513267599988
 30
0.0
  0
VERTEX
  5
11A0
  8
DATA
  6
CONTINUOUS
 62
     7
 10
340.25000000000011
 20
428.59513267599988
 30
0.0
 42
0.030828907000424
  0
VERTEX
  5
11A1
  8
DATA
  6
CONTINUOUS
 62
     7
 10
340.28805301900007
 20
427.97884850899987
 30
0.0
  0
VERTEX
  5
11A2
  8
DATA
  6
CONTINUOUS
 62
     7
 10
340.28805301900007
 20
427.97884850899987
 30
0.0
  0
VERTEX
  5
11A3
  8
DATA
  6
CONTINUOUS
 62
     7
 10
340.28805301900007
 20
427.97884850899987
 30
0.0
 42
0.0304257970000766
  0
VERTEX
  5
11A4
  8
DATA
  6
CONTINUOUS
 62
     7
 10
340.4019224700001
 20
427.36725463599998
 30
0.0
  0
VERTEX
  5
11A5
  8
DATA
  6
CONTINUOUS
 62
     7
 10
340.4019224700001
 20
427.36725463599998
 30
0.0
  0
VERTEX
  5
11A6
  8
DATA
  6
CONTINUOUS
 62
     7
 10
340.4019224700001
 20
427.36725463599998
 30
0.0
 42
0.0296077560001719
  0
VERTEX
  5
11A7
  8
DATA
  6
CONTINUOUS
 62
     7
 10
340.59074173699997
 20
426.7650056569999
 30
0.0
  0
VERTEX
  5
11A8
  8
DATA
  6
CONTINUOUS
 62
     7
 10
340.59074173699997
 20
426.7650056569999
 30
0.0
  0
VERTEX
  5
11A9
  8
DATA
  6
CONTINUOUS
 62
     7
 10
340.59074173699997
 20
426.7650056569999
 30
0.0
 42
0.0284626550000119
  0
VERTEX
  5
11AA
  8
DATA
  6
CONTINUOUS
 62
     7
 10
340.85307379199998
 20
426.17668504999989
 30
0.0
  0
VERTEX
  5
11AB
  8
DATA
  6
CONTINUOUS
 62
     7
 10
340.85307379199998
 20
426.17668504999989
 30
0.0
  0
VERTEX
  5
11AC
  8
DATA
  6
CONTINUOUS
 62
     7
 10
340.85307379200083
 20
426.17668504999853
 30
0.0
 42
0.0270987799998575
  0
VERTEX
  5
11AD
  8
DATA
  6
CONTINUOUS
 62
     7
 10
341.18692212899992
 20
425.60677028899988
 30
0.0
  0
VERTEX
  5
11AE
  8
DATA
  6
CONTINUOUS
 62
     7
 10
341.18692212899992
 20
425.60677028899988
 30
0.0
  0
VERTEX
  5
11AF
  8
DATA
  6
CONTINUOUS
 62
     7
 10
341.18692212900049
 20
425.60677028899909
 30
0.0
 42
0.0256239269999994
  0
VERTEX
  5
11B0
  8
DATA
  6
CONTINUOUS
 62
     7
 10
341.58974596199999
 20
425.05959876999992
 30
0.0
  0
VERTEX
  5
11B1
  8
DATA
  6
CONTINUOUS
 62
     7
 10
341.58974596199999
 20
425.05959876999992
 30
0.0
  0
VERTEX
  5
11B2
  8
DATA
  6
CONTINUOUS
 62
     7
 10
341.58974596199999
 20
425.05959876999992
 30
0.0
 42
0.0241305730001447
  0
VERTEX
  5
11B3
  8
DATA
  6
CONTINUOUS
 62
     7
 10
342.05847955699988
 20
424.53933479899979
 30
0.0
  0
VERTEX
  5
11B4
  8
DATA
  6
CONTINUOUS
 62
     7
 10
342.05847955699988
 20
424.53933479899979
 30
0.0
  0
VERTEX
  5
11B5
  8
DATA
  6
CONTINUOUS
 62
     7
 10
342.05847955699971
 20
424.53933479900002
 30
0.0
 42
0.0226890190000141
  0
VERTEX
  5
11B6
  8
DATA
  6
CONTINUOUS
 62
     7
 10
342.58955556900003
 20
424.04993789899987
 30
0.0
  0
VERTEX
  5
11B7
  8
DATA
  6
CONTINUOUS
 62
     7
 10
342.58955556900003
 20
424.04993789899987
 30
0.0
  0
VERTEX
  5
11B8
  8
DATA
  6
CONTINUOUS
 62
     7
 10
342.58955556900088
 20
424.04993789899919
 30
0.0
 42
0.0213470120001167
  0
VERTEX
  5
11B9
  8
DATA
  6
CONTINUOUS
 62
     7
 10
343.17893218799969
 20
423.59513267599988
 30
0.0
  0
VERTEX
  5
11BA
  8
DATA
  6
CONTINUOUS
 62
     7
 10
343.17893218799969
 20
423.59513267599988
 30
0.0
  0
VERTEX
  5
11BB
  8
DATA
  6
CONTINUOUS
 62
     7
 10
343.17893218799969
 20
423.59513267599988
 30
0.0
 42
0.0201331390000778
  0
VERTEX
  5
11BC
  8
DATA
  6
CONTINUOUS
 62
     7
 10
343.82212390299998
 20
423.17838047200001
 30
0.0
  0
VERTEX
  5
11BD
  8
DATA
  6
CONTINUOUS
 62
     7
 10
343.82212390299998
 20
423.17838047200001
 30
0.0
  0
VERTEX
  5
11BE
  8
DATA
  6
CONTINUOUS
 62
     7
 10
343.82212390299958
 20
423.17838047200007
 30
0.0
 42
0.0190615839999329
  0
VERTEX
  5
11BF
  8
DATA
  6
CONTINUOUS
 62
     7
 10
344.5142356359998
 20
422.80285302299978
 30
0.0
  0
VERTEX
  5
11C0
  8
DATA
  6
CONTINUOUS
 62
     7
 10
344.5142356359998
 20
422.80285302299978
 30
0.0
  0
VERTEX
  5
11C1
  8
DATA
  6
CONTINUOUS
 62
     7
 10
344.5142356359998
 20
422.80285302299978
 30
0.0
 42
0.0181367480000135
  0
VERTEX
  5
11C2
  8
DATA
  6
CONTINUOUS
 62
     7
 10
345.25000000000011
 20
422.47140831899992
 30
0.0
  0
VERTEX
  5
11C3
  8
DATA
  6
CONTINUOUS
 62
     7
 10
345.25000000000011
 20
422.47140831899992
 30
0.0
  0
VERTEX
  5
11C4
  8
DATA
  6
CONTINUOUS
 62
     7
 10
345.25000000000091
 20
422.47140831899958
 30
0.0
 42
0.0173570479999355
  0
VERTEX
  5
11C5
  8
DATA
  6
CONTINUOUS
 62
     7
 10
346.02381738199989
 20
422.18656885599989
 30
0.0
  0
VERTEX
  5
11C6
  8
DATA
  6
CONTINUOUS
 62
     7
 10
346.02381738199989
 20
422.18656885599989
 30
0.0
  0
VERTEX
  5
11C7
  8
DATA
  6
CONTINUOUS
 62
     7
 10
346.02381738200103
 20
422.1865688559995
 30
0.0
 42
0.0167177379998898
  0
VERTEX
  5
11C8
  8
DATA
  6
CONTINUOUS
 62
     7
 10
346.82979856599968
 20
421.95050243199989
 30
0.0
  0
VERTEX
  5
11C9
  8
DATA
  6
CONTINUOUS
 62
     7
 10
346.82979856599968
 20
421.95050243199989
 30
0.0
  0
VERTEX
  5
11CA
  8
DATA
  6
CONTINUOUS
 62
     7
 10
346.82979856600292
 20
421.9505024319991
 30
0.0
 42
0.0162128689999578
  0
VERTEX
  5
11CB
  8
DATA
  6
CONTINUOUS
 62
     7
 10
347.66180954899988
 20
421.7650056569999
 30
0.0
  0
VERTEX
  5
11CC
  8
DATA
  6
CONTINUOUS
 62
     7
 10
347.66180954899988
 20
421.7650056569999
 30
0.0
  0
VERTEX
  5
11CD
  8
DATA
  6
CONTINUOUS
 62
     7
 10
347.66180954899988
 20
421.7650056569999
 30
0.0
 42
0.0158365750000336
  0
VERTEX
  5
11CE
  8
DATA
  6
CONTINUOUS
 62
     7
 10
348.51351822299972
 20
421.631490273
 30
0.0
  0
VERTEX
  5
11CF
  8
DATA
  6
CONTINUOUS
 62
     7
 10
348.51351822299972
 20
421.631490273
 30
0.0
  0
VERTEX
  5
11D0
  8
DATA
  6
CONTINUOUS
 62
     7
 10
348.51351822299972
 20
421.631490273
 30
0.0
 42
0.0155838789999491
  0
VERTEX
  5
11D1
  8
DATA
  6
CONTINUOUS
 62
     7
 10
349.3784425720001
 20
421.55097241199991
 30
0.0
  0
VERTEX
  5
11D2
  8
DATA
  6
CONTINUOUS
 62
     7
 10
349.3784425720001
 20
421.55097241199991
 30
0.0
  0
VERTEX
  5
11D3
  8
DATA
  6
CONTINUOUS
 62
     7
 10
349.3784425720001
 20
421.55097241199991
 30
0.0
 42
0.0154511700000491
  0
VERTEX
  5
11D4
  8
DATA
  6
CONTINUOUS
 62
     7
 10
350.25000000000011
 20
421.52406486399991
 30
0.0
  0
VERTEX
  5
11D5
  8
DATA
  6
CONTINUOUS
 62
     7
 10
350.25000000000011
 20
421.52406486399991
 30
0.0
  0
VERTEX
  5
11D6
  8
DATA
  6
CONTINUOUS
 62
     7
 10
350.25000000000011
 20
421.52406486399991
 30
0.0
 42
0.0154364710000506
  0
VERTEX
  5
11D7
  8
DATA
  6
CONTINUOUS
 62
     7
 10
351.12155742700003
 20
421.55097241199991
 30
0.0
  0
VERTEX
  5
11D8
  8
DATA
  6
CONTINUOUS
 62
     7
 10
351.12155742700003
 20
421.55097241199991
 30
0.0
  0
VERTEX
  5
11D9
  8
DATA
  6
CONTINUOUS
 62
     7
 10
351.12155742700003
 20
421.55097241199991
 30
0.0
 42
0.0155395600000805
  0
VERTEX
  5
11DA
  8
DATA
  6
CONTINUOUS
 62
     7
 10
351.98648177599989
 20
421.631490273
 30
0.0
  0
VERTEX
  5
11DB
  8
DATA
  6
CONTINUOUS
 62
     7
 10
351.98648177599989
 20
421.631490273
 30
0.0
  0
VERTEX
  5
11DC
  8
DATA
  6
CONTINUOUS
 62
     7
 10
351.98648177599989
 20
421.631490273
 30
0.0
 42
0.0157619810000151
  0
VERTEX
  5
11DD
  8
DATA
  6
CONTINUOUS
 62
     7
 10
352.83819045099978
 20
421.7650056569999
 30
0.0
  0
VERTEX
  5
11DE
  8
DATA
  6
CONTINUOUS
 62
     7
 10
352.83819045099978
 20
421.7650056569999
 30
0.0
  0
VERTEX
  5
11DF
  8
DATA
  6
CONTINUOUS
 62
     7
 10
352.83819045100063
 20
421.76500565700002
 30
0.0
 42
0.0161069560000155
  0
VERTEX
  5
11E0
  8
DATA
  6
CONTINUOUS
 62
     7
 10
353.67020143299987
 20
421.95050243199989
 30
0.0
  0
VERTEX
  5
11E1
  8
DATA
  6
CONTINUOUS
 62
     7
 10
353.67020143299987
 20
421.95050243199989
 30
0.0
  0
VERTEX
  5
11E2
  8
DATA
  6
CONTINUOUS
 62
     7
 10
353.67020143299987
 20
421.95050243199989
 30
0.0
 42
0.0165791550000076
  0
VERTEX
  5
11E3
  8
DATA
  6
CONTINUOUS
 62
     7
 10
354.47618261699972
 20
422.18656885599989
 30
0.0
  0
VERTEX
  5
11E4
  8
DATA
  6
CONTINUOUS
 62
     7
 10
354.47618261699972
 20
422.18656885599989
 30
0.0
  0
VERTEX
  5
11E5
  8
DATA
  6
CONTINUOUS
 62
     7
 10
354.47618261700171
 20
422.18656885600052
 30
0.0
 42
0.0171842829999509
  0
VERTEX
  5
11E6
  8
DATA
  6
CONTINUOUS
 62
     7
 10
355.25000000000011
 20
422.47140831899992
 30
0.0
  0
VERTEX
  5
11E7
  8
DATA
  6
CONTINUOUS
 62
     7
 10
355.25000000000011
 20
422.47140831899992
 30
0.0
  0
VERTEX
  5
11E8
  8
DATA
  6
CONTINUOUS
 62
     7
 10
355.25000000000011
 20
422.47140831899992
 30
0.0
 42
0.0179283660000345
  0
VERTEX
  5
11E9
  8
DATA
  6
CONTINUOUS
 62
     7
 10
355.98576436299987
 20
422.80285302299978
 30
0.0
  0
VERTEX
  5
11EA
  8
DATA
  6
CONTINUOUS
 62
     7
 10
355.98576436299987
 20
422.80285302299978
 30
0.0
  0
VERTEX
  5
11EB
  8
DATA
  6
CONTINUOUS
 62
     7
 10
355.98576436300141
 20
422.80285302300058
 30
0.0
 42
0.0188166049998337
  0
VERTEX
  5
11EC
  8
DATA
  6
CONTINUOUS
 62
     7
 10
356.67787609700008
 20
423.17838047200001
 30
0.0
  0
VERTEX
  5
11ED
  8
DATA
  6
CONTINUOUS
 62
     7
 10
356.67787609700008
 20
423.17838047200001
 30
0.0
  0
VERTEX
  5
11EE
  8
DATA
  6
CONTINUOUS
 62
     7
 10
356.67787609700008
 20
423.17838047200001
 30
0.0
 42
0.0198516010000693
  0
VERTEX
  5
11EF
  8
DATA
  6
CONTINUOUS
 62
     7
 10
357.32106781200002
 20
423.59513267599988
 30
0.0
  0
VERTEX
  5
11F0
  8
DATA
  6
CONTINUOUS
 62
     7
 10
357.32106781200002
 20
423.59513267599988
 30
0.0
  0
VERTEX
  5
11F1
  8
DATA
  6
CONTINUOUS
 62
     7
 10
357.32106781200167
 20
423.59513267600113
 30
0.0
 42
0.0210307679998876
  0
VERTEX
  5
11F2
  8
DATA
  6
CONTINUOUS
 62
     7
 10
357.91044443100009
 20
424.04993789899987
 30
0.0
  0
VERTEX
  5
11F3
  8
DATA
  6
CONTINUOUS
 62
     7
 10
357.91044443100009
 20
424.04993789899987
 30
0.0
  0
VERTEX
  5
11F4
  8
DATA
  6
CONTINUOUS
 62
     7
 10
357.91044443100009
 20
424.04993789899987
 30
0.0
 42
0.0223427750000978
  0
VERTEX
  5
11F5
  8
DATA
  6
CONTINUOUS
 62
     7
 10
358.44152044299972
 20
424.53933479899979
 30
0.0
  0
VERTEX
  5
11F6
  8
DATA
  6
CONTINUOUS
 62
     7
 10
358.44152044299972
 20
424.53933479899979
 30
0.0
  0
VERTEX
  5
11F7
  8
DATA
  6
CONTINUOUS
 62
     7
 10
358.44152044299972
 20
424.53933479899979
 30
0.0
 42
0.0237630950002749
  0
VERTEX
  5
11F8
  8
DATA
  6
CONTINUOUS
 62
     7
 10
358.91025403800001
 20
425.05959876999992
 30
0.0
  0
VERTEX
  5
11F9
  8
DATA
  6
CONTINUOUS
 62
     7
 10
358.91025403800001
 20
425.05959876999992
 30
0.0
  0
VERTEX
  5
11FA
  8
DATA
  6
CONTINUOUS
 62
     7
 10
358.91025403800001
 20
425.05959876999992
 30
0.0
 42
0.0252491760001078
  0
VERTEX
  5
11FB
  8
DATA
  6
CONTINUOUS
 62
     7
 10
359.31307786999969
 20
425.60677028899988
 30
0.0
  0
VERTEX
  5
11FC
  8
DATA
  6
CONTINUOUS
 62
     7
 10
359.31307786999969
 20
425.60677028899988
 30
0.0
  0
VERTEX
  5
11FD
  8
DATA
  6
CONTINUOUS
 62
     7
 10
359.31307787000139
 20
425.60677028900233
 30
0.0
 42
0.0267365169997336
  0
VERTEX
  5
11FE
  8
DATA
  6
CONTINUOUS
 62
     7
 10
359.64692620800002
 20
426.17668504999989
 30
0.0
  0
VERTEX
  5
11FF
  8
DATA
  6
CONTINUOUS
 62
     7
 10
359.64692620800002
 20
426.17668504999989
 30
0.0
  0
VERTEX
  5
1200
  8
DATA
  6
CONTINUOUS
 62
     7
 10
359.64692620800002
 20
426.17668504999989
 30
0.0
 42
0.0281378350002405
  0
VERTEX
  5
1201
  8
DATA
  6
CONTINUOUS
 62
     7
 10
359.90925826299969
 20
426.7650056569999
 30
0.0
  0
VERTEX
  5
1202
  8
DATA
  6
CONTINUOUS
 62
     7
 10
359.90925826299969
 20
426.7650056569999
 30
0.0
  0
VERTEX
  5
1203
  8
DATA
  6
CONTINUOUS
 62
     7
 10
359.90925826299969
 20
426.7650056569999
 30
0.0
 42
0.0293480880001058
  0
VERTEX
  5
1204
  8
DATA
  6
CONTINUOUS
 62
     7
 10
360.09807753000001
 20
427.36725463599998
 30
0.0
  0
VERTEX
  5
1205
  8
DATA
  6
CONTINUOUS
 62
     7
 10
360.09807753000001
 20
427.36725463599998
 30
0.0
  0
VERTEX
  5
1206
  8
DATA
  6
CONTINUOUS
 62
     7
 10
360.0980775300003
 20
427.36725463600118
 30
0.0
 42
0.0302573149999426
  0
VERTEX
  5
1207
  8
DATA
  6
CONTINUOUS
 62
     7
 10
360.21194698099998
 20
427.97884850899987
 30
0.0
  0
VERTEX
  5
1208
  8
DATA
  6
CONTINUOUS
 62
     7
 10
360.21194698099998
 20
427.97884850899987
 30
0.0
  0
VERTEX
  5
1209
  8
DATA
  6
CONTINUOUS
 62
     7
 10
360.21194698099998
 20
427.97884850900027
 30
0.0
 42
0.030770446000006
  0
VERTEX
  5
120A
  8
DATA
  6
CONTINUOUS
 62
     7
 10
360.25
 20
428.59513267599988
 30
0.0
  0
SEQEND
  5
120B
  8
DATA
  6
CONTINUOUS
 62
     7
  0
POLYLINE
  5
A25
  8
DATA
  6
CONTINUOUS
 62
     7
 66
     1
 10
0.0
 20
0.0
 30
0.0
 70
   128
  0
VERTEX
  5
120C
  8
DATA
  6
CONTINUOUS
 62
     7
 10
340.378829856001
 20
429.72650352599533
 30
0.0
 42
0.0300536239996645
  0
VERTEX
  5
120D
  8
DATA
  6
CONTINUOUS
 62
     7
 10
340.55796872199971
 20
429.11653441699991
 30
0.0
  0
VERTEX
  5
120E
  8
DATA
  6
CONTINUOUS
 62
     7
 10
340.55796872199971
 20
429.11653441699991
 30
0.0
  0
VERTEX
  5
120F
  8
DATA
  6
CONTINUOUS
 62
     7
 10
340.55796872200062
 20
429.11653441699752
 30
0.0
 42
0.0289290129998124
  0
VERTEX
  5
1210
  8
DATA
  6
CONTINUOUS
 62
     7
 10
340.81233862300002
 20
428.52008185599988
 30
0.0
  0
VERTEX
  5
1211
  8
DATA
  6
CONTINUOUS
 62
     7
 10
340.81233862300002
 20
428.52008185599988
 30
0.0
  0
VERTEX
  5
1212
  8
DATA
  6
CONTINUOUS
 62
     7
 10
340.81233862300161
 20
428.52008185599669
 30
0.0
 42
0.0275624569997328
  0
VERTEX
  5
1213
  8
DATA
  6
CONTINUOUS
 62
     7
 10
341.13996510099969
 20
427.94177559999991
 30
0.0
  0
VERTEX
  5
1214
  8
DATA
  6
CONTINUOUS
 62
     7
 10
341.13996510099969
 20
427.94177559999991
 30
0.0
  0
VERTEX
  5
1215
  8
DATA
  6
CONTINUOUS
 62
     7
 10
341.13996510099952
 20
427.94177560000031
 30
0.0
 42
0.0260672349999479
  0
VERTEX
  5
1216
  8
DATA
  6
CONTINUOUS
 62
     7
 10
341.53830506899982
 20
427.3861045509999
 30
0.0
  0
VERTEX
  5
1217
  8
DATA
  6
CONTINUOUS
 62
     7
 10
341.53830506899982
 20
427.3861045509999
 30
0.0
  0
VERTEX
  5
1218
  8
DATA
  6
CONTINUOUS
 62
     7
 10
341.53830506900152
 20
427.38610455099791
 30
0.0
 42
0.0245421769998221
  0
VERTEX
  5
1219
  8
DATA
  6
CONTINUOUS
 62
     7
 10
342.00426655199999
 20
426.85738191199999
 30
0.0
  0
VERTEX
  5
121A
  8
DATA
  6
CONTINUOUS
 62
     7
 10
342.00426655199999
 20
426.85738191199999
 30
0.0
  0
VERTEX
  5
121B
  8
DATA
  6
CONTINUOUS
 62
     7
 10
342.00426655199999
 20
426.85738191199999
 30
0.0
 42
0.023063314000137
  0
VERTEX
  5
121C
  8
DATA
  6
CONTINUOUS
 62
     7
 10
342.53423268500001
 20
426.35971170999989
 30
0.0
  0
VERTEX
  5
121D
  8
DATA
  6
CONTINUOUS
 62
     7
 10
342.53423268500001
 20
426.35971170999989
 30
0.0
  0
VERTEX
  5
121E
  8
DATA
  6
CONTINUOUS
 62
     7
 10
342.53423268500001
 20
426.35971170999989
 30
0.0
 42
0.02168278400006
  0
VERTEX
  5
121F
  8
DATA
  6
CONTINUOUS
 62
     7
 10
343.12408978799982
 20
425.89695693799979
 30
0.0
  0
VERTEX
  5
1220
  8
DATA
  6
CONTINUOUS
 62
     7
 10
343.12408978799982
 20
425.89695693799979
 30
0.0
  0
VERTEX
  5
1221
  8
DATA
  6
CONTINUOUS
 62
     7
 10
343.12408978800278
 20
425.89695693799769
 30
0.0
 42
0.0204321239998282
  0
VERTEX
  5
1222
  8
DATA
  6
CONTINUOUS
 62
     7
 10
343.76925930099981
 20
425.47270956899979
 30
0.0
  0
VERTEX
  5
1223
  8
DATA
  6
CONTINUOUS
 62
     7
 10
343.76925930099981
 20
425.47270956899979
 30
0.0
  0
VERTEX
  5
1224
  8
DATA
  6
CONTINUOUS
 62
     7
 10
343.76925930100128
 20
425.47270956899888
 30
0.0
 42
0.0193272499999419
  0
VERTEX
  5
1225
  8
DATA
  6
CONTINUOUS
 62
     7
 10
344.46473331900012
 20
425.09026267600001
 30
0.0
  0
VERTEX
  5
1226
  8
DATA
  6
CONTINUOUS
 62
     7
 10
344.46473331900012
 20
425.09026267600001
 30
0.0
  0
VERTEX
  5
1227
  8
DATA
  6
CONTINUOUS
 62
     7
 10
344.46473331900012
 20
425.09026267600001
 30
0.0
 42
0.018373408000208
  0
VERTEX
  5
1228
  8
DATA
  6
CONTINUOUS
 62
     7
 10
345.205113466
 20
424.75258487199989
 30
0.0
  0
VERTEX
  5
1229
  8
DATA
  6
CONTINUOUS
 62
     7
 10
345.205113466
 20
424.75258487199989
 30
0.0
  0
VERTEX
  5
122A
  8
DATA
  6
CONTINUOUS
 62
     7
 10
345.205113466
 20
424.75258487199989
 30
0.0
 42
0.017569291000192
  0
VERTEX
  5
122B
  8
DATA
  6
CONTINUOUS
 62
     7
 10
345.98465279700002
 20
424.46229726199999
 30
0.0
  0
VERTEX
  5
122C
  8
DATA
  6
CONTINUOUS
 62
     7
 10
345.98465279700002
 20
424.46229726199999
 30
0.0
  0
VERTEX
  5
122D
  8
DATA
  6
CONTINUOUS
 62
     7
 10
345.98465279700002
 20
424.46229726199999
 30
0.0
 42
0.0169100990000652
  0
VERTEX
  5
122E
  8
DATA
  6
CONTINUOUS
 62
     7
 10
346.79730040800001
 20
424.22165310399993
 30
0.0
  0
VERTEX
  5
122F
  8
DATA
  6
CONTINUOUS
 62
     7
 10
346.79730040800001
 20
424.22165310399993
 30
0.0
  0
VERTEX
  5
1230
  8
DATA
  6
CONTINUOUS
 62
     7
 10
346.79730040800001
 20
424.22165310399993
 30
0.0
 42
0.0163896760000024
  0
VERTEX
  5
1231
  8
DATA
  6
CONTINUOUS
 62
     7
 10
347.63674840399977
 20
424.03252031599988
 30
0.0
  0
VERTEX
  5
1232
  8
DATA
  6
CONTINUOUS
 62
     7
 10
347.63674840399977
 20
424.03252031599988
 30
0.0
  0
VERTEX
  5
1233
  8
DATA
  6
CONTINUOUS
 62
     7
 10
347.63674840400188
 20
424.03252031599948
 30
0.0
 42
0.0160018979999586
  0
VERTEX
  5
1234
  8
DATA
  6
CONTINUOUS
 62
     7
 10
348.49648085999991
 20
423.89636697399987
 30
0.0
  0
VERTEX
  5
1235
  8
DATA
  6
CONTINUOUS
 62
     7
 10
348.49648085999991
 20
423.89636697399987
 30
0.0
  0
VERTEX
  5
1236
  8
DATA
  6
CONTINUOUS
 62
     7
 10
348.49648086000002
 20
423.8963669739997
 30
0.0
 42
0.0157415489999303
  0
VERTEX
  5
1237
  8
DATA
  6
CONTINUOUS
 62
     7
 10
349.36982440099968
 20
423.814249921
 30
0.0
  0
VERTEX
  5
1238
  8
DATA
  6
CONTINUOUS
 62
     7
 10
349.36982440099968
 20
423.814249921
 30
0.0
  0
VERTEX
  5
1239
  8
DATA
  6
CONTINUOUS
 62
     7
 10
349.36982440099968
 20
423.814249921
 30
0.0
 42
0.0156048429999753
  0
VERTEX
  5
123A
  8
DATA
  6
CONTINUOUS
 62
     7
 10
350.25000000000011
 20
423.78680656399979
 30
0.0
  0
VERTEX
  5
123B
  8
DATA
  6
CONTINUOUS
 62
     7
 10
350.25000000000011
 20
423.78680656399979
 30
0.0
  0
VERTEX
  5
123C
  8
DATA
  6
CONTINUOUS
 62
     7
 10
350.24999999999977
 20
423.78680656399979
 30
0.0
 42
0.0155897019999519
  0
VERTEX
  5
123D
  8
DATA
  6
CONTINUOUS
 62
     7
 10
351.13017559899993
 20
423.814249921
 30
0.0
  0
VERTEX
  5
123E
  8
DATA
  6
CONTINUOUS
 62
     7
 10
351.13017559899993
 20
423.814249921
 30
0.0
  0
VERTEX
  5
123F
  8
DATA
  6
CONTINUOUS
 62
     7
 10
351.13017559900021
 20
423.814249921
 30
0.0
 42
0.0156958929999147
  0
VERTEX
  5
1240
  8
DATA
  6
CONTINUOUS
 62
     7
 10
352.00351913999981
 20
423.89636697399987
 30
0.0
  0
VERTEX
  5
1241
  8
DATA
  6
CONTINUOUS
 62
     7
 10
352.00351913999981
 20
423.89636697399987
 30
0.0
  0
VERTEX
  5
1242
  8
DATA
  6
CONTINUOUS
 62
     7
 10
352.00351914000038
 20
423.89636697399987
 30
0.0
 42
0.015925038999941
  0
VERTEX
  5
1243
  8
DATA
  6
CONTINUOUS
 62
     7
 10
352.86325159599988
 20
424.03252031599988
 30
0.0
  0
VERTEX
  5
1244
  8
DATA
  6
CONTINUOUS
 62
     7
 10
352.86325159599988
 20
424.03252031599988
 30
0.0
  0
VERTEX
  5
1245
  8
DATA
  6
CONTINUOUS
 62
     7
 10
352.86325159600318
 20
424.03252031600061
 30
0.0
 42
0.016280519999847
  0
VERTEX
  5
1246
  8
DATA
  6
CONTINUOUS
 62
     7
 10
353.70269959100011
 20
424.22165310399993
 30
0.0
  0
VERTEX
  5
1247
  8
DATA
  6
CONTINUOUS
 62
     7
 10
353.70269959100011
 20
424.22165310399993
 30
0.0
  0
VERTEX
  5
1248
  8
DATA
  6
CONTINUOUS
 62
     7
 10
353.70269959100227
 20
424.22165310400038
 30
0.0
 42
0.0167672319998484
  0
VERTEX
  5
1249
  8
DATA
  6
CONTINUOUS
 62
     7
 10
354.51534720299981
 20
424.46229726199999
 30
0.0
  0
VERTEX
  5
124A
  8
DATA
  6
CONTINUOUS
 62
     7
 10
354.51534720299981
 20
424.46229726199999
 30
0.0
  0
VERTEX
  5
124B
  8
DATA
  6
CONTINUOUS
 62
     7
 10
354.51534720299981
 20
424.46229726199999
 30
0.0
 42
0.0173911360000485
  0
VERTEX
  5
124C
  8
DATA
  6
CONTINUOUS
 62
     7
 10
355.29488653300001
 20
424.75258487199989
 30
0.0
  0
VERTEX
  5
124D
  8
DATA
  6
CONTINUOUS
 62
     7
 10
355.29488653300001
 20
424.75258487199989
 30
0.0
  0
VERTEX
  5
124E
  8
DATA
  6
CONTINUOUS
 62
     7
 10
355.2948865330028
 20
424.75258487200102
 30
0.0
 42
0.0181584889998863
  0
VERTEX
  5
124F
  8
DATA
  6
CONTINUOUS
 62
     7
 10
356.03526668000001
 20
425.09026267600001
 30
0.0
  0
VERTEX
  5
1250
  8
DATA
  6
CONTINUOUS
 62
     7
 10
356.03526668000001
 20
425.09026267600001
 30
0.0
  0
VERTEX
  5
1251
  8
DATA
  6
CONTINUOUS
 62
     7
 10
356.03526668000143
 20
425.09026267600052
 30
0.0
 42
0.0190745960000042
  0
VERTEX
  5
1252
  8
DATA
  6
CONTINUOUS
 62
     7
 10
356.73074069799998
 20
425.47270956899979
 30
0.0
  0
VERTEX
  5
1253
  8
DATA
  6
CONTINUOUS
 62
     7
 10
356.73074069799998
 20
425.47270956899979
 30
0.0
  0
VERTEX
  5
1254
  8
DATA
  6
CONTINUOUS
 62
     7
 10
356.7307406980014
 20
425.4727095690007
 30
0.0
 42
0.020141885999832
  0
VERTEX
  5
1255
  8
DATA
  6
CONTINUOUS
 62
     7
 10
357.3759102109999
 20
425.89695693799979
 30
0.0
  0
VERTEX
  5
1256
  8
DATA
  6
CONTINUOUS
 62
     7
 10
357.3759102109999
 20
425.89695693799979
 30
0.0
  0
VERTEX
  5
1257
  8
DATA
  6
CONTINUOUS
 62
     7
 10
357.3759102109999
 20
425.89695693799979
 30
0.0
 42
0.0213570960000034
  0
VERTEX
  5
1258
  8
DATA
  6
CONTINUOUS
 62
     7
 10
357.96576731500011
 20
426.35971170999989
 30
0.0
  0
VERTEX
  5
1259
  8
DATA
  6
CONTINUOUS
 62
     7
 10
357.96576731500011
 20
426.35971170999989
 30
0.0
  0
VERTEX
  5
125A
  8
DATA
  6
CONTINUOUS
 62
     7
 10
357.96576731500198
 20
426.3597117100017
 30
0.0
 42
0.0227074139998319
  0
VERTEX
  5
125B
  8
DATA
  6
CONTINUOUS
 62
     7
 10
358.49573344700002
 20
426.85738191199999
 30
0.0
  0
VERTEX
  5
125C
  8
DATA
  6
CONTINUOUS
 62
     7
 10
358.49573344700002
 20
426.85738191199999
 30
0.0
  0
VERTEX
  5
125D
  8
DATA
  6
CONTINUOUS
 62
     7
 10
358.49573344700201
 20
426.85738191200193
 30
0.0
 42
0.0241656999998309
  0
VERTEX
  5
125E
  8
DATA
  6
CONTINUOUS
 62
     7
 10
358.96169492999979
 20
427.3861045509999
 30
0.0
  0
VERTEX
  5
125F
  8
DATA
  6
CONTINUOUS
 62
     7
 10
358.96169492999979
 20
427.3861045509999
 30
0.0
  0
VERTEX
  5
1260
  8
DATA
  6
CONTINUOUS
 62
     7
 10
358.96169492999979
 20
427.3861045509999
 30
0.0
 42
0.0256853780000682
  0
VERTEX
  5
1261
  8
DATA
  6
CONTINUOUS
 62
     7
 10
359.36003489899991
 20
427.94177559999991
 30
0.0
  0
VERTEX
  5
1262
  8
DATA
  6
CONTINUOUS
 62
     7
 10
359.36003489899991
 20
427.94177559999991
 30
0.0
  0
VERTEX
  5
1263
  8
DATA
  6
CONTINUOUS
 62
     7
 10
359.36003489899991
 20
427.94177559999991
 30
0.0
 42
0.0271965120000985
  0
VERTEX
  5
1264
  8
DATA
  6
CONTINUOUS
 62
     7
 10
359.6876613770001
 20
428.52008185599988
 30
0.0
  0
VERTEX
  5
1265
  8
DATA
  6
CONTINUOUS
 62
     7
 10
359.6876613770001
 20
428.52008185599988
 30
0.0
  0
VERTEX
  5
1266
  8
DATA
  6
CONTINUOUS
 62
     7
 10
359.68766137700072
 20
428.52008185600101
 30
0.0
 42
0.0286055139998559
  0
VERTEX
  5
1267
  8
DATA
  6
CONTINUOUS
 62
     7
 10
359.94203127799989
 20
429.11653441699991
 30
0.0
  0
VERTEX
  5
1268
  8
DATA
  6
CONTINUOUS
 62
     7
 10
359.94203127799989
 20
429.11653441699991
 30
0.0
  0
VERTEX
  5
1269
  8
DATA
  6
CONTINUOUS
 62
     7
 10
359.94203127799989
 20
429.11653441699991
 30
0.0
 42
0.0298014610002934
  0
VERTEX
  5
126A
  8
DATA
  6
CONTINUOUS
 62
     7
 10
360.1211701429998
 20
429.72650352599987
 30
0.0
  0
VERTEX
  5
126B
  8
DATA
  6
CONTINUOUS
 62
     7
 10
360.1211701429998
 20
429.72650352599987
 30
0.0
  0
SEQEND
  5
126C
  8
DATA
  6
CONTINUOUS
 62
     7
  0
INSERT
  5
A87
  8
DATA
 62
     7
  2
____
 10
100.0
 20
140.0
 30
0.0
  0
ENDSEC
  0
EOF
