  0
SECTION
  2
HEADER
  9
$ACADVER
  1
AC1015
  9
$ACADMAINTVER
 70
    20
  9
$DWGCODEPAGE
  3
ANSI_932
  9
$INSBASE
 10
0.0
 20
0.0
 30
0.0
  9
$EXTMIN
 10
-350.0274637248688
 20
-533.9823681977772
 30
-0.0011016349165587
  9
$EXTMAX
 10
550.0274679158201
 20
804.1679537850423
 30
0.0000000252153853
  9
$LIMMIN
 10
0.0
 20
0.0
  9
$LIMMAX
 10
0.0
 20
0.0
  9
$ORTHOMODE
 70
     0
  9
$REGENMODE
 70
     1
  9
$FILLMODE
 70
     1
  9
$QTEXTMODE
 70
     0
  9
$MIRRTEXT
 70
     1
  9
$LTSCALE
 40
25.4
  9
$ATTMODE
 70
     1
  9
$TEXTSIZE
 40
0.0
  9
$TRACEWID
 40
1.0
  9
$TEXTSTYLE
  7
STANDARD
  9
$CLAYER
  8
DATA
  9
$CELTYPE
  6
ByLayer
  9
$CECOLOR
 62
   256
  9
$CELTSCALE
 40
1.0
  9
$DISPSILH
 70
     0
  9
$DIMSCALE
 40
1.0
  9
$DIMASZ
 40
0.18
  9
$DIMEXO
 40
0.0625
  9
$DIMDLI
 40
0.38
  9
$DIMRND
 40
0.0
  9
$DIMDLE
 40
0.0
  9
$DIMEXE
 40
0.18
  9
$DIMTP
 40
0.0
  9
$DIMTM
 40
0.0
  9
$DIMTXT
 40
0.18
  9
$DIMCEN
 40
0.09
  9
$DIMTSZ
 40
0.0
  9
$DIMTOL
 70
     0
  9
$DIMLIM
 70
     0
  9
$DIMTIH
 70
     1
  9
$DIMTOH
 70
     1
  9
$DIMSE1
 70
     0
  9
$DIMSE2
 70
     0
  9
$DIMTAD
 70
     0
  9
$DIMZIN
 70
     0
  9
$DIMBLK
  1

  9
$DIMASO
 70
     1
  9
$DIMSHO
 70
     1
  9
$DIMPOST
  1

  9
$DIMAPOST
  1

  9
$DIMALT
 70
     0
  9
$DIMALTD
 70
     2
  9
$DIMALTF
 40
25.4
  9
$DIMLFAC
 40
1.0
  9
$DIMTOFL
 70
     0
  9
$DIMTVP
 40
0.0
  9
$DIMTIX
 70
     0
  9
$DIMSOXD
 70
     0
  9
$DIMSAH
 70
     0
  9
$DIMBLK1
  1

  9
$DIMBLK2
  1

  9
$DIMSTYLE
  2
STANDARD
  9
$DIMCLRD
 70
     0
  9
$DIMCLRE
 70
     0
  9
$DIMCLRT
 70
     0
  9
$DIMTFAC
 40
1.0
  9
$DIMGAP
 40
0.09
  9
$DIMJUST
 70
     0
  9
$DIMSD1
 70
     0
  9
$DIMSD2
 70
     0
  9
$DIMTOLJ
 70
     1
  9
$DIMTZIN
 70
     0
  9
$DIMALTZ
 70
     0
  9
$DIMALTTZ
 70
     0
  9
$DIMUPT
 70
     0
  9
$DIMDEC
 70
     4
  9
$DIMTDEC
 70
     4
  9
$DIMALTU
 70
     2
  9
$DIMALTTD
 70
     2
  9
$DIMTXSTY
  7
STANDARD
  9
$DIMAUNIT
 70
     0
  9
$DIMADEC
 70
     0
  9
$DIMALTRND
 40
0.0
  9
$DIMAZIN
 70
     0
  9
$DIMDSEP
 70
    46
  9
$DIMATFIT
 70
     3
  9
$DIMFRAC
 70
     0
  9
$DIMLDRBLK
  1

  9
$DIMLUNIT
 70
     2
  9
$DIMLWD
 70
    -2
  9
$DIMLWE
 70
    -2
  9
$DIMTMOVE
 70
     0
  9
$LUNITS
 70
     2
  9
$LUPREC
 70
     4
  9
$SKETCHINC
 40
0.1
  9
$FILLETRAD
 40
0.0
  9
$AUNITS
 70
     0
  9
$AUPREC
 70
     0
  9
$MENU
  1
acad
  9
$ELEVATION
 40
0.0
  9
$PELEVATION
 40
0.0
  9
$THICKNESS
 40
0.0
  9
$LIMCHECK
 70
     0
  9
$CHAMFERA
 40
0.0
  9
$CHAMFERB
 40
0.0
  9
$CHAMFERC
 40
0.0
  9
$CHAMFERD
 40
0.0
  9
$SKPOLY
 70
     0
  9
$TDCREATE
 40
2457052.554699074
  9
$TDUCREATE
 40
2457052.179699074
  9
$TDUPDATE
 40
2457052.555760717
  9
$TDUUPDATE
 40
2457052.180760717
  9
$TDINDWG
 40
0.0007806366
  9
$TDUSRTIMER
 40
0.0007805324
  9
$USRTIMER
 70
     1
  9
$ANGBASE
 50
0.0
  9
$ANGDIR
 70
     0
  9
$PDMODE
 70
     1
  9
$PDSIZE
 40
-2.0
  9
$PLINEWID
 40
0.0
  9
$SPLFRAME
 70
     0
  9
$SPLINETYPE
 70
     6
  9
$SPLINESEGS
 70
     8
  9
$HANDSEED
  5
77F
  9
$SURFTAB1
 70
     6
  9
$SURFTAB2
 70
     6
  9
$SURFTYPE
 70
     6
  9
$SURFU
 70
     6
  9
$SURFV
 70
     6
  9
$UCSBASE
  2

  9
$UCSNAME
  2

  9
$UCSORG
 10
0.0
 20
0.0
 30
0.0
  9
$UCSXDIR
 10
1.0
 20
0.0
 30
0.0
  9
$UCSYDIR
 10
0.0
 20
1.0
 30
0.0
  9
$UCSORTHOREF
  2

  9
$UCSORTHOVIEW
 70
     0
  9
$UCSORGTOP
 10
0.0
 20
0.0
 30
0.0
  9
$UCSORGBOTTOM
 10
0.0
 20
0.0
 30
0.0
  9
$UCSORGLEFT
 10
0.0
 20
0.0
 30
0.0
  9
$UCSORGRIGHT
 10
0.0
 20
0.0
 30
0.0
  9
$UCSORGFRONT
 10
0.0
 20
0.0
 30
0.0
  9
$UCSORGBACK
 10
0.0
 20
0.0
 30
0.0
  9
$PUCSBASE
  2

  9
$PUCSNAME
  2

  9
$PUCSORG
 10
0.0
 20
0.0
 30
0.0
  9
$PUCSXDIR
 10
1.0
 20
0.0
 30
0.0
  9
$PUCSYDIR
 10
0.0
 20
1.0
 30
0.0
  9
$PUCSORTHOREF
  2

  9
$PUCSORTHOVIEW
 70
     0
  9
$PUCSORGTOP
 10
0.0
 20
0.0
 30
0.0
  9
$PUCSORGBOTTOM
 10
0.0
 20
0.0
 30
0.0
  9
$PUCSORGLEFT
 10
0.0
 20
0.0
 30
0.0
  9
$PUCSORGRIGHT
 10
0.0
 20
0.0
 30
0.0
  9
$PUCSORGFRONT
 10
0.0
 20
0.0
 30
0.0
  9
$PUCSORGBACK
 10
0.0
 20
0.0
 30
0.0
  9
$USERI1
 70
     0
  9
$USERI2
 70
     0
  9
$USERI3
 70
     0
  9
$USERI4
 70
     0
  9
$USERI5
 70
     0
  9
$USERR1
 40
0.0
  9
$USERR2
 40
0.0
  9
$USERR3
 40
0.0
  9
$USERR4
 40
0.0
  9
$USERR5
 40
0.0
  9
$WORLDVIEW
 70
     1
  9
$SHADEDGE
 70
     3
  9
$SHADEDIF
 70
    70
  9
$TILEMODE
 70
     1
  9
$MAXACTVP
 70
    64
  9
$PINSBASE
 10
0.0
 20
0.0
 30
0.0
  9
$PLIMCHECK
 70
     0
  9
$PEXTMIN
 10
1.000000000000000E+20
 20
1.000000000000000E+20
 30
1.000000000000000E+20
  9
$PEXTMAX
 10
-1.000000000000000E+20
 20
-1.000000000000000E+20
 30
-1.000000000000000E+20
  9
$PLIMMIN
 10
0.0
 20
0.0
  9
$PLIMMAX
 10
12.0
 20
9.0
  9
$UNITMODE
 70
     0
  9
$VISRETAIN
 70
     0
  9
$PLINEGEN
 70
     1
  9
$PSLTSCALE
 70
     0
  9
$TREEDEPTH
 70
  3020
  9
$CMLSTYLE
  2
Standard
  9
$CMLJUST
 70
     0
  9
$CMLSCALE
 40
1.0
  9
$PROXYGRAPHICS
 70
     1
  9
$MEASUREMENT
 70
     0
  9
$CELWEIGHT
370
    -1
  9
$ENDCAPS
280
     0
  9
$JOINSTYLE
280
     0
  9
$LWDISPLAY
290
     0
  9
$INSUNITS
 70
     0
  9
$HYPERLINKBASE
  1

  9
$STYLESHEET
  1

  9
$XEDIT
290
     1
  9
$CEPSNTYPE
380
     0
  9
$PSTYLEMODE
290
     1
  9
$FINGERPRINTGUID
  2
{D00D9C56-C4FF-4066-986B-2B2D857E4E74}
  9
$VERSIONGUID
  2
{336C4AC3-F8D9-4096-BE85-D971CA461D07}
  9
$EXTNAMES
290
     1
  9
$PSVPSCALE
 40
0.0
  9
$OLESTARTUP
290
     0
  0
ENDSEC
  0
SECTION
  2
CLASSES
  0
CLASS
  1
ACDBDICTIONARYWDFLT
  2
AcDbDictionaryWithDefault
  3
ObjectDBX Classes
 90
        0
280
     0
281
     0
  0
CLASS
  1
MATERIAL
  2
AcDbMaterial
  3
ObjectDBX Classes
 90
     1153
280
     0
281
     0
  0
CLASS
  1
VISUALSTYLE
  2
AcDbVisualStyle
  3
ObjectDBX Classes
 90
     4095
280
     0
281
     0
  0
CLASS
  1
SCALE
  2
AcDbScale
  3
ObjectDBX Classes
 90
     1153
280
     0
281
     0
  0
CLASS
  1
TABLESTYLE
  2
AcDbTableStyle
  3
ObjectDBX Classes
 90
     4095
280
     0
281
     0
  0
CLASS
  1
MLEADERSTYLE
  2
AcDbMLeaderStyle
  3
ACDB_MLEADERSTYLE_CLASS
 90
     4095
280
     0
281
     0
  0
CLASS
  1
ACDBSECTIONVIEWSTYLE
  2
AcDbSectionViewStyle
  3
ObjectDBX Classes
 90
     1025
280
     0
281
     0
  0
CLASS
  1
ACDBDETAILVIEWSTYLE
  2
AcDbDetailViewStyle
  3
ObjectDBX Classes
 90
     1025
280
     0
281
     0
  0
CLASS
  1
DICTIONARYVAR
  2
AcDbDictionaryVar
  3
ObjectDBX Classes
 90
        0
280
     0
281
     0
  0
CLASS
  1
CELLSTYLEMAP
  2
AcDbCellStyleMap
  3
ObjectDBX Classes
 90
     1152
280
     0
281
     0
  0
CLASS
  1
ACDBPLACEHOLDER
  2
AcDbPlaceHolder
  3
ObjectDBX Classes
 90
        0
280
     0
281
     0
  0
CLASS
  1
LAYOUT
  2
AcDbLayout
  3
ObjectDBX Classes
 90
        0
280
     0
281
     0
  0
ENDSEC
  0
SECTION
  2
TABLES
  0
TABLE
  2
VPORT
  5
6A4
330
0
100
AcDbSymbolTable
 70
     1
  0
VPORT
  5
710
330
6A4
100
AcDbSymbolTableRecord
100
AcDbViewportTableRecord
  2
*ACTIVE
 70
     0
 10
0.0
 20
0.0
 11
1.0
 21
1.0
 12
100.0000020954758
 22
135.0927927936325
 13
0.0
 23
0.0
 14
1.0
 24
1.0
 15
0.0
 25
0.0
 16
0.0
 26
0.0
 36
1.0
 17
0.0
 27
0.0
 37
0.0
 40
1347.941665802206
 41
2.322344322344322
 42
50.0
 43
0.0
 44
0.0
 50
0.0
 51
0.0
 71
     0
 72
  2000
 73
     1
 74
     1
 75
     0
 76
     0
 77
     0
 78
     0
281
     0
 65
     1
110
0.0
120
0.0
130
0.0
111
1.0
121
0.0
131
0.0
112
0.0
122
1.0
132
0.0
 79
     0
146
0.0
1001
ACAD_NAV_VCDISPLAY
1070
     3
  0
ENDTAB
  0
TABLE
  2
LTYPE
  5
6A1
330
0
100
AcDbSymbolTable
 70
    15
  0
LTYPE
  5
6F6
330
6A1
100
AcDbSymbolTableRecord
100
AcDbLinetypeTableRecord
  2
ByBlock
 70
     0
  3

 72
    65
 73
     0
 40
0.0
  0
LTYPE
  5
6F7
330
6A1
100
AcDbSymbolTableRecord
100
AcDbLinetypeTableRecord
  2
ByLayer
 70
     0
  3

 72
    65
 73
     0
 40
0.0
  0
LTYPE
  5
6F8
330
6A1
100
AcDbSymbolTableRecord
100
AcDbLinetypeTableRecord
  2
CONTINUOUS
 70
     0
  3
Solid line
 72
    65
 73
     0
 40
0.0
  0
LTYPE
  5
711
330
6A1
100
AcDbSymbolTableRecord
100
AcDbLinetypeTableRecord
  2
STYLE_01
 70
     0
  3

 72
    65
 73
     2
 40
0.4166412353515625
 49
0.208282470703125
 74
     0
 49
-0.2083587646484375
 74
     0
  0
LTYPE
  5
71E
330
6A1
100
AcDbSymbolTableRecord
100
AcDbLinetypeTableRecord
  2
STYLE_14
 70
     0
  3

 72
    65
 73
     2
 40
0.1875
 49
0.125
 74
     0
 49
-0.0625
 74
     0
  0
ENDTAB
  0
TABLE
  2
LAYER
  5
69E
330
0
100
AcDbSymbolTable
 70
     4
  0
LAYER
  5
6F0
102
{ACAD_XDICTIONARY
360
72B
102
}
330
69E
100
AcDbSymbolTableRecord
100
AcDbLayerTableRecord
  2
0
 70
     0
 62
     7
  6
CONTINUOUS
370
    -3
390
6AB
  0
LAYER
  5
70F
102
{ACAD_XDICTIONARY
360
72D
102
}
330
69E
100
AcDbSymbolTableRecord
100
AcDbLayerTableRecord
  2
DATA
 70
     0
 62
     7
  6
CONTINUOUS
370
    -3
390
6AB
  0
LAYER
  5
71F
102
{ACAD_XDICTIONARY
360
72F
102
}
330
69E
100
AcDbSymbolTableRecord
100
AcDbLayerTableRecord
  2
HIBINO-BASE
 70
     0
 62
     7
  6
CONTINUOUS
370
    -3
390
6AB
  0
LAYER
  5
720
102
{ACAD_XDICTIONARY
360
731
102
}
330
69E
100
AcDbSymbolTableRecord
100
AcDbLayerTableRecord
  2
DIMNSIONS
 70
     0
 62
     7
  6
CONTINUOUS
370
    -3
390
6AB
  0
ENDTAB
  0
TABLE
  2
STYLE
  5
69F
330
0
100
AcDbSymbolTable
 70
     3
  0
STYLE
  5
6F1
330
69F
100
AcDbSymbolTableRecord
100
AcDbTextStyleTableRecord
  2
STANDARD
 70
     0
 40
0.0
 41
1.0
 50
0.0
 71
     0
 42
0.0
  3
txt
  4
BIGFONT.SHX
  0
ENDTAB
  0
TABLE
  2
VIEW
  5
6A2
330
0
100
AcDbSymbolTable
 70
     0
  0
ENDTAB
  0
TABLE
  2
UCS
  5
6A3
330
0
100
AcDbSymbolTable
 70
     0
  0
ENDTAB
  0
TABLE
  2
APPID
  5
6A5
330
0
100
AcDbSymbolTable
 70
     4
  0
APPID
  5
6F2
330
6A5
100
AcDbSymbolTableRecord
100
AcDbRegAppTableRecord
  2
ACAD
 70
     0
  0
APPID
  5
6F9
330
6A5
100
AcDbSymbolTableRecord
100
AcDbRegAppTableRecord
  2
AcadAnnotative
 70
     0
  0
APPID
  5
73D
330
6A5
100
AcDbSymbolTableRecord
100
AcDbRegAppTableRecord
  2
ACAD_NAV_VCDISPLAY
 70
     0
  0
APPID
  5
776
330
6A5
100
AcDbSymbolTableRecord
100
AcDbRegAppTableRecord
  2
ACAD_MLEADERVER
 70
     0
  0
ENDTAB
  0
TABLE
  2
DIMSTYLE
  5
6A6
330
0
100
AcDbSymbolTable
 70
     2
100
AcDbDimStyleTable
 71
     0
  0
DIMSTYLE
105
6F3
330
6A6
100
AcDbSymbolTableRecord
100
AcDbDimStyleTableRecord
  2
STANDARD
 70
     0
279
     2
340
6F1
  0
ENDTAB
  0
TABLE
  2
BLOCK_RECORD
  5
69D
330
0
100
AcDbSymbolTable
 70
     4
  0
BLOCK_RECORD
  5
70B
330
69D
100
AcDbSymbolTableRecord
100
AcDbBlockTableRecord
  2
*Model_Space
340
70E
  0
BLOCK_RECORD
  5
707
330
69D
100
AcDbSymbolTableRecord
100
AcDbBlockTableRecord
  2
*Paper_Space
340
70A
  0
BLOCK_RECORD
  5
725
330
69D
100
AcDbSymbolTableRecord
100
AcDbBlockTableRecord
  2
____
340
0
102
{BLKREFS
331
678
102
}
  0
BLOCK_RECORD
  5
726
330
69D
100
AcDbSymbolTableRecord
100
AcDbBlockTableRecord
  2
____-1
340
0
102
{BLKREFS
331
698
102
}
  0
BLOCK_RECORD
  5
727
330
69D
100
AcDbSymbolTableRecord
100
AcDbBlockTableRecord
  2
____-2
340
0
102
{BLKREFS
331
699
102
}
  0
BLOCK_RECORD
  5
728
330
69D
100
AcDbSymbolTableRecord
100
AcDbBlockTableRecord
  2
____-3
340
0
102
{BLKREFS
331
69A
102
}
  0
ENDTAB
  0
ENDSEC
  0
SECTION
  2
BLOCKS
  0
BLOCK
  5
70C
330
70B
100
AcDbEntity
  8
0
100
AcDbBlockBegin
  2
*Model_Space
 70
     0
 10
0.0
 20
0.0
 30
0.0
  3
*Model_Space
  1

  0
ENDBLK
  5
70D
330
70B
100
AcDbEntity
  8
0
100
AcDbBlockEnd
  0
BLOCK
  5
708
330
707
100
AcDbEntity
 67
     1
  8
0
100
AcDbBlockBegin
  2
*Paper_Space
 70
     0
 10
0.0
 20
0.0
 30
0.0
  3
*Paper_Space
  1

  0
ENDBLK
  5
709
330
707
100
AcDbEntity
 67
     1
  8
0
100
AcDbBlockEnd
  0
BLOCK
  5
33
330
725
100
AcDbEntity
  8
DATA
100
AcDbBlockBegin
  2
____
 70
     0
 10
0.0
 20
0.0
 30
0.0
  3
____
  1

  0
LINE
  5
34
330
725
100
AcDbEntity
  8
0
  6
Continuous
 62
     7
100
AcDbLine
 10
138.9952123149998
 20
-55.60159481000002
 30
0.0
 11
137.5809987529998
 21
-54.18738124800004
 31
0.0
  0
LINE
  5
35
330
725
100
AcDbEntity
  8
0
  6
Continuous
 62
     7
100
AcDbLine
 10
146.0662801269999
 20
-48.530526998
 30
0.0
 11
144.6520665649999
 21
-47.116313436
 31
0.0
  0
LINE
  5
36
330
725
100
AcDbEntity
  8
0
  6
Continuous
 62
     7
100
AcDbLine
 10
160.208415751
 20
-34.38839137500006
 30
0.0
 11
158.794202189
 21
-32.97417781200008
 31
0.0
  0
LINE
  5
37
330
725
100
AcDbEntity
  8
0
  6
Continuous
 62
     7
100
AcDbLine
 10
165.2794835629999
 20
-26.48889643800001
 30
0.0
 11
137.5809987529998
 21
-54.18738124800004
 31
0.0
  0
LINE
  5
38
330
725
100
AcDbEntity
  8
0
  6
Continuous
 62
     7
100
AcDbLine
 10
165.8652699999999
 20
-20.90311
 30
0.0
 11
165.8652699999999
 21
-25.07468287599997
 31
0.0
  0
ARC
  5
39
330
725
100
AcDbEntity
  8
0
  6
Continuous
 62
     7
100
AcDbCircle
 10
163.8652699999999
 20
-25.07468287599997
 30
0.0
 40
2.000000000000015
100
AcDbArc
 50
315.0
 51
0.0
  0
LINE
  5
3A
330
725
100
AcDbEntity
  8
0
  6
Continuous
 62
     7
100
AcDbLine
 10
167.8652699999999
 20
-20.90311
 30
0.0
 11
167.8652699999999
 21
-25.07467986000003
 31
0.0
  0
ARC
  5
3B
330
725
100
AcDbEntity
  8
0
  6
Continuous
 62
     7
100
AcDbCircle
 10
163.8652699999999
 20
-25.07468287599997
 30
0.0
 40
3.999999999999891
100
AcDbArc
 50
315.0000772749984
 51
0.0000431979993323
  0
LINE
  5
3C
330
725
100
AcDbEntity
  8
0
  6
Continuous
 62
     7
100
AcDbLine
 10
166.69370094
 20
-27.90310618600003
 30
0.0
 11
138.9952123149998
 21
-55.60159481000002
 31
0.0
  0
CIRCLE
  5
3D
330
725
100
AcDbEntity
  8
0
  6
Continuous
 62
     7
100
AcDbCircle
 10
148.6652699999999
 20
69.09688999999993
 30
0.0
 40
3.199999999999988
  0
CIRCLE
  5
3E
330
725
100
AcDbEntity
  8
0
  6
Continuous
 62
     7
100
AcDbCircle
 10
148.6652699999999
 20
134.09689
 30
0.0
 40
1.699999999999988
  0
CIRCLE
  5
3F
330
725
100
AcDbEntity
  8
0
  6
Continuous
 62
     7
100
AcDbCircle
 10
148.6652699999999
 20
4.096890000000001
 30
0.0
 40
1.699999999999988
  0
CIRCLE
  5
40
330
725
100
AcDbEntity
  8
0
  6
Continuous
 62
     7
100
AcDbCircle
 10
148.6652699999999
 20
69.09688999999993
 30
0.0
 40
1.699999999999988
  0
CIRCLE
  5
41
330
725
100
AcDbEntity
  8
0
  6
Continuous
 62
     7
100
AcDbCircle
 10
148.6652699999999
 20
4.096890000000001
 30
0.0
 40
3.199999999999988
  0
CIRCLE
  5
42
330
725
100
AcDbEntity
  8
0
  6
Continuous
 62
     7
100
AcDbCircle
 10
148.6652699999999
 20
134.09689
 30
0.0
 40
3.199999999999988
  0
LINE
  5
43
330
725
100
AcDbEntity
  8
0
  6
Continuous
 62
     7
100
AcDbLine
 10
87.63220671557009
 20
140.9452281057338
 30
0.0
 11
159.7216699999999
 21
153.0951899999999
 31
0.0
  0
LINE
  5
44
330
725
100
AcDbEntity
  8
0
  6
Continuous
 62
     7
100
AcDbLine
 10
77.51645769355656
 20
-1.046608511672479
 30
0.0
 11
161.8546699999999
 21
-15.26090999999999
 31
0.0
  0
LINE
  5
45
330
725
100
AcDbEntity
  8
0
  6
Continuous
 62
     7
100
AcDbLine
 10
169.8652699999999
 20
159.09689
 30
0.0
 11
169.8652699999999
 21
-20.90311
 31
0.0
  0
LINE
  5
46
330
725
100
AcDbEntity
  8
0
  6
Continuous
 62
     7
100
AcDbLine
 10
169.8652699999999
 20
159.09689
 30
0.0
 11
159.7216699999999
 21
159.09689
 31
0.0
  0
LINE
  5
47
330
725
100
AcDbEntity
  8
0
  6
Continuous
 62
     7
100
AcDbLine
 10
159.7216699999999
 20
159.09689
 30
0.0
 11
159.7216699999999
 21
26.93358999999996
 31
0.0
  0
LINE
  5
48
330
725
100
AcDbEntity
  8
0
  6
Continuous
 62
     7
100
AcDbLine
 10
162.13987
 20
-20.90311
 30
0.0
 11
159.7216699999999
 21
26.93358999999996
 31
0.0
  0
LINE
  5
49
330
725
100
AcDbEntity
  8
0
  6
Continuous
 62
     7
100
AcDbLine
 10
169.8652699999999
 20
-20.90311
 30
0.0
 11
162.13987
 21
-20.90311
 31
0.0
  0
LINE
  5
4A
330
725
100
AcDbEntity
  8
0
  6
Continuous
 62
     7
100
AcDbLine
 10
163.8652699999999
 20
159.09689
 30
0.0
 11
163.8652699999999
 21
-20.90311
 31
0.0
  0
LINE
  5
4B
330
725
100
AcDbEntity
  8
0
  6
Continuous
 62
     7
100
AcDbLine
 10
165.8652699999999
 20
159.09689
 30
0.0
 11
165.8652699999999
 21
-20.90311
 31
0.0
  0
LINE
  5
4C
330
725
100
AcDbEntity
  8
0
  6
Continuous
 62
     7
100
AcDbLine
 10
167.8652699999999
 20
159.09689
 30
0.0
 11
167.8652699999999
 21
-20.90311
 31
0.0
  0
ARC
  5
4D
330
725
100
AcDbEntity
  8
0
  6
Continuous
 62
     7
100
AcDbCircle
 10
58.66527464467015
 20
125.942827705978
 30
0.0
 40
10.00000000000001
100
AcDbArc
 50
287.4576675932628
 51
97.2681878862612
  0
CIRCLE
  5
4E
330
725
100
AcDbEntity
  8
0
  6
Continuous
 62
     7
100
AcDbCircle
 10
115.6530415188498
 20
16.91321803989803
 30
0.0
 40
2.999999999999964
  0
CIRCLE
  5
4F
330
725
100
AcDbEntity
  8
0
  6
Continuous
 62
     7
100
AcDbCircle
 10
106.1138728739894
 20
14.79839050676184
 30
0.0
 40
2.999999999999964
  0
CIRCLE
  5
50
330
725
100
AcDbEntity
  8
0
  6
Continuous
 62
     7
100
AcDbCircle
 10
96.42674679594534
 20
13.523088112002
 30
0.0
 40
3.000000000000018
  0
CIRCLE
  5
51
330
725
100
AcDbEntity
  8
0
  6
Continuous
 62
     7
100
AcDbCircle
 10
124.9715685832776
 20
118.3424746434516
 30
0.0
 40
3.000000000000018
  0
CIRCLE
  5
52
330
725
100
AcDbEntity
  8
0
  6
Continuous
 62
     7
100
AcDbCircle
 10
115.6529832802161
 20
121.2806227761307
 30
0.0
 40
2.999999999999964
  0
CIRCLE
  5
53
330
725
100
AcDbEntity
  8
0
  6
Continuous
 62
     7
100
AcDbCircle
 10
115.3315433425346
 20
113.0681086381542
 30
0.0
 40
3.000000000000018
  0
CIRCLE
  5
54
330
725
100
AcDbEntity
  8
0
  6
Continuous
 62
     7
100
AcDbCircle
 10
114.7329787692203
 20
104.9021180031135
 30
0.0
 40
3.000000000000018
  0
CIRCLE
  5
55
330
725
100
AcDbEntity
  8
0
  6
Continuous
 62
     7
100
AcDbCircle
 10
113.8587996345913
 20
96.78990481307842
 30
0.0
 40
3.000000000000018
  0
CIRCLE
  5
56
330
725
100
AcDbEntity
  8
0
  6
Continuous
 62
     7
100
AcDbCircle
 10
112.7107467902853
 20
88.73838133508488
 30
0.0
 40
3.000000000000018
  0
CIRCLE
  5
57
330
725
100
AcDbEntity
  8
0
  6
Continuous
 62
     7
100
AcDbCircle
 10
106.1138149209366
 20
123.395369903643
 30
0.0
 40
3.000000000000018
  0
CIRCLE
  5
58
330
725
100
AcDbEntity
  8
0
  6
Continuous
 62
     7
100
AcDbCircle
 10
106.509410811737
 20
115.1860916076427
 30
0.0
 40
3.000000000000018
  0
CIRCLE
  5
59
330
725
100
AcDbEntity
  8
0
  6
Continuous
 62
     7
100
AcDbCircle
 10
106.6247793466619
 20
106.9991148591018
 30
0.0
 40
2.999999999999964
  0
CIRCLE
  5
5A
330
725
100
AcDbEntity
  8
0
  6
Continuous
 62
     7
100
AcDbCircle
 10
106.4609949557336
 20
98.84142862075657
 30
0.0
 40
3.000000000000018
  0
CIRCLE
  5
5B
330
725
100
AcDbEntity
  8
0
  6
Continuous
 62
     7
100
AcDbCircle
 10
106.0190550281643
 20
90.72052590366778
 30
0.0
 40
3.000000000000018
  0
CIRCLE
  5
5C
330
725
100
AcDbEntity
  8
0
  6
Continuous
 62
     7
100
AcDbCircle
 10
96.42672280574336
 20
124.6707011554202
 30
0.0
 40
3.000000000000018
  0
CIRCLE
  5
5D
330
725
100
AcDbEntity
  8
0
  6
Continuous
 62
     7
100
AcDbCircle
 10
97.53619206467718
 20
116.5271454907562
 30
0.0
 40
3.000000000000018
  0
CIRCLE
  5
5E
330
725
100
AcDbEntity
  8
0
  6
Continuous
 62
     7
100
AcDbCircle
 10
98.36468082415429
 20
108.3813539984935
 30
0.0
 40
2.999999999999964
  0
CIRCLE
  5
5F
330
725
100
AcDbEntity
  8
0
  6
Continuous
 62
     7
100
AcDbCircle
 10
98.91246892130491
 20
100.2404521043161
 30
0.0
 40
2.999999999999964
  0
CIRCLE
  5
60
330
725
100
AcDbEntity
  8
0
  6
Continuous
 62
     7
100
AcDbCircle
 10
99.18001549500225
 20
92.11194974773764
 30
0.0
 40
3.000000000000018
  0
CIRCLE
  5
61
330
725
100
AcDbEntity
  8
0
  6
Continuous
 62
     7
100
AcDbCircle
 10
90.01563534189896
 20
109.0384393622267
 30
0.0
 40
2.999999999999955
  0
CIRCLE
  5
62
330
725
100
AcDbEntity
  8
0
  6
Continuous
 62
     7
100
AcDbCircle
 10
91.2708340069115
 20
100.9763384101578
 30
0.0
 40
3.000000000000018
  0
CIRCLE
  5
63
330
725
100
AcDbEntity
  8
0
  6
Continuous
 62
     7
100
AcDbCircle
 10
92.24579839576721
 20
92.90205712694351
 30
0.0
 40
3.000000000000018
  0
CIRCLE
  5
64
330
725
100
AcDbEntity
  8
0
  6
Continuous
 62
     7
100
AcDbCircle
 10
124.9715260524748
 20
19.85131647197826
 30
0.0
 40
2.999999999999964
  0
CIRCLE
  5
65
330
725
100
AcDbEntity
  8
0
  6
Continuous
 62
     7
100
AcDbCircle
 10
111.8251175496533
 20
24.18609934623388
 30
0.0
 40
2.999999999999964
  0
CIRCLE
  5
66
330
725
100
AcDbEntity
  8
0
  6
Continuous
 62
     7
100
AcDbCircle
 10
102.9344784798651
 20
22.37734017189433
 30
0.0
 40
2.999999999999964
  0
CIRCLE
  5
67
330
725
100
AcDbEntity
  8
0
  6
Continuous
 62
     7
100
AcDbCircle
 10
93.91992357720392
 20
21.35023903427117
 30
0.0
 40
3.000000000000018
  0
CIRCLE
  5
68
330
725
100
AcDbEntity
  8
0
  6
Continuous
 62
     7
100
AcDbCircle
 10
116.3308494241985
 20
33.79546613467045
 30
0.0
 40
3.000000000000018
  0
CIRCLE
  5
69
330
725
100
AcDbEntity
  8
0
  6
Continuous
 62
     7
100
AcDbCircle
 10
108.2605203278155
 20
31.55737777714853
 30
0.0
 40
3.000000000000018
  0
CIRCLE
  5
6A
330
725
100
AcDbEntity
  8
0
  6
Continuous
 62
     7
100
AcDbCircle
 10
100.0259190380192
 20
30.03113453372873
 30
0.0
 40
3.000000000000018
  0
CIRCLE
  5
6B
330
725
100
AcDbEntity
  8
0
  6
Continuous
 62
     7
100
AcDbCircle
 10
91.68948708960895
 20
29.22850223340365
 30
0.0
 40
2.999999999999964
  0
CIRCLE
  5
6C
330
725
100
AcDbEntity
  8
0
  6
Continuous
 62
     7
100
AcDbCircle
 10
112.3939466490821
 20
40.94205832880613
 30
0.0
 40
2.999999999999912
  0
CIRCLE
  5
6D
330
725
100
AcDbEntity
  8
0
  6
Continuous
 62
     7
100
AcDbCircle
 10
104.9615330966255
 20
39.01990303194293
 30
0.0
 40
2.999999999999964
  0
CIRCLE
  5
6E
330
725
100
AcDbEntity
  8
0
  6
Continuous
 62
     7
100
AcDbCircle
 10
97.38977716811042
 20
37.75279395652861
 30
0.0
 40
3.000000000000018
  0
CIRCLE
  5
6F
330
725
100
AcDbEntity
  8
0
  6
Continuous
 62
     7
100
AcDbCircle
 10
89.73643057201359
 20
37.15047072103837
 30
0.0
 40
2.999999999999964
  0
CIRCLE
  5
70
330
725
100
AcDbEntity
  8
0
  6
Continuous
 62
     7
100
AcDbCircle
 10
108.7162670698234
 20
48.19598301908957
 30
0.0
 40
3.000000000000018
  0
CIRCLE
  5
71
330
725
100
AcDbEntity
  8
0
  6
Continuous
 62
     7
100
AcDbCircle
 10
101.9299606162805
 20
46.56666990964729
 30
0.0
 40
2.999999999999964
  0
CIRCLE
  5
72
330
725
100
AcDbEntity
  8
0
  6
Continuous
 62
     7
100
AcDbCircle
 10
95.02751595530234
 20
45.53508246200453
 30
0.0
 40
3.000000000000018
  0
CIRCLE
  5
73
330
725
100
AcDbEntity
  8
0
  6
Continuous
 62
     7
100
AcDbCircle
 10
88.06142251668909
 20
45.10904498183399
 30
0.0
 40
3.000000000000018
  0
LINE
  5
74
330
725
100
AcDbEntity
  8
0
  6
Continuous
 62
     7
100
AcDbLine
 10
114.4295189138829
 20
2.182901901907768
 30
0.0
 11
133.6652693401515
 21
5.724819805855531
 31
0.0
  0
LINE
  5
75
330
725
100
AcDbEntity
  8
0
  6
Continuous
 62
     7
100
AcDbLine
 10
133.6652693401515
 20
5.724819805855531
 30
0.0
 11
133.6652346784411
 21
132.468911980792
 31
0.0
  0
ARC
  5
76
330
725
100
AcDbEntity
  8
0
  6
Continuous
 62
     7
100
AcDbCircle
 10
88.48030707742855
 20
117.0810552557229
 30
0.0
 40
2.999973441549098
100
AcDbArc
 50
148.6899337835101
 51
56.82753660678046
  0
LWPOLYLINE
  5
77
330
725
100
AcDbEntity
  8
0
  6
Continuous
 62
     7
100
AcDbPolyline
 90
        5
 70
   128
 43
0.0
 10
124.069154566169
 20
13.32787562602107
 10
124.0690764991534
 20
13.32741399293438
 42
0.0839609845947645
 10
124.0690833338599
 20
11.37517933668162
 10
124.0691494645296
 20
11.37478830335118
 10
124.0691494645296
 20
11.37478830335118
  0
LWPOLYLINE
  5
7E
330
725
100
AcDbEntity
  8
0
  6
Continuous
 62
     7
100
AcDbPolyline
 90
       26
 70
   128
 43
0.0
 10
124.0691494645296
 20
11.37478830335118
 10
124.0691982398095
 20
11.37453775052551
 42
0.0707079468984849
 10
124.2221760077517
 20
10.93289144455493
 10
124.2223209334599
 20
10.93260937903915
 10
124.2223209334599
 20
10.93260937903915
 10
124.2223209334599
 20
10.93260937903915
 42
0.0871980169783063
 10
124.4770604146989
 20
10.59965585871217
 10
124.4770604146989
 20
10.59965585871217
 10
124.4770604146989
 20
10.59965585871217
 42
0.1134985735634987
 10
124.7988556419246
 20
10.42104473998026
 10
124.7988556419246
 20
10.42104473998026
 10
124.7989200028734
 20
10.42102738081231
 42
0.1326248324554754
 10
125.1440401099652
 20
10.42111839352549
 10
125.1441442742821
 20
10.4211465472367
 10
125.1441442742821
 20
10.4211465472367
 10
125.1441442742821
 20
10.4211465472367
 42
0.1202419588897279
 10
125.465987979668
 20
10.5996911335549
 10
125.465987979668
 20
10.5996911335549
 10
125.465987979668
 20
10.5996911335549
 42
0.0930819476798569
 10
125.7207874362429
 20
10.93261547470325
 10
125.7207874362429
 20
10.93261547470325
 10
125.7208999396765
 20
10.93283126360027
 42
0.0737473843269747
 10
125.8738732107576
 20
11.37458867871404
 10
125.8739032145953
 20
11.37474800960603
 10
125.8739032145953
 20
11.37474800960603
 10
125.8739032145953
 20
11.37474800960603
  0
LWPOLYLINE
  5
9A
330
725
100
AcDbEntity
  8
0
  6
Continuous
 62
     7
100
AcDbPolyline
 90
        5
 70
   128
 43
0.0
 10
125.8739032145953
 20
11.37474800960603
 10
125.8739721312937
 20
11.37515553419178
 42
0.0839655735843439
 10
125.8739475031225
 20
13.32749539808951
 10
125.8738741142204
 20
13.32792930153803
 10
125.8738741142204
 20
13.32792930153803
  0
LWPOLYLINE
  5
A1
330
725
100
AcDbEntity
  8
0
  6
Continuous
 62
     7
100
AcDbPolyline
 90
        4
 70
   128
 43
0.0
 10
124.0878061068725
 20
13.41171070238763
 42
0.0125898567969825
 10
124.0691629030847
 20
13.32791811595789
 10
124.069154566169
 20
13.32787562602107
 10
124.069154566169
 20
13.32787562602107
  0
LWPOLYLINE
  5
A7
330
725
100
AcDbEntity
  8
0
  6
Continuous
 62
     7
100
AcDbPolyline
 90
        5
 70
   128
 43
0.0
 10
125.8738741142204
 20
13.32792930153803
 10
125.8737082022546
 20
13.32877089316616
 42
0.0117772063664723
 10
125.8555068428099
 20
13.41085952823861
 10
125.8552927573761
 20
13.41172776917216
 10
125.8552927573761
 20
13.41172776917216
  0
LWPOLYLINE
  5
AE
330
725
100
AcDbEntity
  8
0
  6
Continuous
 62
     7
100
AcDbPolyline
 90
       20
 70
   128
 43
0.0
 10
114.7780029392255
 20
8.0069218369768
 42
0.0882669803015088
 10
115.0676285022256
 20
7.664956585442496
 10
115.0676285022256
 20
7.664956585442496
 10
115.0676504871179
 20
7.66493879014965
 42
0.1139803398274648
 10
115.4232387403751
 20
7.491639058204233
 10
115.4232547344557
 20
7.491635372229153
 10
115.4232547344557
 20
7.491635372229153
 10
115.4233469436195
 20
7.491615637414976
 42
0.1298931862525722
 10
115.7988302507715
 20
7.509463952356452
 10
115.7988080353273
 20
7.509456937941308
 10
115.7988080353273
 20
7.509456937941308
 10
115.7990315842196
 20
7.509527951714262
 42
0.1155717352969962
 10
116.1454772123906
 20
7.716119079697423
 10
116.1455992038813
 20
7.71623685817775
 10
116.1455992038813
 20
7.71623685817775
 10
116.1456855093823
 20
7.716318001084361
 42
0.0897512970211009
 10
116.41860987169
 20
8.085037460645454
 10
116.418620069566
 20
8.085058138611458
 10
116.418620069566
 20
8.085058138611458
 10
116.418620069566
 20
8.085058138611458
  0
LWPOLYLINE
  5
C4
330
725
100
AcDbEntity
  8
0
  6
Continuous
 62
     7
100
AcDbPolyline
 90
       12
 70
   128
 43
0.0
 10
116.418620069566
 20
8.085058138611458
 10
116.4186433934736
 20
8.085116767156085
 42
0.0692638265486864
 10
116.5226718023319
 20
8.509619592113782
 10
116.5226752563324
 20
8.509653331833218
 10
116.5226752563324
 20
8.509653331833218
 10
116.5227051038552
 20
8.509930984360218
 42
0.064280518913265
 10
116.5131377050797
 20
8.959119041004012
 10
116.5131105707941
 20
8.959298966517392
 10
116.5131105707941
 20
8.959298966517392
 10
116.5131105707941
 20
8.959298966517392
 42
0.0684901874626682
 10
116.3912764567586
 20
9.374147684313639
 10
116.3912764567586
 20
9.374147684313639
  0
LWPOLYLINE
  5
D2
330
725
100
AcDbEntity
  8
0
  6
Continuous
 62
     7
100
AcDbPolyline
 90
       18
 70
   128
 43
0.0
 10
116.3912764567586
 20
9.374147684313639
 10
116.3912211923579
 20
9.374264892238883
 42
0.0941934495421027
 10
116.114613441789
 20
9.754895562962927
 10
116.1145402397258
 20
9.754964380615602
 10
116.1145402397258
 20
9.754964380615602
 10
116.1143298561416
 20
9.755156904210632
 42
0.1258365324339242
 10
115.7547912780453
 20
9.947273433133538
 10
115.754534079005
 20
9.9473364790162
 10
115.754534079005
 20
9.9473364790162
 10
115.754534079005
 20
9.9473364790162
 42
0.1469872836800188
 10
115.3707477557408
 20
9.919388347139571
 10
115.3707477557408
 20
9.919388347139571
 10
115.3707477557408
 20
9.919388347139571
 42
0.1260096018310987
 10
115.0263510642522
 20
9.675914469913122
 10
115.0263510642522
 20
9.675914469913122
 10
115.0263510642522
 20
9.675914469913122
 42
0.0943742288207634
 10
114.7779846742611
 20
9.25689840062364
 10
114.7779846742611
 20
9.25689840062364
  0
LINE
  5
E6
330
725
100
AcDbEntity
  8
0
  6
Continuous
 62
     7
100
AcDbLine
 10
114.7779846742611
 20
9.25689840062364
 30
0.0
 11
114.9147776165366
 21
11.36629662071951
 31
0.0
  0
LINE
  5
E7
330
725
100
AcDbEntity
  8
0
  6
Continuous
 62
     7
100
AcDbLine
 10
114.9147434145223
 20
11.36639058998156
 30
0.0
 11
116.5279501734587
 21
11.36633653709927
 31
0.0
  0
LINE
  5
E8
330
725
100
AcDbEntity
  8
0
  6
Continuous
 62
     7
100
AcDbLine
 10
103.9536854964047
 20
8.899942999686432
 30
0.0
 11
104.5005928679543
 21
9.251604096404319
 31
0.0
  0
LINE
  5
E9
330
725
100
AcDbEntity
  8
0
  6
Continuous
 62
     7
100
AcDbLine
 10
104.5005928679543
 20
9.251604096404319
 30
0.0
 11
104.5006168666898
 21
5.345335481802379
 31
0.0
  0
LWPOLYLINE
  5
EA
330
725
100
AcDbEntity
  8
0
  6
Continuous
 62
     7
100
AcDbPolyline
 90
        3
 70
   128
 43
0.0
 10
106.9615249583464
 20
8.274995752963405
 42
0.0840021086783637
 10
106.961519856707
 20
6.321908430293461
 10
106.961519856707
 20
6.321908430293461
  0
LWPOLYLINE
  5
EF
330
725
100
AcDbEntity
  8
0
  6
Continuous
 62
     7
100
AcDbPolyline
 90
       25
 70
   128
 43
0.0
 10
106.961519856707
 20
6.321908430293461
 42
0.070819958575388
 10
107.1145973563752
 20
5.879695303967139
 10
107.1145973563752
 20
5.879695303967139
 10
107.1146950432174
 20
5.879507481233214
 42
0.0870695827914294
 10
107.3692454124602
 20
5.546946562052571
 10
107.3694308068763
 20
5.546775985654505
 10
107.3694308068763
 20
5.546775985654505
 10
107.3694308068763
 20
5.546775985654505
 42
0.1134985735633294
 10
107.6912260341021
 20
5.368164866922597
 10
107.6912260341021
 20
5.368164866922597
 10
107.691290395051
 20
5.368147507754591
 42
0.1326248324553414
 10
108.0364105021425
 20
5.368238520467771
 10
108.0365146664595
 20
5.368266674178983
 10
108.0365146664595
 20
5.368266674178983
 10
108.0365146664595
 20
5.368266674178983
 42
0.1202419588896382
 10
108.3583583718453
 20
5.546811260497236
 10
108.3583583718453
 20
5.546811260497236
 10
108.3584575546301
 20
5.54690039625764
 42
0.0929835550577661
 10
108.6130772685863
 20
5.879576153076909
 10
108.6131578284204
 20
5.879735601645563
 10
108.6131578284204
 20
5.879735601645563
 10
108.6131578284204
 20
5.879735601645563
 42
0.0738179724942451
 10
108.7661796375107
 20
6.321833934533998
 10
108.7661796375107
 20
6.321833934533998
 10
108.7661796375107
 20
6.321833934533998
  0
LWPOLYLINE
  5
10A
330
725
100
AcDbEntity
  8
0
  6
Continuous
 62
     7
100
AcDbPolyline
 90
        3
 70
   128
 43
0.0
 10
108.7661796375107
 20
6.321833934533998
 42
0.0840109259930609
 10
108.7661505371357
 20
8.275015226466024
 10
108.7661505371357
 20
8.275015226466024
  0
LWPOLYLINE
  5
10F
330
725
100
AcDbEntity
  8
0
  6
Continuous
 62
     7
100
AcDbPolyline
 90
       24
 70
   128
 43
0.0
 10
108.7661505371357
 20
8.275015226466024
 42
0.0708515679352849
 10
108.6131072394818
 20
8.717134383530236
 10
108.6131072394818
 20
8.717134383530236
 10
108.6131072394818
 20
8.717134383530236
 42
0.0871980169781737
 10
108.3583677582429
 20
9.050087903857273
 10
108.3583677582429
 20
9.050087903857273
 10
108.3583677582429
 20
9.050087903857273
 42
0.1136024585790518
 10
108.0364785617549
 20
9.228664820574863
 10
108.0364785617549
 20
9.228664820574863
 10
108.0362067968731
 20
9.228738119870733
 42
0.1324709397960287
 10
107.6914733211543
 20
9.228751481074013
 10
107.6912496966452
 20
9.228691184594794
 10
107.6912496966452
 20
9.228691184594794
 10
107.6910399898408
 20
9.228633670378464
 42
0.1200631556972126
 10
107.3695654547703
 20
9.050220884619331
 10
107.3693462240117
 20
9.050018427000168
 10
107.3693462240117
 20
9.050018427000168
 10
107.3693462240117
 20
9.050018427000168
 42
0.0930583757794693
 10
107.1146407366988
 20
8.717128287866188
 10
107.1146407366988
 20
8.717128287866188
 10
107.1145282332652
 20
8.716912498969318
 42
0.0737473843270506
 10
106.9615549621841
 20
8.275155083855096
 10
106.9615249583464
 20
8.274995752963405
 10
106.9615249583464
 20
8.274995752963405
  0
LINE
  5
129
330
725
100
AcDbEntity
  8
0
  6
Continuous
 62
     7
100
AcDbLine
 10
94.26655941836084
 20
7.624640604926611
 30
0.0
 11
94.8134070226626
 21
7.976173530368044
 31
0.0
  0
LINE
  5
12A
330
725
100
AcDbEntity
  8
0
  6
Continuous
 62
     7
100
AcDbLine
 10
94.8134070226626
 20
7.976173530368044
 30
0.0
 11
94.81339681938374
 21
4.069998885028212
 31
0.0
  0
LWPOLYLINE
  5
12B
330
725
100
AcDbEntity
  8
0
  6
Continuous
 62
     7
100
AcDbPolyline
 90
       19
 70
   128
 43
0.0
 10
97.30173178698391
 20
4.616838001239528
 42
0.088266980301665
 10
97.59135734998393
 20
4.274872749705224
 10
97.59135734998393
 20
4.274872749705224
 10
97.59137933487631
 20
4.274854954412361
 42
0.1139803398274924
 10
97.9469675881335
 20
4.101555222466962
 10
97.9469835822141
 20
4.101551536491882
 10
97.9469835822141
 20
4.101551536491882
 10
97.9469835822141
 20
4.101551536491882
 42
0.1299914570420043
 10
98.32253688308576
 20
4.119373102204008
 10
98.32253688308576
 20
4.119373102204008
 10
98.32276043197801
 20
4.119444115976952
 42
0.1155717352969932
 10
98.669206060149
 20
4.326035243960195
 10
98.66932805163969
 20
4.32615302244048
 10
98.66932805163969
 20
4.32615302244048
 10
98.66957306736701
 20
4.326383460020363
 42
0.089633921020916
 10
98.94216963611482
 20
4.694611050642047
 10
98.94234891732443
 20
4.694974302874185
 10
98.94234891732443
 20
4.694974302874185
 10
98.94234891732443
 20
4.694974302874185
  0
LWPOLYLINE
  5
140
330
725
100
AcDbEntity
  8
0
  6
Continuous
 62
     7
100
AcDbPolyline
 90
       11
 70
   128
 43
0.0
 10
98.94234891732443
 20
4.694974302874185
 10
98.94237224123179
 20
4.695032931418347
 42
0.0692638265487854
 10
99.04640065009035
 20
5.119535756376801
 10
99.04640410409081
 20
5.119569496095948
 10
99.04640410409081
 20
5.119569496095948
 10
99.04640410409081
 20
5.119569496095948
 42
0.064364170392311
 10
99.03683941855252
 20
5.569215130780122
 10
99.03683941855252
 20
5.569215130780122
 10
99.03683941855252
 20
5.569215130780122
 42
0.0684901874626695
 10
98.91500530451702
 20
5.984063848576369
 10
98.91500530451702
 20
5.984063848576369
  0
LWPOLYLINE
  5
14D
330
725
100
AcDbEntity
  8
0
  6
Continuous
 62
     7
100
AcDbPolyline
 90
       16
 70
   128
 43
0.0
 10
98.91500530451702
 20
5.984063848576369
 42
0.0942906214397528
 10
98.63817511822212
 20
6.364846342863984
 10
98.63817511822212
 20
6.364846342863984
 10
98.63817511822212
 20
6.364846342863984
 42
0.1260345132403521
 10
98.2782971287777
 20
6.557158674016818
 10
98.2782971287777
 20
6.557158674016818
 10
98.2782971287777
 20
6.557158674016818
 42
0.1470738617249722
 10
97.89447660349924
 20
6.529304511402301
 10
97.89447660349924
 20
6.529304511402301
 10
97.89447660349924
 20
6.529304511402301
 42
0.1260096018311873
 10
97.55007991201056
 20
6.285830634175795
 10
97.55007991201056
 20
6.285830634175795
 10
97.54991093088465
 20
6.285639091148624
 42
0.0941963726544694
 10
97.30179892395213
 20
5.8670505578726
 10
97.30171352201949
 20
5.866814564886368
 10
97.30171352201949
 20
5.866814564886368
  0
LINE
  5
15F
330
725
100
AcDbEntity
  8
0
  6
Continuous
 62
     7
100
AcDbLine
 10
97.30171352201949
 20
5.866814564886368
 30
0.0
 11
97.43841249503292
 21
7.97617858296786
 31
0.0
  0
LINE
  5
160
330
725
100
AcDbEntity
  8
0
  6
Continuous
 62
     7
100
AcDbLine
 10
97.43841249503292
 20
7.97617858296786
 30
0.0
 11
99.05167902121711
 21
7.976252701362
 31
0.0
  0
LWPOLYLINE
  5
161
330
725
100
AcDbEntity
  8
0
  6
Continuous
 62
     7
100
AcDbPolyline
 90
       21
 70
   128
 43
0.0
 10
84.06759844445234
 20
6.573498910057367
 42
-0.0725450493962995
 10
84.2051225816432
 20
7.014319680541092
 10
84.2051225816432
 20
7.014319680541092
 10
84.2051225816432
 20
7.014319680541092
 42
-0.0891321358670533
 10
84.44867820323645
 20
7.348898160408452
 10
84.44867820323645
 20
7.348898160408452
 10
84.44869709715314
 20
7.348915849384783
 42
-0.1172837701628894
 10
84.76241076078254
 20
7.52810835092078
 10
84.76240531474109
 20
7.52810675257666
 10
84.76240531474109
 20
7.52810675257666
 10
84.76240531474109
 20
7.52810675257666
 42
-0.1382614629218495
 10
85.10017640613225
 20
7.525472398686531
 10
85.10017640613225
 20
7.525472398686531
 10
85.10026693601245
 20
7.525445778928959
 42
-0.1237980251806693
 10
85.4125408209274
 20
7.341502065807406
 10
85.41253255857366
 20
7.341510217703614
 10
85.41253255857366
 20
7.341510217703614
 10
85.41270466936923
 20
7.341345527805307
 42
-0.0945074212646685
 10
85.65355192039078
 20
7.003247726601504
 10
85.6535953663444
 20
7.003153124221456
 10
85.6535953663444
 20
7.003153124221456
  0
LWPOLYLINE
  5
178
330
725
100
AcDbEntity
  8
0
  6
Continuous
 62
     7
100
AcDbPolyline
 90
       22
 70
   128
 43
0.0
 10
85.6535953663444
 20
7.003153124221456
 10
85.65370723924822
 20
7.002868638668097
 42
-0.0692363291371217
 10
85.7314923876563
 20
6.680007202799512
 10
85.73152272171041
 20
6.679699190429204
 10
85.73152272171041
 20
6.679699190429204
 10
85.73154381802478
 20
6.679495301874284
 42
-0.0644998838041988
 10
85.72275635719554
 20
6.337890552096567
 10
85.72273821720864
 20
6.33777410728868
 10
85.72273821720864
 20
6.33777410728868
 10
85.72268948750732
 20
6.337460162961173
 42
-0.0687742361049598
 10
85.62856431798701
 20
6.023554796806459
 10
85.62842442874803
 20
6.023248688115302
 10
85.62842442874803
 20
6.023248688115302
 10
85.62815123977475
 20
6.02265848945904
 42
-0.0830440741306775
 10
85.46162462446973
 20
5.778838310378911
 10
85.46118775918179
 20
5.778383181454216
 10
85.46118775918179
 20
5.778383181454216
 10
85.46104346484323
 20
5.778236211983967
 42
-0.1082330128475321
 10
85.24355466227678
 20
5.636068770191434
 10
85.24335144357385
 20
5.635991504722881
 10
85.24335144357385
 20
5.635991504722881
 10
85.24335144357385
 20
5.635991504722881
  0
LWPOLYLINE
  5
190
330
725
100
AcDbEntity
  8
0
  6
Continuous
 62
     7
100
AcDbPolyline
 90
        7
 70
   128
 43
0.0
 10
85.24335144357385
 20
5.635991504722881
 42
0.1330403971638734
 10
84.4841542681712
 20
4.846306973494989
 10
84.4841542681712
 20
4.846306973494989
 10
84.48407253330563
 20
4.846166360640484
 42
0.0968396842610801
 10
84.06762389316655
 20
3.643934166511309
 10
84.0676078930004
 20
3.643820941421381
 10
84.0676078930004
 20
3.643820941421381
  0
LINE
  5
199
330
725
100
AcDbEntity
  8
0
  6
Continuous
 62
     7
100
AcDbLine
 10
84.0676078930004
 20
3.643820941421381
 30
0.0
 11
85.81757169641553
 21
3.643738862303678
 31
0.0
  0
LWPOLYLINE
  5
19A
330
725
100
AcDbEntity
  8
0
  6
Continuous
 62
     7
100
AcDbPolyline
 90
        5
 70
   128
 43
0.0
 10
87.51288984114166
 20
6.573455339740064
 10
87.51281177412597
 20
6.572993706652837
 42
0.0839609845946848
 10
87.5128186088324
 20
4.620759050401436
 10
87.51288473950225
 20
4.62036801707012
 10
87.51288473950225
 20
4.62036801707012
  0
LWPOLYLINE
  5
1A1
330
725
100
AcDbEntity
  8
0
  6
Continuous
 62
     7
100
AcDbPolyline
 90
       27
 70
   128
 43
0.0
 10
87.51288473950225
 20
4.62036801707012
 10
87.51293351478221
 20
4.620117464244317
 42
0.0707079468984332
 10
87.6659112827243
 20
4.178471158274078
 10
87.66605620843268
 20
4.178189092758145
 10
87.66605620843268
 20
4.178189092758145
 10
87.66605620843268
 20
4.178189092758145
 42
0.0871980169782384
 10
87.92079568967155
 20
3.845235572431107
 10
87.92079568967155
 20
3.845235572431107
 10
87.92079568967155
 20
3.845235572431107
 42
0.113602458578956
 10
88.24268488615938
 20
3.666658655713546
 10
88.24268488615938
 20
3.666658655713546
 10
88.24275096475952
 20
3.666640810463115
 42
0.1325649467528773
 10
88.58772062603883
 20
3.666580208903047
 10
88.58791375126918
 20
3.666632291693587
 10
88.58791375126918
 20
3.666632291693587
 10
88.58804255953714
 20
3.66666761866645
 42
0.1201148718055814
 10
88.90963342829452
 20
3.845187859511087
 10
88.9097232546406
 20
3.845270847273895
 10
88.9097232546406
 20
3.845270847273895
 10
88.9097232546406
 20
3.845270847273895
 42
0.0930819476797896
 10
89.16452271121569
 20
4.17819518842225
 10
89.16452271121569
 20
4.17819518842225
 10
89.16463521464908
 20
4.178410977318907
 42
0.073747384327074
 10
89.31760848573034
 20
4.620168392433319
 10
89.31763848956808
 20
4.620327723325004
 10
89.31763848956808
 20
4.620327723325004
 10
89.31763848956808
 20
4.620327723325004
  0
LWPOLYLINE
  5
1BE
330
725
100
AcDbEntity
  8
0
  6
Continuous
 62
     7
100
AcDbPolyline
 90
        5
 70
   128
 43
0.0
 10
89.31763848956808
 20
4.620327723325004
 10
89.3177074062663
 20
4.620735247910139
 42
0.083965573584337
 10
89.31768277809508
 20
6.573075111808548
 10
89.31760938919309
 20
6.573509015256973
 10
89.31760938919309
 20
6.573509015256973
  0
LWPOLYLINE
  5
1C5
330
725
100
AcDbEntity
  8
0
  6
Continuous
 62
     7
100
AcDbPolyline
 90
       27
 70
   128
 43
0.0
 10
89.31760938919309
 20
6.573509015256973
 10
89.31759019670989
 20
6.573607639528903
 42
0.070724557713807
 10
89.16459145137405
 20
7.015361722877032
 10
89.16447212227714
 20
7.015593970306923
 10
89.16447212227714
 20
7.015593970306923
 10
89.16447212227714
 20
7.015593970306923
 42
0.0871980169782712
 10
88.90973264103813
 20
7.348547490633904
 10
88.90973264103813
 20
7.348547490633904
 10
88.90973264103813
 20
7.348547490633904
 42
0.1134985735634601
 10
88.5879374138123
 20
7.527158609365868
 10
88.5879374138123
 20
7.527158609365868
 10
88.58768205477471
 20
7.527227483745542
 42
0.1324831135387305
 10
88.24291799155693
 20
7.527232596773971
 10
88.24261457944055
 20
7.527150771371482
 10
88.24261457944055
 20
7.527150771371482
 10
88.24248577117264
 20
7.527115444398638
 42
0.1201148718055898
 10
87.92089490241524
 20
7.348595203554039
 10
87.92080507606909
 20
7.348512215791174
 10
87.92080507606909
 20
7.348512215791174
 10
87.92070589328442
 20
7.348423080030868
 42
0.0929835550578426
 10
87.66608617932801
 20
7.015747323211298
 10
87.66600561949404
 20
7.015587874642818
 10
87.66600561949404
 20
7.015587874642818
 10
87.66589311606045
 20
7.015372085745831
 42
0.0737473843269633
 10
87.51291984497946
 20
6.573614670632091
 10
87.51288984114166
 20
6.573455339740064
 10
87.51288984114166
 20
6.573455339740064
  0
LINE
  5
1E2
330
725
100
AcDbEntity
  8
0
  6
Continuous
 62
     7
100
AcDbLine
 10
82.66529734495286
 20
13.09689245531751
 30
0.0
 11
80.16528677832576
 21
10.59686859608078
 31
0.0
  0
LINE
  5
1E3
330
725
100
AcDbEntity
  8
0
  6
Continuous
 62
     7
100
AcDbLine
 10
80.16528677832576
 20
10.59686859608078
 30
0.0
 11
80.16523431134702
 21
11.84693912898973
 31
0.0
  0
LINE
  5
1E4
330
725
100
AcDbEntity
  8
0
  6
Continuous
 62
     7
100
AcDbLine
 10
80.16526851336134
 20
11.84684515972762
 30
0.0
 11
77.66528118405334
 21
11.84690259906096
 31
0.0
  0
LINE
  5
1E5
330
725
100
AcDbEntity
  8
0
  6
Continuous
 62
     7
100
AcDbLine
 10
80.16527348571605
 20
15.59690302194459
 30
0.0
 11
82.66529734495286
 21
13.09689245531751
 31
0.0
  0
LINE
  5
1E6
330
725
100
AcDbEntity
  8
0
  6
Continuous
 62
     7
100
AcDbLine
 10
80.16529175068045
 20
14.34692645829779
 30
0.0
 11
80.16527348571605
 21
15.59690302194459
 31
0.0
  0
LINE
  5
1E7
330
725
100
AcDbEntity
  8
0
  6
Continuous
 62
     7
100
AcDbLine
 10
80.16529175068045
 20
14.34692645829779
 30
0.0
 11
77.66524465412466
 21
14.34685572635467
 31
0.0
  0
LINE
  5
1E8
330
725
100
AcDbEntity
  8
0
  6
Continuous
 62
     7
100
AcDbLine
 10
77.66528118405334
 20
11.84690259906096
 30
0.0
 11
77.66524465412466
 21
14.34685572635467
 31
0.0
  0
LINE
  5
1E9
330
725
100
AcDbEntity
  8
0
  6
Continuous
 62
     7
100
AcDbLine
 10
86.75974592047918
 20
22.95179998975792
 30
0.0
 11
87.30668749404305
 21
23.3033671172137
 31
0.0
  0
LINE
  5
1EA
330
725
100
AcDbEntity
  8
0
  6
Continuous
 62
     7
100
AcDbLine
 10
87.30668749404305
 20
23.3033671172137
 30
0.0
 11
87.30671149277863
 21
19.39709850261175
 31
0.0
  0
LWPOLYLINE
  5
1EB
330
725
100
AcDbEntity
  8
0
  6
Continuous
 62
     7
100
AcDbPolyline
 90
       21
 70
   128
 43
0.0
 10
84.0918917001508
 20
30.2050655432225
 42
-0.0725450493964604
 10
84.22941583734173
 20
30.64588631370632
 10
84.22941583734173
 20
30.64588631370632
 10
84.22941583734173
 20
30.64588631370632
 42
-0.0892001556113273
 10
84.47287748967283
 20
30.98043059155927
 10
84.47287748967283
 20
30.98043059155927
 10
84.47289638358968
 20
30.98044828053577
 42
-0.1172837701627889
 10
84.78661004721878
 20
31.15964078207162
 10
84.78660460117755
 20
31.15963918372756
 10
84.78660460117755
 20
31.15963918372756
 10
84.7866813215757
 20
31.1596601624054
 42
-0.1381596073873064
 10
85.12435365345218
 20
31.15707267253312
 10
85.12446966183073
 20
31.15703903185175
 10
85.12446966183073
 20
31.15703903185175
 10
85.12456019171116
 20
31.15701241209412
 42
-0.1237980251805745
 10
85.43683407662582
 20
30.97306869897272
 10
85.43682581427217
 20
30.97307685086884
 10
85.43682581427217
 20
30.97307685086884
 10
85.43682581427217
 20
30.97307685086884
 42
-0.094678038283393
 10
85.6777946527808
 20
30.63468555537233
 10
85.6777946527808
 20
30.63468555537233
  0
LWPOLYLINE
  5
202
330
725
100
AcDbEntity
  8
0
  6
Continuous
 62
     7
100
AcDbPolyline
 90
       16
 70
   128
 43
0.0
 10
85.6777946527808
 20
30.63468555537233
 42
-0.0695252525123393
 10
85.75572200814683
 20
30.31123162158013
 10
85.75572200814683
 20
30.31123162158013
 10
85.75572200814683
 20
30.31123162158013
 42
-0.0647713140229725
 10
85.74693750364504
 20
29.96930653843956
 10
85.74693750364504
 20
29.96930653843956
 10
85.74693750364504
 20
29.96930653843956
 42
-0.069107474605457
 10
85.65258951317014
 20
29.65487508852825
 10
85.65258951317014
 20
29.65487508852825
 10
85.65258951317014
 20
29.65487508852825
 42
-0.0834977411759502
 10
85.48535284360381
 20
29.41000958186717
 10
85.48535284360381
 20
29.41000958186717
 10
85.48535284360381
 20
29.41000958186717
 42
-0.1084618781625187
 10
85.26764469927234
 20
29.26755813788813
 10
85.26764469927234
 20
29.26755813788813
 10
85.26764469927234
 20
29.26755813788813
  0
LWPOLYLINE
  5
214
330
725
100
AcDbEntity
  8
0
  6
Continuous
 62
     7
100
AcDbPolyline
 90
        9
 70
   128
 43
0.0
 10
85.26764469927234
 20
29.26755813788813
 10
85.2676484896124
 20
29.2675604127736
 42
0.1330142517413972
 10
84.50837395532882
 20
28.47787663345883
 10
84.50835355460759
 20
28.47783940464589
 10
84.50835355460759
 20
28.47783940464589
 10
84.50827181974192
 20
28.47769879179125
 42
0.0968396842610566
 10
84.09182317960299
 20
27.27546659766225
 10
84.09180717943682
 20
27.27535337257228
 10
84.09180717943682
 20
27.27535337257228
  0
LINE
  5
21F
330
725
100
AcDbEntity
  8
0
  6
Continuous
 62
     7
100
AcDbLine
 10
84.09180717943682
 20
27.27535337257228
 30
0.0
 11
85.84186495211403
 21
27.2753054954689
 31
0.0
  0
LWPOLYLINE
  5
220
330
725
100
AcDbEntity
  8
0
  6
Continuous
 62
     7
100
AcDbPolyline
 90
       22
 70
   128
 43
0.0
 10
82.11137612359186
 20
38.12704302179487
 10
82.11138441938837
 20
38.12708844293914
 42
-0.0703514001325111
 10
82.25658000124195
 20
38.56358963161098
 10
82.25660781092923
 20
38.56364553781276
 10
82.25660781092923
 20
38.56364553781276
 10
82.25671314893466
 20
38.56385497375375
 42
-0.0861963004032958
 10
82.50251281047463
 20
38.89538501702532
 10
82.50264187067886
 20
38.89550789097004
 10
82.50264187067886
 20
38.89550789097004
 10
82.50264187067886
 20
38.89550789097004
 42
-0.1124822611880822
 10
82.81613751464544
 20
39.0773990980527
 10
82.81613751464544
 20
39.0773990980527
 10
82.81613751464544
 20
39.0773990980527
 42
-0.1326570189611496
 10
83.15439261992478
 20
39.08483776409479
 10
83.15439261992478
 20
39.08483776409479
 10
83.15439261992478
 20
39.08483776409479
 42
-0.1213159389434511
 10
83.47163103268206
 20
38.91669972713957
 10
83.47163103268206
 20
38.91669972713957
 10
83.47167226967698
 20
38.91666390203021
 42
-0.0940990798636282
 10
83.72472970024857
 20
38.59584463004607
 10
83.72474367502951
 20
38.59581780137256
 10
83.72474367502951
 20
38.59581780137256
  0
LWPOLYLINE
  5
238
330
725
100
AcDbEntity
  8
0
  6
Continuous
 62
     7
100
AcDbPolyline
 90
       22
 70
   128
 43
0.0
 10
83.72474367502951
 20
38.59581780137256
 42
-0.076655025108722
 10
83.82519051375011
 20
38.36399182657456
 10
83.82519051375011
 20
38.36399182657456
 10
83.82529465387667
 20
38.36360745492765
 42
-0.0656803987560624
 10
83.86113467354963
 20
38.09656084776115
 10
83.86113539609226
 20
38.09623817966494
 10
83.86113539609226
 20
38.09623817966494
 10
83.86113539609226
 20
38.09623817966494
 42
-0.0646913612870355
 10
83.82762974646221
 20
37.82778911290762
 10
83.82762974646221
 20
37.82778911290762
 10
83.82759458434973
 20
37.82765348190552
 42
-0.0723298021990636
 10
83.72944774052093
 20
37.59426082800061
 10
83.72933645455935
 20
37.59407621474645
 10
83.72933645455935
 20
37.59407621474645
 10
83.72927753315794
 20
37.59397987338844
 42
-0.0906388098515356
 10
83.5791638496555
 20
37.42613210260567
 10
83.5790446760734
 20
37.42603954815394
 10
83.5790446760734
 20
37.42603954815394
 10
83.57896918564273
 20
37.42598247509007
 42
-0.1170299486663756
 10
83.39669351659738
 20
37.34581543836794
 10
83.3965860756623
 20
37.34579573757623
 10
83.3965860756623
 20
37.34579573757623
  0
LINE
  5
250
330
725
100
AcDbEntity
  8
0
  6
Continuous
 62
     7
100
AcDbLine
 10
83.3965860756623
 20
37.34579573757623
 30
0.0
 11
82.87705115872562
 21
37.34580488231831
 31
0.0
  0
LWPOLYLINE
  5
251
330
725
100
AcDbEntity
  8
0
  6
Continuous
 62
     7
100
AcDbPolyline
 90
       19
 70
   128
 43
0.0
 10
83.3965860756623
 20
37.34579573757623
 42
-0.1181573396033333
 10
83.64830856853295
 20
37.16147393587346
 10
83.64830856853295
 20
37.16147393587346
 10
83.64862090336769
 20
37.16111750589079
 42
-0.0894207841385694
 10
83.83240939289438
 20
36.8553383933864
 10
83.83257284685438
 20
36.85490783250469
 10
83.83257284685438
 20
36.85490783250469
 10
83.83275310178426
 20
36.85444883702633
 42
-0.0726572417800435
 10
83.9219266273961
 20
36.47213826819407
 10
83.92197479642701
 20
36.47156680755089
 10
83.92197479642701
 20
36.47156680755089
 10
83.92201162227451
 20
36.4711556021186
 42
-0.0678301336680695
 10
83.90343895018052
 20
36.06887091006813
 10
83.90334906654565
 20
36.06838137603535
 10
83.90334906654565
 20
36.06838137603535
 10
83.90328959979845
 20
36.06805773737236
 42
-0.0737232731542987
 10
83.77953655957353
 20
35.70545778240781
 10
83.77939487356252
 20
35.70518300318396
 10
83.77939487356252
 20
35.70518300318396
  0
LWPOLYLINE
  5
266
330
725
100
AcDbEntity
  8
0
  6
Continuous
 62
     7
100
AcDbPolyline
 90
       24
 70
   128
 43
0.0
 10
83.77939487356252
 20
35.70518300318396
 10
83.77929992899071
 20
35.70501222561159
 42
-0.0883904528736465
 10
83.51449979662129
 20
35.38004133515373
 10
83.51435795310846
 20
35.37991923207478
 10
83.51435795310846
 20
35.37991923207478
 10
83.51435795310846
 20
35.37991923207478
 42
-0.1148226473664792
 10
83.18524890799706
 20
35.21256458939672
 10
83.18524890799706
 20
35.21256458939672
 10
83.18505328665045
 20
35.21251981958101
 42
-0.131882924155014
 10
82.83607716463549
 20
35.22553127557352
 10
82.83593238451054
 20
35.22557598514538
 10
82.83593238451054
 20
35.22557598514538
 10
82.83577818216476
 20
35.22562397231542
 42
-0.1175908554940963
 10
82.51352259838686
 20
35.41695970338763
 10
82.51337297020437
 20
35.41710476690537
 10
82.51337297020437
 20
35.41710476690537
 10
82.51337297020437
 20
35.41710476690537
 42
-0.0910272036910773
 10
82.26059510070415
 20
35.76162686879565
 10
82.26059510070415
 20
35.76162686879565
 10
82.26059490390406
 20
35.7616272618246
 42
-0.0726343354971319
 10
82.1114234948779
 20
36.21295314625677
 10
82.11141076381094
 20
36.21302548822837
 10
82.11141076381094
 20
36.21302548822837
 10
82.11141076381094
 20
36.21302548822837
  0
LINE
  5
280
330
725
100
AcDbEntity
  8
0
  6
Continuous
 62
     7
100
AcDbLine
 10
81.72159634994461
 20
43.15590816495144
 30
0.0
 11
81.7216663204711
 21
47.06221098156771
 31
0.0
  0
LINE
  5
281
330
725
100
AcDbEntity
  8
0
  6
Continuous
 62
     7
100
AcDbLine
 10
81.72157235120909
 20
47.06217677955339
 30
0.0
 11
80.35444084158269
 21
44.32778634375487
 31
0.0
  0
LINE
  5
282
330
725
100
AcDbEntity
  8
0
  6
Continuous
 62
     7
100
AcDbLine
 10
80.35444084158269
 20
44.32778634375487
 30
0.0
 11
82.26845837514918
 21
44.3278209839739
 31
0.0
  0
LINE
  5
283
330
725
100
AcDbEntity
  8
0
  6
Continuous
 62
     7
100
AcDbLine
 10
123.6317270198586
 20
123.8893386723363
 30
0.0
 11
123.631703021123
 21
127.7956072869382
 31
0.0
  0
LINE
  5
284
330
725
100
AcDbEntity
  8
0
  6
Continuous
 62
     7
100
AcDbLine
 10
123.631703021123
 20
127.7956072869382
 30
0.0
 11
122.2644775422345
 21
125.0611826491254
 31
0.0
  0
LINE
  5
285
330
725
100
AcDbEntity
  8
0
  6
Continuous
 62
     7
100
AcDbLine
 10
122.2644775422345
 20
125.0611826491254
 30
0.0
 11
124.1785890450631
 21
125.0612514913587
 31
0.0
  0
LWPOLYLINE
  5
286
330
725
100
AcDbEntity
  8
0
  6
Continuous
 62
     7
100
AcDbPolyline
 90
        5
 70
   128
 43
0.0
 10
125.8191210225578
 20
126.8190549959682
 10
125.8190521058595
 20
126.8186474713827
 42
0.0839655735843342
 10
125.8190767340307
 20
124.8663076074847
 10
125.8191501229328
 20
124.8658737040361
 10
125.8191501229328
 20
124.8658737040361
  0
LWPOLYLINE
  5
28D
330
725
100
AcDbEntity
  8
0
  6
Continuous
 62
     7
100
AcDbPolyline
 90
       24
 70
   128
 43
0.0
 10
125.8191501229328
 20
124.8658737040361
 10
125.8191903175475
 20
124.8656672290697
 42
0.070721264609695
 10
125.9722083188477
 20
124.4239426229606
 10
125.9722873898489
 20
124.4237887489862
 10
125.9722873898489
 20
124.4237887489862
 10
125.9722873898489
 20
124.4237887489862
 42
0.0871980169782193
 10
126.2270268710877
 20
124.0908352286593
 10
126.2270268710877
 20
124.0908352286593
 10
126.2270268710877
 20
124.0908352286593
 42
0.1136024585789703
 10
126.5489160675756
 20
123.9122583119417
 10
126.5489160675756
 20
123.9122583119417
 10
126.5489160675756
 20
123.9122583119417
 42
0.1328482795080015
 10
126.8941449326854
 20
123.9122319479217
 10
126.8941449326854
 20
123.9122319479217
 10
126.8941449326854
 20
123.9122319479217
 42
0.1203564301523118
 10
127.2160484053188
 20
124.0909047055164
 10
127.2160484053188
 20
124.0909047055164
 10
127.2160484053188
 20
124.0909047055164
 42
0.0930583757793365
 10
127.4707538926318
 20
124.4237948446503
 10
127.4707538926318
 20
124.4237948446503
 10
127.4707538926318
 20
124.4237948446503
 42
0.073891407207395
 10
127.6238696709842
 20
124.8659273795531
 10
127.6238696709842
 20
124.8659273795531
 10
127.6238696709842
 20
124.8659273795531
  0
LWPOLYLINE
  5
2A7
330
725
100
AcDbEntity
  8
0
  6
Continuous
 62
     7
100
AcDbPolyline
 90
        3
 70
   128
 43
0.0
 10
127.6238696709842
 20
124.8659273795531
 42
0.0840272237046237
 10
127.6238747726236
 20
126.819014702223
 10
127.6238747726236
 20
126.819014702223
  0
LWPOLYLINE
  5
2AC
330
725
100
AcDbEntity
  8
0
  6
Continuous
 62
     7
100
AcDbPolyline
 90
       24
 70
   128
 43
0.0
 10
127.6238747726236
 20
126.819014702223
 42
0.070818260126427
 10
127.4708314749697
 20
127.2611338592873
 10
127.4708314749697
 20
127.2611338592873
 10
127.4707679520792
 20
127.2612560131485
 42
0.0871394373993685
 10
127.2159906373692
 20
127.5940599713226
 10
127.2159980244687
 20
127.5940531776
 10
127.2159980244687
 20
127.5940531776
 10
127.2159980244687
 20
127.5940531776
 42
0.1134985735632329
 10
126.8942027972428
 20
127.7726642963319
 10
126.8942027972428
 20
127.7726642963319
 10
126.8942027972428
 20
127.7726642963319
 42
0.1327349534502229
 10
126.548879962871
 20
127.7726564583375
 10
126.548879962871
 20
127.7726564583375
 10
126.548879962871
 20
127.7726564583375
 42
0.1202419588897618
 10
126.2270362574853
 20
127.5941118720193
 10
126.2270362574853
 20
127.5941118720193
 10
126.2269370747005
 20
127.5940227362589
 42
0.0929835550578309
 10
125.9723173607441
 20
127.2613469794394
 10
125.9722368009102
 20
127.261187530871
 10
125.9722368009102
 20
127.261187530871
 10
125.9721242974766
 20
127.2609717419739
 42
0.0737473843269703
 10
125.8191510263956
 20
126.8192143268601
 10
125.8191210225578
 20
126.8190549959682
 10
125.8191210225578
 20
126.8190549959682
  0
LWPOLYLINE
  5
2C6
330
725
100
AcDbEntity
  8
0
  6
Continuous
 62
     7
100
AcDbPolyline
 90
       24
 70
   128
 43
0.0
 10
113.0280416063963
 20
129.7571361554066
 10
113.0280945527636
 20
129.7574260473521
 42
-0.0702768770533403
 10
113.1730731693967
 20
130.1934909055455
 10
113.1731793244715
 20
130.1937044694102
 10
113.1731793244715
 20
130.1937044694102
 10
113.1732846624769
 20
130.1939139053509
 42
-0.0861963004034198
 10
113.4190843240171
 20
130.5254439486228
 10
113.4192133842212
 20
130.5255668225675
 10
113.4192133842212
 20
130.5255668225675
 10
113.419321743222
 20
130.5256676985005
 42
-0.1123249309083673
 10
113.7326430003673
 20
130.70754207639
 10
113.7326748261734
 20
130.7075519989122
 10
113.7326748261734
 20
130.7075519989122
 10
113.7328269021513
 20
130.7075965727141
 42
-0.1324120599219763
 10
114.0708774412741
 20
130.7149753898523
 10
114.0710581027292
 20
130.7149308977066
 10
114.0710581027292
 20
130.7149308977066
 10
114.0710581027292
 20
130.7149308977066
 42
-0.121452810833924
 10
114.3882025462245
 20
130.5467586587369
 10
114.3882025462245
 20
130.5467586587369
 10
114.3882437832194
 20
130.5467228336276
 42
-0.0940990798636104
 10
114.6413012137909
 20
130.2259035616435
 10
114.6413151885719
 20
130.22587673297
 10
114.6413151885719
 20
130.22587673297
  0
LWPOLYLINE
  5
2E0
330
725
100
AcDbEntity
  8
0
  6
Continuous
 62
     7
100
AcDbPolyline
 90
       18
 70
   128
 43
0.0
 10
114.6413151885719
 20
130.22587673297
 42
-0.0766550251089887
 10
114.7417620272924
 20
129.994050758172
 10
114.7417620272924
 20
129.994050758172
 10
114.7417620272924
 20
129.994050758172
 42
-0.0660454021274221
 10
114.7777069096347
 20
129.7262971112624
 10
114.7777069096347
 20
129.7262971112624
 10
114.7777069096347
 20
129.7262971112624
 42
-0.0646913612871332
 10
114.7442012600045
 20
129.457848044505
 10
114.7442012600045
 20
129.457848044505
 10
114.7442012600045
 20
129.457848044505
 42
-0.0724788491093113
 10
114.6458737660874
 20
129.2242291156059
 10
114.6458737660874
 20
129.2242291156059
 10
114.6458737660874
 20
129.2242291156059
 42
-0.09104239396022
 10
114.4955819876014
 20
129.0561924490134
 10
114.4955819876014
 20
129.0561924490134
 10
114.4955819876014
 20
129.0561924490134
 42
-0.1172751194811365
 10
114.3131575892047
 20
128.9758546691737
 10
114.3131575892047
 20
128.9758546691737
  0
LINE
  5
2F4
330
725
100
AcDbEntity
  8
0
  6
Continuous
 62
     7
100
AcDbLine
 10
114.3131575892047
 20
128.9758546691737
 30
0.0
 11
113.793622672268
 21
128.9758638139157
 31
0.0
  0
LWPOLYLINE
  5
2F5
330
725
100
AcDbEntity
  8
0
  6
Continuous
 62
     7
100
AcDbPolyline
 90
       15
 70
   128
 43
0.0
 10
114.3131575892047
 20
128.9758546691737
 42
-0.1181573396032995
 10
114.5648800820753
 20
128.7915328674708
 10
114.5648800820753
 20
128.7915328674708
 10
114.5648800820753
 20
128.7915328674708
 42
-0.0897051242391426
 10
114.7491443603967
 20
128.4849667641021
 10
114.7491443603967
 20
128.4849667641021
 10
114.7491443603967
 20
128.4849667641021
 42
-0.0728862162215413
 10
114.8385463099693
 20
128.1016257391484
 10
114.8385463099693
 20
128.1016257391484
 10
114.8385463099693
 20
128.1016257391484
 42
-0.0680284813647068
 10
114.819920580088
 20
127.6984403076328
 10
114.819920580088
 20
127.6984403076328
 10
114.819920580088
 20
127.6984403076328
 42
-0.0739028667115459
 10
114.6959663871049
 20
127.3352419347814
 10
114.6959663871049
 20
127.3352419347814
  0
LWPOLYLINE
  5
306
330
725
100
AcDbEntity
  8
0
  6
Continuous
 62
     7
100
AcDbPolyline
 90
       20
 70
   128
 43
0.0
 10
114.6959663871049
 20
127.3352419347814
 42
-0.0884537432575704
 10
114.4310234359128
 20
127.0100123656865
 10
114.4310234359128
 20
127.0100123656865
 10
114.4310234359128
 20
127.0100123656865
 42
-0.1149355281841279
 10
114.101786219525
 20
126.8427174902563
 10
114.101786219525
 20
126.8427174902563
 10
114.101786219525
 20
126.8427174902563
 42
-0.1321513798890289
 10
113.752597867315
 20
126.8556691187571
 10
113.752597867315
 20
126.8556691187571
 10
113.7525879452861
 20
126.8556722030362
 42
-0.1177278151475745
 10
113.4299588749191
 20
127.0472105356607
 10
113.4299102817324
 20
127.0472576677649
 10
113.4299102817324
 20
127.0472576677649
 10
113.4299102817324
 20
127.0472576677649
 42
-0.0910272036911373
 10
113.1771324122321
 20
127.3917797696552
 10
113.1771324122321
 20
127.3917797696552
 10
113.1771324122321
 20
127.3917797696552
 42
-0.0726564326561094
 10
113.0279822773533
 20
127.8430844198258
 10
113.0279822773533
 20
127.8430844198258
 10
113.0279822773533
 20
127.8430844198258
  0
LWPOLYLINE
  5
31C
330
725
100
AcDbEntity
  8
0
  6
Continuous
 62
     7
100
AcDbPolyline
 90
       18
 70
   128
 43
0.0
 10
116.5279967974541
 20
127.3742880044355
 42
0.0882669803013837
 10
116.8176223604542
 20
127.0323227529012
 10
116.8176223604542
 20
127.0323227529012
 10
116.8176443453466
 20
127.0323049576084
 42
0.1139803398274721
 10
117.1732325986038
 20
126.859005225663
 10
117.1732485926845
 20
126.8590015396878
 10
117.1732485926845
 20
126.8590015396878
 10
117.1732485926845
 20
126.8590015396878
 42
0.1299816959334535
 10
117.5487676915417
 20
126.876917074662
 10
117.5487676915417
 20
126.876917074662
 10
117.5487676915417
 20
126.876917074662
 42
0.115673974433717
 10
117.89559306211
 20
127.0836030256364
 10
117.89559306211
 20
127.0836030256364
 10
117.895679367611
 20
127.083684168543
 42
0.0897512970210893
 10
118.1686037299187
 20
127.4524036281042
 10
118.1686139277946
 20
127.4524243060701
 10
118.1686139277946
 20
127.4524243060701
 10
118.1686139277946
 20
127.4524243060701
  0
LWPOLYLINE
  5
330
330
725
100
AcDbEntity
  8
0
  6
Continuous
 62
     7
100
AcDbPolyline
 90
       12
 70
   128
 43
0.0
 10
118.1686139277946
 20
127.4524243060701
 10
118.1686372517021
 20
127.4524829346145
 42
0.0692638265487394
 10
118.2726656605607
 20
127.8769857595727
 10
118.2726691145611
 20
127.8770194992919
 10
118.2726691145611
 20
127.8770194992919
 10
118.272698962084
 20
127.877297151819
 42
0.0642805189131452
 10
118.2631315633085
 20
128.3264852084625
 10
118.2631044290229
 20
128.3266651339761
 10
118.2631044290229
 20
128.3266651339761
 10
118.2631044290229
 20
128.3266651339761
 42
0.0684901874625416
 10
118.1412703149874
 20
128.7415138517723
 10
118.1412703149874
 20
128.7415138517723
  0
LWPOLYLINE
  5
33E
330
725
100
AcDbEntity
  8
0
  6
Continuous
 62
     7
100
AcDbPolyline
 90
       18
 70
   128
 43
0.0
 10
118.1412703149874
 20
128.7415138517723
 10
118.1412150505865
 20
128.741631059698
 42
0.0941934495420056
 10
117.8646073000181
 20
129.1222617304213
 10
117.8645340979545
 20
129.1223305480743
 10
117.8645340979545
 20
129.1223305480743
 10
117.8643237143705
 20
129.1225230716692
 42
0.1258365324339055
 10
117.504785136274
 20
129.3146396005922
 10
117.5045279372338
 20
129.3147026464748
 10
117.5045279372338
 20
129.3147026464748
 10
117.5045279372338
 20
129.3147026464748
 42
0.146987283680118
 10
117.1207416139696
 20
129.2867545145982
 10
117.1207416139696
 20
129.2867545145982
 10
117.1207416139696
 20
129.2867545145982
 42
0.1262393362640186
 10
116.7763449224809
 20
129.0432806373718
 10
116.7763449224809
 20
129.0432806373718
 10
116.7763449224809
 20
129.0432806373718
 42
0.0943597880466861
 10
116.5280382997376
 20
128.6243927393587
 10
116.5280382997376
 20
128.6243927393587
  0
LINE
  5
352
330
725
100
AcDbEntity
  8
0
  6
Continuous
 62
     7
100
AcDbLine
 10
116.5279443304755
 20
128.6243585373444
 30
0.0
 11
116.664737272751
 21
130.7337567574403
 31
0.0
  0
LINE
  5
353
330
725
100
AcDbEntity
  8
0
  6
Continuous
 62
     7
100
AcDbLine
 10
116.664737272751
 20
130.7337567574403
 30
0.0
 11
118.2780380009495
 21
130.7337369065723
 31
0.0
  0
LWPOLYLINE
  5
354
330
725
100
AcDbEntity
  8
0
  6
Continuous
 62
     7
100
AcDbPolyline
 90
       20
 70
   128
 43
0.0
 10
103.4888732471168
 20
131.871883282919
 42
-0.0705056859028001
 10
103.6341049344541
 20
132.3084857989369
 10
103.6341049344541
 20
132.3084857989369
 10
103.6341049344541
 20
132.3084857989369
 42
-0.0863041699112034
 10
103.8801389942038
 20
132.6403481520942
 10
103.8801389942038
 20
132.6403481520942
 10
103.8801219246766
 20
132.6403322546684
 42
-0.1123716792372995
 10
104.193548946587
 20
132.8223172738045
 10
104.1936004361561
 20
132.8223333284389
 10
104.1936004361561
 20
132.8223333284389
 10
104.1936689441903
 20
132.8223534055794
 42
-0.1324027788855876
 10
104.5316967396638
 20
132.8297255569548
 10
104.5318897434497
 20
132.829678025219
 10
104.5318897434497
 20
132.829678025219
 10
104.5318897434497
 20
132.829678025219
 42
-0.121315938943417
 10
104.8491281562071
 20
132.6615399882636
 10
104.8491281562071
 20
132.6615399882636
 10
104.8491281562071
 20
132.6615399882636
 42
-0.0942349920871451
 10
105.102112627278
 20
132.3407178297444
 10
105.102112627278
 20
132.3407178297444
  0
LWPOLYLINE
  5
36A
330
725
100
AcDbEntity
  8
0
  6
Continuous
 62
     7
100
AcDbPolyline
 90
       24
 70
   128
 43
0.0
 10
105.102112627278
 20
132.3407178297444
 10
105.102212252032
 20
132.3405595586946
 42
-0.0764570434037317
 10
105.202640643001
 20
132.1089748181741
 10
105.2026534352607
 20
132.1089260569608
 10
105.2026534352607
 20
132.1089260569608
 10
105.2026972190767
 20
132.1087644549154
 42
-0.0657909940626258
 10
105.2385381547682
 20
131.8412641565018
 10
105.2385385503552
 20
131.8410442387747
 10
105.2385385503552
 20
131.8410442387747
 10
105.2385391083728
 20
131.8409338618834
 42
-0.064545355192934
 10
105.205146258506
 20
131.5727044381524
 10
105.2051268699872
 20
131.5726293740318
 10
105.2051268699872
 20
131.5726293740318
 10
105.2050733414576
 20
131.5724234433031
 42
-0.0723208815670574
 10
105.106792591633
 20
131.3391206762731
 10
105.1067054068079
 20
131.3389762431183
 10
105.1067054068079
 20
131.3389762431183
 10
105.1067054068079
 20
131.3389762431183
 42
-0.0910423939600907
 10
104.9564136283219
 20
131.1709395765257
 10
104.9564136283219
 20
131.1709395765257
 10
104.9563677712041
 20
131.1709049071485
 42
-0.1170712864794175
 10
104.7740229187459
 20
131.0907251905163
 10
104.7740489971729
 20
131.0907299679624
 10
104.7740489971729
 20
131.0907299679624
  0
LINE
  5
384
330
725
100
AcDbEntity
  8
0
  6
Continuous
 62
     7
100
AcDbLine
 10
104.7740489971729
 20
131.0907299679624
 30
0.0
 11
104.2545140802363
 21
131.0907391127045
 31
0.0
  0
LWPOLYLINE
  5
385
330
725
100
AcDbEntity
  8
0
  6
Continuous
 62
     7
100
AcDbPolyline
 90
       16
 70
   128
 43
0.0
 10
104.7740489971729
 20
131.0907299679624
 42
-0.1182090389246741
 10
105.0256775207816
 20
130.9063739642453
 10
105.0256775207816
 20
130.9063739642453
 10
105.0256775207816
 20
130.9063739642453
 42
-0.0897014629218105
 10
105.2099417991029
 20
130.5998078608765
 10
105.2099417991029
 20
130.5998078608765
 10
105.2100020534446
 20
130.5996546517166
 42
-0.0728134401911669
 10
105.2994338617266
 20
130.216546858785
 10
105.2994377179376
 20
130.2165010379371
 10
105.2994377179376
 20
130.2165010379371
 10
105.2994377179376
 20
130.2165010379371
 42
-0.0680385363270257
 10
105.2807180187942
 20
129.8132814044072
 10
105.2807180187942
 20
129.8132814044072
 10
105.2807180187942
 20
129.8132814044072
 42
-0.0739112781191712
 10
105.1568919970875
 20
129.4500232643081
 10
105.1568919970875
 20
129.4500232643081
  0
LWPOLYLINE
  5
397
330
725
100
AcDbEntity
  8
0
  6
Continuous
 62
     7
100
AcDbPolyline
 90
       22
 70
   128
 43
0.0
 10
105.1568919970875
 20
129.4500232643081
 10
105.1567970525157
 20
129.4498524867357
 42
-0.0883904528737243
 10
104.8919969201463
 20
129.1248815962779
 10
104.8918550766333
 20
129.1247594931988
 10
104.8918550766333
 20
129.1247594931988
 10
104.8918550766333
 20
129.1247594931988
 42
-0.1149808635768554
 10
104.5627118295077
 20
128.957498819783
 10
104.5627118295077
 20
128.957498819783
 10
104.5627118295077
 20
128.957498819783
 42
-0.132036287895465
 10
104.2134295080355
 20
128.9704162462695
 10
104.2134295080355
 20
128.9704162462695
 10
104.2134295080355
 20
128.9704162462695
 42
-0.1178417440423761
 10
103.890835891715
 20
129.1620389972915
 10
103.890835891715
 20
129.1620389972915
 10
103.8906910803021
 20
129.1621755980637
 42
-0.0909171716984504
 10
103.6380665010025
 20
129.5063158356236
 10
103.6379640529527
 20
129.5065268971675
 10
103.6379640529527
 20
129.5065268971675
 10
103.6379640529527
 20
129.5065268971675
 42
-0.0727568114311939
 10
103.4889078873359
 20
129.9578657493525
 10
103.4889078873359
 20
129.9578657493525
 10
103.4889078873359
 20
129.9578657493525
  0
LWPOLYLINE
  5
3AF
330
725
100
AcDbEntity
  8
0
  6
Continuous
 62
     7
100
AcDbPolyline
 90
        5
 70
   128
 43
0.0
 10
106.9614955314933
 20
131.8718904889119
 10
106.9614661410033
 20
131.8717167470564
 42
0.083978129693841
 10
106.9614420813277
 20
129.9190890213461
 10
106.9614904298539
 20
129.9188031662419
 10
106.9614904298539
 20
129.9188031662419
  0
LWPOLYLINE
  5
3B6
330
725
100
AcDbEntity
  8
0
  6
Continuous
 62
     7
100
AcDbPolyline
 90
       24
 70
   128
 43
0.0
 10
106.9614904298539
 20
129.9188031662419
 10
106.9615306244686
 20
129.9185966912753
 42
0.0707212646095681
 10
107.1145486257686
 20
129.4768720851666
 10
107.1146276967699
 20
129.476718211192
 10
107.1146276967699
 20
129.476718211192
 10
107.1146276967699
 20
129.476718211192
 42
0.087198016978347
 10
107.3693671780088
 20
129.143764690865
 10
107.3693671780088
 20
129.143764690865
 10
107.3693671780088
 20
129.143764690865
 42
0.1136024585791787
 10
107.6912563744968
 20
128.9651877741475
 10
107.6912563744968
 20
128.9651877741475
 10
107.6912563744968
 20
128.9651877741475
 42
0.1328482795080838
 10
108.0364852396064
 20
128.9651614101275
 10
108.0364852396064
 20
128.9651614101275
 10
108.0364852396064
 20
128.9651614101275
 42
0.1202419588896397
 10
108.3583289449922
 20
129.1437059964457
 10
108.3583289449922
 20
129.1437059964457
 10
108.3583289449922
 20
129.1437059964457
 42
0.0931833119992309
 10
108.613094199553
 20
129.4767243068561
 10
108.613094199553
 20
129.4767243068561
 10
108.613094199553
 20
129.4767243068561
 42
0.0738914072073137
 10
108.7662099779053
 20
129.9188568417589
 10
108.7662099779053
 20
129.9188568417589
 10
108.7662099779053
 20
129.9188568417589
  0
LWPOLYLINE
  5
3D0
330
725
100
AcDbEntity
  8
0
  6
Continuous
 62
     7
100
AcDbPolyline
 90
        5
 70
   128
 43
0.0
 10
108.7662441799197
 20
129.9187628724968
 10
108.7663130966179
 20
129.919170397082
 42
0.0839655735843482
 10
108.7662884684468
 20
131.8715102609805
 10
108.7662150795447
 20
131.8719441644289
 10
108.7662150795447
 20
131.8719441644289
  0
LWPOLYLINE
  5
3D7
330
725
100
AcDbEntity
  8
0
  6
Continuous
 62
     7
100
AcDbPolyline
 90
       24
 70
   128
 43
0.0
 10
108.7662150795447
 20
131.8719441644289
 10
108.76617488493
 20
131.8721506393955
 42
0.0707212646097025
 10
108.6131568836298
 20
132.3138752455044
 10
108.6130778126287
 20
132.3140291194787
 10
108.6130778126287
 20
132.3140291194787
 10
108.6130778126287
 20
132.3140291194787
 42
0.0871980169782625
 10
108.3583383313898
 20
132.6469826398057
 10
108.3583383313898
 20
132.6469826398057
 10
108.3583383313898
 20
132.6469826398057
 42
0.1134985735633632
 10
108.0365431041639
 20
132.8255937585376
 10
108.0365431041639
 20
132.8255937585376
 10
108.0365431041639
 20
132.8255937585376
 42
0.1327349534503824
 10
107.6912202697921
 20
132.8255859205433
 10
107.6912202697921
 20
132.8255859205433
 10
107.6912202697921
 20
132.8255859205433
 42
0.1202419588897388
 10
107.3693765644064
 20
132.6470413342251
 10
107.3693765644064
 20
132.6470413342251
 10
107.3690595027527
 20
132.6467561409648
 42
0.0928738988100655
 10
107.114807182487
 20
132.3144107059972
 10
107.1146113098457
 20
132.3140230238147
 10
107.1146113098457
 20
132.3140230238147
 10
107.1146113098457
 20
132.3140230238147
 42
0.0738914072074122
 10
106.9614955314933
 20
131.8718904889119
 10
106.9614955314933
 20
131.8718904889119
  0
LWPOLYLINE
  5
3F1
330
725
100
AcDbEntity
  8
0
  6
Continuous
 62
     7
100
AcDbPolyline
 90
       21
 70
   128
 43
0.0
 10
93.82901805034851
 20
133.1472311089919
 10
93.82902477069254
 20
133.1472733699324
 42
-0.0725119843434486
 10
93.96661793177731
 20
133.5882133599672
 10
93.96660195478716
 20
133.5881800507521
 10
93.96660195478716
 20
133.5881800507521
 10
93.96660195478716
 20
133.5881800507521
 42
-0.089200155611366
 10
94.21006360711833
 20
133.9227243286051
 10
94.21006360711833
 20
133.9227243286051
 10
94.21006360711833
 20
133.9227243286051
 42
-0.117428169686737
 10
94.52382492063732
 20
134.1018389515113
 10
94.52382492063732
 20
134.1018389515113
 10
94.52382492063732
 20
134.1018389515113
 42
-0.1383770005122964
 10
94.86168998129057
 20
134.0992387996355
 10
94.86168998129057
 20
134.0992387996355
 10
94.86168998129057
 20
134.0992387996355
 42
-0.1239506448549715
 10
95.17404613373201
 20
133.9152766186526
 10
95.17404613373201
 20
133.9152766186526
 10
95.17421058800641
 20
133.9151191874353
 42
-0.0944532169861725
 10
95.41488583656743
 20
133.5771860078731
 10
95.41498077022623
 20
133.5769792924181
 10
95.41498077022623
 20
133.5769792924181
  0
LWPOLYLINE
  5
408
330
725
100
AcDbEntity
  8
0
  6
Continuous
 62
     7
100
AcDbPolyline
 90
       17
 70
   128
 43
0.0
 10
95.41498077022623
 20
133.5769792924181
 42
-0.069542222368943
 10
95.4929423276066
 20
133.2534313893638
 10
95.4929423276066
 20
133.2534313893638
 10
95.4929423276066
 20
133.2534313893638
 42
-0.0646307515318417
 10
95.48415782310479
 20
132.9115063062233
 10
95.48415782310479
 20
132.9115063062233
 10
95.48414871066222
 20
132.9114475987088
 42
-0.0688806131907223
 10
95.38981275669792
 20
132.5970812476601
 10
95.38980983262995
 20
132.597074856312
 10
95.38980983262995
 20
132.597074856312
 10
95.38980983262995
 20
132.597074856312
 42
-0.0834977411758738
 10
95.22257316306363
 20
132.3522093496509
 10
95.22257316306363
 20
132.3522093496509
 10
95.22257316306363
 20
132.3522093496509
 42
-0.1084618781626281
 10
95.00486501873215
 20
132.2097579056719
 10
95.00486501873215
 20
132.2097579056719
 10
95.00486501873215
 20
132.2097579056719
  0
LWPOLYLINE
  5
41B
330
725
100
AcDbEntity
  8
0
  6
Continuous
 62
     7
100
AcDbPolyline
 90
        9
 70
   128
 43
0.0
 10
95.00486501873215
 20
132.2097579056719
 10
95.00474111434241
 20
132.2096835407625
 42
0.1329805568717937
 10
94.24559995540823
 20
131.4202431168551
 10
94.24553967205305
 20
131.4201331416917
 10
94.24553967205305
 20
131.4201331416917
 10
94.24552064969036
 20
131.4201004165052
 42
0.0968579810390131
 10
93.82903838218886
 20
130.2176301962415
 10
93.82902749889659
 20
130.217553140356
 10
93.82902749889659
 20
130.217553140356
  0
LINE
  5
426
330
725
100
AcDbEntity
  8
0
  6
Continuous
 62
     7
100
AcDbLine
 10
93.82902749889659
 20
130.217553140356
 30
0.0
 11
95.57905106955944
 21
130.2175992325147
 31
0.0
  0
LWPOLYLINE
  5
427
330
725
100
AcDbEntity
  8
0
  6
Continuous
 62
     7
100
AcDbPolyline
 90
       20
 70
   128
 43
0.0
 10
97.30170212096716
 20
130.764460352987
 10
97.30177065011151
 20
130.7643424862677
 42
0.0882085035600146
 10
97.59118047930478
 20
130.4225515360441
 10
97.59136188598155
 20
130.4224011321907
 10
97.59136188598155
 20
130.4224011321907
 10
97.59138387087377
 20
130.4223833368979
 42
0.1139803398274455
 10
97.94697212413117
 20
130.2490836049524
 10
97.94698811821165
 20
130.2490799189773
 10
97.94698811821165
 20
130.2490799189773
 10
97.94719610713505
 20
130.249035499491
 42
0.1297824115722837
 10
98.32236591556515
 20
130.26695083871
 10
98.322507217069
 20
130.2669954539515
 10
98.322507217069
 20
130.2669954539515
 10
98.322507217069
 20
130.2669954539515
 42
0.1157972494776517
 10
98.66929838562292
 20
130.473775374188
 10
98.66929838562292
 20
130.473775374188
 10
98.66929838562292
 20
130.473775374188
 42
0.0899312690922519
 10
98.9423192513076
 20
130.8425966546217
 10
98.9423192513076
 20
130.8425966546217
 10
98.9423192513076
 20
130.8425966546217
  0
LWPOLYLINE
  5
43D
330
725
100
AcDbEntity
  8
0
  6
Continuous
 62
     7
100
AcDbPolyline
 90
       11
 70
   128
 43
0.0
 10
98.9423192513076
 20
130.8425966546217
 10
98.94234257521487
 20
130.8426552831656
 42
0.069263826548796
 10
99.04637098407363
 20
131.2671581081245
 10
99.04637443807406
 20
131.2671918478434
 10
99.04637443807406
 20
131.2671918478434
 10
99.04637443807406
 20
131.2671918478434
 42
0.0643641703923032
 10
99.03680975253577
 20
131.7168374825276
 10
99.03680975253577
 20
131.7168374825276
 10
99.03680975253577
 20
131.7168374825276
 42
0.0685359748967018
 10
98.91497563850027
 20
132.1316862003238
 10
98.91497563850027
 20
132.1316862003238
  0
LWPOLYLINE
  5
44A
330
725
100
AcDbEntity
  8
0
  6
Continuous
 62
     7
100
AcDbPolyline
 90
       20
 70
   128
 43
0.0
 10
98.91497563850027
 20
132.1316862003238
 10
98.9149203740998
 20
132.1318034082487
 42
0.0941934495422246
 10
98.63831262353048
 20
132.5124340789733
 10
98.63823942146746
 20
132.5125028966258
 10
98.63823942146746
 20
132.5125028966258
 10
98.63815666026882
 20
132.5125786320191
 42
0.1259367759146141
 10
98.27830266920914
 20
132.7047724105184
 10
98.27826746276093
 20
132.7047810257644
 10
98.27826746276093
 20
132.7047810257644
 10
98.27823015940042
 20
132.7047893358255
 42
0.1468389710329617
 10
97.89453314417606
 20
132.6769597056298
 10
97.89444693748249
 20
132.6769268631498
 10
97.89444693748249
 20
132.6769268631498
 10
97.89444693748249
 20
132.6769268631498
 42
0.126009601831155
 10
97.5500502459938
 20
132.4334529859234
 10
97.5500502459938
 20
132.4334529859234
 10
97.54988126486777
 20
132.4332614428961
 42
0.0941963726544031
 10
97.30176925793541
 20
132.0146729096202
 10
97.30168385600272
 20
132.0144369166339
 10
97.30168385600272
 20
132.0144369166339
  0
LINE
  5
460
330
725
100
AcDbEntity
  8
0
  6
Continuous
 62
     7
100
AcDbLine
 10
97.30168385600272
 20
132.0144369166339
 30
0.0
 11
97.43847679827828
 21
134.1238351367298
 31
0.0
  0
LINE
  5
461
330
725
100
AcDbEntity
  8
0
  6
Continuous
 62
     7
100
AcDbLine
 10
97.43847679827828
 20
134.1238351367298
 30
0.0
 11
99.05168355721473
 21
134.1237810838474
 31
0.0
  0
LWPOLYLINE
  5
462
330
725
100
AcDbEntity
  8
0
  6
Continuous
 62
     7
100
AcDbPolyline
 90
       18
 70
   128
 43
0.0
 10
84.06765921386721
 20
133.573454155586
 42
-0.0726110388792875
 10
84.2051491490438
 20
134.0143688953319
 10
84.2051491490438
 20
134.0143688953319
 10
84.2051491490438
 20
134.0143688953319
 42
-0.0892001556113739
 10
84.4486108013749
 20
134.3489131731849
 10
84.4486108013749
 20
134.3489131731849
 10
84.4486108013749
 20
134.3489131731849
 42
-0.1174281696867594
 10
84.76237211489394
 20
134.5280277960911
 10
84.76237211489394
 20
134.5280277960911
 10
84.76237211489394
 20
134.5280277960911
 42
-0.1383770005121256
 10
85.10023717554719
 20
134.5254276442153
 10
85.10023717554719
 20
134.5254276442153
 10
85.10023717554719
 20
134.5254276442153
 42
-0.1239506448551494
 10
85.41259332798853
 20
134.3414654632324
 10
85.41259332798853
 20
134.3414654632324
 10
85.41259332798853
 20
134.3414654632324
 42
-0.0946911108529729
 10
85.65352796448278
 20
134.0031681369979
 10
85.65352796448278
 20
134.0031681369979
  0
LWPOLYLINE
  5
476
330
725
100
AcDbEntity
  8
0
  6
Continuous
 62
     7
100
AcDbPolyline
 90
       16
 70
   128
 43
0.0
 10
85.65352796448278
 20
134.0031681369979
 42
-0.0695422223687688
 10
85.73148952186329
 20
133.6796202339436
 10
85.73148952186329
 20
133.6796202339436
 10
85.73148952186329
 20
133.6796202339436
 42
-0.0646307515317577
 10
85.72270501736142
 20
133.337695150803
 10
85.72270501736142
 20
133.337695150803
 10
85.72270501736142
 20
133.337695150803
 42
-0.0691074746054165
 10
85.62835702688653
 20
133.0232637008918
 10
85.62835702688653
 20
133.0232637008918
 10
85.62835702688653
 20
133.0232637008918
 42
-0.0834977411760103
 10
85.46112035732022
 20
132.7783981942307
 10
85.46112035732022
 20
132.7783981942307
 10
85.46112035732022
 20
132.7783981942307
 42
-0.1084618781627099
 10
85.24341221298866
 20
132.6359467502516
 10
85.24341221298866
 20
132.6359467502516
 10
85.24341221298866
 20
132.6359467502516
  0
LWPOLYLINE
  5
488
330
725
100
AcDbEntity
  8
0
  6
Continuous
 62
     7
100
AcDbPolyline
 90
        3
 70
   128
 43
0.0
 10
87.51291640854219
 20
133.5735045545309
 42
0.0840109259930669
 10
87.51294550891714
 20
131.6203232625988
 10
87.51294550891714
 20
131.6203232625988
  0
LWPOLYLINE
  5
48D
330
725
100
AcDbEntity
  8
0
  6
Continuous
 62
     7
100
AcDbPolyline
 90
        3
 70
   128
 43
0.0
 10
89.31757108770653
 20
131.6203427361014
 42
0.0840272237046221
 10
89.31757618934591
 20
133.5734300587714
 10
89.31757618934591
 20
133.5734300587714
  0
LWPOLYLINE
  5
492
330
725
100
AcDbEntity
  8
0
  6
Continuous
 62
     7
100
AcDbPolyline
 90
       23
 70
   128
 43
0.0
 10
89.31757618934591
 20
133.5734300587714
 42
0.070818260126189
 10
89.16453289169202
 20
134.0155492158356
 10
89.16453289169202
 20
134.0155492158356
 10
89.16453289169202
 20
134.0155492158356
 42
0.0872287096500746
 10
88.90979341045314
 20
134.3485027361627
 10
88.90979341045314
 20
134.3485027361627
 10
88.90962257376127
 20
134.3486563211634
 42
0.1133837968219277
 10
88.5880686503507
 20
134.5270322500818
 10
88.58790421396514
 20
134.5270796528803
 10
88.58790421396514
 20
134.5270796528803
 10
88.58790421396514
 20
134.5270796528803
 42
0.1326845489083964
 10
88.24267534885548
 20
134.5271060169002
 10
88.24267534885548
 20
134.5271060169002
 10
88.24267534885548
 20
134.5271060169002
 42
0.120198462354539
 10
87.92073767420758
 20
134.3485272285676
 10
87.92073767420758
 20
134.3485272285676
 10
87.92073767420758
 20
134.3485272285676
 42
0.0930583757794394
 10
87.66603218689459
 20
134.0156370894336
 10
87.66603218689459
 20
134.0156370894336
 10
87.66591968346096
 20
134.0154213005366
 42
0.0737473843269848
 10
87.51294641237997
 20
133.5736638854228
 10
87.51291640854219
 20
133.5735045545309
 10
87.51291640854219
 20
133.5735045545309
  0
LWPOLYLINE
  5
4AB
330
725
100
AcDbEntity
  8
0
  6
Continuous
 62
     7
100
AcDbPolyline
 90
        6
 70
   128
 43
0.0
 10
85.24341221298866
 20
132.6359467502516
 42
0.1120463615128401
 10
84.59675916276257
 20
132.021524165516
 10
84.59675916276257
 20
132.021524165516
 10
84.59675916276257
 20
132.021524165516
 42
0.0850512667606677
 10
84.16693937242531
 20
131.097597546225
 10
84.16693937242531
 20
131.097597546225
  0
LWPOLYLINE
  5
4B3
330
725
100
AcDbEntity
  8
0
  6
Continuous
 62
     7
100
AcDbPolyline
 90
        3
 70
   128
 43
0.0
 10
89.12762625175894
 20
131.1124479740721
 42
0.0882019022015884
 10
89.31757108770653
 20
131.6203427361014
 10
89.31757108770653
 20
131.6203427361014
  0
LWPOLYLINE
  5
4B8
330
725
100
AcDbEntity
  8
0
  6
Continuous
 62
     7
100
AcDbPolyline
 90
        5
 70
   128
 43
0.0
 10
87.51294550891714
 20
131.6203232625988
 10
87.51296462700251
 20
131.6202262571046
 42
0.0116168777985203
 10
87.53089480022145
 20
131.5392163183201
 10
87.53095372318931
 20
131.5389766325597
 10
87.53095372318931
 20
131.5389766325597
  0
LINE
  5
4BF
330
725
100
AcDbEntity
  8
0
  6
Continuous
 62
     7
100
AcDbLine
 10
80.16531902154097
 20
122.5969085025422
 30
0.0
 11
80.16530075657664
 21
123.8468850661891
 31
0.0
  0
LINE
  5
4C0
330
725
100
AcDbEntity
  8
0
  6
Continuous
 62
     7
100
AcDbLine
 10
80.16530075657664
 20
123.8468850661891
 30
0.0
 11
77.66521945800661
 21
123.8469083035081
 31
0.0
  0
LINE
  5
4C1
330
725
100
AcDbEntity
  8
0
  6
Continuous
 62
     7
100
AcDbLine
 10
80.16523002463365
 20
126.3469321627448
 30
0.0
 11
80.16521175966927
 21
127.5969087263917
 31
0.0
  0
LINE
  5
4C2
330
725
100
AcDbEntity
  8
0
  6
Continuous
 62
     7
100
AcDbLine
 10
80.16526422664799
 20
126.3468381934828
 30
0.0
 11
77.66527689733994
 21
126.3468956328161
 31
0.0
  0
LINE
  5
4C3
330
725
100
AcDbEntity
  8
0
  6
Continuous
 62
     7
100
AcDbLine
 10
77.66521945800661
 20
123.8469083035081
 30
0.0
 11
77.66527689733994
 21
126.3468956328161
 31
0.0
  0
LINE
  5
4C4
330
725
100
AcDbEntity
  8
0
  6
Continuous
 62
     7
100
AcDbLine
 10
80.16521175966927
 20
127.5969087263917
 30
0.0
 11
80.52706201400535
 21
127.2351522151346
 31
0.0
  0
LINE
  5
4C5
330
725
100
AcDbEntity
  8
0
  6
Continuous
 62
     7
100
AcDbLine
 10
80.52701576555035
 20
122.9586305856019
 30
0.0
 11
80.16522505227896
 21
122.5968743005279
 31
0.0
  0
LINE
  5
4C6
330
725
100
AcDbEntity
  8
0
  6
Continuous
 62
     7
100
AcDbLine
 10
81.32012942070389
 20
118.6826162112097
 30
0.0
 11
81.8670709942677
 21
119.0341833386654
 31
0.0
  0
LINE
  5
4C7
330
725
100
AcDbEntity
  8
0
  6
Continuous
 62
     7
100
AcDbLine
 10
81.8670709942677
 20
119.0341833386654
 30
0.0
 11
81.86700102374118
 21
115.1278805220492
 31
0.0
  0
LWPOLYLINE
  5
4C8
330
725
100
AcDbEntity
  8
0
  6
Continuous
 62
     7
100
AcDbPolyline
 90
       24
 70
   128
 43
0.0
 10
82.41794598317875
 20
110.0149684700312
 10
82.41804359413427
 20
110.0155814752658
 42
-0.0723074213141558
 10
82.55516513073494
 20
110.4553177867606
 10
82.55543591835525
 20
110.4558832097771
 10
82.55543591835525
 20
110.4558832097771
 10
82.55543591835525
 20
110.4558832097771
 42
-0.089132135867038
 10
82.79899153994852
 20
110.7904616896444
 10
82.79899153994852
 20
110.7904616896444
 10
82.79913099134907
 20
110.7905921181055
 42
-0.1171582277369816
 10
83.11256227626612
 20
110.9695203805582
 10
83.11275285346756
 20
110.9695763125506
 10
83.11275285346756
 20
110.9695763125506
 10
83.11282957386573
 20
110.9695972912285
 42
-0.138159607387262
 10
83.45050190574209
 20
110.9670098013562
 10
83.45061791412081
 20
110.9669761606748
 10
83.45061791412081
 20
110.9669761606748
 10
83.4506275514213
 20
110.9669733280728
 42
-0.1237623588864775
 10
83.76284795121044
 20
110.7831383458601
 10
83.76297406656213
 20
110.7830139796919
 10
83.76297406656213
 20
110.7830139796919
 10
83.76313852083644
 20
110.7828565484747
 42
-0.0944532169862089
 10
84.00381376939781
 20
110.4449233689121
 10
84.00390870305647
 20
110.4447166534574
 10
84.00390870305647
 20
110.4447166534574
  0
LWPOLYLINE
  5
4E2
330
725
100
AcDbEntity
  8
0
  6
Continuous
 62
     7
100
AcDbPolyline
 90
       20
 70
   128
 43
0.0
 10
84.00390870305647
 20
110.4447166534574
 10
84.00406057853535
 20
110.4443304266687
 42
-0.0692325022939205
 10
84.0818390094483
 20
110.1214860733374
 10
84.08187026043686
 20
110.1211687504031
 10
84.08187026043686
 20
110.1211687504031
 10
84.08189135675119
 20
110.1209648618489
 42
-0.0644998838043839
 10
84.07310389592193
 20
109.7793601120706
 10
84.07308575593505
 20
109.7792436672626
 10
84.07308575593505
 20
109.7792436672626
 10
84.07307664349238
 20
109.7791849597473
 42
-0.0688806131904286
 10
83.9787406895283
 20
109.4648186086998
 10
83.97873776546013
 20
109.4648122173513
 10
83.97873776546013
 20
109.4648122173513
 10
83.97873776546013
 20
109.4648122173513
 42
-0.0834977411759213
 10
83.81150109589384
 20
109.2199467106902
 10
83.81150109589384
 20
109.2199467106902
 10
83.81150109589384
 20
109.2199467106902
 42
-0.1084564577561752
 10
83.5937929515623
 20
109.0774952667111
 10
83.5937929515623
 20
109.0774952667111
 10
83.5937929515623
 20
109.0774952667111
  0
LWPOLYLINE
  5
4F8
330
725
100
AcDbEntity
  8
0
  6
Continuous
 62
     7
100
AcDbPolyline
 90
        6
 70
   128
 43
0.0
 10
83.59369898230029
 20
109.0774610646968
 42
0.1330403971638642
 10
82.8345018068976
 20
108.2877765334689
 10
82.8345018068976
 20
108.2877765334689
 10
82.8345018068976
 20
108.2877765334689
 42
0.0968957913864069
 10
82.4179554317269
 20
107.0852905013953
 10
82.4179554317269
 20
107.0852905013953
  0
LINE
  5
500
330
725
100
AcDbEntity
  8
0
  6
Continuous
 62
     7
100
AcDbLine
 10
82.4179554317269
 20
107.0852905013953
 30
0.0
 11
84.16797900238972
 21
107.085336593554
 31
0.0
  0
LWPOLYLINE
  5
501
330
725
100
AcDbEntity
  8
0
  6
Continuous
 62
     7
100
AcDbPolyline
 90
       23
 70
   128
 43
0.0
 10
83.64581376050422
 20
101.9528167416521
 10
83.64582205630082
 20
101.9528621627969
 42
-0.0703514001323881
 10
83.79101763815407
 20
102.3893633514679
 10
83.79104544784155
 20
102.38941925767
 10
83.79104544784155
 20
102.38941925767
 10
83.79115078584709
 20
102.3896286936111
 42
-0.0861963004032369
 10
84.03695044738695
 20
102.7211587368826
 10
84.03707950759121
 20
102.7212816108273
 10
84.03707950759121
 20
102.7212816108273
 10
84.03706243806418
 20
102.7212657134018
 42
-0.1123716792370295
 10
84.35048945997412
 20
102.9032507325376
 10
84.35054094954347
 20
102.903266787172
 10
84.35054094954347
 20
102.903266787172
 10
84.35058676768205
 20
102.9032802165687
 42
-0.1324929052874923
 10
84.68883775626581
 20
102.9106096345127
 10
84.68883025683702
 20
102.9106114839521
 10
84.68883025683702
 20
102.9106114839521
 10
84.68883025683702
 20
102.9106114839521
 42
-0.1213159389432981
 10
85.00606866959454
 20
102.7424734469968
 10
85.00606866959454
 20
102.7424734469968
 10
85.00606866959454
 20
102.7424734469968
 42
-0.0942279414149172
 10
85.25908734267977
 20
102.4215573192155
 10
85.25908734267977
 20
102.4215573192155
  0
LWPOLYLINE
  5
51A
330
725
100
AcDbEntity
  8
0
  6
Continuous
 62
     7
100
AcDbPolyline
 90
       22
 70
   128
 43
0.0
 10
85.25908734267977
 20
102.4215573192155
 10
85.2591138601825
 20
102.4215152070385
 42
-0.0764804222732998
 10
85.35960010824211
 20
102.1898724063675
 10
85.35962815066245
 20
102.1897655464318
 10
85.35962815066245
 20
102.1897655464318
 10
85.35965436131666
 20
102.1896687815601
 42
-0.0657754369873006
 10
85.3954786097548
 20
101.9222300818276
 10
85.39547906374258
 20
101.9219776975079
 10
85.39547906374258
 20
101.9219776975079
 10
85.39547962176019
 20
101.9218673206161
 42
-0.0645453551926122
 10
85.36208677189353
 20
101.6536378968861
 10
85.3620673833746
 20
101.6535628327649
 10
85.3620673833746
 20
101.6535628327649
 10
85.3620673833746
 20
101.6535628327649
 42
-0.0724788491094742
 10
85.26373988945739
 20
101.4199439038657
 10
85.26373988945739
 20
101.4199439038657
 10
85.26367043337208
 20
101.4198303020875
 42
-0.0908831369267454
 10
85.11335414170934
 20
101.2518730352589
 10
85.11335414170934
 20
101.2518730352589
 10
85.11335414170934
 20
101.2518730352589
 42
-0.1175257664641689
 10
84.93098951056039
 20
101.1716634266956
 10
84.93098951056039
 20
101.1716634266956
  0
LINE
  5
532
330
725
100
AcDbEntity
  8
0
  6
Continuous
 62
     7
100
AcDbLine
 10
84.93102371257469
 20
101.1715694574335
 30
0.0
 11
84.41148879563803
 21
101.1715786021756
 31
0.0
  0
LWPOLYLINE
  5
533
330
725
100
AcDbEntity
  8
0
  6
Continuous
 62
     7
100
AcDbPolyline
 90
       21
 70
   128
 43
0.0
 10
84.93098951056039
 20
101.1716634266956
 10
84.9311692971178
 20
101.171588029355
 42
-0.1180318210463557
 10
85.1826128791931
 20
100.9874584177712
 10
85.18271200343106
 20
100.9873416249928
 10
85.18271200343106
 20
100.9873416249928
 10
85.18283361505982
 20
100.9872028443449
 42
-0.0895612808517912
 10
85.36682090028566
 20
100.6808996355538
 10
85.36691651450462
 20
100.6806473503477
 10
85.36691651450462
 20
100.6806473503477
 10
85.36697033953883
 20
100.6805104942144
 42
-0.0727835798034366
 10
85.45639354438412
 20
100.2975646194084
 10
85.45641243333932
 20
100.2973405274081
 10
85.45641243333932
 20
100.2973405274081
 10
85.45644925918677
 20
100.2969293219761
 42
-0.0678301336681321
 10
85.43787658709282
 20
99.89464462992524
 10
85.43778670345801
 20
99.89415509589264
 10
85.43778670345801
 20
99.89415509589264
 10
85.43772723671077
 20
99.89383145722955
 42
-0.0737232731542435
 10
85.31397419648605
 20
99.53123150226536
 10
85.31383251047492
 20
99.53095672304122
 10
85.31383251047492
 20
99.53095672304122
  0
LWPOLYLINE
  5
54A
330
725
100
AcDbEntity
  8
0
  6
Continuous
 62
     7
100
AcDbPolyline
 90
       21
 70
   128
 43
0.0
 10
85.31383251047492
 20
99.53095672304122
 10
85.31373756590307
 20
99.53078594546877
 42
-0.0883904528735862
 10
85.0489374335337
 20
99.20581505501111
 10
85.04879559002073
 20
99.20569295193205
 10
85.04879559002073
 20
99.20569295193205
 10
85.04879559002073
 20
99.20569295193205
 42
-0.114980863576878
 10
84.71965234289505
 20
99.03843227851616
 10
84.71965234289505
 20
99.03843227851616
 10
84.71965234289505
 20
99.03843227851616
 42
-0.1320362878953003
 10
84.37037002142295
 20
99.0513497050027
 10
84.37037002142295
 20
99.0513497050027
 10
84.37037002142295
 20
99.0513497050027
 42
-0.1178417440423504
 10
84.04777640510245
 20
99.24297245602474
 10
84.04777640510245
 20
99.24297245602474
 10
84.04777640510245
 20
99.24297245602474
 42
-0.0910272036912256
 10
83.79499853560211
 20
99.58749455791505
 10
83.79499853560211
 20
99.58749455791505
 10
83.79499853560211
 20
99.58749455791505
 42
-0.0726564326561124
 10
83.6458484007233
 20
100.0387992080856
 10
83.6458484007233
 20
100.0387992080856
 10
83.6458484007233
 20
100.0387992080856
  0
LINE
  5
561
330
725
100
AcDbEntity
  8
0
  6
Continuous
 62
     7
100
AcDbLine
 10
85.90597222902266
 20
90.94892031006102
 30
0.0
 11
85.90594823028714
 21
94.855188924663
 31
0.0
  0
LINE
  5
562
330
725
100
AcDbEntity
  8
0
  6
Continuous
 62
     7
100
AcDbLine
 10
85.90594823028714
 20
94.855188924663
 30
0.0
 11
84.53872275139865
 21
92.12076428685007
 31
0.0
  0
LINE
  5
563
330
725
100
AcDbEntity
  8
0
  6
Continuous
 62
     7
100
AcDbLine
 10
84.53872275139865
 20
92.12076428685007
 30
0.0
 11
86.45283425422723
 21
92.12083312908353
 31
0.0
  0
CIRCLE
  5
564
330
725
100
AcDbEntity
  8
0
  6
Continuous
 62
     7
100
AcDbCircle
 10
86.66526999999996
 20
125.0968899999999
 30
0.0
 40
6.499999999999969
  0
LINE
  5
565
330
725
100
AcDbEntity
  8
0
  6
Continuous
 62
     7
100
AcDbLine
 10
83.26924883912012
 20
124.9250171549775
 30
0.0
 11
85.38355723588834
 21
125.6945624774602
 31
0.0
  0
LINE
  5
566
330
725
100
AcDbEntity
  8
0
  6
Continuous
 62
     7
100
AcDbLine
 10
87.2629424774602
 20
126.3786027641115
 30
0.0
 11
89.37725087422847
 21
127.1481480865942
 31
0.0
  0
LINE
  5
567
330
725
100
AcDbEntity
  8
0
  6
Continuous
 62
     7
100
AcDbLine
 10
83.95328912577147
 20
123.0456319134056
 30
0.0
 11
86.06759752253971
 21
123.8151772358884
 31
0.0
  0
LINE
  5
568
330
725
100
AcDbEntity
  8
0
  6
Continuous
 62
     7
100
AcDbLine
 10
87.94698276411146
 20
124.4992175225397
 30
0.0
 11
90.06129116087981
 21
125.2687628450225
 31
0.0
  0
LINE
  5
569
330
725
100
AcDbEntity
  8
0
  6
Continuous
 62
     7
100
AcDbLine
 10
86.83714284502242
 20
121.7008688391201
 30
0.0
 11
86.06759752253971
 21
123.8151772358884
 31
0.0
  0
LINE
  5
56A
330
725
100
AcDbEntity
  8
0
  6
Continuous
 62
     7
100
AcDbLine
 10
85.38355723588834
 20
125.6945624774602
 30
0.0
 11
84.61401191340558
 21
127.8088708742285
 31
0.0
  0
LINE
  5
56B
330
725
100
AcDbEntity
  8
0
  6
Continuous
 62
     7
100
AcDbLine
 10
88.71652808659423
 20
122.3849091257714
 30
0.0
 11
87.94698276411146
 21
124.4992175225397
 31
0.0
  0
LINE
  5
56C
330
725
100
AcDbEntity
  8
0
  6
Continuous
 62
     7
100
AcDbLine
 10
87.2629424774602
 20
126.3786027641115
 30
0.0
 11
86.4933971549774
 21
128.4929111608798
 31
0.0
  0
LINE
  5
56D
330
725
100
AcDbEntity
  8
0
  6
Continuous
 62
     7
100
AcDbLine
 10
83.95328912577147
 20
123.0456319134056
 30
0.0
 11
83.26924883912012
 21
124.9250171549775
 31
0.0
  0
LINE
  5
56E
330
725
100
AcDbEntity
  8
0
  6
Continuous
 62
     7
100
AcDbLine
 10
90.06129116087981
 20
125.2687628450225
 30
0.0
 11
89.37725087422847
 21
127.1481480865942
 31
0.0
  0
LINE
  5
56F
330
725
100
AcDbEntity
  8
0
  6
Continuous
 62
     7
100
AcDbLine
 10
84.61401191340558
 20
127.8088708742285
 30
0.0
 11
86.4933971549774
 21
128.4929111608798
 31
0.0
  0
LINE
  5
570
330
725
100
AcDbEntity
  8
0
  6
Continuous
 62
     7
100
AcDbLine
 10
86.83714284502242
 20
121.7008688391201
 30
0.0
 11
88.71652808659423
 21
122.3849091257714
 31
0.0
  0
LINE
  5
571
330
725
100
AcDbEntity
  8
0
  6
Continuous
 62
     7
100
AcDbLine
 10
44.8464780456307
 20
148.8236016625775
 30
0.0
 11
133.66527
 21
132.46892
 31
0.0
  0
LINE
  5
572
330
725
100
AcDbEntity
  8
0
  6
Continuous
 62
     7
100
AcDbLine
 10
61.66528537844704
 20
-2.433403144107124
 30
0.0
 11
114.42951
 21
2.182859999999998
 31
0.0
  0
LINE
  5
573
330
725
100
AcDbEntity
  8
0
  6
Continuous
 62
     7
100
AcDbLine
 10
83.2692165959048
 20
12.924977248516
 30
0.0
 11
85.38352499267306
 21
13.69452257099874
 31
0.0
  0
LINE
  5
574
330
725
100
AcDbEntity
  8
0
  6
Continuous
 62
     7
100
AcDbLine
 10
87.26291023424488
 20
14.37856285765008
 30
0.0
 11
89.37721863101318
 21
15.14810818013285
 31
0.0
  0
LINE
  5
575
330
725
100
AcDbEntity
  8
0
  6
Continuous
 62
     7
100
AcDbLine
 10
83.95325688255615
 20
11.04559200694416
 30
0.0
 11
86.06756527932441
 21
11.81513732942693
 31
0.0
  0
LINE
  5
576
330
725
100
AcDbEntity
  8
0
  6
Continuous
 62
     7
100
AcDbLine
 10
87.94695052089622
 20
12.49917761607827
 30
0.0
 11
90.06125891766453
 21
13.26872293856101
 31
0.0
  0
LINE
  5
577
330
725
100
AcDbEntity
  8
0
  6
Continuous
 62
     7
100
AcDbLine
 10
86.83711060180719
 20
9.700828932658623
 30
0.0
 11
86.06756527932441
 21
11.81513732942693
 31
0.0
  0
LINE
  5
578
330
725
100
AcDbEntity
  8
0
  6
Continuous
 62
     7
100
AcDbLine
 10
85.38352499267306
 20
13.69452257099874
 30
0.0
 11
84.6139796701903
 21
15.80883096776705
 31
0.0
  0
LINE
  5
579
330
725
100
AcDbEntity
  8
0
  6
Continuous
 62
     7
100
AcDbLine
 10
88.71649584337898
 20
10.38486921930996
 30
0.0
 11
87.94695052089622
 21
12.49917761607827
 31
0.0
  0
LINE
  5
57A
330
725
100
AcDbEntity
  8
0
  6
Continuous
 62
     7
100
AcDbLine
 10
87.26291023424488
 20
14.37856285765008
 30
0.0
 11
86.4933649117621
 21
16.49287125441839
 31
0.0
  0
LINE
  5
57B
330
725
100
AcDbEntity
  8
0
  6
Continuous
 62
     7
100
AcDbLine
 10
83.95325688255615
 20
11.04559200694416
 30
0.0
 11
83.2692165959048
 21
12.924977248516
 31
0.0
  0
LINE
  5
57C
330
725
100
AcDbEntity
  8
0
  6
Continuous
 62
     7
100
AcDbLine
 10
90.06125891766453
 20
13.26872293856101
 30
0.0
 11
89.37721863101318
 21
15.14810818013285
 31
0.0
  0
LINE
  5
57D
330
725
100
AcDbEntity
  8
0
  6
Continuous
 62
     7
100
AcDbLine
 10
84.6139796701903
 20
15.80883096776705
 30
0.0
 11
86.4933649117621
 21
16.49287125441839
 31
0.0
  0
LINE
  5
57E
330
725
100
AcDbEntity
  8
0
  6
Continuous
 62
     7
100
AcDbLine
 10
86.83711060180719
 20
9.700828932658623
 30
0.0
 11
88.71649584337898
 21
10.38486921930996
 31
0.0
  0
CIRCLE
  5
57F
330
725
100
AcDbEntity
  8
0
  6
Continuous
 62
     7
100
AcDbCircle
 10
86.66523775678466
 20
13.09685009353851
 30
0.0
 40
6.499999999999969
  0
CIRCLE
  5
580
330
725
100
AcDbEntity
  8
0
  6
Continuous
 62
     7
100
AcDbCircle
 10
120.5244188808785
 20
26.76293802153782
 30
0.0
 40
2.999999999999964
  0
ENDBLK
  5
581
330
725
100
AcDbEntity
  8
DATA
100
AcDbBlockEnd
  0
BLOCK
  5
582
330
726
100
AcDbEntity
  8
DATA
100
AcDbBlockBegin
  2
____-1
 70
     0
 10
0.0
 20
0.0
 30
0.0
  3
____-1
  1

  0
LINE
  5
583
330
726
100
AcDbEntity
  8
0
  6
Continuous
 62
     7
100
AcDbLine
 10
-196.9855927279729
 20
111.8469862551631
 30
0.0
 11
-61.36752727202713
 21
-260.7605862551631
 31
0.0
  0
LINE
  5
584
330
726
100
AcDbEntity
  8
0
  6
Continuous
 62
     7
100
AcDbLine
 10
-160.3777337249477
 20
157.4579402779287
 30
0.0
 11
-4.006124196451423
 21
-272.1695259453879
 31
0.0
  0
LINE
  5
585
330
726
100
AcDbEntity
  8
0
  6
Continuous
 62
     7
100
AcDbLine
 10
61.66528537844704
 20
119.1182545112579
 30
0.0
 11
61.66528537844794
 21
-221.0376646417489
 31
0.0
  0
LINE
  5
586
330
726
100
AcDbEntity
  8
0
  6
Continuous
 62
     7
100
AcDbLine
 10
-117.331534806891
 20
169.2987765644744
 30
0.0
 11
35.51017127709781
 21
-250.6303596522054
 31
0.0
  0
LINE
  5
587
330
726
100
AcDbEntity
  8
0
  6
Continuous
 62
     7
100
AcDbLine
 10
-96.62243960301077
 20
172.3389953178189
 30
0.0
 11
53.01636533604085
 21
-238.7902423263999
 31
0.0
  0
LINE
  5
588
330
726
100
AcDbEntity
  8
0
  6
STYLE_14
 62
     7
100
AcDbLine
 10
4.530697151785147
 20
141.9230786508165
 30
0.0
 11
58.74088986890446
 21
-7.018201743750466
 31
0.0
  0
LINE
  5
589
330
726
100
AcDbEntity
  8
0
  6
Continuous
 62
     7
100
AcDbLine
 10
-28.14517803671072
 20
-278.3177409181694
 30
0.0
 11
-4.006124196451423
 21
-272.1695259453879
 31
0.0
  0
ARC
  5
58A
330
726
100
AcDbEntity
  8
0
  6
Continuous
 62
     7
100
AcDbCircle
 10
-34.92946458618792
 20
-250.9443335265664
 30
0.0
 40
28.20159527778675
100
AcDbArc
 50
200.3695806049469
 51
283.9198262575557
  0
ARC
  5
58B
330
726
100
AcDbEntity
  8
0
  6
Continuous
 62
     7
100
AcDbCircle
 10
39.16528537844704
 20
-221.0376646417489
 30
0.0
 40
22.50000000000007
100
AcDbArc
 50
305.6730311201028
 51
0.0
  0
ARC
  5
58C
330
726
100
AcDbEntity
  8
0
  6
Continuous
 62
     7
100
AcDbCircle
 10
-149.5073647783244
 20
41.78908177570026
 30
0.0
 40
346.03557385481
100
AcDbArc
 50
294.8649325546038
 51
305.6730311201032
  0
LINE
  5
58D
330
726
100
AcDbEntity
  8
0
  6
STYLE_14
 62
     7
100
AcDbLine
 10
58.74088986890446
 20
-7.018201743750466
 30
0.0
 11
61.66528537844704
 21
-5.953808825055545
 31
0.0
  0
ARC
  5
58E
330
726
100
AcDbEntity
  8
0
  6
STYLE_14
 62
     7
100
AcDbCircle
 10
47.63287015935645
 20
7.561920738659921
 30
0.0
 40
8.951428571453339
100
AcDbArc
 50
327.5173006958843
 51
72.48269930413306
  0
ARC
  5
58F
330
726
100
AcDbEntity
  8
0
  6
Continuous
 62
     7
100
AcDbCircle
 10
-68.1493616681379
 20
-93.66372502165173
 30
0.0
 40
267.5222671014206
100
AcDbArc
 50
64.72952511701045
 51
110.1665516682032
  0
LINE
  5
590
330
726
100
AcDbEntity
  8
0
  6
Continuous
 62
     7
100
AcDbLine
 10
-182.8213181875796
 20
146.6514614748744
 30
0.0
 11
-160.3777337249477
 21
157.4579402779287
 31
0.0
  0
ARC
  5
591
330
726
100
AcDbEntity
  8
0
  6
Continuous
 62
     7
100
AcDbCircle
 10
-170.4230960931505
 20
121.3213595187181
 30
0.0
 40
28.20159527778678
100
AcDbArc
 50
116.0801737424448
 51
199.6304193950531
  0
ARC
  5
592
330
726
100
AcDbEntity
  8
0
  6
Continuous
 62
     7
100
AcDbCircle
 10
26.66528537844659
 20
119.1182545112579
 30
0.0
 40
35.0
100
AcDbArc
 50
0.0
 51
56.3611866405842
  0
LINE
  5
593
330
726
100
AcDbEntity
  8
0
  6
STYLE_14
 62
     7
100
AcDbLine
 10
-23.30881464807328
 20
158.4735184862248
 30
0.0
 11
-15.79127368178581
 21
161.2096796328301
 31
0.0
  0
LINE
  5
594
330
726
100
AcDbEntity
  8
0
  6
STYLE_14
 62
     7
100
AcDbLine
 10
-15.7406547005736
 20
161.0706051249541
 30
0.0
 11
-10.66097153190151
 21
147.1142903210416
 31
0.0
  0
LINE
  5
595
330
726
100
AcDbEntity
  8
0
  6
STYLE_14
 62
     7
100
AcDbLine
 10
-18.17851249818852
 20
144.3781291744363
 30
0.0
 11
-10.66097153190151
 21
147.1142903210416
 31
0.0
  0
LINE
  5
596
330
726
100
AcDbEntity
  8
0
  6
STYLE_14
 62
     7
100
AcDbLine
 10
-14.3294795892117
 20
157.1934333715913
 30
0.0
 11
-5.402399691746381
 21
160.4426247331853
 31
0.0
  0
LINE
  5
597
330
726
100
AcDbEntity
  8
0
  6
STYLE_14
 62
     7
100
AcDbLine
 10
-12.0721466432625
 20
150.991462074404
 30
0.0
 11
-3.14506674579627
 21
154.2406534359984
 31
0.0
  0
LINE
  5
598
330
726
100
AcDbEntity
  8
0
  6
STYLE_14
 62
     7
100
AcDbLine
 10
-15.45814606218675
 20
160.2944190201847
 30
0.0
 11
-6.531066164720527
 21
163.5436103817788
 31
0.0
  0
LINE
  5
599
330
726
100
AcDbEntity
  8
0
  6
STYLE_14
 62
     7
100
AcDbLine
 10
-2.016400272822124
 20
151.139667787405
 30
0.0
 11
-10.94348017028835
 21
147.8904764258105
 31
0.0
  0
LINE
  5
59A
330
726
100
AcDbEntity
  8
0
  6
STYLE_14
 62
     7
100
AcDbLine
 10
-6.531066164720527
 20
163.5436103817788
 30
0.0
 11
-2.016400272822124
 21
151.139667787405
 31
0.0
  0
LINE
  5
59B
330
726
100
AcDbEntity
  8
0
  6
STYLE_14
 62
     7
100
AcDbLine
 10
-28.01617027572923
 20
156.787849777737
 30
0.0
 11
-23.31770717179972
 21
158.4979504943654
 31
0.0
  0
LINE
  5
59C
330
726
100
AcDbEntity
  8
0
  6
STYLE_14
 62
     7
100
AcDbLine
 10
-22.81746409717891
 20
142.5045219417912
 30
0.0
 11
-18.11900099324941
 21
144.2146226584196
 31
0.0
  0
LINE
  5
59D
330
726
100
AcDbEntity
  8
0
  6
STYLE_14
 62
     7
100
AcDbLine
 10
-23.31770717179972
 20
158.4979504943654
 30
0.0
 11
-18.11900099324941
 21
144.2146226584191
 31
0.0
  0
LINE
  5
59E
330
726
100
AcDbEntity
  8
0
  6
STYLE_14
 62
     7
100
AcDbLine
 10
-33.06531923914564
 20
170.6602725421877
 30
0.0
 11
-19.43146467825557
 21
133.2015649960122
 31
0.0
  0
LINE
  5
59F
330
726
100
AcDbEntity
  8
0
  6
STYLE_14
 62
     7
100
AcDbLine
 10
-19.43146467825557
 20
133.2015649960122
 30
0.0
 11
4.530697151785147
 21
141.9230786508165
 31
0.0
  0
ARC
  5
5A0
330
726
100
AcDbEntity
  8
0
  6
STYLE_14
 62
     7
100
AcDbCircle
 10
4.196311956996737
 20
126.9028835784707
 30
0.0
 40
8.951428571453339
100
AcDbArc
 50
327.5173006958843
 51
72.48269930413269
  0
ARC
  5
5A1
330
726
100
AcDbEntity
  8
0
  6
Continuous
 62
     7
100
AcDbCircle
 10
-89.63372154256877
 20
129.4045817263755
 30
0.0
 40
6.132812500000267
100
AcDbArc
 50
130.3510216860946
 51
269.648978313913
  0
ARC
  5
5A2
330
726
100
AcDbEntity
  8
0
  6
Continuous
 62
     7
100
AcDbCircle
 10
-93.64209787810956
 20
127.9456520525014
 30
0.0
 40
6.132812500000613
100
AcDbArc
 50
310.3510216860918
 51
89.64897831391306
  0
ARC
  5
5A3
330
726
100
AcDbEntity
  8
0
  6
Continuous
 62
     7
100
AcDbCircle
 10
-49.44635470180265
 20
18.99069878403117
 30
0.0
 40
6.132812500000267
100
AcDbArc
 50
130.3510216860946
 51
269.648978313913
  0
ARC
  5
5A4
330
726
100
AcDbEntity
  8
0
  6
Continuous
 62
     7
100
AcDbCircle
 10
-53.45473103734343
 20
17.53176911015708
 30
0.0
 40
6.132812500000613
100
AcDbArc
 50
310.3510216860918
 51
89.64897831391306
  0
ARC
  5
5A5
330
726
100
AcDbEntity
  8
0
  6
Continuous
 62
     7
100
AcDbCircle
 10
-9.25898786103653
 20
-91.42318415831296
 30
0.0
 40
6.132812500000267
100
AcDbArc
 50
130.3510216860946
 51
269.6489783139131
  0
ARC
  5
5A6
330
726
100
AcDbEntity
  8
0
  6
Continuous
 62
     7
100
AcDbCircle
 10
-13.26736419657732
 20
-92.88211383218705
 30
0.0
 40
6.132812500000613
100
AcDbArc
 50
310.3510216860918
 51
89.64897831391303
  0
ARC
  5
5A7
330
726
100
AcDbEntity
  8
0
  6
Continuous
 62
     7
100
AcDbCircle
 10
30.92837897972948
 20
-201.8370671006568
 30
0.0
 40
6.132812500000341
100
AcDbArc
 50
130.3510216860954
 51
269.648978313912
  0
ARC
  5
5A8
330
726
100
AcDbEntity
  8
0
  6
Continuous
 62
     7
100
AcDbCircle
 10
26.92000264418857
 20
-203.2959967745309
 30
0.0
 40
6.132812500000613
100
AcDbArc
 50
310.3510216860918
 51
89.64897831391303
  0
ENDBLK
  5
5A9
330
726
100
AcDbEntity
  8
DATA
100
AcDbBlockEnd
  0
BLOCK
  5
5AA
330
727
100
AcDbEntity
  8
DATA
100
AcDbBlockBegin
  2
____-2
 70
     0
 10
0.0
 20
0.0
 30
0.0
  3
____-2
  1

  0
LINE
  5
5AB
330
727
100
AcDbEntity
  8
0
  6
STYLE_01
 62
     7
100
AcDbLine
 10
-184.4110900000004
 20
209.6603482608624
 30
0.0
 11
-184.4110900000002
 21
145.8094383056302
 31
0.0
  0
LINE
  5
5AC
330
727
100
AcDbEntity
  8
0
  6
STYLE_01
 62
     7
100
AcDbLine
 10
-134.41109
 20
240.0
 30
0.0
 11
-134.4110899999998
 21
165.5225916572161
 31
0.0
  0
LINE
  5
5AD
330
727
100
AcDbEntity
  8
0
  6
STYLE_01
 62
     7
100
AcDbLine
 10
61.12815172750668
 20
128.0292949836016
 30
0.0
 11
60.76132171431064
 21
127.0214378055672
 31
0.0
  0
LINE
  5
5AE
330
727
100
AcDbEntity
  8
0
  6
STYLE_01
 62
     7
100
AcDbLine
 10
-89.91108999999966
 20
236.404079358822
 30
0.0
 11
-89.91108999999966
 21
172.9719638406874
 31
0.0
  0
LINE
  5
5AF
330
727
100
AcDbEntity
  8
0
  6
STYLE_01
 62
     7
100
AcDbLine
 10
-69.41109000000023
 20
232.1780227771387
 30
0.0
 11
-69.41109000000022
 21
173.8555666877508
 31
0.0
  0
LINE
  5
5B0
330
727
100
AcDbEntity
  8
0
  6
STYLE_01
 62
     7
100
AcDbLine
 10
15.23890999999958
 20
169.0000000000011
 30
0.0
 11
15.2389099999996
 21
160.5302157859228
 31
0.0
  0
ARC
  5
5B1
330
727
100
AcDbEntity
  8
0
  6
STYLE_01
 62
     7
100
AcDbCircle
 10
-133.6334373090616
 20
-27.52113683104769
 30
0.0
 40
267.5222671014207
100
AcDbArc
 50
44.72952511701047
 51
90.16655166820322
  0
LINE
  5
5B2
330
727
100
AcDbEntity
  8
0
  6
STYLE_01
 62
     7
100
AcDbLine
 10
-159.1971941325868
 20
237.5213895867416
 30
0.0
 11
-134.41109
 21
240.0
 31
0.0
  0
ARC
  5
5B3
330
727
100
AcDbEntity
  8
0
  6
STYLE_01
 62
     7
100
AcDbCircle
 10
-156.2100814210855
 20
209.4784379970668
 30
0.0
 40
28.20159527778674
100
AcDbArc
 50
96.08017374244475
 51
179.6304193950531
  0
ARC
  5
5B4
330
727
100
AcDbEntity
  8
0
  6
STYLE_01
 62
     7
100
AcDbCircle
 10
28.23890999999947
 20
140.0000000000002
 30
0.0
 40
34.99999999999998
100
AcDbArc
 50
340.0
 51
36.36118664058421
  0
LINE
  5
5B5
330
727
100
AcDbEntity
  8
0
  6
STYLE_01
 62
     7
100
AcDbLine
 10
-5.261090000000422
 20
194.0739999999997
 30
0.0
 11
2.738909999999804
 21
194.0739999999996
 31
0.0
  0
LINE
  5
5B6
330
727
100
AcDbEntity
  8
0
  6
STYLE_01
 62
     7
100
AcDbLine
 10
2.738909999999862
 20
193.9259999999998
 30
0.0
 11
2.738909999999123
 21
179.0739999999999
 31
0.0
  0
LINE
  5
5B7
330
727
100
AcDbEntity
  8
0
  6
STYLE_01
 62
     7
100
AcDbLine
 10
-5.261090000000649
 20
179.0739999999999
 30
0.0
 11
2.738909999999123
 21
179.0739999999999
 31
0.0
  0
LINE
  5
5B8
330
727
100
AcDbEntity
  8
0
  6
STYLE_01
 62
     7
100
AcDbLine
 10
2.738909999999976
 20
189.7999999999997
 30
0.0
 11
12.23890999999929
 21
189.8000000000001
 31
0.0
  0
LINE
  5
5B9
330
727
100
AcDbEntity
  8
0
  6
STYLE_01
 62
     7
100
AcDbLine
 10
2.738909999999691
 20
183.1999999999994
 30
0.0
 11
12.23890999999997
 21
183.2
 31
0.0
  0
LINE
  5
5BA
330
727
100
AcDbEntity
  8
0
  6
STYLE_01
 62
     7
100
AcDbLine
 10
2.738909999999634
 20
193.0999999999997
 30
0.0
 11
12.2389099999998
 21
193.0999999999999
 31
0.0
  0
LINE
  5
5BB
330
727
100
AcDbEntity
  8
0
  6
STYLE_01
 62
     7
100
AcDbLine
 10
12.23890999999946
 20
179.9000000000002
 30
0.0
 11
2.738909999999123
 21
179.8999999999996
 31
0.0
  0
LINE
  5
5BC
330
727
100
AcDbEntity
  8
0
  6
STYLE_01
 62
     7
100
AcDbLine
 10
12.2389099999998
 20
193.0999999999999
 30
0.0
 11
12.23890999999946
 21
179.9000000000002
 31
0.0
  0
LINE
  5
5BD
330
727
100
AcDbEntity
  8
0
  6
STYLE_01
 62
     7
100
AcDbLine
 10
-10.26109000000036
 20
194.0999999999998
 30
0.0
 11
-5.261090000000308
 21
194.0999999999999
 31
0.0
  0
LINE
  5
5BE
330
727
100
AcDbEntity
  8
0
  6
STYLE_01
 62
     7
100
AcDbLine
 10
-10.26109000000014
 20
178.8999999999997
 30
0.0
 11
-5.261090000000194
 21
178.8999999999998
 31
0.0
  0
LINE
  5
5BF
330
727
100
AcDbEntity
  8
0
  6
STYLE_01
 62
     7
100
AcDbLine
 10
-5.261090000000308
 20
194.0999999999999
 30
0.0
 11
-5.261090000000364
 21
178.8999999999994
 31
0.0
  0
LINE
  5
5C0
330
727
100
AcDbEntity
  8
0
  6
STYLE_01
 62
     7
100
AcDbLine
 10
-10.26108999999991
 20
208.8627239563169
 30
0.0
 11
-10.26109000000042
 21
169.0000000000014
 31
0.0
  0
LINE
  5
5C1
330
727
100
AcDbEntity
  8
0
  6
STYLE_01
 62
     7
100
AcDbLine
 10
-10.26109000000042
 20
169.0000000000014
 30
0.0
 11
15.23890999999958
 21
169.0000000000011
 31
0.0
  0
ARC
  5
5C2
330
727
100
AcDbEntity
  8
0
  6
STYLE_01
 62
     7
100
AcDbCircle
 10
9.787481428533624
 20
155.0000000000005
 30
0.0
 40
8.95142857145335
100
AcDbArc
 50
32.72001627898506
 51
52.48269930413226
  0
ARC
  5
5C3
330
727
100
AcDbEntity
  8
0
  6
STYLE_01
 62
     7
100
AcDbCircle
 10
-77.52827749999868
 20
189.4425887947941
 30
0.0
 40
6.132812500000262
100
AcDbArc
 50
110.3510216860945
 51
249.6489783139129
  0
ARC
  5
5C4
330
727
100
AcDbEntity
  8
0
  6
STYLE_01
 62
     7
100
AcDbCircle
 10
-81.79390249999977
 20
189.4425887947939
 30
0.0
 40
6.132812500000596
100
AcDbArc
 50
290.3510216860923
 51
69.64897831391266
  0
ENDBLK
  5
5C5
330
727
100
AcDbEntity
  8
DATA
100
AcDbBlockEnd
  0
BLOCK
  5
5C6
330
728
100
AcDbEntity
  8
DATA
100
AcDbBlockBegin
  2
____-3
 70
     0
 10
0.0
 20
0.0
 30
0.0
  3
____-3
  1

  0
LINE
  5
5C7
330
728
100
AcDbEntity
  8
0
  6
STYLE_01
 62
     7
100
AcDbLine
 10
14.43364488319043
 20
-262.9468099800803
 30
0.0
 11
41.22471999998247
 21
-294.8751699999783
 31
0.0
  0
LINE
  5
5C8
330
728
100
AcDbEntity
  8
0
  6
STYLE_01
 62
     7
100
AcDbLine
 10
56.53685267024814
 20
-235.3372677770261
 30
0.0
 11
99.02889437607166
 21
-285.9773111366041
 31
0.0
  0
LINE
  5
5C9
330
728
100
AcDbEntity
  8
0
  6
STYLE_01
 62
     7
100
AcDbLine
 10
61.66528537844704
 20
8.6887171737024
 30
0.0
 11
143.2517068186348
 21
-215.4681334673202
 31
0.0
  0
LINE
  5
5CA
330
728
100
AcDbEntity
  8
0
  6
STYLE_01
 62
     7
100
AcDbLine
 10
61.66528537844705
 20
-172.2193855861121
 30
0.0
 11
128.7952368906517
 21
-252.2217464714573
 31
0.0
  0
LINE
  5
5CB
330
728
100
AcDbEntity
  8
0
  6
STYLE_01
 62
     7
100
AcDbLine
 10
61.66528537844702
 20
-140.3270471354742
 30
0.0
 11
141.1961196411219
 21
-235.1082045900317
 31
0.0
  0
LINE
  5
5CC
330
728
100
AcDbEntity
  8
0
  6
STYLE_01
 62
     7
100
AcDbLine
 10
61.66528537844704
 20
-8.635025191739869
 30
0.0
 11
67.30470656320129
 21
-15.35582564882261
 31
0.0
  0
LINE
  5
5CD
330
728
100
AcDbEntity
  8
0
  6
STYLE_01
 62
     7
100
AcDbLine
 10
78.44841697581395
 20
-300.0107860317238
 30
0.0
 11
99.02889437607168
 21
-285.9773111366041
 31
0.0
  0
ARC
  5
5CE
330
728
100
AcDbEntity
  8
0
  6
STYLE_01
 62
     7
100
AcDbCircle
 10
62.7110162485852
 20
-276.6085597580826
 30
0.0
 40
28.20159527778677
100
AcDbArc
 50
220.3695806049469
 51
303.9198262575557
  0
ARC
  5
5CF
330
728
100
AcDbEntity
  8
0
  6
STYLE_01
 62
     7
100
AcDbCircle
 10
122.108622850951
 20
-223.163586692148
 30
0.0
 40
22.50000000000003
100
AcDbArc
 50
325.6730311201026
 51
19.99999999999994
  0
ARC
  5
5D0
330
728
100
AcDbEntity
  8
0
  6
STYLE_01
 62
     7
100
AcDbCircle
 10
-145.0777157250034
 20
-40.71707938675465
 30
0.0
 40
346.03557385481
100
AcDbArc
 50
314.8649325546038
 51
325.6730311201032
  0
LINE
  5
5D1
330
728
100
AcDbEntity
  8
0
  6
STYLE_01
 62
     7
100
AcDbLine
 10
67.30470656320129
 20
-15.35582564882261
 30
0.0
 11
69.68869562517105
 21
-13.35542130619354
 31
0.0
  0
LINE
  5
5D2
330
728
100
AcDbEntity
  8
0
  6
STYLE_01
 62
     7
100
AcDbLine
 10
-213.6538707084413
 20
8.877306152133073
 30
0.0
 11
-118.0293164610574
 21
-105.0835999124058
 31
0.0
  0
LINE
  5
5D3
330
728
100
AcDbEntity
  8
0
  6
STYLE_01
 62
     7
100
AcDbLine
 10
-194.8536007726143
 20
64.25820825739176
 30
0.0
 11
-168.0293164610584
 21
32.29027106032663
 31
0.0
  0
ARC
  5
5D4
330
728
100
AcDbEntity
  8
0
  6
STYLE_01
 62
     7
100
AcDbCircle
 10
-22.29861216578976
 20
-140.1750065145295
 30
0.0
 40
267.5222671014207
100
AcDbArc
 50
126.9416741278867
 51
130.1665516682032
  0
LINE
  5
5D5
330
728
100
AcDbEntity
  8
0
  6
STYLE_01
 62
     7
100
AcDbLine
 10
-212.2476380470683
 20
46.42728189483125
 30
0.0
 11
-194.8536007726143
 21
64.25820825739176
 31
0.0
  0
ARC
  5
5D6
330
728
100
AcDbEntity
  8
0
  6
STYLE_01
 62
     7
100
AcDbCircle
 10
-191.9337151325701
 20
26.86521370059651
 30
0.0
 40
28.20159527778676
100
AcDbArc
 50
136.0801737424447
 51
219.630419395053
  0
ENDBLK
  5
5D7
330
728
100
AcDbEntity
  8
DATA
100
AcDbBlockEnd
  0
ENDSEC
  0
SECTION
  2
ENTITIES
  0
LINE
  5
5D8
330
70B
100
AcDbEntity
  8
HIBINO-BASE
  6
Continuous
 62
     7
100
AcDbLine
 10
-350.0000000000002
 20
804.1271999999999
 30
0.0
 11
549.9999999999999
 21
804.1271999999999
 31
0.0
  0
LINE
  5
5D9
330
70B
100
AcDbEntity
  8
HIBINO-BASE
  6
Continuous
 62
     7
100
AcDbLine
 10
549.9999999999999
 20
-495.8727999999999
 30
0.0
 11
-350.0000000000002
 21
-495.8727999999999
 31
0.0
  0
LINE
  5
5DA
330
70B
100
AcDbEntity
  8
HIBINO-BASE
  6
Continuous
 62
     7
100
AcDbLine
 10
-350.0000000000002
 20
-495.8727999999999
 30
0.0
 11
-350.0000000000002
 21
804.1271999999999
 31
0.0
  0
TEXT
  5
5DB
330
70B
100
AcDbEntity
  8
HIBINO-BASE
 62
     7
100
AcDbText
 10
-314.0799999999996
 20
-527.9161889999998
 30
0.0
 40
18.00022089843749
  1
Hibino Corporation
 41
0.7
 11
-314.0799999999996
 21
-509.9159681015623
 31
0.0
100
AcDbText
 73
     3
  0
LINE
  5
5DC
330
70B
100
AcDbEntity
  8
HIBINO-BASE
  6
Continuous
 62
     7
100
AcDbLine
 10
549.9999999999999
 20
804.1271999999999
 30
0.0
 11
549.9999999999999
 21
-495.8727999999999
 31
0.0
  0
LINE
  5
5DD
330
70B
100
AcDbEntity
  8
HIBINO-BASE
  6
Continuous
 62
     7
100
AcDbLine
 10
99.99999999999996
 20
-383.3728
 30
0.0
 11
549.9999999999999
 21
-383.3728
 31
0.0
  0
LINE
  5
5DE
330
70B
100
AcDbEntity
  8
HIBINO-BASE
  6
Continuous
 62
     7
100
AcDbLine
 10
99.99999999999996
 20
-495.8727999999999
 30
0.0
 11
99.99999999999996
 21
-383.3728
 31
0.0
  0
TEXT
  5
5DF
330
70B
100
AcDbEntity
  8
HIBINO-BASE
 62
     7
100
AcDbText
 10
104.4999999999998
 20
-395.9162666666667
 30
0.0
 40
8.144205729166666
  1
NOTE
 41
0.7
 11
104.4999999999998
 21
-387.7720609375
 31
0.0
100
AcDbText
 73
     3
  0
LINE
  5
5E0
330
70B
100
AcDbEntity
  8
HIBINO-BASE
  6
Continuous
 62
     7
100
AcDbLine
 10
275.0
 20
-495.8727999999999
 30
0.0
 11
275.0
 21
-383.3728
 31
0.0
  0
TEXT
  5
5E1
330
70B
100
AcDbEntity
  8
HIBINO-BASE
 62
     7
100
AcDbText
 10
279.4999999999998
 20
-395.9162666666667
 30
0.0
 40
8.144205729166666
  1
TITLE
 41
0.7
 11
279.4999999999998
 21
-387.7720609375
 31
0.0
100
AcDbText
 73
     3
  0
TEXT
  5
5E2
330
70B
100
AcDbEntity
  8
HIBINO-BASE
 62
     7
100
AcDbText
 10
350.3419500000001
 20
-527.9161889999998
 30
0.0
 40
18.00022089843749
  1
ヒビノ株式会社
 41
0.7
 11
350.3419500000001
 21
-509.9159681015623
 31
0.0
100
AcDbText
 73
     3
  0
LINE
  5
5E3
330
70B
100
AcDbEntity
  8
HIBINO-BASE
  6
Continuous
 62
     7
100
AcDbLine
 10
99.99999999999996
 20
-445.8727999999999
 30
0.0
 11
549.9999999999999
 21
-445.8727999999999
 31
0.0
  0
TEXT
  5
5E4
330
70B
100
AcDbEntity
  8
HIBINO-BASE
 62
     7
100
AcDbText
 10
341.9999999999998
 20
-458.1346666666667
 30
0.0
 40
8.144205729166666
  1
DRAWN
 41
0.7
 11
341.9999999999998
 21
-449.9904609375
 31
0.0
100
AcDbText
 73
     3
  0
TEXT
  5
5E5
330
70B
100
AcDbEntity
  8
HIBINO-BASE
 62
     7
100
AcDbText
 10
216.9999999999999
 20
-458.1346666666667
 30
0.0
 40
8.144205729166666
  1
DATE
 41
0.7
 11
216.9999999999999
 21
-449.9904609375
 31
0.0
100
AcDbText
 73
     3
  0
TEXT
  5
5E6
330
70B
100
AcDbEntity
  8
HIBINO-BASE
 62
     7
100
AcDbText
 10
105.5000000000001
 20
-458.9700809999998
 30
0.0
 40
8.144218554687498
  1
図面サイズ
 41
0.7
 11
105.5000000000001
 21
-450.8258624453123
 31
0.0
100
AcDbText
 73
     3
  0
TEXT
  5
5E7
330
70B
100
AcDbEntity
  8
HIBINO-BASE
 62
     7
100
AcDbText
 10
166.9999999999998
 20
-458.1346666666667
 30
0.0
 40
8.144205729166666
  1
SCALE
 41
0.7
 11
166.9999999999998
 21
-449.9904609375
 31
0.0
100
AcDbText
 73
     3
  0
TEXT
  5
5E8
330
70B
100
AcDbEntity
  8
HIBINO-BASE
 62
     7
100
AcDbText
 10
279.4999999999998
 20
-458.1346666666667
 30
0.0
 40
8.144205729166666
  1
DESIGN
 41
0.7
 11
279.4999999999998
 21
-449.9904609375
 31
0.0
100
AcDbText
 73
     3
  0
TEXT
  5
5E9
330
70B
100
AcDbEntity
  8
HIBINO-BASE
 62
     7
100
AcDbText
 10
466.9999999999998
 20
-458.1346666666667
 30
0.0
 40
8.144205729166666
  1
DRAWING NO.
 41
0.7
 11
466.9999999999998
 21
-449.9904609375
 31
0.0
100
AcDbText
 73
     3
  0
TEXT
  5
5EA
330
70B
100
AcDbEntity
  8
HIBINO-BASE
 62
     7
100
AcDbText
 10
404.4999999999999
 20
-458.1346666666667
 30
0.0
 40
8.144205729166666
  1
CHECK
 41
0.7
 11
404.4999999999999
 21
-449.9904609375
 31
0.0
100
AcDbText
 73
     3
  0
LINE
  5
5EB
330
70B
100
AcDbEntity
  8
HIBINO-BASE
  6
Continuous
 62
     7
100
AcDbLine
 10
171.8749999999999
 20
-489.6227999999999
 30
0.0
 11
190.625
 21
-470.8727999999999
 31
0.0
  0
TEXT
  5
5EC
330
70B
100
AcDbEntity
  8
HIBINO-BASE
 62
     7
100
AcDbText
 10
168.7499999999999
 20
-476.4175166666665
 30
0.0
 40
8.144205729166666
  1
1
 41
0.7
 11
168.7499999999999
 21
-468.2733109374998
 31
0.0
100
AcDbText
 73
     3
  0
LINE
  5
5ED
330
70B
100
AcDbEntity
  8
HIBINO-BASE
  6
Continuous
 62
     7
100
AcDbLine
 10
162.4999999999999
 20
-495.8727999999999
 30
0.0
 11
162.4999999999999
 21
-445.8727999999999
 31
0.0
  0
LINE
  5
5EE
330
70B
100
AcDbEntity
  8
HIBINO-BASE
  6
Continuous
 62
     7
100
AcDbLine
 10
212.5
 20
-495.8727999999999
 30
0.0
 11
212.5
 21
-445.8727999999999
 31
0.0
  0
LINE
  5
5EF
330
70B
100
AcDbEntity
  8
HIBINO-BASE
  6
Continuous
 62
     7
100
AcDbLine
 10
337.5
 20
-445.8727999999999
 30
0.0
 11
337.5
 21
-495.8727999999999
 31
0.0
  0
LINE
  5
5F0
330
70B
100
AcDbEntity
  8
HIBINO-BASE
  6
Continuous
 62
     7
100
AcDbLine
 10
462.5
 20
-445.8727999999999
 30
0.0
 11
462.5
 21
-495.8727999999999
 31
0.0
  0
LINE
  5
5F1
330
70B
100
AcDbEntity
  8
HIBINO-BASE
  6
Continuous
 62
     7
100
AcDbLine
 10
400.0
 20
-495.8727999999999
 30
0.0
 11
400.0
 21
-445.8727999999999
 31
0.0
  0
TEXT
  5
5F2
330
70B
100
AcDbEntity
  8
HIBINO-BASE
 62
     7
100
AcDbText
 10
216.7826999999999
 20
-481.5545666666666
 30
0.0
 40
8.144205729166666
  1
'03.06.
 41
0.7
 11
216.7826999999999
 21
-473.4103609375
 31
0.0
100
AcDbText
 73
     3
  0
TEXT
  5
5F3
330
70B
100
AcDbEntity
  8
HIBINO-BASE
 62
     7
100
AcDbText
 10
187.5
 20
-485.7925166666665
 30
0.0
 40
8.144205729166666
  1
5
 41
0.7
 11
187.5
 21
-477.6483109374998
 31
0.0
100
AcDbText
 73
     3
  0
TEXT
  5
5F4
330
70B
100
AcDbEntity
  8
HIBINO-BASE
 62
     7
100
AcDbText
 10
345.0290500551733
 20
-481.5545666666666
 30
0.0
 40
8.144205729166666
  1
N.Sasaki
 41
0.7
 11
345.0290500551733
 21
-473.4103609375
 31
0.0
100
AcDbText
 73
     3
  0
TEXT
  5
5F5
330
70B
100
AcDbEntity
  8
HIBINO-BASE
 62
     7
100
AcDbText
 10
119.4166666666666
 20
-485.9928
 30
0.0
 40
16.28841145833333
  1
A4
 41
0.7
 11
119.4166666666666
 21
-469.7043885416667
 31
0.0
100
AcDbText
 73
     3
  0
TEXT
  5
5F6
330
70B
100
AcDbEntity
  8
DIMNSIONS
 62
     7
100
AcDbText
 10
-0.0000000000000007
 20
-434.5253
 30
0.0
 40
12.21630859375
  1
(単位：mm)
 41
0.7
 11
0.0
 21
-422.30899140625
 31
0.0
100
AcDbText
 73
     3
  0
LINE
  5
5F7
330
70B
100
AcDbEntity
  8
DIMNSIONS
  6
Continuous
 62
     7
100
AcDbLine
 10
-42.84903
 20
380.0
 30
0.0
 11
-160.0
 21
380.0
 31
0.0
  0
LINE
  5
5F8
330
70B
100
AcDbEntity
  8
DIMNSIONS
  6
Continuous
 62
     7
100
AcDbLine
 10
20.58891
 20
313.85555
 30
0.0
 11
-160.0
 21
313.85555
 31
0.0
  0
LINE
  5
5F9
330
70B
100
AcDbEntity
  8
DIMNSIONS
  6
Continuous
 62
     7
100
AcDbLine
 10
-150.0
 20
380.0
 30
0.0
 11
-150.0
 21
313.85555
 31
0.0
  0
LINE
  5
5FA
330
70B
100
AcDbEntity
  8
DIMNSIONS
  6
Continuous
 62
     7
100
AcDbLine
 10
-150.0
 20
380.0
 30
0.0
 11
-146.6498010242488
 21
367.4968872070313
 31
0.0
  0
LINE
  5
5FB
330
70B
100
AcDbEntity
  8
DIMNSIONS
  6
Continuous
 62
     7
100
AcDbLine
 10
-150.0
 20
380.0
 30
0.0
 11
-153.3501989757512
 21
367.4968872070313
 31
0.0
  0
LINE
  5
5FC
330
70B
100
AcDbEntity
  8
DIMNSIONS
  6
Continuous
 62
     7
100
AcDbLine
 10
-150.0
 20
313.85555
 30
0.0
 11
-153.3501989757512
 21
326.3586627929687
 31
0.0
  0
LINE
  5
5FD
330
70B
100
AcDbEntity
  8
DIMNSIONS
  6
Continuous
 62
     7
100
AcDbLine
 10
-150.0
 20
313.85555
 30
0.0
 11
-146.6498010242488
 21
326.3586627929687
 31
0.0
  0
TEXT
  5
5FE
330
70B
100
AcDbEntity
  8
DIMNSIONS
 62
     7
100
AcDbText
 10
-154.9694444444445
 20
329.2888861111111
 30
0.0
 40
13.57367621527778
  1
66.1
 50
90.0
 41
0.7
 11
-168.5431206597222
 21
329.2888861111111
 31
0.0
100
AcDbText
 73
     3
  0
LINE
  5
5FF
330
70B
100
AcDbEntity
  8
DIMNSIONS
  6
Continuous
 62
     7
100
AcDbLine
 10
-44.41109000000001
 20
380.0
 30
0.0
 11
-160.0
 21
380.0
 31
0.0
  0
LINE
  5
600
330
70B
100
AcDbEntity
  8
DIMNSIONS
  6
Continuous
 62
     7
100
AcDbLine
 10
-44.41109000000001
 20
500.0
 30
0.0
 11
-160.0
 21
500.0
 31
0.0
  0
LINE
  5
601
330
70B
100
AcDbEntity
  8
DIMNSIONS
  6
Continuous
 62
     7
100
AcDbLine
 10
-150.0
 20
380.0
 30
0.0
 11
-150.0
 21
500.0
 31
0.0
  0
LINE
  5
602
330
70B
100
AcDbEntity
  8
DIMNSIONS
  6
Continuous
 62
     7
100
AcDbLine
 10
-150.0
 20
380.0
 30
0.0
 11
-153.3501989757512
 21
392.5031127929688
 31
0.0
  0
LINE
  5
603
330
70B
100
AcDbEntity
  8
DIMNSIONS
  6
Continuous
 62
     7
100
AcDbLine
 10
-150.0
 20
380.0
 30
0.0
 11
-146.6498010242488
 21
392.5031127929688
 31
0.0
  0
LINE
  5
604
330
70B
100
AcDbEntity
  8
DIMNSIONS
  6
Continuous
 62
     7
100
AcDbLine
 10
-150.0
 20
500.0
 30
0.0
 11
-146.6498010242488
 21
487.4968872070311
 31
0.0
  0
LINE
  5
605
330
70B
100
AcDbEntity
  8
DIMNSIONS
  6
Continuous
 62
     7
100
AcDbLine
 10
-150.0
 20
500.0
 30
0.0
 11
-153.3501989757512
 21
487.4968872070311
 31
0.0
  0
TEXT
  5
606
330
70B
100
AcDbEntity
  8
DIMNSIONS
 62
     7
100
AcDbText
 10
-154.9694444444445
 20
426.7708333333332
 30
0.0
 40
13.57367621527778
  1
120
 50
90.0
 41
0.7
 11
-168.5431206597222
 21
426.7708333333332
 31
0.0
100
AcDbText
 73
     3
  0
LINE
  5
607
330
70B
100
AcDbEntity
  8
DIMNSIONS
  6
Continuous
 62
     7
100
AcDbLine
 10
20.58891
 20
313.85555
 30
0.0
 11
-159.9999999999999
 21
313.85555
 31
0.0
  0
LINE
  5
608
330
70B
100
AcDbEntity
  8
DIMNSIONS
  6
Continuous
 62
     7
100
AcDbLine
 10
55.07052999999999
 20
-139.1459299999999
 30
0.0
 11
-159.9999999999999
 21
-139.1459299999999
 31
0.0
  0
LINE
  5
609
330
70B
100
AcDbEntity
  8
DIMNSIONS
  6
Continuous
 62
     7
100
AcDbLine
 10
-149.9999999999999
 20
313.85555
 30
0.0
 11
-149.9999999999999
 21
-139.1459299999999
 31
0.0
  0
LINE
  5
60A
330
70B
100
AcDbEntity
  8
DIMNSIONS
  6
Continuous
 62
     7
100
AcDbLine
 10
-149.9999999999999
 20
313.85555
 30
0.0
 11
-146.6498010242487
 21
301.3524372070313
 31
0.0
  0
LINE
  5
60B
330
70B
100
AcDbEntity
  8
DIMNSIONS
  6
Continuous
 62
     7
100
AcDbLine
 10
-149.9999999999999
 20
313.85555
 30
0.0
 11
-153.3501989757512
 21
301.3524372070313
 31
0.0
  0
LINE
  5
60C
330
70B
100
AcDbEntity
  8
DIMNSIONS
  6
Continuous
 62
     7
100
AcDbLine
 10
-149.9999999999999
 20
-139.1459299999999
 30
0.0
 11
-153.3501989757512
 21
-126.6428172070312
 31
0.0
  0
LINE
  5
60D
330
70B
100
AcDbEntity
  8
DIMNSIONS
  6
Continuous
 62
     7
100
AcDbLine
 10
-149.9999999999999
 20
-139.1459299999999
 30
0.0
 11
-146.6498010242487
 21
-126.6428172070312
 31
0.0
  0
TEXT
  5
60E
330
70B
100
AcDbEntity
  8
DIMNSIONS
 62
     7
100
AcDbText
 10
-154.9694444444444
 20
74.12564333333334
 30
0.0
 40
13.57367621527778
  1
453
 50
90.0
 41
0.7
 11
-168.5431206597222
 21
74.12564333333334
 31
0.0
100
AcDbText
 73
     3
  0
LINE
  5
60F
330
70B
100
AcDbEntity
  8
DIMNSIONS
  6
Continuous
 62
     7
100
AcDbLine
 10
55.07052999999999
 20
-139.1459299999999
 30
0.0
 11
-160.0
 21
-139.1459299999999
 31
0.0
  0
LINE
  5
610
330
70B
100
AcDbEntity
  8
DIMNSIONS
  6
Continuous
 62
     7
100
AcDbLine
 10
152.7110099999999
 20
-164.8101499999999
 30
0.0
 11
-160.0
 21
-164.8101499999999
 31
0.0
  0
LINE
  5
611
330
70B
100
AcDbEntity
  8
DIMNSIONS
  6
Continuous
 62
     7
100
AcDbLine
 10
-150.0
 20
-164.8101499999999
 30
0.0
 11
-150.0
 21
-139.1459299999999
 31
0.0
  0
LINE
  5
612
330
70B
100
AcDbEntity
  8
DIMNSIONS
  6
Continuous
 62
     7
100
AcDbLine
 10
-150.0
 20
-139.1459299999999
 30
0.0
 11
-150.0
 21
-114.1459299999999
 31
0.0
  0
LINE
  5
613
330
70B
100
AcDbEntity
  8
DIMNSIONS
  6
Continuous
 62
     7
100
AcDbLine
 10
-150.0
 20
-139.1459299999999
 30
0.0
 11
-153.3501989757512
 21
-126.6428172070312
 31
0.0
  0
LINE
  5
614
330
70B
100
AcDbEntity
  8
DIMNSIONS
  6
Continuous
 62
     7
100
AcDbLine
 10
-150.0
 20
-139.1459299999999
 30
0.0
 11
-146.6498010242488
 21
-126.6428172070312
 31
0.0
  0
LINE
  5
615
330
70B
100
AcDbEntity
  8
DIMNSIONS
  6
Continuous
 62
     7
100
AcDbLine
 10
-150.0
 20
-164.8101499999999
 30
0.0
 11
-150.0
 21
-210.2777777777776
 31
0.0
  0
LINE
  5
616
330
70B
100
AcDbEntity
  8
DIMNSIONS
  6
Continuous
 62
     7
100
AcDbLine
 10
-150.0
 20
-164.8101499999999
 30
0.0
 11
-146.6498010242488
 21
-177.3132627929687
 31
0.0
  0
LINE
  5
617
330
70B
100
AcDbEntity
  8
DIMNSIONS
  6
Continuous
 62
     7
100
AcDbLine
 10
-150.0
 20
-164.8101499999999
 30
0.0
 11
-153.3501989757512
 21
-177.3132627929687
 31
0.0
  0
TEXT
  5
618
330
70B
100
AcDbEntity
  8
DIMNSIONS
 62
     7
100
AcDbText
 10
-154.9694444444445
 20
-210.2777777777777
 30
0.0
 40
13.57367621527778
  1
25.7
 50
90.0
 41
0.7
 11
-168.5431206597222
 21
-210.2777777777777
 31
0.0
100
AcDbText
 73
     3
  0
LINE
  5
619
330
70B
100
AcDbEntity
  8
DIMNSIONS
  6
Continuous
 62
     7
100
AcDbLine
 10
-98.62469
 20
251.32134
 30
0.0
 11
-98.62469
 21
-285.0
 31
0.0
  0
LINE
  5
61A
330
70B
100
AcDbEntity
  8
DIMNSIONS
  6
Continuous
 62
     7
100
AcDbLine
 10
161.6652699999999
 20
-91.03767000000001
 30
0.0
 11
161.6652699999999
 21
-285.0
 31
0.0
  0
LINE
  5
61B
330
70B
100
AcDbEntity
  8
DIMNSIONS
  6
Continuous
 62
     7
100
AcDbLine
 10
-98.62469
 20
-275.0
 30
0.0
 11
161.6652699999999
 21
-275.0
 31
0.0
  0
LINE
  5
61C
330
70B
100
AcDbEntity
  8
DIMNSIONS
  6
Continuous
 62
     7
100
AcDbLine
 10
-98.62469
 20
-275.0
 30
0.0
 11
-86.12157720703125
 21
-271.6498010242488
 31
0.0
  0
LINE
  5
61D
330
70B
100
AcDbEntity
  8
DIMNSIONS
  6
Continuous
 62
     7
100
AcDbLine
 10
-98.62469
 20
-275.0
 30
0.0
 11
-86.12157720703125
 21
-278.3501989757512
 31
0.0
  0
LINE
  5
61E
330
70B
100
AcDbEntity
  8
DIMNSIONS
  6
Continuous
 62
     7
100
AcDbLine
 10
161.6652699999999
 20
-275.0
 30
0.0
 11
149.1621572070312
 21
-278.3501989757512
 31
0.0
  0
LINE
  5
61F
330
70B
100
AcDbEntity
  8
DIMNSIONS
  6
Continuous
 62
     7
100
AcDbLine
 10
161.6652699999999
 20
-275.0
 30
0.0
 11
149.1621572070312
 21
-271.6498010242488
 31
0.0
  0
TEXT
  5
620
330
70B
100
AcDbEntity
  8
DIMNSIONS
 62
     7
100
AcDbText
 10
-47.85471000000002
 20
-270.0305555555555
 30
0.0
 40
13.57367621527778
  1
260.3(下向き-20\U+00B0)
 41
0.7
 11
-47.85471000000002
 21
-256.4568793402777
 31
0.0
100
AcDbText
 73
     3
  0
LINE
  5
621
330
70B
100
AcDbEntity
  8
DIMNSIONS
  6
Continuous
 62
     7
100
AcDbLine
 10
161.6652699999999
 20
-91.03767000000001
 30
0.0
 11
161.6652699999999
 21
-285.0
 31
0.0
  0
LINE
  5
622
330
70B
100
AcDbEntity
  8
DIMNSIONS
  6
Continuous
 62
     7
100
AcDbLine
 10
269.86527
 20
-271.7431
 30
0.0
 11
269.86527
 21
-285.0
 31
0.0
  0
LINE
  5
623
330
70B
100
AcDbEntity
  8
DIMNSIONS
  6
Continuous
 62
     7
100
AcDbLine
 10
269.86527
 20
-275.0
 30
0.0
 11
458.75
 21
-275.0
 31
0.0
  0
LINE
  5
624
330
70B
100
AcDbEntity
  8
DIMNSIONS
  6
Continuous
 62
     7
100
AcDbLine
 10
161.6652699999999
 20
-275.0
 30
0.0
 11
269.86527
 21
-275.0
 31
0.0
  0
LINE
  5
625
330
70B
100
AcDbEntity
  8
DIMNSIONS
  6
Continuous
 62
     7
100
AcDbLine
 10
161.6652699999999
 20
-275.0
 30
0.0
 11
174.1683827929687
 21
-271.6498010242487
 31
0.0
  0
LINE
  5
626
330
70B
100
AcDbEntity
  8
DIMNSIONS
  6
Continuous
 62
     7
100
AcDbLine
 10
161.6652699999999
 20
-275.0
 30
0.0
 11
174.1683827929687
 21
-278.3501989757511
 31
0.0
  0
LINE
  5
627
330
70B
100
AcDbEntity
  8
DIMNSIONS
  6
Continuous
 62
     7
100
AcDbLine
 10
269.86527
 20
-275.0
 30
0.0
 11
257.3621572070312
 21
-278.3501989757511
 31
0.0
  0
LINE
  5
628
330
70B
100
AcDbEntity
  8
DIMNSIONS
  6
Continuous
 62
     7
100
AcDbLine
 10
269.86527
 20
-275.0
 30
0.0
 11
257.3621572070312
 21
-271.6498010242487
 31
0.0
  0
TEXT
  5
629
330
70B
100
AcDbEntity
  8
DIMNSIONS
 62
     7
100
AcDbText
 10
300.0
 20
-270.0305555555555
 30
0.0
 40
13.57367621527778
  1
108.2(下向き-20\U+00B0)
 41
0.7
 11
300.0
 21
-256.4568793402777
 31
0.0
100
AcDbText
 73
     3
  0
LINE
  5
62A
330
70B
100
AcDbEntity
  8
DIMNSIONS
  6
Continuous
 62
     7
100
AcDbLine
 10
244.60861
 20
-93.16357999999997
 30
0.0
 11
244.60861
 21
-335.0
 31
0.0
  0
LINE
  5
62B
330
70B
100
AcDbEntity
  8
DIMNSIONS
  6
Continuous
 62
     7
100
AcDbLine
 10
269.86527
 20
-93.16357999999997
 30
0.0
 11
269.86527
 21
-335.0
 31
0.0
  0
LINE
  5
62C
330
70B
100
AcDbEntity
  8
DIMNSIONS
  6
Continuous
 62
     7
100
AcDbLine
 10
269.86527
 20
-325.0
 30
0.0
 11
244.60861
 21
-325.0
 31
0.0
  0
LINE
  5
62D
330
70B
100
AcDbEntity
  8
DIMNSIONS
  6
Continuous
 62
     7
100
AcDbLine
 10
244.60861
 20
-325.0
 30
0.0
 11
219.60861
 21
-325.0
 31
0.0
  0
LINE
  5
62E
330
70B
100
AcDbEntity
  8
DIMNSIONS
  6
Continuous
 62
     7
100
AcDbLine
 10
244.60861
 20
-325.0
 30
0.0
 11
232.1054972070312
 21
-328.3501989757512
 31
0.0
  0
LINE
  5
62F
330
70B
100
AcDbEntity
  8
DIMNSIONS
  6
Continuous
 62
     7
100
AcDbLine
 10
244.60861
 20
-325.0
 30
0.0
 11
232.1054972070312
 21
-321.6498010242487
 31
0.0
  0
LINE
  5
630
330
70B
100
AcDbEntity
  8
DIMNSIONS
  6
Continuous
 62
     7
100
AcDbLine
 10
269.86527
 20
-325.0
 30
0.0
 11
449.9305555555555
 21
-325.0
 31
0.0
  0
LINE
  5
631
330
70B
100
AcDbEntity
  8
DIMNSIONS
  6
Continuous
 62
     7
100
AcDbLine
 10
269.86527
 20
-325.0
 30
0.0
 11
282.3683827929686
 21
-321.6498010242487
 31
0.0
  0
LINE
  5
632
330
70B
100
AcDbEntity
  8
DIMNSIONS
  6
Continuous
 62
     7
100
AcDbLine
 10
269.86527
 20
-325.0
 30
0.0
 11
282.3683827929686
 21
-328.3501989757512
 31
0.0
  0
TEXT
  5
633
330
70B
100
AcDbEntity
  8
DIMNSIONS
 62
     7
100
AcDbText
 10
300.0
 20
-320.0305555555555
 30
0.0
 40
13.57367621527778
  1
25.3(下向き-40\U+00B0)
 41
0.7
 11
300.0
 21
-306.4568793402777
 31
0.0
100
AcDbText
 73
     3
  0
LINE
  5
634
330
70B
100
AcDbEntity
  8
DIMNSIONS
  6
Continuous
 62
     7
100
AcDbLine
 10
238.09862
 20
500.0
 30
0.0
 11
410.0
 21
500.0
 31
0.0
  0
LINE
  5
635
330
70B
100
AcDbEntity
  8
DIMNSIONS
  6
Continuous
 62
     7
100
AcDbLine
 10
279.8652699999999
 20
284.09689
 30
0.0
 11
410.0
 21
284.09689
 31
0.0
  0
LINE
  5
636
330
70B
100
AcDbEntity
  8
DIMNSIONS
  6
Continuous
 62
     7
100
AcDbLine
 10
400.0
 20
500.0
 30
0.0
 11
400.0
 21
284.09689
 31
0.0
  0
LINE
  5
637
330
70B
100
AcDbEntity
  8
DIMNSIONS
  6
Continuous
 62
     7
100
AcDbLine
 10
400.0
 20
500.0
 30
0.0
 11
403.3501989757511
 21
487.4968872070311
 31
0.0
  0
LINE
  5
638
330
70B
100
AcDbEntity
  8
DIMNSIONS
  6
Continuous
 62
     7
100
AcDbLine
 10
400.0
 20
500.0
 30
0.0
 11
396.6498010242488
 21
487.4968872070311
 31
0.0
  0
LINE
  5
639
330
70B
100
AcDbEntity
  8
DIMNSIONS
  6
Continuous
 62
     7
100
AcDbLine
 10
400.0
 20
284.09689
 30
0.0
 11
396.6498010242488
 21
296.6000027929687
 31
0.0
  0
LINE
  5
63A
330
70B
100
AcDbEntity
  8
DIMNSIONS
  6
Continuous
 62
     7
100
AcDbLine
 10
400.0
 20
284.09689
 30
0.0
 11
403.3501989757511
 21
296.6000027929687
 31
0.0
  0
TEXT
  5
63B
330
70B
100
AcDbEntity
  8
DIMNSIONS
 62
     7
100
AcDbText
 10
395.0305555555556
 20
369.9998338888887
 30
0.0
 40
13.57367621527778
  1
215.9
 50
90.0
 41
0.7
 11
381.4568793402778
 21
369.9998338888887
 31
0.0
100
AcDbText
 73
     3
  0
LINE
  5
63C
330
70B
100
AcDbEntity
  8
DIMNSIONS
  6
Continuous
 62
     7
100
AcDbLine
 10
279.8652699999999
 20
284.09689
 30
0.0
 11
410.0
 21
284.09689
 31
0.0
  0
LINE
  5
63D
330
70B
100
AcDbEntity
  8
DIMNSIONS
  6
Continuous
 62
     7
100
AcDbLine
 10
279.8652699999999
 20
209.09689
 30
0.0
 11
410.0
 21
209.09689
 31
0.0
  0
LINE
  5
63E
330
70B
100
AcDbEntity
  8
DIMNSIONS
  6
Continuous
 62
     7
100
AcDbLine
 10
400.0
 20
284.09689
 30
0.0
 11
400.0
 21
209.09689
 31
0.0
  0
LINE
  5
63F
330
70B
100
AcDbEntity
  8
DIMNSIONS
  6
Continuous
 62
     7
100
AcDbLine
 10
400.0
 20
284.09689
 30
0.0
 11
403.3501989757511
 21
271.5937772070311
 31
0.0
  0
LINE
  5
640
330
70B
100
AcDbEntity
  8
DIMNSIONS
  6
Continuous
 62
     7
100
AcDbLine
 10
400.0
 20
284.09689
 30
0.0
 11
396.6498010242488
 21
271.5937772070311
 31
0.0
  0
LINE
  5
641
330
70B
100
AcDbEntity
  8
DIMNSIONS
  6
Continuous
 62
     7
100
AcDbLine
 10
400.0
 20
209.09689
 30
0.0
 11
396.6498010242488
 21
221.6000027929687
 31
0.0
  0
LINE
  5
642
330
70B
100
AcDbEntity
  8
DIMNSIONS
  6
Continuous
 62
     7
100
AcDbLine
 10
400.0
 20
209.09689
 30
0.0
 11
403.3501989757511
 21
221.6000027929687
 31
0.0
  0
TEXT
  5
643
330
70B
100
AcDbEntity
  8
DIMNSIONS
 62
     7
100
AcDbText
 10
395.0305555555556
 20
237.7774455555555
 30
0.0
 40
13.57367621527778
  1
75
 50
90.0
 41
0.7
 11
381.4568793402778
 21
237.7774455555555
 31
0.0
100
AcDbText
 73
     3
  0
LINE
  5
644
330
70B
100
AcDbEntity
  8
DIMNSIONS
  6
Continuous
 62
     7
100
AcDbLine
 10
279.8652699999999
 20
209.09689
 30
0.0
 11
410.0
 21
209.09689
 31
0.0
  0
LINE
  5
645
330
70B
100
AcDbEntity
  8
DIMNSIONS
  6
Continuous
 62
     7
100
AcDbLine
 10
279.8652699999999
 20
134.09689
 30
0.0
 11
410.0
 21
134.09689
 31
0.0
  0
LINE
  5
646
330
70B
100
AcDbEntity
  8
DIMNSIONS
  6
Continuous
 62
     7
100
AcDbLine
 10
400.0
 20
209.09689
 30
0.0
 11
400.0
 21
134.09689
 31
0.0
  0
LINE
  5
647
330
70B
100
AcDbEntity
  8
DIMNSIONS
  6
Continuous
 62
     7
100
AcDbLine
 10
400.0
 20
209.09689
 30
0.0
 11
403.3501989757511
 21
196.5937772070311
 31
0.0
  0
LINE
  5
648
330
70B
100
AcDbEntity
  8
DIMNSIONS
  6
Continuous
 62
     7
100
AcDbLine
 10
400.0
 20
209.09689
 30
0.0
 11
396.6498010242488
 21
196.5937772070311
 31
0.0
  0
LINE
  5
649
330
70B
100
AcDbEntity
  8
DIMNSIONS
  6
Continuous
 62
     7
100
AcDbLine
 10
400.0
 20
134.09689
 30
0.0
 11
396.6498010242488
 21
146.6000027929687
 31
0.0
  0
LINE
  5
64A
330
70B
100
AcDbEntity
  8
DIMNSIONS
  6
Continuous
 62
     7
100
AcDbLine
 10
400.0
 20
134.09689
 30
0.0
 11
403.3501989757511
 21
146.6000027929687
 31
0.0
  0
TEXT
  5
64B
330
70B
100
AcDbEntity
  8
DIMNSIONS
 62
     7
100
AcDbText
 10
395.0305555555556
 20
162.7774455555555
 30
0.0
 40
13.57367621527778
  1
75
 50
90.0
 41
0.7
 11
381.4568793402778
 21
162.7774455555555
 31
0.0
100
AcDbText
 73
     3
  0
LINE
  5
64C
330
70B
100
AcDbEntity
  8
DIMNSIONS
  6
Continuous
 62
     7
100
AcDbLine
 10
-120.1353104103568
 20
156.8652137005965
 30
0.0
 11
-120.1353104103568
 21
-334.9999999999999
 31
0.0
  0
LINE
  5
64D
330
70B
100
AcDbEntity
  8
DIMNSIONS
  6
Continuous
 62
     7
100
AcDbLine
 10
244.60861
 20
-93.16357999999997
 30
0.0
 11
244.60861
 21
-334.9999999999999
 31
0.0
  0
LINE
  5
64E
330
70B
100
AcDbEntity
  8
DIMNSIONS
  6
Continuous
 62
     7
100
AcDbLine
 10
-120.1353104103568
 20
-324.9999999999999
 30
0.0
 11
244.60861
 21
-324.9999999999999
 31
0.0
  0
LINE
  5
64F
330
70B
100
AcDbEntity
  8
DIMNSIONS
  6
Continuous
 62
     7
100
AcDbLine
 10
-120.1353104103568
 20
-324.9999999999999
 30
0.0
 11
-107.632197617388
 21
-321.6498010242487
 31
0.0
  0
LINE
  5
650
330
70B
100
AcDbEntity
  8
DIMNSIONS
  6
Continuous
 62
     7
100
AcDbLine
 10
-120.1353104103568
 20
-324.9999999999999
 30
0.0
 11
-107.632197617388
 21
-328.3501989757511
 31
0.0
  0
LINE
  5
651
330
70B
100
AcDbEntity
  8
DIMNSIONS
  6
Continuous
 62
     7
100
AcDbLine
 10
244.60861
 20
-324.9999999999999
 30
0.0
 11
232.1054972070312
 21
-328.3501989757511
 31
0.0
  0
LINE
  5
652
330
70B
100
AcDbEntity
  8
DIMNSIONS
  6
Continuous
 62
     7
100
AcDbLine
 10
244.60861
 20
-324.9999999999999
 30
0.0
 11
232.1054972070312
 21
-321.6498010242487
 31
0.0
  0
TEXT
  5
653
330
70B
100
AcDbEntity
  8
DIMNSIONS
 62
     7
100
AcDbText
 10
-17.1383502051784
 20
-320.0305555555554
 30
0.0
 40
13.57367621527778
  1
364.7(下向き-40\U+00B0)
 41
0.7
 11
-17.1383502051784
 21
-306.4568793402776
 31
0.0
100
AcDbText
 73
     3
  0
TEXT
  5
654
330
70B
100
AcDbEntity
  8
DIMNSIONS
 62
     7
100
AcDbText
 10
-125.0
 20
432.7680555555556
 30
0.0
 40
13.57367621527778
  1
取付必要スペース
 41
0.7
 11
-125.0
 21
446.3417317708333
 31
0.0
100
AcDbText
 73
     3
  0
TEXT
  5
655
330
70B
100
AcDbEntity
  8
DIMNSIONS
 62
     7
100
AcDbText
 10
432.2319444444444
 20
336.48594
 30
0.0
 40
13.57367621527778
  1
取付穴最小寸法
 50
90.0
 41
0.7
 11
418.6582682291666
 21
336.48594
 31
0.0
100
AcDbText
 73
     3
  0
LINE
  5
656
330
70B
100
AcDbEntity
  8
DIMNSIONS
  6
Continuous
 62
     7
100
AcDbLine
 10
-19.17656
 20
65.54320000000001
 30
0.0
 11
484.9999999999999
 21
65.54320000000001
 31
0.0
  0
LINE
  5
657
330
70B
100
AcDbEntity
  8
DIMNSIONS
  6
Continuous
 62
     7
100
AcDbLine
 10
279.8652699999999
 20
119.09689
 30
0.0
 11
485.0
 21
119.09689
 31
0.0
  0
LINE
  5
658
330
70B
100
AcDbEntity
  8
DIMNSIONS
  6
Continuous
 62
     7
100
AcDbLine
 10
475.0
 20
65.54320000000001
 30
0.0
 11
475.0
 21
119.09689
 31
0.0
  0
LINE
  5
659
330
70B
100
AcDbEntity
  8
DIMNSIONS
  6
Continuous
 62
     7
100
AcDbLine
 10
475.0
 20
65.54320000000001
 30
0.0
 11
471.6498010242488
 21
78.04631279296876
 31
0.0
  0
LINE
  5
65A
330
70B
100
AcDbEntity
  8
DIMNSIONS
  6
Continuous
 62
     7
100
AcDbLine
 10
475.0
 20
65.54320000000001
 30
0.0
 11
478.3501989757511
 21
78.04631279296876
 31
0.0
  0
LINE
  5
65B
330
70B
100
AcDbEntity
  8
DIMNSIONS
  6
Continuous
 62
     7
100
AcDbLine
 10
475.0
 20
119.09689
 30
0.0
 11
478.3501989757511
 21
106.5937772070312
 31
0.0
  0
LINE
  5
65C
330
70B
100
AcDbEntity
  8
DIMNSIONS
  6
Continuous
 62
     7
100
AcDbLine
 10
475.0
 20
119.09689
 30
0.0
 11
471.6498010242488
 21
106.5937772070312
 31
0.0
  0
TEXT
  5
65D
330
70B
100
AcDbEntity
  8
DIMNSIONS
 62
     7
100
AcDbText
 10
470.0305555555555
 20
74.68115611111112
 30
0.0
 40
13.57367621527778
  1
53.6
 50
90.0
 41
0.7
 11
456.4568793402777
 21
74.68115611111112
 31
0.0
100
AcDbText
 73
     3
  0
LINE
  5
65E
330
70B
100
AcDbEntity
  8
DIMNSIONS
  6
Continuous
 62
     7
100
AcDbLine
 10
279.8652699999999
 20
119.09689
 30
0.0
 11
485.0
 21
119.09689
 31
0.0
  0
LINE
  5
65F
330
70B
100
AcDbEntity
  8
DIMNSIONS
  6
Continuous
 62
     7
100
AcDbLine
 10
279.86528
 20
299.09689
 30
0.0
 11
485.0
 21
299.09689
 31
0.0
  0
LINE
  5
660
330
70B
100
AcDbEntity
  8
DIMNSIONS
  6
Continuous
 62
     7
100
AcDbLine
 10
475.0
 20
119.09689
 30
0.0
 11
475.0
 21
299.09689
 31
0.0
  0
LINE
  5
661
330
70B
100
AcDbEntity
  8
DIMNSIONS
  6
Continuous
 62
     7
100
AcDbLine
 10
475.0
 20
119.09689
 30
0.0
 11
471.6498010242488
 21
131.6000027929687
 31
0.0
  0
LINE
  5
662
330
70B
100
AcDbEntity
  8
DIMNSIONS
  6
Continuous
 62
     7
100
AcDbLine
 10
475.0
 20
119.09689
 30
0.0
 11
478.3501989757511
 21
131.6000027929687
 31
0.0
  0
LINE
  5
663
330
70B
100
AcDbEntity
  8
DIMNSIONS
  6
Continuous
 62
     7
100
AcDbLine
 10
475.0
 20
299.09689
 30
0.0
 11
478.3501989757511
 21
286.5937772070312
 31
0.0
  0
LINE
  5
664
330
70B
100
AcDbEntity
  8
DIMNSIONS
  6
Continuous
 62
     7
100
AcDbLine
 10
475.0
 20
299.09689
 30
0.0
 11
471.6498010242488
 21
286.5937772070312
 31
0.0
  0
TEXT
  5
665
330
70B
100
AcDbEntity
  8
DIMNSIONS
 62
     7
100
AcDbText
 10
470.0305555555555
 20
195.8677233333333
 30
0.0
 40
13.57367621527778
  1
180
 50
90.0
 41
0.7
 11
456.4568793402777
 21
195.8677233333333
 31
0.0
100
AcDbText
 73
     3
  0
LINE
  5
666
330
70B
100
AcDbEntity
  8
DIMNSIONS
  6
Continuous
 62
     7
100
AcDbLine
 10
279.8652699999999
 20
134.09689
 30
0.0
 11
447.5
 21
134.09689
 31
0.0
  0
LINE
  5
667
330
70B
100
AcDbEntity
  8
DIMNSIONS
  6
Continuous
 62
     7
100
AcDbLine
 10
279.8652699999999
 20
119.09689
 30
0.0
 11
447.5
 21
119.09689
 31
0.0
  0
LINE
  5
668
330
70B
100
AcDbEntity
  8
DIMNSIONS
  6
Continuous
 62
     7
100
AcDbLine
 10
437.5
 20
119.09689
 30
0.0
 11
437.5
 21
134.09689
 31
0.0
  0
LINE
  5
669
330
70B
100
AcDbEntity
  8
DIMNSIONS
  6
Continuous
 62
     7
100
AcDbLine
 10
437.5
 20
134.09689
 30
0.0
 11
437.5
 21
167.6388888888889
 31
0.0
  0
LINE
  5
66A
330
70B
100
AcDbEntity
  8
DIMNSIONS
  6
Continuous
 62
     7
100
AcDbLine
 10
437.5
 20
134.09689
 30
0.0
 11
434.1498010242488
 21
146.6000027929687
 31
0.0
  0
LINE
  5
66B
330
70B
100
AcDbEntity
  8
DIMNSIONS
  6
Continuous
 62
     7
100
AcDbLine
 10
437.5
 20
134.09689
 30
0.0
 11
440.8501989757511
 21
146.6000027929687
 31
0.0
  0
LINE
  5
66C
330
70B
100
AcDbEntity
  8
DIMNSIONS
  6
Continuous
 62
     7
100
AcDbLine
 10
437.5
 20
119.09689
 30
0.0
 11
437.5
 21
94.09689
 31
0.0
  0
LINE
  5
66D
330
70B
100
AcDbEntity
  8
DIMNSIONS
  6
Continuous
 62
     7
100
AcDbLine
 10
437.5
 20
119.09689
 30
0.0
 11
440.8501989757511
 21
106.5937772070312
 31
0.0
  0
LINE
  5
66E
330
70B
100
AcDbEntity
  8
DIMNSIONS
  6
Continuous
 62
     7
100
AcDbLine
 10
437.5
 20
119.09689
 30
0.0
 11
434.1498010242488
 21
106.5937772070312
 31
0.0
  0
TEXT
  5
66F
330
70B
100
AcDbEntity
  8
DIMNSIONS
 62
     7
100
AcDbText
 10
432.5305555555555
 20
150.0
 30
0.0
 40
13.57367621527778
  1
15
 50
90.0
 41
0.7
 11
418.9568793402777
 21
150.0
 31
0.0
100
AcDbText
 73
     3
  0
LINE
  5
670
330
70B
100
AcDbEntity
  8
DIMNSIONS
  6
Continuous
 62
     7
100
AcDbLine
 10
-84.41108999999999
 20
359.6603482608628
 30
0.0
 11
-84.41108999999999
 21
410.0
 31
0.0
  0
LINE
  5
671
330
70B
100
AcDbEntity
  8
DIMNSIONS
  6
Continuous
 62
     7
100
AcDbLine
 10
269.86527
 20
359.6603482608628
 30
0.0
 11
269.86527
 21
410.0
 31
0.0
  0
LINE
  5
672
330
70B
100
AcDbEntity
  8
DIMNSIONS
  6
Continuous
 62
     7
100
AcDbLine
 10
-84.41108999999999
 20
400.0
 30
0.0
 11
269.86527
 21
400.0
 31
0.0
  0
LINE
  5
673
330
70B
100
AcDbEntity
  8
DIMNSIONS
  6
Continuous
 62
     7
100
AcDbLine
 10
-84.41108999999999
 20
400.0
 30
0.0
 11
-71.90797720703123
 21
403.3501989757511
 31
0.0
  0
LINE
  5
674
330
70B
100
AcDbEntity
  8
DIMNSIONS
  6
Continuous
 62
     7
100
AcDbLine
 10
-84.41108999999999
 20
400.0
 30
0.0
 11
-71.90797720703123
 21
396.6498010242488
 31
0.0
  0
LINE
  5
675
330
70B
100
AcDbEntity
  8
DIMNSIONS
  6
Continuous
 62
     7
100
AcDbLine
 10
269.86527
 20
400.0
 30
0.0
 11
257.3621572070312
 21
396.6498010242488
 31
0.0
  0
LINE
  5
676
330
70B
100
AcDbEntity
  8
DIMNSIONS
  6
Continuous
 62
     7
100
AcDbLine
 10
269.86527
 20
400.0
 30
0.0
 11
257.3621572070312
 21
403.3501989757511
 31
0.0
  0
TEXT
  5
677
330
70B
100
AcDbEntity
  8
DIMNSIONS
 62
     7
100
AcDbText
 10
22.17153444444443
 20
404.9694444444444
 30
0.0
 40
13.57367621527778
  1
354.3(下向き0\U+00B0)
 41
0.7
 11
22.17153444444443
 21
418.5431206597222
 31
0.0
100
AcDbText
 73
     3
  0
INSERT
  5
678
330
70B
100
AcDbEntity
  8
DATA
 62
     7
100
AcDbBlockReference
  2
____
 10
100.0
 20
140.0
 30
0.0
  0
TEXT
  5
679
330
70B
100
AcDbEntity
  8
DATA
 62
     7
100
AcDbText
 10
350.0
 20
-440.2182999999999
 30
0.0
 40
12.21630859375
  1
JBL-1 MKII金具装着外観図
 41
0.7
 11
350.0
 21
-428.0019914062499
 31
0.0
100
AcDbText
 73
     3
  0
TEXT
  5
67A
330
70B
100
AcDbEntity
  8
DATA
 62
     7
100
AcDbText
 10
350.0
 20
-403.9683
 30
0.0
 40
12.21630859375
  1
JBL
 41
0.7
 11
350.0
 21
-391.75199140625
 31
0.0
100
AcDbText
 73
     3
  0
TEXT
  5
67B
330
70B
100
AcDbEntity
  8
DATA
 62
     7
100
AcDbText
 10
337.5
 20
-421.3531099999999
 30
0.0
 40
8.144333984375
  1
8330A & 8340A用
 41
0.7
 11
337.5
 21
-413.2087760156249
 31
0.0
100
AcDbText
 73
     3
  0
LINE
  5
67C
330
70B
100
AcDbEntity
  8
DATA
  6
Continuous
 62
     7
100
AcDbLine
 10
228.09862
 20
500.0
 30
0.0
 11
-200.0
 21
500.0
 31
0.0
  0
LINE
  5
67D
330
70B
100
AcDbEntity
  8
DATA
  6
Continuous
 62
     7
100
AcDbLine
 10
269.86527
 20
408.01002
 30
0.0
 11
269.86527
 21
-261.7431
 31
0.0
  0
LINE
  5
67E
330
70B
100
AcDbEntity
  8
DATA
  6
Continuous
 62
     7
100
AcDbLine
 10
-180.65631
 20
500.0
 30
0.0
 11
-130.65631
 21
550.0
 31
0.0
  0
LINE
  5
67F
330
70B
100
AcDbEntity
  8
DATA
  6
Continuous
 62
     7
100
AcDbLine
 10
-88.22991
 20
550.0
 30
0.0
 11
-138.22991
 21
500.0
 31
0.0
  0
LINE
  5
680
330
70B
100
AcDbEntity
  8
DATA
  6
Continuous
 62
     7
100
AcDbLine
 10
-95.80350000000001
 20
500.0
 30
0.0
 11
-45.8035
 21
550.0
 31
0.0
  0
LINE
  5
681
330
70B
100
AcDbEntity
  8
DATA
  6
Continuous
 62
     7
100
AcDbLine
 10
-3.377090000000009
 20
550.0
 30
0.0
 11
-53.37709
 21
500.0
 31
0.0
  0
LINE
  5
682
330
70B
100
AcDbEntity
  8
DATA
  6
Continuous
 62
     7
100
AcDbLine
 10
-10.95069
 20
500.0
 30
0.0
 11
39.04930999999999
 21
550.0
 31
0.0
  0
LINE
  5
683
330
70B
100
AcDbEntity
  8
DATA
  6
Continuous
 62
     7
100
AcDbLine
 10
81.47571999999998
 20
550.0
 30
0.0
 11
31.47572
 21
500.0
 31
0.0
  0
LINE
  5
684
330
70B
100
AcDbEntity
  8
DATA
  6
Continuous
 62
     7
100
AcDbLine
 10
73.90211999999998
 20
500.0
 30
0.0
 11
123.90212
 21
550.0
 31
0.0
  0
LINE
  5
685
330
70B
100
AcDbEntity
  8
DATA
  6
Continuous
 62
     7
100
AcDbLine
 10
166.3285199999999
 20
550.0
 30
0.0
 11
116.32852
 21
500.0
 31
0.0
  0
LINE
  5
686
330
70B
100
AcDbEntity
  8
DATA
  6
Continuous
 62
     7
100
AcDbLine
 10
158.75493
 20
500.0
 30
0.0
 11
208.75493
 21
550.0
 31
0.0
  0
LINE
  5
687
330
70B
100
AcDbEntity
  8
DATA
  6
Continuous
 62
     7
100
AcDbLine
 10
228.09862
 20
526.9172799999998
 30
0.0
 11
201.18134
 21
500.0
 31
0.0
  0
LINE
  5
688
330
70B
100
AcDbEntity
  8
DATA
  6
Continuous
 62
     7
100
AcDbLine
 10
290.33058
 20
408.0099999999999
 30
0.0
 11
269.86528
 21
387.5447
 31
0.0
  0
LINE
  5
689
330
70B
100
AcDbEntity
  8
DATA
  6
Continuous
 62
     7
100
AcDbLine
 10
269.86527
 20
345.11829
 30
0.0
 11
319.8652699999999
 21
395.11829
 31
0.0
  0
LINE
  5
68A
330
70B
100
AcDbEntity
  8
DATA
  6
Continuous
 62
     7
100
AcDbLine
 10
319.8652699999999
 20
352.69189
 30
0.0
 11
269.86527
 21
302.69189
 31
0.0
  0
LINE
  5
68B
330
70B
100
AcDbEntity
  8
DATA
  6
Continuous
 62
     7
100
AcDbLine
 10
269.86527
 20
260.26548
 30
0.0
 11
319.8652699999999
 21
310.2654800000001
 31
0.0
  0
LINE
  5
68C
330
70B
100
AcDbEntity
  8
DATA
  6
Continuous
 62
     7
100
AcDbLine
 10
319.8652699999999
 20
267.83907
 30
0.0
 11
269.86527
 21
217.83907
 31
0.0
  0
LINE
  5
68D
330
70B
100
AcDbEntity
  8
DATA
  6
Continuous
 62
     7
100
AcDbLine
 10
269.86527
 20
175.41267
 30
0.0
 11
319.8652699999999
 21
225.41267
 31
0.0
  0
LINE
  5
68E
330
70B
100
AcDbEntity
  8
DATA
  6
Continuous
 62
     7
100
AcDbLine
 10
319.8652699999999
 20
182.98626
 30
0.0
 11
269.86527
 21
132.98626
 31
0.0
  0
LINE
  5
68F
330
70B
100
AcDbEntity
  8
DATA
  6
Continuous
 62
     7
100
AcDbLine
 10
269.86527
 20
90.55986
 30
0.0
 11
319.8652699999999
 21
140.55986
 31
0.0
  0
LINE
  5
690
330
70B
100
AcDbEntity
  8
DATA
  6
Continuous
 62
     7
100
AcDbLine
 10
319.8652699999999
 20
98.13346000000001
 30
0.0
 11
269.86527
 21
48.13346000000002
 31
0.0
  0
LINE
  5
691
330
70B
100
AcDbEntity
  8
DATA
  6
Continuous
 62
     7
100
AcDbLine
 10
269.86527
 20
5.707050000000009
 30
0.0
 11
319.8652699999999
 21
55.70705000000001
 31
0.0
  0
LINE
  5
692
330
70B
100
AcDbEntity
  8
DATA
  6
Continuous
 62
     7
100
AcDbLine
 10
319.8652699999999
 20
13.28064
 30
0.0
 11
269.86527
 21
-36.71936
 31
0.0
  0
LINE
  5
693
330
70B
100
AcDbEntity
  8
DATA
  6
Continuous
 62
     7
100
AcDbLine
 10
269.86527
 20
-79.14576999999997
 30
0.0
 11
319.8652699999999
 21
-29.14577
 31
0.0
  0
LINE
  5
694
330
70B
100
AcDbEntity
  8
DATA
  6
Continuous
 62
     7
100
AcDbLine
 10
319.8652699999999
 20
-71.57216999999997
 30
0.0
 11
269.86527
 21
-121.5721699999999
 31
0.0
  0
LINE
  5
695
330
70B
100
AcDbEntity
  8
DATA
  6
Continuous
 62
     7
100
AcDbLine
 10
269.86527
 20
-163.99858
 30
0.0
 11
319.8652699999999
 21
-113.99858
 31
0.0
  0
LINE
  5
696
330
70B
100
AcDbEntity
  8
DATA
  6
Continuous
 62
     7
100
AcDbLine
 10
319.8652699999999
 20
-156.4249899999999
 30
0.0
 11
269.86527
 21
-206.42499
 31
0.0
  0
LINE
  5
697
330
70B
100
AcDbEntity
  8
DATA
  6
Continuous
 62
     7
100
AcDbLine
 10
269.86527
 20
-248.85139
 30
0.0
 11
319.8652699999999
 21
-198.85139
 31
0.0
  0
INSERT
  5
698
330
70B
100
AcDbEntity
  8
DATA
 62
     7
100
AcDbBlockReference
  2
____-1
 10
100.0
 20
140.0
 30
0.0
  0
INSERT
  5
699
330
70B
100
AcDbEntity
  8
DATA
 62
     7
100
AcDbBlockReference
  2
____-2
 10
100.0
 20
140.0
 30
0.0
  0
INSERT
  5
69A
330
70B
100
AcDbEntity
  8
DATA
 62
     7
100
AcDbBlockReference
  2
____-3
 10
100.0
 20
140.0
 30
0.0
  0
ENDSEC
  0
SECTION
  2
OBJECTS
  0
DICTIONARY
  5
6A8
330
0
100
AcDbDictionary
281
     1
  3
ACAD_CIP_PREVIOUS_PRODUCT_INFO
350
72A
  3
ACAD_COLOR
350
6FE
  3
ACAD_DETAILVIEWSTYLE
350
705
  3
ACAD_GROUP
350
6A9
  3
ACAD_LAYOUT
350
6FD
  3
ACAD_MATERIAL
350
6AC
  3
ACAD_MLEADERSTYLE
350
701
  3
ACAD_MLINESTYLE
350
6FA
  3
ACAD_PLOTSETTINGS
350
6FC
  3
ACAD_PLOTSTYLENAME
350
6AA
  3
ACAD_SCALELIST
350
6DE
  3
ACAD_SECTIONVIEWSTYLE
350
703
  3
ACAD_TABLESTYLE
350
6FF
  3
ACAD_VISUALSTYLE
350
6C5
  3
ACDB_RECOMPOSE_DATA
350
740
  3
AcDbVariableDictionary
350
733
  3
DWGPROPS
350
741
  0
DICTIONARY
  5
72B
330
6F0
100
AcDbDictionary
280
     1
281
     1
  3
ADSK_XREC_LAYER_RECONCILED
360
72C
  0
DICTIONARY
  5
72D
330
70F
100
AcDbDictionary
280
     1
281
     1
  3
ADSK_XREC_LAYER_RECONCILED
360
72E
  0
DICTIONARY
  5
72F
330
71F
100
AcDbDictionary
280
     1
281
     1
  3
ADSK_XREC_LAYER_RECONCILED
360
730
  0
DICTIONARY
  5
731
330
720
100
AcDbDictionary
280
     1
281
     1
  3
ADSK_XREC_LAYER_RECONCILED
360
732
  0
XRECORD
  5
72A
102
{ACAD_REACTORS
330
6A8
102
}
330
6A8
100
AcDbXrecord
280
     1
300
ACDLT
300
2015
300
ACDLT_F_S
  0
DICTIONARY
  5
6FE
102
{ACAD_REACTORS
330
6A8
102
}
330
6A8
100
AcDbDictionary
281
     1
  0
DICTIONARY
  5
705
102
{ACAD_REACTORS
330
6A8
102
}
330
6A8
100
AcDbDictionary
281
     1
  3
Imperial24
350
706
  0
DICTIONARY
  5
6A9
102
{ACAD_REACTORS
330
6A8
102
}
330
6A8
100
AcDbDictionary
281
     1
  0
DICTIONARY
  5
6FD
102
{ACAD_REACTORS
330
6A8
102
}
330
6A8
100
AcDbDictionary
281
     1
  3
Model
350
70E
  3
レイアウト1
350
70A
  0
DICTIONARY
  5
6AC
102
{ACAD_REACTORS
330
6A8
102
}
330
6A8
100
AcDbDictionary
281
     1
  3
ByBlock
350
6B5
  3
ByLayer
350
6AD
  3
Global
350
6BD
  0
DICTIONARY
  5
701
102
{ACAD_REACTORS
330
6A8
102
}
330
6A8
100
AcDbDictionary
281
     1
  3
Standard
350
702
  0
DICTIONARY
  5
6FA
102
{ACAD_REACTORS
330
6A8
102
}
330
6A8
100
AcDbDictionary
281
     1
  3
Standard
350
6FB
  0
DICTIONARY
  5
6FC
102
{ACAD_REACTORS
330
6A8
102
}
330
6A8
100
AcDbDictionary
281
     1
  0
ACDBDICTIONARYWDFLT
  5
6AA
102
{ACAD_REACTORS
330
6A8
102
}
330
6A8
100
AcDbDictionary
281
     1
  3
Normal
350
6AB
100
AcDbDictionaryWithDefault
340
6AB
  0
DICTIONARY
  5
6DE
102
{ACAD_REACTORS
330
6A8
102
}
330
6A8
100
AcDbDictionary
281
     1
  3
A0
350
6DF
  3
A1
350
6E0
  3
A2
350
6E1
  3
A3
350
6E2
  3
A4
350
6E3
  3
A5
350
6E4
  3
A6
350
6E5
  3
A7
350
6E6
  3
A8
350
6E7
  3
A9
350
6E8
  3
B0
350
6E9
  3
B1
350
6EA
  3
B2
350
6EB
  3
B3
350
6EC
  3
B4
350
6ED
  3
B5
350
6EE
  3
B6
350
6EF
  0
DICTIONARY
  5
703
102
{ACAD_REACTORS
330
6A8
102
}
330
6A8
100
AcDbDictionary
281
     1
  3
Imperial24
350
704
  0
DICTIONARY
  5
6FF
102
{ACAD_REACTORS
330
6A8
102
}
330
6A8
100
AcDbDictionary
281
     1
  3
Standard
350
700
  0
DICTIONARY
  5
6C5
102
{ACAD_REACTORS
330
6A8
102
}
330
6A8
100
AcDbDictionary
281
     1
  3
2dWireframe
350
6CB
  3
Basic
350
6CA
  3
Brighten
350
6D1
  3
ColorChange
350
6D5
  3
Conceptual
350
6CE
  3
Dim
350
6D0
  3
EdgeColorOff
350
6DD
  3
Facepattern
350
6D4
  3
Flat
350
6C6
  3
FlatWithEdges
350
6C7
  3
Gouraud
350
6C8
  3
GouraudWithEdges
350
6C9
  3
Hidden
350
6CD
  3
JitterOff
350
6DB
  3
Linepattern
350
6D3
  3
OverhangOff
350
6DC
  3
Realistic
350
6CF
  3
Shaded
350
6DA
  3
Shaded with edges
350
6D9
  3
Shades of Gray
350
6D6
  3
Sketchy
350
6D7
  3
Thicken
350
6D2
  3
Wireframe
350
6CC
  3
X-Ray
350
6D8
  0
XRECORD
  5
740
102
{ACAD_REACTORS
330
6A8
102
}
330
6A8
100
AcDbXrecord
280
     1
 90
        1
330
700
  0
DICTIONARY
  5
733
102
{ACAD_REACTORS
330
6A8
102
}
330
6A8
100
AcDbDictionary
281
     1
  3
CANNOSCALE
350
738
  3
CMLEADERSTYLE
350
735
  3
CTABLESTYLE
350
734
  3
CVIEWDETAILSTYLE
350
736
  3
CVIEWSECTIONSTYLE
350
737
  3
DIMASSOC
350
73B
  3
INDEXCTL
350
73A
  3
SORTENTS
350
739
  3
XCLIPFRAME
350
73C
  0
XRECORD
  5
741
102
{ACAD_REACTORS
330
6A8
102
}
330
6A8
100
AcDbXrecord
280
     1
  1
DWGPROPS COOKIE
  2

  3

  4

  6

  7

  8
sasaki_n
  9

300
=
301
=
302
=
303
=
304
=
305
=
306
=
307
=
308
=
309
=
 40
0.000779537037037
 41
2457052.554699074
 42
2457052.555760717
  1

 90
        0
  0
XRECORD
  5
72C
102
{ACAD_REACTORS
330
72B
102
}
330
72B
100
AcDbXrecord
280
     1
290
     1
  0
XRECORD
  5
72E
102
{ACAD_REACTORS
330
72D
102
}
330
72D
100
AcDbXrecord
280
     1
290
     1
  0
XRECORD
  5
730
102
{ACAD_REACTORS
330
72F
102
}
330
72F
100
AcDbXrecord
280
     1
290
     1
  0
XRECORD
  5
732
102
{ACAD_REACTORS
330
731
102
}
330
731
100
AcDbXrecord
280
     1
290
     1
  0
ACDBDETAILVIEWSTYLE
  5
706
102
{ACAD_XDICTIONARY
360
779
102
}
102
{ACAD_REACTORS
330
705
102
}
330
705
100
AcDbModelDocViewStyle
 70
     0
  3
Imperial24
290
     0
100
AcDbDetailViewStyle
 70
     0
 71
     0
 90
        3
 71
     1
340
6F1
 40
0.24
340
0
 40
0.24
300

 40
0.36
280
     3
 71
     2
340
6F8
 90
       25
 71
     3
340
6F1
 40
0.24
 90
        1
 40
0.75
 90
        1
300
%<\AcVar ViewType \f "%tc1">% %<\AcVar ViewDetailId>%\PSCALE %<\AcVar ViewScale \f "%sn">%
 71
     4
340
6F8
 90
       25
340
6F8
 90
       25
280
     0
  0
LAYOUT
  5
70E
102
{ACAD_XDICTIONARY
360
77D
102
}
102
{ACAD_REACTORS
330
6FD
102
}
330
6FD
100
AcDbPlotSettings
  1

  2
Microsoft XPS Document Writer
  4

  6

 40
0.0
 41
0.0
 42
0.0
 43
0.0
 44
0.0
 45
0.0
 46
0.0
 47
0.0
 48
0.0
 49
0.0
140
0.0
141
0.0
142
1.0
143
1.0
 70
  1712
 72
     0
 73
     0
 74
     0
  7

 75
     0
147
1.0
148
0.0
149
0.0
100
AcDbLayout
  1
Model
 70
     1
 71
     0
 10
0.0
 20
0.0
 11
12.0
 21
9.0
 12
0.0
 22
0.0
 32
0.0
 14
0.0
 24
0.0
 34
0.0
 15
0.0
 25
0.0
 35
0.0
146
0.0
 13
0.0
 23
0.0
 33
0.0
 16
1.0
 26
0.0
 36
0.0
 17
0.0
 27
1.0
 37
0.0
 76
     0
330
70B
331
710
  0
LAYOUT
  5
70A
102
{ACAD_XDICTIONARY
360
77B
102
}
102
{ACAD_REACTORS
330
6FD
102
}
330
6FD
100
AcDbPlotSettings
  1

  2
Microsoft XPS Document Writer
  4

  6

 40
0.0
 41
0.0
 42
0.0
 43
0.0
 44
0.0
 45
0.0
 46
0.0
 47
0.0
 48
0.0
 49
0.0
140
0.0
141
0.0
142
1.0
143
1.0
 70
   688
 72
     0
 73
     0
 74
     5
  7

 75
    16
147
1.0
148
0.0
149
0.0
100
AcDbLayout
  1
レイアウト1
 70
     0
 71
     1
 10
0.0
 20
0.0
 11
12.0
 21
9.0
 12
0.0
 22
0.0
 32
0.0
 14
1.000000000000000E+20
 24
1.000000000000000E+20
 34
1.000000000000000E+20
 15
-1.000000000000000E+20
 25
-1.000000000000000E+20
 35
-1.000000000000000E+20
146
0.0
 13
0.0
 23
0.0
 33
0.0
 16
1.0
 26
0.0
 36
0.0
 17
0.0
 27
1.0
 37
0.0
 76
     0
330
707
  0
MATERIAL
  5
6B5
102
{ACAD_XDICTIONARY
360
6B6
102
}
102
{ACAD_REACTORS
330
6AC
102
}
330
6AC
100
AcDbMaterial
  1
ByBlock
 72
     0
 43
0.0208333333333333
 43
0.0
 43
0.0
 43
0.0
 43
0.0
 43
0.0208333333333333
 43
0.0
 43
0.0
 43
0.0
 43
0.0
 43
1.0
 43
0.0
 43
0.0
 43
0.0
 43
0.0
 43
1.0
 77
     0
 47
0.0208333333333333
 47
0.0
 47
0.0
 47
0.0
 47
0.0
 47
0.0208333333333333
 47
0.0
 47
0.0
 47
0.0
 47
0.0
 47
1.0
 47
0.0
 47
0.0
 47
0.0
 47
0.0
 47
1.0
171
     0
 49
0.0208333333333333
 49
0.0
 49
0.0
 49
0.0
 49
0.0
 49
0.0208333333333333
 49
0.0
 49
0.0
 49
0.0
 49
0.0
 49
1.0
 49
0.0
 49
0.0
 49
0.0
 49
0.0
 49
1.0
175
     0
142
0.0208333333333333
142
0.0
142
0.0
142
0.0
142
0.0
142
0.0208333333333333
142
0.0
142
0.0
142
0.0
142
0.0
142
1.0
142
0.0
142
0.0
142
0.0
142
0.0
142
1.0
179
     0
144
0.0208333333333333
144
0.0
144
0.0
144
0.0
144
0.0
144
0.0208333333333333
144
0.0
144
0.0
144
0.0
144
0.0
144
1.0
144
0.0
144
0.0
144
0.0
144
0.0
144
1.0
147
0.0208333333333333
147
0.0
147
0.0
147
0.0
147
0.0
147
0.0208333333333333
147
0.0
147
0.0
147
0.0
147
0.0
147
1.0
147
0.0
147
0.0
147
0.0
147
0.0
147
1.0
  0
MATERIAL
  5
6AD
102
{ACAD_XDICTIONARY
360
6AE
102
}
102
{ACAD_REACTORS
330
6AC
102
}
330
6AC
100
AcDbMaterial
  1
ByLayer
 72
     0
 43
0.0208333333333333
 43
0.0
 43
0.0
 43
0.0
 43
0.0
 43
0.0208333333333333
 43
0.0
 43
0.0
 43
0.0
 43
0.0
 43
1.0
 43
0.0
 43
0.0
 43
0.0
 43
0.0
 43
1.0
 77
     0
 47
0.0208333333333333
 47
0.0
 47
0.0
 47
0.0
 47
0.0
 47
0.0208333333333333
 47
0.0
 47
0.0
 47
0.0
 47
0.0
 47
1.0
 47
0.0
 47
0.0
 47
0.0
 47
0.0
 47
1.0
171
     0
 49
0.0208333333333333
 49
0.0
 49
0.0
 49
0.0
 49
0.0
 49
0.0208333333333333
 49
0.0
 49
0.0
 49
0.0
 49
0.0
 49
1.0
 49
0.0
 49
0.0
 49
0.0
 49
0.0
 49
1.0
175
     0
142
0.0208333333333333
142
0.0
142
0.0
142
0.0
142
0.0
142
0.0208333333333333
142
0.0
142
0.0
142
0.0
142
0.0
142
1.0
142
0.0
142
0.0
142
0.0
142
0.0
142
1.0
179
     0
144
0.0208333333333333
144
0.0
144
0.0
144
0.0
144
0.0
144
0.0208333333333333
144
0.0
144
0.0
144
0.0
144
0.0
144
1.0
144
0.0
144
0.0
144
0.0
144
0.0
144
1.0
147
0.0208333333333333
147
0.0
147
0.0
147
0.0
147
0.0
147
0.0208333333333333
147
0.0
147
0.0
147
0.0
147
0.0
147
1.0
147
0.0
147
0.0
147
0.0
147
0.0
147
1.0
  0
MATERIAL
  5
6BD
102
{ACAD_XDICTIONARY
360
6BE
102
}
102
{ACAD_REACTORS
330
6AC
102
}
330
6AC
100
AcDbMaterial
  1
Global
 72
     0
 43
0.0208333333333333
 43
0.0
 43
0.0
 43
0.0
 43
0.0
 43
0.0208333333333333
 43
0.0
 43
0.0
 43
0.0
 43
0.0
 43
1.0
 43
0.0
 43
0.0
 43
0.0
 43
0.0
 43
1.0
 77
     0
 47
0.0208333333333333
 47
0.0
 47
0.0
 47
0.0
 47
0.0
 47
0.0208333333333333
 47
0.0
 47
0.0
 47
0.0
 47
0.0
 47
1.0
 47
0.0
 47
0.0
 47
0.0
 47
0.0
 47
1.0
171
     0
 49
0.0208333333333333
 49
0.0
 49
0.0
 49
0.0
 49
0.0
 49
0.0208333333333333
 49
0.0
 49
0.0
 49
0.0
 49
0.0
 49
1.0
 49
0.0
 49
0.0
 49
0.0
 49
0.0
 49
1.0
175
     0
142
0.0208333333333333
142
0.0
142
0.0
142
0.0
142
0.0
142
0.0208333333333333
142
0.0
142
0.0
142
0.0
142
0.0
142
1.0
142
0.0
142
0.0
142
0.0
142
0.0
142
1.0
179
     0
144
0.0208333333333333
144
0.0
144
0.0
144
0.0
144
0.0
144
0.0208333333333333
144
0.0
144
0.0
144
0.0
144
0.0
144
1.0
144
0.0
144
0.0
144
0.0
144
0.0
144
1.0
147
0.0208333333333333
147
0.0
147
0.0
147
0.0
147
0.0
147
0.0208333333333333
147
0.0
147
0.0
147
0.0
147
0.0
147
1.0
147
0.0
147
0.0
147
0.0
147
0.0
147
1.0
  0
MLEADERSTYLE
  5
702
102
{ACAD_REACTORS
330
701
102
}
330
701
100
AcDbMLeaderStyle
170
     2
171
     1
172
     0
 90
        2
 40
0.0
 41
0.0
173
     1
 91
-1056964608
340
6F6
 92
       -2
290
     1
 42
0.09
291
     1
 43
0.36
  3
Standard
 44
0.18
300

342
6F1
174
     1
178
     6
175
     1
176
     0
 93
-1056964608
 45
0.18
292
     0
297
     0
 46
0.18
 94
-1056964608
 47
1.0
 49
1.0
140
1.0
293
     1
141
0.0
294
     1
177
     0
142
1.0
295
     0
296
     0
143
0.125
1001
ACAD_MLEADERVER
1070
     2
  0
MLINESTYLE
  5
6FB
102
{ACAD_REACTORS
330
6FA
102
}
330
6FA
100
AcDbMlineStyle
  2
STANDARD
 70
     0
  3

 62
   256
 51
90.0
 52
90.0
 71
     2
 49
0.5
 62
   256
  6
BYLAYER
 49
-0.5
 62
   256
  6
BYLAYER
  0
ACDBPLACEHOLDER
  5
6AB
102
{ACAD_REACTORS
330
6AA
102
}
330
6AA
  0
SCALE
  5
6DF
102
{ACAD_REACTORS
330
6DE
102
}
330
6DE
100
AcDbScale
 70
     0
300
1:1
140
1.0
141
1.0
290
     1
  0
SCALE
  5
6E0
102
{ACAD_REACTORS
330
6DE
102
}
330
6DE
100
AcDbScale
 70
     0
300
1/128" = 1'-0"
140
0.0078125
141
12.0
290
     0
  0
SCALE
  5
6E1
102
{ACAD_REACTORS
330
6DE
102
}
330
6DE
100
AcDbScale
 70
     0
300
1/64" = 1'-0"
140
0.015625
141
12.0
290
     0
  0
SCALE
  5
6E2
102
{ACAD_REACTORS
330
6DE
102
}
330
6DE
100
AcDbScale
 70
     0
300
1/32" = 1'-0"
140
0.03125
141
12.0
290
     0
  0
SCALE
  5
6E3
102
{ACAD_REACTORS
330
6DE
102
}
330
6DE
100
AcDbScale
 70
     0
300
1/16" = 1'-0"
140
0.0625
141
12.0
290
     0
  0
SCALE
  5
6E4
102
{ACAD_REACTORS
330
6DE
102
}
330
6DE
100
AcDbScale
 70
     0
300
3/32" = 1'-0"
140
0.09375
141
12.0
290
     0
  0
SCALE
  5
6E5
102
{ACAD_REACTORS
330
6DE
102
}
330
6DE
100
AcDbScale
 70
     0
300
1/8" = 1'-0"
140
0.125
141
12.0
290
     0
  0
SCALE
  5
6E6
102
{ACAD_REACTORS
330
6DE
102
}
330
6DE
100
AcDbScale
 70
     0
300
3/16" = 1'-0"
140
0.1875
141
12.0
290
     0
  0
SCALE
  5
6E7
102
{ACAD_REACTORS
330
6DE
102
}
330
6DE
100
AcDbScale
 70
     0
300
1/4" = 1'-0"
140
0.25
141
12.0
290
     0
  0
SCALE
  5
6E8
102
{ACAD_REACTORS
330
6DE
102
}
330
6DE
100
AcDbScale
 70
     0
300
3/8" = 1'-0"
140
0.375
141
12.0
290
     0
  0
SCALE
  5
6E9
102
{ACAD_REACTORS
330
6DE
102
}
330
6DE
100
AcDbScale
 70
     0
300
1/2" = 1'-0"
140
0.5
141
12.0
290
     0
  0
SCALE
  5
6EA
102
{ACAD_REACTORS
330
6DE
102
}
330
6DE
100
AcDbScale
 70
     0
300
3/4" = 1'-0"
140
0.75
141
12.0
290
     0
  0
SCALE
  5
6EB
102
{ACAD_REACTORS
330
6DE
102
}
330
6DE
100
AcDbScale
 70
     0
300
1" = 1'-0"
140
1.0
141
12.0
290
     0
  0
SCALE
  5
6EC
102
{ACAD_REACTORS
330
6DE
102
}
330
6DE
100
AcDbScale
 70
     0
300
1-1/2" = 1'-0"
140
1.5
141
12.0
290
     0
  0
SCALE
  5
6ED
102
{ACAD_REACTORS
330
6DE
102
}
330
6DE
100
AcDbScale
 70
     0
300
3" = 1'-0"
140
3.0
141
12.0
290
     0
  0
SCALE
  5
6EE
102
{ACAD_REACTORS
330
6DE
102
}
330
6DE
100
AcDbScale
 70
     0
300
6" = 1'-0"
140
6.0
141
12.0
290
     0
  0
SCALE
  5
6EF
102
{ACAD_REACTORS
330
6DE
102
}
330
6DE
100
AcDbScale
 70
     0
300
1'-0" = 1'-0"
140
12.0
141
12.0
290
     0
  0
ACDBSECTIONVIEWSTYLE
  5
704
102
{ACAD_XDICTIONARY
360
777
102
}
102
{ACAD_REACTORS
330
703
102
}
330
703
100
AcDbModelDocViewStyle
 70
     0
  3
Imperial24
290
     0
100
AcDbSectionViewStyle
 70
     0
 71
     0
 90
       78
 71
     1
340
6F1
 40
0.24
340
0
340
0
 40
0.24
300
I, O, Q, S, X, Z
 40
0.48
 90
        3
 40
0.18
 90
        1
 71
     2
340
6F8
 90
       25
340
6F8
 90
       50
 40
0.24
 40
0.0
 40
0.24
 71
     3
340
6F1
 40
0.24
 90
        1
 40
0.75
 90
        1
300
%<\AcVar ViewType \f "%tc1">% %<\AcVar ViewSectionStartId>%-%<\AcVar ViewSectionEndId>%\PSCALE %<\AcVar ViewScale \f "%sn">%
 71
     4
300
ANSI31
 40
1.0
 90
        0
290
     0
290
     0
 90
        6
 40
0.0
 40
1.570796326794896
 40
0.2617993877991494
 40
1.308996938995747
 40
-0.2617993877991494
 40
1.832595714594046
  0
TABLESTYLE
  5
700
102
{ACAD_XDICTIONARY
360
73E
102
}
102
{ACAD_REACTORS
330
6FF
102
}
330
6FF
100
AcDbTableStyle
  3
Standard
 70
     0
 71
     0
 40
0.06
 41
0.06
280
     0
281
     0
  7
STANDARD
140
0.18
170
     2
 62
     0
 63
     7
283
     0
274
    -2
284
     1
 64
     0
275
    -2
285
     1
 65
     0
276
    -2
286
     1
 66
     0
277
    -2
287
     1
 67
     0
278
    -2
288
     1
 68
     0
279
    -2
289
     1
 69
     0
  7
STANDARD
140
0.25
170
     5
 62
     0
 63
     7
283
     0
274
    -2
284
     1
 64
     0
275
    -2
285
     1
 65
     0
276
    -2
286
     1
 66
     0
277
    -2
287
     1
 67
     0
278
    -2
288
     1
 68
     0
279
    -2
289
     1
 69
     0
  7
STANDARD
140
0.18
170
     5
 62
     0
 63
     7
283
     0
274
    -2
284
     1
 64
     0
275
    -2
285
     1
 65
     0
276
    -2
286
     1
 66
     0
277
    -2
287
     1
 67
     0
278
    -2
288
     1
 68
     0
279
    -2
289
     1
 69
     0
  0
VISUALSTYLE
  5
6CB
102
{ACAD_XDICTIONARY
360
74F
102
}
102
{ACAD_REACTORS
330
6C5
102
}
330
6C5
100
AcDbVisualStyle
  2
2dWireframe
 70
     4
 71
     0
 72
     2
 73
     0
 90
        0
 40
-0.6
 41
-30.0
 62
     5
 63
     7
 74
     1
 91
        4
 64
     7
 65
   257
 75
     1
175
     1
 42
1.0
 92
        0
 66
   257
 43
1.0
 76
     1
 77
     6
 78
     2
 67
     7
 79
     5
170
     0
171
     0
290
     0
174
     0
 93
        1
 44
0.0
173
     0
291
     0
 45
0.0
1001
ACAD
1000
AcDbSavedByObjectVersion
1070
     0
  0
VISUALSTYLE
  5
6CA
102
{ACAD_XDICTIONARY
360
74D
102
}
102
{ACAD_REACTORS
330
6C5
102
}
330
6C5
100
AcDbVisualStyle
  2
Basic
 70
     7
 71
     1
 72
     0
 73
     1
 90
        0
 40
-0.6
 41
-30.0
 62
     5
 63
     7
 74
     0
 91
        4
 64
     7
 65
   257
 75
     1
175
     1
 42
1.0
 92
        8
 66
     7
 43
1.0
 76
     1
 77
     6
 78
     2
 67
     7
 79
     5
170
     0
171
     0
290
     0
174
     0
 93
        1
 44
0.0
173
     0
291
     1
 45
0.0
1001
ACAD
1000
AcDbSavedByObjectVersion
1070
     0
  0
VISUALSTYLE
  5
6D1
102
{ACAD_XDICTIONARY
360
75B
102
}
102
{ACAD_REACTORS
330
6C5
102
}
330
6C5
100
AcDbVisualStyle
  2
Brighten
 70
    12
 71
     2
 72
     2
 73
     0
 90
        0
 40
-0.6
 41
-30.0
 62
     5
 63
     7
 74
     1
 91
        4
 64
     7
 65
   257
 75
     1
175
     1
 42
1.0
 92
        8
 66
     7
 43
1.0
 76
     1
 77
     6
 78
     2
 67
     7
 79
     5
170
     0
171
     0
290
     0
174
     0
 93
        1
 44
50.0
173
     0
291
     1
 45
0.0
1001
ACAD
1000
AcDbSavedByObjectVersion
1070
     0
  0
VISUALSTYLE
  5
6D5
102
{ACAD_XDICTIONARY
360
763
102
}
102
{ACAD_REACTORS
330
6C5
102
}
330
6C5
100
AcDbVisualStyle
  2
ColorChange
 70
    16
 71
     2
 72
     2
 73
     3
 90
        0
 40
-0.6
 41
-30.0
 62
     5
 63
     8
 74
     1
 91
        4
 64
     7
 65
   257
 75
     1
175
     1
 42
1.0
 92
        8
 66
     8
 43
1.0
 76
     1
 77
     6
 78
     2
 67
     7
 79
     5
170
     0
171
     0
290
     0
174
     0
 93
        1
 44
0.0
173
     0
291
     1
 45
0.0
1001
ACAD
1000
AcDbSavedByObjectVersion
1070
     0
  0
VISUALSTYLE
  5
6CE
102
{ACAD_XDICTIONARY
360
755
102
}
102
{ACAD_REACTORS
330
6C5
102
}
330
6C5
100
AcDbVisualStyle
  2
Conceptual
 70
     9
 71
     3
 72
     2
 73
     0
 90
        0
 40
-0.6
 41
-30.0
 62
     5
 63
     7
 74
     2
 91
        2
 64
     7
 65
   257
 75
     1
175
     1
 42
179.0
 92
        8
 66
     7
 43
1.0
 76
     1
 77
     6
 78
     2
 67
     7
 79
     3
170
     0
171
     0
290
     0
174
     0
 93
        1
 44
0.0
173
     0
291
     0
 45
0.0
1001
ACAD
1000
AcDbSavedByObjectVersion
1070
     0
  0
VISUALSTYLE
  5
6D0
102
{ACAD_XDICTIONARY
360
759
102
}
102
{ACAD_REACTORS
330
6C5
102
}
330
6C5
100
AcDbVisualStyle
  2
Dim
 70
    11
 71
     2
 72
     2
 73
     0
 90
        0
 40
-0.6
 41
-30.0
 62
     5
 63
     7
 74
     1
 91
        4
 64
     7
 65
   257
 75
     1
175
     1
 42
1.0
 92
        8
 66
     7
 43
1.0
 76
     1
 77
     6
 78
     2
 67
     7
 79
     5
170
     0
171
     0
290
     0
174
     0
 93
        1
 44
-50.0
173
     0
291
     1
 45
0.0
1001
ACAD
1000
AcDbSavedByObjectVersion
1070
     0
  0
VISUALSTYLE
  5
6DD
102
{ACAD_XDICTIONARY
360
773
102
}
102
{ACAD_REACTORS
330
6C5
102
}
330
6C5
100
AcDbVisualStyle
  2
EdgeColorOff
 70
    22
 71
     2
 72
     2
 73
     0
 90
        0
 40
-0.6
 41
-30.0
 62
     5
 63
     7
 74
     1
 91
        4
 64
     7
 65
   257
 75
     1
175
     1
 42
1.0
 92
        8
 66
     7
 43
1.0
 76
     1
 77
     6
 78
     2
 67
     7
 79
     5
170
     0
171
     0
290
     0
174
     0
 93
        1
 44
0.0
173
     0
291
     1
 45
0.0
1001
ACAD
1000
AcDbSavedByObjectVersion
1070
     0
  0
VISUALSTYLE
  5
6D4
102
{ACAD_XDICTIONARY
360
761
102
}
102
{ACAD_REACTORS
330
6C5
102
}
330
6C5
100
AcDbVisualStyle
  2
Facepattern
 70
    15
 71
     2
 72
     2
 73
     0
 90
        0
 40
-0.6
 41
-30.0
 62
     5
 63
     7
 74
     1
 91
        4
 64
     7
 65
   257
 75
     1
175
     1
 42
1.0
 92
        8
 66
     7
 43
1.0
 76
     1
 77
     6
 78
     2
 67
     7
 79
     5
170
     0
171
     0
290
     0
174
     0
 93
        1
 44
0.0
173
     0
291
     1
 45
0.0
1001
ACAD
1000
AcDbSavedByObjectVersion
1070
     0
  0
VISUALSTYLE
  5
6C6
102
{ACAD_XDICTIONARY
360
745
102
}
102
{ACAD_REACTORS
330
6C5
102
}
330
6C5
100
AcDbVisualStyle
  2
Flat
 70
     0
 71
     2
 72
     1
 73
     1
 90
        2
 40
-0.6
 41
30.0
 62
     5
 63
     7
 74
     0
 91
        0
 64
     7
 65
   257
 75
     1
175
     1
 42
1.0
 92
        8
 66
     7
 43
1.0
 76
     1
 77
     6
 78
     2
 67
     7
 79
     5
170
     0
171
     0
290
     0
174
     0
 93
       13
 44
0.0
173
     0
291
     1
 45
0.0
1001
ACAD
1000
AcDbSavedByObjectVersion
1070
     0
  0
VISUALSTYLE
  5
6C7
102
{ACAD_XDICTIONARY
360
747
102
}
102
{ACAD_REACTORS
330
6C5
102
}
330
6C5
100
AcDbVisualStyle
  2
FlatWithEdges
 70
     1
 71
     2
 72
     1
 73
     1
 90
        2
 40
-0.6
 41
30.0
 62
     5
 63
     7
 74
     1
 91
        0
 64
     7
 65
   257
 75
     1
175
     1
 42
1.0
 92
        0
 66
   257
 43
1.0
 76
     1
 77
     6
 78
     2
 67
     7
 79
     5
170
     0
171
     0
290
     0
174
     0
 93
       13
 44
0.0
173
     0
291
     1
 45
0.0
1001
ACAD
1000
AcDbSavedByObjectVersion
1070
     0
  0
VISUALSTYLE
  5
6C8
102
{ACAD_XDICTIONARY
360
749
102
}
102
{ACAD_REACTORS
330
6C5
102
}
330
6C5
100
AcDbVisualStyle
  2
Gouraud
 70
     2
 71
     2
 72
     2
 73
     1
 90
        2
 40
-0.6
 41
30.0
 62
     5
 63
     7
 74
     0
 91
        0
 64
     7
 65
   257
 75
     1
175
     1
 42
1.0
 92
        0
 66
     7
 43
1.0
 76
     1
 77
     6
 78
     2
 67
     7
 79
     5
170
     0
171
     0
290
     0
174
     0
 93
       13
 44
0.0
173
     0
291
     1
 45
0.0
1001
ACAD
1000
AcDbSavedByObjectVersion
1070
     0
  0
VISUALSTYLE
  5
6C9
102
{ACAD_XDICTIONARY
360
74B
102
}
102
{ACAD_REACTORS
330
6C5
102
}
330
6C5
100
AcDbVisualStyle
  2
GouraudWithEdges
 70
     3
 71
     2
 72
     2
 73
     1
 90
        2
 40
-0.6
 41
30.0
 62
     5
 63
     7
 74
     1
 91
        0
 64
     7
 65
   257
 75
     1
175
     1
 42
1.0
 92
        0
 66
   257
 43
1.0
 76
     1
 77
     6
 78
     2
 67
     7
 79
     5
170
     0
171
     0
290
     0
174
     0
 93
       13
 44
0.0
173
     0
291
     1
 45
0.0
1001
ACAD
1000
AcDbSavedByObjectVersion
1070
     0
  0
VISUALSTYLE
  5
6CD
102
{ACAD_XDICTIONARY
360
753
102
}
102
{ACAD_REACTORS
330
6C5
102
}
330
6C5
100
AcDbVisualStyle
  2
Hidden
 70
     6
 71
     1
 72
     2
 73
     2
 90
        0
 40
-0.6
 41
-30.0
 62
     5
 63
     7
 74
     2
 91
        2
 64
     7
 65
   257
 75
     2
175
     1
 42
40.0
 92
        0
 66
   257
 43
1.0
 76
     1
 77
     6
 78
     2
 67
     7
 79
     3
170
     0
171
     0
290
     0
174
     0
 93
        1
 44
0.0
173
     0
291
     0
 45
0.0
1001
ACAD
1000
AcDbSavedByObjectVersion
1070
     0
  0
VISUALSTYLE
  5
6DB
102
{ACAD_XDICTIONARY
360
76F
102
}
102
{ACAD_REACTORS
330
6C5
102
}
330
6C5
100
AcDbVisualStyle
  2
JitterOff
 70
    20
 71
     2
 72
     2
 73
     0
 90
        0
 40
-0.6
 41
-30.0
 62
     5
 63
     7
 74
     1
 91
        4
 64
     7
 65
   257
 75
     1
175
     1
 42
1.0
 92
       10
 66
     7
 43
1.0
 76
     1
 77
     6
 78
     2
 67
     7
 79
     5
170
     0
171
     0
290
     0
174
     0
 93
        1
 44
0.0
173
     0
291
     1
 45
0.0
1001
ACAD
1000
AcDbSavedByObjectVersion
1070
     0
  0
VISUALSTYLE
  5
6D3
102
{ACAD_XDICTIONARY
360
75F
102
}
102
{ACAD_REACTORS
330
6C5
102
}
330
6C5
100
AcDbVisualStyle
  2
Linepattern
 70
    14
 71
     2
 72
     2
 73
     0
 90
        0
 40
-0.6
 41
-30.0
 62
     5
 63
     7
 74
     1
 91
        4
 64
     7
 65
   257
 75
     7
175
     7
 42
1.0
 92
        8
 66
     7
 43
1.0
 76
     1
 77
     6
 78
     2
 67
     7
 79
     5
170
     0
171
     0
290
     0
174
     0
 93
        1
 44
0.0
173
     0
291
     1
 45
0.0
1001
ACAD
1000
AcDbSavedByObjectVersion
1070
     0
  0
VISUALSTYLE
  5
6DC
102
{ACAD_XDICTIONARY
360
771
102
}
102
{ACAD_REACTORS
330
6C5
102
}
330
6C5
100
AcDbVisualStyle
  2
OverhangOff
 70
    21
 71
     2
 72
     2
 73
     0
 90
        0
 40
-0.6
 41
-30.0
 62
     5
 63
     7
 74
     1
 91
        4
 64
     7
 65
   257
 75
     1
175
     1
 42
1.0
 92
        9
 66
     7
 43
1.0
 76
     1
 77
     6
 78
     2
 67
     7
 79
     5
170
     0
171
     0
290
     0
174
     0
 93
        1
 44
0.0
173
     0
291
     1
 45
0.0
1001
ACAD
1000
AcDbSavedByObjectVersion
1070
     0
  0
VISUALSTYLE
  5
6CF
102
{ACAD_XDICTIONARY
360
757
102
}
102
{ACAD_REACTORS
330
6C5
102
}
330
6C5
100
AcDbVisualStyle
  2
Realistic
 70
     8
 71
     2
 72
     3
 73
     0
 90
        2
 40
-0.6
 41
30.0
 62
     5
 63
     7
 74
     0
 91
        0
 64
     7
 65
   257
 75
     1
175
     1
 42
1.0
 92
        8
 66
   257
 43
1.0
 76
     1
 77
     6
 78
     2
 67
     7
 79
     3
170
     0
171
     0
290
     0
174
     0
 93
       13
 44
0.0
173
     0
291
     0
 45
0.0
1001
ACAD
1000
AcDbSavedByObjectVersion
1070
     0
  0
VISUALSTYLE
  5
6DA
102
{ACAD_XDICTIONARY
360
76D
102
}
102
{ACAD_REACTORS
330
6C5
102
}
330
6C5
100
AcDbVisualStyle
  2
Shaded
 70
    27
 71
     2
 72
     2
 73
     1
 90
        2
 40
-0.6
 41
30.0
 62
     5
 63
     7
 74
     0
 91
        4
 64
     7
 65
   257
 75
     1
175
     1
 42
1.0
 92
        8
 66
   257
 43
1.0
 76
     1
 77
     6
 78
     2
 67
     8
 79
     3
170
     0
171
     0
290
     0
174
     0
 93
        5
 44
0.0
173
     0
291
     0
 45
0.0
1001
ACAD
1000
AcDbSavedByObjectVersion
1070
     0
  0
VISUALSTYLE
  5
6D9
102
{ACAD_XDICTIONARY
360
76B
102
}
102
{ACAD_REACTORS
330
6C5
102
}
330
6C5
100
AcDbVisualStyle
  2
Shaded with edges
 70
    26
 71
     2
 72
     2
 73
     1
 90
        2
 40
-0.6
 41
30.0
 62
     5
 63
     7
 74
     1
 91
       10
 64
     7
 65
   257
 75
     2
175
     1
 42
1.0
 92
        8
 66
   257
 43
1.0
 76
     1
 77
     6
 78
     2
 67
     7
 79
     3
170
     0
171
     0
290
     0
174
     0
 93
        5
 44
0.0
173
     0
291
     0
 45
0.0
1001
ACAD
1000
AcDbSavedByObjectVersion
1070
     0
  0
VISUALSTYLE
  5
6D6
102
{ACAD_XDICTIONARY
360
765
102
}
102
{ACAD_REACTORS
330
6C5
102
}
330
6C5
100
AcDbVisualStyle
  2
Shades of Gray
 70
    23
 71
     2
 72
     2
 73
     3
 90
        0
 40
-0.6
 41
-30.0
 62
     5
 63
     7
 74
     2
 91
        2
 64
     7
 65
     7
 75
     1
175
     1
 42
40.0
 92
        8
 66
     7
 43
1.0
 76
     1
 77
     6
 78
     2
 67
     7
 79
     3
170
     0
171
     0
290
     0
174
     0
 93
        1
 44
0.0
173
     0
291
     0
 45
0.0
1001
ACAD
1000
AcDbSavedByObjectVersion
1070
     0
  0
VISUALSTYLE
  5
6D7
102
{ACAD_XDICTIONARY
360
767
102
}
102
{ACAD_REACTORS
330
6C5
102
}
330
6C5
100
AcDbVisualStyle
  2
Sketchy
 70
    24
 71
     1
 72
     2
 73
     2
 90
        0
 40
-0.6
 41
-30.0
 62
     5
 63
     7
 74
     2
 91
        2
 64
     7
 65
     7
 75
     1
175
     1
 42
40.0
 92
       11
 66
     7
 43
1.0
 76
     1
 77
     6
 78
     2
 67
     7
 79
     6
170
     0
171
     0
290
     0
174
     0
 93
        1
 44
0.0
173
     0
291
     0
 45
0.0
1001
ACAD
1000
AcDbSavedByObjectVersion
1070
     0
  0
VISUALSTYLE
  5
6D2
102
{ACAD_XDICTIONARY
360
75D
102
}
102
{ACAD_REACTORS
330
6C5
102
}
330
6C5
100
AcDbVisualStyle
  2
Thicken
 70
    13
 71
     2
 72
     2
 73
     0
 90
        0
 40
-0.6
 41
-30.0
 62
     5
 63
     7
 74
     1
 91
        4
 64
     7
 65
   257
 75
     1
175
     1
 42
1.0
 92
       12
 66
     7
 43
1.0
 76
     1
 77
     6
 78
     2
 67
     7
 79
     5
170
     0
171
     0
290
     0
174
     0
 93
        1
 44
0.0
173
     0
291
     1
 45
0.0
1001
ACAD
1000
AcDbSavedByObjectVersion
1070
     0
  0
VISUALSTYLE
  5
6CC
102
{ACAD_XDICTIONARY
360
751
102
}
102
{ACAD_REACTORS
330
6C5
102
}
330
6C5
100
AcDbVisualStyle
  2
Wireframe
 70
     5
 71
     0
 72
     2
 73
     0
 90
        0
 40
-0.6
 41
-30.0
 62
     5
 63
     7
 74
     1
 91
        4
 64
     7
 65
   257
 75
     1
175
     1
 42
1.0
 92
        0
 66
   257
 43
1.0
 76
     1
 77
     6
 78
     2
 67
     7
 79
     3
170
     0
171
     0
290
     0
174
     0
 93
        1
 44
0.0
173
     0
291
     0
 45
0.0
1001
ACAD
1000
AcDbSavedByObjectVersion
1070
     0
  0
VISUALSTYLE
  5
6D8
102
{ACAD_XDICTIONARY
360
769
102
}
102
{ACAD_REACTORS
330
6C5
102
}
330
6C5
100
AcDbVisualStyle
  2
X-Ray
 70
    25
 71
     2
 72
     2
 73
     1
 90
        1
 40
0.5
 41
-30.0
 62
     5
 63
     7
 74
     1
 91
        0
 64
     7
 65
   257
 75
     1
175
     1
 42
1.0
 92
        8
 66
     7
 43
1.0
 76
     1
 77
     6
 78
     2
 67
     7
 79
     3
170
     0
171
     0
290
     0
174
     0
 93
       13
 44
0.0
173
     0
291
     0
 45
0.0
1001
ACAD
1000
AcDbSavedByObjectVersion
1070
     0
  0
DICTIONARYVAR
  5
738
102
{ACAD_REACTORS
330
733
102
}
330
733
100
DictionaryVariables
280
     0
  1
1:1
  0
DICTIONARYVAR
  5
735
102
{ACAD_REACTORS
330
733
102
}
330
733
100
DictionaryVariables
280
     0
  1
STANDARD
  0
DICTIONARYVAR
  5
734
102
{ACAD_REACTORS
330
733
102
}
330
733
100
DictionaryVariables
280
     0
  1
STANDARD
  0
DICTIONARYVAR
  5
736
102
{ACAD_REACTORS
330
733
102
}
330
733
100
DictionaryVariables
280
     0
  1
Imperial24
  0
DICTIONARYVAR
  5
737
102
{ACAD_REACTORS
330
733
102
}
330
733
100
DictionaryVariables
280
     0
  1
Imperial24
  0
DICTIONARYVAR
  5
73B
102
{ACAD_REACTORS
330
733
102
}
330
733
100
DictionaryVariables
280
     0
  1
1
  0
DICTIONARYVAR
  5
73A
102
{ACAD_REACTORS
330
733
102
}
330
733
100
DictionaryVariables
280
     0
  1
0
  0
DICTIONARYVAR
  5
739
102
{ACAD_REACTORS
330
733
102
}
330
733
100
DictionaryVariables
280
     0
  1
127
  0
DICTIONARYVAR
  5
73C
102
{ACAD_REACTORS
330
733
102
}
330
733
100
DictionaryVariables
280
     0
  1
2
  0
DICTIONARY
  5
779
330
706
100
AcDbDictionary
280
     1
281
     1
  3
ACAD_XREC_ROUNDTRIP
360
77A
  0
DICTIONARY
  5
77D
330
70E
100
AcDbDictionary
280
     1
281
     1
  3
ACAD_XREC_ROUNDTRIP
360
77E
  0
DICTIONARY
  5
77B
330
70A
100
AcDbDictionary
280
     1
281
     1
  3
ACAD_XREC_ROUNDTRIP
360
77C
  0
DICTIONARY
  5
6B6
330
6B5
100
AcDbDictionary
280
     1
281
     1
  3
ACAD_XREC_ROUNDTRIP
360
743
  3
BUMPTILE
360
6B8
  3
DIFFUSETILE
360
6B7
  3
OPACITYTILE
360
6BB
  3
REFLECTIONTILE
360
6BA
  3
REFRACTIONTILE
360
6BC
  3
SPECULARTILE
360
6B9
  0
DICTIONARY
  5
6AE
330
6AD
100
AcDbDictionary
280
     1
281
     1
  3
ACAD_XREC_ROUNDTRIP
360
742
  3
BUMPTILE
360
6B0
  3
DIFFUSETILE
360
6AF
  3
OPACITYTILE
360
6B3
  3
REFLECTIONTILE
360
6B2
  3
REFRACTIONTILE
360
6B4
  3
SPECULARTILE
360
6B1
  0
DICTIONARY
  5
6BE
330
6BD
100
AcDbDictionary
280
     1
281
     1
  3
ACAD_XREC_ROUNDTRIP
360
744
  3
BUMPTILE
360
6C0
  3
DIFFUSETILE
360
6BF
  3
OPACITYTILE
360
6C3
  3
REFLECTIONTILE
360
6C2
  3
REFRACTIONTILE
360
6C4
  3
SPECULARTILE
360
6C1
  0
DICTIONARY
  5
777
330
704
100
AcDbDictionary
280
     1
281
     1
  3
ACAD_XREC_ROUNDTRIP
360
778
  0
DICTIONARY
  5
73E
330
700
100
AcDbDictionary
280
     1
281
     1
  3
ACAD_ROUNDTRIP_2008_TABLESTYLE_CELLSTYLEMAP
360
73F
  3
ACAD_XREC_ROUNDTRIP
360
775
  0
DICTIONARY
  5
74F
330
6CB
100
AcDbDictionary
280
     1
281
     1
  3
ACAD_XREC_ROUNDTRIP
360
750
  0
DICTIONARY
  5
74D
330
6CA
100
AcDbDictionary
280
     1
281
     1
  3
ACAD_XREC_ROUNDTRIP
360
74E
  0
DICTIONARY
  5
75B
330
6D1
100
AcDbDictionary
280
     1
281
     1
  3
ACAD_XREC_ROUNDTRIP
360
75C
  0
DICTIONARY
  5
763
330
6D5
100
AcDbDictionary
280
     1
281
     1
  3
ACAD_XREC_ROUNDTRIP
360
764
  0
DICTIONARY
  5
755
330
6CE
100
AcDbDictionary
280
     1
281
     1
  3
ACAD_XREC_ROUNDTRIP
360
756
  0
DICTIONARY
  5
759
330
6D0
100
AcDbDictionary
280
     1
281
     1
  3
ACAD_XREC_ROUNDTRIP
360
75A
  0
DICTIONARY
  5
773
330
6DD
100
AcDbDictionary
280
     1
281
     1
  3
ACAD_XREC_ROUNDTRIP
360
774
  0
DICTIONARY
  5
761
330
6D4
100
AcDbDictionary
280
     1
281
     1
  3
ACAD_XREC_ROUNDTRIP
360
762
  0
DICTIONARY
  5
745
330
6C6
100
AcDbDictionary
280
     1
281
     1
  3
ACAD_XREC_ROUNDTRIP
360
746
  0
DICTIONARY
  5
747
330
6C7
100
AcDbDictionary
280
     1
281
     1
  3
ACAD_XREC_ROUNDTRIP
360
748
  0
DICTIONARY
  5
749
330
6C8
100
AcDbDictionary
280
     1
281
     1
  3
ACAD_XREC_ROUNDTRIP
360
74A
  0
DICTIONARY
  5
74B
330
6C9
100
AcDbDictionary
280
     1
281
     1
  3
ACAD_XREC_ROUNDTRIP
360
74C
  0
DICTIONARY
  5
753
330
6CD
100
AcDbDictionary
280
     1
281
     1
  3
ACAD_XREC_ROUNDTRIP
360
754
  0
DICTIONARY
  5
76F
330
6DB
100
AcDbDictionary
280
     1
281
     1
  3
ACAD_XREC_ROUNDTRIP
360
770
  0
DICTIONARY
  5
75F
330
6D3
100
AcDbDictionary
280
     1
281
     1
  3
ACAD_XREC_ROUNDTRIP
360
760
  0
DICTIONARY
  5
771
330
6DC
100
AcDbDictionary
280
     1
281
     1
  3
ACAD_XREC_ROUNDTRIP
360
772
  0
DICTIONARY
  5
757
330
6CF
100
AcDbDictionary
280
     1
281
     1
  3
ACAD_XREC_ROUNDTRIP
360
758
  0
DICTIONARY
  5
76D
330
6DA
100
AcDbDictionary
280
     1
281
     1
  3
ACAD_XREC_ROUNDTRIP
360
76E
  0
DICTIONARY
  5
76B
330
6D9
100
AcDbDictionary
280
     1
281
     1
  3
ACAD_XREC_ROUNDTRIP
360
76C
  0
DICTIONARY
  5
765
330
6D6
100
AcDbDictionary
280
     1
281
     1
  3
ACAD_XREC_ROUNDTRIP
360
766
  0
DICTIONARY
  5
767
330
6D7
100
AcDbDictionary
280
     1
281
     1
  3
ACAD_XREC_ROUNDTRIP
360
768
  0
DICTIONARY
  5
75D
330
6D2
100
AcDbDictionary
280
     1
281
     1
  3
ACAD_XREC_ROUNDTRIP
360
75E
  0
DICTIONARY
  5
751
330
6CC
100
AcDbDictionary
280
     1
281
     1
  3
ACAD_XREC_ROUNDTRIP
360
752
  0
DICTIONARY
  5
769
330
6D8
100
AcDbDictionary
280
     1
281
     1
  3
ACAD_XREC_ROUNDTRIP
360
76A
  0
XRECORD
  5
77A
102
{ACAD_REACTORS
330
779
102
}
330
779
100
AcDbXrecord
280
     1
102
DISPLAYNAME
  1
Imperial24
102
FLAGS
 90
        0
  0
XRECORD
  5
77E
102
{ACAD_REACTORS
330
77D
102
}
330
77D
100
AcDbXrecord
280
     1
102
SHADEPLOT
 70
     0
102
SHADEPLOTRESLEVEL
 70
     2
102
SHADEPLOTCUSTOMDPI
 70
   300
  0
XRECORD
  5
77C
102
{ACAD_REACTORS
330
77B
102
}
330
77B
100
AcDbXrecord
280
     1
102
SHADEPLOT
 70
     0
102
SHADEPLOTRESLEVEL
 70
     2
102
SHADEPLOTCUSTOMDPI
 70
   300
  0
XRECORD
  5
743
102
{ACAD_REACTORS
330
6B6
102
}
330
6B6
100
AcDbXrecord
280
     1
102
MATERIAL
148
0.0
149
0.0
149
0.0
 93
        0
 94
      127
282
     0
 72
     0
 77
     0
171
     0
175
     0
179
     0
273
     0
  0
XRECORD
  5
6B8
102
{ACAD_REACTORS
330
6B6
102
}
330
6B6
100
AcDbXrecord
280
     1
270
     1
271
     1
  0
XRECORD
  5
6B7
102
{ACAD_REACTORS
330
6B6
102
}
330
6B6
100
AcDbXrecord
280
     1
270
     1
271
     1
  0
XRECORD
  5
6BB
102
{ACAD_REACTORS
330
6B6
102
}
330
6B6
100
AcDbXrecord
280
     1
270
     1
271
     1
  0
XRECORD
  5
6BA
102
{ACAD_REACTORS
330
6B6
102
}
330
6B6
100
AcDbXrecord
280
     1
270
     1
271
     1
  0
XRECORD
  5
6BC
102
{ACAD_REACTORS
330
6B6
102
}
330
6B6
100
AcDbXrecord
280
     1
270
     1
271
     1
  0
XRECORD
  5
6B9
102
{ACAD_REACTORS
330
6B6
102
}
330
6B6
100
AcDbXrecord
280
     1
270
     1
271
     1
  0
XRECORD
  5
742
102
{ACAD_REACTORS
330
6AE
102
}
330
6AE
100
AcDbXrecord
280
     1
102
MATERIAL
148
0.0
149
0.0
149
0.0
 93
        0
 94
      127
282
     0
 72
     0
 77
     0
171
     0
175
     0
179
     0
273
     0
  0
XRECORD
  5
6B0
102
{ACAD_REACTORS
330
6AE
102
}
330
6AE
100
AcDbXrecord
280
     1
270
     1
271
     1
  0
XRECORD
  5
6AF
102
{ACAD_REACTORS
330
6AE
102
}
330
6AE
100
AcDbXrecord
280
     1
270
     1
271
     1
  0
XRECORD
  5
6B3
102
{ACAD_REACTORS
330
6AE
102
}
330
6AE
100
AcDbXrecord
280
     1
270
     1
271
     1
  0
XRECORD
  5
6B2
102
{ACAD_REACTORS
330
6AE
102
}
330
6AE
100
AcDbXrecord
280
     1
270
     1
271
     1
  0
XRECORD
  5
6B4
102
{ACAD_REACTORS
330
6AE
102
}
330
6AE
100
AcDbXrecord
280
     1
270
     1
271
     1
  0
XRECORD
  5
6B1
102
{ACAD_REACTORS
330
6AE
102
}
330
6AE
100
AcDbXrecord
280
     1
270
     1
271
     1
  0
XRECORD
  5
744
102
{ACAD_REACTORS
330
6BE
102
}
330
6BE
100
AcDbXrecord
280
     1
102
MATERIAL
148
0.0
149
0.0
149
0.0
 93
        0
 94
      127
282
     0
 72
     0
 77
     0
171
     0
175
     0
179
     0
273
     0
  0
XRECORD
  5
6C0
102
{ACAD_REACTORS
330
6BE
102
}
330
6BE
100
AcDbXrecord
280
     1
270
     1
271
     1
  0
XRECORD
  5
6BF
102
{ACAD_REACTORS
330
6BE
102
}
330
6BE
100
AcDbXrecord
280
     1
270
     1
271
     1
  0
XRECORD
  5
6C3
102
{ACAD_REACTORS
330
6BE
102
}
330
6BE
100
AcDbXrecord
280
     1
270
     1
271
     1
  0
XRECORD
  5
6C2
102
{ACAD_REACTORS
330
6BE
102
}
330
6BE
100
AcDbXrecord
280
     1
270
     1
271
     1
  0
XRECORD
  5
6C4
102
{ACAD_REACTORS
330
6BE
102
}
330
6BE
100
AcDbXrecord
280
     1
270
     1
271
     1
  0
XRECORD
  5
6C1
102
{ACAD_REACTORS
330
6BE
102
}
330
6BE
100
AcDbXrecord
280
     1
270
     1
271
     1
  0
XRECORD
  5
778
102
{ACAD_REACTORS
330
777
102
}
330
777
100
AcDbXrecord
280
     1
102
DISPLAYNAME
  1
Imperial24
102
FLAGS
 90
        0
  0
CELLSTYLEMAP
  5
73F
102
{ACAD_REACTORS
330
73E
102
}
330
73E
100
AcDbCellStyleMap
 90
        3
300
CELLSTYLE
  1
TABLEFORMAT_BEGIN
 90
        5
170
     1
 91
        0
 92
    32768
 62
   257
 93
        1
300
CONTENTFORMAT
  1
CONTENTFORMAT_BEGIN
 90
        0
 91
        0
 92
      512
 93
        0
300

 40
0.0
140
1.0
 94
        5
 62
     0
340
6F1
144
0.25
309
CONTENTFORMAT_END
171
     0
 94
        0
309
TABLEFORMAT_END
  1
CELLSTYLE_BEGIN
 90
        1
 91
        1
300
_TITLE
309
CELLSTYLE_END
300
CELLSTYLE
  1
TABLEFORMAT_BEGIN
 90
        5
170
     1
 91
        0
 92
        0
 62
   257
 93
        1
300
CONTENTFORMAT
  1
CONTENTFORMAT_BEGIN
 90
        0
 91
        0
 92
      512
 93
        0
300

 40
0.0
140
1.0
 94
        5
 62
     0
340
6F1
144
0.18
309
CONTENTFORMAT_END
171
     0
 94
        0
309
TABLEFORMAT_END
  1
CELLSTYLE_BEGIN
 90
        2
 91
        1
300
_HEADER
309
CELLSTYLE_END
300
CELLSTYLE
  1
TABLEFORMAT_BEGIN
 90
        5
170
     1
 91
        0
 92
        0
 62
   257
 93
        1
300
CONTENTFORMAT
  1
CONTENTFORMAT_BEGIN
 90
        0
 91
        0
 92
      512
 93
        0
300

 40
0.0
140
1.0
 94
        2
 62
     0
340
6F1
144
0.18
309
CONTENTFORMAT_END
171
     0
 94
        0
309
TABLEFORMAT_END
  1
CELLSTYLE_BEGIN
 90
        3
 91
        2
300
_DATA
309
CELLSTYLE_END
  0
XRECORD
  5
775
102
{ACAD_REACTORS
330
73E
102
}
330
73E
100
AcDbXrecord
280
     1
102
ACAD_ROUNDTRIP_PRE2007_TABLESTYLE
 90
      512
 91
        0
  1

 92
      512
 93
        0
  2

 94
      512
 95
        0
  3

  0
XRECORD
  5
750
102
{ACAD_REACTORS
330
74F
102
}
330
74F
100
AcDbXrecord
280
     1
102
RTVSPost2010Prop28
280
     1
102
RTVSPost2010PropOp28
 70
     1
102
RTVSPost2010Prop29
280
     1
102
RTVSPost2010PropOp29
 70
     1
102
RTVSPost2010Prop30
280
     0
102
RTVSPost2010PropOp30
 70
     1
102
RTVSPost2010Prop31
280
     0
102
RTVSPost2010PropOp31
 70
     1
102
RTVSPost2010Prop32
280
     0
102
RTVSPost2010PropOp32
 70
     1
102
RTVSPost2010Prop33
280
     0
102
RTVSPost2010PropOp33
 70
     1
102
RTVSPost2010Prop34
280
     0
102
RTVSPost2010PropOp34
 70
     1
102
RTVSPost2010Prop35
280
     0
102
RTVSPost2010PropOp35
 70
     1
102
RTVSPost2010Prop36
280
     0
102
RTVSPost2010PropOp36
 70
     1
102
RTVSPost2010Prop37
 90
       50
102
RTVSPost2010PropOp37
 70
     1
102
RTVSPost2010Prop38
140
0.0
102
RTVSPost2010PropOp38
 70
     1
102
RTVSPost2010Prop39
140
1.0
102
RTVSPost2010PropOp39
 70
     1
102
RTVSPost2010Prop40
 90
        0
102
RTVSPost2010PropOp40
 70
     1
102
RTVSPost2010Prop41ColorIndex
 90
       18
102
RTVSPost2010Prop41ColorRGB
 90
        0
102
RTVSPost2010PropOp41
 70
     1
102
RTVSPost2010Prop42
 90
       50
102
RTVSPost2010PropOp42
 70
     1
102
RTVSPost2010Prop43
 90
        3
102
RTVSPost2010PropOp43
 70
     1
102
RTVSPost2010Prop44ColorIndex
 90
        5
102
RTVSPost2010Prop44ColorRGB
 90
      255
102
RTVSPost2010PropOp44
 70
     1
102
RTVSPost2010Prop45
280
     0
102
RTVSPost2010PropOp45
 70
     1
102
RTVSPost2010Prop46
 90
       50
102
RTVSPost2010PropOp46
 70
     1
102
RTVSPost2010Prop47
 90
       50
102
RTVSPost2010PropOp47
 70
     1
102
RTVSPost2010Prop48
 90
       50
102
RTVSPost2010PropOp48
 70
     1
102
RTVSPost2010Prop49
280
     0
102
RTVSPost2010PropOp49
 70
     1
102
RTVSPost2010Prop50
 90
       50
102
RTVSPost2010PropOp50
 70
     1
102
RTVSPost2010Prop51ColorIndex
 90
      256
102
RTVSPost2010Prop51ColorRGB
 90
-16777216
102
RTVSPost2010PropOp51
 70
     0
102
RTVSPost2010Prop52
140
1.0
102
RTVSPost2010PropOp52
 70
     0
102
RTVSPost2010Prop53
 90
        2
102
RTVSPost2010PropOp53
 70
     1
102
RTVSPost2010Prop54
  1
strokes_ogs.tif
102
RTVSPost2010PropOp54
 70
     1
102
RTVSPost2010Prop55
280
     0
102
RTVSPost2010PropOp55
 70
     1
102
RTVSPost2010Prop56
140
1.0
102
RTVSPost2010PropOp56
 70
     1
102
RTVSPost2010Prop57
140
1.0
102
RTVSPost2010PropOp57
 70
     1
102
RTVSPropertyOp0
 70
     1
102
RTVSPropertyOp1
 70
     1
102
RTVSPropertyOp2
 70
     1
102
RTVSPropertyOp3
 70
     1
102
RTVSPropertyOp4
 70
     1
102
RTVSPropertyOp5
 70
     1
102
RTVSPropertyOp6
 70
     1
102
RTVSPropertyOp7
 70
     1
102
RTVSPropertyOp8
 70
     1
102
RTVSPropertyOp9
 70
     1
102
RTVSPropertyOp10
 70
     1
102
RTVSPropertyOp11
 70
     1
102
RTVSPropertyOp12
 70
     1
102
RTVSPropertyOp13
 70
     1
102
RTVSPropertyOp14
 70
     1
102
RTVSPropertyOp15
 70
     1
102
RTVSPropertyOp16
 70
     1
102
RTVSPropertyOp17
 70
     1
102
RTVSPropertyOp18
 70
     1
102
RTVSPropertyOp19
 70
     1
102
RTVSPropertyOp20
 70
     1
102
RTVSPropertyOp21
 70
     1
102
RTVSPropertyOp22
 70
     1
102
RTVSPropertyOp23
 70
     1
102
RTVSPropertyOp24
 70
     1
102
RTVSPropertyOp25
 70
     1
102
RTVSPropertyOp26
 70
     1
102
RTVSPropertyOp27
 70
     1
102
RTVSPropertyOp28
 70
     1
102
RTVSPropertyOp29
 70
     1
102
RTVSPropertyOp30
 70
     1
102
RTVSPropertyOp31
 70
     1
102
RTVSPropertyOp32
 70
     1
102
RTVSPropertyOp33
 70
     1
102
RTVSPropertyOp34
 70
     1
102
RTVSPropertyOp35
 70
     1
102
RTVSPropertyOp36
 70
     1
102
RTVSPropertyOp37
 70
     1
102
RTVSPropertyOp38
 70
     1
102
RTVSPropertyOp39
 70
     1
102
RTVSPropertyOp40
 70
     1
102
RTVSPropertyOp41
 70
     1
102
RTVSPropertyOp42
 70
     1
102
RTVSPropertyOp43
 70
     1
102
RTVSPropertyOp44
 70
     1
102
RTVSPropertyOp45
 70
     1
102
RTVSPropertyOp46
 70
     1
102
RTVSPropertyOp47
 70
     1
102
RTVSPropertyOp48
 70
     1
102
RTVSPropertyOp49
 70
     1
102
RTVSPropertyOp50
 70
     1
102
RTVSPropertyOp51
 70
     0
102
RTVSPropertyOp52
 70
     0
102
RTVSPropertyOp53
 70
     1
102
RTVSPropertyOp54
 70
     1
102
RTVSPropertyOp55
 70
     1
102
RTVSPropertyOp56
 70
     1
102
RTVSPropertyOp57
 70
     1
102
RTVSPropertyOp58
 70
     1
102
RTVSPropertyOp59
 70
     1
102
RTVSPropertyOp60
 70
     1
102
RTVSPropertyOp61
 70
     1
102
RTVSPropertyOp62
 70
     1
  0
XRECORD
  5
74E
102
{ACAD_REACTORS
330
74D
102
}
330
74D
100
AcDbXrecord
280
     1
102
RTVSPost2010Prop28
280
     0
102
RTVSPost2010PropOp28
 70
     1
102
RTVSPost2010Prop29
280
     1
102
RTVSPost2010PropOp29
 70
     1
102
RTVSPost2010Prop30
280
     1
102
RTVSPost2010PropOp30
 70
     1
102
RTVSPost2010Prop31
280
     0
102
RTVSPost2010PropOp31
 70
     1
102
RTVSPost2010Prop32
280
     0
102
RTVSPost2010PropOp32
 70
     1
102
RTVSPost2010Prop33
280
     0
102
RTVSPost2010PropOp33
 70
     1
102
RTVSPost2010Prop34
280
     0
102
RTVSPost2010PropOp34
 70
     1
102
RTVSPost2010Prop35
280
     0
102
RTVSPost2010PropOp35
 70
     1
102
RTVSPost2010Prop36
280
     0
102
RTVSPost2010PropOp36
 70
     1
102
RTVSPost2010Prop37
 90
       50
102
RTVSPost2010PropOp37
 70
     1
102
RTVSPost2010Prop38
140
0.0
102
RTVSPost2010PropOp38
 70
     1
102
RTVSPost2010Prop39
140
1.0
102
RTVSPost2010PropOp39
 70
     1
102
RTVSPost2010Prop40
 90
        0
102
RTVSPost2010PropOp40
 70
     1
102
RTVSPost2010Prop41ColorIndex
 90
       18
102
RTVSPost2010Prop41ColorRGB
 90
        0
102
RTVSPost2010PropOp41
 70
     1
102
RTVSPost2010Prop42
 90
       50
102
RTVSPost2010PropOp42
 70
     1
102
RTVSPost2010Prop43
 90
        3
102
RTVSPost2010PropOp43
 70
     1
102
RTVSPost2010Prop44ColorIndex
 90
        5
102
RTVSPost2010Prop44ColorRGB
 90
      255
102
RTVSPost2010PropOp44
 70
     1
102
RTVSPost2010Prop45
280
     0
102
RTVSPost2010PropOp45
 70
     1
102
RTVSPost2010Prop46
 90
       50
102
RTVSPost2010PropOp46
 70
     1
102
RTVSPost2010Prop47
 90
       50
102
RTVSPost2010PropOp47
 70
     1
102
RTVSPost2010Prop48
 90
       50
102
RTVSPost2010PropOp48
 70
     1
102
RTVSPost2010Prop49
280
     0
102
RTVSPost2010PropOp49
 70
     1
102
RTVSPost2010Prop50
 90
       50
102
RTVSPost2010PropOp50
 70
     1
102
RTVSPost2010Prop51ColorIndex
 90
      256
102
RTVSPost2010Prop51ColorRGB
 90
-16777216
102
RTVSPost2010PropOp51
 70
     0
102
RTVSPost2010Prop52
140
1.0
102
RTVSPost2010PropOp52
 70
     0
102
RTVSPost2010Prop53
 90
        2
102
RTVSPost2010PropOp53
 70
     1
102
RTVSPost2010Prop54
  1
strokes_ogs.tif
102
RTVSPost2010PropOp54
 70
     1
102
RTVSPost2010Prop55
280
     0
102
RTVSPost2010PropOp55
 70
     1
102
RTVSPost2010Prop56
140
1.0
102
RTVSPost2010PropOp56
 70
     1
102
RTVSPost2010Prop57
140
1.0
102
RTVSPost2010PropOp57
 70
     1
102
RTVSPropertyOp0
 70
     1
102
RTVSPropertyOp1
 70
     1
102
RTVSPropertyOp2
 70
     1
102
RTVSPropertyOp3
 70
     1
102
RTVSPropertyOp4
 70
     1
102
RTVSPropertyOp5
 70
     1
102
RTVSPropertyOp6
 70
     1
102
RTVSPropertyOp7
 70
     1
102
RTVSPropertyOp8
 70
     1
102
RTVSPropertyOp9
 70
     1
102
RTVSPropertyOp10
 70
     1
102
RTVSPropertyOp11
 70
     1
102
RTVSPropertyOp12
 70
     1
102
RTVSPropertyOp13
 70
     1
102
RTVSPropertyOp14
 70
     1
102
RTVSPropertyOp15
 70
     1
102
RTVSPropertyOp16
 70
     1
102
RTVSPropertyOp17
 70
     1
102
RTVSPropertyOp18
 70
     1
102
RTVSPropertyOp19
 70
     1
102
RTVSPropertyOp20
 70
     1
102
RTVSPropertyOp21
 70
     1
102
RTVSPropertyOp22
 70
     1
102
RTVSPropertyOp23
 70
     1
102
RTVSPropertyOp24
 70
     1
102
RTVSPropertyOp25
 70
     1
102
RTVSPropertyOp26
 70
     1
102
RTVSPropertyOp27
 70
     1
102
RTVSPropertyOp28
 70
     1
102
RTVSPropertyOp29
 70
     1
102
RTVSPropertyOp30
 70
     1
102
RTVSPropertyOp31
 70
     1
102
RTVSPropertyOp32
 70
     1
102
RTVSPropertyOp33
 70
     1
102
RTVSPropertyOp34
 70
     1
102
RTVSPropertyOp35
 70
     1
102
RTVSPropertyOp36
 70
     1
102
RTVSPropertyOp37
 70
     1
102
RTVSPropertyOp38
 70
     1
102
RTVSPropertyOp39
 70
     1
102
RTVSPropertyOp40
 70
     1
102
RTVSPropertyOp41
 70
     1
102
RTVSPropertyOp42
 70
     1
102
RTVSPropertyOp43
 70
     1
102
RTVSPropertyOp44
 70
     1
102
RTVSPropertyOp45
 70
     1
102
RTVSPropertyOp46
 70
     1
102
RTVSPropertyOp47
 70
     1
102
RTVSPropertyOp48
 70
     1
102
RTVSPropertyOp49
 70
     1
102
RTVSPropertyOp50
 70
     1
102
RTVSPropertyOp51
 70
     0
102
RTVSPropertyOp52
 70
     0
102
RTVSPropertyOp53
 70
     1
102
RTVSPropertyOp54
 70
     1
102
RTVSPropertyOp55
 70
     1
102
RTVSPropertyOp56
 70
     1
102
RTVSPropertyOp57
 70
     1
102
RTVSPropertyOp58
 70
     1
102
RTVSPropertyOp59
 70
     1
102
RTVSPropertyOp60
 70
     1
102
RTVSPropertyOp61
 70
     1
102
RTVSPropertyOp62
 70
     1
  0
XRECORD
  5
75C
102
{ACAD_REACTORS
330
75B
102
}
330
75B
100
AcDbXrecord
280
     1
102
RTVSPost2010Prop28
280
     0
102
RTVSPost2010PropOp28
 70
     1
102
RTVSPost2010Prop29
280
     1
102
RTVSPost2010PropOp29
 70
     1
102
RTVSPost2010Prop30
280
     1
102
RTVSPost2010PropOp30
 70
     1
102
RTVSPost2010Prop31
280
     0
102
RTVSPost2010PropOp31
 70
     1
102
RTVSPost2010Prop32
280
     0
102
RTVSPost2010PropOp32
 70
     1
102
RTVSPost2010Prop33
280
     0
102
RTVSPost2010PropOp33
 70
     1
102
RTVSPost2010Prop34
280
     0
102
RTVSPost2010PropOp34
 70
     1
102
RTVSPost2010Prop35
280
     0
102
RTVSPost2010PropOp35
 70
     1
102
RTVSPost2010Prop36
280
     0
102
RTVSPost2010PropOp36
 70
     1
102
RTVSPost2010Prop37
 90
       50
102
RTVSPost2010PropOp37
 70
     1
102
RTVSPost2010Prop38
140
0.0
102
RTVSPost2010PropOp38
 70
     1
102
RTVSPost2010Prop39
140
1.0
102
RTVSPost2010PropOp39
 70
     1
102
RTVSPost2010Prop40
 90
        0
102
RTVSPost2010PropOp40
 70
     1
102
RTVSPost2010Prop41ColorIndex
 90
       18
102
RTVSPost2010Prop41ColorRGB
 90
        0
102
RTVSPost2010PropOp41
 70
     1
102
RTVSPost2010Prop42
 90
       50
102
RTVSPost2010PropOp42
 70
     1
102
RTVSPost2010Prop43
 90
        3
102
RTVSPost2010PropOp43
 70
     1
102
RTVSPost2010Prop44ColorIndex
 90
        5
102
RTVSPost2010Prop44ColorRGB
 90
      255
102
RTVSPost2010PropOp44
 70
     1
102
RTVSPost2010Prop45
280
     0
102
RTVSPost2010PropOp45
 70
     1
102
RTVSPost2010Prop46
 90
       50
102
RTVSPost2010PropOp46
 70
     1
102
RTVSPost2010Prop47
 90
       50
102
RTVSPost2010PropOp47
 70
     1
102
RTVSPost2010Prop48
 90
       50
102
RTVSPost2010PropOp48
 70
     1
102
RTVSPost2010Prop49
280
     0
102
RTVSPost2010PropOp49
 70
     1
102
RTVSPost2010Prop50
 90
       50
102
RTVSPost2010PropOp50
 70
     1
102
RTVSPost2010Prop51ColorIndex
 90
      256
102
RTVSPost2010Prop51ColorRGB
 90
-16777216
102
RTVSPost2010PropOp51
 70
     0
102
RTVSPost2010Prop52
140
1.0
102
RTVSPost2010PropOp52
 70
     0
102
RTVSPost2010Prop53
 90
        2
102
RTVSPost2010PropOp53
 70
     1
102
RTVSPost2010Prop54
  1
strokes_ogs.tif
102
RTVSPost2010PropOp54
 70
     1
102
RTVSPost2010Prop55
280
     0
102
RTVSPost2010PropOp55
 70
     1
102
RTVSPost2010Prop56
140
1.0
102
RTVSPost2010PropOp56
 70
     1
102
RTVSPost2010Prop57
140
1.0
102
RTVSPost2010PropOp57
 70
     1
102
RTVSPropertyOp0
 70
     1
102
RTVSPropertyOp1
 70
     1
102
RTVSPropertyOp2
 70
     1
102
RTVSPropertyOp3
 70
     1
102
RTVSPropertyOp4
 70
     1
102
RTVSPropertyOp5
 70
     1
102
RTVSPropertyOp6
 70
     1
102
RTVSPropertyOp7
 70
     1
102
RTVSPropertyOp8
 70
     1
102
RTVSPropertyOp9
 70
     1
102
RTVSPropertyOp10
 70
     1
102
RTVSPropertyOp11
 70
     1
102
RTVSPropertyOp12
 70
     1
102
RTVSPropertyOp13
 70
     1
102
RTVSPropertyOp14
 70
     1
102
RTVSPropertyOp15
 70
     1
102
RTVSPropertyOp16
 70
     1
102
RTVSPropertyOp17
 70
     1
102
RTVSPropertyOp18
 70
     1
102
RTVSPropertyOp19
 70
     1
102
RTVSPropertyOp20
 70
     1
102
RTVSPropertyOp21
 70
     1
102
RTVSPropertyOp22
 70
     1
102
RTVSPropertyOp23
 70
     1
102
RTVSPropertyOp24
 70
     1
102
RTVSPropertyOp25
 70
     1
102
RTVSPropertyOp26
 70
     1
102
RTVSPropertyOp27
 70
     1
102
RTVSPropertyOp28
 70
     1
102
RTVSPropertyOp29
 70
     1
102
RTVSPropertyOp30
 70
     1
102
RTVSPropertyOp31
 70
     1
102
RTVSPropertyOp32
 70
     1
102
RTVSPropertyOp33
 70
     1
102
RTVSPropertyOp34
 70
     1
102
RTVSPropertyOp35
 70
     1
102
RTVSPropertyOp36
 70
     1
102
RTVSPropertyOp37
 70
     1
102
RTVSPropertyOp38
 70
     1
102
RTVSPropertyOp39
 70
     1
102
RTVSPropertyOp40
 70
     1
102
RTVSPropertyOp41
 70
     1
102
RTVSPropertyOp42
 70
     1
102
RTVSPropertyOp43
 70
     1
102
RTVSPropertyOp44
 70
     1
102
RTVSPropertyOp45
 70
     1
102
RTVSPropertyOp46
 70
     1
102
RTVSPropertyOp47
 70
     1
102
RTVSPropertyOp48
 70
     1
102
RTVSPropertyOp49
 70
     1
102
RTVSPropertyOp50
 70
     1
102
RTVSPropertyOp51
 70
     0
102
RTVSPropertyOp52
 70
     0
102
RTVSPropertyOp53
 70
     1
102
RTVSPropertyOp54
 70
     1
102
RTVSPropertyOp55
 70
     1
102
RTVSPropertyOp56
 70
     1
102
RTVSPropertyOp57
 70
     1
102
RTVSPropertyOp58
 70
     1
102
RTVSPropertyOp59
 70
     1
102
RTVSPropertyOp60
 70
     1
102
RTVSPropertyOp61
 70
     1
102
RTVSPropertyOp62
 70
     1
  0
XRECORD
  5
764
102
{ACAD_REACTORS
330
763
102
}
330
763
100
AcDbXrecord
280
     1
102
RTVSPost2010Prop28
280
     0
102
RTVSPost2010PropOp28
 70
     1
102
RTVSPost2010Prop29
280
     1
102
RTVSPost2010PropOp29
 70
     1
102
RTVSPost2010Prop30
280
     1
102
RTVSPost2010PropOp30
 70
     1
102
RTVSPost2010Prop31
280
     0
102
RTVSPost2010PropOp31
 70
     1
102
RTVSPost2010Prop32
280
     0
102
RTVSPost2010PropOp32
 70
     1
102
RTVSPost2010Prop33
280
     0
102
RTVSPost2010PropOp33
 70
     1
102
RTVSPost2010Prop34
280
     0
102
RTVSPost2010PropOp34
 70
     1
102
RTVSPost2010Prop35
280
     0
102
RTVSPost2010PropOp35
 70
     1
102
RTVSPost2010Prop36
280
     0
102
RTVSPost2010PropOp36
 70
     1
102
RTVSPost2010Prop37
 90
       50
102
RTVSPost2010PropOp37
 70
     1
102
RTVSPost2010Prop38
140
0.0
102
RTVSPost2010PropOp38
 70
     1
102
RTVSPost2010Prop39
140
1.0
102
RTVSPost2010PropOp39
 70
     1
102
RTVSPost2010Prop40
 90
        0
102
RTVSPost2010PropOp40
 70
     1
102
RTVSPost2010Prop41ColorIndex
 90
       18
102
RTVSPost2010Prop41ColorRGB
 90
        0
102
RTVSPost2010PropOp41
 70
     1
102
RTVSPost2010Prop42
 90
       50
102
RTVSPost2010PropOp42
 70
     1
102
RTVSPost2010Prop43
 90
        3
102
RTVSPost2010PropOp43
 70
     1
102
RTVSPost2010Prop44ColorIndex
 90
        5
102
RTVSPost2010Prop44ColorRGB
 90
      255
102
RTVSPost2010PropOp44
 70
     1
102
RTVSPost2010Prop45
280
     0
102
RTVSPost2010PropOp45
 70
     1
102
RTVSPost2010Prop46
 90
       50
102
RTVSPost2010PropOp46
 70
     1
102
RTVSPost2010Prop47
 90
       50
102
RTVSPost2010PropOp47
 70
     1
102
RTVSPost2010Prop48
 90
       50
102
RTVSPost2010PropOp48
 70
     1
102
RTVSPost2010Prop49
280
     0
102
RTVSPost2010PropOp49
 70
     1
102
RTVSPost2010Prop50
 90
       50
102
RTVSPost2010PropOp50
 70
     1
102
RTVSPost2010Prop51ColorIndex
 90
      256
102
RTVSPost2010Prop51ColorRGB
 90
-16777216
102
RTVSPost2010PropOp51
 70
     0
102
RTVSPost2010Prop52
140
1.0
102
RTVSPost2010PropOp52
 70
     0
102
RTVSPost2010Prop53
 90
        2
102
RTVSPost2010PropOp53
 70
     1
102
RTVSPost2010Prop54
  1
strokes_ogs.tif
102
RTVSPost2010PropOp54
 70
     1
102
RTVSPost2010Prop55
280
     0
102
RTVSPost2010PropOp55
 70
     1
102
RTVSPost2010Prop56
140
1.0
102
RTVSPost2010PropOp56
 70
     1
102
RTVSPost2010Prop57
140
1.0
102
RTVSPost2010PropOp57
 70
     1
102
RTVSPropertyOp0
 70
     1
102
RTVSPropertyOp1
 70
     1
102
RTVSPropertyOp2
 70
     1
102
RTVSPropertyOp3
 70
     1
102
RTVSPropertyOp4
 70
     1
102
RTVSPropertyOp5
 70
     1
102
RTVSPropertyOp6
 70
     1
102
RTVSPropertyOp7
 70
     1
102
RTVSPropertyOp8
 70
     1
102
RTVSPropertyOp9
 70
     1
102
RTVSPropertyOp10
 70
     1
102
RTVSPropertyOp11
 70
     1
102
RTVSPropertyOp12
 70
     1
102
RTVSPropertyOp13
 70
     1
102
RTVSPropertyOp14
 70
     1
102
RTVSPropertyOp15
 70
     1
102
RTVSPropertyOp16
 70
     1
102
RTVSPropertyOp17
 70
     1
102
RTVSPropertyOp18
 70
     1
102
RTVSPropertyOp19
 70
     1
102
RTVSPropertyOp20
 70
     1
102
RTVSPropertyOp21
 70
     1
102
RTVSPropertyOp22
 70
     1
102
RTVSPropertyOp23
 70
     1
102
RTVSPropertyOp24
 70
     1
102
RTVSPropertyOp25
 70
     1
102
RTVSPropertyOp26
 70
     1
102
RTVSPropertyOp27
 70
     1
102
RTVSPropertyOp28
 70
     1
102
RTVSPropertyOp29
 70
     1
102
RTVSPropertyOp30
 70
     1
102
RTVSPropertyOp31
 70
     1
102
RTVSPropertyOp32
 70
     1
102
RTVSPropertyOp33
 70
     1
102
RTVSPropertyOp34
 70
     1
102
RTVSPropertyOp35
 70
     1
102
RTVSPropertyOp36
 70
     1
102
RTVSPropertyOp37
 70
     1
102
RTVSPropertyOp38
 70
     1
102
RTVSPropertyOp39
 70
     1
102
RTVSPropertyOp40
 70
     1
102
RTVSPropertyOp41
 70
     1
102
RTVSPropertyOp42
 70
     1
102
RTVSPropertyOp43
 70
     1
102
RTVSPropertyOp44
 70
     1
102
RTVSPropertyOp45
 70
     1
102
RTVSPropertyOp46
 70
     1
102
RTVSPropertyOp47
 70
     1
102
RTVSPropertyOp48
 70
     1
102
RTVSPropertyOp49
 70
     1
102
RTVSPropertyOp50
 70
     1
102
RTVSPropertyOp51
 70
     0
102
RTVSPropertyOp52
 70
     0
102
RTVSPropertyOp53
 70
     1
102
RTVSPropertyOp54
 70
     1
102
RTVSPropertyOp55
 70
     1
102
RTVSPropertyOp56
 70
     1
102
RTVSPropertyOp57
 70
     1
102
RTVSPropertyOp58
 70
     1
102
RTVSPropertyOp59
 70
     1
102
RTVSPropertyOp60
 70
     1
102
RTVSPropertyOp61
 70
     1
102
RTVSPropertyOp62
 70
     1
  0
XRECORD
  5
756
102
{ACAD_REACTORS
330
755
102
}
330
755
100
AcDbXrecord
280
     1
102
RTVSPost2010Prop28
280
     0
102
RTVSPost2010PropOp28
 70
     1
102
RTVSPost2010Prop29
280
     1
102
RTVSPost2010PropOp29
 70
     1
102
RTVSPost2010Prop30
280
     1
102
RTVSPost2010PropOp30
 70
     1
102
RTVSPost2010Prop31
280
     0
102
RTVSPost2010PropOp31
 70
     1
102
RTVSPost2010Prop32
280
     0
102
RTVSPost2010PropOp32
 70
     1
102
RTVSPost2010Prop33
280
     0
102
RTVSPost2010PropOp33
 70
     1
102
RTVSPost2010Prop34
280
     0
102
RTVSPost2010PropOp34
 70
     1
102
RTVSPost2010Prop35
280
     0
102
RTVSPost2010PropOp35
 70
     1
102
RTVSPost2010Prop36
280
     0
102
RTVSPost2010PropOp36
 70
     1
102
RTVSPost2010Prop37
 90
       50
102
RTVSPost2010PropOp37
 70
     1
102
RTVSPost2010Prop38
140
0.0
102
RTVSPost2010PropOp38
 70
     1
102
RTVSPost2010Prop39
140
1.0
102
RTVSPost2010PropOp39
 70
     1
102
RTVSPost2010Prop40
 90
        0
102
RTVSPost2010PropOp40
 70
     1
102
RTVSPost2010Prop41ColorIndex
 90
       18
102
RTVSPost2010Prop41ColorRGB
 90
        0
102
RTVSPost2010PropOp41
 70
     1
102
RTVSPost2010Prop42
 90
       50
102
RTVSPost2010PropOp42
 70
     1
102
RTVSPost2010Prop43
 90
        3
102
RTVSPost2010PropOp43
 70
     1
102
RTVSPost2010Prop44ColorIndex
 90
        5
102
RTVSPost2010Prop44ColorRGB
 90
      255
102
RTVSPost2010PropOp44
 70
     1
102
RTVSPost2010Prop45
280
     0
102
RTVSPost2010PropOp45
 70
     1
102
RTVSPost2010Prop46
 90
       50
102
RTVSPost2010PropOp46
 70
     1
102
RTVSPost2010Prop47
 90
       50
102
RTVSPost2010PropOp47
 70
     1
102
RTVSPost2010Prop48
 90
       50
102
RTVSPost2010PropOp48
 70
     1
102
RTVSPost2010Prop49
280
     0
102
RTVSPost2010PropOp49
 70
     1
102
RTVSPost2010Prop50
 90
       50
102
RTVSPost2010PropOp50
 70
     1
102
RTVSPost2010Prop51ColorIndex
 90
      256
102
RTVSPost2010Prop51ColorRGB
 90
-16777216
102
RTVSPost2010PropOp51
 70
     0
102
RTVSPost2010Prop52
140
1.0
102
RTVSPost2010PropOp52
 70
     0
102
RTVSPost2010Prop53
 90
        2
102
RTVSPost2010PropOp53
 70
     1
102
RTVSPost2010Prop54
  1
strokes_ogs.tif
102
RTVSPost2010PropOp54
 70
     1
102
RTVSPost2010Prop55
280
     0
102
RTVSPost2010PropOp55
 70
     1
102
RTVSPost2010Prop56
140
1.0
102
RTVSPost2010PropOp56
 70
     1
102
RTVSPost2010Prop57
140
1.0
102
RTVSPost2010PropOp57
 70
     1
102
RTVSPropertyOp0
 70
     1
102
RTVSPropertyOp1
 70
     1
102
RTVSPropertyOp2
 70
     1
102
RTVSPropertyOp3
 70
     1
102
RTVSPropertyOp4
 70
     1
102
RTVSPropertyOp5
 70
     1
102
RTVSPropertyOp6
 70
     1
102
RTVSPropertyOp7
 70
     1
102
RTVSPropertyOp8
 70
     1
102
RTVSPropertyOp9
 70
     1
102
RTVSPropertyOp10
 70
     1
102
RTVSPropertyOp11
 70
     1
102
RTVSPropertyOp12
 70
     1
102
RTVSPropertyOp13
 70
     1
102
RTVSPropertyOp14
 70
     1
102
RTVSPropertyOp15
 70
     1
102
RTVSPropertyOp16
 70
     1
102
RTVSPropertyOp17
 70
     1
102
RTVSPropertyOp18
 70
     1
102
RTVSPropertyOp19
 70
     1
102
RTVSPropertyOp20
 70
     1
102
RTVSPropertyOp21
 70
     1
102
RTVSPropertyOp22
 70
     1
102
RTVSPropertyOp23
 70
     1
102
RTVSPropertyOp24
 70
     1
102
RTVSPropertyOp25
 70
     1
102
RTVSPropertyOp26
 70
     1
102
RTVSPropertyOp27
 70
     1
102
RTVSPropertyOp28
 70
     1
102
RTVSPropertyOp29
 70
     1
102
RTVSPropertyOp30
 70
     1
102
RTVSPropertyOp31
 70
     1
102
RTVSPropertyOp32
 70
     1
102
RTVSPropertyOp33
 70
     1
102
RTVSPropertyOp34
 70
     1
102
RTVSPropertyOp35
 70
     1
102
RTVSPropertyOp36
 70
     1
102
RTVSPropertyOp37
 70
     1
102
RTVSPropertyOp38
 70
     1
102
RTVSPropertyOp39
 70
     1
102
RTVSPropertyOp40
 70
     1
102
RTVSPropertyOp41
 70
     1
102
RTVSPropertyOp42
 70
     1
102
RTVSPropertyOp43
 70
     1
102
RTVSPropertyOp44
 70
     1
102
RTVSPropertyOp45
 70
     1
102
RTVSPropertyOp46
 70
     1
102
RTVSPropertyOp47
 70
     1
102
RTVSPropertyOp48
 70
     1
102
RTVSPropertyOp49
 70
     1
102
RTVSPropertyOp50
 70
     1
102
RTVSPropertyOp51
 70
     0
102
RTVSPropertyOp52
 70
     0
102
RTVSPropertyOp53
 70
     1
102
RTVSPropertyOp54
 70
     1
102
RTVSPropertyOp55
 70
     1
102
RTVSPropertyOp56
 70
     1
102
RTVSPropertyOp57
 70
     1
102
RTVSPropertyOp58
 70
     1
102
RTVSPropertyOp59
 70
     1
102
RTVSPropertyOp60
 70
     1
102
RTVSPropertyOp61
 70
     1
102
RTVSPropertyOp62
 70
     1
  0
XRECORD
  5
75A
102
{ACAD_REACTORS
330
759
102
}
330
759
100
AcDbXrecord
280
     1
102
RTVSPost2010Prop28
280
     0
102
RTVSPost2010PropOp28
 70
     1
102
RTVSPost2010Prop29
280
     1
102
RTVSPost2010PropOp29
 70
     1
102
RTVSPost2010Prop30
280
     1
102
RTVSPost2010PropOp30
 70
     1
102
RTVSPost2010Prop31
280
     0
102
RTVSPost2010PropOp31
 70
     1
102
RTVSPost2010Prop32
280
     0
102
RTVSPost2010PropOp32
 70
     1
102
RTVSPost2010Prop33
280
     0
102
RTVSPost2010PropOp33
 70
     1
102
RTVSPost2010Prop34
280
     0
102
RTVSPost2010PropOp34
 70
     1
102
RTVSPost2010Prop35
280
     0
102
RTVSPost2010PropOp35
 70
     1
102
RTVSPost2010Prop36
280
     0
102
RTVSPost2010PropOp36
 70
     1
102
RTVSPost2010Prop37
 90
       50
102
RTVSPost2010PropOp37
 70
     1
102
RTVSPost2010Prop38
140
0.0
102
RTVSPost2010PropOp38
 70
     1
102
RTVSPost2010Prop39
140
1.0
102
RTVSPost2010PropOp39
 70
     1
102
RTVSPost2010Prop40
 90
        0
102
RTVSPost2010PropOp40
 70
     1
102
RTVSPost2010Prop41ColorIndex
 90
       18
102
RTVSPost2010Prop41ColorRGB
 90
        0
102
RTVSPost2010PropOp41
 70
     1
102
RTVSPost2010Prop42
 90
       50
102
RTVSPost2010PropOp42
 70
     1
102
RTVSPost2010Prop43
 90
        3
102
RTVSPost2010PropOp43
 70
     1
102
RTVSPost2010Prop44ColorIndex
 90
        5
102
RTVSPost2010Prop44ColorRGB
 90
      255
102
RTVSPost2010PropOp44
 70
     1
102
RTVSPost2010Prop45
280
     0
102
RTVSPost2010PropOp45
 70
     1
102
RTVSPost2010Prop46
 90
       50
102
RTVSPost2010PropOp46
 70
     1
102
RTVSPost2010Prop47
 90
       50
102
RTVSPost2010PropOp47
 70
     1
102
RTVSPost2010Prop48
 90
       50
102
RTVSPost2010PropOp48
 70
     1
102
RTVSPost2010Prop49
280
     0
102
RTVSPost2010PropOp49
 70
     1
102
RTVSPost2010Prop50
 90
       50
102
RTVSPost2010PropOp50
 70
     1
102
RTVSPost2010Prop51ColorIndex
 90
      256
102
RTVSPost2010Prop51ColorRGB
 90
-16777216
102
RTVSPost2010PropOp51
 70
     0
102
RTVSPost2010Prop52
140
1.0
102
RTVSPost2010PropOp52
 70
     0
102
RTVSPost2010Prop53
 90
        2
102
RTVSPost2010PropOp53
 70
     1
102
RTVSPost2010Prop54
  1
strokes_ogs.tif
102
RTVSPost2010PropOp54
 70
     1
102
RTVSPost2010Prop55
280
     0
102
RTVSPost2010PropOp55
 70
     1
102
RTVSPost2010Prop56
140
1.0
102
RTVSPost2010PropOp56
 70
     1
102
RTVSPost2010Prop57
140
1.0
102
RTVSPost2010PropOp57
 70
     1
102
RTVSPropertyOp0
 70
     1
102
RTVSPropertyOp1
 70
     1
102
RTVSPropertyOp2
 70
     1
102
RTVSPropertyOp3
 70
     1
102
RTVSPropertyOp4
 70
     1
102
RTVSPropertyOp5
 70
     1
102
RTVSPropertyOp6
 70
     1
102
RTVSPropertyOp7
 70
     1
102
RTVSPropertyOp8
 70
     1
102
RTVSPropertyOp9
 70
     1
102
RTVSPropertyOp10
 70
     1
102
RTVSPropertyOp11
 70
     1
102
RTVSPropertyOp12
 70
     1
102
RTVSPropertyOp13
 70
     1
102
RTVSPropertyOp14
 70
     1
102
RTVSPropertyOp15
 70
     1
102
RTVSPropertyOp16
 70
     1
102
RTVSPropertyOp17
 70
     1
102
RTVSPropertyOp18
 70
     1
102
RTVSPropertyOp19
 70
     1
102
RTVSPropertyOp20
 70
     1
102
RTVSPropertyOp21
 70
     1
102
RTVSPropertyOp22
 70
     1
102
RTVSPropertyOp23
 70
     1
102
RTVSPropertyOp24
 70
     1
102
RTVSPropertyOp25
 70
     1
102
RTVSPropertyOp26
 70
     1
102
RTVSPropertyOp27
 70
     1
102
RTVSPropertyOp28
 70
     1
102
RTVSPropertyOp29
 70
     1
102
RTVSPropertyOp30
 70
     1
102
RTVSPropertyOp31
 70
     1
102
RTVSPropertyOp32
 70
     1
102
RTVSPropertyOp33
 70
     1
102
RTVSPropertyOp34
 70
     1
102
RTVSPropertyOp35
 70
     1
102
RTVSPropertyOp36
 70
     1
102
RTVSPropertyOp37
 70
     1
102
RTVSPropertyOp38
 70
     1
102
RTVSPropertyOp39
 70
     1
102
RTVSPropertyOp40
 70
     1
102
RTVSPropertyOp41
 70
     1
102
RTVSPropertyOp42
 70
     1
102
RTVSPropertyOp43
 70
     1
102
RTVSPropertyOp44
 70
     1
102
RTVSPropertyOp45
 70
     1
102
RTVSPropertyOp46
 70
     1
102
RTVSPropertyOp47
 70
     1
102
RTVSPropertyOp48
 70
     1
102
RTVSPropertyOp49
 70
     1
102
RTVSPropertyOp50
 70
     1
102
RTVSPropertyOp51
 70
     0
102
RTVSPropertyOp52
 70
     0
102
RTVSPropertyOp53
 70
     1
102
RTVSPropertyOp54
 70
     1
102
RTVSPropertyOp55
 70
     1
102
RTVSPropertyOp56
 70
     1
102
RTVSPropertyOp57
 70
     1
102
RTVSPropertyOp58
 70
     1
102
RTVSPropertyOp59
 70
     1
102
RTVSPropertyOp60
 70
     1
102
RTVSPropertyOp61
 70
     1
102
RTVSPropertyOp62
 70
     1
  0
XRECORD
  5
774
102
{ACAD_REACTORS
330
773
102
}
330
773
100
AcDbXrecord
280
     1
102
RTVSPost2010Prop28
280
     0
102
RTVSPost2010PropOp28
 70
     1
102
RTVSPost2010Prop29
280
     1
102
RTVSPost2010PropOp29
 70
     1
102
RTVSPost2010Prop30
280
     1
102
RTVSPost2010PropOp30
 70
     1
102
RTVSPost2010Prop31
280
     0
102
RTVSPost2010PropOp31
 70
     1
102
RTVSPost2010Prop32
280
     0
102
RTVSPost2010PropOp32
 70
     1
102
RTVSPost2010Prop33
280
     0
102
RTVSPost2010PropOp33
 70
     1
102
RTVSPost2010Prop34
280
     0
102
RTVSPost2010PropOp34
 70
     1
102
RTVSPost2010Prop35
280
     0
102
RTVSPost2010PropOp35
 70
     1
102
RTVSPost2010Prop36
280
     0
102
RTVSPost2010PropOp36
 70
     1
102
RTVSPost2010Prop37
 90
       50
102
RTVSPost2010PropOp37
 70
     0
102
RTVSPost2010Prop38
140
0.0
102
RTVSPost2010PropOp38
 70
     0
102
RTVSPost2010Prop39
140
1.0
102
RTVSPost2010PropOp39
 70
     0
102
RTVSPost2010Prop40
 90
        0
102
RTVSPost2010PropOp40
 70
     0
102
RTVSPost2010Prop41ColorIndex
 90
       18
102
RTVSPost2010Prop41ColorRGB
 90
        0
102
RTVSPost2010PropOp41
 70
     0
102
RTVSPost2010Prop42
 90
       50
102
RTVSPost2010PropOp42
 70
     0
102
RTVSPost2010Prop43
 90
        3
102
RTVSPost2010PropOp43
 70
     0
102
RTVSPost2010Prop44ColorIndex
 90
        5
102
RTVSPost2010Prop44ColorRGB
 90
      255
102
RTVSPost2010PropOp44
 70
     0
102
RTVSPost2010Prop45
280
     0
102
RTVSPost2010PropOp45
 70
     1
102
RTVSPost2010Prop46
 90
       50
102
RTVSPost2010PropOp46
 70
     0
102
RTVSPost2010Prop47
 90
       50
102
RTVSPost2010PropOp47
 70
     0
102
RTVSPost2010Prop48
 90
       50
102
RTVSPost2010PropOp48
 70
     0
102
RTVSPost2010Prop49
280
     0
102
RTVSPost2010PropOp49
 70
     1
102
RTVSPost2010Prop50
 90
       50
102
RTVSPost2010PropOp50
 70
     0
102
RTVSPost2010Prop51ColorIndex
 90
      256
102
RTVSPost2010Prop51ColorRGB
 90
-16777216
102
RTVSPost2010PropOp51
 70
     0
102
RTVSPost2010Prop52
140
1.0
102
RTVSPost2010PropOp52
 70
     0
102
RTVSPost2010Prop53
 90
        2
102
RTVSPost2010PropOp53
 70
     0
102
RTVSPost2010Prop54
  1
strokes_ogs.tif
102
RTVSPost2010PropOp54
 70
     0
102
RTVSPost2010Prop55
280
     0
102
RTVSPost2010PropOp55
 70
     1
102
RTVSPost2010Prop56
140
1.0
102
RTVSPost2010PropOp56
 70
     0
102
RTVSPost2010Prop57
140
1.0
102
RTVSPost2010PropOp57
 70
     0
102
RTVSPropertyOp0
 70
     0
102
RTVSPropertyOp1
 70
     0
102
RTVSPropertyOp2
 70
     0
102
RTVSPropertyOp3
 70
     0
102
RTVSPropertyOp4
 70
     0
102
RTVSPropertyOp5
 70
     0
102
RTVSPropertyOp6
 70
     0
102
RTVSPropertyOp7
 70
     0
102
RTVSPropertyOp8
 70
     0
102
RTVSPropertyOp9
 70
     0
102
RTVSPropertyOp10
 70
     0
102
RTVSPropertyOp11
 70
     0
102
RTVSPropertyOp12
 70
     0
102
RTVSPropertyOp13
 70
     0
102
RTVSPropertyOp14
 70
     2
102
RTVSPropertyOp15
 70
     0
102
RTVSPropertyOp16
 70
     0
102
RTVSPropertyOp17
 70
     0
102
RTVSPropertyOp18
 70
     0
102
RTVSPropertyOp19
 70
     0
102
RTVSPropertyOp20
 70
     0
102
RTVSPropertyOp21
 70
     0
102
RTVSPropertyOp22
 70
     0
102
RTVSPropertyOp23
 70
     0
102
RTVSPropertyOp24
 70
     0
102
RTVSPropertyOp25
 70
     0
102
RTVSPropertyOp26
 70
     0
102
RTVSPropertyOp27
 70
     0
102
RTVSPropertyOp28
 70
     1
102
RTVSPropertyOp29
 70
     1
102
RTVSPropertyOp30
 70
     1
102
RTVSPropertyOp31
 70
     1
102
RTVSPropertyOp32
 70
     1
102
RTVSPropertyOp33
 70
     1
102
RTVSPropertyOp34
 70
     1
102
RTVSPropertyOp35
 70
     1
102
RTVSPropertyOp36
 70
     1
102
RTVSPropertyOp37
 70
     0
102
RTVSPropertyOp38
 70
     0
102
RTVSPropertyOp39
 70
     0
102
RTVSPropertyOp40
 70
     0
102
RTVSPropertyOp41
 70
     0
102
RTVSPropertyOp42
 70
     0
102
RTVSPropertyOp43
 70
     0
102
RTVSPropertyOp44
 70
     0
102
RTVSPropertyOp45
 70
     1
102
RTVSPropertyOp46
 70
     0
102
RTVSPropertyOp47
 70
     0
102
RTVSPropertyOp48
 70
     0
102
RTVSPropertyOp49
 70
     1
102
RTVSPropertyOp50
 70
     0
102
RTVSPropertyOp51
 70
     0
102
RTVSPropertyOp52
 70
     0
102
RTVSPropertyOp53
 70
     0
102
RTVSPropertyOp54
 70
     0
102
RTVSPropertyOp55
 70
     1
102
RTVSPropertyOp56
 70
     0
102
RTVSPropertyOp57
 70
     0
102
RTVSPropertyOp58
 70
     0
102
RTVSPropertyOp59
 70
     0
102
RTVSPropertyOp60
 70
     0
102
RTVSPropertyOp61
 70
     0
102
RTVSPropertyOp62
 70
     0
  0
XRECORD
  5
762
102
{ACAD_REACTORS
330
761
102
}
330
761
100
AcDbXrecord
280
     1
102
RTVSPost2010Prop28
280
     0
102
RTVSPost2010PropOp28
 70
     1
102
RTVSPost2010Prop29
280
     1
102
RTVSPost2010PropOp29
 70
     1
102
RTVSPost2010Prop30
280
     1
102
RTVSPost2010PropOp30
 70
     1
102
RTVSPost2010Prop31
280
     0
102
RTVSPost2010PropOp31
 70
     1
102
RTVSPost2010Prop32
280
     0
102
RTVSPost2010PropOp32
 70
     1
102
RTVSPost2010Prop33
280
     0
102
RTVSPost2010PropOp33
 70
     1
102
RTVSPost2010Prop34
280
     0
102
RTVSPost2010PropOp34
 70
     1
102
RTVSPost2010Prop35
280
     0
102
RTVSPost2010PropOp35
 70
     1
102
RTVSPost2010Prop36
280
     0
102
RTVSPost2010PropOp36
 70
     1
102
RTVSPost2010Prop37
 90
       50
102
RTVSPost2010PropOp37
 70
     1
102
RTVSPost2010Prop38
140
0.0
102
RTVSPost2010PropOp38
 70
     1
102
RTVSPost2010Prop39
140
1.0
102
RTVSPost2010PropOp39
 70
     1
102
RTVSPost2010Prop40
 90
        0
102
RTVSPost2010PropOp40
 70
     1
102
RTVSPost2010Prop41ColorIndex
 90
       18
102
RTVSPost2010Prop41ColorRGB
 90
        0
102
RTVSPost2010PropOp41
 70
     1
102
RTVSPost2010Prop42
 90
       50
102
RTVSPost2010PropOp42
 70
     1
102
RTVSPost2010Prop43
 90
        3
102
RTVSPost2010PropOp43
 70
     1
102
RTVSPost2010Prop44ColorIndex
 90
        5
102
RTVSPost2010Prop44ColorRGB
 90
      255
102
RTVSPost2010PropOp44
 70
     1
102
RTVSPost2010Prop45
280
     0
102
RTVSPost2010PropOp45
 70
     1
102
RTVSPost2010Prop46
 90
       50
102
RTVSPost2010PropOp46
 70
     1
102
RTVSPost2010Prop47
 90
       50
102
RTVSPost2010PropOp47
 70
     1
102
RTVSPost2010Prop48
 90
       50
102
RTVSPost2010PropOp48
 70
     1
102
RTVSPost2010Prop49
280
     0
102
RTVSPost2010PropOp49
 70
     1
102
RTVSPost2010Prop50
 90
       50
102
RTVSPost2010PropOp50
 70
     1
102
RTVSPost2010Prop51ColorIndex
 90
      256
102
RTVSPost2010Prop51ColorRGB
 90
-16777216
102
RTVSPost2010PropOp51
 70
     0
102
RTVSPost2010Prop52
140
1.0
102
RTVSPost2010PropOp52
 70
     0
102
RTVSPost2010Prop53
 90
        2
102
RTVSPost2010PropOp53
 70
     1
102
RTVSPost2010Prop54
  1
strokes_ogs.tif
102
RTVSPost2010PropOp54
 70
     1
102
RTVSPost2010Prop55
280
     0
102
RTVSPost2010PropOp55
 70
     1
102
RTVSPost2010Prop56
140
1.0
102
RTVSPost2010PropOp56
 70
     1
102
RTVSPost2010Prop57
140
1.0
102
RTVSPost2010PropOp57
 70
     1
102
RTVSPropertyOp0
 70
     1
102
RTVSPropertyOp1
 70
     1
102
RTVSPropertyOp2
 70
     1
102
RTVSPropertyOp3
 70
     1
102
RTVSPropertyOp4
 70
     1
102
RTVSPropertyOp5
 70
     1
102
RTVSPropertyOp6
 70
     1
102
RTVSPropertyOp7
 70
     1
102
RTVSPropertyOp8
 70
     1
102
RTVSPropertyOp9
 70
     1
102
RTVSPropertyOp10
 70
     1
102
RTVSPropertyOp11
 70
     1
102
RTVSPropertyOp12
 70
     1
102
RTVSPropertyOp13
 70
     1
102
RTVSPropertyOp14
 70
     1
102
RTVSPropertyOp15
 70
     1
102
RTVSPropertyOp16
 70
     1
102
RTVSPropertyOp17
 70
     1
102
RTVSPropertyOp18
 70
     1
102
RTVSPropertyOp19
 70
     1
102
RTVSPropertyOp20
 70
     1
102
RTVSPropertyOp21
 70
     1
102
RTVSPropertyOp22
 70
     1
102
RTVSPropertyOp23
 70
     1
102
RTVSPropertyOp24
 70
     1
102
RTVSPropertyOp25
 70
     1
102
RTVSPropertyOp26
 70
     1
102
RTVSPropertyOp27
 70
     1
102
RTVSPropertyOp28
 70
     1
102
RTVSPropertyOp29
 70
     1
102
RTVSPropertyOp30
 70
     1
102
RTVSPropertyOp31
 70
     1
102
RTVSPropertyOp32
 70
     1
102
RTVSPropertyOp33
 70
     1
102
RTVSPropertyOp34
 70
     1
102
RTVSPropertyOp35
 70
     1
102
RTVSPropertyOp36
 70
     1
102
RTVSPropertyOp37
 70
     1
102
RTVSPropertyOp38
 70
     1
102
RTVSPropertyOp39
 70
     1
102
RTVSPropertyOp40
 70
     1
102
RTVSPropertyOp41
 70
     1
102
RTVSPropertyOp42
 70
     1
102
RTVSPropertyOp43
 70
     1
102
RTVSPropertyOp44
 70
     1
102
RTVSPropertyOp45
 70
     1
102
RTVSPropertyOp46
 70
     1
102
RTVSPropertyOp47
 70
     1
102
RTVSPropertyOp48
 70
     1
102
RTVSPropertyOp49
 70
     1
102
RTVSPropertyOp50
 70
     1
102
RTVSPropertyOp51
 70
     0
102
RTVSPropertyOp52
 70
     0
102
RTVSPropertyOp53
 70
     1
102
RTVSPropertyOp54
 70
     1
102
RTVSPropertyOp55
 70
     1
102
RTVSPropertyOp56
 70
     1
102
RTVSPropertyOp57
 70
     1
102
RTVSPropertyOp58
 70
     1
102
RTVSPropertyOp59
 70
     1
102
RTVSPropertyOp60
 70
     1
102
RTVSPropertyOp61
 70
     1
102
RTVSPropertyOp62
 70
     1
  0
XRECORD
  5
746
102
{ACAD_REACTORS
330
745
102
}
330
745
100
AcDbXrecord
280
     1
102
RTVSPost2010Prop28
280
     0
102
RTVSPost2010PropOp28
 70
     1
102
RTVSPost2010Prop29
280
     1
102
RTVSPost2010PropOp29
 70
     1
102
RTVSPost2010Prop30
280
     1
102
RTVSPost2010PropOp30
 70
     1
102
RTVSPost2010Prop31
280
     0
102
RTVSPost2010PropOp31
 70
     1
102
RTVSPost2010Prop32
280
     0
102
RTVSPost2010PropOp32
 70
     1
102
RTVSPost2010Prop33
280
     0
102
RTVSPost2010PropOp33
 70
     1
102
RTVSPost2010Prop34
280
     0
102
RTVSPost2010PropOp34
 70
     1
102
RTVSPost2010Prop35
280
     0
102
RTVSPost2010PropOp35
 70
     1
102
RTVSPost2010Prop36
280
     0
102
RTVSPost2010PropOp36
 70
     1
102
RTVSPost2010Prop37
 90
       50
102
RTVSPost2010PropOp37
 70
     1
102
RTVSPost2010Prop38
140
0.0
102
RTVSPost2010PropOp38
 70
     1
102
RTVSPost2010Prop39
140
1.0
102
RTVSPost2010PropOp39
 70
     1
102
RTVSPost2010Prop40
 90
        0
102
RTVSPost2010PropOp40
 70
     1
102
RTVSPost2010Prop41ColorIndex
 90
       18
102
RTVSPost2010Prop41ColorRGB
 90
        0
102
RTVSPost2010PropOp41
 70
     1
102
RTVSPost2010Prop42
 90
       50
102
RTVSPost2010PropOp42
 70
     1
102
RTVSPost2010Prop43
 90
        3
102
RTVSPost2010PropOp43
 70
     1
102
RTVSPost2010Prop44ColorIndex
 90
        5
102
RTVSPost2010Prop44ColorRGB
 90
      255
102
RTVSPost2010PropOp44
 70
     1
102
RTVSPost2010Prop45
280
     0
102
RTVSPost2010PropOp45
 70
     1
102
RTVSPost2010Prop46
 90
       50
102
RTVSPost2010PropOp46
 70
     1
102
RTVSPost2010Prop47
 90
       50
102
RTVSPost2010PropOp47
 70
     1
102
RTVSPost2010Prop48
 90
       50
102
RTVSPost2010PropOp48
 70
     1
102
RTVSPost2010Prop49
280
     0
102
RTVSPost2010PropOp49
 70
     1
102
RTVSPost2010Prop50
 90
       50
102
RTVSPost2010PropOp50
 70
     1
102
RTVSPost2010Prop51ColorIndex
 90
      256
102
RTVSPost2010Prop51ColorRGB
 90
-16777216
102
RTVSPost2010PropOp51
 70
     0
102
RTVSPost2010Prop52
140
1.0
102
RTVSPost2010PropOp52
 70
     0
102
RTVSPost2010Prop53
 90
        2
102
RTVSPost2010PropOp53
 70
     1
102
RTVSPost2010Prop54
  1
strokes_ogs.tif
102
RTVSPost2010PropOp54
 70
     1
102
RTVSPost2010Prop55
280
     0
102
RTVSPost2010PropOp55
 70
     1
102
RTVSPost2010Prop56
140
1.0
102
RTVSPost2010PropOp56
 70
     1
102
RTVSPost2010Prop57
140
1.0
102
RTVSPost2010PropOp57
 70
     1
102
RTVSPropertyOp0
 70
     1
102
RTVSPropertyOp1
 70
     1
102
RTVSPropertyOp2
 70
     1
102
RTVSPropertyOp3
 70
     1
102
RTVSPropertyOp4
 70
     1
102
RTVSPropertyOp5
 70
     1
102
RTVSPropertyOp6
 70
     1
102
RTVSPropertyOp7
 70
     1
102
RTVSPropertyOp8
 70
     1
102
RTVSPropertyOp9
 70
     1
102
RTVSPropertyOp10
 70
     1
102
RTVSPropertyOp11
 70
     1
102
RTVSPropertyOp12
 70
     1
102
RTVSPropertyOp13
 70
     1
102
RTVSPropertyOp14
 70
     1
102
RTVSPropertyOp15
 70
     1
102
RTVSPropertyOp16
 70
     1
102
RTVSPropertyOp17
 70
     1
102
RTVSPropertyOp18
 70
     1
102
RTVSPropertyOp19
 70
     1
102
RTVSPropertyOp20
 70
     1
102
RTVSPropertyOp21
 70
     1
102
RTVSPropertyOp22
 70
     1
102
RTVSPropertyOp23
 70
     1
102
RTVSPropertyOp24
 70
     1
102
RTVSPropertyOp25
 70
     1
102
RTVSPropertyOp26
 70
     1
102
RTVSPropertyOp27
 70
     1
102
RTVSPropertyOp28
 70
     1
102
RTVSPropertyOp29
 70
     1
102
RTVSPropertyOp30
 70
     1
102
RTVSPropertyOp31
 70
     1
102
RTVSPropertyOp32
 70
     1
102
RTVSPropertyOp33
 70
     1
102
RTVSPropertyOp34
 70
     1
102
RTVSPropertyOp35
 70
     1
102
RTVSPropertyOp36
 70
     1
102
RTVSPropertyOp37
 70
     1
102
RTVSPropertyOp38
 70
     1
102
RTVSPropertyOp39
 70
     1
102
RTVSPropertyOp40
 70
     1
102
RTVSPropertyOp41
 70
     1
102
RTVSPropertyOp42
 70
     1
102
RTVSPropertyOp43
 70
     1
102
RTVSPropertyOp44
 70
     1
102
RTVSPropertyOp45
 70
     1
102
RTVSPropertyOp46
 70
     1
102
RTVSPropertyOp47
 70
     1
102
RTVSPropertyOp48
 70
     1
102
RTVSPropertyOp49
 70
     1
102
RTVSPropertyOp50
 70
     1
102
RTVSPropertyOp51
 70
     0
102
RTVSPropertyOp52
 70
     0
102
RTVSPropertyOp53
 70
     1
102
RTVSPropertyOp54
 70
     1
102
RTVSPropertyOp55
 70
     1
102
RTVSPropertyOp56
 70
     1
102
RTVSPropertyOp57
 70
     1
102
RTVSPropertyOp58
 70
     1
102
RTVSPropertyOp59
 70
     1
102
RTVSPropertyOp60
 70
     1
102
RTVSPropertyOp61
 70
     1
102
RTVSPropertyOp62
 70
     1
  0
XRECORD
  5
748
102
{ACAD_REACTORS
330
747
102
}
330
747
100
AcDbXrecord
280
     1
102
RTVSPost2010Prop28
280
     0
102
RTVSPost2010PropOp28
 70
     1
102
RTVSPost2010Prop29
280
     1
102
RTVSPost2010PropOp29
 70
     1
102
RTVSPost2010Prop30
280
     1
102
RTVSPost2010PropOp30
 70
     1
102
RTVSPost2010Prop31
280
     0
102
RTVSPost2010PropOp31
 70
     1
102
RTVSPost2010Prop32
280
     0
102
RTVSPost2010PropOp32
 70
     1
102
RTVSPost2010Prop33
280
     0
102
RTVSPost2010PropOp33
 70
     1
102
RTVSPost2010Prop34
280
     0
102
RTVSPost2010PropOp34
 70
     1
102
RTVSPost2010Prop35
280
     0
102
RTVSPost2010PropOp35
 70
     1
102
RTVSPost2010Prop36
280
     0
102
RTVSPost2010PropOp36
 70
     1
102
RTVSPost2010Prop37
 90
       50
102
RTVSPost2010PropOp37
 70
     1
102
RTVSPost2010Prop38
140
0.0
102
RTVSPost2010PropOp38
 70
     1
102
RTVSPost2010Prop39
140
1.0
102
RTVSPost2010PropOp39
 70
     1
102
RTVSPost2010Prop40
 90
        0
102
RTVSPost2010PropOp40
 70
     1
102
RTVSPost2010Prop41ColorIndex
 90
       18
102
RTVSPost2010Prop41ColorRGB
 90
        0
102
RTVSPost2010PropOp41
 70
     1
102
RTVSPost2010Prop42
 90
       50
102
RTVSPost2010PropOp42
 70
     1
102
RTVSPost2010Prop43
 90
        3
102
RTVSPost2010PropOp43
 70
     1
102
RTVSPost2010Prop44ColorIndex
 90
        5
102
RTVSPost2010Prop44ColorRGB
 90
      255
102
RTVSPost2010PropOp44
 70
     1
102
RTVSPost2010Prop45
280
     0
102
RTVSPost2010PropOp45
 70
     1
102
RTVSPost2010Prop46
 90
       50
102
RTVSPost2010PropOp46
 70
     1
102
RTVSPost2010Prop47
 90
       50
102
RTVSPost2010PropOp47
 70
     1
102
RTVSPost2010Prop48
 90
       50
102
RTVSPost2010PropOp48
 70
     1
102
RTVSPost2010Prop49
280
     0
102
RTVSPost2010PropOp49
 70
     1
102
RTVSPost2010Prop50
 90
       50
102
RTVSPost2010PropOp50
 70
     1
102
RTVSPost2010Prop51ColorIndex
 90
      256
102
RTVSPost2010Prop51ColorRGB
 90
-16777216
102
RTVSPost2010PropOp51
 70
     0
102
RTVSPost2010Prop52
140
1.0
102
RTVSPost2010PropOp52
 70
     0
102
RTVSPost2010Prop53
 90
        2
102
RTVSPost2010PropOp53
 70
     1
102
RTVSPost2010Prop54
  1
strokes_ogs.tif
102
RTVSPost2010PropOp54
 70
     1
102
RTVSPost2010Prop55
280
     0
102
RTVSPost2010PropOp55
 70
     1
102
RTVSPost2010Prop56
140
1.0
102
RTVSPost2010PropOp56
 70
     1
102
RTVSPost2010Prop57
140
1.0
102
RTVSPost2010PropOp57
 70
     1
102
RTVSPropertyOp0
 70
     1
102
RTVSPropertyOp1
 70
     1
102
RTVSPropertyOp2
 70
     1
102
RTVSPropertyOp3
 70
     1
102
RTVSPropertyOp4
 70
     1
102
RTVSPropertyOp5
 70
     1
102
RTVSPropertyOp6
 70
     1
102
RTVSPropertyOp7
 70
     1
102
RTVSPropertyOp8
 70
     1
102
RTVSPropertyOp9
 70
     1
102
RTVSPropertyOp10
 70
     1
102
RTVSPropertyOp11
 70
     1
102
RTVSPropertyOp12
 70
     1
102
RTVSPropertyOp13
 70
     1
102
RTVSPropertyOp14
 70
     1
102
RTVSPropertyOp15
 70
     1
102
RTVSPropertyOp16
 70
     1
102
RTVSPropertyOp17
 70
     1
102
RTVSPropertyOp18
 70
     1
102
RTVSPropertyOp19
 70
     1
102
RTVSPropertyOp20
 70
     1
102
RTVSPropertyOp21
 70
     1
102
RTVSPropertyOp22
 70
     1
102
RTVSPropertyOp23
 70
     1
102
RTVSPropertyOp24
 70
     1
102
RTVSPropertyOp25
 70
     1
102
RTVSPropertyOp26
 70
     1
102
RTVSPropertyOp27
 70
     1
102
RTVSPropertyOp28
 70
     1
102
RTVSPropertyOp29
 70
     1
102
RTVSPropertyOp30
 70
     1
102
RTVSPropertyOp31
 70
     1
102
RTVSPropertyOp32
 70
     1
102
RTVSPropertyOp33
 70
     1
102
RTVSPropertyOp34
 70
     1
102
RTVSPropertyOp35
 70
     1
102
RTVSPropertyOp36
 70
     1
102
RTVSPropertyOp37
 70
     1
102
RTVSPropertyOp38
 70
     1
102
RTVSPropertyOp39
 70
     1
102
RTVSPropertyOp40
 70
     1
102
RTVSPropertyOp41
 70
     1
102
RTVSPropertyOp42
 70
     1
102
RTVSPropertyOp43
 70
     1
102
RTVSPropertyOp44
 70
     1
102
RTVSPropertyOp45
 70
     1
102
RTVSPropertyOp46
 70
     1
102
RTVSPropertyOp47
 70
     1
102
RTVSPropertyOp48
 70
     1
102
RTVSPropertyOp49
 70
     1
102
RTVSPropertyOp50
 70
     1
102
RTVSPropertyOp51
 70
     0
102
RTVSPropertyOp52
 70
     0
102
RTVSPropertyOp53
 70
     1
102
RTVSPropertyOp54
 70
     1
102
RTVSPropertyOp55
 70
     1
102
RTVSPropertyOp56
 70
     1
102
RTVSPropertyOp57
 70
     1
102
RTVSPropertyOp58
 70
     1
102
RTVSPropertyOp59
 70
     1
102
RTVSPropertyOp60
 70
     1
102
RTVSPropertyOp61
 70
     1
102
RTVSPropertyOp62
 70
     1
  0
XRECORD
  5
74A
102
{ACAD_REACTORS
330
749
102
}
330
749
100
AcDbXrecord
280
     1
102
RTVSPost2010Prop28
280
     0
102
RTVSPost2010PropOp28
 70
     1
102
RTVSPost2010Prop29
280
     1
102
RTVSPost2010PropOp29
 70
     1
102
RTVSPost2010Prop30
280
     1
102
RTVSPost2010PropOp30
 70
     1
102
RTVSPost2010Prop31
280
     0
102
RTVSPost2010PropOp31
 70
     1
102
RTVSPost2010Prop32
280
     0
102
RTVSPost2010PropOp32
 70
     1
102
RTVSPost2010Prop33
280
     0
102
RTVSPost2010PropOp33
 70
     1
102
RTVSPost2010Prop34
280
     0
102
RTVSPost2010PropOp34
 70
     1
102
RTVSPost2010Prop35
280
     0
102
RTVSPost2010PropOp35
 70
     1
102
RTVSPost2010Prop36
280
     0
102
RTVSPost2010PropOp36
 70
     1
102
RTVSPost2010Prop37
 90
       50
102
RTVSPost2010PropOp37
 70
     1
102
RTVSPost2010Prop38
140
0.0
102
RTVSPost2010PropOp38
 70
     1
102
RTVSPost2010Prop39
140
1.0
102
RTVSPost2010PropOp39
 70
     1
102
RTVSPost2010Prop40
 90
        0
102
RTVSPost2010PropOp40
 70
     1
102
RTVSPost2010Prop41ColorIndex
 90
       18
102
RTVSPost2010Prop41ColorRGB
 90
        0
102
RTVSPost2010PropOp41
 70
     1
102
RTVSPost2010Prop42
 90
       50
102
RTVSPost2010PropOp42
 70
     1
102
RTVSPost2010Prop43
 90
        3
102
RTVSPost2010PropOp43
 70
     1
102
RTVSPost2010Prop44ColorIndex
 90
        5
102
RTVSPost2010Prop44ColorRGB
 90
      255
102
RTVSPost2010PropOp44
 70
     1
102
RTVSPost2010Prop45
280
     0
102
RTVSPost2010PropOp45
 70
     1
102
RTVSPost2010Prop46
 90
       50
102
RTVSPost2010PropOp46
 70
     1
102
RTVSPost2010Prop47
 90
       50
102
RTVSPost2010PropOp47
 70
     1
102
RTVSPost2010Prop48
 90
       50
102
RTVSPost2010PropOp48
 70
     1
102
RTVSPost2010Prop49
280
     0
102
RTVSPost2010PropOp49
 70
     1
102
RTVSPost2010Prop50
 90
       50
102
RTVSPost2010PropOp50
 70
     1
102
RTVSPost2010Prop51ColorIndex
 90
      256
102
RTVSPost2010Prop51ColorRGB
 90
-16777216
102
RTVSPost2010PropOp51
 70
     0
102
RTVSPost2010Prop52
140
1.0
102
RTVSPost2010PropOp52
 70
     0
102
RTVSPost2010Prop53
 90
        2
102
RTVSPost2010PropOp53
 70
     1
102
RTVSPost2010Prop54
  1
strokes_ogs.tif
102
RTVSPost2010PropOp54
 70
     1
102
RTVSPost2010Prop55
280
     0
102
RTVSPost2010PropOp55
 70
     1
102
RTVSPost2010Prop56
140
1.0
102
RTVSPost2010PropOp56
 70
     1
102
RTVSPost2010Prop57
140
1.0
102
RTVSPost2010PropOp57
 70
     1
102
RTVSPropertyOp0
 70
     1
102
RTVSPropertyOp1
 70
     1
102
RTVSPropertyOp2
 70
     1
102
RTVSPropertyOp3
 70
     1
102
RTVSPropertyOp4
 70
     1
102
RTVSPropertyOp5
 70
     1
102
RTVSPropertyOp6
 70
     1
102
RTVSPropertyOp7
 70
     1
102
RTVSPropertyOp8
 70
     1
102
RTVSPropertyOp9
 70
     1
102
RTVSPropertyOp10
 70
     1
102
RTVSPropertyOp11
 70
     1
102
RTVSPropertyOp12
 70
     1
102
RTVSPropertyOp13
 70
     1
102
RTVSPropertyOp14
 70
     1
102
RTVSPropertyOp15
 70
     1
102
RTVSPropertyOp16
 70
     1
102
RTVSPropertyOp17
 70
     1
102
RTVSPropertyOp18
 70
     1
102
RTVSPropertyOp19
 70
     1
102
RTVSPropertyOp20
 70
     1
102
RTVSPropertyOp21
 70
     1
102
RTVSPropertyOp22
 70
     1
102
RTVSPropertyOp23
 70
     1
102
RTVSPropertyOp24
 70
     1
102
RTVSPropertyOp25
 70
     1
102
RTVSPropertyOp26
 70
     1
102
RTVSPropertyOp27
 70
     1
102
RTVSPropertyOp28
 70
     1
102
RTVSPropertyOp29
 70
     1
102
RTVSPropertyOp30
 70
     1
102
RTVSPropertyOp31
 70
     1
102
RTVSPropertyOp32
 70
     1
102
RTVSPropertyOp33
 70
     1
102
RTVSPropertyOp34
 70
     1
102
RTVSPropertyOp35
 70
     1
102
RTVSPropertyOp36
 70
     1
102
RTVSPropertyOp37
 70
     1
102
RTVSPropertyOp38
 70
     1
102
RTVSPropertyOp39
 70
     1
102
RTVSPropertyOp40
 70
     1
102
RTVSPropertyOp41
 70
     1
102
RTVSPropertyOp42
 70
     1
102
RTVSPropertyOp43
 70
     1
102
RTVSPropertyOp44
 70
     1
102
RTVSPropertyOp45
 70
     1
102
RTVSPropertyOp46
 70
     1
102
RTVSPropertyOp47
 70
     1
102
RTVSPropertyOp48
 70
     1
102
RTVSPropertyOp49
 70
     1
102
RTVSPropertyOp50
 70
     1
102
RTVSPropertyOp51
 70
     0
102
RTVSPropertyOp52
 70
     0
102
RTVSPropertyOp53
 70
     1
102
RTVSPropertyOp54
 70
     1
102
RTVSPropertyOp55
 70
     1
102
RTVSPropertyOp56
 70
     1
102
RTVSPropertyOp57
 70
     1
102
RTVSPropertyOp58
 70
     1
102
RTVSPropertyOp59
 70
     1
102
RTVSPropertyOp60
 70
     1
102
RTVSPropertyOp61
 70
     1
102
RTVSPropertyOp62
 70
     1
  0
XRECORD
  5
74C
102
{ACAD_REACTORS
330
74B
102
}
330
74B
100
AcDbXrecord
280
     1
102
RTVSPost2010Prop28
280
     0
102
RTVSPost2010PropOp28
 70
     1
102
RTVSPost2010Prop29
280
     1
102
RTVSPost2010PropOp29
 70
     1
102
RTVSPost2010Prop30
280
     1
102
RTVSPost2010PropOp30
 70
     1
102
RTVSPost2010Prop31
280
     0
102
RTVSPost2010PropOp31
 70
     1
102
RTVSPost2010Prop32
280
     0
102
RTVSPost2010PropOp32
 70
     1
102
RTVSPost2010Prop33
280
     0
102
RTVSPost2010PropOp33
 70
     1
102
RTVSPost2010Prop34
280
     0
102
RTVSPost2010PropOp34
 70
     1
102
RTVSPost2010Prop35
280
     0
102
RTVSPost2010PropOp35
 70
     1
102
RTVSPost2010Prop36
280
     0
102
RTVSPost2010PropOp36
 70
     1
102
RTVSPost2010Prop37
 90
       50
102
RTVSPost2010PropOp37
 70
     1
102
RTVSPost2010Prop38
140
0.0
102
RTVSPost2010PropOp38
 70
     1
102
RTVSPost2010Prop39
140
1.0
102
RTVSPost2010PropOp39
 70
     1
102
RTVSPost2010Prop40
 90
        0
102
RTVSPost2010PropOp40
 70
     1
102
RTVSPost2010Prop41ColorIndex
 90
       18
102
RTVSPost2010Prop41ColorRGB
 90
        0
102
RTVSPost2010PropOp41
 70
     1
102
RTVSPost2010Prop42
 90
       50
102
RTVSPost2010PropOp42
 70
     1
102
RTVSPost2010Prop43
 90
        3
102
RTVSPost2010PropOp43
 70
     1
102
RTVSPost2010Prop44ColorIndex
 90
        5
102
RTVSPost2010Prop44ColorRGB
 90
      255
102
RTVSPost2010PropOp44
 70
     1
102
RTVSPost2010Prop45
280
     0
102
RTVSPost2010PropOp45
 70
     1
102
RTVSPost2010Prop46
 90
       50
102
RTVSPost2010PropOp46
 70
     1
102
RTVSPost2010Prop47
 90
       50
102
RTVSPost2010PropOp47
 70
     1
102
RTVSPost2010Prop48
 90
       50
102
RTVSPost2010PropOp48
 70
     1
102
RTVSPost2010Prop49
280
     0
102
RTVSPost2010PropOp49
 70
     1
102
RTVSPost2010Prop50
 90
       50
102
RTVSPost2010PropOp50
 70
     1
102
RTVSPost2010Prop51ColorIndex
 90
      256
102
RTVSPost2010Prop51ColorRGB
 90
-16777216
102
RTVSPost2010PropOp51
 70
     0
102
RTVSPost2010Prop52
140
1.0
102
RTVSPost2010PropOp52
 70
     0
102
RTVSPost2010Prop53
 90
        2
102
RTVSPost2010PropOp53
 70
     1
102
RTVSPost2010Prop54
  1
strokes_ogs.tif
102
RTVSPost2010PropOp54
 70
     1
102
RTVSPost2010Prop55
280
     0
102
RTVSPost2010PropOp55
 70
     1
102
RTVSPost2010Prop56
140
1.0
102
RTVSPost2010PropOp56
 70
     1
102
RTVSPost2010Prop57
140
1.0
102
RTVSPost2010PropOp57
 70
     1
102
RTVSPropertyOp0
 70
     1
102
RTVSPropertyOp1
 70
     1
102
RTVSPropertyOp2
 70
     1
102
RTVSPropertyOp3
 70
     1
102
RTVSPropertyOp4
 70
     1
102
RTVSPropertyOp5
 70
     1
102
RTVSPropertyOp6
 70
     1
102
RTVSPropertyOp7
 70
     1
102
RTVSPropertyOp8
 70
     1
102
RTVSPropertyOp9
 70
     1
102
RTVSPropertyOp10
 70
     1
102
RTVSPropertyOp11
 70
     1
102
RTVSPropertyOp12
 70
     1
102
RTVSPropertyOp13
 70
     1
102
RTVSPropertyOp14
 70
     1
102
RTVSPropertyOp15
 70
     1
102
RTVSPropertyOp16
 70
     1
102
RTVSPropertyOp17
 70
     1
102
RTVSPropertyOp18
 70
     1
102
RTVSPropertyOp19
 70
     1
102
RTVSPropertyOp20
 70
     1
102
RTVSPropertyOp21
 70
     1
102
RTVSPropertyOp22
 70
     1
102
RTVSPropertyOp23
 70
     1
102
RTVSPropertyOp24
 70
     1
102
RTVSPropertyOp25
 70
     1
102
RTVSPropertyOp26
 70
     1
102
RTVSPropertyOp27
 70
     1
102
RTVSPropertyOp28
 70
     1
102
RTVSPropertyOp29
 70
     1
102
RTVSPropertyOp30
 70
     1
102
RTVSPropertyOp31
 70
     1
102
RTVSPropertyOp32
 70
     1
102
RTVSPropertyOp33
 70
     1
102
RTVSPropertyOp34
 70
     1
102
RTVSPropertyOp35
 70
     1
102
RTVSPropertyOp36
 70
     1
102
RTVSPropertyOp37
 70
     1
102
RTVSPropertyOp38
 70
     1
102
RTVSPropertyOp39
 70
     1
102
RTVSPropertyOp40
 70
     1
102
RTVSPropertyOp41
 70
     1
102
RTVSPropertyOp42
 70
     1
102
RTVSPropertyOp43
 70
     1
102
RTVSPropertyOp44
 70
     1
102
RTVSPropertyOp45
 70
     1
102
RTVSPropertyOp46
 70
     1
102
RTVSPropertyOp47
 70
     1
102
RTVSPropertyOp48
 70
     1
102
RTVSPropertyOp49
 70
     1
102
RTVSPropertyOp50
 70
     1
102
RTVSPropertyOp51
 70
     0
102
RTVSPropertyOp52
 70
     0
102
RTVSPropertyOp53
 70
     1
102
RTVSPropertyOp54
 70
     1
102
RTVSPropertyOp55
 70
     1
102
RTVSPropertyOp56
 70
     1
102
RTVSPropertyOp57
 70
     1
102
RTVSPropertyOp58
 70
     1
102
RTVSPropertyOp59
 70
     1
102
RTVSPropertyOp60
 70
     1
102
RTVSPropertyOp61
 70
     1
102
RTVSPropertyOp62
 70
     1
  0
XRECORD
  5
754
102
{ACAD_REACTORS
330
753
102
}
330
753
100
AcDbXrecord
280
     1
102
RTVSPost2010Prop28
280
     0
102
RTVSPost2010PropOp28
 70
     1
102
RTVSPost2010Prop29
280
     1
102
RTVSPost2010PropOp29
 70
     1
102
RTVSPost2010Prop30
280
     1
102
RTVSPost2010PropOp30
 70
     1
102
RTVSPost2010Prop31
280
     0
102
RTVSPost2010PropOp31
 70
     1
102
RTVSPost2010Prop32
280
     0
102
RTVSPost2010PropOp32
 70
     1
102
RTVSPost2010Prop33
280
     0
102
RTVSPost2010PropOp33
 70
     1
102
RTVSPost2010Prop34
280
     0
102
RTVSPost2010PropOp34
 70
     1
102
RTVSPost2010Prop35
280
     0
102
RTVSPost2010PropOp35
 70
     1
102
RTVSPost2010Prop36
280
     0
102
RTVSPost2010PropOp36
 70
     1
102
RTVSPost2010Prop37
 90
       50
102
RTVSPost2010PropOp37
 70
     1
102
RTVSPost2010Prop38
140
0.0
102
RTVSPost2010PropOp38
 70
     1
102
RTVSPost2010Prop39
140
1.0
102
RTVSPost2010PropOp39
 70
     1
102
RTVSPost2010Prop40
 90
        0
102
RTVSPost2010PropOp40
 70
     1
102
RTVSPost2010Prop41ColorIndex
 90
       18
102
RTVSPost2010Prop41ColorRGB
 90
        0
102
RTVSPost2010PropOp41
 70
     1
102
RTVSPost2010Prop42
 90
       50
102
RTVSPost2010PropOp42
 70
     1
102
RTVSPost2010Prop43
 90
        3
102
RTVSPost2010PropOp43
 70
     1
102
RTVSPost2010Prop44ColorIndex
 90
        5
102
RTVSPost2010Prop44ColorRGB
 90
      255
102
RTVSPost2010PropOp44
 70
     1
102
RTVSPost2010Prop45
280
     0
102
RTVSPost2010PropOp45
 70
     1
102
RTVSPost2010Prop46
 90
       50
102
RTVSPost2010PropOp46
 70
     1
102
RTVSPost2010Prop47
 90
       50
102
RTVSPost2010PropOp47
 70
     1
102
RTVSPost2010Prop48
 90
       50
102
RTVSPost2010PropOp48
 70
     1
102
RTVSPost2010Prop49
280
     0
102
RTVSPost2010PropOp49
 70
     1
102
RTVSPost2010Prop50
 90
       50
102
RTVSPost2010PropOp50
 70
     1
102
RTVSPost2010Prop51ColorIndex
 90
      256
102
RTVSPost2010Prop51ColorRGB
 90
-16777216
102
RTVSPost2010PropOp51
 70
     0
102
RTVSPost2010Prop52
140
1.0
102
RTVSPost2010PropOp52
 70
     0
102
RTVSPost2010Prop53
 90
        2
102
RTVSPost2010PropOp53
 70
     1
102
RTVSPost2010Prop54
  1
strokes_ogs.tif
102
RTVSPost2010PropOp54
 70
     1
102
RTVSPost2010Prop55
280
     0
102
RTVSPost2010PropOp55
 70
     1
102
RTVSPost2010Prop56
140
1.0
102
RTVSPost2010PropOp56
 70
     1
102
RTVSPost2010Prop57
140
1.0
102
RTVSPost2010PropOp57
 70
     1
102
RTVSPropertyOp0
 70
     1
102
RTVSPropertyOp1
 70
     1
102
RTVSPropertyOp2
 70
     1
102
RTVSPropertyOp3
 70
     1
102
RTVSPropertyOp4
 70
     1
102
RTVSPropertyOp5
 70
     1
102
RTVSPropertyOp6
 70
     1
102
RTVSPropertyOp7
 70
     1
102
RTVSPropertyOp8
 70
     1
102
RTVSPropertyOp9
 70
     1
102
RTVSPropertyOp10
 70
     1
102
RTVSPropertyOp11
 70
     1
102
RTVSPropertyOp12
 70
     1
102
RTVSPropertyOp13
 70
     1
102
RTVSPropertyOp14
 70
     1
102
RTVSPropertyOp15
 70
     1
102
RTVSPropertyOp16
 70
     1
102
RTVSPropertyOp17
 70
     1
102
RTVSPropertyOp18
 70
     1
102
RTVSPropertyOp19
 70
     1
102
RTVSPropertyOp20
 70
     1
102
RTVSPropertyOp21
 70
     1
102
RTVSPropertyOp22
 70
     1
102
RTVSPropertyOp23
 70
     1
102
RTVSPropertyOp24
 70
     1
102
RTVSPropertyOp25
 70
     1
102
RTVSPropertyOp26
 70
     1
102
RTVSPropertyOp27
 70
     1
102
RTVSPropertyOp28
 70
     1
102
RTVSPropertyOp29
 70
     1
102
RTVSPropertyOp30
 70
     1
102
RTVSPropertyOp31
 70
     1
102
RTVSPropertyOp32
 70
     1
102
RTVSPropertyOp33
 70
     1
102
RTVSPropertyOp34
 70
     1
102
RTVSPropertyOp35
 70
     1
102
RTVSPropertyOp36
 70
     1
102
RTVSPropertyOp37
 70
     1
102
RTVSPropertyOp38
 70
     1
102
RTVSPropertyOp39
 70
     1
102
RTVSPropertyOp40
 70
     1
102
RTVSPropertyOp41
 70
     1
102
RTVSPropertyOp42
 70
     1
102
RTVSPropertyOp43
 70
     1
102
RTVSPropertyOp44
 70
     1
102
RTVSPropertyOp45
 70
     1
102
RTVSPropertyOp46
 70
     1
102
RTVSPropertyOp47
 70
     1
102
RTVSPropertyOp48
 70
     1
102
RTVSPropertyOp49
 70
     1
102
RTVSPropertyOp50
 70
     1
102
RTVSPropertyOp51
 70
     0
102
RTVSPropertyOp52
 70
     0
102
RTVSPropertyOp53
 70
     1
102
RTVSPropertyOp54
 70
     1
102
RTVSPropertyOp55
 70
     1
102
RTVSPropertyOp56
 70
     1
102
RTVSPropertyOp57
 70
     1
102
RTVSPropertyOp58
 70
     1
102
RTVSPropertyOp59
 70
     1
102
RTVSPropertyOp60
 70
     1
102
RTVSPropertyOp61
 70
     1
102
RTVSPropertyOp62
 70
     1
  0
XRECORD
  5
770
102
{ACAD_REACTORS
330
76F
102
}
330
76F
100
AcDbXrecord
280
     1
102
RTVSPost2010Prop28
280
     0
102
RTVSPost2010PropOp28
 70
     1
102
RTVSPost2010Prop29
280
     1
102
RTVSPost2010PropOp29
 70
     1
102
RTVSPost2010Prop30
280
     1
102
RTVSPost2010PropOp30
 70
     1
102
RTVSPost2010Prop31
280
     0
102
RTVSPost2010PropOp31
 70
     1
102
RTVSPost2010Prop32
280
     0
102
RTVSPost2010PropOp32
 70
     1
102
RTVSPost2010Prop33
280
     0
102
RTVSPost2010PropOp33
 70
     1
102
RTVSPost2010Prop34
280
     0
102
RTVSPost2010PropOp34
 70
     1
102
RTVSPost2010Prop35
280
     0
102
RTVSPost2010PropOp35
 70
     1
102
RTVSPost2010Prop36
280
     0
102
RTVSPost2010PropOp36
 70
     1
102
RTVSPost2010Prop37
 90
       50
102
RTVSPost2010PropOp37
 70
     0
102
RTVSPost2010Prop38
140
0.0
102
RTVSPost2010PropOp38
 70
     0
102
RTVSPost2010Prop39
140
1.0
102
RTVSPost2010PropOp39
 70
     0
102
RTVSPost2010Prop40
 90
        0
102
RTVSPost2010PropOp40
 70
     0
102
RTVSPost2010Prop41ColorIndex
 90
       18
102
RTVSPost2010Prop41ColorRGB
 90
        0
102
RTVSPost2010PropOp41
 70
     0
102
RTVSPost2010Prop42
 90
       50
102
RTVSPost2010PropOp42
 70
     0
102
RTVSPost2010Prop43
 90
        3
102
RTVSPost2010PropOp43
 70
     0
102
RTVSPost2010Prop44ColorIndex
 90
        5
102
RTVSPost2010Prop44ColorRGB
 90
      255
102
RTVSPost2010PropOp44
 70
     0
102
RTVSPost2010Prop45
280
     0
102
RTVSPost2010PropOp45
 70
     1
102
RTVSPost2010Prop46
 90
       50
102
RTVSPost2010PropOp46
 70
     0
102
RTVSPost2010Prop47
 90
       50
102
RTVSPost2010PropOp47
 70
     0
102
RTVSPost2010Prop48
 90
       50
102
RTVSPost2010PropOp48
 70
     0
102
RTVSPost2010Prop49
280
     0
102
RTVSPost2010PropOp49
 70
     1
102
RTVSPost2010Prop50
 90
       50
102
RTVSPost2010PropOp50
 70
     0
102
RTVSPost2010Prop51ColorIndex
 90
      256
102
RTVSPost2010Prop51ColorRGB
 90
-16777216
102
RTVSPost2010PropOp51
 70
     0
102
RTVSPost2010Prop52
140
1.0
102
RTVSPost2010PropOp52
 70
     0
102
RTVSPost2010Prop53
 90
        2
102
RTVSPost2010PropOp53
 70
     0
102
RTVSPost2010Prop54
  1
strokes_ogs.tif
102
RTVSPost2010PropOp54
 70
     0
102
RTVSPost2010Prop55
280
     0
102
RTVSPost2010PropOp55
 70
     1
102
RTVSPost2010Prop56
140
1.0
102
RTVSPost2010PropOp56
 70
     0
102
RTVSPost2010Prop57
140
1.0
102
RTVSPost2010PropOp57
 70
     0
102
RTVSPropertyOp0
 70
     0
102
RTVSPropertyOp1
 70
     0
102
RTVSPropertyOp2
 70
     0
102
RTVSPropertyOp3
 70
     0
102
RTVSPropertyOp4
 70
     0
102
RTVSPropertyOp5
 70
     0
102
RTVSPropertyOp6
 70
     0
102
RTVSPropertyOp7
 70
     0
102
RTVSPropertyOp8
 70
     0
102
RTVSPropertyOp9
 70
     0
102
RTVSPropertyOp10
 70
     0
102
RTVSPropertyOp11
 70
     0
102
RTVSPropertyOp12
 70
     0
102
RTVSPropertyOp13
 70
     0
102
RTVSPropertyOp14
 70
     2
102
RTVSPropertyOp15
 70
     0
102
RTVSPropertyOp16
 70
     0
102
RTVSPropertyOp17
 70
     0
102
RTVSPropertyOp18
 70
     0
102
RTVSPropertyOp19
 70
     0
102
RTVSPropertyOp20
 70
     0
102
RTVSPropertyOp21
 70
     0
102
RTVSPropertyOp22
 70
     0
102
RTVSPropertyOp23
 70
     0
102
RTVSPropertyOp24
 70
     0
102
RTVSPropertyOp25
 70
     0
102
RTVSPropertyOp26
 70
     0
102
RTVSPropertyOp27
 70
     0
102
RTVSPropertyOp28
 70
     1
102
RTVSPropertyOp29
 70
     1
102
RTVSPropertyOp30
 70
     1
102
RTVSPropertyOp31
 70
     1
102
RTVSPropertyOp32
 70
     1
102
RTVSPropertyOp33
 70
     1
102
RTVSPropertyOp34
 70
     1
102
RTVSPropertyOp35
 70
     1
102
RTVSPropertyOp36
 70
     1
102
RTVSPropertyOp37
 70
     0
102
RTVSPropertyOp38
 70
     0
102
RTVSPropertyOp39
 70
     0
102
RTVSPropertyOp40
 70
     0
102
RTVSPropertyOp41
 70
     0
102
RTVSPropertyOp42
 70
     0
102
RTVSPropertyOp43
 70
     0
102
RTVSPropertyOp44
 70
     0
102
RTVSPropertyOp45
 70
     1
102
RTVSPropertyOp46
 70
     0
102
RTVSPropertyOp47
 70
     0
102
RTVSPropertyOp48
 70
     0
102
RTVSPropertyOp49
 70
     1
102
RTVSPropertyOp50
 70
     0
102
RTVSPropertyOp51
 70
     0
102
RTVSPropertyOp52
 70
     0
102
RTVSPropertyOp53
 70
     0
102
RTVSPropertyOp54
 70
     0
102
RTVSPropertyOp55
 70
     1
102
RTVSPropertyOp56
 70
     0
102
RTVSPropertyOp57
 70
     0
102
RTVSPropertyOp58
 70
     0
102
RTVSPropertyOp59
 70
     0
102
RTVSPropertyOp60
 70
     0
102
RTVSPropertyOp61
 70
     0
102
RTVSPropertyOp62
 70
     0
  0
XRECORD
  5
760
102
{ACAD_REACTORS
330
75F
102
}
330
75F
100
AcDbXrecord
280
     1
102
RTVSPost2010Prop28
280
     0
102
RTVSPost2010PropOp28
 70
     1
102
RTVSPost2010Prop29
280
     1
102
RTVSPost2010PropOp29
 70
     1
102
RTVSPost2010Prop30
280
     1
102
RTVSPost2010PropOp30
 70
     1
102
RTVSPost2010Prop31
280
     0
102
RTVSPost2010PropOp31
 70
     1
102
RTVSPost2010Prop32
280
     0
102
RTVSPost2010PropOp32
 70
     1
102
RTVSPost2010Prop33
280
     0
102
RTVSPost2010PropOp33
 70
     1
102
RTVSPost2010Prop34
280
     0
102
RTVSPost2010PropOp34
 70
     1
102
RTVSPost2010Prop35
280
     0
102
RTVSPost2010PropOp35
 70
     1
102
RTVSPost2010Prop36
280
     0
102
RTVSPost2010PropOp36
 70
     1
102
RTVSPost2010Prop37
 90
       50
102
RTVSPost2010PropOp37
 70
     1
102
RTVSPost2010Prop38
140
0.0
102
RTVSPost2010PropOp38
 70
     1
102
RTVSPost2010Prop39
140
1.0
102
RTVSPost2010PropOp39
 70
     1
102
RTVSPost2010Prop40
 90
        0
102
RTVSPost2010PropOp40
 70
     1
102
RTVSPost2010Prop41ColorIndex
 90
       18
102
RTVSPost2010Prop41ColorRGB
 90
        0
102
RTVSPost2010PropOp41
 70
     1
102
RTVSPost2010Prop42
 90
       50
102
RTVSPost2010PropOp42
 70
     1
102
RTVSPost2010Prop43
 90
        3
102
RTVSPost2010PropOp43
 70
     1
102
RTVSPost2010Prop44ColorIndex
 90
        5
102
RTVSPost2010Prop44ColorRGB
 90
      255
102
RTVSPost2010PropOp44
 70
     1
102
RTVSPost2010Prop45
280
     0
102
RTVSPost2010PropOp45
 70
     1
102
RTVSPost2010Prop46
 90
       50
102
RTVSPost2010PropOp46
 70
     1
102
RTVSPost2010Prop47
 90
       50
102
RTVSPost2010PropOp47
 70
     1
102
RTVSPost2010Prop48
 90
       50
102
RTVSPost2010PropOp48
 70
     1
102
RTVSPost2010Prop49
280
     0
102
RTVSPost2010PropOp49
 70
     1
102
RTVSPost2010Prop50
 90
       50
102
RTVSPost2010PropOp50
 70
     1
102
RTVSPost2010Prop51ColorIndex
 90
      256
102
RTVSPost2010Prop51ColorRGB
 90
-16777216
102
RTVSPost2010PropOp51
 70
     0
102
RTVSPost2010Prop52
140
1.0
102
RTVSPost2010PropOp52
 70
     0
102
RTVSPost2010Prop53
 90
        2
102
RTVSPost2010PropOp53
 70
     1
102
RTVSPost2010Prop54
  1
strokes_ogs.tif
102
RTVSPost2010PropOp54
 70
     1
102
RTVSPost2010Prop55
280
     0
102
RTVSPost2010PropOp55
 70
     1
102
RTVSPost2010Prop56
140
1.0
102
RTVSPost2010PropOp56
 70
     1
102
RTVSPost2010Prop57
140
1.0
102
RTVSPost2010PropOp57
 70
     1
102
RTVSPropertyOp0
 70
     1
102
RTVSPropertyOp1
 70
     1
102
RTVSPropertyOp2
 70
     1
102
RTVSPropertyOp3
 70
     1
102
RTVSPropertyOp4
 70
     1
102
RTVSPropertyOp5
 70
     1
102
RTVSPropertyOp6
 70
     1
102
RTVSPropertyOp7
 70
     1
102
RTVSPropertyOp8
 70
     1
102
RTVSPropertyOp9
 70
     1
102
RTVSPropertyOp10
 70
     1
102
RTVSPropertyOp11
 70
     1
102
RTVSPropertyOp12
 70
     1
102
RTVSPropertyOp13
 70
     1
102
RTVSPropertyOp14
 70
     1
102
RTVSPropertyOp15
 70
     1
102
RTVSPropertyOp16
 70
     1
102
RTVSPropertyOp17
 70
     1
102
RTVSPropertyOp18
 70
     1
102
RTVSPropertyOp19
 70
     1
102
RTVSPropertyOp20
 70
     1
102
RTVSPropertyOp21
 70
     1
102
RTVSPropertyOp22
 70
     1
102
RTVSPropertyOp23
 70
     1
102
RTVSPropertyOp24
 70
     1
102
RTVSPropertyOp25
 70
     1
102
RTVSPropertyOp26
 70
     1
102
RTVSPropertyOp27
 70
     1
102
RTVSPropertyOp28
 70
     1
102
RTVSPropertyOp29
 70
     1
102
RTVSPropertyOp30
 70
     1
102
RTVSPropertyOp31
 70
     1
102
RTVSPropertyOp32
 70
     1
102
RTVSPropertyOp33
 70
     1
102
RTVSPropertyOp34
 70
     1
102
RTVSPropertyOp35
 70
     1
102
RTVSPropertyOp36
 70
     1
102
RTVSPropertyOp37
 70
     1
102
RTVSPropertyOp38
 70
     1
102
RTVSPropertyOp39
 70
     1
102
RTVSPropertyOp40
 70
     1
102
RTVSPropertyOp41
 70
     1
102
RTVSPropertyOp42
 70
     1
102
RTVSPropertyOp43
 70
     1
102
RTVSPropertyOp44
 70
     1
102
RTVSPropertyOp45
 70
     1
102
RTVSPropertyOp46
 70
     1
102
RTVSPropertyOp47
 70
     1
102
RTVSPropertyOp48
 70
     1
102
RTVSPropertyOp49
 70
     1
102
RTVSPropertyOp50
 70
     1
102
RTVSPropertyOp51
 70
     0
102
RTVSPropertyOp52
 70
     0
102
RTVSPropertyOp53
 70
     1
102
RTVSPropertyOp54
 70
     1
102
RTVSPropertyOp55
 70
     1
102
RTVSPropertyOp56
 70
     1
102
RTVSPropertyOp57
 70
     1
102
RTVSPropertyOp58
 70
     1
102
RTVSPropertyOp59
 70
     1
102
RTVSPropertyOp60
 70
     1
102
RTVSPropertyOp61
 70
     1
102
RTVSPropertyOp62
 70
     1
  0
XRECORD
  5
772
102
{ACAD_REACTORS
330
771
102
}
330
771
100
AcDbXrecord
280
     1
102
RTVSPost2010Prop28
280
     0
102
RTVSPost2010PropOp28
 70
     1
102
RTVSPost2010Prop29
280
     1
102
RTVSPost2010PropOp29
 70
     1
102
RTVSPost2010Prop30
280
     1
102
RTVSPost2010PropOp30
 70
     1
102
RTVSPost2010Prop31
280
     0
102
RTVSPost2010PropOp31
 70
     1
102
RTVSPost2010Prop32
280
     0
102
RTVSPost2010PropOp32
 70
     1
102
RTVSPost2010Prop33
280
     0
102
RTVSPost2010PropOp33
 70
     1
102
RTVSPost2010Prop34
280
     0
102
RTVSPost2010PropOp34
 70
     1
102
RTVSPost2010Prop35
280
     0
102
RTVSPost2010PropOp35
 70
     1
102
RTVSPost2010Prop36
280
     0
102
RTVSPost2010PropOp36
 70
     1
102
RTVSPost2010Prop37
 90
       50
102
RTVSPost2010PropOp37
 70
     0
102
RTVSPost2010Prop38
140
0.0
102
RTVSPost2010PropOp38
 70
     0
102
RTVSPost2010Prop39
140
1.0
102
RTVSPost2010PropOp39
 70
     0
102
RTVSPost2010Prop40
 90
        0
102
RTVSPost2010PropOp40
 70
     0
102
RTVSPost2010Prop41ColorIndex
 90
       18
102
RTVSPost2010Prop41ColorRGB
 90
        0
102
RTVSPost2010PropOp41
 70
     0
102
RTVSPost2010Prop42
 90
       50
102
RTVSPost2010PropOp42
 70
     0
102
RTVSPost2010Prop43
 90
        3
102
RTVSPost2010PropOp43
 70
     0
102
RTVSPost2010Prop44ColorIndex
 90
        5
102
RTVSPost2010Prop44ColorRGB
 90
      255
102
RTVSPost2010PropOp44
 70
     0
102
RTVSPost2010Prop45
280
     0
102
RTVSPost2010PropOp45
 70
     1
102
RTVSPost2010Prop46
 90
       50
102
RTVSPost2010PropOp46
 70
     0
102
RTVSPost2010Prop47
 90
       50
102
RTVSPost2010PropOp47
 70
     0
102
RTVSPost2010Prop48
 90
       50
102
RTVSPost2010PropOp48
 70
     0
102
RTVSPost2010Prop49
280
     0
102
RTVSPost2010PropOp49
 70
     1
102
RTVSPost2010Prop50
 90
       50
102
RTVSPost2010PropOp50
 70
     0
102
RTVSPost2010Prop51ColorIndex
 90
      256
102
RTVSPost2010Prop51ColorRGB
 90
-16777216
102
RTVSPost2010PropOp51
 70
     0
102
RTVSPost2010Prop52
140
1.0
102
RTVSPost2010PropOp52
 70
     0
102
RTVSPost2010Prop53
 90
        2
102
RTVSPost2010PropOp53
 70
     0
102
RTVSPost2010Prop54
  1
strokes_ogs.tif
102
RTVSPost2010PropOp54
 70
     0
102
RTVSPost2010Prop55
280
     0
102
RTVSPost2010PropOp55
 70
     1
102
RTVSPost2010Prop56
140
1.0
102
RTVSPost2010PropOp56
 70
     0
102
RTVSPost2010Prop57
140
1.0
102
RTVSPost2010PropOp57
 70
     0
102
RTVSPropertyOp0
 70
     0
102
RTVSPropertyOp1
 70
     0
102
RTVSPropertyOp2
 70
     0
102
RTVSPropertyOp3
 70
     0
102
RTVSPropertyOp4
 70
     0
102
RTVSPropertyOp5
 70
     0
102
RTVSPropertyOp6
 70
     0
102
RTVSPropertyOp7
 70
     0
102
RTVSPropertyOp8
 70
     0
102
RTVSPropertyOp9
 70
     0
102
RTVSPropertyOp10
 70
     0
102
RTVSPropertyOp11
 70
     0
102
RTVSPropertyOp12
 70
     0
102
RTVSPropertyOp13
 70
     0
102
RTVSPropertyOp14
 70
     2
102
RTVSPropertyOp15
 70
     0
102
RTVSPropertyOp16
 70
     0
102
RTVSPropertyOp17
 70
     0
102
RTVSPropertyOp18
 70
     0
102
RTVSPropertyOp19
 70
     0
102
RTVSPropertyOp20
 70
     0
102
RTVSPropertyOp21
 70
     0
102
RTVSPropertyOp22
 70
     0
102
RTVSPropertyOp23
 70
     0
102
RTVSPropertyOp24
 70
     0
102
RTVSPropertyOp25
 70
     0
102
RTVSPropertyOp26
 70
     0
102
RTVSPropertyOp27
 70
     0
102
RTVSPropertyOp28
 70
     1
102
RTVSPropertyOp29
 70
     1
102
RTVSPropertyOp30
 70
     1
102
RTVSPropertyOp31
 70
     1
102
RTVSPropertyOp32
 70
     1
102
RTVSPropertyOp33
 70
     1
102
RTVSPropertyOp34
 70
     1
102
RTVSPropertyOp35
 70
     1
102
RTVSPropertyOp36
 70
     1
102
RTVSPropertyOp37
 70
     0
102
RTVSPropertyOp38
 70
     0
102
RTVSPropertyOp39
 70
     0
102
RTVSPropertyOp40
 70
     0
102
RTVSPropertyOp41
 70
     0
102
RTVSPropertyOp42
 70
     0
102
RTVSPropertyOp43
 70
     0
102
RTVSPropertyOp44
 70
     0
102
RTVSPropertyOp45
 70
     1
102
RTVSPropertyOp46
 70
     0
102
RTVSPropertyOp47
 70
     0
102
RTVSPropertyOp48
 70
     0
102
RTVSPropertyOp49
 70
     1
102
RTVSPropertyOp50
 70
     0
102
RTVSPropertyOp51
 70
     0
102
RTVSPropertyOp52
 70
     0
102
RTVSPropertyOp53
 70
     0
102
RTVSPropertyOp54
 70
     0
102
RTVSPropertyOp55
 70
     1
102
RTVSPropertyOp56
 70
     0
102
RTVSPropertyOp57
 70
     0
102
RTVSPropertyOp58
 70
     0
102
RTVSPropertyOp59
 70
     0
102
RTVSPropertyOp60
 70
     0
102
RTVSPropertyOp61
 70
     0
102
RTVSPropertyOp62
 70
     0
  0
XRECORD
  5
758
102
{ACAD_REACTORS
330
757
102
}
330
757
100
AcDbXrecord
280
     1
102
RTVSPost2010Prop28
280
     0
102
RTVSPost2010PropOp28
 70
     1
102
RTVSPost2010Prop29
280
     1
102
RTVSPost2010PropOp29
 70
     1
102
RTVSPost2010Prop30
280
     1
102
RTVSPost2010PropOp30
 70
     1
102
RTVSPost2010Prop31
280
     0
102
RTVSPost2010PropOp31
 70
     1
102
RTVSPost2010Prop32
280
     0
102
RTVSPost2010PropOp32
 70
     1
102
RTVSPost2010Prop33
280
     0
102
RTVSPost2010PropOp33
 70
     1
102
RTVSPost2010Prop34
280
     0
102
RTVSPost2010PropOp34
 70
     1
102
RTVSPost2010Prop35
280
     0
102
RTVSPost2010PropOp35
 70
     1
102
RTVSPost2010Prop36
280
     0
102
RTVSPost2010PropOp36
 70
     1
102
RTVSPost2010Prop37
 90
       50
102
RTVSPost2010PropOp37
 70
     1
102
RTVSPost2010Prop38
140
0.0
102
RTVSPost2010PropOp38
 70
     1
102
RTVSPost2010Prop39
140
1.0
102
RTVSPost2010PropOp39
 70
     1
102
RTVSPost2010Prop40
 90
        0
102
RTVSPost2010PropOp40
 70
     1
102
RTVSPost2010Prop41ColorIndex
 90
       18
102
RTVSPost2010Prop41ColorRGB
 90
        0
102
RTVSPost2010PropOp41
 70
     1
102
RTVSPost2010Prop42
 90
       50
102
RTVSPost2010PropOp42
 70
     1
102
RTVSPost2010Prop43
 90
        3
102
RTVSPost2010PropOp43
 70
     1
102
RTVSPost2010Prop44ColorIndex
 90
        5
102
RTVSPost2010Prop44ColorRGB
 90
      255
102
RTVSPost2010PropOp44
 70
     1
102
RTVSPost2010Prop45
280
     0
102
RTVSPost2010PropOp45
 70
     1
102
RTVSPost2010Prop46
 90
       50
102
RTVSPost2010PropOp46
 70
     1
102
RTVSPost2010Prop47
 90
       50
102
RTVSPost2010PropOp47
 70
     1
102
RTVSPost2010Prop48
 90
       50
102
RTVSPost2010PropOp48
 70
     1
102
RTVSPost2010Prop49
280
     0
102
RTVSPost2010PropOp49
 70
     1
102
RTVSPost2010Prop50
 90
       50
102
RTVSPost2010PropOp50
 70
     1
102
RTVSPost2010Prop51ColorIndex
 90
      256
102
RTVSPost2010Prop51ColorRGB
 90
-16777216
102
RTVSPost2010PropOp51
 70
     0
102
RTVSPost2010Prop52
140
1.0
102
RTVSPost2010PropOp52
 70
     0
102
RTVSPost2010Prop53
 90
        2
102
RTVSPost2010PropOp53
 70
     1
102
RTVSPost2010Prop54
  1
strokes_ogs.tif
102
RTVSPost2010PropOp54
 70
     1
102
RTVSPost2010Prop55
280
     0
102
RTVSPost2010PropOp55
 70
     1
102
RTVSPost2010Prop56
140
1.0
102
RTVSPost2010PropOp56
 70
     1
102
RTVSPost2010Prop57
140
1.0
102
RTVSPost2010PropOp57
 70
     1
102
RTVSPropertyOp0
 70
     1
102
RTVSPropertyOp1
 70
     1
102
RTVSPropertyOp2
 70
     1
102
RTVSPropertyOp3
 70
     1
102
RTVSPropertyOp4
 70
     1
102
RTVSPropertyOp5
 70
     1
102
RTVSPropertyOp6
 70
     1
102
RTVSPropertyOp7
 70
     1
102
RTVSPropertyOp8
 70
     1
102
RTVSPropertyOp9
 70
     1
102
RTVSPropertyOp10
 70
     1
102
RTVSPropertyOp11
 70
     1
102
RTVSPropertyOp12
 70
     1
102
RTVSPropertyOp13
 70
     1
102
RTVSPropertyOp14
 70
     1
102
RTVSPropertyOp15
 70
     1
102
RTVSPropertyOp16
 70
     1
102
RTVSPropertyOp17
 70
     1
102
RTVSPropertyOp18
 70
     1
102
RTVSPropertyOp19
 70
     1
102
RTVSPropertyOp20
 70
     1
102
RTVSPropertyOp21
 70
     1
102
RTVSPropertyOp22
 70
     1
102
RTVSPropertyOp23
 70
     1
102
RTVSPropertyOp24
 70
     1
102
RTVSPropertyOp25
 70
     1
102
RTVSPropertyOp26
 70
     1
102
RTVSPropertyOp27
 70
     1
102
RTVSPropertyOp28
 70
     1
102
RTVSPropertyOp29
 70
     1
102
RTVSPropertyOp30
 70
     1
102
RTVSPropertyOp31
 70
     1
102
RTVSPropertyOp32
 70
     1
102
RTVSPropertyOp33
 70
     1
102
RTVSPropertyOp34
 70
     1
102
RTVSPropertyOp35
 70
     1
102
RTVSPropertyOp36
 70
     1
102
RTVSPropertyOp37
 70
     1
102
RTVSPropertyOp38
 70
     1
102
RTVSPropertyOp39
 70
     1
102
RTVSPropertyOp40
 70
     1
102
RTVSPropertyOp41
 70
     1
102
RTVSPropertyOp42
 70
     1
102
RTVSPropertyOp43
 70
     1
102
RTVSPropertyOp44
 70
     1
102
RTVSPropertyOp45
 70
     1
102
RTVSPropertyOp46
 70
     1
102
RTVSPropertyOp47
 70
     1
102
RTVSPropertyOp48
 70
     1
102
RTVSPropertyOp49
 70
     1
102
RTVSPropertyOp50
 70
     1
102
RTVSPropertyOp51
 70
     0
102
RTVSPropertyOp52
 70
     0
102
RTVSPropertyOp53
 70
     1
102
RTVSPropertyOp54
 70
     1
102
RTVSPropertyOp55
 70
     1
102
RTVSPropertyOp56
 70
     1
102
RTVSPropertyOp57
 70
     1
102
RTVSPropertyOp58
 70
     1
102
RTVSPropertyOp59
 70
     1
102
RTVSPropertyOp60
 70
     1
102
RTVSPropertyOp61
 70
     1
102
RTVSPropertyOp62
 70
     1
  0
XRECORD
  5
76E
102
{ACAD_REACTORS
330
76D
102
}
330
76D
100
AcDbXrecord
280
     1
102
RTVSPost2010Prop28
280
     0
102
RTVSPost2010PropOp28
 70
     1
102
RTVSPost2010Prop29
280
     1
102
RTVSPost2010PropOp29
 70
     1
102
RTVSPost2010Prop30
280
     1
102
RTVSPost2010PropOp30
 70
     1
102
RTVSPost2010Prop31
280
     0
102
RTVSPost2010PropOp31
 70
     1
102
RTVSPost2010Prop32
280
     0
102
RTVSPost2010PropOp32
 70
     1
102
RTVSPost2010Prop33
280
     0
102
RTVSPost2010PropOp33
 70
     1
102
RTVSPost2010Prop34
280
     0
102
RTVSPost2010PropOp34
 70
     1
102
RTVSPost2010Prop35
280
     0
102
RTVSPost2010PropOp35
 70
     1
102
RTVSPost2010Prop36
280
     0
102
RTVSPost2010PropOp36
 70
     1
102
RTVSPost2010Prop37
 90
       50
102
RTVSPost2010PropOp37
 70
     1
102
RTVSPost2010Prop38
140
0.0
102
RTVSPost2010PropOp38
 70
     1
102
RTVSPost2010Prop39
140
1.0
102
RTVSPost2010PropOp39
 70
     1
102
RTVSPost2010Prop40
 90
        0
102
RTVSPost2010PropOp40
 70
     1
102
RTVSPost2010Prop41ColorIndex
 90
       18
102
RTVSPost2010Prop41ColorRGB
 90
        0
102
RTVSPost2010PropOp41
 70
     1
102
RTVSPost2010Prop42
 90
       50
102
RTVSPost2010PropOp42
 70
     1
102
RTVSPost2010Prop43
 90
        3
102
RTVSPost2010PropOp43
 70
     1
102
RTVSPost2010Prop44ColorIndex
 90
        5
102
RTVSPost2010Prop44ColorRGB
 90
      255
102
RTVSPost2010PropOp44
 70
     1
102
RTVSPost2010Prop45
280
     0
102
RTVSPost2010PropOp45
 70
     1
102
RTVSPost2010Prop46
 90
       50
102
RTVSPost2010PropOp46
 70
     1
102
RTVSPost2010Prop47
 90
       50
102
RTVSPost2010PropOp47
 70
     1
102
RTVSPost2010Prop48
 90
       50
102
RTVSPost2010PropOp48
 70
     1
102
RTVSPost2010Prop49
280
     0
102
RTVSPost2010PropOp49
 70
     1
102
RTVSPost2010Prop50
 90
       50
102
RTVSPost2010PropOp50
 70
     1
102
RTVSPost2010Prop51ColorIndex
 90
      256
102
RTVSPost2010Prop51ColorRGB
 90
-16777216
102
RTVSPost2010PropOp51
 70
     0
102
RTVSPost2010Prop52
140
1.0
102
RTVSPost2010PropOp52
 70
     0
102
RTVSPost2010Prop53
 90
        2
102
RTVSPost2010PropOp53
 70
     1
102
RTVSPost2010Prop54
  1
strokes_ogs.tif
102
RTVSPost2010PropOp54
 70
     1
102
RTVSPost2010Prop55
280
     0
102
RTVSPost2010PropOp55
 70
     1
102
RTVSPost2010Prop56
140
1.0
102
RTVSPost2010PropOp56
 70
     1
102
RTVSPost2010Prop57
140
1.0
102
RTVSPost2010PropOp57
 70
     1
102
RTVSPropertyOp0
 70
     1
102
RTVSPropertyOp1
 70
     1
102
RTVSPropertyOp2
 70
     1
102
RTVSPropertyOp3
 70
     1
102
RTVSPropertyOp4
 70
     1
102
RTVSPropertyOp5
 70
     1
102
RTVSPropertyOp6
 70
     1
102
RTVSPropertyOp7
 70
     1
102
RTVSPropertyOp8
 70
     1
102
RTVSPropertyOp9
 70
     1
102
RTVSPropertyOp10
 70
     1
102
RTVSPropertyOp11
 70
     1
102
RTVSPropertyOp12
 70
     1
102
RTVSPropertyOp13
 70
     1
102
RTVSPropertyOp14
 70
     1
102
RTVSPropertyOp15
 70
     1
102
RTVSPropertyOp16
 70
     1
102
RTVSPropertyOp17
 70
     1
102
RTVSPropertyOp18
 70
     1
102
RTVSPropertyOp19
 70
     1
102
RTVSPropertyOp20
 70
     1
102
RTVSPropertyOp21
 70
     1
102
RTVSPropertyOp22
 70
     1
102
RTVSPropertyOp23
 70
     1
102
RTVSPropertyOp24
 70
     1
102
RTVSPropertyOp25
 70
     1
102
RTVSPropertyOp26
 70
     1
102
RTVSPropertyOp27
 70
     1
102
RTVSPropertyOp28
 70
     1
102
RTVSPropertyOp29
 70
     1
102
RTVSPropertyOp30
 70
     1
102
RTVSPropertyOp31
 70
     1
102
RTVSPropertyOp32
 70
     1
102
RTVSPropertyOp33
 70
     1
102
RTVSPropertyOp34
 70
     1
102
RTVSPropertyOp35
 70
     1
102
RTVSPropertyOp36
 70
     1
102
RTVSPropertyOp37
 70
     1
102
RTVSPropertyOp38
 70
     1
102
RTVSPropertyOp39
 70
     1
102
RTVSPropertyOp40
 70
     1
102
RTVSPropertyOp41
 70
     1
102
RTVSPropertyOp42
 70
     1
102
RTVSPropertyOp43
 70
     1
102
RTVSPropertyOp44
 70
     1
102
RTVSPropertyOp45
 70
     1
102
RTVSPropertyOp46
 70
     1
102
RTVSPropertyOp47
 70
     1
102
RTVSPropertyOp48
 70
     1
102
RTVSPropertyOp49
 70
     1
102
RTVSPropertyOp50
 70
     1
102
RTVSPropertyOp51
 70
     0
102
RTVSPropertyOp52
 70
     0
102
RTVSPropertyOp53
 70
     1
102
RTVSPropertyOp54
 70
     1
102
RTVSPropertyOp55
 70
     1
102
RTVSPropertyOp56
 70
     1
102
RTVSPropertyOp57
 70
     1
102
RTVSPropertyOp58
 70
     1
102
RTVSPropertyOp59
 70
     1
102
RTVSPropertyOp60
 70
     1
102
RTVSPropertyOp61
 70
     1
102
RTVSPropertyOp62
 70
     1
  0
XRECORD
  5
76C
102
{ACAD_REACTORS
330
76B
102
}
330
76B
100
AcDbXrecord
280
     1
102
RTVSPost2010Prop28
280
     0
102
RTVSPost2010PropOp28
 70
     1
102
RTVSPost2010Prop29
280
     1
102
RTVSPost2010PropOp29
 70
     1
102
RTVSPost2010Prop30
280
     1
102
RTVSPost2010PropOp30
 70
     1
102
RTVSPost2010Prop31
280
     0
102
RTVSPost2010PropOp31
 70
     1
102
RTVSPost2010Prop32
280
     0
102
RTVSPost2010PropOp32
 70
     1
102
RTVSPost2010Prop33
280
     0
102
RTVSPost2010PropOp33
 70
     1
102
RTVSPost2010Prop34
280
     0
102
RTVSPost2010PropOp34
 70
     1
102
RTVSPost2010Prop35
280
     0
102
RTVSPost2010PropOp35
 70
     1
102
RTVSPost2010Prop36
280
     0
102
RTVSPost2010PropOp36
 70
     1
102
RTVSPost2010Prop37
 90
       50
102
RTVSPost2010PropOp37
 70
     1
102
RTVSPost2010Prop38
140
0.0
102
RTVSPost2010PropOp38
 70
     1
102
RTVSPost2010Prop39
140
1.0
102
RTVSPost2010PropOp39
 70
     1
102
RTVSPost2010Prop40
 90
        0
102
RTVSPost2010PropOp40
 70
     1
102
RTVSPost2010Prop41ColorIndex
 90
       18
102
RTVSPost2010Prop41ColorRGB
 90
        0
102
RTVSPost2010PropOp41
 70
     1
102
RTVSPost2010Prop42
 90
       50
102
RTVSPost2010PropOp42
 70
     1
102
RTVSPost2010Prop43
 90
        3
102
RTVSPost2010PropOp43
 70
     1
102
RTVSPost2010Prop44ColorIndex
 90
        5
102
RTVSPost2010Prop44ColorRGB
 90
      255
102
RTVSPost2010PropOp44
 70
     1
102
RTVSPost2010Prop45
280
     0
102
RTVSPost2010PropOp45
 70
     1
102
RTVSPost2010Prop46
 90
       50
102
RTVSPost2010PropOp46
 70
     1
102
RTVSPost2010Prop47
 90
       50
102
RTVSPost2010PropOp47
 70
     1
102
RTVSPost2010Prop48
 90
       50
102
RTVSPost2010PropOp48
 70
     1
102
RTVSPost2010Prop49
280
     0
102
RTVSPost2010PropOp49
 70
     1
102
RTVSPost2010Prop50
 90
       50
102
RTVSPost2010PropOp50
 70
     1
102
RTVSPost2010Prop51ColorIndex
 90
      256
102
RTVSPost2010Prop51ColorRGB
 90
-16777216
102
RTVSPost2010PropOp51
 70
     0
102
RTVSPost2010Prop52
140
1.0
102
RTVSPost2010PropOp52
 70
     0
102
RTVSPost2010Prop53
 90
        2
102
RTVSPost2010PropOp53
 70
     1
102
RTVSPost2010Prop54
  1
strokes_ogs.tif
102
RTVSPost2010PropOp54
 70
     1
102
RTVSPost2010Prop55
280
     0
102
RTVSPost2010PropOp55
 70
     1
102
RTVSPost2010Prop56
140
1.0
102
RTVSPost2010PropOp56
 70
     1
102
RTVSPost2010Prop57
140
1.0
102
RTVSPost2010PropOp57
 70
     1
102
RTVSPropertyOp0
 70
     1
102
RTVSPropertyOp1
 70
     1
102
RTVSPropertyOp2
 70
     1
102
RTVSPropertyOp3
 70
     1
102
RTVSPropertyOp4
 70
     1
102
RTVSPropertyOp5
 70
     1
102
RTVSPropertyOp6
 70
     1
102
RTVSPropertyOp7
 70
     1
102
RTVSPropertyOp8
 70
     1
102
RTVSPropertyOp9
 70
     1
102
RTVSPropertyOp10
 70
     1
102
RTVSPropertyOp11
 70
     1
102
RTVSPropertyOp12
 70
     1
102
RTVSPropertyOp13
 70
     1
102
RTVSPropertyOp14
 70
     1
102
RTVSPropertyOp15
 70
     1
102
RTVSPropertyOp16
 70
     1
102
RTVSPropertyOp17
 70
     1
102
RTVSPropertyOp18
 70
     1
102
RTVSPropertyOp19
 70
     1
102
RTVSPropertyOp20
 70
     1
102
RTVSPropertyOp21
 70
     1
102
RTVSPropertyOp22
 70
     1
102
RTVSPropertyOp23
 70
     1
102
RTVSPropertyOp24
 70
     1
102
RTVSPropertyOp25
 70
     1
102
RTVSPropertyOp26
 70
     1
102
RTVSPropertyOp27
 70
     1
102
RTVSPropertyOp28
 70
     1
102
RTVSPropertyOp29
 70
     1
102
RTVSPropertyOp30
 70
     1
102
RTVSPropertyOp31
 70
     1
102
RTVSPropertyOp32
 70
     1
102
RTVSPropertyOp33
 70
     1
102
RTVSPropertyOp34
 70
     1
102
RTVSPropertyOp35
 70
     1
102
RTVSPropertyOp36
 70
     1
102
RTVSPropertyOp37
 70
     1
102
RTVSPropertyOp38
 70
     1
102
RTVSPropertyOp39
 70
     1
102
RTVSPropertyOp40
 70
     1
102
RTVSPropertyOp41
 70
     1
102
RTVSPropertyOp42
 70
     1
102
RTVSPropertyOp43
 70
     1
102
RTVSPropertyOp44
 70
     1
102
RTVSPropertyOp45
 70
     1
102
RTVSPropertyOp46
 70
     1
102
RTVSPropertyOp47
 70
     1
102
RTVSPropertyOp48
 70
     1
102
RTVSPropertyOp49
 70
     1
102
RTVSPropertyOp50
 70
     1
102
RTVSPropertyOp51
 70
     0
102
RTVSPropertyOp52
 70
     0
102
RTVSPropertyOp53
 70
     1
102
RTVSPropertyOp54
 70
     1
102
RTVSPropertyOp55
 70
     1
102
RTVSPropertyOp56
 70
     1
102
RTVSPropertyOp57
 70
     1
102
RTVSPropertyOp58
 70
     1
102
RTVSPropertyOp59
 70
     1
102
RTVSPropertyOp60
 70
     1
102
RTVSPropertyOp61
 70
     1
102
RTVSPropertyOp62
 70
     1
  0
XRECORD
  5
766
102
{ACAD_REACTORS
330
765
102
}
330
765
100
AcDbXrecord
280
     1
102
RTVSPost2010Prop28
280
     0
102
RTVSPost2010PropOp28
 70
     1
102
RTVSPost2010Prop29
280
     1
102
RTVSPost2010PropOp29
 70
     1
102
RTVSPost2010Prop30
280
     1
102
RTVSPost2010PropOp30
 70
     1
102
RTVSPost2010Prop31
280
     0
102
RTVSPost2010PropOp31
 70
     1
102
RTVSPost2010Prop32
280
     0
102
RTVSPost2010PropOp32
 70
     1
102
RTVSPost2010Prop33
280
     0
102
RTVSPost2010PropOp33
 70
     1
102
RTVSPost2010Prop34
280
     0
102
RTVSPost2010PropOp34
 70
     1
102
RTVSPost2010Prop35
280
     0
102
RTVSPost2010PropOp35
 70
     1
102
RTVSPost2010Prop36
280
     0
102
RTVSPost2010PropOp36
 70
     1
102
RTVSPost2010Prop37
 90
       50
102
RTVSPost2010PropOp37
 70
     1
102
RTVSPost2010Prop38
140
0.0
102
RTVSPost2010PropOp38
 70
     1
102
RTVSPost2010Prop39
140
1.0
102
RTVSPost2010PropOp39
 70
     1
102
RTVSPost2010Prop40
 90
        0
102
RTVSPost2010PropOp40
 70
     1
102
RTVSPost2010Prop41ColorIndex
 90
       18
102
RTVSPost2010Prop41ColorRGB
 90
        0
102
RTVSPost2010PropOp41
 70
     1
102
RTVSPost2010Prop42
 90
       50
102
RTVSPost2010PropOp42
 70
     1
102
RTVSPost2010Prop43
 90
        3
102
RTVSPost2010PropOp43
 70
     1
102
RTVSPost2010Prop44ColorIndex
 90
        5
102
RTVSPost2010Prop44ColorRGB
 90
      255
102
RTVSPost2010PropOp44
 70
     1
102
RTVSPost2010Prop45
280
     0
102
RTVSPost2010PropOp45
 70
     1
102
RTVSPost2010Prop46
 90
       50
102
RTVSPost2010PropOp46
 70
     1
102
RTVSPost2010Prop47
 90
       50
102
RTVSPost2010PropOp47
 70
     1
102
RTVSPost2010Prop48
 90
       50
102
RTVSPost2010PropOp48
 70
     1
102
RTVSPost2010Prop49
280
     0
102
RTVSPost2010PropOp49
 70
     1
102
RTVSPost2010Prop50
 90
       50
102
RTVSPost2010PropOp50
 70
     1
102
RTVSPost2010Prop51ColorIndex
 90
      256
102
RTVSPost2010Prop51ColorRGB
 90
-16777216
102
RTVSPost2010PropOp51
 70
     0
102
RTVSPost2010Prop52
140
1.0
102
RTVSPost2010PropOp52
 70
     0
102
RTVSPost2010Prop53
 90
        2
102
RTVSPost2010PropOp53
 70
     1
102
RTVSPost2010Prop54
  1
strokes_ogs.tif
102
RTVSPost2010PropOp54
 70
     1
102
RTVSPost2010Prop55
280
     0
102
RTVSPost2010PropOp55
 70
     1
102
RTVSPost2010Prop56
140
1.0
102
RTVSPost2010PropOp56
 70
     1
102
RTVSPost2010Prop57
140
1.0
102
RTVSPost2010PropOp57
 70
     1
102
RTVSPropertyOp0
 70
     1
102
RTVSPropertyOp1
 70
     1
102
RTVSPropertyOp2
 70
     1
102
RTVSPropertyOp3
 70
     1
102
RTVSPropertyOp4
 70
     1
102
RTVSPropertyOp5
 70
     1
102
RTVSPropertyOp6
 70
     1
102
RTVSPropertyOp7
 70
     1
102
RTVSPropertyOp8
 70
     1
102
RTVSPropertyOp9
 70
     1
102
RTVSPropertyOp10
 70
     1
102
RTVSPropertyOp11
 70
     1
102
RTVSPropertyOp12
 70
     1
102
RTVSPropertyOp13
 70
     1
102
RTVSPropertyOp14
 70
     1
102
RTVSPropertyOp15
 70
     1
102
RTVSPropertyOp16
 70
     1
102
RTVSPropertyOp17
 70
     1
102
RTVSPropertyOp18
 70
     1
102
RTVSPropertyOp19
 70
     1
102
RTVSPropertyOp20
 70
     1
102
RTVSPropertyOp21
 70
     1
102
RTVSPropertyOp22
 70
     1
102
RTVSPropertyOp23
 70
     1
102
RTVSPropertyOp24
 70
     1
102
RTVSPropertyOp25
 70
     1
102
RTVSPropertyOp26
 70
     1
102
RTVSPropertyOp27
 70
     1
102
RTVSPropertyOp28
 70
     1
102
RTVSPropertyOp29
 70
     1
102
RTVSPropertyOp30
 70
     1
102
RTVSPropertyOp31
 70
     1
102
RTVSPropertyOp32
 70
     1
102
RTVSPropertyOp33
 70
     1
102
RTVSPropertyOp34
 70
     1
102
RTVSPropertyOp35
 70
     1
102
RTVSPropertyOp36
 70
     1
102
RTVSPropertyOp37
 70
     1
102
RTVSPropertyOp38
 70
     1
102
RTVSPropertyOp39
 70
     1
102
RTVSPropertyOp40
 70
     1
102
RTVSPropertyOp41
 70
     1
102
RTVSPropertyOp42
 70
     1
102
RTVSPropertyOp43
 70
     1
102
RTVSPropertyOp44
 70
     1
102
RTVSPropertyOp45
 70
     1
102
RTVSPropertyOp46
 70
     1
102
RTVSPropertyOp47
 70
     1
102
RTVSPropertyOp48
 70
     1
102
RTVSPropertyOp49
 70
     1
102
RTVSPropertyOp50
 70
     1
102
RTVSPropertyOp51
 70
     0
102
RTVSPropertyOp52
 70
     0
102
RTVSPropertyOp53
 70
     1
102
RTVSPropertyOp54
 70
     1
102
RTVSPropertyOp55
 70
     1
102
RTVSPropertyOp56
 70
     1
102
RTVSPropertyOp57
 70
     1
102
RTVSPropertyOp58
 70
     1
102
RTVSPropertyOp59
 70
     1
102
RTVSPropertyOp60
 70
     1
102
RTVSPropertyOp61
 70
     1
102
RTVSPropertyOp62
 70
     1
  0
XRECORD
  5
768
102
{ACAD_REACTORS
330
767
102
}
330
767
100
AcDbXrecord
280
     1
102
RTVSPost2010Prop28
280
     0
102
RTVSPost2010PropOp28
 70
     1
102
RTVSPost2010Prop29
280
     1
102
RTVSPost2010PropOp29
 70
     1
102
RTVSPost2010Prop30
280
     1
102
RTVSPost2010PropOp30
 70
     1
102
RTVSPost2010Prop31
280
     0
102
RTVSPost2010PropOp31
 70
     1
102
RTVSPost2010Prop32
280
     0
102
RTVSPost2010PropOp32
 70
     1
102
RTVSPost2010Prop33
280
     0
102
RTVSPost2010PropOp33
 70
     1
102
RTVSPost2010Prop34
280
     0
102
RTVSPost2010PropOp34
 70
     1
102
RTVSPost2010Prop35
280
     0
102
RTVSPost2010PropOp35
 70
     1
102
RTVSPost2010Prop36
280
     0
102
RTVSPost2010PropOp36
 70
     1
102
RTVSPost2010Prop37
 90
       50
102
RTVSPost2010PropOp37
 70
     1
102
RTVSPost2010Prop38
140
0.0
102
RTVSPost2010PropOp38
 70
     1
102
RTVSPost2010Prop39
140
1.0
102
RTVSPost2010PropOp39
 70
     1
102
RTVSPost2010Prop40
 90
        0
102
RTVSPost2010PropOp40
 70
     1
102
RTVSPost2010Prop41ColorIndex
 90
       18
102
RTVSPost2010Prop41ColorRGB
 90
        0
102
RTVSPost2010PropOp41
 70
     1
102
RTVSPost2010Prop42
 90
       50
102
RTVSPost2010PropOp42
 70
     1
102
RTVSPost2010Prop43
 90
        3
102
RTVSPost2010PropOp43
 70
     1
102
RTVSPost2010Prop44ColorIndex
 90
        5
102
RTVSPost2010Prop44ColorRGB
 90
      255
102
RTVSPost2010PropOp44
 70
     1
102
RTVSPost2010Prop45
280
     0
102
RTVSPost2010PropOp45
 70
     1
102
RTVSPost2010Prop46
 90
       50
102
RTVSPost2010PropOp46
 70
     1
102
RTVSPost2010Prop47
 90
       50
102
RTVSPost2010PropOp47
 70
     1
102
RTVSPost2010Prop48
 90
       50
102
RTVSPost2010PropOp48
 70
     1
102
RTVSPost2010Prop49
280
     0
102
RTVSPost2010PropOp49
 70
     1
102
RTVSPost2010Prop50
 90
       50
102
RTVSPost2010PropOp50
 70
     1
102
RTVSPost2010Prop51ColorIndex
 90
      256
102
RTVSPost2010Prop51ColorRGB
 90
-16777216
102
RTVSPost2010PropOp51
 70
     0
102
RTVSPost2010Prop52
140
1.0
102
RTVSPost2010PropOp52
 70
     0
102
RTVSPost2010Prop53
 90
        2
102
RTVSPost2010PropOp53
 70
     1
102
RTVSPost2010Prop54
  1
strokes_ogs.tif
102
RTVSPost2010PropOp54
 70
     1
102
RTVSPost2010Prop55
280
     0
102
RTVSPost2010PropOp55
 70
     1
102
RTVSPost2010Prop56
140
1.0
102
RTVSPost2010PropOp56
 70
     1
102
RTVSPost2010Prop57
140
1.0
102
RTVSPost2010PropOp57
 70
     1
102
RTVSPropertyOp0
 70
     1
102
RTVSPropertyOp1
 70
     1
102
RTVSPropertyOp2
 70
     1
102
RTVSPropertyOp3
 70
     1
102
RTVSPropertyOp4
 70
     1
102
RTVSPropertyOp5
 70
     1
102
RTVSPropertyOp6
 70
     1
102
RTVSPropertyOp7
 70
     1
102
RTVSPropertyOp8
 70
     1
102
RTVSPropertyOp9
 70
     1
102
RTVSPropertyOp10
 70
     1
102
RTVSPropertyOp11
 70
     1
102
RTVSPropertyOp12
 70
     1
102
RTVSPropertyOp13
 70
     1
102
RTVSPropertyOp14
 70
     1
102
RTVSPropertyOp15
 70
     1
102
RTVSPropertyOp16
 70
     1
102
RTVSPropertyOp17
 70
     1
102
RTVSPropertyOp18
 70
     1
102
RTVSPropertyOp19
 70
     1
102
RTVSPropertyOp20
 70
     1
102
RTVSPropertyOp21
 70
     1
102
RTVSPropertyOp22
 70
     1
102
RTVSPropertyOp23
 70
     1
102
RTVSPropertyOp24
 70
     1
102
RTVSPropertyOp25
 70
     1
102
RTVSPropertyOp26
 70
     1
102
RTVSPropertyOp27
 70
     1
102
RTVSPropertyOp28
 70
     1
102
RTVSPropertyOp29
 70
     1
102
RTVSPropertyOp30
 70
     1
102
RTVSPropertyOp31
 70
     1
102
RTVSPropertyOp32
 70
     1
102
RTVSPropertyOp33
 70
     1
102
RTVSPropertyOp34
 70
     1
102
RTVSPropertyOp35
 70
     1
102
RTVSPropertyOp36
 70
     1
102
RTVSPropertyOp37
 70
     1
102
RTVSPropertyOp38
 70
     1
102
RTVSPropertyOp39
 70
     1
102
RTVSPropertyOp40
 70
     1
102
RTVSPropertyOp41
 70
     1
102
RTVSPropertyOp42
 70
     1
102
RTVSPropertyOp43
 70
     1
102
RTVSPropertyOp44
 70
     1
102
RTVSPropertyOp45
 70
     1
102
RTVSPropertyOp46
 70
     1
102
RTVSPropertyOp47
 70
     1
102
RTVSPropertyOp48
 70
     1
102
RTVSPropertyOp49
 70
     1
102
RTVSPropertyOp50
 70
     1
102
RTVSPropertyOp51
 70
     0
102
RTVSPropertyOp52
 70
     0
102
RTVSPropertyOp53
 70
     1
102
RTVSPropertyOp54
 70
     1
102
RTVSPropertyOp55
 70
     1
102
RTVSPropertyOp56
 70
     1
102
RTVSPropertyOp57
 70
     1
102
RTVSPropertyOp58
 70
     1
102
RTVSPropertyOp59
 70
     1
102
RTVSPropertyOp60
 70
     1
102
RTVSPropertyOp61
 70
     1
102
RTVSPropertyOp62
 70
     1
  0
XRECORD
  5
75E
102
{ACAD_REACTORS
330
75D
102
}
330
75D
100
AcDbXrecord
280
     1
102
RTVSPost2010Prop28
280
     0
102
RTVSPost2010PropOp28
 70
     1
102
RTVSPost2010Prop29
280
     1
102
RTVSPost2010PropOp29
 70
     1
102
RTVSPost2010Prop30
280
     1
102
RTVSPost2010PropOp30
 70
     1
102
RTVSPost2010Prop31
280
     0
102
RTVSPost2010PropOp31
 70
     1
102
RTVSPost2010Prop32
280
     0
102
RTVSPost2010PropOp32
 70
     1
102
RTVSPost2010Prop33
280
     0
102
RTVSPost2010PropOp33
 70
     1
102
RTVSPost2010Prop34
280
     0
102
RTVSPost2010PropOp34
 70
     1
102
RTVSPost2010Prop35
280
     0
102
RTVSPost2010PropOp35
 70
     1
102
RTVSPost2010Prop36
280
     0
102
RTVSPost2010PropOp36
 70
     1
102
RTVSPost2010Prop37
 90
       50
102
RTVSPost2010PropOp37
 70
     1
102
RTVSPost2010Prop38
140
0.0
102
RTVSPost2010PropOp38
 70
     1
102
RTVSPost2010Prop39
140
1.0
102
RTVSPost2010PropOp39
 70
     1
102
RTVSPost2010Prop40
 90
        0
102
RTVSPost2010PropOp40
 70
     1
102
RTVSPost2010Prop41ColorIndex
 90
       18
102
RTVSPost2010Prop41ColorRGB
 90
        0
102
RTVSPost2010PropOp41
 70
     1
102
RTVSPost2010Prop42
 90
       50
102
RTVSPost2010PropOp42
 70
     1
102
RTVSPost2010Prop43
 90
        3
102
RTVSPost2010PropOp43
 70
     1
102
RTVSPost2010Prop44ColorIndex
 90
        5
102
RTVSPost2010Prop44ColorRGB
 90
      255
102
RTVSPost2010PropOp44
 70
     1
102
RTVSPost2010Prop45
280
     0
102
RTVSPost2010PropOp45
 70
     1
102
RTVSPost2010Prop46
 90
       50
102
RTVSPost2010PropOp46
 70
     1
102
RTVSPost2010Prop47
 90
       50
102
RTVSPost2010PropOp47
 70
     1
102
RTVSPost2010Prop48
 90
       50
102
RTVSPost2010PropOp48
 70
     1
102
RTVSPost2010Prop49
280
     0
102
RTVSPost2010PropOp49
 70
     1
102
RTVSPost2010Prop50
 90
       50
102
RTVSPost2010PropOp50
 70
     1
102
RTVSPost2010Prop51ColorIndex
 90
      256
102
RTVSPost2010Prop51ColorRGB
 90
-16777216
102
RTVSPost2010PropOp51
 70
     0
102
RTVSPost2010Prop52
140
1.0
102
RTVSPost2010PropOp52
 70
     0
102
RTVSPost2010Prop53
 90
        2
102
RTVSPost2010PropOp53
 70
     1
102
RTVSPost2010Prop54
  1
strokes_ogs.tif
102
RTVSPost2010PropOp54
 70
     1
102
RTVSPost2010Prop55
280
     0
102
RTVSPost2010PropOp55
 70
     1
102
RTVSPost2010Prop56
140
1.0
102
RTVSPost2010PropOp56
 70
     1
102
RTVSPost2010Prop57
140
1.0
102
RTVSPost2010PropOp57
 70
     1
102
RTVSPropertyOp0
 70
     1
102
RTVSPropertyOp1
 70
     1
102
RTVSPropertyOp2
 70
     1
102
RTVSPropertyOp3
 70
     1
102
RTVSPropertyOp4
 70
     1
102
RTVSPropertyOp5
 70
     1
102
RTVSPropertyOp6
 70
     1
102
RTVSPropertyOp7
 70
     1
102
RTVSPropertyOp8
 70
     1
102
RTVSPropertyOp9
 70
     1
102
RTVSPropertyOp10
 70
     1
102
RTVSPropertyOp11
 70
     1
102
RTVSPropertyOp12
 70
     1
102
RTVSPropertyOp13
 70
     1
102
RTVSPropertyOp14
 70
     1
102
RTVSPropertyOp15
 70
     1
102
RTVSPropertyOp16
 70
     1
102
RTVSPropertyOp17
 70
     1
102
RTVSPropertyOp18
 70
     1
102
RTVSPropertyOp19
 70
     1
102
RTVSPropertyOp20
 70
     1
102
RTVSPropertyOp21
 70
     1
102
RTVSPropertyOp22
 70
     1
102
RTVSPropertyOp23
 70
     1
102
RTVSPropertyOp24
 70
     1
102
RTVSPropertyOp25
 70
     1
102
RTVSPropertyOp26
 70
     1
102
RTVSPropertyOp27
 70
     1
102
RTVSPropertyOp28
 70
     1
102
RTVSPropertyOp29
 70
     1
102
RTVSPropertyOp30
 70
     1
102
RTVSPropertyOp31
 70
     1
102
RTVSPropertyOp32
 70
     1
102
RTVSPropertyOp33
 70
     1
102
RTVSPropertyOp34
 70
     1
102
RTVSPropertyOp35
 70
     1
102
RTVSPropertyOp36
 70
     1
102
RTVSPropertyOp37
 70
     1
102
RTVSPropertyOp38
 70
     1
102
RTVSPropertyOp39
 70
     1
102
RTVSPropertyOp40
 70
     1
102
RTVSPropertyOp41
 70
     1
102
RTVSPropertyOp42
 70
     1
102
RTVSPropertyOp43
 70
     1
102
RTVSPropertyOp44
 70
     1
102
RTVSPropertyOp45
 70
     1
102
RTVSPropertyOp46
 70
     1
102
RTVSPropertyOp47
 70
     1
102
RTVSPropertyOp48
 70
     1
102
RTVSPropertyOp49
 70
     1
102
RTVSPropertyOp50
 70
     1
102
RTVSPropertyOp51
 70
     0
102
RTVSPropertyOp52
 70
     0
102
RTVSPropertyOp53
 70
     1
102
RTVSPropertyOp54
 70
     1
102
RTVSPropertyOp55
 70
     1
102
RTVSPropertyOp56
 70
     1
102
RTVSPropertyOp57
 70
     1
102
RTVSPropertyOp58
 70
     1
102
RTVSPropertyOp59
 70
     1
102
RTVSPropertyOp60
 70
     1
102
RTVSPropertyOp61
 70
     1
102
RTVSPropertyOp62
 70
     1
  0
XRECORD
  5
752
102
{ACAD_REACTORS
330
751
102
}
330
751
100
AcDbXrecord
280
     1
102
RTVSPost2010Prop28
280
     0
102
RTVSPost2010PropOp28
 70
     1
102
RTVSPost2010Prop29
280
     1
102
RTVSPost2010PropOp29
 70
     1
102
RTVSPost2010Prop30
280
     1
102
RTVSPost2010PropOp30
 70
     1
102
RTVSPost2010Prop31
280
     0
102
RTVSPost2010PropOp31
 70
     1
102
RTVSPost2010Prop32
280
     0
102
RTVSPost2010PropOp32
 70
     1
102
RTVSPost2010Prop33
280
     0
102
RTVSPost2010PropOp33
 70
     1
102
RTVSPost2010Prop34
280
     0
102
RTVSPost2010PropOp34
 70
     1
102
RTVSPost2010Prop35
280
     0
102
RTVSPost2010PropOp35
 70
     1
102
RTVSPost2010Prop36
280
     0
102
RTVSPost2010PropOp36
 70
     1
102
RTVSPost2010Prop37
 90
       50
102
RTVSPost2010PropOp37
 70
     1
102
RTVSPost2010Prop38
140
0.0
102
RTVSPost2010PropOp38
 70
     1
102
RTVSPost2010Prop39
140
1.0
102
RTVSPost2010PropOp39
 70
     1
102
RTVSPost2010Prop40
 90
        0
102
RTVSPost2010PropOp40
 70
     1
102
RTVSPost2010Prop41ColorIndex
 90
       18
102
RTVSPost2010Prop41ColorRGB
 90
        0
102
RTVSPost2010PropOp41
 70
     1
102
RTVSPost2010Prop42
 90
       50
102
RTVSPost2010PropOp42
 70
     1
102
RTVSPost2010Prop43
 90
        3
102
RTVSPost2010PropOp43
 70
     1
102
RTVSPost2010Prop44ColorIndex
 90
        5
102
RTVSPost2010Prop44ColorRGB
 90
      255
102
RTVSPost2010PropOp44
 70
     1
102
RTVSPost2010Prop45
280
     0
102
RTVSPost2010PropOp45
 70
     1
102
RTVSPost2010Prop46
 90
       50
102
RTVSPost2010PropOp46
 70
     1
102
RTVSPost2010Prop47
 90
       50
102
RTVSPost2010PropOp47
 70
     1
102
RTVSPost2010Prop48
 90
       50
102
RTVSPost2010PropOp48
 70
     1
102
RTVSPost2010Prop49
280
     0
102
RTVSPost2010PropOp49
 70
     1
102
RTVSPost2010Prop50
 90
       50
102
RTVSPost2010PropOp50
 70
     1
102
RTVSPost2010Prop51ColorIndex
 90
      256
102
RTVSPost2010Prop51ColorRGB
 90
-16777216
102
RTVSPost2010PropOp51
 70
     0
102
RTVSPost2010Prop52
140
1.0
102
RTVSPost2010PropOp52
 70
     0
102
RTVSPost2010Prop53
 90
        2
102
RTVSPost2010PropOp53
 70
     1
102
RTVSPost2010Prop54
  1
strokes_ogs.tif
102
RTVSPost2010PropOp54
 70
     1
102
RTVSPost2010Prop55
280
     0
102
RTVSPost2010PropOp55
 70
     1
102
RTVSPost2010Prop56
140
1.0
102
RTVSPost2010PropOp56
 70
     1
102
RTVSPost2010Prop57
140
1.0
102
RTVSPost2010PropOp57
 70
     1
102
RTVSPropertyOp0
 70
     1
102
RTVSPropertyOp1
 70
     1
102
RTVSPropertyOp2
 70
     1
102
RTVSPropertyOp3
 70
     1
102
RTVSPropertyOp4
 70
     1
102
RTVSPropertyOp5
 70
     1
102
RTVSPropertyOp6
 70
     1
102
RTVSPropertyOp7
 70
     1
102
RTVSPropertyOp8
 70
     1
102
RTVSPropertyOp9
 70
     1
102
RTVSPropertyOp10
 70
     1
102
RTVSPropertyOp11
 70
     1
102
RTVSPropertyOp12
 70
     1
102
RTVSPropertyOp13
 70
     1
102
RTVSPropertyOp14
 70
     1
102
RTVSPropertyOp15
 70
     1
102
RTVSPropertyOp16
 70
     1
102
RTVSPropertyOp17
 70
     1
102
RTVSPropertyOp18
 70
     1
102
RTVSPropertyOp19
 70
     1
102
RTVSPropertyOp20
 70
     1
102
RTVSPropertyOp21
 70
     1
102
RTVSPropertyOp22
 70
     1
102
RTVSPropertyOp23
 70
     1
102
RTVSPropertyOp24
 70
     1
102
RTVSPropertyOp25
 70
     1
102
RTVSPropertyOp26
 70
     1
102
RTVSPropertyOp27
 70
     1
102
RTVSPropertyOp28
 70
     1
102
RTVSPropertyOp29
 70
     1
102
RTVSPropertyOp30
 70
     1
102
RTVSPropertyOp31
 70
     1
102
RTVSPropertyOp32
 70
     1
102
RTVSPropertyOp33
 70
     1
102
RTVSPropertyOp34
 70
     1
102
RTVSPropertyOp35
 70
     1
102
RTVSPropertyOp36
 70
     1
102
RTVSPropertyOp37
 70
     1
102
RTVSPropertyOp38
 70
     1
102
RTVSPropertyOp39
 70
     1
102
RTVSPropertyOp40
 70
     1
102
RTVSPropertyOp41
 70
     1
102
RTVSPropertyOp42
 70
     1
102
RTVSPropertyOp43
 70
     1
102
RTVSPropertyOp44
 70
     1
102
RTVSPropertyOp45
 70
     1
102
RTVSPropertyOp46
 70
     1
102
RTVSPropertyOp47
 70
     1
102
RTVSPropertyOp48
 70
     1
102
RTVSPropertyOp49
 70
     1
102
RTVSPropertyOp50
 70
     1
102
RTVSPropertyOp51
 70
     0
102
RTVSPropertyOp52
 70
     0
102
RTVSPropertyOp53
 70
     1
102
RTVSPropertyOp54
 70
     1
102
RTVSPropertyOp55
 70
     1
102
RTVSPropertyOp56
 70
     1
102
RTVSPropertyOp57
 70
     1
102
RTVSPropertyOp58
 70
     1
102
RTVSPropertyOp59
 70
     1
102
RTVSPropertyOp60
 70
     1
102
RTVSPropertyOp61
 70
     1
102
RTVSPropertyOp62
 70
     1
  0
XRECORD
  5
76A
102
{ACAD_REACTORS
330
769
102
}
330
769
100
AcDbXrecord
280
     1
102
RTVSPost2010Prop28
280
     0
102
RTVSPost2010PropOp28
 70
     1
102
RTVSPost2010Prop29
280
     1
102
RTVSPost2010PropOp29
 70
     1
102
RTVSPost2010Prop30
280
     1
102
RTVSPost2010PropOp30
 70
     1
102
RTVSPost2010Prop31
280
     0
102
RTVSPost2010PropOp31
 70
     1
102
RTVSPost2010Prop32
280
     0
102
RTVSPost2010PropOp32
 70
     1
102
RTVSPost2010Prop33
280
     0
102
RTVSPost2010PropOp33
 70
     1
102
RTVSPost2010Prop34
280
     0
102
RTVSPost2010PropOp34
 70
     1
102
RTVSPost2010Prop35
280
     0
102
RTVSPost2010PropOp35
 70
     1
102
RTVSPost2010Prop36
280
     0
102
RTVSPost2010PropOp36
 70
     1
102
RTVSPost2010Prop37
 90
       50
102
RTVSPost2010PropOp37
 70
     1
102
RTVSPost2010Prop38
140
0.0
102
RTVSPost2010PropOp38
 70
     1
102
RTVSPost2010Prop39
140
1.0
102
RTVSPost2010PropOp39
 70
     1
102
RTVSPost2010Prop40
 90
        0
102
RTVSPost2010PropOp40
 70
     1
102
RTVSPost2010Prop41ColorIndex
 90
       18
102
RTVSPost2010Prop41ColorRGB
 90
        0
102
RTVSPost2010PropOp41
 70
     1
102
RTVSPost2010Prop42
 90
       50
102
RTVSPost2010PropOp42
 70
     1
102
RTVSPost2010Prop43
 90
        3
102
RTVSPost2010PropOp43
 70
     1
102
RTVSPost2010Prop44ColorIndex
 90
        5
102
RTVSPost2010Prop44ColorRGB
 90
      255
102
RTVSPost2010PropOp44
 70
     1
102
RTVSPost2010Prop45
280
     0
102
RTVSPost2010PropOp45
 70
     1
102
RTVSPost2010Prop46
 90
       50
102
RTVSPost2010PropOp46
 70
     1
102
RTVSPost2010Prop47
 90
       50
102
RTVSPost2010PropOp47
 70
     1
102
RTVSPost2010Prop48
 90
       50
102
RTVSPost2010PropOp48
 70
     1
102
RTVSPost2010Prop49
280
     0
102
RTVSPost2010PropOp49
 70
     1
102
RTVSPost2010Prop50
 90
       50
102
RTVSPost2010PropOp50
 70
     1
102
RTVSPost2010Prop51ColorIndex
 90
      256
102
RTVSPost2010Prop51ColorRGB
 90
-16777216
102
RTVSPost2010PropOp51
 70
     0
102
RTVSPost2010Prop52
140
1.0
102
RTVSPost2010PropOp52
 70
     0
102
RTVSPost2010Prop53
 90
        2
102
RTVSPost2010PropOp53
 70
     1
102
RTVSPost2010Prop54
  1
strokes_ogs.tif
102
RTVSPost2010PropOp54
 70
     1
102
RTVSPost2010Prop55
280
     0
102
RTVSPost2010PropOp55
 70
     1
102
RTVSPost2010Prop56
140
1.0
102
RTVSPost2010PropOp56
 70
     1
102
RTVSPost2010Prop57
140
1.0
102
RTVSPost2010PropOp57
 70
     1
102
RTVSPropertyOp0
 70
     1
102
RTVSPropertyOp1
 70
     1
102
RTVSPropertyOp2
 70
     1
102
RTVSPropertyOp3
 70
     1
102
RTVSPropertyOp4
 70
     1
102
RTVSPropertyOp5
 70
     1
102
RTVSPropertyOp6
 70
     1
102
RTVSPropertyOp7
 70
     1
102
RTVSPropertyOp8
 70
     1
102
RTVSPropertyOp9
 70
     1
102
RTVSPropertyOp10
 70
     1
102
RTVSPropertyOp11
 70
     1
102
RTVSPropertyOp12
 70
     1
102
RTVSPropertyOp13
 70
     1
102
RTVSPropertyOp14
 70
     1
102
RTVSPropertyOp15
 70
     1
102
RTVSPropertyOp16
 70
     1
102
RTVSPropertyOp17
 70
     1
102
RTVSPropertyOp18
 70
     1
102
RTVSPropertyOp19
 70
     1
102
RTVSPropertyOp20
 70
     1
102
RTVSPropertyOp21
 70
     1
102
RTVSPropertyOp22
 70
     1
102
RTVSPropertyOp23
 70
     1
102
RTVSPropertyOp24
 70
     1
102
RTVSPropertyOp25
 70
     1
102
RTVSPropertyOp26
 70
     1
102
RTVSPropertyOp27
 70
     1
102
RTVSPropertyOp28
 70
     1
102
RTVSPropertyOp29
 70
     1
102
RTVSPropertyOp30
 70
     1
102
RTVSPropertyOp31
 70
     1
102
RTVSPropertyOp32
 70
     1
102
RTVSPropertyOp33
 70
     1
102
RTVSPropertyOp34
 70
     1
102
RTVSPropertyOp35
 70
     1
102
RTVSPropertyOp36
 70
     1
102
RTVSPropertyOp37
 70
     1
102
RTVSPropertyOp38
 70
     1
102
RTVSPropertyOp39
 70
     1
102
RTVSPropertyOp40
 70
     1
102
RTVSPropertyOp41
 70
     1
102
RTVSPropertyOp42
 70
     1
102
RTVSPropertyOp43
 70
     1
102
RTVSPropertyOp44
 70
     1
102
RTVSPropertyOp45
 70
     1
102
RTVSPropertyOp46
 70
     1
102
RTVSPropertyOp47
 70
     1
102
RTVSPropertyOp48
 70
     1
102
RTVSPropertyOp49
 70
     1
102
RTVSPropertyOp50
 70
     1
102
RTVSPropertyOp51
 70
     0
102
RTVSPropertyOp52
 70
     0
102
RTVSPropertyOp53
 70
     1
102
RTVSPropertyOp54
 70
     1
102
RTVSPropertyOp55
 70
     1
102
RTVSPropertyOp56
 70
     1
102
RTVSPropertyOp57
 70
     1
102
RTVSPropertyOp58
 70
     1
102
RTVSPropertyOp59
 70
     1
102
RTVSPropertyOp60
 70
     1
102
RTVSPropertyOp61
 70
     1
102
RTVSPropertyOp62
 70
     1
  0
ENDSEC
  0
EOF
