  0
SECTION
  2
HEADER
  9
$ACADVER
  1
AC1009
  9
$INSBASE
 10
0.0
 20
0.0
 30
0.0
  9
$EXTMIN
 10
-574.99999999999989
 20
-867.35954249999963
 30
0.0
  9
$EXTMAX
 10
775.0
 20
1137.9567975
 30
0.0
  9
$LIMMIN
 10
0.0
 20
0.0
  9
$LIMMAX
 10
0.0
 20
0.0
  9
$ORTHOMODE
 70
     0
  9
$REGENMODE
 70
     1
  9
$FILLMODE
 70
     1
  9
$QTEXTMODE
 70
     0
  9
$MIRRTEXT
 70
     1
  9
$DRAGMODE
 70
     2
  9
$LTSCALE
 40
38.100000000000001
  9
$OSMODE
 70
   231
  9
$ATTMODE
 70
     1
  9
$TEXTSIZE
 40
0.0
  9
$TRACEWID
 40
1.0
  9
$TEXTSTYLE
  7
STANDARD
  9
$CLAYER
  8
DATA
  9
$CELTYPE
  6
BYLAYER
  9
$CECOLOR
 62
   256
  9
$DIMSCALE
 40
1.0
  9
$DIMASZ
 40
0.18
  9
$DIMEXO
 40
0.0625
  9
$DIMDLI
 40
0.38
  9
$DIMRND
 40
0.0
  9
$DIMDLE
 40
0.0
  9
$DIMEXE
 40
0.18
  9
$DIMTP
 40
0.0
  9
$DIMTM
 40
0.0
  9
$DIMTXT
 40
0.18
  9
$DIMCEN
 40
0.09
  9
$DIMTSZ
 40
0.0
  9
$DIMTOL
 70
     0
  9
$DIMLIM
 70
     0
  9
$DIMTIH
 70
     1
  9
$DIMTOH
 70
     1
  9
$DIMSE1
 70
     0
  9
$DIMSE2
 70
     0
  9
$DIMTAD
 70
     0
  9
$DIMZIN
 70
     0
  9
$DIMBLK
  1

  9
$DIMASO
 70
     1
  9
$DIMSHO
 70
     1
  9
$DIMPOST
  1

  9
$DIMAPOST
  1

  9
$DIMALT
 70
     0
  9
$DIMALTD
 70
     2
  9
$DIMALTF
 40
25.399999999999999
  9
$DIMLFAC
 40
1.0
  9
$DIMTOFL
 70
     0
  9
$DIMTVP
 40
0.0
  9
$DIMTIX
 70
     0
  9
$DIMSOXD
 70
     0
  9
$DIMSAH
 70
     0
  9
$DIMBLK1
  1

  9
$DIMBLK2
  1

  9
$DIMSTYLE
  2
STANDARD
  9
$DIMCLRD
 70
     0
  9
$DIMCLRE
 70
     0
  9
$DIMCLRT
 70
     0
  9
$DIMTFAC
 40
1.0
  9
$DIMGAP
 40
0.09
  9
$LUNITS
 70
     2
  9
$LUPREC
 70
     4
  9
$SKETCHINC
 40
0.1
  9
$FILLETRAD
 40
0.0
  9
$AUNITS
 70
     0
  9
$AUPREC
 70
     0
  9
$MENU
  1
acad
  9
$ELEVATION
 40
0.0
  9
$PELEVATION
 40
0.0
  9
$THICKNESS
 40
0.0
  9
$LIMCHECK
 70
     0
  9
$BLIPMODE
 70
     0
  9
$CHAMFERA
 40
0.0
  9
$CHAMFERB
 40
0.0
  9
$SKPOLY
 70
     0
  9
$TDCREATE
 40
2452878.8825347219
  9
$TDUPDATE
 40
2455607.7370849419
  9
$TDINDWG
 40
0.0007572222
  9
$TDUSRTIMER
 40
0.0007572222
  9
$USRTIMER
 70
     1
  9
$ANGBASE
 50
0.0
  9
$ANGDIR
 70
     0
  9
$PDMODE
 70
     1
  9
$PDSIZE
 40
-2.0
  9
$PLINEWID
 40
0.0
  9
$COORDS
 70
     1
  9
$SPLFRAME
 70
     0
  9
$SPLINETYPE
 70
     6
  9
$SPLINESEGS
 70
     8
  9
$ATTDIA
 70
     0
  9
$ATTREQ
 70
     1
  9
$HANDLING
 70
     1
  9
$HANDSEED
  5
E12
  9
$SURFTAB1
 70
     6
  9
$SURFTAB2
 70
     6
  9
$SURFTYPE
 70
     6
  9
$SURFU
 70
     6
  9
$SURFV
 70
     6
  9
$UCSNAME
  2

  9
$UCSORG
 10
0.0
 20
0.0
 30
0.0
  9
$UCSXDIR
 10
1.0
 20
0.0
 30
0.0
  9
$UCSYDIR
 10
0.0
 20
1.0
 30
0.0
  9
$PUCSNAME
  2

  9
$PUCSORG
 10
0.0
 20
0.0
 30
0.0
  9
$PUCSXDIR
 10
1.0
 20
0.0
 30
0.0
  9
$PUCSYDIR
 10
0.0
 20
1.0
 30
0.0
  9
$USERI1
 70
     0
  9
$USERI2
 70
     0
  9
$USERI3
 70
     0
  9
$USERI4
 70
     0
  9
$USERI5
 70
     0
  9
$USERR1
 40
0.0
  9
$USERR2
 40
0.0
  9
$USERR3
 40
0.0
  9
$USERR4
 40
0.0
  9
$USERR5
 40
0.0
  9
$WORLDVIEW
 70
     1
  9
$SHADEDGE
 70
     3
  9
$SHADEDIF
 70
    70
  9
$TILEMODE
 70
     1
  9
$MAXACTVP
 70
    16
  9
$PLIMCHECK
 70
     0
  9
$PEXTMIN
 10
1.0000000000000000E+020
 20
1.0000000000000000E+020
 30
1.0000000000000000E+020
  9
$PEXTMAX
 10
-1.0000000000000000E+020
 20
-1.0000000000000000E+020
 30
-1.0000000000000000E+020
  9
$PLIMMIN
 10
0.0
 20
0.0
  9
$PLIMMAX
 10
12.0
 20
9.0
  9
$UNITMODE
 70
     0
  9
$VISRETAIN
 70
     0
  9
$PLINEGEN
 70
     1
  9
$PSLTSCALE
 70
     0
  0
ENDSEC
  0
SECTION
  2
TABLES
  0
TABLE
  2
VPORT
 70
     1
  0
VPORT
  2
*ACTIVE
 70
     0
 10
0.0
 20
0.0
 11
1.0
 21
1.0
 12
100.00000628662021
 22
135.32208156988031
 13
0.0
 23
0.0
 14
1.0
 24
1.0
 15
0.0
 25
0.0
 16
0.0
 26
0.0
 36
1.0
 17
0.0
 27
0.0
 37
0.0
 40
2020.278622945697
 41
1.9619164619164611
 42
50.0
 43
0.0
 44
0.0
 50
0.0
 51
0.0
 71
     0
 72
   100
 73
     1
 74
     1
 75
     0
 76
     0
 77
     0
 78
     0
  0
ENDTAB
  0
TABLE
  2
LTYPE
 70
     1
  0
LTYPE
  2
CONTINUOUS
 70
     0
  3
Solid line
 72
    65
 73
     0
 40
0.0
  0
ENDTAB
  0
TABLE
  2
LAYER
 70
     5
  0
LAYER
  2
0
 70
     0
 62
     7
  6
CONTINUOUS
  0
LAYER
  2
DATA
 70
     0
 62
     7
  6
CONTINUOUS
  0
LAYER
  2
DEFPOINTS
 70
     0
 62
     7
  6
CONTINUOUS
  0
LAYER
  2
HIBINO-BASE
 70
     0
 62
     7
  6
CONTINUOUS
  0
LAYER
  2
DIMNSIONS
 70
     0
 62
     7
  6
CONTINUOUS
  0
ENDTAB
  0
TABLE
  2
STYLE
 70
     2
  0
STYLE
  2
STANDARD
 70
     0
 40
0.0
 41
1.0
 50
0.0
 71
     0
 42
0.0
  3
txt
  4
BIGFONT.SHX
  0
ENDTAB
  0
TABLE
  2
VIEW
 70
     0
  0
ENDTAB
  0
TABLE
  2
UCS
 70
     0
  0
ENDTAB
  0
TABLE
  2
APPID
 70
     3
  0
APPID
  2
ACAD
 70
     0
  0
APPID
  2
ACADANNOTATIVE
 70
     0
  0
APPID
  2
ACAD_MLEADERVER
 70
     0
  0
ENDTAB
  0
TABLE
  2
DIMSTYLE
 70
     2
  0
DIMSTYLE
  2
STANDARD
 70
     0
  3

  4

  5

  6

  7

 40
1.0
 41
0.18
 42
0.0625
 43
0.38
 44
0.18
 45
0.0
 46
0.0
 47
0.0
 48
0.0
140
0.18
141
0.09
142
0.0
143
25.399999999999999
144
1.0
145
0.0
146
1.0
147
0.09
 71
     0
 72
     0
 73
     1
 74
     1
 75
     0
 76
     0
 77
     0
 78
     0
170
     0
171
     2
172
     0
173
     0
174
     0
175
     0
176
     0
177
     0
178
     0
  0
ENDTAB
  0
ENDSEC
  0
SECTION
  2
BLOCKS
  0
BLOCK
  8
0
  2
$MODEL_SPACE
 70
     0
 10
0.0
 20
0.0
 30
0.0
  3
$MODEL_SPACE
  1

  0
ENDBLK
  5
B3D
  8
0
  0
BLOCK
 67
     1
  8
0
  2
$PAPER_SPACE
 70
     0
 10
0.0
 20
0.0
 30
0.0
  3
$PAPER_SPACE
  1

  0
ENDBLK
  5
B39
 67
     1
  8
0
  0
ENDSEC
  0
SECTION
  2
ENTITIES
  0
LINE
  5
2C
  8
HIBINO-BASE
 62
     7
 10
-574.99999999999989
 20
1137.9567975
 30
0.0
 11
775.0
 21
1137.9567975
 31
0.0
  0
LINE
  5
2D
  8
HIBINO-BASE
 62
     7
 10
775.0
 20
-812.04320250000012
 30
0.0
 11
-574.99999999999989
 21
-812.04320250000012
 31
0.0
  0
LINE
  5
2E
  8
HIBINO-BASE
 62
     7
 10
-574.99999999999989
 20
-812.04320250000012
 30
0.0
 11
-574.99999999999989
 21
1137.9567975
 31
0.0
  0
TEXT
  5
2F
  8
HIBINO-BASE
 62
     7
 10
-521.11999999999978
 20
-858.00308249999955
 30
0.0
 40
28.069379999999999
  1
Hibino Corporation
 41
0.7
 11
-521.11999999999978
 21
-829.93370249999964
 31
0.0
 73
     3
  0
LINE
  5
30
  8
HIBINO-BASE
 62
     7
 10
775.0
 20
1137.9567975
 30
0.0
 11
775.0
 21
-812.04320250000012
 31
0.0
  0
LINE
  5
31
  8
HIBINO-BASE
 62
     7
 10
100.0
 20
-643.29320250000001
 30
0.0
 11
775.0
 21
-643.29320250000001
 31
0.0
  0
LINE
  5
32
  8
HIBINO-BASE
 62
     7
 10
100.0
 20
-812.04320250000012
 30
0.0
 11
100.0
 21
-643.29320250000001
 31
0.0
  0
TEXT
  5
33
  8
HIBINO-BASE
 62
     7
 10
106.75
 20
-661.15590250000002
 30
0.0
 40
12.699999999999999
  1
NOTE
 41
0.7
 11
106.75
 21
-648.45590249999998
 31
0.0
 73
     3
  0
LINE
  5
34
  8
HIBINO-BASE
 62
     7
 10
362.5
 20
-812.04320250000012
 30
0.0
 11
362.5
 21
-643.29320250000001
 31
0.0
  0
TEXT
  5
35
  8
HIBINO-BASE
 62
     7
 10
369.25
 20
-661.15590250000002
 30
0.0
 40
12.699999999999999
  1
TITLE
 41
0.7
 11
369.25
 21
-648.45590249999998
 31
0.0
 73
     3
  0
TEXT
  5
36
  8
HIBINO-BASE
 62
     7
 10
475.51292499999988
 20
-858.00308249999955
 30
0.0
 40
28.069379999999999
  1
ヒビノ株式会社
 41
0.7
 11
475.51292499999988
 21
-829.93370249999964
 31
0.0
 73
     3
  0
LINE
  5
37
  8
HIBINO-BASE
 62
     7
 10
100.0
 20
-737.04320250000001
 30
0.0
 11
775.0
 21
-737.04320250000001
 31
0.0
  0
TEXT
  5
38
  8
HIBINO-BASE
 62
     7
 10
463.0
 20
-754.4835025000001
 30
0.0
 40
12.699999999999999
  1
DRAWN
 41
0.7
 11
463.0
 21
-741.78350250000005
 31
0.0
 73
     3
  0
TEXT
  5
39
  8
HIBINO-BASE
 62
     7
 10
275.5
 20
-754.4835025000001
 30
0.0
 40
12.699999999999999
  1
DATE
 41
0.7
 11
275.5
 21
-741.78350250000005
 31
0.0
 73
     3
  0
TEXT
  5
3A
  8
HIBINO-BASE
 62
     7
 10
200.5
 20
-754.4835025000001
 30
0.0
 40
12.699999999999999
  1
SCALE
 41
0.7
 11
200.5
 21
-741.78350250000005
 31
0.0
 73
     3
  0
TEXT
  5
3B
  8
HIBINO-BASE
 62
     7
 10
369.25
 20
-754.4835025000001
 30
0.0
 40
12.699999999999999
  1
DESIGN
 41
0.7
 11
369.25
 21
-741.78350250000005
 31
0.0
 73
     3
  0
TEXT
  5
3C
  8
HIBINO-BASE
 62
     7
 10
650.49999999999989
 20
-754.4835025000001
 30
0.0
 40
12.699999999999999
  1
DRAWING NO.
 41
0.7
 11
650.49999999999989
 21
-741.78350250000005
 31
0.0
 73
     3
  0
TEXT
  5
3D
  8
HIBINO-BASE
 62
     7
 10
556.74999999999989
 20
-754.4835025000001
 30
0.0
 40
12.699999999999999
  1
CHECK
 41
0.7
 11
556.74999999999989
 21
-741.78350250000005
 31
0.0
 73
     3
  0
LINE
  5
3E
  8
HIBINO-BASE
 62
     7
 10
207.8125
 20
-802.66820250000012
 30
0.0
 11
235.9375
 21
-774.54320250000001
 31
0.0
  0
TEXT
  5
3F
  8
HIBINO-BASE
 62
     7
 10
203.125
 20
-781.90777750000007
 30
0.0
 40
12.699999999999999
  1
1
 41
0.7
 11
203.125
 21
-769.20777750000002
 31
0.0
 73
     3
  0
LINE
  5
40
  8
HIBINO-BASE
 62
     7
 10
193.75
 20
-812.04320250000012
 30
0.0
 11
193.75
 21
-737.04320250000001
 31
0.0
  0
LINE
  5
41
  8
HIBINO-BASE
 62
     7
 10
268.75
 20
-812.04320250000012
 30
0.0
 11
268.75
 21
-737.04320250000001
 31
0.0
  0
LINE
  5
42
  8
HIBINO-BASE
 62
     7
 10
456.24999999999989
 20
-737.04320250000001
 30
0.0
 11
456.24999999999989
 21
-812.04320250000012
 31
0.0
  0
LINE
  5
43
  8
HIBINO-BASE
 62
     7
 10
643.75
 20
-737.04320250000001
 30
0.0
 11
643.75
 21
-812.04320250000012
 31
0.0
  0
LINE
  5
44
  8
HIBINO-BASE
 62
     7
 10
549.99999999999989
 20
-812.04320250000012
 30
0.0
 11
549.99999999999989
 21
-737.04320250000001
 31
0.0
  0
TEXT
  5
45
  8
HIBINO-BASE
 62
     7
 10
275.17405000000002
 20
-789.61335249999979
 30
0.0
 40
12.699999999999999
  1
'03.08.
 41
0.7
 11
275.17405000000002
 21
-776.91335249999986
 31
0.0
 73
     3
  0
TEXT
  5
46
  8
HIBINO-BASE
 62
     7
 10
231.25
 20
-795.97027750000007
 30
0.0
 40
12.699999999999999
  1
7.5
 41
0.7
 11
231.25
 21
-783.27027750000002
 31
0.0
 73
     3
  0
TEXT
  5
47
  8
HIBINO-BASE
 62
     7
 10
467.54357508275939
 20
-789.61335249999979
 30
0.0
 40
12.699999999999999
  1
N.Sasaki
 41
0.7
 11
467.54357508275939
 21
-776.91335249999986
 31
0.0
 73
     3
  0
TEXT
  5
48
  8
HIBINO-BASE
 62
     7
 10
129.12500000000011
 20
-795.31820249999998
 30
0.0
 40
25.399999999999999
  1
A4
 41
0.7
 11
129.12500000000011
 21
-769.91820249999989
 31
0.0
 73
     3
  0
TEXT
  5
49
  8
HIBINO-BASE
 62
     7
 10
107.1874999999999
 20
-755.73661500000003
 30
0.0
 40
12.699999999999999
  1
PAPER SIZE
 41
0.7
 11
107.1874999999999
 21
-743.03661499999998
 31
0.0
 73
     3
  0
TEXT
  5
4A
  8
DIMNSIONS
 62
     7
 10
-50.0
 20
-718.5932775
 30
0.0
 40
19.050000000000001
  1
(単位：mm)
 41
0.7
 11
-50.0
 21
-699.54327750000004
 31
0.0
 73
     3
  0
LINE
  5
4B
  8
DIMNSIONS
 62
     7
 10
281.81202871128119
 20
224.2280628997292
 30
0.0
 11
325.0
 21
325.0
 31
0.0
  0
LINE
  5
4C
  8
DIMNSIONS
 62
     7
 10
281.81202871128119
 20
224.2280628997292
 30
0.0
 11
284.84940131465208
 21
243.4052787748933
 31
0.0
  0
LINE
  5
4D
  8
DIMNSIONS
 62
     7
 10
281.81202871128119
 20
224.2280628997292
 30
0.0
 11
294.03107848414112
 21
239.31733271979419
 31
0.0
  0
LINE
  5
4E
  8
DIMNSIONS
 62
     7
 10
325.0
 20
325.0
 30
0.0
 11
445.83333333333331
 21
325.0
 31
0.0
  0
TEXT
  5
4F
  8
DIMNSIONS
 62
     7
 10
340.0
 20
334.04166666666669
 30
0.0
 40
21.166666666666671
  1
10-\U+03C69.2
 41
0.7
 11
340.0
 21
355.20833333333343
 31
0.0
 73
     3
  0
LINE
  5
50
  8
DIMNSIONS
 62
     7
 10
159.7257590002659
 20
142.87684994113741
 30
0.0
 11
100.0
 21
99.126849941137408
 31
0.0
  0
LINE
  5
51
  8
DIMNSIONS
 62
     7
 10
159.7257590002659
 20
142.87684994113741
 30
0.0
 11
149.95354932451309
 21
130.80917599948589
 31
0.0
  0
LINE
  5
52
  8
DIMNSIONS
 62
     7
 10
159.7257590002659
 20
142.87684994113741
 30
0.0
 11
145.22894019913019
 21
137.3120425809561
 31
0.0
  0
LINE
  5
53
  8
DIMNSIONS
 62
     7
 10
-75.000000000000014
 20
99.126849941137408
 30
0.0
 11
100.0
 21
99.126849941137408
 31
0.0
  0
TEXT
  5
54
  8
DIMNSIONS
 62
     7
 10
-53.125001509984351
 20
114.25184994113729
 30
0.0
 40
15.0
  1
文字　スリット
 41
0.7
  0
TEXT
  5
55
  8
DIMNSIONS
 62
     7
 10
-53.125001509984351
 20
70.501849941137365
 30
0.0
 40
15.0
  1
矢印　穴抜き
 41
0.7
  0
LINE
  5
56
  8
DIMNSIONS
 62
     7
 10
160.91923877895101
 20
226.43466744902591
 30
0.0
 11
175.0
 21
325.0
 31
0.0
  0
LINE
  5
57
  8
DIMNSIONS
 62
     7
 10
160.91923877895101
 20
226.43466744902591
 30
0.0
 11
158.88968672007471
 21
245.74456541599261
 31
0.0
  0
LINE
  5
58
  8
DIMNSIONS
 62
     7
 10
160.91923877895101
 20
226.43466744902591
 30
0.0
 11
168.8165441211444
 21
244.17230566234269
 31
0.0
  0
LINE
  5
59
  8
DIMNSIONS
 62
     7
 10
175.0
 20
325.0
 30
0.0
 11
269.375
 21
325.0
 31
0.0
  0
TEXT
  5
5A
  8
DIMNSIONS
 62
     7
 10
190.0
 20
334.04166666666669
 30
0.0
 40
21.166666666666671
  1
4-\U+03C613
 41
0.7
 11
190.0
 21
355.20833333333343
 31
0.0
 73
     3
  0
LINE
  5
5B
  8
DIMNSIONS
 62
     7
 10
-283.89940000000001
 20
-91.124050058862622
 30
0.0
 11
-175.0
 21
-0.8731500588626204
 31
0.0
  0
LINE
  5
5C
  8
DIMNSIONS
 62
     7
 10
-283.89940000000001
 20
-91.124050058862622
 30
0.0
 11
-274.77215605334322
 21
-78.56147650695425
 31
0.0
  0
LINE
  5
5D
  8
DIMNSIONS
 62
     7
 10
-283.89940000000001
 20
-91.124050058862622
 30
0.0
 11
-269.71368809970329
 21
-84.808164199327805
 31
0.0
  0
LINE
  5
5E
  8
DIMNSIONS
 62
     7
 10
-175.0
 20
-0.8731500588626204
 30
0.0
 11
50.0
 21
-0.8731500588626204
 31
0.0
  0
LINE
  5
5F
  8
DIMNSIONS
 62
     7
 10
-223.93822207500011
 20
-140.07048183586249
 30
0.0
 11
-125.0
 21
-75.873150058862635
 31
0.0
  0
LINE
  5
60
  8
DIMNSIONS
 62
     7
 10
-223.93822207500011
 20
-140.07048183586249
 30
0.0
 11
-213.3480186304044
 21
-128.71387902908251
 31
0.0
  0
LINE
  5
61
  8
DIMNSIONS
 62
     7
 10
-223.93822207500011
 20
-140.07048183586249
 30
0.0
 11
-209.0885354573447
 21
-135.53047702679919
 31
0.0
  0
LINE
  5
62
  8
DIMNSIONS
 62
     7
 10
-125.0
 20
-75.873150058862635
 30
0.0
 11
50.0
 21
-75.873150058862635
 31
0.0
  0
TEXT
  5
63
  8
DIMNSIONS
 62
     7
 10
-103.1250015099843
 20
-66.99815005886262
 30
0.0
 40
15.0
  1
角度固定ねじ
 41
0.7
  0
TEXT
  5
64
  8
DIMNSIONS
 62
     7
 10
-103.1250015099843
 20
-98.248150058862635
 30
0.0
 40
15.0
  1
Ｍ６→Ｍ５変更
 41
0.7
  0
LINE
  5
65
  8
DIMNSIONS
 62
     7
 10
282.91289383518267
 20
1023.5602035763339
 30
0.0
 11
325.0
 21
1075.0
 31
0.0
  0
LINE
  5
66
  8
DIMNSIONS
 62
     7
 10
282.91289383518267
 20
1023.5602035763339
 30
0.0
 11
291.11856085085742
 21
1041.1573132788451
 31
0.0
  0
LINE
  5
67
  8
DIMNSIONS
 62
     7
 10
282.91289383518267
 20
1023.5602035763339
 30
0.0
 11
298.81776477700868
 21
1034.696914104052
 31
0.0
  0
LINE
  5
68
  8
DIMNSIONS
 62
     7
 10
325.0
 20
1075.0
 30
0.0
 11
445.83333333333331
 21
1075.0
 31
0.0
  0
TEXT
  5
69
  8
DIMNSIONS
 62
     7
 10
340.0
 20
1084.0416666666661
 30
0.0
 40
21.166666666666671
  1
10-\U+03C69.2
 41
0.7
 11
340.0
 21
1105.208333333333
 31
0.0
 73
     3
  0
LINE
  5
6A
  8
DIMNSIONS
 62
     7
 10
161.71026313764861
 20
1026.2709648380439
 30
0.0
 11
175.0
 21
1075.0
 31
0.0
  0
LINE
  5
6B
  8
DIMNSIONS
 62
     7
 10
161.71026313764861
 20
1026.2709648380439
 30
0.0
 11
162.04912363850991
 21
1045.6842699305651
 31
0.0
  0
LINE
  5
6C
  8
DIMNSIONS
 62
     7
 10
161.71026313764861
 20
1026.2709648380439
 30
0.0
 11
171.7103774859942
 21
1042.9139499691551
 31
0.0
  0
LINE
  5
6D
  8
DIMNSIONS
 62
     7
 10
175.0
 20
1075.0
 30
0.0
 11
269.375
 21
1075.0
 31
0.0
  0
TEXT
  5
6E
  8
DIMNSIONS
 62
     7
 10
190.0
 20
1084.0416666666661
 30
0.0
 40
21.166666666666671
  1
4-\U+03C613
 41
0.7
 11
190.0
 21
1105.208333333333
 31
0.0
 73
     3
  0
LINE
  5
6F
  8
DIMNSIONS
 62
     7
 10
122.0499999999999
 20
1037.5999999999999
 30
0.0
 11
-65.000000000000014
 21
1037.5999999999999
 31
0.0
  0
LINE
  5
70
  8
DIMNSIONS
 62
     7
 10
122.0499999999999
 20
862.39999999999998
 30
0.0
 11
-65.000000000000014
 21
862.39999999999998
 31
0.0
  0
LINE
  5
71
  8
DIMNSIONS
 62
     7
 10
-50.0
 20
1037.5999999999999
 30
0.0
 11
-50.0
 21
862.39999999999998
 31
0.0
  0
LINE
  5
72
  8
DIMNSIONS
 62
     7
 10
-50.0
 20
1037.5999999999999
 30
0.0
 11
-44.974701536373182
 21
1018.845330810547
 31
0.0
  0
LINE
  5
73
  8
DIMNSIONS
 62
     7
 10
-50.0
 20
1037.5999999999999
 30
0.0
 11
-55.025298463626832
 21
1018.845330810547
 31
0.0
  0
LINE
  5
74
  8
DIMNSIONS
 62
     7
 10
-50.0
 20
862.39999999999998
 30
0.0
 11
-55.025298463626832
 21
881.15466918945299
 31
0.0
  0
LINE
  5
75
  8
DIMNSIONS
 62
     7
 10
-50.0
 20
862.39999999999998
 30
0.0
 11
-44.974701536373182
 21
881.15466918945299
 31
0.0
  0
TEXT
  5
76
  8
DIMNSIONS
 62
     7
 10
-59.04166666666665
 20
916.92708333333314
 30
0.0
 40
21.166666666666671
  1
175.2
 50
90.0
 41
0.7
 11
-80.208333333333329
 21
916.92708333333314
 31
0.0
 73
     3
  0
LINE
  5
77
  8
DIMNSIONS
 62
     7
 10
138.5000000000002
 20
1020.0
 30
0.0
 11
-15.000000000000011
 21
1020.0
 31
0.0
  0
LINE
  5
78
  8
DIMNSIONS
 62
     7
 10
138.5000000000002
 20
880.0
 30
0.0
 11
-15.000000000000011
 21
880.0
 31
0.0
  0
LINE
  5
79
  8
DIMNSIONS
 62
     7
 10
-0.0000000000000142
 20
1020.0
 30
0.0
 11
-0.0000000000000142
 21
880.0
 31
0.0
  0
LINE
  5
7A
  8
DIMNSIONS
 62
     7
 10
-0.0000000000000142
 20
1020.0
 30
0.0
 11
5.0252984636267941
 21
1001.245330810547
 31
0.0
  0
LINE
  5
7B
  8
DIMNSIONS
 62
     7
 10
-0.0000000000000142
 20
1020.0
 30
0.0
 11
-5.0252984636268403
 21
1001.245330810547
 31
0.0
  0
LINE
  5
7C
  8
DIMNSIONS
 62
     7
 10
-0.0000000000000142
 20
880.0
 30
0.0
 11
-5.0252984636268403
 21
898.75466918945312
 31
0.0
  0
LINE
  5
7D
  8
DIMNSIONS
 62
     7
 10
-0.0000000000000142
 20
880.0
 30
0.0
 11
5.0252984636268092
 21
898.75466918945312
 31
0.0
  0
TEXT
  5
7E
  8
DIMNSIONS
 62
     7
 10
-9.0416666666666856
 20
930.15625000000011
 30
0.0
 40
21.166666666666671
  1
140
 50
90.0
 41
0.7
 11
-30.208333333333361
 21
930.15625000000011
 31
0.0
 73
     3
  0
LINE
  5
7F
  8
DIMNSIONS
 62
     7
 10
138.5000000000002
 20
1020.0
 30
0.0
 11
-15.000000000000011
 21
1020.0
 31
0.0
  0
LINE
  5
80
  8
DIMNSIONS
 62
     7
 10
122.0499999999999
 20
1037.5999999999999
 30
0.0
 11
-15.000000000000011
 21
1037.5999999999999
 31
0.0
  0
LINE
  5
81
  8
DIMNSIONS
 62
     7
 10
-0.0000000000000142
 20
1037.5999999999999
 30
0.0
 11
-0.0000000000000142
 21
1020.0
 31
0.0
  0
LINE
  5
82
  8
DIMNSIONS
 62
     7
 10
-0.0000000000000142
 20
1020.0
 30
0.0
 11
-0.0000000000000142
 21
982.50000000000011
 31
0.0
  0
LINE
  5
83
  8
DIMNSIONS
 62
     7
 10
-0.0000000000000142
 20
1020.0
 30
0.0
 11
5.0252984636267941
 21
1001.245330810547
 31
0.0
  0
LINE
  5
84
  8
DIMNSIONS
 62
     7
 10
-0.0000000000000142
 20
1020.0
 30
0.0
 11
-5.0252984636268403
 21
1001.245330810547
 31
0.0
  0
LINE
  5
85
  8
DIMNSIONS
 62
     7
 10
-0.0000000000000142
 20
1037.5999999999999
 30
0.0
 11
-0.0000000000000142
 21
1102.916670931666
 31
0.0
  0
LINE
  5
86
  8
DIMNSIONS
 62
     7
 10
-0.0000000000000142
 20
1037.5999999999999
 30
0.0
 11
-5.0252984636268403
 21
1056.354669189453
 31
0.0
  0
LINE
  5
87
  8
DIMNSIONS
 62
     7
 10
-0.0000000000000142
 20
1037.5999999999999
 30
0.0
 11
5.0252984636268092
 21
1056.354669189453
 31
0.0
  0
TEXT
  5
88
  8
DIMNSIONS
 62
     7
 10
-9.0416666666666856
 20
1050.0000042649999
 30
0.0
 40
21.166666666666671
  1
17.6
 50
90.0
 41
0.7
 11
-30.208333333333361
 21
1050.0000042649999
 31
0.0
 73
     3
  0
LINE
  5
89
  8
DIMNSIONS
 62
     7
 10
138.5000000000002
 20
880.0
 30
0.0
 11
-15.000000000000011
 21
880.0
 31
0.0
  0
LINE
  5
8A
  8
DIMNSIONS
 62
     7
 10
122.0499999999999
 20
862.39999999999998
 30
0.0
 11
-15.000000000000011
 21
862.39999999999998
 31
0.0
  0
LINE
  5
8B
  8
DIMNSIONS
 62
     7
 10
-0.0000000000000142
 20
862.39999999999998
 30
0.0
 11
-0.0000000000000142
 21
880.0
 31
0.0
  0
LINE
  5
8C
  8
DIMNSIONS
 62
     7
 10
-0.0000000000000142
 20
880.0
 30
0.0
 11
-0.0000000000000142
 21
917.5
 31
0.0
  0
LINE
  5
8D
  8
DIMNSIONS
 62
     7
 10
-0.0000000000000142
 20
880.0
 30
0.0
 11
-5.0252984636268403
 21
898.75466918945312
 31
0.0
  0
LINE
  5
8E
  8
DIMNSIONS
 62
     7
 10
-0.0000000000000142
 20
880.0
 30
0.0
 11
5.0252984636268092
 21
898.75466918945312
 31
0.0
  0
LINE
  5
8F
  8
DIMNSIONS
 62
     7
 10
-0.0000000000000142
 20
862.39999999999998
 30
0.0
 11
-0.0000000000000142
 21
790.73333333333312
 31
0.0
  0
LINE
  5
90
  8
DIMNSIONS
 62
     7
 10
-0.0000000000000142
 20
862.39999999999998
 30
0.0
 11
5.0252984636267941
 21
843.64533081054685
 31
0.0
  0
LINE
  5
91
  8
DIMNSIONS
 62
     7
 10
-0.0000000000000142
 20
862.39999999999998
 30
0.0
 11
-5.0252984636268403
 21
843.64533081054685
 31
0.0
  0
TEXT
  5
92
  8
DIMNSIONS
 62
     7
 10
-9.0416666666666856
 20
790.73333333333312
 30
0.0
 40
21.166666666666671
  1
17.6
 50
90.0
 41
0.7
 11
-30.208333333333361
 21
790.73333333333312
 31
0.0
 73
     3
  0
LINE
  5
93
  8
DIMNSIONS
 62
     7
 10
134.44999999999999
 20
850.0
 30
0.0
 11
134.44999999999999
 21
685.0
 31
0.0
  0
LINE
  5
94
  8
DIMNSIONS
 62
     7
 10
665.55000000000007
 20
850.0
 30
0.0
 11
665.55000000000007
 21
685.0
 31
0.0
  0
LINE
  5
95
  8
DIMNSIONS
 62
     7
 10
134.44999999999999
 20
700.0
 30
0.0
 11
665.55000000000007
 21
700.0
 31
0.0
  0
LINE
  5
96
  8
DIMNSIONS
 62
     7
 10
134.44999999999999
 20
700.0
 30
0.0
 11
153.20466918945311
 21
705.02529846362654
 31
0.0
  0
LINE
  5
97
  8
DIMNSIONS
 62
     7
 10
134.44999999999999
 20
700.0
 30
0.0
 11
153.20466918945311
 21
694.97470153637335
 31
0.0
  0
LINE
  5
98
  8
DIMNSIONS
 62
     7
 10
665.55000000000007
 20
700.0
 30
0.0
 11
646.7953308105466
 21
694.97470153637335
 31
0.0
  0
LINE
  5
99
  8
DIMNSIONS
 62
     7
 10
665.55000000000007
 20
700.0
 30
0.0
 11
646.7953308105466
 21
705.02529846362654
 31
0.0
  0
TEXT
  5
9A
  8
DIMNSIONS
 62
     7
 10
366.92708333333343
 20
709.04166666666652
 30
0.0
 40
21.166666666666671
  1
531.1
 41
0.7
 11
366.92708333333343
 21
730.20833333333314
 31
0.0
 73
     3
  0
LINE
  5
9B
  8
DIMNSIONS
 62
     7
 10
134.44999999999999
 20
850.0
 30
0.0
 11
134.44999999999999
 21
735.0
 31
0.0
  0
LINE
  5
9C
  8
DIMNSIONS
 62
     7
 10
160.0000000000002
 20
858.5
 30
0.0
 11
160.0000000000002
 21
735.0
 31
0.0
  0
LINE
  5
9D
  8
DIMNSIONS
 62
     7
 10
160.0000000000002
 20
750.0
 30
0.0
 11
134.44999999999999
 21
750.0
 31
0.0
  0
LINE
  5
9E
  8
DIMNSIONS
 62
     7
 10
134.44999999999999
 20
750.0
 30
0.0
 11
58.854166666666657
 21
750.0
 31
0.0
  0
LINE
  5
9F
  8
DIMNSIONS
 62
     7
 10
134.44999999999999
 20
750.0
 30
0.0
 11
115.69533081054691
 21
744.97470153637312
 31
0.0
  0
LINE
  5
A0
  8
DIMNSIONS
 62
     7
 10
134.44999999999999
 20
750.0
 30
0.0
 11
115.69533081054691
 21
755.02529846362654
 31
0.0
  0
LINE
  5
A1
  8
DIMNSIONS
 62
     7
 10
160.0000000000002
 20
750.0
 30
0.0
 11
197.5000000000002
 21
750.0
 31
0.0
  0
LINE
  5
A2
  8
DIMNSIONS
 62
     7
 10
160.0000000000002
 20
750.0
 30
0.0
 11
178.7546691894533
 21
755.02529846362654
 31
0.0
  0
LINE
  5
A3
  8
DIMNSIONS
 62
     7
 10
160.0000000000002
 20
750.0
 30
0.0
 11
178.7546691894533
 21
744.97470153637312
 31
0.0
  0
TEXT
  5
A4
  8
DIMNSIONS
 62
     7
 10
58.854166666666657
 20
759.04166666666652
 30
0.0
 40
21.166666666666671
  1
25.55
 41
0.7
 11
58.854166666666657
 21
780.20833333333314
 31
0.0
 73
     3
  0
LINE
  5
A5
  8
DIMNSIONS
 62
     7
 10
160.0000000000002
 20
858.5
 30
0.0
 11
160.0000000000002
 21
735.0
 31
0.0
  0
LINE
  5
A6
  8
DIMNSIONS
 62
     7
 10
640.0
 20
858.5
 30
0.0
 11
640.0
 21
735.0
 31
0.0
  0
LINE
  5
A7
  8
DIMNSIONS
 62
     7
 10
160.0000000000002
 20
750.0
 30
0.0
 11
640.0
 21
750.0
 31
0.0
  0
LINE
  5
A8
  8
DIMNSIONS
 62
     7
 10
160.0000000000002
 20
750.0
 30
0.0
 11
178.7546691894533
 21
755.02529846362654
 31
0.0
  0
LINE
  5
A9
  8
DIMNSIONS
 62
     7
 10
160.0000000000002
 20
750.0
 30
0.0
 11
178.7546691894533
 21
744.97470153637312
 31
0.0
  0
LINE
  5
AA
  8
DIMNSIONS
 62
     7
 10
640.0
 20
750.0
 30
0.0
 11
621.24533081054687
 21
744.97470153637312
 31
0.0
  0
LINE
  5
AB
  8
DIMNSIONS
 62
     7
 10
640.0
 20
750.0
 30
0.0
 11
621.24533081054687
 21
755.02529846362654
 31
0.0
  0
TEXT
  5
AC
  8
DIMNSIONS
 62
     7
 10
380.15625000000011
 20
759.04166666666652
 30
0.0
 40
21.166666666666671
  1
480
 41
0.7
 11
380.15625000000011
 21
780.20833333333314
 31
0.0
 73
     3
  0
LINE
  5
AD
  8
DIMNSIONS
 62
     7
 10
134.44999999999999
 20
850.00000852999983
 30
0.0
 11
134.44999999999999
 21
785.0
 31
0.0
  0
LINE
  5
AE
  8
DIMNSIONS
 62
     7
 10
180.0000000000002
 20
860.39999999999986
 30
0.0
 11
180.0000000000002
 21
785.0
 31
0.0
  0
LINE
  5
AF
  8
DIMNSIONS
 62
     7
 10
134.44999999999999
 20
800.0
 30
0.0
 11
58.854166666666657
 21
800.0
 31
0.0
  0
LINE
  5
B0
  8
DIMNSIONS
 62
     7
 10
134.44999999999999
 20
800.0
 30
0.0
 11
180.0000000000002
 21
800.0
 31
0.0
  0
LINE
  5
B1
  8
DIMNSIONS
 62
     7
 10
134.44999999999999
 20
800.0
 30
0.0
 11
153.20466918945311
 21
805.02529846362665
 31
0.0
  0
LINE
  5
B2
  8
DIMNSIONS
 62
     7
 10
134.44999999999999
 20
800.0
 30
0.0
 11
153.20466918945311
 21
794.97470153637312
 31
0.0
  0
LINE
  5
B3
  8
DIMNSIONS
 62
     7
 10
180.0000000000002
 20
800.0
 30
0.0
 11
161.2453308105471
 21
794.97470153637312
 31
0.0
  0
LINE
  5
B4
  8
DIMNSIONS
 62
     7
 10
180.0000000000002
 20
800.0
 30
0.0
 11
161.2453308105471
 21
805.02529846362688
 31
0.0
  0
TEXT
  5
B5
  8
DIMNSIONS
 62
     7
 10
58.854166666666657
 20
809.04166666666663
 30
0.0
 40
21.166666666666671
  1
45.55
 41
0.7
 11
58.854166666666657
 21
830.20833333333314
 31
0.0
 73
     3
  0
LINE
  5
B6
  8
DIMNSIONS
 62
     7
 10
180.0000000000002
 20
860.39999999999986
 30
0.0
 11
180.0000000000002
 21
785.0
 31
0.0
  0
LINE
  5
B7
  8
DIMNSIONS
 62
     7
 10
280.00000000000028
 20
860.39999999999986
 30
0.0
 11
280.00000000000028
 21
785.0
 31
0.0
  0
LINE
  5
B8
  8
DIMNSIONS
 62
     7
 10
180.0000000000002
 20
800.0
 30
0.0
 11
280.00000000000028
 21
800.0
 31
0.0
  0
LINE
  5
B9
  8
DIMNSIONS
 62
     7
 10
180.0000000000002
 20
800.0
 30
0.0
 11
198.7546691894533
 21
805.02529846362665
 31
0.0
  0
LINE
  5
BA
  8
DIMNSIONS
 62
     7
 10
180.0000000000002
 20
800.0
 30
0.0
 11
198.7546691894533
 21
794.97470153637312
 31
0.0
  0
LINE
  5
BB
  8
DIMNSIONS
 62
     7
 10
280.00000000000028
 20
800.0
 30
0.0
 11
261.2453308105471
 21
794.97470153637312
 31
0.0
  0
LINE
  5
BC
  8
DIMNSIONS
 62
     7
 10
280.00000000000028
 20
800.0
 30
0.0
 11
261.2453308105471
 21
805.02529846362688
 31
0.0
  0
TEXT
  5
BD
  8
DIMNSIONS
 62
     7
 10
210.1562500000002
 20
809.04166666666663
 30
0.0
 40
21.166666666666671
  1
100
 41
0.7
 11
210.1562500000002
 21
830.20833333333314
 31
0.0
 73
     3
  0
LINE
  5
BE
  8
DIMNSIONS
 62
     7
 10
280.00000000000028
 20
860.39999999999986
 30
0.0
 11
280.00000000000028
 21
785.0
 31
0.0
  0
LINE
  5
BF
  8
DIMNSIONS
 62
     7
 10
400.0
 20
860.39999999999986
 30
0.0
 11
400.0
 21
785.0
 31
0.0
  0
LINE
  5
C0
  8
DIMNSIONS
 62
     7
 10
280.00000000000028
 20
800.0
 30
0.0
 11
400.0
 21
800.0
 31
0.0
  0
LINE
  5
C1
  8
DIMNSIONS
 62
     7
 10
280.00000000000028
 20
800.0
 30
0.0
 11
298.75466918945341
 21
805.02529846362665
 31
0.0
  0
LINE
  5
C2
  8
DIMNSIONS
 62
     7
 10
280.00000000000028
 20
800.0
 30
0.0
 11
298.75466918945341
 21
794.97470153637312
 31
0.0
  0
LINE
  5
C3
  8
DIMNSIONS
 62
     7
 10
400.0
 20
800.0
 30
0.0
 11
381.2453308105471
 21
794.97470153637312
 31
0.0
  0
LINE
  5
C4
  8
DIMNSIONS
 62
     7
 10
400.0
 20
800.0
 30
0.0
 11
381.2453308105471
 21
805.02529846362688
 31
0.0
  0
TEXT
  5
C5
  8
DIMNSIONS
 62
     7
 10
320.15625000000028
 20
809.04166666666663
 30
0.0
 40
21.166666666666671
  1
120
 41
0.7
 11
320.15625000000028
 21
830.20833333333314
 31
0.0
 73
     3
  0
LINE
  5
C6
  8
DIMNSIONS
 62
     7
 10
400.0
 20
860.39999999999986
 30
0.0
 11
400.0
 21
785.0
 31
0.0
  0
LINE
  5
C7
  8
DIMNSIONS
 62
     7
 10
520.0
 20
860.39999999999986
 30
0.0
 11
520.0
 21
785.0
 31
0.0
  0
LINE
  5
C8
  8
DIMNSIONS
 62
     7
 10
400.0
 20
800.0
 30
0.0
 11
520.0
 21
800.0
 31
0.0
  0
LINE
  5
C9
  8
DIMNSIONS
 62
     7
 10
400.0
 20
800.0
 30
0.0
 11
418.75466918945318
 21
805.02529846362665
 31
0.0
  0
LINE
  5
CA
  8
DIMNSIONS
 62
     7
 10
400.0
 20
800.0
 30
0.0
 11
418.75466918945318
 21
794.97470153637312
 31
0.0
  0
LINE
  5
CB
  8
DIMNSIONS
 62
     7
 10
520.0
 20
800.0
 30
0.0
 11
501.24533081054682
 21
794.97470153637312
 31
0.0
  0
LINE
  5
CC
  8
DIMNSIONS
 62
     7
 10
520.0
 20
800.0
 30
0.0
 11
501.24533081054682
 21
805.02529846362688
 31
0.0
  0
TEXT
  5
CD
  8
DIMNSIONS
 62
     7
 10
440.15624999999989
 20
809.04166666666663
 30
0.0
 40
21.166666666666671
  1
120
 41
0.7
 11
440.15624999999989
 21
830.20833333333314
 31
0.0
 73
     3
  0
LINE
  5
CE
  8
DIMNSIONS
 62
     7
 10
520.0
 20
860.39999999999986
 30
0.0
 11
520.0
 21
785.0
 31
0.0
  0
LINE
  5
CF
  8
DIMNSIONS
 62
     7
 10
620.0
 20
860.39999999999986
 30
0.0
 11
620.0
 21
785.0
 31
0.0
  0
LINE
  5
D0
  8
DIMNSIONS
 62
     7
 10
520.0
 20
800.0
 30
0.0
 11
620.0
 21
800.0
 31
0.0
  0
LINE
  5
D1
  8
DIMNSIONS
 62
     7
 10
520.0
 20
800.0
 30
0.0
 11
538.75466918945312
 21
805.02529846362665
 31
0.0
  0
LINE
  5
D2
  8
DIMNSIONS
 62
     7
 10
520.0
 20
800.0
 30
0.0
 11
538.75466918945312
 21
794.97470153637312
 31
0.0
  0
LINE
  5
D3
  8
DIMNSIONS
 62
     7
 10
620.0
 20
800.0
 30
0.0
 11
601.24533081054676
 21
794.97470153637312
 31
0.0
  0
LINE
  5
D4
  8
DIMNSIONS
 62
     7
 10
620.0
 20
800.0
 30
0.0
 11
601.24533081054676
 21
805.02529846362688
 31
0.0
  0
TEXT
  5
D5
  8
DIMNSIONS
 62
     7
 10
550.15625
 20
809.04166666666663
 30
0.0
 40
21.166666666666671
  1
100
 41
0.7
 11
550.15625
 21
830.20833333333314
 31
0.0
 73
     3
  0
TEXT
  5
D6
  8
DIMNSIONS
 62
     7
 10
-165.6250038146971
 20
8.0018499411373796
 30
0.0
 40
15.0
  1
文字・矢印　マーキング
 41
0.7
  0
LINE
  5
D7
  8
DIMNSIONS
 62
     7
 10
-233.75
 20
-259.2731500588626
 30
0.0
 11
-300.0
 21
-375.87315005886251
 31
0.0
  0
LINE
  5
D8
  8
DIMNSIONS
 62
     7
 10
-233.75
 20
-259.2731500588626
 30
0.0
 11
-237.76899257165439
 21
-274.27223453151879
 31
0.0
  0
LINE
  5
D9
  8
DIMNSIONS
 62
     7
 10
-233.75
 20
-259.2731500588626
 30
0.0
 11
-244.7300919010018
 21
-270.2532419598644
 31
0.0
  0
LINE
  5
DA
  8
DIMNSIONS
 62
     7
 10
-300.0
 20
-375.87315005886251
 30
0.0
 11
-375.0
 21
-375.87315005886251
 31
0.0
  0
TEXT
  5
DB
  8
DIMNSIONS
 62
     7
 10
-365.6250017285347
 20
-366.99815005886251
 30
0.0
 40
15.0
  1
矢印穴
 41
0.7
  0
LINE
  5
DC
  8
DIMNSIONS
 62
     7
 10
-337.60000000000008
 20
-53.473150058862551
 30
0.0
 11
-337.60000000000008
 21
-10.87315005886262
 31
0.0
  0
LINE
  5
DD
  8
DIMNSIONS
 62
     7
 10
-162.40000000000009
 20
-53.473150058862551
 30
0.0
 11
-162.40000000000009
 21
-10.87315005886262
 31
0.0
  0
LINE
  5
DE
  8
DIMNSIONS
 62
     7
 10
-337.60000000000008
 20
-25.87315005886262
 30
0.0
 11
-162.40000000000009
 21
-25.87315005886262
 31
0.0
  0
LINE
  5
DF
  8
DIMNSIONS
 62
     7
 10
-337.60000000000008
 20
-25.87315005886262
 30
0.0
 11
-318.84533081054701
 21
-20.847851595235799
 31
0.0
  0
LINE
  5
E0
  8
DIMNSIONS
 62
     7
 10
-337.60000000000008
 20
-25.87315005886262
 30
0.0
 11
-318.84533081054701
 21
-30.898448522489449
 31
0.0
  0
LINE
  5
E1
  8
DIMNSIONS
 62
     7
 10
-162.40000000000009
 20
-25.87315005886262
 30
0.0
 11
-181.15466918945319
 21
-30.898448522489449
 31
0.0
  0
LINE
  5
E2
  8
DIMNSIONS
 62
     7
 10
-162.40000000000009
 20
-25.87315005886262
 30
0.0
 11
-181.15466918945319
 21
-20.847851595235799
 31
0.0
  0
TEXT
  5
E3
  8
DIMNSIONS
 62
     7
 10
-283.0729166666668
 20
-16.831483392195949
 30
0.0
 40
21.166666666666671
  1
175.2
 41
0.7
 11
-283.0729166666668
 21
4.3351832744707197
 31
0.0
 73
     3
  0
LINE
  5
E4
  8
DIMNSIONS
 62
     7
 10
-350.0
 20
-65.87315005886262
 30
0.0
 11
-456.80979980008078
 21
-65.87315005886262
 31
0.0
  0
LINE
  5
E5
  8
DIMNSIONS
 62
     7
 10
-284.9999961850001
 20
-285.87315005886262
 30
0.0
 11
-456.80979980008078
 21
-285.87315005886262
 31
0.0
  0
LINE
  5
E6
  8
DIMNSIONS
 62
     7
 10
-441.80979980008073
 20
-65.87315005886262
 30
0.0
 11
-441.80979980008073
 21
-285.87315005886262
 31
0.0
  0
LINE
  5
E7
  8
DIMNSIONS
 62
     7
 10
-441.80979980008073
 20
-65.87315005886262
 30
0.0
 11
-436.78450133645401
 21
-84.627819248315703
 31
0.0
  0
LINE
  5
E8
  8
DIMNSIONS
 62
     7
 10
-441.80979980008073
 20
-65.87315005886262
 30
0.0
 11
-446.83509826370732
 21
-84.627819248315703
 31
0.0
  0
LINE
  5
E9
  8
DIMNSIONS
 62
     7
 10
-441.80979980008073
 20
-285.87315005886262
 30
0.0
 11
-446.83509826370732
 21
-267.1184808694095
 31
0.0
  0
LINE
  5
EA
  8
DIMNSIONS
 62
     7
 10
-441.80979980008073
 20
-285.87315005886262
 30
0.0
 11
-436.78450133645401
 21
-267.1184808694095
 31
0.0
  0
TEXT
  5
EB
  8
DIMNSIONS
 62
     7
 10
-450.85146646674718
 20
-195.71690005886259
 30
0.0
 40
21.166666666666671
  1
220
 50
90.0
 41
0.7
 11
-472.01813313341381
 21
-195.71690005886259
 31
0.0
 73
     3
  0
LINE
  5
EC
  8
DIMNSIONS
 62
     7
 10
134.44999999999999
 20
-300.87315005886262
 30
0.0
 11
134.44999999999999
 21
-366.4231500588632
 31
0.0
  0
LINE
  5
ED
  8
DIMNSIONS
 62
     7
 10
665.55000000000007
 20
-300.87315005886262
 30
0.0
 11
665.55000000000007
 21
-366.4231500588632
 31
0.0
  0
LINE
  5
EE
  8
DIMNSIONS
 62
     7
 10
134.44999999999999
 20
-351.4231500588632
 30
0.0
 11
665.55000000000007
 21
-351.4231500588632
 31
0.0
  0
LINE
  5
EF
  8
DIMNSIONS
 62
     7
 10
134.44999999999999
 20
-351.4231500588632
 30
0.0
 11
153.20466918945311
 21
-346.39785159523638
 31
0.0
  0
LINE
  5
F0
  8
DIMNSIONS
 62
     7
 10
134.44999999999999
 20
-351.4231500588632
 30
0.0
 11
153.20466918945311
 21
-356.44844852249008
 31
0.0
  0
LINE
  5
F1
  8
DIMNSIONS
 62
     7
 10
665.55000000000007
 20
-351.4231500588632
 30
0.0
 11
646.7953308105466
 21
-356.44844852249008
 31
0.0
  0
LINE
  5
F2
  8
DIMNSIONS
 62
     7
 10
665.55000000000007
 20
-351.4231500588632
 30
0.0
 11
646.7953308105466
 21
-346.39785159523638
 31
0.0
  0
TEXT
  5
F3
  8
DIMNSIONS
 62
     7
 10
366.92708333333343
 20
-342.38148339219663
 30
0.0
 40
21.166666666666671
  1
531.1
 41
0.7
 11
366.92708333333343
 21
-321.21481672552989
 31
0.0
 73
     3
  0
TEXT
  5
F4
  8
DIMNSIONS
 62
     7
 10
373.54166666666657
 20
154.5625
 30
0.0
 40
21.166666666666671
  1
抜き
 41
0.7
 11
373.54166666666657
 21
175.72916666666671
 31
0.0
 73
     3
  0
LINE
  5
F5
  8
DIMNSIONS
 62
     7
 10
475.0
 20
197.499995735
 30
0.0
 11
475.0
 21
102.499995735
 31
0.0
  0
LINE
  5
F6
  8
DIMNSIONS
 62
     7
 10
475.0
 20
197.499995735
 30
0.0
 11
480.02529846362683
 21
178.7453265455469
 31
0.0
  0
LINE
  5
F7
  8
DIMNSIONS
 62
     7
 10
475.0
 20
197.499995735
 30
0.0
 11
469.97470153637312
 21
178.7453265455469
 31
0.0
  0
LINE
  5
F8
  8
DIMNSIONS
 62
     7
 10
475.0
 20
102.499995735
 30
0.0
 11
469.97470153637312
 21
121.2546649244531
 31
0.0
  0
LINE
  5
F9
  8
DIMNSIONS
 62
     7
 10
475.0
 20
102.499995735
 30
0.0
 11
480.02529846362683
 21
121.2546649244531
 31
0.0
  0
TEXT
  5
FA
  8
DIMNSIONS
 62
     7
 10
465.9583333333332
 20
136.77082906833331
 30
0.0
 40
21.166666666666671
  1
95
 50
90.0
 41
0.7
 11
444.79166666666657
 21
136.77082906833331
 31
0.0
 73
     3
  0
LINE
  5
FB
  8
DIMNSIONS
 62
     7
 10
194.44999999999999
 20
112.5
 30
0.0
 11
605.55000000000018
 21
112.5
 31
0.0
  0
LINE
  5
FC
  8
DIMNSIONS
 62
     7
 10
194.44999999999999
 20
112.5
 30
0.0
 11
213.2046691894532
 21
117.5252984636268
 31
0.0
  0
LINE
  5
FD
  8
DIMNSIONS
 62
     7
 10
194.44999999999999
 20
112.5
 30
0.0
 11
213.2046691894532
 21
107.4747015363731
 31
0.0
  0
LINE
  5
FE
  8
DIMNSIONS
 62
     7
 10
605.55000000000018
 20
112.5
 30
0.0
 11
586.79533081054672
 21
107.4747015363731
 31
0.0
  0
LINE
  5
FF
  8
DIMNSIONS
 62
     7
 10
605.55000000000018
 20
112.5
 30
0.0
 11
586.79533081054672
 21
117.5252984636268
 31
0.0
  0
TEXT
  5
100
  8
DIMNSIONS
 62
     7
 10
380.15625000000011
 20
121.5416666666666
 30
0.0
 40
21.166666666666671
  1
411
 41
0.7
 11
380.15625000000011
 21
142.70833333333329
 31
0.0
 73
     3
  0
TEXT
  5
101
  8
DATA
 62
     7
 10
474.99999999999989
 20
-719.04999999999995
 30
0.0
 40
19.050000000000001
  1
(CONTROL29AV 天井用)
 41
0.7
 11
474.99999999999989
 21
-700.0
 31
0.0
 73
     3
  0
TEXT
  5
102
  8
DATA
 62
     7
 10
456.24999999999989
 20
-682.14374999999984
 30
0.0
 40
19.050000000000001
  1
JBL-29-2
 41
0.7
 11
456.24999999999989
 21
-663.09374999999989
 31
0.0
 73
     3
  0
TEXT
  5
103
  8
DATA
 62
     7
 10
-499.99999999999989
 20
-779.30570250000005
 30
0.0
 40
12.699999999999999
  1
仕様および外観は予告なく変更されることがありますので、ご了承ください。
 41
0.7
 11
-499.99999999999989
 21
-766.60570250000001
 31
0.0
 73
     3
  0
TEXT
  5
104
  8
DATA
 62
     7
 10
280.9375
 20
642.06249999999989
 30
0.0
 40
21.166666666666671
  1
金具取付け面(天井)
 41
0.7
 11
280.9375
 21
663.22916666666652
 31
0.0
 73
     3
  0
LINE
  5
105
  8
DATA
 62
     7
 10
275.0
 20
625.0
 30
0.0
 11
525.0
 21
625.0
 31
0.0
  0
ARC
  5
106
  8
DATA
 62
     7
 10
204.4500000000001
 20
187.499995735
 30
0.0
 40
10.00000000000003
 50
90.0
 51
180.0
  0
LINE
  5
107
  8
DATA
 62
     7
 10
194.44999999999999
 20
112.5000042649999
 30
0.0
 11
194.44999999999999
 21
187.499995735
 31
0.0
  0
ARC
  5
108
  8
DATA
 62
     7
 10
204.4500000000001
 20
112.499995735
 30
0.0
 40
10.0
 50
179.9999511260001
 51
270.0
  0
LINE
  5
109
  8
DATA
 62
     7
 10
204.4500000000001
 20
102.499995735
 30
0.0
 11
595.55000000000007
 21
102.499995735
 31
0.0
  0
ARC
  5
10A
  8
DATA
 62
     7
 10
595.55000000000007
 20
112.499995735
 30
0.0
 40
10.0
 50
270.0
 51
0.0000378559998353
  0
LINE
  5
10B
  8
DATA
 62
     7
 10
605.55000000000018
 20
112.50000234300001
 30
0.0
 11
605.55000000000018
 21
187.499995735
 31
0.0
  0
ARC
  5
10C
  8
DATA
 62
     7
 10
595.55000000000007
 20
187.499995735
 30
0.0
 40
10.0
 50
0.0
 51
89.999912573999396
  0
LINE
  5
10D
  8
DATA
 62
     7
 10
204.4500000000001
 20
197.499995735
 30
0.0
 11
595.55001525899991
 21
197.499995735
 31
0.0
  0
LINE
  5
10E
  8
DATA
 62
     7
 10
134.44999999999999
 20
234.99999573500011
 30
0.0
 11
134.44999999999999
 21
64.999995735000013
 31
0.0
  0
LINE
  5
10F
  8
DATA
 62
     7
 10
662.95000000000005
 20
62.399995734999997
 30
0.0
 11
137.0499999999999
 21
62.399995734999997
 31
0.0
  0
LINE
  5
110
  8
DATA
 62
     7
 10
662.95000000000005
 20
237.59999573500011
 30
0.0
 11
137.0499999999999
 21
237.59999573500011
 31
0.0
  0
LINE
  5
111
  8
DATA
 62
     7
 10
665.55000000000007
 20
234.99999573500011
 30
0.0
 11
665.55000000000007
 21
64.999995735000013
 31
0.0
  0
LINE
  5
112
  8
DATA
 62
     7
 10
139.65000000000001
 20
235.000006525
 30
0.0
 11
139.65000000000001
 21
237.59999573500011
 31
0.0
  0
ARC
  5
113
  8
DATA
 62
     7
 10
137.0499999999999
 20
234.99999573500011
 30
0.0
 40
2.6000000000000201
 50
270.0
 51
0.0
  0
LINE
  5
114
  8
DATA
 62
     7
 10
137.0499999999999
 20
232.39999573500009
 30
0.0
 11
134.44999999999999
 21
232.39999573500009
 31
0.0
  0
LINE
  5
115
  8
DATA
 62
     7
 10
139.65000000000001
 20
234.99999573500011
 30
0.0
 11
134.44999999999999
 21
234.99999573500011
 31
0.0
  0
LINE
  5
116
  8
DATA
 62
     7
 10
137.0499999999999
 20
237.59999573500011
 30
0.0
 11
137.0499999999999
 21
232.39999573500009
 31
0.0
  0
LINE
  5
117
  8
DATA
 62
     7
 10
660.35000000000014
 20
235.000006525
 30
0.0
 11
660.35000000000014
 21
237.59999573500011
 31
0.0
  0
ARC
  5
118
  8
DATA
 62
     7
 10
662.95000000000005
 20
234.99999573500011
 30
0.0
 40
2.5999999999999082
 50
180.0
 51
270.0
  0
LINE
  5
119
  8
DATA
 62
     7
 10
662.95000000000005
 20
232.39999573500009
 30
0.0
 11
665.55000000000007
 21
232.39999573500009
 31
0.0
  0
LINE
  5
11A
  8
DATA
 62
     7
 10
660.35000000000014
 20
234.99999573500011
 30
0.0
 11
665.55000000000007
 21
234.99999573500011
 31
0.0
  0
LINE
  5
11B
  8
DATA
 62
     7
 10
662.95000000000005
 20
237.59999573500011
 30
0.0
 11
662.95000000000005
 21
232.39999573500009
 31
0.0
  0
LINE
  5
11C
  8
DATA
 62
     7
 10
139.65000000000001
 20
64.999993476000043
 30
0.0
 11
139.65000000000001
 21
62.40000426499995
 31
0.0
  0
ARC
  5
11D
  8
DATA
 62
     7
 10
137.0499999999999
 20
65.000004264999973
 30
0.0
 40
2.6000000000001351
 50
0.0
 51
90.0
  0
LINE
  5
11E
  8
DATA
 62
     7
 10
137.0499999999999
 20
67.600004264999995
 30
0.0
 11
134.44999999999999
 21
67.600004264999995
 31
0.0
  0
LINE
  5
11F
  8
DATA
 62
     7
 10
139.65000000000001
 20
65.000004264999973
 30
0.0
 11
134.44999999999999
 21
65.000004264999973
 31
0.0
  0
LINE
  5
120
  8
DATA
 62
     7
 10
137.0499999999999
 20
62.40000426499995
 30
0.0
 11
137.0499999999999
 21
67.600004264999995
 31
0.0
  0
LINE
  5
121
  8
DATA
 62
     7
 10
660.35000000000014
 20
64.99999155299993
 30
0.0
 11
660.35000000000014
 21
62.400002342999919
 31
0.0
  0
ARC
  5
122
  8
DATA
 62
     7
 10
662.95000000000005
 20
65.000002342999935
 30
0.0
 40
2.6000000000000201
 50
90.0
 51
180.0
  0
LINE
  5
123
  8
DATA
 62
     7
 10
662.95000000000005
 20
67.600002342999971
 30
0.0
 11
665.55000000000007
 21
67.600002342999971
 31
0.0
  0
LINE
  5
124
  8
DATA
 62
     7
 10
660.35000000000014
 20
65.000002342999935
 30
0.0
 11
665.55000000000007
 21
65.000002342999935
 31
0.0
  0
LINE
  5
125
  8
DATA
 62
     7
 10
662.95000000000005
 20
62.400002342999919
 30
0.0
 11
662.95000000000005
 21
67.600002342999971
 31
0.0
  0
LINE
  5
126
  8
DATA
 62
     7
 10
137.0499999999999
 20
232.39999573500009
 30
0.0
 11
137.0499999999999
 21
67.600004264999995
 31
0.0
  0
LINE
  5
127
  8
DATA
 62
     7
 10
660.35000000000014
 20
64.999995735000013
 30
0.0
 11
139.65000000000001
 21
64.999995735000013
 31
0.0
  0
LINE
  5
128
  8
DATA
 62
     7
 10
660.35000000000014
 20
234.99999573500011
 30
0.0
 11
139.65000000000001
 21
234.99999573500011
 31
0.0
  0
LINE
  5
129
  8
DATA
 62
     7
 10
662.95000000000005
 20
232.39999573500009
 30
0.0
 11
662.95000000000005
 21
67.600002342999971
 31
0.0
  0
LINE
  5
12A
  8
DATA
 62
     7
 10
159.44999999999999
 20
155.00000000000011
 30
0.0
 11
164.44999999999999
 21
155.00000000000011
 31
0.0
  0
LINE
  5
12B
  8
DATA
 62
     7
 10
159.44999999999999
 20
155.00000000000011
 30
0.0
 11
169.44999999999999
 21
165.00000000000011
 31
0.0
  0
LINE
  5
12C
  8
DATA
 62
     7
 10
164.44999999999999
 20
150.00000000000011
 30
0.0
 11
164.44999999999999
 21
155.00000000000011
 31
0.0
  0
LINE
  5
12D
  8
DATA
 62
     7
 10
169.44999999999999
 20
165.00000000000011
 30
0.0
 11
179.44999999999999
 21
155.00000000000011
 31
0.0
  0
LINE
  5
12E
  8
DATA
 62
     7
 10
174.44999999999999
 20
150.00000000000011
 30
0.0
 11
174.44999999999999
 21
155.00000000000011
 31
0.0
  0
LINE
  5
12F
  8
DATA
 62
     7
 10
174.44999999999999
 20
155.00000000000011
 30
0.0
 11
179.44999999999999
 21
155.00000000000011
 31
0.0
  0
LINE
  5
130
  8
DATA
 62
     7
 10
164.44999999999999
 20
150.00000000000011
 30
0.0
 11
174.44999999999999
 21
150.00000000000011
 31
0.0
  0
POLYLINE
  5
131
  8
DATA
 62
     7
 66
     1
 10
0.0
 20
0.0
 30
0.0
  0
VERTEX
  5
B60
  8
DATA
 62
     7
 10
184.2361328130001
 20
180.71875000000011
 30
0.0
  0
VERTEX
  5
B61
  8
DATA
 62
     7
 10
187.92753906300021
 20
180.71875000000011
 30
0.0
  0
VERTEX
  5
B62
  8
DATA
 62
     7
 10
187.92753906300021
 20
169.00000000000011
 30
0.0
  0
SEQEND
  5
B63
  8
DATA
 62
     7
  0
LINE
  5
136
  8
DATA
 62
     7
 10
187.92753906300021
 20
175.44531250000011
 30
0.0
 11
185.02714843800021
 21
175.44531250000011
 31
0.0
  0
POLYLINE
  5
137
  8
DATA
 62
     7
 66
     1
 10
0.0
 20
0.0
 30
0.0
 70
   128
  0
VERTEX
  5
B64
  8
DATA
 62
     7
 10
177.04082031299961
 20
174.2734375000002
 30
0.0
 42
-0.0453664709995906
  0
VERTEX
  5
B65
  8
DATA
 62
     7
 10
176.91560379399991
 20
174.31219411300009
 30
0.0
  0
VERTEX
  5
B66
  8
DATA
 62
     7
 10
176.91560379399991
 20
174.31219411300009
 30
0.0
  0
VERTEX
  5
B67
  8
DATA
 62
     7
 10
176.91560379399991
 20
174.31219411300009
 30
0.0
 42
-0.0409557140004245
  0
VERTEX
  5
B68
  8
DATA
 62
     7
 10
176.79237096800011
 20
174.37493076199999
 30
0.0
  0
VERTEX
  5
B69
  8
DATA
 62
     7
 10
176.79237096800011
 20
174.37493076199999
 30
0.0
  0
VERTEX
  5
B6A
  8
DATA
 62
     7
 10
176.79237096800011
 20
174.37493076199999
 30
0.0
 42
-0.0358330130002234
  0
VERTEX
  5
B6B
  8
DATA
 62
     7
 10
176.6720499810001
 20
174.46117493599999
 30
0.0
  0
VERTEX
  5
B6C
  8
DATA
 62
     7
 10
176.6720499810001
 20
174.46117493599999
 30
0.0
  0
VERTEX
  5
B6D
  8
DATA
 62
     7
 10
176.6720499810001
 20
174.46117493599999
 30
0.0
 42
-0.0308550790000261
  0
VERTEX
  5
B6E
  8
DATA
 62
     7
 10
176.5555470490001
 20
174.57027707399999
 30
0.0
  0
VERTEX
  5
B6F
  8
DATA
 62
     7
 10
176.5555470490001
 20
174.57027707399999
 30
0.0
  0
VERTEX
  5
B70
  8
DATA
 62
     7
 10
176.5555470490001
 20
174.57027707399999
 30
0.0
 42
-0.0264632320005407
  0
VERTEX
  5
B71
  8
DATA
 62
     7
 10
176.44373963200019
 20
174.70141545599981
 30
0.0
  0
VERTEX
  5
B72
  8
DATA
 62
     7
 10
176.44373963200019
 20
174.70141545599981
 30
0.0
  0
VERTEX
  5
B73
  8
DATA
 62
     7
 10
176.44373963199931
 20
174.70141545600109
 30
0.0
 42
-0.0227885949996116
  0
VERTEX
  5
B74
  8
DATA
 62
     7
 10
176.33746982600019
 20
174.85360239299999
 30
0.0
  0
VERTEX
  5
B75
  8
DATA
 62
     7
 10
176.33746982600019
 20
174.85360239299999
 30
0.0
  0
VERTEX
  5
B76
  8
DATA
 62
     7
 10
176.33746982600019
 20
174.85360239299999
 30
0.0
 42
-0.0197995050006715
  0
VERTEX
  5
B77
  8
DATA
 62
     7
 10
176.23753801700011
 20
175.02569166500001
 30
0.0
  0
VERTEX
  5
B78
  8
DATA
 62
     7
 10
176.23753801700011
 20
175.02569166500001
 30
0.0
  0
VERTEX
  5
B79
  8
DATA
 62
     7
 10
176.23753801700011
 20
175.02569166500001
 30
0.0
 42
-0.0174024370000781
  0
VERTEX
  5
B7A
  8
DATA
 62
     7
 10
176.14469685899999
 20
175.21638715599991
 30
0.0
  0
VERTEX
  5
B7B
  8
DATA
 62
     7
 10
176.14469685899999
 20
175.21638715599991
 30
0.0
  0
VERTEX
  5
B7C
  8
DATA
 62
     7
 10
176.14469685899999
 20
175.21638715599991
 30
0.0
 42
-0.0154935200004966
  0
VERTEX
  5
B7D
  8
DATA
 62
     7
 10
176.05964559800009
 20
175.4242526109999
 30
0.0
  0
VERTEX
  5
B7E
  8
DATA
 62
     7
 10
176.05964559800009
 20
175.4242526109999
 30
0.0
  0
VERTEX
  5
B7F
  8
DATA
 62
     7
 10
176.05964559799841
 20
175.42425261100419
 30
0.0
 42
-0.0139795399994263
  0
VERTEX
  5
B80
  8
DATA
 62
     7
 10
175.9830248120015
 20
175.64772246099491
 30
0.0
  0
VERTEX
  5
B81
  8
DATA
 62
     7
 10
175.98302481199991
 20
175.6477224609998
 30
0.0
  0
VERTEX
  5
B82
  8
DATA
 62
     7
 10
175.98302481199991
 20
175.6477224609998
 30
0.0
  0
VERTEX
  5
B83
  8
DATA
 62
     7
 10
175.983024811999
 20
175.64772246100279
 30
0.0
 42
-0.012783959999715
  0
VERTEX
  5
B84
  8
DATA
 62
     7
 10
175.91541158100009
 20
175.88511360800001
 30
0.0
  0
VERTEX
  5
B85
  8
DATA
 62
     7
 10
175.91541158100009
 20
175.88511360800001
 30
0.0
  0
VERTEX
  5
B86
  8
DATA
 62
     7
 10
175.91541158100009
 20
175.88511360800001
 30
0.0
 42
-0.0118467010003056
  0
VERTEX
  5
B87
  8
DATA
 62
     7
 10
175.8573151450002
 20
176.134638102
 30
0.0
  0
VERTEX
  5
B88
  8
DATA
 62
     7
 10
175.8573151450002
 20
176.134638102
 30
0.0
  0
VERTEX
  5
B89
  8
DATA
 62
     7
 10
175.8573151449998
 20
176.1346381020019
 30
0.0
 42
-0.0111218619998121
  0
VERTEX
  5
B8A
  8
DATA
 62
     7
 10
175.80917306800001
 20
176.3944166119999
 30
0.0
  0
VERTEX
  5
B8B
  8
DATA
 62
     7
 10
175.80917306800001
 20
176.3944166119999
 30
0.0
  0
VERTEX
  5
B8C
  8
DATA
 62
     7
 10
175.8091730679989
 20
176.39441661200689
 30
0.0
 42
-0.0105751219994795
  0
VERTEX
  5
B8D
  8
DATA
 62
     7
 10
175.7713479370008
 20
176.66249257399431
 30
0.0
  0
VERTEX
  5
B8E
  8
DATA
 62
     7
 10
175.7713479370002
 20
176.66249257399991
 30
0.0
  0
VERTEX
  5
B8F
  8
DATA
 62
     7
 10
175.7713479370002
 20
176.66249257399991
 30
0.0
  0
VERTEX
  5
B90
  8
DATA
 62
     7
 10
175.7713479370002
 20
176.66249257399991
 30
0.0
 42
-0.010181479000053
  0
VERTEX
  5
B91
  8
DATA
 62
     7
 10
175.74412464000011
 20
176.9368469339999
 30
0.0
  0
VERTEX
  5
B92
  8
DATA
 62
     7
 10
175.74412464000011
 20
176.9368469339999
 30
0.0
  0
VERTEX
  5
B93
  8
DATA
 62
     7
 10
175.74412464000011
 20
176.9368469339999
 30
0.0
 42
-0.009923482000202
  0
VERTEX
  5
B94
  8
DATA
 62
     7
 10
175.7277082120001
 20
177.215413348
 30
0.0
  0
VERTEX
  5
B95
  8
DATA
 62
     7
 10
175.7277082120001
 20
177.215413348
 30
0.0
  0
VERTEX
  5
B96
  8
DATA
 62
     7
 10
175.7277082120001
 20
177.215413348
 30
0.0
 42
-0.0097899730000887
  0
VERTEX
  5
B97
  8
DATA
 62
     7
 10
175.72222229700009
 20
177.49609375000011
 30
0.0
  0
VERTEX
  5
B98
  8
DATA
 62
     7
 10
175.72222229700009
 20
177.49609375000011
 30
0.0
  0
VERTEX
  5
B99
  8
DATA
 62
     7
 10
175.72222229700009
 20
177.49609375000011
 30
0.0
 42
-0.0097752680000488
  0
VERTEX
  5
B9A
  8
DATA
 62
     7
 10
175.7277082120001
 20
177.7767741530001
 30
0.0
  0
VERTEX
  5
B9B
  8
DATA
 62
     7
 10
175.7277082120001
 20
177.7767741530001
 30
0.0
  0
VERTEX
  5
B9C
  8
DATA
 62
     7
 10
175.7277082120001
 20
177.7767741530001
 30
0.0
 42
-0.0098787450002244
  0
VERTEX
  5
B9D
  8
DATA
 62
     7
 10
175.74412464000011
 20
178.055340567
 30
0.0
  0
VERTEX
  5
B9E
  8
DATA
 62
     7
 10
175.74412464000011
 20
178.055340567
 30
0.0
  0
VERTEX
  5
B9F
  8
DATA
 62
     7
 10
175.74412464000011
 20
178.055340567
 30
0.0
 42
-0.0101047990006038
  0
VERTEX
  5
BA0
  8
DATA
 62
     7
 10
175.7713479370002
 20
178.3296949259998
 30
0.0
  0
VERTEX
  5
BA1
  8
DATA
 62
     7
 10
175.7713479370002
 20
178.3296949259998
 30
0.0
  0
VERTEX
  5
BA2
  8
DATA
 62
     7
 10
175.77134793700051
 20
178.32969492600361
 30
0.0
 42
-0.0104631579996893
  0
VERTEX
  5
BA3
  8
DATA
 62
     7
 10
175.80917306800001
 20
178.5977708889998
 30
0.0
  0
VERTEX
  5
BA4
  8
DATA
 62
     7
 10
175.80917306800001
 20
178.5977708889998
 30
0.0
  0
VERTEX
  5
BA5
  8
DATA
 62
     7
 10
175.80917306800001
 20
178.5977708889998
 30
0.0
 42
-0.0109696010002369
  0
VERTEX
  5
BA6
  8
DATA
 62
     7
 10
175.8573151450002
 20
178.85754939899999
 30
0.0
  0
VERTEX
  5
BA7
  8
DATA
 62
     7
 10
175.8573151450002
 20
178.85754939899999
 30
0.0
  0
VERTEX
  5
BA8
  8
DATA
 62
     7
 10
175.8573151450002
 20
178.85754939899999
 30
0.0
 42
-0.011647096000523
  0
VERTEX
  5
BA9
  8
DATA
 62
     7
 10
175.91541158100009
 20
179.10707389300009
 30
0.0
  0
VERTEX
  5
BAA
  8
DATA
 62
     7
 10
175.91541158100009
 20
179.10707389300009
 30
0.0
  0
VERTEX
  5
BAB
  8
DATA
 62
     7
 10
175.91541158100131
 20
179.10707389300461
 30
0.0
 42
-0.0125274429995046
  0
VERTEX
  5
BAC
  8
DATA
 62
     7
 10
175.98302481199849
 20
179.34446503899539
 30
0.0
  0
VERTEX
  5
BAD
  8
DATA
 62
     7
 10
175.98302481199991
 20
179.34446503899991
 30
0.0
  0
VERTEX
  5
BAE
  8
DATA
 62
     7
 10
175.98302481199991
 20
179.34446503899991
 30
0.0
  0
VERTEX
  5
BAF
  8
DATA
 62
     7
 10
175.98302481200099
 20
179.3444650390033
 30
0.0
 42
-0.0136534089995769
  0
VERTEX
  5
BB0
  8
DATA
 62
     7
 10
176.05964559800009
 20
179.5679348889999
 30
0.0
  0
VERTEX
  5
BB1
  8
DATA
 62
     7
 10
176.05964559800009
 20
179.5679348889999
 30
0.0
  0
VERTEX
  5
BB2
  8
DATA
 62
     7
 10
176.0596455980008
 20
179.56793488900189
 30
0.0
 42
-0.0150812849996516
  0
VERTEX
  5
BB3
  8
DATA
 62
     7
 10
176.14469685899999
 20
179.77580034500011
 30
0.0
  0
VERTEX
  5
BB4
  8
DATA
 62
     7
 10
176.14469685899999
 20
179.77580034500011
 30
0.0
  0
VERTEX
  5
BB5
  8
DATA
 62
     7
 10
176.14469685899999
 20
179.77580034500011
 30
0.0
 42
-0.0168833470002286
  0
VERTEX
  5
BB6
  8
DATA
 62
     7
 10
176.23753801700011
 20
179.96649583499999
 30
0.0
  0
VERTEX
  5
BB7
  8
DATA
 62
     7
 10
176.23753801700011
 20
179.96649583499999
 30
0.0
  0
VERTEX
  5
BB8
  8
DATA
 62
     7
 10
176.23753801700011
 20
179.96649583499999
 30
0.0
 42
-0.0191488540002162
  0
VERTEX
  5
BB9
  8
DATA
 62
     7
 10
176.33746982600019
 20
180.13858510800009
 30
0.0
  0
VERTEX
  5
BBA
  8
DATA
 62
     7
 10
176.33746982600019
 20
180.13858510800009
 30
0.0
  0
VERTEX
  5
BBB
  8
DATA
 62
     7
 10
176.33746982600081
 20
180.13858510800111
 30
0.0
 42
-0.0219801889996952
  0
VERTEX
  5
BBC
  8
DATA
 62
     7
 10
176.44373963200019
 20
180.29077204500001
 30
0.0
  0
VERTEX
  5
BBD
  8
DATA
 62
     7
 10
176.44373963200019
 20
180.29077204500001
 30
0.0
  0
VERTEX
  5
BBE
  8
DATA
 62
     7
 10
176.4437396320003
 20
180.2907720450001
 30
0.0
 42
-0.0254767699999387
  0
VERTEX
  5
BBF
  8
DATA
 62
     7
 10
176.5555470490001
 20
180.421910427
 30
0.0
  0
VERTEX
  5
BC0
  8
DATA
 62
     7
 10
176.5555470490001
 20
180.421910427
 30
0.0
  0
VERTEX
  5
BC1
  8
DATA
 62
     7
 10
176.5555470490001
 20
180.421910427
 30
0.0
 42
-0.0296929790000322
  0
VERTEX
  5
BC2
  8
DATA
 62
     7
 10
176.6720499810001
 20
180.531012565
 30
0.0
  0
VERTEX
  5
BC3
  8
DATA
 62
     7
 10
176.6720499810001
 20
180.531012565
 30
0.0
  0
VERTEX
  5
BC4
  8
DATA
 62
     7
 10
176.6720499810005
 20
180.5310125650004
 30
0.0
 42
-0.0345509549997558
  0
VERTEX
  5
BC5
  8
DATA
 62
     7
 10
176.79237096800011
 20
180.617256739
 30
0.0
  0
VERTEX
  5
BC6
  8
DATA
 62
     7
 10
176.79237096800011
 20
180.617256739
 30
0.0
  0
VERTEX
  5
BC7
  8
DATA
 62
     7
 10
176.79237096800111
 20
180.6172567390006
 30
0.0
 42
-0.0397012469992475
  0
VERTEX
  5
BC8
  8
DATA
 62
     7
 10
176.91560379399991
 20
180.6799933879999
 30
0.0
  0
VERTEX
  5
BC9
  8
DATA
 62
     7
 10
176.91560379399991
 20
180.6799933879999
 30
0.0
  0
VERTEX
  5
BCA
  8
DATA
 62
     7
 10
176.91560379399999
 20
180.6799933879999
 30
0.0
 42
-0.0443911849999993
  0
VERTEX
  5
BCB
  8
DATA
 62
     7
 10
177.0408203130003
 20
180.71875000000011
 30
0.0
  0
VERTEX
  5
BCC
  8
DATA
 62
     7
 10
177.0408203130003
 20
180.71875000000011
 30
0.0
  0
VERTEX
  5
BCD
  8
DATA
 62
     7
 10
177.0408203130003
 20
180.71875000000011
 30
0.0
  0
SEQEND
  5
BCE
  8
DATA
 62
     7
  0
LINE
  5
1A3
  8
DATA
 62
     7
 10
179.94121093800021
 20
180.71875000000011
 30
0.0
 11
179.94121093800021
 21
169.00000000000011
 31
0.0
  0
POLYLINE
  5
1A4
  8
DATA
 62
     7
 66
     1
 10
0.0
 20
0.0
 30
0.0
 70
   128
  0
VERTEX
  5
BCF
  8
DATA
 62
     7
 10
171.5857421880001
 20
178.14062500000011
 30
0.0
 42
-0.0118612490001115
  0
VERTEX
  5
BD0
  8
DATA
 62
     7
 10
171.7061270239999
 20
177.58026837000011
 30
0.0
  0
VERTEX
  5
BD1
  8
DATA
 62
     7
 10
171.7061270239999
 20
177.58026837000011
 30
0.0
  0
VERTEX
  5
BD2
  8
DATA
 62
     7
 10
171.70612702400001
 20
177.5802683699994
 30
0.0
 42
-0.0111726709999663
  0
VERTEX
  5
BD3
  8
DATA
 62
     7
 10
171.80360095000009
 20
176.99833352899989
 30
0.0
  0
VERTEX
  5
BD4
  8
DATA
 62
     7
 10
171.80360095000009
 20
176.99833352899989
 30
0.0
  0
VERTEX
  5
BD5
  8
DATA
 62
     7
 10
171.80360095000009
 20
176.99833352899989
 30
0.0
 42
-0.0106649060001849
  0
VERTEX
  5
BD6
  8
DATA
 62
     7
 10
171.87739094300011
 20
176.39943554800001
 30
0.0
  0
VERTEX
  5
BD7
  8
DATA
 62
     7
 10
171.87739094300011
 20
176.39943554800001
 30
0.0
  0
VERTEX
  5
BD8
  8
DATA
 62
     7
 10
171.87739094300071
 20
176.39943554799439
 30
0.0
 42
-0.0103138129998226
  0
VERTEX
  5
BD9
  8
DATA
 62
     7
 10
171.92691180499969
 20
175.7883240220057
 30
0.0
  0
VERTEX
  5
BDA
  8
DATA
 62
     7
 10
171.92691180500009
 20
175.7883240219999
 30
0.0
  0
VERTEX
  5
BDB
  8
DATA
 62
     7
 10
171.92691180500009
 20
175.7883240219999
 30
0.0
  0
VERTEX
  5
BDC
  8
DATA
 62
     7
 10
171.92691180500009
 20
175.7883240219999
 30
0.0
 42
-0.0101031870003618
  0
VERTEX
  5
BDD
  8
DATA
 62
     7
 10
171.95177080900001
 20
175.169845409
 30
0.0
  0
VERTEX
  5
BDE
  8
DATA
 62
     7
 10
171.95177080900001
 20
175.169845409
 30
0.0
  0
VERTEX
  5
BDF
  8
DATA
 62
     7
 10
171.95177080900001
 20
175.169845409
 30
0.0
 42
-0.010023512000259
  0
VERTEX
  5
BE0
  8
DATA
 62
     7
 10
171.95177080900001
 20
174.5489045919999
 30
0.0
  0
VERTEX
  5
BE1
  8
DATA
 62
     7
 10
171.95177080900001
 20
174.5489045919999
 30
0.0
  0
VERTEX
  5
BE2
  8
DATA
 62
     7
 10
171.95177080900001
 20
174.5489045919999
 30
0.0
 42
-0.0100712290001787
  0
VERTEX
  5
BE3
  8
DATA
 62
     7
 10
171.92691180500009
 20
173.93042597900001
 30
0.0
  0
VERTEX
  5
BE4
  8
DATA
 62
     7
 10
171.92691180500009
 20
173.93042597900001
 30
0.0
  0
VERTEX
  5
BE5
  8
DATA
 62
     7
 10
171.92691180499969
 20
173.93042597899361
 30
0.0
 42
-0.010248466999791
  0
VERTEX
  5
BE6
  8
DATA
 62
     7
 10
171.87739094300071
 20
173.3193144530064
 30
0.0
  0
VERTEX
  5
BE7
  8
DATA
 62
     7
 10
171.87739094300011
 20
173.319314453
 30
0.0
  0
VERTEX
  5
BE8
  8
DATA
 62
     7
 10
171.87739094300011
 20
173.319314453
 30
0.0
  0
VERTEX
  5
BE9
  8
DATA
 62
     7
 10
171.87739094299991
 20
173.31931445299841
 30
0.0
 42
-0.0105632009999464
  0
VERTEX
  5
BEA
  8
DATA
 62
     7
 10
171.80360095000009
 20
172.72041647099999
 30
0.0
  0
VERTEX
  5
BEB
  8
DATA
 62
     7
 10
171.80360095000009
 20
172.72041647099999
 30
0.0
  0
VERTEX
  5
BEC
  8
DATA
 62
     7
 10
171.80360095000009
 20
172.72041647099999
 30
0.0
 42
-0.0110298720000423
  0
VERTEX
  5
BED
  8
DATA
 62
     7
 10
171.7061270239999
 20
172.13848163000009
 30
0.0
  0
VERTEX
  5
BEE
  8
DATA
 62
     7
 10
171.7061270239999
 20
172.13848163000009
 30
0.0
  0
VERTEX
  5
BEF
  8
DATA
 62
     7
 10
171.70612702399939
 20
172.1384816299979
 30
0.0
 42
-0.0116704869999091
  0
VERTEX
  5
BF0
  8
DATA
 62
     7
 10
171.5857421880001
 20
171.57812500000011
 30
0.0
  0
VERTEX
  5
BF1
  8
DATA
 62
     7
 10
171.5857421880001
 20
171.57812500000011
 30
0.0
  0
SEQEND
  5
BF2
  8
DATA
 62
     7
  0
POLYLINE
  5
1C9
  8
DATA
 62
     7
 66
     1
 10
0.0
 20
0.0
 30
0.0
 70
   128
  0
VERTEX
  5
BF3
  8
DATA
 62
     7
 10
167.6306640630001
 20
171.57812500000011
 30
0.0
 42
-0.0120624300001884
  0
VERTEX
  5
BF4
  8
DATA
 62
     7
 10
167.5129407340001
 20
172.041067927
 30
0.0
  0
VERTEX
  5
BF5
  8
DATA
 62
     7
 10
167.5129407340001
 20
172.041067927
 30
0.0
  0
VERTEX
  5
BF6
  8
DATA
 62
     7
 10
167.5129407340001
 20
172.041067927
 30
0.0
 42
-0.0112713600001552
  0
VERTEX
  5
BF7
  8
DATA
 62
     7
 10
167.413486788
 20
172.52471005500001
 30
0.0
  0
VERTEX
  5
BF8
  8
DATA
 62
     7
 10
167.413486788
 20
172.52471005500001
 30
0.0
  0
VERTEX
  5
BF9
  8
DATA
 62
     7
 10
167.41348678799989
 20
172.52471005500061
 30
0.0
 42
-0.0106649539999834
  0
VERTEX
  5
BFA
  8
DATA
 62
     7
 10
167.33303266999991
 20
173.02549925
 30
0.0
  0
VERTEX
  5
BFB
  8
DATA
 62
     7
 10
167.33303266999991
 20
173.02549925
 30
0.0
  0
VERTEX
  5
BFC
  8
DATA
 62
     7
 10
167.3330326699994
 20
173.02549925000361
 30
0.0
 42
-0.0102157609998543
  0
VERTEX
  5
BFD
  8
DATA
 62
     7
 10
167.27216927900039
 20
173.53975743899619
 30
0.0
  0
VERTEX
  5
BFE
  8
DATA
 62
     7
 10
167.27216927900011
 20
173.539757439
 30
0.0
  0
VERTEX
  5
BFF
  8
DATA
 62
     7
 10
167.27216927900011
 20
173.539757439
 30
0.0
  0
VERTEX
  5
C00
  8
DATA
 62
     7
 10
167.2721692789994
 20
173.53975743900639
 30
0.0
 42
-0.0099041029997614
  0
VERTEX
  5
C01
  8
DATA
 62
     7
 10
167.23134362800039
 20
174.06370762799409
 30
0.0
  0
VERTEX
  5
C02
  8
DATA
 62
     7
 10
167.23134362799999
 20
174.063707628
 30
0.0
  0
VERTEX
  5
C03
  8
DATA
 62
     7
 10
167.23134362799999
 20
174.063707628
 30
0.0
  0
VERTEX
  5
C04
  8
DATA
 62
     7
 10
167.23134362799979
 20
174.06370762800341
 30
0.0
 42
-0.0097166989998706
  0
VERTEX
  5
C05
  8
DATA
 62
     7
 10
167.21085556599991
 20
174.5935016359999
 30
0.0
  0
VERTEX
  5
C06
  8
DATA
 62
     7
 10
167.21085556599991
 20
174.5935016359999
 30
0.0
  0
VERTEX
  5
C07
  8
DATA
 62
     7
 10
167.21085556599979
 20
174.59350163600439
 30
0.0
 42
-0.0096457199998548
  0
VERTEX
  5
C08
  8
DATA
 62
     7
 10
167.21085556599979
 20
175.12524836499469
 30
0.0
  0
VERTEX
  5
C09
  8
DATA
 62
     7
 10
167.21085556599991
 20
175.125248365
 30
0.0
  0
VERTEX
  5
C0A
  8
DATA
 62
     7
 10
167.21085556599991
 20
175.125248365
 30
0.0
  0
VERTEX
  5
C0B
  8
DATA
 62
     7
 10
167.21085556600011
 20
175.12524836500691
 30
0.0
 42
-0.009688233999743
  0
VERTEX
  5
C0C
  8
DATA
 62
     7
 10
167.23134362799959
 20
175.6550423729916
 30
0.0
  0
VERTEX
  5
C0D
  8
DATA
 62
     7
 10
167.23134362799999
 20
175.6550423730001
 30
0.0
  0
VERTEX
  5
C0E
  8
DATA
 62
     7
 10
167.23134362799999
 20
175.6550423730001
 30
0.0
  0
VERTEX
  5
C0F
  8
DATA
 62
     7
 10
167.23134362799999
 20
175.6550423730001
 30
0.0
 42
-0.0098459960000606
  0
VERTEX
  5
C10
  8
DATA
 62
     7
 10
167.27216927900011
 20
176.1789925609998
 30
0.0
  0
VERTEX
  5
C11
  8
DATA
 62
     7
 10
167.27216927900011
 20
176.1789925609998
 30
0.0
  0
VERTEX
  5
C12
  8
DATA
 62
     7
 10
167.27216927900079
 20
176.17899256100739
 30
0.0
 42
-0.010125571999711
  0
VERTEX
  5
C13
  8
DATA
 62
     7
 10
167.33303266999889
 20
176.6932507509928
 30
0.0
  0
VERTEX
  5
C14
  8
DATA
 62
     7
 10
167.33303266999991
 20
176.69325075099991
 30
0.0
  0
VERTEX
  5
C15
  8
DATA
 62
     7
 10
167.33303266999991
 20
176.69325075099991
 30
0.0
  0
VERTEX
  5
C16
  8
DATA
 62
     7
 10
167.3330326700007
 20
176.69325075100559
 30
0.0
 42
-0.0105388059997602
  0
VERTEX
  5
C17
  8
DATA
 62
     7
 10
167.41348678799881
 20
177.19403994499419
 30
0.0
  0
VERTEX
  5
C18
  8
DATA
 62
     7
 10
167.413486788
 20
177.19403994499999
 30
0.0
  0
VERTEX
  5
C19
  8
DATA
 62
     7
 10
167.413486788
 20
177.19403994499999
 30
0.0
  0
VERTEX
  5
C1A
  8
DATA
 62
     7
 10
167.413486788
 20
177.19403994499999
 30
0.0
 42
-0.0111036670001624
  0
VERTEX
  5
C1B
  8
DATA
 62
     7
 10
167.5129407340001
 20
177.67768207300011
 30
0.0
  0
VERTEX
  5
C1C
  8
DATA
 62
     7
 10
167.5129407340001
 20
177.67768207300011
 30
0.0
  0
VERTEX
  5
C1D
  8
DATA
 62
     7
 10
167.5129407340001
 20
177.67768207300011
 30
0.0
 42
-0.0118455080002651
  0
VERTEX
  5
C1E
  8
DATA
 62
     7
 10
167.6306640630001
 20
178.14062500000011
 30
0.0
  0
VERTEX
  5
C1F
  8
DATA
 62
     7
 10
167.6306640630001
 20
178.14062500000011
 30
0.0
  0
SEQEND
  5
C20
  8
DATA
 62
     7
  0
LINE
  5
1F8
  8
DATA
 62
     7
 10
163.4412109380003
 20
169.00000000000011
 30
0.0
 11
163.4412109380003
 21
180.71875000000011
 31
0.0
  0
LINE
  5
1F9
  8
DATA
 62
     7
 10
159.2224609380003
 20
169.00000000000011
 30
0.0
 11
159.2224609380003
 21
180.71875000000011
 31
0.0
  0
LINE
  5
1FA
  8
DATA
 62
     7
 10
155.1912109380003
 20
180.71875000000011
 30
0.0
 11
150.97246093800021
 21
180.71875000000011
 31
0.0
  0
LINE
  5
1FB
  8
DATA
 62
     7
 10
177.0408203130003
 20
180.71875000000011
 30
0.0
 11
178.94121093800021
 21
180.71875000000011
 31
0.0
  0
LINE
  5
1FC
  8
DATA
 62
     7
 10
178.94121093800021
 20
174.27343750000011
 30
0.0
 11
177.0408203130003
 21
174.27343750000011
 31
0.0
  0
LINE
  5
1FD
  8
DATA
 62
     7
 10
162.4412109380003
 20
177.9409722230001
 30
0.0
 11
160.22246093800021
 21
171.777777778
 31
0.0
  0
LINE
  5
1FE
  8
DATA
 62
     7
 10
153.08183593800021
 20
179.71875000000011
 30
0.0
 11
153.08183593800021
 21
169.00000000000011
 31
0.0
  0
POLYLINE
  5
1FF
  8
DATA
 62
     7
 66
     1
 10
0.0
 20
0.0
 30
0.0
 70
   128
  0
VERTEX
  5
C21
  8
DATA
 62
     7
 10
170.09733262300051
 20
180.6003432199997
 30
0.0
 42
-0.0378228089998635
  0
VERTEX
  5
C22
  8
DATA
 62
     7
 10
170.281967221
 20
180.49127690099999
 30
0.0
  0
VERTEX
  5
C23
  8
DATA
 62
     7
 10
170.281967221
 20
180.49127690099999
 30
0.0
  0
VERTEX
  5
C24
  8
DATA
 62
     7
 10
170.281967221
 20
180.49127690099999
 30
0.0
 42
-0.0329632950005432
  0
VERTEX
  5
C25
  8
DATA
 62
     7
 10
170.46180976900021
 20
180.348026731
 30
0.0
  0
VERTEX
  5
C26
  8
DATA
 62
     7
 10
170.46180976900021
 20
180.348026731
 30
0.0
  0
VERTEX
  5
C27
  8
DATA
 62
     7
 10
170.4618097690003
 20
180.34802673099981
 30
0.0
 42
-0.0284318459999602
  0
VERTEX
  5
C28
  8
DATA
 62
     7
 10
170.6355811630001
 20
180.17161155599999
 30
0.0
  0
VERTEX
  5
C29
  8
DATA
 62
     7
 10
170.6355811630001
 20
180.17161155599999
 30
0.0
  0
VERTEX
  5
C2A
  8
DATA
 62
     7
 10
170.63558116300021
 20
180.1716115559997
 30
0.0
 42
-0.0245056429999836
  0
VERTEX
  5
C2B
  8
DATA
 62
     7
 10
170.80204547800011
 20
179.96328610500001
 30
0.0
  0
VERTEX
  5
C2C
  8
DATA
 62
     7
 10
170.80204547800011
 20
179.96328610500001
 30
0.0
  0
VERTEX
  5
C2D
  8
DATA
 62
     7
 10
170.80204547800011
 20
179.96328610500001
 30
0.0
 42
-0.0212395200003073
  0
VERTEX
  5
C2E
  8
DATA
 62
     7
 10
170.96001876200009
 20
179.72453206099991
 30
0.0
  0
VERTEX
  5
C2F
  8
DATA
 62
     7
 10
170.96001876200009
 20
179.72453206099991
 30
0.0
  0
VERTEX
  5
C30
  8
DATA
 62
     7
 10
170.96001876200179
 20
179.72453206099709
 30
0.0
 42
-0.0185808099995975
  0
VERTEX
  5
C31
  8
DATA
 62
     7
 10
171.10837745200001
 20
179.45704752899991
 30
0.0
  0
VERTEX
  5
C32
  8
DATA
 62
     7
 10
171.10837745200001
 20
179.45704752899991
 30
0.0
  0
VERTEX
  5
C33
  8
DATA
 62
     7
 10
171.10837745200041
 20
179.4570475289992
 30
0.0
 42
-0.0164402349998932
  0
VERTEX
  5
C34
  8
DATA
 62
     7
 10
171.24606636900009
 20
179.162734954
 30
0.0
  0
VERTEX
  5
C35
  8
DATA
 62
     7
 10
171.24606636900009
 20
179.162734954
 30
0.0
  0
VERTEX
  5
C36
  8
DATA
 62
     7
 10
171.24606636900091
 20
179.1627349539979
 30
0.0
 42
-0.0147263959998218
  0
VERTEX
  5
C37
  8
DATA
 62
     7
 10
171.37210621899999
 20
178.84368759099991
 30
0.0
  0
VERTEX
  5
C38
  8
DATA
 62
     7
 10
171.37210621899999
 20
178.84368759099991
 30
0.0
  0
VERTEX
  5
C39
  8
DATA
 62
     7
 10
171.37210621899999
 20
178.84368759099991
 30
0.0
 42
-0.0133592270001166
  0
VERTEX
  5
C3A
  8
DATA
 62
     7
 10
171.48560056200009
 20
178.50217461899999
 30
0.0
  0
VERTEX
  5
C3B
  8
DATA
 62
     7
 10
171.48560056200009
 20
178.50217461899999
 30
0.0
  0
VERTEX
  5
C3C
  8
DATA
 62
     7
 10
171.48560056200009
 20
178.50217461899999
 30
0.0
 42
-0.0122733900000972
  0
VERTEX
  5
C3D
  8
DATA
 62
     7
 10
171.5857421880001
 20
178.14062500000011
 30
0.0
  0
VERTEX
  5
C3E
  8
DATA
 62
     7
 10
171.5857421880001
 20
178.14062500000011
 30
0.0
  0
SEQEND
  5
C3F
  8
DATA
 62
     7
  0
POLYLINE
  5
21F
  8
DATA
 62
     7
 66
     1
 10
0.0
 20
0.0
 30
0.0
 70
   128
  0
VERTEX
  5
C40
  8
DATA
 62
     7
 10
167.6306640630001
 20
178.14062500000011
 30
0.0
 42
-0.0120332960005275
  0
VERTEX
  5
C41
  8
DATA
 62
     7
 10
167.7307513060002
 20
178.50199564499999
 30
0.0
  0
VERTEX
  5
C42
  8
DATA
 62
     7
 10
167.7307513060002
 20
178.50199564499999
 30
0.0
  0
VERTEX
  5
C43
  8
DATA
 62
     7
 10
167.73075130600139
 20
178.50199564500409
 30
0.0
 42
-0.0130561769996775
  0
VERTEX
  5
C44
  8
DATA
 62
     7
 10
167.844178086
 20
178.843351275
 30
0.0
  0
VERTEX
  5
C45
  8
DATA
 62
     7
 10
167.844178086
 20
178.843351275
 30
0.0
  0
VERTEX
  5
C46
  8
DATA
 62
     7
 10
167.844178086
 20
178.843351275
 30
0.0
 42
-0.0143458650000435
  0
VERTEX
  5
C47
  8
DATA
 62
     7
 10
167.97013849000021
 20
179.1622665139999
 30
0.0
  0
VERTEX
  5
C48
  8
DATA
 62
     7
 10
167.97013849000021
 20
179.1622665139999
 30
0.0
  0
VERTEX
  5
C49
  8
DATA
 62
     7
 10
167.9701384900014
 20
179.16226651400291
 30
0.0
 42
-0.0159639099996421
  0
VERTEX
  5
C4A
  8
DATA
 62
     7
 10
168.1077375540001
 20
179.45647542899991
 30
0.0
  0
VERTEX
  5
C4B
  8
DATA
 62
     7
 10
168.1077375540001
 20
179.45647542899991
 30
0.0
  0
VERTEX
  5
C4C
  8
DATA
 62
     7
 10
168.10773755400041
 20
179.4564754290007
 30
0.0
 42
-0.0179866049999254
  0
VERTEX
  5
C4D
  8
DATA
 62
     7
 10
168.2559976190002
 20
179.72388762700001
 30
0.0
  0
VERTEX
  5
C4E
  8
DATA
 62
     7
 10
168.2559976190002
 20
179.72388762700001
 30
0.0
  0
VERTEX
  5
C4F
  8
DATA
 62
     7
 10
168.2559976190015
 20
179.72388762700211
 30
0.0
 42
-0.0205030409996724
  0
VERTEX
  5
C50
  8
DATA
 62
     7
 10
168.413865278
 20
179.96260311099999
 30
0.0
  0
VERTEX
  5
C51
  8
DATA
 62
     7
 10
168.413865278
 20
179.96260311099999
 30
0.0
  0
VERTEX
  5
C52
  8
DATA
 62
     7
 10
168.41386527800179
 20
179.96260311100261
 30
0.0
 42
-0.0236050309994706
  0
VERTEX
  5
C53
  8
DATA
 62
     7
 10
168.58021886
 20
180.1709257759999
 30
0.0
  0
VERTEX
  5
C54
  8
DATA
 62
     7
 10
168.58021886
 20
180.1709257759999
 30
0.0
  0
VERTEX
  5
C55
  8
DATA
 62
     7
 10
168.5802188600002
 20
180.1709257760001
 30
0.0
 42
-0.0273593629999602
  0
VERTEX
  5
C56
  8
DATA
 62
     7
 10
168.753876402
 20
180.34737546299999
 30
0.0
  0
VERTEX
  5
C57
  8
DATA
 62
     7
 10
168.753876402
 20
180.34737546299999
 30
0.0
  0
VERTEX
  5
C58
  8
DATA
 62
     7
 10
168.75387640200071
 20
180.3473754630005
 30
0.0
 42
-0.0317477439997515
  0
VERTEX
  5
C59
  8
DATA
 62
     7
 10
168.933604046
 20
180.49069847399991
 30
0.0
  0
VERTEX
  5
C5A
  8
DATA
 62
     7
 10
168.933604046
 20
180.49069847399991
 30
0.0
  0
VERTEX
  5
C5B
  8
DATA
 62
     7
 10
168.933604046
 20
180.49069847399991
 30
0.0
 42
-0.0365625240002117
  0
VERTEX
  5
C5C
  8
DATA
 62
     7
 10
169.118124803
 20
180.59987648200001
 30
0.0
  0
VERTEX
  5
C5D
  8
DATA
 62
     7
 10
169.118124803
 20
180.59987648200001
 30
0.0
  0
VERTEX
  5
C5E
  8
DATA
 62
     7
 10
169.118124803
 20
180.59987648200001
 30
0.0
  0
SEQEND
  5
C5F
  8
DATA
 62
     7
  0
POLYLINE
  5
240
  8
DATA
 62
     7
 66
     1
 10
0.0
 20
0.0
 30
0.0
 70
   128
  0
VERTEX
  5
C60
  8
DATA
 62
     7
 10
169.11812480299881
 20
169.1188735190004
 30
0.0
 42
-0.0377798319995664
  0
VERTEX
  5
C61
  8
DATA
 62
     7
 10
168.933604046
 20
169.2280515259998
 30
0.0
  0
VERTEX
  5
C62
  8
DATA
 62
     7
 10
168.933604046
 20
169.2280515259998
 30
0.0
  0
VERTEX
  5
C63
  8
DATA
 62
     7
 10
168.933604045999
 20
169.2280515260006
 30
0.0
 42
-0.0329256259996685
  0
VERTEX
  5
C64
  8
DATA
 62
     7
 10
168.753876402
 20
169.371374538
 30
0.0
  0
VERTEX
  5
C65
  8
DATA
 62
     7
 10
168.753876402
 20
169.371374538
 30
0.0
  0
VERTEX
  5
C66
  8
DATA
 62
     7
 10
168.753876402
 20
169.371374538
 30
0.0
 42
-0.0284009050000041
  0
VERTEX
  5
C67
  8
DATA
 62
     7
 10
168.58021886
 20
169.54782422500011
 30
0.0
  0
VERTEX
  5
C68
  8
DATA
 62
     7
 10
168.58021886
 20
169.54782422500011
 30
0.0
  0
VERTEX
  5
C69
  8
DATA
 62
     7
 10
168.58021886
 20
169.54782422500011
 30
0.0
 42
-0.0244810789999892
  0
VERTEX
  5
C6A
  8
DATA
 62
     7
 10
168.413865278
 20
169.75614689
 30
0.0
  0
VERTEX
  5
C6B
  8
DATA
 62
     7
 10
168.413865278
 20
169.75614689
 30
0.0
  0
VERTEX
  5
C6C
  8
DATA
 62
     7
 10
168.4138652779973
 20
169.75614689000369
 30
0.0
 42
-0.0212202859992993
  0
VERTEX
  5
C6D
  8
DATA
 62
     7
 10
168.2559976190025
 20
169.99486237399611
 30
0.0
  0
VERTEX
  5
C6E
  8
DATA
 62
     7
 10
168.2559976190002
 20
169.99486237400001
 30
0.0
  0
VERTEX
  5
C6F
  8
DATA
 62
     7
 10
168.2559976190002
 20
169.99486237400001
 30
0.0
  0
VERTEX
  5
C70
  8
DATA
 62
     7
 10
168.2559976190002
 20
169.99486237400001
 30
0.0
 42
-0.0185657550002843
  0
VERTEX
  5
C71
  8
DATA
 62
     7
 10
168.1077375540001
 20
170.262274572
 30
0.0
  0
VERTEX
  5
C72
  8
DATA
 62
     7
 10
168.1077375540001
 20
170.262274572
 30
0.0
  0
VERTEX
  5
C73
  8
DATA
 62
     7
 10
168.1077375539995
 20
170.26227457200099
 30
0.0
 42
-0.0164283489998364
  0
VERTEX
  5
C74
  8
DATA
 62
     7
 10
167.97013849000021
 20
170.55648348700001
 30
0.0
  0
VERTEX
  5
C75
  8
DATA
 62
     7
 10
167.97013849000021
 20
170.55648348700001
 30
0.0
  0
VERTEX
  5
C76
  8
DATA
 62
     7
 10
167.97013849000021
 20
170.55648348700001
 30
0.0
 42
-0.0147168660000516
  0
VERTEX
  5
C77
  8
DATA
 62
     7
 10
167.844178086
 20
170.8753987259999
 30
0.0
  0
VERTEX
  5
C78
  8
DATA
 62
     7
 10
167.844178086
 20
170.8753987259999
 30
0.0
  0
VERTEX
  5
C79
  8
DATA
 62
     7
 10
167.844178086
 20
170.8753987259999
 30
0.0
 42
-0.0133514270000136
  0
VERTEX
  5
C7A
  8
DATA
 62
     7
 10
167.7307513060002
 20
171.216754356
 30
0.0
  0
VERTEX
  5
C7B
  8
DATA
 62
     7
 10
167.7307513060002
 20
171.216754356
 30
0.0
  0
VERTEX
  5
C7C
  8
DATA
 62
     7
 10
167.7307513060002
 20
171.216754356
 30
0.0
 42
-0.0122668420003447
  0
VERTEX
  5
C7D
  8
DATA
 62
     7
 10
167.6306640630001
 20
171.57812500000011
 30
0.0
  0
VERTEX
  5
C7E
  8
DATA
 62
     7
 10
167.6306640630001
 20
171.57812500000011
 30
0.0
  0
VERTEX
  5
C7F
  8
DATA
 62
     7
 10
167.6306640630001
 20
171.57812500000011
 30
0.0
  0
SEQEND
  5
C80
  8
DATA
 62
     7
  0
POLYLINE
  5
262
  8
DATA
 62
     7
 66
     1
 10
0.0
 20
0.0
 30
0.0
 70
   128
  0
VERTEX
  5
C81
  8
DATA
 62
     7
 10
171.5857421880001
 20
171.57812500000011
 30
0.0
  0
VERTEX
  5
C82
  8
DATA
 62
     7
 10
171.58574218799859
 20
171.57812499999369
 30
0.0
 42
-0.0120332959995841
  0
VERTEX
  5
C83
  8
DATA
 62
     7
 10
171.48565494400199
 20
171.21675435600659
 30
0.0
  0
VERTEX
  5
C84
  8
DATA
 62
     7
 10
171.48565494400009
 20
171.216754356
 30
0.0
  0
VERTEX
  5
C85
  8
DATA
 62
     7
 10
171.48565494400009
 20
171.216754356
 30
0.0
  0
VERTEX
  5
C86
  8
DATA
 62
     7
 10
171.48565494400009
 20
171.216754356
 30
0.0
 42
-0.0130561770000434
  0
VERTEX
  5
C87
  8
DATA
 62
     7
 10
171.37222816400001
 20
170.8753987259999
 30
0.0
  0
VERTEX
  5
C88
  8
DATA
 62
     7
 10
171.37222816400001
 20
170.8753987259999
 30
0.0
  0
VERTEX
  5
C89
  8
DATA
 62
     7
 10
171.3722281639989
 20
170.87539872599689
 30
0.0
 42
-0.0143458649997473
  0
VERTEX
  5
C8A
  8
DATA
 62
     7
 10
171.24626776000011
 20
170.55648348700001
 30
0.0
  0
VERTEX
  5
C8B
  8
DATA
 62
     7
 10
171.24626776000011
 20
170.55648348700001
 30
0.0
  0
VERTEX
  5
C8C
  8
DATA
 62
     7
 10
171.24626776000011
 20
170.55648348700001
 30
0.0
 42
-0.0159639100003017
  0
VERTEX
  5
C8D
  8
DATA
 62
     7
 10
171.10866869600019
 20
170.262274572
 30
0.0
  0
VERTEX
  5
C8E
  8
DATA
 62
     7
 10
171.10866869600019
 20
170.262274572
 30
0.0
  0
VERTEX
  5
C8F
  8
DATA
 62
     7
 10
171.108668695999
 20
170.26227457199769
 30
0.0
 42
-0.0179866049997029
  0
VERTEX
  5
C90
  8
DATA
 62
     7
 10
170.96040863100029
 20
169.99486237400001
 30
0.0
  0
VERTEX
  5
C91
  8
DATA
 62
     7
 10
170.96040863100029
 20
169.99486237400001
 30
0.0
  0
VERTEX
  5
C92
  8
DATA
 62
     7
 10
170.96040863100029
 20
169.99486237400001
 30
0.0
 42
-0.0205030410000379
  0
VERTEX
  5
C93
  8
DATA
 62
     7
 10
170.80254097200009
 20
169.75614689
 30
0.0
  0
VERTEX
  5
C94
  8
DATA
 62
     7
 10
170.80254097200009
 20
169.75614689
 30
0.0
  0
VERTEX
  5
C95
  8
DATA
 62
     7
 10
170.80254097199941
 20
169.75614688999929
 30
0.0
 42
-0.0236050309998186
  0
VERTEX
  5
C96
  8
DATA
 62
     7
 10
170.6361873900002
 20
169.54782422500011
 30
0.0
  0
VERTEX
  5
C97
  8
DATA
 62
     7
 10
170.6361873900002
 20
169.54782422500011
 30
0.0
  0
VERTEX
  5
C98
  8
DATA
 62
     7
 10
170.63618739
 20
169.5478242249998
 30
0.0
 42
-0.0273593629999434
  0
VERTEX
  5
C99
  8
DATA
 62
     7
 10
170.46252984800009
 20
169.371374538
 30
0.0
  0
VERTEX
  5
C9A
  8
DATA
 62
     7
 10
170.46252984800009
 20
169.371374538
 30
0.0
  0
VERTEX
  5
C9B
  8
DATA
 62
     7
 10
170.46252984800009
 20
169.371374538
 30
0.0
 42
-0.0317477440001349
  0
VERTEX
  5
C9C
  8
DATA
 62
     7
 10
170.28280220400001
 20
169.2280515259998
 30
0.0
  0
VERTEX
  5
C9D
  8
DATA
 62
     7
 10
170.28280220400001
 20
169.2280515259998
 30
0.0
  0
VERTEX
  5
C9E
  8
DATA
 62
     7
 10
170.28280220400009
 20
169.2280515259998
 30
0.0
 42
-0.0365625240000315
  0
VERTEX
  5
C9F
  8
DATA
 62
     7
 10
170.09828144700009
 20
169.11887351899989
 30
0.0
  0
VERTEX
  5
CA0
  8
DATA
 62
     7
 10
170.09828144700009
 20
169.11887351899989
 30
0.0
  0
SEQEND
  5
CA1
  8
DATA
 62
     7
  0
LINE
  5
284
  8
DATA
 62
     7
 10
177.16816406300009
 20
173.27343750000011
 30
0.0
 11
175.45878906300021
 21
169.00000000000011
 31
0.0
  0
CIRCLE
  5
285
  8
DATA
 62
     7
 10
400.0
 20
219.99999573500011
 30
0.0
 40
4.5999999999999091
  0
CIRCLE
  5
286
  8
DATA
 62
     7
 10
400.0
 20
79.999995735000013
 30
0.0
 40
4.5999999999999091
  0
CIRCLE
  5
287
  8
DATA
 62
     7
 10
280.00000000000028
 20
219.99999573500011
 30
0.0
 40
4.5999999999999091
  0
CIRCLE
  5
288
  8
DATA
 62
     7
 10
280.00000000000028
 20
79.999995735000013
 30
0.0
 40
4.5999999999999091
  0
CIRCLE
  5
289
  8
DATA
 62
     7
 10
520.0
 20
79.999995735000013
 30
0.0
 40
4.5999999999999091
  0
CIRCLE
  5
28A
  8
DATA
 62
     7
 10
520.0
 20
219.99999573500011
 30
0.0
 40
4.5999999999999091
  0
CIRCLE
  5
28B
  8
DATA
 62
     7
 10
160.0000000000002
 20
219.99999573500011
 30
0.0
 40
6.5
  0
CIRCLE
  5
28C
  8
DATA
 62
     7
 10
160.0000000000002
 20
79.999995735000013
 30
0.0
 40
6.5
  0
CIRCLE
  5
28D
  8
DATA
 62
     7
 10
640.0
 20
219.99999573500011
 30
0.0
 40
6.5
  0
CIRCLE
  5
28E
  8
DATA
 62
     7
 10
640.0
 20
79.999995735000013
 30
0.0
 40
6.5
  0
CIRCLE
  5
28F
  8
DATA
 62
     7
 10
620.0
 20
79.999995735000013
 30
0.0
 40
4.5999999999999091
  0
CIRCLE
  5
290
  8
DATA
 62
     7
 10
620.0
 20
219.99999573500011
 30
0.0
 40
4.5999999999999091
  0
CIRCLE
  5
291
  8
DATA
 62
     7
 10
180.0000000000002
 20
219.99999573500011
 30
0.0
 40
4.5999999999999091
  0
CIRCLE
  5
292
  8
DATA
 62
     7
 10
180.0000000000002
 20
79.999995735000013
 30
0.0
 40
4.5999999999999091
  0
LINE
  5
293
  8
DATA
 62
     7
 10
137.0499999999999
 20
-285.87315005886262
 30
0.0
 11
134.44999999999999
 21
-285.87315005886262
 31
0.0
  0
LINE
  5
294
  8
DATA
 62
     7
 10
665.55000000000007
 20
-285.87315005886262
 30
0.0
 11
662.95000000000005
 21
-285.87315005886262
 31
0.0
  0
LINE
  5
295
  8
DATA
 62
     7
 10
662.95000000000005
 20
-80.873150058862635
 30
0.0
 11
137.0499999999999
 21
-80.873150058862635
 31
0.0
  0
LINE
  5
296
  8
DATA
 62
     7
 10
137.0499999999999
 20
-285.87315005886262
 30
0.0
 11
137.0499999999999
 21
-65.87315005886262
 31
0.0
  0
LINE
  5
297
  8
DATA
 62
     7
 10
662.95000000000005
 20
-285.87315005886262
 30
0.0
 11
662.95000000000005
 21
-65.87315005886262
 31
0.0
  0
LINE
  5
298
  8
DATA
 62
     7
 10
665.55000000000007
 20
-285.87315005886262
 30
0.0
 11
665.55000000000007
 21
-68.473150058862643
 31
0.0
  0
ARC
  5
299
  8
DATA
 62
     7
 10
662.95000000000005
 20
-68.473150058862643
 30
0.0
 40
2.5999999999999082
 50
0.0
 51
90.0
  0
LINE
  5
29A
  8
DATA
 62
     7
 10
134.44999999999999
 20
-285.87315005886262
 30
0.0
 11
134.44999999999999
 21
-68.473150058862643
 31
0.0
  0
LINE
  5
29B
  8
DATA
 62
     7
 10
662.95000000000005
 20
-65.87315005886262
 30
0.0
 11
137.0499999999999
 21
-65.87315005886262
 31
0.0
  0
ARC
  5
29C
  8
DATA
 62
     7
 10
137.0499999999999
 20
-68.473150058862643
 30
0.0
 40
2.6000000000000201
 50
90.0
 51
180.0
  0
LINE
  5
29D
  8
DATA
 62
     7
 10
662.95000000000005
 20
-68.473150058862643
 30
0.0
 11
137.0499999999999
 21
-68.473150058862643
 31
0.0
  0
LINE
  5
29E
  8
DATA
 62
     7
 10
137.0499999999999
 20
-129.00696177286261
 30
0.0
 11
139.65000000000001
 21
-129.00696177286261
 31
0.0
  0
LINE
  5
29F
  8
DATA
 62
     7
 10
139.65000000000001
 20
-269.37315005886262
 30
0.0
 11
139.65000000000001
 21
-129.00696177286261
 31
0.0
  0
LINE
  5
2A0
  8
DATA
 62
     7
 10
137.0499999999999
 20
-269.37315005886262
 30
0.0
 11
139.65000000000001
 21
-269.37315005886262
 31
0.0
  0
LINE
  5
2A1
  8
DATA
 62
     7
 10
662.95000000000005
 20
-129.00696177286261
 30
0.0
 11
660.35000000000014
 21
-129.00696177286261
 31
0.0
  0
LINE
  5
2A2
  8
DATA
 62
     7
 10
660.35000000000014
 20
-269.37315005886262
 30
0.0
 11
660.35000000000014
 21
-129.00696177286261
 31
0.0
  0
LINE
  5
2A3
  8
DATA
 62
     7
 10
662.95000000000005
 20
-269.37315005886262
 30
0.0
 11
660.35000000000014
 21
-269.37315005886262
 31
0.0
  0
ARC
  5
2A4
  8
DATA
 62
     7
 10
-206.4183112210001
 20
-197.52177845486261
 30
0.0
 40
3.5999999999999961
 50
39.99973690700039
 51
220.0004556899994
  0
ARC
  5
2A5
  8
DATA
 62
     7
 10
-270.0
 20
-250.87315005886259
 30
0.0
 40
79.399999999999807
 50
359.99997796700001
 51
39.999979339000049
  0
CIRCLE
  5
2A6
  8
DATA
 62
     7
 10
-270.0
 20
-250.87315005886259
 30
0.0
 40
3.5999999999999082
  0
LINE
  5
2A7
  8
DATA
 62
     7
 10
-165.0
 20
-255.87315005886251
 30
0.0
 11
-165.0
 21
-255.2213889388627
 31
0.0
  0
LINE
  5
2A8
  8
DATA
 62
     7
 10
-165.0
 20
-68.473150058862643
 30
0.0
 11
-335.0
 21
-68.473150058862643
 31
0.0
  0
LINE
  5
2A9
  8
DATA
 62
     7
 10
-165.0
 20
-65.87315005886262
 30
0.0
 11
-335.0
 21
-65.87315005886262
 31
0.0
  0
LINE
  5
2AA
  8
DATA
 62
     7
 10
-335.0
 20
-80.873150058862635
 30
0.0
 11
-337.60000000000008
 21
-80.873150058862635
 31
0.0
  0
LINE
  5
2AB
  8
DATA
 62
     7
 10
-337.60000000000008
 20
-80.873150058862635
 30
0.0
 11
-337.60000000000008
 21
-68.473150058862643
 31
0.0
  0
ARC
  5
2AC
  8
DATA
 62
     7
 10
-335.0
 20
-68.473150058862643
 30
0.0
 40
2.6000000000000201
 50
90.0
 51
180.0
  0
LINE
  5
2AD
  8
DATA
 62
     7
 10
-165.0
 20
-80.873150058862635
 30
0.0
 11
-162.40000000000009
 21
-80.873150058862635
 31
0.0
  0
LINE
  5
2AE
  8
DATA
 62
     7
 10
-162.40000000000009
 20
-80.873150058862635
 30
0.0
 11
-162.40000000000009
 21
-68.473150058862643
 31
0.0
  0
ARC
  5
2AF
  8
DATA
 62
     7
 10
-165.0
 20
-68.473150058862643
 30
0.0
 40
2.5999999999999082
 50
0.0
 51
90.0
  0
LINE
  5
2B0
  8
DATA
 62
     7
 10
-319.22950000000009
 20
-99.336445794862684
 30
0.0
 11
-319.22950000000009
 21
-96.836445794862684
 31
0.0
  0
LINE
  5
2B1
  8
DATA
 62
     7
 10
-319.22950000000009
 20
-99.336445794862684
 30
0.0
 11
-324.2295000000002
 21
-94.336445794862684
 31
0.0
  0
LINE
  5
2B2
  8
DATA
 62
     7
 10
-316.72950000000009
 20
-96.836445794862684
 30
0.0
 11
-319.22950000000009
 21
-96.836445794862684
 31
0.0
  0
LINE
  5
2B3
  8
DATA
 62
     7
 10
-324.2295000000002
 20
-94.336445794862684
 30
0.0
 11
-319.22950000000009
 21
-89.336445794862684
 31
0.0
  0
LINE
  5
2B4
  8
DATA
 62
     7
 10
-316.72950000000009
 20
-91.836445794862684
 30
0.0
 11
-319.22950000000009
 21
-91.836445794862684
 31
0.0
  0
LINE
  5
2B5
  8
DATA
 62
     7
 10
-319.22950000000009
 20
-91.836445794862684
 30
0.0
 11
-319.22950000000009
 21
-89.336445794862684
 31
0.0
  0
LINE
  5
2B6
  8
DATA
 62
     7
 10
-316.72950000000009
 20
-96.836445794862684
 30
0.0
 11
-316.72950000000009
 21
-91.836445794862684
 31
0.0
  0
TEXT
  5
2B7
  8
DATA
 62
     7
 10
-313.2795000000001
 20
-97.156445794862762
 30
0.0
 40
5.0
  1
ＦＲＯＮＴ
 41
0.7
  0
LINE
  5
2B8
  8
DATA
 62
     7
 10
-335.0
 20
-159.71144037786269
 30
0.0
 11
-335.0
 21
-65.87315005886262
 31
0.0
  0
ARC
  5
2B9
  8
DATA
 62
     7
 10
-305.0
 20
-159.71144037786269
 30
0.0
 40
30.0
 50
180.0
 51
200.0
  0
LINE
  5
2BA
  8
DATA
 62
     7
 10
-298.19077985000013
 20
-266.13375098986268
 30
0.0
 11
-333.19077862400007
 21
-169.9720446778625
 31
0.0
  0
ARC
  5
2BB
  8
DATA
 62
     7
 10
-270.0
 20
-255.87315005886251
 30
0.0
 40
30.00000000000006
 50
199.9999931539999
 51
270.0000072859998
  0
LINE
  5
2BC
  8
DATA
 62
     7
 10
-269.9999961850001
 20
-285.87315005886262
 30
0.0
 11
-195.0
 21
-285.87315005886262
 31
0.0
  0
ARC
  5
2BD
  8
DATA
 62
     7
 10
-187.0
 20
-250.87315005886259
 30
0.0
 40
3.6000000000001111
 50
180.00048570200079
 51
0.0000607139994599
  0
ARC
  5
2BE
  8
DATA
 62
     7
 10
-195.0
 20
-255.87315005886251
 30
0.0
 40
30.0
 50
270.0
 51
0.0
  0
LINE
  5
2BF
  8
DATA
 62
     7
 10
-165.0
 20
-224.5077831258626
 30
0.0
 11
-165.0
 21
-65.87315005886262
 31
0.0
  0
ARC
  5
2C0
  8
DATA
 62
     7
 10
-170.0
 20
-224.5077831258626
 30
0.0
 40
4.9999999999999831
 50
279.99999999999989
 51
0.0
  0
LINE
  5
2C1
  8
DATA
 62
     7
 10
-165.0
 20
-255.87315005886251
 30
0.0
 11
-165.0
 21
-241.9731208498626
 31
0.0
  0
ARC
  5
2C2
  8
DATA
 62
     7
 10
-170.0
 20
-241.9731208498626
 30
0.0
 40
5.0
 50
0.0
 51
99.999999999999844
  0
LINE
  5
2C3
  8
DATA
 62
     7
 10
-185.414503895
 20
-232.3029091158626
 30
0.0
 11
-169.131759112
 21
-229.43182189086261
 31
0.0
  0
ARC
  5
2C4
  8
DATA
 62
     7
 10
-270.0
 20
-250.87315005886259
 30
0.0
 40
86.59999999999998
 50
12.382497231000031
 51
39.999989063000072
  0
LINE
  5
2C5
  8
DATA
 62
     7
 10
-184.16423701599999
 20
-239.39352493786271
 30
0.0
 11
-170.86824088800009
 21
-237.0490820848627
 31
0.0
  0
ARC
  5
2C6
  8
DATA
 62
     7
 10
-270.0
 20
-250.87315005886259
 30
0.0
 40
86.59999999999998
 50
0.0000025610000187
 51
7.6175027690000103
  0
CIRCLE
  5
2C7
  8
DATA
 62
     7
 10
-283.89185421299999
 20
-172.08852981786271
 30
0.0
 40
3.0999999999999082
  0
CIRCLE
  5
2C8
  8
DATA
 62
     7
 10
-287.17280958399999
 20
-162.52670354786281
 30
0.0
 40
3.100000000000136
  0
CIRCLE
  5
2C9
  8
DATA
 62
     7
 10
-290.79116908200012
 20
-153.05838998486271
 30
0.0
 40
3.100000000000136
  0
CIRCLE
  5
2CA
  8
DATA
 62
     7
 10
-294.74461597800001
 20
-143.6924429318627
 30
0.0
 40
3.0999999999999082
  0
CIRCLE
  5
2CB
  8
DATA
 62
     7
 10
-299.03062747199999
 20
-134.43766290586251
 30
0.0
 40
3.100000000000136
  0
CIRCLE
  5
2CC
  8
DATA
 62
     7
 10
-290.70552360800002
 20
-173.59908395586251
 30
0.0
 40
3.0999999999999082
  0
CIRCLE
  5
2CD
  8
DATA
 62
     7
 10
-294.80736202399999
 20
-164.3595974238626
 30
0.0
 40
3.0999999999999082
  0
CIRCLE
  5
2CE
  8
DATA
 62
     7
 10
-297.361611466
 20
-175.69774039586261
 30
0.0
 40
3.100000000000136
  0
CIRCLE
  5
2CF
  8
DATA
 62
     7
 10
-299.237170472
 20
-155.24267446186261
 30
0.0
 40
3.100000000000136
  0
CIRCLE
  5
2D0
  8
DATA
 62
     7
 10
-303.99186938100001
 20
-146.25693326586261
 30
0.0
 40
3.0999999999999082
  0
CIRCLE
  5
2D1
  8
DATA
 62
     7
 10
-309.06817853500002
 20
-137.41092098686269
 30
0.0
 40
3.0999999999999082
  0
CIRCLE
  5
2D2
  8
DATA
 62
     7
 10
-256.10814578700001
 20
-172.08852981786271
 30
0.0
 40
3.100000000000136
  0
CIRCLE
  5
2D3
  8
DATA
 62
     7
 10
-263.02754057999999
 20
-171.17757421086259
 30
0.0
 40
3.0999999999999082
  0
CIRCLE
  5
2D4
  8
DATA
 62
     7
 10
-263.7219173630001
 20
-161.0923855348627
 30
0.0
 40
3.100000000000136
  0
CIRCLE
  5
2D5
  8
DATA
 62
     7
 10
-264.76640437600008
 20
-151.01019658286259
 30
0.0
 40
3.100000000000136
  0
CIRCLE
  5
2D6
  8
DATA
 62
     7
 10
-266.161055363
 20
-140.94015908686259
 30
0.0
 40
3.0999999999999082
  0
CIRCLE
  5
2D7
  8
DATA
 62
     7
 10
-267.90571122799997
 20
-130.89142663986269
 30
0.0
 40
3.0999999999999082
  0
CIRCLE
  5
2D8
  8
DATA
 62
     7
 10
-270.0
 20
-170.87315005886259
 30
0.0
 40
3.0999999999999082
  0
CIRCLE
  5
2D9
  8
DATA
 62
     7
 10
-271.57071657900019
 20
-160.88685749486271
 30
0.0
 40
3.100000000000136
  0
CIRCLE
  5
2DA
  8
DATA
 62
     7
 10
-273.48994966999999
 20
-150.9340673568627
 30
0.0
 40
3.0999999999999082
  0
CIRCLE
  5
2DB
  8
DATA
 62
     7
 10
-275.75695518700007
 20
-141.02390123586261
 30
0.0
 40
3.100000000000136
  0
CIRCLE
  5
2DC
  8
DATA
 62
     7
 10
-278.37077684900009
 20
-131.16546402686259
 30
0.0
 40
3.0999999999999082
  0
CIRCLE
  5
2DD
  8
DATA
 62
     7
 10
-276.97245941999989
 20
-171.17757421086259
 30
0.0
 40
3.0999999999999082
  0
CIRCLE
  5
2DE
  8
DATA
 62
     7
 10
-279.40756169400021
 20
-161.36617947586259
 30
0.0
 40
3.100000000000136
  0
CIRCLE
  5
2DF
  8
DATA
 62
     7
 10
-282.18693434100021
 20
-151.61853489486271
 30
0.0
 40
3.100000000000136
  0
CIRCLE
  5
2E0
  8
DATA
 62
     7
 10
-285.309041106
 20
-141.9436624968626
 30
0.0
 40
3.0999999999999082
  0
CIRCLE
  5
2E1
  8
DATA
 62
     7
 10
-288.77213580500012
 20
-132.35054918686259
 30
0.0
 40
3.0999999999999082
  0
CIRCLE
  5
2E2
  8
DATA
 62
     7
 10
-236.92351730199991
 20
-135.5217465458625
 30
0.0
 40
3.0999999999999082
  0
CIRCLE
  5
2E3
  8
DATA
 62
     7
 10
-247.10292055500011
 20
-133.07788804486259
 30
0.0
 40
3.0999999999999082
  0
CIRCLE
  5
2E4
  8
DATA
 62
     7
 10
-256.59437222500009
 20
-141.69307337786279
 30
0.0
 40
3.100000000000136
  0
CIRCLE
  5
2E5
  8
DATA
 62
     7
 10
-257.45658440800003
 20
-131.53052261386259
 30
0.0
 40
3.0999999999999082
  0
CIRCLE
  5
2E6
  8
DATA
 62
     7
 10
-237.83911248000001
 20
-145.67962690286271
 30
0.0
 40
3.100000000000136
  0
CIRCLE
  5
2E7
  8
DATA
 62
     7
 10
-247.5048945660001
 20
-153.43614357986269
 30
0.0
 40
3.100000000000136
  0
CIRCLE
  5
2E8
  8
DATA
 62
     7
 10
-247.12971400999999
 20
-143.2769139778627
 30
0.0
 40
3.100000000000136
  0
CIRCLE
  5
2E9
  8
DATA
 62
     7
 10
-239.09830056300009
 20
-155.76749842886261
 30
0.0
 40
3.100000000000136
  0
CIRCLE
  5
2EA
  8
DATA
 62
     7
 10
-240.6988660990001
 20
-165.7764782548627
 30
0.0
 40
3.0999999999999082
  0
CIRCLE
  5
2EB
  8
DATA
 62
     7
 10
-242.63838853400009
 20
-175.69774039586261
 30
0.0
 40
3.100000000000136
  0
CIRCLE
  5
2EC
  8
DATA
 62
     7
 10
-249.29447639200001
 20
-173.59908395586251
 30
0.0
 40
3.0999999999999082
  0
CIRCLE
  5
2ED
  8
DATA
 62
     7
 10
-248.22702939600001
 20
-163.54653469386261
 30
0.0
 40
3.100000000000136
  0
CIRCLE
  5
2EE
  8
DATA
 62
     7
 10
-255.9208981460001
 20
-161.98119940486259
 30
0.0
 40
3.100000000000136
  0
CIRCLE
  5
2EF
  8
DATA
 62
     7
 10
-256.08268990400012
 20
-151.8463431838627
 30
0.0
 40
3.0999999999999082
  0
TEXT
  5
2F0
  8
DATA
 62
     7
 10
-296.97442741600952
 20
-184.62953683322201
 30
0.0
 40
4.2333333333333307
  1
4
 41
0.7
 11
-296.97442741600952
 21
-180.39620349988871
 31
0.0
 73
     3
  0
TEXT
  5
2F1
  8
DATA
 62
     7
 10
-296.97442741600952
 20
-189.92120349988869
 30
0.0
 40
4.2333333333333307
  1
0
 41
0.7
 11
-296.97442741600952
 21
-185.6878701665554
 31
0.0
 73
     3
  0
TEXT
  5
2F2
  8
DATA
 62
     7
 10
-290.73434504920959
 20
-182.66204642047299
 30
0.0
 40
4.2333333333333307
  1
3
 41
0.7
 11
-290.73434504920959
 21
-178.4287130871397
 31
0.0
 73
     3
  0
TEXT
  5
2F3
  8
DATA
 62
     7
 10
-290.73434504920959
 20
-187.9537130871397
 30
0.0
 40
4.2333333333333307
  1
5
 41
0.7
 11
-290.73434504920959
 21
-183.72037975380641
 31
0.0
 73
     3
  0
TEXT
  5
2F4
  8
DATA
 62
     7
 10
-284.34652999135972
 20
-181.2459019162269
 30
0.0
 40
4.2333333333333307
  1
3
 41
0.7
 11
-284.34652999135972
 21
-177.01256858289361
 31
0.0
 73
     3
  0
TEXT
  5
2F5
  8
DATA
 62
     7
 10
-284.34652999135972
 20
-186.53756858289381
 30
0.0
 40
4.2333333333333307
  1
0
 41
0.7
 11
-284.34652999135972
 21
-182.30423524956049
 31
0.0
 73
     3
  0
TEXT
  5
2F6
  8
DATA
 62
     7
 10
-277.85959737286248
 20
-180.39188103531441
 30
0.0
 40
4.2333333333333307
  1
2
 41
0.7
 11
-277.85959737286248
 21
-176.15854770198109
 31
0.0
 73
     3
  0
TEXT
  5
2F7
  8
DATA
 62
     7
 10
-277.85959737286248
 20
-185.6835477019811
 30
0.0
 40
4.2333333333333307
  1
5
 41
0.7
 11
-277.85959737286248
 21
-181.45021436864781
 31
0.0
 73
     3
  0
TEXT
  5
2F8
  8
DATA
 62
     7
 10
-271.32291666666657
 20
-180.10648339219591
 30
0.0
 40
4.2333333333333307
  1
2
 41
0.7
 11
-271.32291666666657
 21
-175.87315005886259
 31
0.0
 73
     3
  0
TEXT
  5
2F9
  8
DATA
 62
     7
 10
-271.32291666666657
 20
-185.3981500588626
 30
0.0
 40
4.2333333333333307
  1
0
 41
0.7
 11
-271.32291666666657
 21
-181.16481672552931
 31
0.0
 73
     3
  0
TEXT
  5
2FA
  8
DATA
 62
     7
 10
-264.78623596047078
 20
-180.3918810353147
 30
0.0
 40
4.2333333333333307
  1
1
 41
0.7
 11
-264.78623596047078
 21
-176.1585477019814
 31
0.0
 73
     3
  0
TEXT
  5
2FB
  8
DATA
 62
     7
 10
-264.78623596047078
 20
-185.6835477019815
 30
0.0
 40
4.2333333333333307
  1
5
 41
0.7
 11
-264.78623596047078
 21
-181.4502143686482
 31
0.0
 73
     3
  0
TEXT
  5
2FC
  8
DATA
 62
     7
 10
-258.2993033419736
 20
-181.24590191622681
 30
0.0
 40
4.2333333333333307
  1
1
 41
0.7
 11
-258.2993033419736
 21
-177.01256858289349
 31
0.0
 73
     3
  0
TEXT
  5
2FD
  8
DATA
 62
     7
 10
-258.29930334197348
 20
-186.5375685828935
 30
0.0
 40
4.2333333333333307
  1
0
 41
0.7
 11
-258.29930334197348
 21
-182.30423524956021
 31
0.0
 73
     3
  0
TEXT
  5
2FE
  8
DATA
 62
     7
 10
-251.91148828412381
 20
-182.66204642047319
 30
0.0
 40
4.2333333333333307
  1
5
 41
0.7
 11
-251.91148828412381
 21
-178.4287130871399
 31
0.0
 73
     3
  0
TEXT
  5
2FF
  8
DATA
 62
     7
 10
-245.67140591732431
 20
-184.62953683322289
 30
0.0
 40
4.2333333333333307
  1
0
 41
0.7
 11
-245.67140591732431
 21
-180.39620349988959
 31
0.0
 73
     3
  0
TEXT
  5
300
  8
DATA
 62
     7
 10
-232.4273100340001
 20
-138.7656044528627
 30
0.0
 40
4.2333333333333307
  1
4
 41
0.7
 11
-232.4273100340001
 21
-134.53227111952941
 31
0.0
 73
     3
  0
TEXT
  5
301
  8
DATA
 62
     7
 10
-233.34290521200001
 20
-148.9234848098626
 30
0.0
 40
4.2333333333333307
  1
3
 41
0.7
 11
-233.34290521200001
 21
-144.69015147652931
 31
0.0
 73
     3
  0
TEXT
  5
302
  8
DATA
 62
     7
 10
-234.6020932940001
 20
-159.01135633586259
 30
0.0
 40
4.2333333333333307
  1
2
 41
0.7
 11
-234.6020932940001
 21
-154.7780230025293
 31
0.0
 73
     3
  0
TEXT
  5
303
  8
DATA
 62
     7
 10
-236.20265882999999
 20
-169.0203361618627
 30
0.0
 40
4.2333333333333307
  1
1
 41
0.7
 11
-236.20265882999999
 21
-164.78700282852941
 31
0.0
 73
     3
  0
ARC
  5
304
  8
DATA
 62
     7
 10
204.4500000000001
 20
987.5
 30
0.0
 40
10.0
 50
90.0
 51
180.0
  0
LINE
  5
305
  8
DATA
 62
     7
 10
194.44999999999999
 20
912.50000852999995
 30
0.0
 11
194.44999999999999
 21
987.5
 31
0.0
  0
ARC
  5
306
  8
DATA
 62
     7
 10
204.4500000000001
 20
912.5
 30
0.0
 40
10.0
 50
179.9999511260001
 51
270.0
  0
LINE
  5
307
  8
DATA
 62
     7
 10
204.4500000000001
 20
902.5
 30
0.0
 11
595.55000000000007
 21
902.5
 31
0.0
  0
ARC
  5
308
  8
DATA
 62
     7
 10
595.55000000000007
 20
912.5
 30
0.0
 40
10.0
 50
270.0
 51
0.0000378559998353
  0
LINE
  5
309
  8
DATA
 62
     7
 10
605.55000000000018
 20
912.50000660800004
 30
0.0
 11
605.55000000000018
 21
987.5
 31
0.0
  0
ARC
  5
30A
  8
DATA
 62
     7
 10
595.55000000000007
 20
987.5
 30
0.0
 40
10.0
 50
0.0
 51
89.999912573999396
  0
LINE
  5
30B
  8
DATA
 62
     7
 10
204.4500000000001
 20
997.49999999999989
 30
0.0
 11
595.55001525899991
 21
997.49999999999989
 31
0.0
  0
LINE
  5
30C
  8
DATA
 62
     7
 10
134.44999999999999
 20
1035.0
 30
0.0
 11
134.44999999999999
 21
865.0
 31
0.0
  0
LINE
  5
30D
  8
DATA
 62
     7
 10
662.95000000000005
 20
862.39999999999998
 30
0.0
 11
137.0499999999999
 21
862.39999999999998
 31
0.0
  0
LINE
  5
30E
  8
DATA
 62
     7
 10
662.95000000000005
 20
1037.5999999999999
 30
0.0
 11
137.0499999999999
 21
1037.5999999999999
 31
0.0
  0
LINE
  5
30F
  8
DATA
 62
     7
 10
665.55000000000007
 20
1035.0
 30
0.0
 11
665.55000000000007
 21
865.0
 31
0.0
  0
LINE
  5
310
  8
DATA
 62
     7
 10
139.65000000000001
 20
1035.00001079
 30
0.0
 11
139.65000000000001
 21
1037.5999999999999
 31
0.0
  0
ARC
  5
311
  8
DATA
 62
     7
 10
137.0499999999999
 20
1035.0
 30
0.0
 40
2.6000000000000201
 50
270.0
 51
0.0
  0
LINE
  5
312
  8
DATA
 62
     7
 10
137.0499999999999
 20
1032.4000000000001
 30
0.0
 11
134.44999999999999
 21
1032.4000000000001
 31
0.0
  0
LINE
  5
313
  8
DATA
 62
     7
 10
139.65000000000001
 20
1035.0
 30
0.0
 11
134.44999999999999
 21
1035.0
 31
0.0
  0
LINE
  5
314
  8
DATA
 62
     7
 10
137.0499999999999
 20
1037.5999999999999
 30
0.0
 11
137.0499999999999
 21
1032.4000000000001
 31
0.0
  0
LINE
  5
315
  8
DATA
 62
     7
 10
660.35000000000014
 20
1035.00001079
 30
0.0
 11
660.35000000000014
 21
1037.5999999999999
 31
0.0
  0
ARC
  5
316
  8
DATA
 62
     7
 10
662.95000000000005
 20
1035.0
 30
0.0
 40
2.5999999999999082
 50
180.0
 51
270.0
  0
LINE
  5
317
  8
DATA
 62
     7
 10
662.95000000000005
 20
1032.4000000000001
 30
0.0
 11
665.55000000000007
 21
1032.4000000000001
 31
0.0
  0
LINE
  5
318
  8
DATA
 62
     7
 10
660.35000000000014
 20
1035.0
 30
0.0
 11
665.55000000000007
 21
1035.0
 31
0.0
  0
LINE
  5
319
  8
DATA
 62
     7
 10
662.95000000000005
 20
1037.5999999999999
 30
0.0
 11
662.95000000000005
 21
1032.4000000000001
 31
0.0
  0
LINE
  5
31A
  8
DATA
 62
     7
 10
139.65000000000001
 20
864.99999774100013
 30
0.0
 11
139.65000000000001
 21
862.40000852999981
 31
0.0
  0
ARC
  5
31B
  8
DATA
 62
     7
 10
137.0499999999999
 20
865.00000852999983
 30
0.0
 40
2.6000000000001351
 50
0.0
 51
90.0
  0
LINE
  5
31C
  8
DATA
 62
     7
 10
137.0499999999999
 20
867.60000852999985
 30
0.0
 11
134.44999999999999
 21
867.60000852999985
 31
0.0
  0
LINE
  5
31D
  8
DATA
 62
     7
 10
139.65000000000001
 20
865.00000852999983
 30
0.0
 11
134.44999999999999
 21
865.00000852999983
 31
0.0
  0
LINE
  5
31E
  8
DATA
 62
     7
 10
137.0499999999999
 20
862.40000852999981
 30
0.0
 11
137.0499999999999
 21
867.60000852999985
 31
0.0
  0
LINE
  5
31F
  8
DATA
 62
     7
 10
660.35000000000014
 20
864.99999581799955
 30
0.0
 11
660.35000000000014
 21
862.40000660799979
 31
0.0
  0
ARC
  5
320
  8
DATA
 62
     7
 10
662.95000000000005
 20
865.00000660799981
 30
0.0
 40
2.6000000000000201
 50
90.0
 51
180.0
  0
LINE
  5
321
  8
DATA
 62
     7
 10
662.95000000000005
 20
867.60000660799983
 30
0.0
 11
665.55000000000007
 21
867.60000660799983
 31
0.0
  0
LINE
  5
322
  8
DATA
 62
     7
 10
660.35000000000014
 20
865.00000660799981
 30
0.0
 11
665.55000000000007
 21
865.00000660799981
 31
0.0
  0
LINE
  5
323
  8
DATA
 62
     7
 10
662.95000000000005
 20
862.40000660799979
 30
0.0
 11
662.95000000000005
 21
867.60000660799983
 31
0.0
  0
LINE
  5
324
  8
DATA
 62
     7
 10
137.0499999999999
 20
1032.4000000000001
 30
0.0
 11
137.0499999999999
 21
867.60000852999985
 31
0.0
  0
LINE
  5
325
  8
DATA
 62
     7
 10
660.35000000000014
 20
865.0
 30
0.0
 11
139.65000000000001
 21
865.0
 31
0.0
  0
LINE
  5
326
  8
DATA
 62
     7
 10
660.35000000000014
 20
1035.0
 30
0.0
 11
139.65000000000001
 21
1035.0
 31
0.0
  0
LINE
  5
327
  8
DATA
 62
     7
 10
662.95000000000005
 20
1032.4000000000001
 30
0.0
 11
662.95000000000005
 21
867.60000660799983
 31
0.0
  0
LINE
  5
328
  8
DATA
 62
     7
 10
159.44999999999999
 20
955.00000426499992
 30
0.0
 11
164.44999999999999
 21
955.00000426499992
 31
0.0
  0
LINE
  5
329
  8
DATA
 62
     7
 10
159.44999999999999
 20
955.00000426499992
 30
0.0
 11
169.44999999999999
 21
965.00000426500014
 31
0.0
  0
LINE
  5
32A
  8
DATA
 62
     7
 10
164.44999999999999
 20
950.00000426500003
 30
0.0
 11
164.44999999999999
 21
955.00000426499992
 31
0.0
  0
LINE
  5
32B
  8
DATA
 62
     7
 10
169.44999999999999
 20
965.00000426500014
 30
0.0
 11
179.44999999999999
 21
955.00000426499992
 31
0.0
  0
LINE
  5
32C
  8
DATA
 62
     7
 10
174.44999999999999
 20
950.00000426500003
 30
0.0
 11
174.44999999999999
 21
955.00000426499992
 31
0.0
  0
LINE
  5
32D
  8
DATA
 62
     7
 10
174.44999999999999
 20
955.00000426499992
 30
0.0
 11
179.44999999999999
 21
955.00000426499992
 31
0.0
  0
LINE
  5
32E
  8
DATA
 62
     7
 10
164.44999999999999
 20
950.00000426500003
 30
0.0
 11
174.44999999999999
 21
950.00000426500003
 31
0.0
  0
POLYLINE
  5
32F
  8
DATA
 62
     7
 66
     1
 10
0.0
 20
0.0
 30
0.0
  0
VERTEX
  5
CA2
  8
DATA
 62
     7
 10
184.2361328130001
 20
980.71875426500003
 30
0.0
  0
VERTEX
  5
CA3
  8
DATA
 62
     7
 10
187.92753906300021
 20
980.71875426500003
 30
0.0
  0
VERTEX
  5
CA4
  8
DATA
 62
     7
 10
187.92753906300021
 20
969.00000426500003
 30
0.0
  0
SEQEND
  5
CA5
  8
DATA
 62
     7
  0
LINE
  5
334
  8
DATA
 62
     7
 10
187.92753906300021
 20
975.44531676500003
 30
0.0
 11
185.02714843800021
 21
975.44531676500003
 31
0.0
  0
POLYLINE
  5
335
  8
DATA
 62
     7
 66
     1
 10
0.0
 20
0.0
 30
0.0
 70
   128
  0
VERTEX
  5
CA6
  8
DATA
 62
     7
 10
177.04082031299851
 20
974.27344176500003
 30
0.0
 42
-0.0453664709994504
  0
VERTEX
  5
CA7
  8
DATA
 62
     7
 10
176.91560379399991
 20
974.31219837799995
 30
0.0
  0
VERTEX
  5
CA8
  8
DATA
 62
     7
 10
176.91560379399991
 20
974.31219837799995
 30
0.0
  0
VERTEX
  5
CA9
  8
DATA
 62
     7
 10
176.91560379399991
 20
974.31219837799995
 30
0.0
 42
-0.0409557140004338
  0
VERTEX
  5
CAA
  8
DATA
 62
     7
 10
176.79237096800011
 20
974.37493502699999
 30
0.0
  0
VERTEX
  5
CAB
  8
DATA
 62
     7
 10
176.79237096800011
 20
974.37493502699999
 30
0.0
  0
VERTEX
  5
CAC
  8
DATA
 62
     7
 10
176.79237096800011
 20
974.37493502699999
 30
0.0
 42
-0.0358330130002557
  0
VERTEX
  5
CAD
  8
DATA
 62
     7
 10
176.6720499810001
 20
974.46117920100005
 30
0.0
  0
VERTEX
  5
CAE
  8
DATA
 62
     7
 10
176.6720499810001
 20
974.46117920100005
 30
0.0
  0
VERTEX
  5
CAF
  8
DATA
 62
     7
 10
176.6720499810001
 20
974.46117920100005
 30
0.0
 42
-0.0308550790000485
  0
VERTEX
  5
CB0
  8
DATA
 62
     7
 10
176.5555470490001
 20
974.57028133899996
 30
0.0
  0
VERTEX
  5
CB1
  8
DATA
 62
     7
 10
176.5555470490001
 20
974.57028133899996
 30
0.0
  0
VERTEX
  5
CB2
  8
DATA
 62
     7
 10
176.5555470490001
 20
974.57028133899996
 30
0.0
 42
-0.026463232000566
  0
VERTEX
  5
CB3
  8
DATA
 62
     7
 10
176.44373963200019
 20
974.70141972099987
 30
0.0
  0
VERTEX
  5
CB4
  8
DATA
 62
     7
 10
176.44373963200019
 20
974.70141972099987
 30
0.0
  0
VERTEX
  5
CB5
  8
DATA
 62
     7
 10
176.44373963199979
 20
974.70141972100032
 30
0.0
 42
-0.0227885949994017
  0
VERTEX
  5
CB6
  8
DATA
 62
     7
 10
176.33746982600019
 20
974.85360665799988
 30
0.0
  0
VERTEX
  5
CB7
  8
DATA
 62
     7
 10
176.33746982600019
 20
974.85360665799988
 30
0.0
  0
VERTEX
  5
CB8
  8
DATA
 62
     7
 10
176.33746982600019
 20
974.85360665799988
 30
0.0
 42
-0.0197995050006722
  0
VERTEX
  5
CB9
  8
DATA
 62
     7
 10
176.23753801700011
 20
975.02569592999987
 30
0.0
  0
VERTEX
  5
CBA
  8
DATA
 62
     7
 10
176.23753801700011
 20
975.02569592999987
 30
0.0
  0
VERTEX
  5
CBB
  8
DATA
 62
     7
 10
176.23753801700011
 20
975.02569592999987
 30
0.0
 42
-0.0174024370000892
  0
VERTEX
  5
CBC
  8
DATA
 62
     7
 10
176.14469685899999
 20
975.21639142099991
 30
0.0
  0
VERTEX
  5
CBD
  8
DATA
 62
     7
 10
176.14469685899999
 20
975.21639142099991
 30
0.0
  0
VERTEX
  5
CBE
  8
DATA
 62
     7
 10
176.14469685899999
 20
975.21639142099991
 30
0.0
 42
-0.0154935200004939
  0
VERTEX
  5
CBF
  8
DATA
 62
     7
 10
176.05964559800009
 20
975.42425687599996
 30
0.0
  0
VERTEX
  5
CC0
  8
DATA
 62
     7
 10
176.05964559800009
 20
975.42425687599996
 30
0.0
  0
VERTEX
  5
CC1
  8
DATA
 62
     7
 10
176.0596455979985
 20
975.4242568760036
 30
0.0
 42
-0.0139795399991863
  0
VERTEX
  5
CC2
  8
DATA
 62
     7
 10
175.98302481199991
 20
975.64772672599986
 30
0.0
  0
VERTEX
  5
CC3
  8
DATA
 62
     7
 10
175.98302481199991
 20
975.64772672599986
 30
0.0
  0
VERTEX
  5
CC4
  8
DATA
 62
     7
 10
175.98302481199909
 20
975.6477267260027
 30
0.0
 42
-0.0127839600000164
  0
VERTEX
  5
CC5
  8
DATA
 62
     7
 10
175.91541158100009
 20
975.8851178729999
 30
0.0
  0
VERTEX
  5
CC6
  8
DATA
 62
     7
 10
175.91541158100009
 20
975.8851178729999
 30
0.0
  0
VERTEX
  5
CC7
  8
DATA
 62
     7
 10
175.91541158100009
 20
975.8851178729999
 30
0.0
 42
-0.0118467010003027
  0
VERTEX
  5
CC8
  8
DATA
 62
     7
 10
175.8573151450002
 20
976.13464236699997
 30
0.0
  0
VERTEX
  5
CC9
  8
DATA
 62
     7
 10
175.8573151450002
 20
976.13464236699997
 30
0.0
  0
VERTEX
  5
CCA
  8
DATA
 62
     7
 10
175.8573151449998
 20
976.13464236700167
 30
0.0
 42
-0.0111218619998065
  0
VERTEX
  5
CCB
  8
DATA
 62
     7
 10
175.80917306800001
 20
976.39442087700002
 30
0.0
  0
VERTEX
  5
CCC
  8
DATA
 62
     7
 10
175.80917306800001
 20
976.39442087700002
 30
0.0
  0
VERTEX
  5
CCD
  8
DATA
 62
     7
 10
175.80917306799921
 20
976.39442087700525
 30
0.0
 42
-0.0105751219996837
  0
VERTEX
  5
CCE
  8
DATA
 62
     7
 10
175.7713479370002
 20
976.66249683899991
 30
0.0
  0
VERTEX
  5
CCF
  8
DATA
 62
     7
 10
175.7713479370002
 20
976.66249683899991
 30
0.0
  0
VERTEX
  5
CD0
  8
DATA
 62
     7
 10
175.7713479370002
 20
976.66249683899923
 30
0.0
 42
-0.0101814789999091
  0
VERTEX
  5
CD1
  8
DATA
 62
     7
 10
175.74412464000011
 20
976.93685119899965
 30
0.0
  0
VERTEX
  5
CD2
  8
DATA
 62
     7
 10
175.74412464000011
 20
976.93685119899965
 30
0.0
  0
VERTEX
  5
CD3
  8
DATA
 62
     7
 10
175.74412464000011
 20
976.93685119899965
 30
0.0
 42
-0.0099234820002048
  0
VERTEX
  5
CD4
  8
DATA
 62
     7
 10
175.7277082120001
 20
977.21541761299989
 30
0.0
  0
VERTEX
  5
CD5
  8
DATA
 62
     7
 10
175.7277082120001
 20
977.21541761299989
 30
0.0
  0
VERTEX
  5
CD6
  8
DATA
 62
     7
 10
175.7277082120001
 20
977.21541761299989
 30
0.0
 42
-0.0097899730000937
  0
VERTEX
  5
CD7
  8
DATA
 62
     7
 10
175.72222229700009
 20
977.49609801500003
 30
0.0
  0
VERTEX
  5
CD8
  8
DATA
 62
     7
 10
175.72222229700009
 20
977.49609801500003
 30
0.0
  0
VERTEX
  5
CD9
  8
DATA
 62
     7
 10
175.72222229700009
 20
977.49609801500003
 30
0.0
 42
-0.0097752680000396
  0
VERTEX
  5
CDA
  8
DATA
 62
     7
 10
175.7277082120001
 20
977.77677841799994
 30
0.0
  0
VERTEX
  5
CDB
  8
DATA
 62
     7
 10
175.7277082120001
 20
977.77677841799994
 30
0.0
  0
VERTEX
  5
CDC
  8
DATA
 62
     7
 10
175.7277082120001
 20
977.77677841799994
 30
0.0
 42
-0.0098787450002223
  0
VERTEX
  5
CDD
  8
DATA
 62
     7
 10
175.74412464000011
 20
978.05534483199995
 30
0.0
  0
VERTEX
  5
CDE
  8
DATA
 62
     7
 10
175.74412464000011
 20
978.05534483199995
 30
0.0
  0
VERTEX
  5
CDF
  8
DATA
 62
     7
 10
175.74412464000011
 20
978.05534483199995
 30
0.0
 42
-0.0101047990006038
  0
VERTEX
  5
CE0
  8
DATA
 62
     7
 10
175.7713479370002
 20
978.32969919100015
 30
0.0
  0
VERTEX
  5
CE1
  8
DATA
 62
     7
 10
175.7713479370002
 20
978.32969919100015
 30
0.0
  0
VERTEX
  5
CE2
  8
DATA
 62
     7
 10
175.77134793700051
 20
978.32969919100344
 30
0.0
 42
-0.0104631579994027
  0
VERTEX
  5
CE3
  8
DATA
 62
     7
 10
175.80917306800001
 20
978.59777515399992
 30
0.0
  0
VERTEX
  5
CE4
  8
DATA
 62
     7
 10
175.80917306800001
 20
978.59777515399992
 30
0.0
  0
VERTEX
  5
CE5
  8
DATA
 62
     7
 10
175.80917306800001
 20
978.59777515399992
 30
0.0
 42
-0.0109696010002407
  0
VERTEX
  5
CE6
  8
DATA
 62
     7
 10
175.8573151450002
 20
978.85755366399985
 30
0.0
  0
VERTEX
  5
CE7
  8
DATA
 62
     7
 10
175.8573151450002
 20
978.85755366399985
 30
0.0
  0
VERTEX
  5
CE8
  8
DATA
 62
     7
 10
175.8573151450002
 20
978.85755366399985
 30
0.0
 42
-0.0116470960005248
  0
VERTEX
  5
CE9
  8
DATA
 62
     7
 10
175.91541158100009
 20
979.10707815800004
 30
0.0
  0
VERTEX
  5
CEA
  8
DATA
 62
     7
 10
175.91541158100009
 20
979.10707815800004
 30
0.0
  0
VERTEX
  5
CEB
  8
DATA
 62
     7
 10
175.91541158100111
 20
979.10707815800322
 30
0.0
 42
-0.0125274429999003
  0
VERTEX
  5
CEC
  8
DATA
 62
     7
 10
175.98302481199991
 20
979.34446930399986
 30
0.0
  0
VERTEX
  5
CED
  8
DATA
 62
     7
 10
175.98302481199991
 20
979.34446930399986
 30
0.0
  0
VERTEX
  5
CEE
  8
DATA
 62
     7
 10
175.9830248120013
 20
979.34446930400395
 30
0.0
 42
-0.0136534089994828
  0
VERTEX
  5
CEF
  8
DATA
 62
     7
 10
176.05964559800009
 20
979.56793915399965
 30
0.0
  0
VERTEX
  5
CF0
  8
DATA
 62
     7
 10
176.05964559800009
 20
979.56793915399965
 30
0.0
  0
VERTEX
  5
CF1
  8
DATA
 62
     7
 10
176.0596455980008
 20
979.56793915400192
 30
0.0
 42
-0.0150812849996936
  0
VERTEX
  5
CF2
  8
DATA
 62
     7
 10
176.14469685899999
 20
979.77580461000002
 30
0.0
  0
VERTEX
  5
CF3
  8
DATA
 62
     7
 10
176.14469685899999
 20
979.77580461000002
 30
0.0
  0
VERTEX
  5
CF4
  8
DATA
 62
     7
 10
176.14469685899999
 20
979.77580461000002
 30
0.0
 42
-0.0168833470002286
  0
VERTEX
  5
CF5
  8
DATA
 62
     7
 10
176.23753801700011
 20
979.96650009999985
 30
0.0
  0
VERTEX
  5
CF6
  8
DATA
 62
     7
 10
176.23753801700011
 20
979.96650009999985
 30
0.0
  0
VERTEX
  5
CF7
  8
DATA
 62
     7
 10
176.23753801700011
 20
979.96650009999985
 30
0.0
 42
-0.0191488540002213
  0
VERTEX
  5
CF8
  8
DATA
 62
     7
 10
176.33746982600019
 20
980.13858937299995
 30
0.0
  0
VERTEX
  5
CF9
  8
DATA
 62
     7
 10
176.33746982600019
 20
980.13858937299995
 30
0.0
  0
VERTEX
  5
CFA
  8
DATA
 62
     7
 10
176.33746982600019
 20
980.13858937299995
 30
0.0
 42
-0.021980189000089
  0
VERTEX
  5
CFB
  8
DATA
 62
     7
 10
176.44373963200019
 20
980.29077630999996
 30
0.0
  0
VERTEX
  5
CFC
  8
DATA
 62
     7
 10
176.44373963200019
 20
980.29077630999996
 30
0.0
  0
VERTEX
  5
CFD
  8
DATA
 62
     7
 10
176.4437396320001
 20
980.29077630999996
 30
0.0
 42
-0.0254767700002571
  0
VERTEX
  5
CFE
  8
DATA
 62
     7
 10
176.5555470490001
 20
980.42191469199986
 30
0.0
  0
VERTEX
  5
CFF
  8
DATA
 62
     7
 10
176.5555470490001
 20
980.42191469199986
 30
0.0
  0
VERTEX
  5
D00
  8
DATA
 62
     7
 10
176.5555470490001
 20
980.42191469199986
 30
0.0
 42
-0.0296929790000275
  0
VERTEX
  5
D01
  8
DATA
 62
     7
 10
176.6720499810001
 20
980.53101683
 30
0.0
  0
VERTEX
  5
D02
  8
DATA
 62
     7
 10
176.6720499810001
 20
980.53101683
 30
0.0
  0
VERTEX
  5
D03
  8
DATA
 62
     7
 10
176.67204998100021
 20
980.53101683
 30
0.0
 42
-0.0345509549996822
  0
VERTEX
  5
D04
  8
DATA
 62
     7
 10
176.79237096800011
 20
980.61726100399994
 30
0.0
  0
VERTEX
  5
D05
  8
DATA
 62
     7
 10
176.79237096800011
 20
980.61726100399994
 30
0.0
  0
VERTEX
  5
D06
  8
DATA
 62
     7
 10
176.79237096800111
 20
980.61726100400062
 30
0.0
 42
-0.0397012469995556
  0
VERTEX
  5
D07
  8
DATA
 62
     7
 10
176.91560379399991
 20
980.67999765299987
 30
0.0
  0
VERTEX
  5
D08
  8
DATA
 62
     7
 10
176.91560379399991
 20
980.67999765299987
 30
0.0
  0
VERTEX
  5
D09
  8
DATA
 62
     7
 10
176.91560379400059
 20
980.67999765300033
 30
0.0
 42
-0.0443911849995336
  0
VERTEX
  5
D0A
  8
DATA
 62
     7
 10
177.0408203130003
 20
980.71875426500003
 30
0.0
  0
VERTEX
  5
D0B
  8
DATA
 62
     7
 10
177.0408203130003
 20
980.71875426500003
 30
0.0
  0
VERTEX
  5
D0C
  8
DATA
 62
     7
 10
177.0408203130003
 20
980.71875426500003
 30
0.0
  0
SEQEND
  5
D0D
  8
DATA
 62
     7
  0
LINE
  5
39E
  8
DATA
 62
     7
 10
179.94121093800021
 20
980.71875426500003
 30
0.0
 11
179.94121093800021
 21
969.00000426500003
 31
0.0
  0
POLYLINE
  5
39F
  8
DATA
 62
     7
 66
     1
 10
0.0
 20
0.0
 30
0.0
 70
   128
  0
VERTEX
  5
D0E
  8
DATA
 62
     7
 10
171.5857421880001
 20
978.14062926500003
 30
0.0
 42
-0.011861249000108
  0
VERTEX
  5
D0F
  8
DATA
 62
     7
 10
171.7061270239999
 20
977.58027263500014
 30
0.0
  0
VERTEX
  5
D10
  8
DATA
 62
     7
 10
171.7061270239999
 20
977.58027263500014
 30
0.0
  0
VERTEX
  5
D11
  8
DATA
 62
     7
 10
171.7061270240001
 20
977.58027263499878
 30
0.0
 42
-0.0111726709999253
  0
VERTEX
  5
D12
  8
DATA
 62
     7
 10
171.80360095000009
 20
976.99833779399989
 30
0.0
  0
VERTEX
  5
D13
  8
DATA
 62
     7
 10
171.80360095000009
 20
976.99833779399989
 30
0.0
  0
VERTEX
  5
D14
  8
DATA
 62
     7
 10
171.80360095000009
 20
976.99833779399989
 30
0.0
 42
-0.0106649060001817
  0
VERTEX
  5
D15
  8
DATA
 62
     7
 10
171.87739094300011
 20
976.39943981299996
 30
0.0
  0
VERTEX
  5
D16
  8
DATA
 62
     7
 10
171.87739094300011
 20
976.39943981299996
 30
0.0
  0
VERTEX
  5
D17
  8
DATA
 62
     7
 10
171.87739094300071
 20
976.39943981299382
 30
0.0
 42
-0.0103138129998576
  0
VERTEX
  5
D18
  8
DATA
 62
     7
 10
171.92691180500009
 20
975.78832828700001
 30
0.0
  0
VERTEX
  5
D19
  8
DATA
 62
     7
 10
171.92691180500009
 20
975.78832828700001
 30
0.0
  0
VERTEX
  5
D1A
  8
DATA
 62
     7
 10
171.92691180500009
 20
975.78832828700001
 30
0.0
 42
-0.0101031870003625
  0
VERTEX
  5
D1B
  8
DATA
 62
     7
 10
171.95177080900001
 20
975.16984967399992
 30
0.0
  0
VERTEX
  5
D1C
  8
DATA
 62
     7
 10
171.95177080900001
 20
975.16984967399992
 30
0.0
  0
VERTEX
  5
D1D
  8
DATA
 62
     7
 10
171.95177080900001
 20
975.16984967399992
 30
0.0
 42
-0.0100235120002597
  0
VERTEX
  5
D1E
  8
DATA
 62
     7
 10
171.95177080900001
 20
974.54890885699979
 30
0.0
  0
VERTEX
  5
D1F
  8
DATA
 62
     7
 10
171.95177080900001
 20
974.54890885699979
 30
0.0
  0
VERTEX
  5
D20
  8
DATA
 62
     7
 10
171.95177080900001
 20
974.54890885699979
 30
0.0
 42
-0.010071229000178
  0
VERTEX
  5
D21
  8
DATA
 62
     7
 10
171.92691180500009
 20
973.93043024399992
 30
0.0
  0
VERTEX
  5
D22
  8
DATA
 62
     7
 10
171.92691180500009
 20
973.93043024399992
 30
0.0
  0
VERTEX
  5
D23
  8
DATA
 62
     7
 10
171.92691180499969
 20
973.93043024399356
 30
0.0
 42
-0.0102484669997957
  0
VERTEX
  5
D24
  8
DATA
 62
     7
 10
171.87739094300011
 20
973.31931871799986
 30
0.0
  0
VERTEX
  5
D25
  8
DATA
 62
     7
 10
171.87739094300011
 20
973.31931871799986
 30
0.0
  0
VERTEX
  5
D26
  8
DATA
 62
     7
 10
171.87739094299999
 20
973.31931871799884
 30
0.0
 42
-0.010563200999903
  0
VERTEX
  5
D27
  8
DATA
 62
     7
 10
171.80360095000009
 20
972.72042073600005
 30
0.0
  0
VERTEX
  5
D28
  8
DATA
 62
     7
 10
171.80360095000009
 20
972.72042073600005
 30
0.0
  0
VERTEX
  5
D29
  8
DATA
 62
     7
 10
171.80360095000009
 20
972.72042073600005
 30
0.0
 42
-0.0110298720000379
  0
VERTEX
  5
D2A
  8
DATA
 62
     7
 10
171.7061270239999
 20
972.13848589500014
 30
0.0
  0
VERTEX
  5
D2B
  8
DATA
 62
     7
 10
171.7061270239999
 20
972.13848589500014
 30
0.0
  0
VERTEX
  5
D2C
  8
DATA
 62
     7
 10
171.7061270239993
 20
972.13848589499685
 30
0.0
 42
-0.0116704869997973
  0
VERTEX
  5
D2D
  8
DATA
 62
     7
 10
171.5857421880001
 20
971.57812926500003
 30
0.0
  0
VERTEX
  5
D2E
  8
DATA
 62
     7
 10
171.5857421880001
 20
971.57812926500003
 30
0.0
  0
SEQEND
  5
D2F
  8
DATA
 62
     7
  0
POLYLINE
  5
3C2
  8
DATA
 62
     7
 66
     1
 10
0.0
 20
0.0
 30
0.0
 70
   128
  0
VERTEX
  5
D30
  8
DATA
 62
     7
 10
167.6306640630001
 20
971.57812926500003
 30
0.0
 42
-0.0120624300001918
  0
VERTEX
  5
D31
  8
DATA
 62
     7
 10
167.5129407340001
 20
972.041072192
 30
0.0
  0
VERTEX
  5
D32
  8
DATA
 62
     7
 10
167.5129407340001
 20
972.041072192
 30
0.0
  0
VERTEX
  5
D33
  8
DATA
 62
     7
 10
167.5129407340001
 20
972.041072192
 30
0.0
 42
-0.0112713600001558
  0
VERTEX
  5
D34
  8
DATA
 62
     7
 10
167.413486788
 20
972.52471431999982
 30
0.0
  0
VERTEX
  5
D35
  8
DATA
 62
     7
 10
167.413486788
 20
972.52471431999982
 30
0.0
  0
VERTEX
  5
D36
  8
DATA
 62
     7
 10
167.41348678799969
 20
972.52471432000107
 30
0.0
 42
-0.0106649539999685
  0
VERTEX
  5
D37
  8
DATA
 62
     7
 10
167.33303266999991
 20
973.02550351499985
 30
0.0
  0
VERTEX
  5
D38
  8
DATA
 62
     7
 10
167.33303266999991
 20
973.02550351499985
 30
0.0
  0
VERTEX
  5
D39
  8
DATA
 62
     7
 10
167.33303266999951
 20
973.02550351500315
 30
0.0
 42
-0.0102157609998638
  0
VERTEX
  5
D3A
  8
DATA
 62
     7
 10
167.27216927900011
 20
973.53976170399994
 30
0.0
  0
VERTEX
  5
D3B
  8
DATA
 62
     7
 10
167.27216927900011
 20
973.53976170399994
 30
0.0
  0
VERTEX
  5
D3C
  8
DATA
 62
     7
 10
167.27216927899951
 20
973.53976170400574
 30
0.0
 42
-0.0099041029997453
  0
VERTEX
  5
D3D
  8
DATA
 62
     7
 10
167.23134362799999
 20
974.06371189299989
 30
0.0
  0
VERTEX
  5
D3E
  8
DATA
 62
     7
 10
167.23134362799999
 20
974.06371189299989
 30
0.0
  0
VERTEX
  5
D3F
  8
DATA
 62
     7
 10
167.23134362799979
 20
974.06371189300444
 30
0.0
 42
-0.009716698999707
  0
VERTEX
  5
D40
  8
DATA
 62
     7
 10
167.21085556599991
 20
974.59350590099984
 30
0.0
  0
VERTEX
  5
D41
  8
DATA
 62
     7
 10
167.21085556599991
 20
974.59350590099984
 30
0.0
  0
VERTEX
  5
D42
  8
DATA
 62
     7
 10
167.21085556599979
 20
974.59350590100485
 30
0.0
 42
-0.009645719999785
  0
VERTEX
  5
D43
  8
DATA
 62
     7
 10
167.21085556599991
 20
975.12525262999998
 30
0.0
  0
VERTEX
  5
D44
  8
DATA
 62
     7
 10
167.21085556599991
 20
975.12525262999998
 30
0.0
  0
VERTEX
  5
D45
  8
DATA
 62
     7
 10
167.21085556600011
 20
975.12525263000794
 30
0.0
 42
-0.0096882339996685
  0
VERTEX
  5
D46
  8
DATA
 62
     7
 10
167.23134362799999
 20
975.65504663800004
 30
0.0
  0
VERTEX
  5
D47
  8
DATA
 62
     7
 10
167.23134362799999
 20
975.65504663800004
 30
0.0
  0
VERTEX
  5
D48
  8
DATA
 62
     7
 10
167.23134362799999
 20
975.65504663800004
 30
0.0
 42
-0.009845996000062
  0
VERTEX
  5
D49
  8
DATA
 62
     7
 10
167.27216927900011
 20
976.17899682599955
 30
0.0
  0
VERTEX
  5
D4A
  8
DATA
 62
     7
 10
167.27216927900011
 20
976.17899682599955
 30
0.0
  0
VERTEX
  5
D4B
  8
DATA
 62
     7
 10
167.27216927900079
 20
976.17899682600762
 30
0.0
 42
-0.010125571999737
  0
VERTEX
  5
D4C
  8
DATA
 62
     7
 10
167.33303266999991
 20
976.69325501599985
 30
0.0
  0
VERTEX
  5
D4D
  8
DATA
 62
     7
 10
167.33303266999991
 20
976.69325501599985
 30
0.0
  0
VERTEX
  5
D4E
  8
DATA
 62
     7
 10
167.3330326700007
 20
976.69325501600554
 30
0.0
 42
-0.010538805999799
  0
VERTEX
  5
D4F
  8
DATA
 62
     7
 10
167.413486788
 20
977.19404421000002
 30
0.0
  0
VERTEX
  5
D50
  8
DATA
 62
     7
 10
167.413486788
 20
977.19404421000002
 30
0.0
  0
VERTEX
  5
D51
  8
DATA
 62
     7
 10
167.413486788
 20
977.19404421000002
 30
0.0
 42
-0.011103667000158
  0
VERTEX
  5
D52
  8
DATA
 62
     7
 10
167.5129407340001
 20
977.67768633799994
 30
0.0
  0
VERTEX
  5
D53
  8
DATA
 62
     7
 10
167.5129407340001
 20
977.67768633799994
 30
0.0
  0
VERTEX
  5
D54
  8
DATA
 62
     7
 10
167.5129407340001
 20
977.67768633799994
 30
0.0
 42
-0.0118455080002639
  0
VERTEX
  5
D55
  8
DATA
 62
     7
 10
167.6306640630001
 20
978.14062926500003
 30
0.0
  0
VERTEX
  5
D56
  8
DATA
 62
     7
 10
167.6306640630001
 20
978.14062926500003
 30
0.0
  0
SEQEND
  5
D57
  8
DATA
 62
     7
  0
LINE
  5
3EB
  8
DATA
 62
     7
 10
163.4412109380003
 20
969.00000426500003
 30
0.0
 11
163.4412109380003
 21
980.71875426500003
 31
0.0
  0
LINE
  5
3EC
  8
DATA
 62
     7
 10
159.2224609380003
 20
969.00000426500003
 30
0.0
 11
159.2224609380003
 21
980.71875426500003
 31
0.0
  0
LINE
  5
3ED
  8
DATA
 62
     7
 10
155.1912109380003
 20
980.71875426500003
 30
0.0
 11
150.97246093800021
 21
980.71875426500003
 31
0.0
  0
LINE
  5
3EE
  8
DATA
 62
     7
 10
177.0408203130003
 20
980.71875426500003
 30
0.0
 11
178.94121093800021
 21
980.71875426500003
 31
0.0
  0
LINE
  5
3EF
  8
DATA
 62
     7
 10
178.94121093800021
 20
974.27344176500003
 30
0.0
 11
177.0408203130003
 21
974.27344176500003
 31
0.0
  0
LINE
  5
3F0
  8
DATA
 62
     7
 10
162.4412109380003
 20
977.94097648800005
 30
0.0
 11
160.22246093800021
 21
971.77778204299989
 31
0.0
  0
LINE
  5
3F1
  8
DATA
 62
     7
 10
153.08183593800021
 20
979.71875426500003
 30
0.0
 11
153.08183593800021
 21
969.00000426500003
 31
0.0
  0
POLYLINE
  5
3F2
  8
DATA
 62
     7
 66
     1
 10
0.0
 20
0.0
 30
0.0
 70
   128
  0
VERTEX
  5
D58
  8
DATA
 62
     7
 10
170.09733262300099
 20
980.60034748499982
 30
0.0
 42
-0.0378228089996058
  0
VERTEX
  5
D59
  8
DATA
 62
     7
 10
170.281967221
 20
980.49128116600014
 30
0.0
  0
VERTEX
  5
D5A
  8
DATA
 62
     7
 10
170.281967221
 20
980.49128116600014
 30
0.0
  0
VERTEX
  5
D5B
  8
DATA
 62
     7
 10
170.281967221
 20
980.49128116600014
 30
0.0
 42
-0.0329632950005618
  0
VERTEX
  5
D5C
  8
DATA
 62
     7
 10
170.46180976900021
 20
980.34803099600015
 30
0.0
  0
VERTEX
  5
D5D
  8
DATA
 62
     7
 10
170.46180976900021
 20
980.34803099600015
 30
0.0
  0
VERTEX
  5
D5E
  8
DATA
 62
     7
 10
170.4618097689999
 20
980.34803099600015
 30
0.0
 42
-0.0284318460001409
  0
VERTEX
  5
D5F
  8
DATA
 62
     7
 10
170.6355811630001
 20
980.17161582099982
 30
0.0
  0
VERTEX
  5
D60
  8
DATA
 62
     7
 10
170.6355811630001
 20
980.17161582099982
 30
0.0
  0
VERTEX
  5
D61
  8
DATA
 62
     7
 10
170.63558116300101
 20
980.17161582099823
 30
0.0
 42
-0.0245056430000597
  0
VERTEX
  5
D62
  8
DATA
 62
     7
 10
170.80204547800011
 20
979.96329036999987
 30
0.0
  0
VERTEX
  5
D63
  8
DATA
 62
     7
 10
170.80204547800011
 20
979.96329036999987
 30
0.0
  0
VERTEX
  5
D64
  8
DATA
 62
     7
 10
170.80204547800011
 20
979.96329036999987
 30
0.0
 42
-0.0212395200003148
  0
VERTEX
  5
D65
  8
DATA
 62
     7
 10
170.96001876200009
 20
979.72453632600002
 30
0.0
  0
VERTEX
  5
D66
  8
DATA
 62
     7
 10
170.96001876200009
 20
979.72453632600002
 30
0.0
  0
VERTEX
  5
D67
  8
DATA
 62
     7
 10
170.96001876200171
 20
979.72453632599706
 30
0.0
 42
-0.0185808099996846
  0
VERTEX
  5
D68
  8
DATA
 62
     7
 10
171.10837745200001
 20
979.45705179399965
 30
0.0
  0
VERTEX
  5
D69
  8
DATA
 62
     7
 10
171.10837745200001
 20
979.45705179399965
 30
0.0
  0
VERTEX
  5
D6A
  8
DATA
 62
     7
 10
171.10837745200001
 20
979.45705179399965
 30
0.0
 42
-0.0164402350000534
  0
VERTEX
  5
D6B
  8
DATA
 62
     7
 10
171.24606636900009
 20
979.16273921899995
 30
0.0
  0
VERTEX
  5
D6C
  8
DATA
 62
     7
 10
171.24606636900009
 20
979.16273921899995
 30
0.0
  0
VERTEX
  5
D6D
  8
DATA
 62
     7
 10
171.2460663690006
 20
979.16273921899847
 30
0.0
 42
-0.0147263959997709
  0
VERTEX
  5
D6E
  8
DATA
 62
     7
 10
171.37210621899999
 20
978.84369185599996
 30
0.0
  0
VERTEX
  5
D6F
  8
DATA
 62
     7
 10
171.37210621899999
 20
978.84369185599996
 30
0.0
  0
VERTEX
  5
D70
  8
DATA
 62
     7
 10
171.37210621899999
 20
978.84369185599996
 30
0.0
 42
-0.0133592270001223
  0
VERTEX
  5
D71
  8
DATA
 62
     7
 10
171.48560056200009
 20
978.50217888399993
 30
0.0
  0
VERTEX
  5
D72
  8
DATA
 62
     7
 10
171.48560056200009
 20
978.50217888399993
 30
0.0
  0
VERTEX
  5
D73
  8
DATA
 62
     7
 10
171.48560056200009
 20
978.50217888399993
 30
0.0
 42
-0.0122733900000967
  0
VERTEX
  5
D74
  8
DATA
 62
     7
 10
171.5857421880001
 20
978.14062926500003
 30
0.0
  0
VERTEX
  5
D75
  8
DATA
 62
     7
 10
171.5857421880001
 20
978.14062926500003
 30
0.0
  0
SEQEND
  5
D76
  8
DATA
 62
     7
  0
POLYLINE
  5
412
  8
DATA
 62
     7
 66
     1
 10
0.0
 20
0.0
 30
0.0
 70
   128
  0
VERTEX
  5
D77
  8
DATA
 62
     7
 10
167.6306640630001
 20
978.14062926500003
 30
0.0
 42
-0.0120332960005228
  0
VERTEX
  5
D78
  8
DATA
 62
     7
 10
167.7307513060002
 20
978.50199990999988
 30
0.0
  0
VERTEX
  5
D79
  8
DATA
 62
     7
 10
167.7307513060002
 20
978.50199990999988
 30
0.0
  0
VERTEX
  5
D7A
  8
DATA
 62
     7
 10
167.73075130600131
 20
978.50199991000341
 30
0.0
 42
-0.0130561769997386
  0
VERTEX
  5
D7B
  8
DATA
 62
     7
 10
167.844178086
 20
978.84335553999995
 30
0.0
  0
VERTEX
  5
D7C
  8
DATA
 62
     7
 10
167.844178086
 20
978.84335553999995
 30
0.0
  0
VERTEX
  5
D7D
  8
DATA
 62
     7
 10
167.844178086
 20
978.84335553999995
 30
0.0
 42
-0.0143458650000542
  0
VERTEX
  5
D7E
  8
DATA
 62
     7
 10
167.97013849000021
 20
979.16227077899987
 30
0.0
  0
VERTEX
  5
D7F
  8
DATA
 62
     7
 10
167.97013849000021
 20
979.16227077899987
 30
0.0
  0
VERTEX
  5
D80
  8
DATA
 62
     7
 10
167.9701384900018
 20
979.16227077900396
 30
0.0
 42
-0.0159639099996003
  0
VERTEX
  5
D81
  8
DATA
 62
     7
 10
168.1077375540001
 20
979.45647969399988
 30
0.0
  0
VERTEX
  5
D82
  8
DATA
 62
     7
 10
168.1077375540001
 20
979.45647969399988
 30
0.0
  0
VERTEX
  5
D83
  8
DATA
 62
     7
 10
168.10773755400081
 20
979.45647969400147
 30
0.0
 42
-0.0179866049999018
  0
VERTEX
  5
D84
  8
DATA
 62
     7
 10
168.2559976190002
 20
979.72389189199987
 30
0.0
  0
VERTEX
  5
D85
  8
DATA
 62
     7
 10
168.2559976190002
 20
979.72389189199987
 30
0.0
  0
VERTEX
  5
D86
  8
DATA
 62
     7
 10
168.2559976190019
 20
979.72389189200283
 30
0.0
 42
-0.0205030409995955
  0
VERTEX
  5
D87
  8
DATA
 62
     7
 10
168.413865278
 20
979.96260737599982
 30
0.0
  0
VERTEX
  5
D88
  8
DATA
 62
     7
 10
168.413865278
 20
979.96260737599982
 30
0.0
  0
VERTEX
  5
D89
  8
DATA
 62
     7
 10
168.41386527800131
 20
979.96260737600164
 30
0.0
 42
-0.0236050309995369
  0
VERTEX
  5
D8A
  8
DATA
 62
     7
 10
168.58021886
 20
980.17093004099991
 30
0.0
  0
VERTEX
  5
D8B
  8
DATA
 62
     7
 10
168.58021886
 20
980.17093004099991
 30
0.0
  0
VERTEX
  5
D8C
  8
DATA
 62
     7
 10
168.5802188600002
 20
980.17093004099991
 30
0.0
 42
-0.0273593629999396
  0
VERTEX
  5
D8D
  8
DATA
 62
     7
 10
168.753876402
 20
980.34737972799996
 30
0.0
  0
VERTEX
  5
D8E
  8
DATA
 62
     7
 10
168.753876402
 20
980.34737972799996
 30
0.0
  0
VERTEX
  5
D8F
  8
DATA
 62
     7
 10
168.75387640200071
 20
980.34737972800042
 30
0.0
 42
-0.0317477439998117
  0
VERTEX
  5
D90
  8
DATA
 62
     7
 10
168.933604046
 20
980.49070273899986
 30
0.0
  0
VERTEX
  5
D91
  8
DATA
 62
     7
 10
168.933604046
 20
980.49070273899986
 30
0.0
  0
VERTEX
  5
D92
  8
DATA
 62
     7
 10
168.9336040460002
 20
980.49070273899986
 30
0.0
 42
-0.0365625240002466
  0
VERTEX
  5
D93
  8
DATA
 62
     7
 10
169.118124803
 20
980.59988074699993
 30
0.0
  0
VERTEX
  5
D94
  8
DATA
 62
     7
 10
169.118124803
 20
980.59988074699993
 30
0.0
  0
VERTEX
  5
D95
  8
DATA
 62
     7
 10
169.118124803
 20
980.59988074699993
 30
0.0
  0
SEQEND
  5
D96
  8
DATA
 62
     7
  0
POLYLINE
  5
433
  8
DATA
 62
     7
 66
     1
 10
0.0
 20
0.0
 30
0.0
 70
   128
  0
VERTEX
  5
D97
  8
DATA
 62
     7
 10
169.11812480299841
 20
969.11887778400069
 30
0.0
 42
-0.0377798319991461
  0
VERTEX
  5
D98
  8
DATA
 62
     7
 10
168.933604046
 20
969.22805579099986
 30
0.0
  0
VERTEX
  5
D99
  8
DATA
 62
     7
 10
168.933604046
 20
969.22805579099986
 30
0.0
  0
VERTEX
  5
D9A
  8
DATA
 62
     7
 10
168.93360404599909
 20
969.2280557910002
 30
0.0
 42
-0.0329256259999779
  0
VERTEX
  5
D9B
  8
DATA
 62
     7
 10
168.753876402
 20
969.37137880299986
 30
0.0
  0
VERTEX
  5
D9C
  8
DATA
 62
     7
 10
168.753876402
 20
969.37137880299986
 30
0.0
  0
VERTEX
  5
D9D
  8
DATA
 62
     7
 10
168.753876402
 20
969.37137880299986
 30
0.0
 42
-0.0284009050000109
  0
VERTEX
  5
D9E
  8
DATA
 62
     7
 10
168.58021886
 20
969.54782849000003
 30
0.0
  0
VERTEX
  5
D9F
  8
DATA
 62
     7
 10
168.58021886
 20
969.54782849000003
 30
0.0
  0
VERTEX
  5
DA0
  8
DATA
 62
     7
 10
168.5802188600002
 20
969.54782848999957
 30
0.0
 42
-0.0244810789998434
  0
VERTEX
  5
DA1
  8
DATA
 62
     7
 10
168.413865278
 20
969.756151155
 30
0.0
  0
VERTEX
  5
DA2
  8
DATA
 62
     7
 10
168.413865278
 20
969.756151155
 30
0.0
  0
VERTEX
  5
DA3
  8
DATA
 62
     7
 10
168.41386527799671
 20
969.75615115500455
 30
0.0
 42
-0.0212202859994664
  0
VERTEX
  5
DA4
  8
DATA
 62
     7
 10
168.2559976190002
 20
969.99486663899995
 30
0.0
  0
VERTEX
  5
DA5
  8
DATA
 62
     7
 10
168.2559976190002
 20
969.99486663899995
 30
0.0
  0
VERTEX
  5
DA6
  8
DATA
 62
     7
 10
168.2559976190002
 20
969.99486663899995
 30
0.0
 42
-0.0185657550002937
  0
VERTEX
  5
DA7
  8
DATA
 62
     7
 10
168.1077375540001
 20
970.26227883700005
 30
0.0
  0
VERTEX
  5
DA8
  8
DATA
 62
     7
 10
168.1077375540001
 20
970.26227883700005
 30
0.0
  0
VERTEX
  5
DA9
  8
DATA
 62
     7
 10
168.1077375539999
 20
970.26227883700028
 30
0.0
 42
-0.0164283490001696
  0
VERTEX
  5
DAA
  8
DATA
 62
     7
 10
167.97013849000021
 20
970.55648775199995
 30
0.0
  0
VERTEX
  5
DAB
  8
DATA
 62
     7
 10
167.97013849000021
 20
970.55648775199995
 30
0.0
  0
VERTEX
  5
DAC
  8
DATA
 62
     7
 10
167.97013849000021
 20
970.55648775199995
 30
0.0
 42
-0.0147168660000445
  0
VERTEX
  5
DAD
  8
DATA
 62
     7
 10
167.844178086
 20
970.87540299099965
 30
0.0
  0
VERTEX
  5
DAE
  8
DATA
 62
     7
 10
167.844178086
 20
970.87540299099965
 30
0.0
  0
VERTEX
  5
DAF
  8
DATA
 62
     7
 10
167.844178086
 20
970.87540299099965
 30
0.0
 42
-0.0133514270000183
  0
VERTEX
  5
DB0
  8
DATA
 62
     7
 10
167.7307513060002
 20
971.21675862099983
 30
0.0
  0
VERTEX
  5
DB1
  8
DATA
 62
     7
 10
167.7307513060002
 20
971.21675862099983
 30
0.0
  0
VERTEX
  5
DB2
  8
DATA
 62
     7
 10
167.7307513060002
 20
971.21675862099983
 30
0.0
 42
-0.0122668420003379
  0
VERTEX
  5
DB3
  8
DATA
 62
     7
 10
167.6306640630001
 20
971.57812926500003
 30
0.0
  0
VERTEX
  5
DB4
  8
DATA
 62
     7
 10
167.6306640630001
 20
971.57812926500003
 30
0.0
  0
VERTEX
  5
DB5
  8
DATA
 62
     7
 10
167.6306640630001
 20
971.57812926500003
 30
0.0
  0
SEQEND
  5
DB6
  8
DATA
 62
     7
  0
POLYLINE
  5
454
  8
DATA
 62
     7
 66
     1
 10
0.0
 20
0.0
 30
0.0
 70
   128
  0
VERTEX
  5
DB7
  8
DATA
 62
     7
 10
171.58574218799879
 20
971.57812926499435
 30
0.0
 42
-0.012033295999718
  0
VERTEX
  5
DB8
  8
DATA
 62
     7
 10
171.48565494400009
 20
971.21675862099983
 30
0.0
  0
VERTEX
  5
DB9
  8
DATA
 62
     7
 10
171.48565494400009
 20
971.21675862099983
 30
0.0
  0
VERTEX
  5
DBA
  8
DATA
 62
     7
 10
171.48565494400009
 20
971.21675862099983
 30
0.0
 42
-0.0130561770000381
  0
VERTEX
  5
DBB
  8
DATA
 62
     7
 10
171.37222816400001
 20
970.87540299099965
 30
0.0
  0
VERTEX
  5
DBC
  8
DATA
 62
     7
 10
171.37222816400001
 20
970.87540299099965
 30
0.0
  0
VERTEX
  5
DBD
  8
DATA
 62
     7
 10
171.37222816399901
 20
970.87540299099715
 30
0.0
 42
-0.0143458649996079
  0
VERTEX
  5
DBE
  8
DATA
 62
     7
 10
171.24626776000011
 20
970.55648775199995
 30
0.0
  0
VERTEX
  5
DBF
  8
DATA
 62
     7
 10
171.24626776000011
 20
970.55648775199995
 30
0.0
  0
VERTEX
  5
DC0
  8
DATA
 62
     7
 10
171.24626776000011
 20
970.55648775199995
 30
0.0
 42
-0.0159639100002908
  0
VERTEX
  5
DC1
  8
DATA
 62
     7
 10
171.10866869600019
 20
970.26227883700005
 30
0.0
  0
VERTEX
  5
DC2
  8
DATA
 62
     7
 10
171.10866869600019
 20
970.26227883700005
 30
0.0
  0
VERTEX
  5
DC3
  8
DATA
 62
     7
 10
171.10866869599869
 20
970.26227883699676
 30
0.0
 42
-0.0179866049994344
  0
VERTEX
  5
DC4
  8
DATA
 62
     7
 10
170.96040863100029
 20
969.99486663899995
 30
0.0
  0
VERTEX
  5
DC5
  8
DATA
 62
     7
 10
170.96040863100029
 20
969.99486663899995
 30
0.0
  0
VERTEX
  5
DC6
  8
DATA
 62
     7
 10
170.96040863100029
 20
969.99486663899995
 30
0.0
 42
-0.0205030410000395
  0
VERTEX
  5
DC7
  8
DATA
 62
     7
 10
170.80254097200009
 20
969.756151155
 30
0.0
  0
VERTEX
  5
DC8
  8
DATA
 62
     7
 10
170.80254097200009
 20
969.756151155
 30
0.0
  0
VERTEX
  5
DC9
  8
DATA
 62
     7
 10
170.80254097200009
 20
969.756151155
 30
0.0
 42
-0.0236050310000493
  0
VERTEX
  5
DCA
  8
DATA
 62
     7
 10
170.6361873900002
 20
969.54782849000003
 30
0.0
  0
VERTEX
  5
DCB
  8
DATA
 62
     7
 10
170.6361873900002
 20
969.54782849000003
 30
0.0
  0
VERTEX
  5
DCC
  8
DATA
 62
     7
 10
170.63618739000029
 20
969.54782849000003
 30
0.0
 42
-0.0273593629998785
  0
VERTEX
  5
DCD
  8
DATA
 62
     7
 10
170.46252984800009
 20
969.37137880299986
 30
0.0
  0
VERTEX
  5
DCE
  8
DATA
 62
     7
 10
170.46252984800009
 20
969.37137880299986
 30
0.0
  0
VERTEX
  5
DCF
  8
DATA
 62
     7
 10
170.46252984800009
 20
969.37137880299986
 30
0.0
 42
-0.031747744000147
  0
VERTEX
  5
DD0
  8
DATA
 62
     7
 10
170.28280220400001
 20
969.22805579099986
 30
0.0
  0
VERTEX
  5
DD1
  8
DATA
 62
     7
 10
170.28280220400001
 20
969.22805579099986
 30
0.0
  0
VERTEX
  5
DD2
  8
DATA
 62
     7
 10
170.28280220400001
 20
969.22805579099986
 30
0.0
 42
-0.0365625240000037
  0
VERTEX
  5
DD3
  8
DATA
 62
     7
 10
170.09828144700009
 20
969.11887778399966
 30
0.0
  0
VERTEX
  5
DD4
  8
DATA
 62
     7
 10
170.09828144700009
 20
969.11887778399966
 30
0.0
  0
SEQEND
  5
DD5
  8
DATA
 62
     7
  0
LINE
  5
474
  8
DATA
 62
     7
 10
177.16816406300009
 20
973.27344176500003
 30
0.0
 11
175.45878906300021
 21
969.00000426500003
 31
0.0
  0
CIRCLE
  5
475
  8
DATA
 62
     7
 10
400.0
 20
1020.0
 30
0.0
 40
4.5999999999999091
  0
CIRCLE
  5
476
  8
DATA
 62
     7
 10
400.0
 20
880.0
 30
0.0
 40
4.5999999999999091
  0
CIRCLE
  5
477
  8
DATA
 62
     7
 10
280.00000000000028
 20
1020.0
 30
0.0
 40
4.5999999999999091
  0
CIRCLE
  5
478
  8
DATA
 62
     7
 10
280.00000000000028
 20
880.0
 30
0.0
 40
4.5999999999999091
  0
CIRCLE
  5
479
  8
DATA
 62
     7
 10
520.0
 20
880.0
 30
0.0
 40
4.5999999999999091
  0
CIRCLE
  5
47A
  8
DATA
 62
     7
 10
520.0
 20
1020.0
 30
0.0
 40
4.5999999999999091
  0
CIRCLE
  5
47B
  8
DATA
 62
     7
 10
160.0000000000002
 20
1020.0
 30
0.0
 40
6.5
  0
CIRCLE
  5
47C
  8
DATA
 62
     7
 10
160.0000000000002
 20
880.0
 30
0.0
 40
6.5
  0
CIRCLE
  5
47D
  8
DATA
 62
     7
 10
640.0
 20
1020.0
 30
0.0
 40
6.5
  0
CIRCLE
  5
47E
  8
DATA
 62
     7
 10
640.0
 20
880.0
 30
0.0
 40
6.5
  0
CIRCLE
  5
47F
  8
DATA
 62
     7
 10
620.0
 20
880.0
 30
0.0
 40
4.5999999999999091
  0
CIRCLE
  5
480
  8
DATA
 62
     7
 10
620.0
 20
1020.0
 30
0.0
 40
4.5999999999999091
  0
CIRCLE
  5
481
  8
DATA
 62
     7
 10
180.0000000000002
 20
1020.0
 30
0.0
 40
4.5999999999999091
  0
CIRCLE
  5
482
  8
DATA
 62
     7
 10
180.0000000000002
 20
880.0
 30
0.0
 40
4.5999999999999091
  0
LINE
  5
483
  8
DATA
 62
     7
 10
-186.48831477499991
 20
-263.6778118958627
 30
0.0
 11
-286.15360873354803
 21
-281.15280442523868
 31
0.0
  0
CIRCLE
  5
484
  8
DATA
 62
     7
 10
-316.5
 20
-250.87315005886259
 30
0.0
 40
3.5999999999999082
  0
CIRCLE
  5
485
  8
DATA
 62
     7
 10
-187.0
 20
-250.87315005886259
 30
0.0
 40
3.5999999999999082
  0
CIRCLE
  5
486
  8
DATA
 62
     7
 10
-270.0
 20
-250.87315005886259
 30
0.0
 40
3.5999999999999082
  0
CIRCLE
  5
487
  8
DATA
 62
     7
 10
-242.63838853400009
 20
-175.6977403958625
 30
0.0
 40
2.1000000000001351
  0
CIRCLE
  5
488
  8
DATA
 62
     7
 10
-239.21818710100001
 20
-166.3008141878625
 30
0.0
 40
2.0999999999999082
  0
CIRCLE
  5
489
  8
DATA
 62
     7
 10
-235.79798566700009
 20
-156.90388797986259
 30
0.0
 40
2.1000000000001351
  0
CIRCLE
  5
48A
  8
DATA
 62
     7
 10
-232.3777842340001
 20
-147.5069617728625
 30
0.0
 40
2.0999999999999082
  0
CIRCLE
  5
48B
  8
DATA
 62
     7
 10
-228.9575828009998
 20
-138.11003556486261
 30
0.0
 40
2.0999999999999082
  0
ARC
  5
48C
  8
DATA
 62
     7
 10
-188.73345068399999
 20
-250.87315005886259
 30
0.0
 40
13.00000000000002
 50
279.94500069700001
 51
80.054999303000017
  0
LINE
  5
48D
  8
DATA
 62
     7
 10
-334.0
 20
-289.54203699286262
 30
0.0
 11
-334.0
 21
-212.20426312486259
 31
0.0
  0
LINE
  5
48E
  8
DATA
 62
     7
 10
-334.0
 20
-212.20426312486259
 30
0.0
 11
-320.29705269600009
 21
-214.6068938928627
 31
0.0
  0
ARC
  5
48F
  8
DATA
 62
     7
 10
-311.66194305300019
 20
-165.35818952886251
 30
0.0
 40
50.000000000000071
 50
264.140209211132
 51
330.000005354
  0
ARC
  5
490
  8
DATA
 62
     7
 10
-178.96981435300009
 20
-188.62400118486249
 30
0.0
 40
49.999999999999822
 50
169.99999391200001
 51
260.055032423
  0
LINE
  5
491
  8
DATA
 62
     7
 10
-187.60492399500001
 20
-237.87270554786269
 30
0.0
 11
-186.48831477499991
 21
-238.06848822186259
 31
0.0
  0
LINE
  5
492
  8
DATA
 62
     7
 10
-235.88578603100021
 20
-134.11003556486261
 30
0.0
 11
-268.36067052800013
 21
-190.35818548286261
 31
0.0
  0
ARC
  5
493
  8
DATA
 62
     7
 10
-228.9575828009998
 20
-138.11003556486261
 30
0.0
 40
7.9999999999998908
 50
350.00005381099999
 51
150.0000000000004
  0
LINE
  5
494
  8
DATA
 62
     7
 10
-221.079119472
 20
-139.4992135868626
 30
0.0
 11
-228.21020108100009
 21
-179.94158706886259
 31
0.0
  0
LINE
  5
495
  8
DATA
 62
     7
 10
-238.5
 20
-250.87315005886259
 30
0.0
 11
-233.5
 21
-250.87315005886259
 31
0.0
  0
LINE
  5
496
  8
DATA
 62
     7
 10
-238.5
 20
-250.87315005886259
 30
0.0
 11
-228.5
 21
-240.87315005886259
 31
0.0
  0
LINE
  5
497
  8
DATA
 62
     7
 10
-233.5
 20
-255.87315005886251
 30
0.0
 11
-233.5
 21
-250.87315005886259
 31
0.0
  0
LINE
  5
498
  8
DATA
 62
     7
 10
-228.5
 20
-240.87315005886259
 30
0.0
 11
-218.5
 21
-250.87315005886259
 31
0.0
  0
LINE
  5
499
  8
DATA
 62
     7
 10
-223.5
 20
-255.87315005886251
 30
0.0
 11
-223.5
 21
-250.87315005886259
 31
0.0
  0
LINE
  5
49A
  8
DATA
 62
     7
 10
-223.5
 20
-250.87315005886259
 30
0.0
 11
-218.5
 21
-250.87315005886259
 31
0.0
  0
LINE
  5
49B
  8
DATA
 62
     7
 10
-233.5
 20
-255.87315005886251
 30
0.0
 11
-223.5
 21
-255.87315005886251
 31
0.0
  0
CIRCLE
  5
49C
  8
DATA
 62
     7
 10
-253.0239509310002
 20
-220.9511754888627
 30
0.0
 40
18.0
  0
LINE
  5
49D
  8
DATA
 62
     7
 10
-286.15360873354803
 20
-281.15280442523868
 30
0.0
 11
-334.0
 21
-289.54203699286262
 31
0.0
  0
ARC
  5
49E
  8
DATA
 62
     7
 10
-311.66194305300019
 20
-165.35818952886251
 30
0.0
 40
50.0
 50
260.05503242300028
 51
264.14020921113172
  0
LINE
  5
49F
  8
DATA
 62
     7
 10
202.66127340149529
 20
102.66127340149529
 30
0.0
 11
297.49999573500111
 21
197.499995735
 31
0.0
  0
LINE
  5
4A0
  8
DATA
 62
     7
 10
194.44999999999999
 20
119.4499999999998
 30
0.0
 11
272.49999573500111
 21
197.499995735
 31
0.0
  0
LINE
  5
4A1
  8
DATA
 62
     7
 10
194.44999999999999
 20
144.44999999999959
 30
0.0
 11
247.49999573500111
 21
197.499995735
 31
0.0
  0
LINE
  5
4A2
  8
DATA
 62
     7
 10
194.44999999999999
 20
169.44999999999931
 30
0.0
 11
222.49999573500111
 21
197.499995735
 31
0.0
  0
LINE
  5
4A3
  8
DATA
 62
     7
 10
227.499995735
 20
102.499995735
 30
0.0
 11
322.49999573500111
 21
197.499995735
 31
0.0
  0
LINE
  5
4A4
  8
DATA
 62
     7
 10
252.499995735
 20
102.499995735
 30
0.0
 11
347.49999573500122
 21
197.499995735
 31
0.0
  0
LINE
  5
4A5
  8
DATA
 62
     7
 10
277.49999573500003
 20
102.499995735
 30
0.0
 11
372.49999573500122
 21
197.499995735
 31
0.0
  0
LINE
  5
4A6
  8
DATA
 62
     7
 10
302.49999573500008
 20
102.499995735
 30
0.0
 11
367.5
 21
167.4999999999994
 31
0.0
  0
LINE
  5
4A7
  8
DATA
 62
     7
 10
377.50000000000068
 20
177.49999999999989
 30
0.0
 11
397.49999573500122
 21
197.499995735
 31
0.0
  0
LINE
  5
4A8
  8
DATA
 62
     7
 10
327.49999573500008
 20
102.499995735
 30
0.0
 11
372.5000000000004
 21
147.4999999999998
 31
0.0
  0
LINE
  5
4A9
  8
DATA
 62
     7
 10
402.5000000000008
 20
177.5
 30
0.0
 11
422.49999573500082
 21
197.499995735
 31
0.0
  0
LINE
  5
4AA
  8
DATA
 62
     7
 10
352.49999573500008
 20
102.499995735
 30
0.0
 11
377.50000000000011
 21
127.4999999999998
 31
0.0
  0
LINE
  5
4AB
  8
DATA
 62
     7
 10
427.50000000000068
 20
177.5
 30
0.0
 11
447.49999573500082
 21
197.499995735
 31
0.0
  0
LINE
  5
4AC
  8
DATA
 62
     7
 10
377.49999573500003
 20
102.499995735
 30
0.0
 11
389.4791666666668
 21
114.4791666666666
 31
0.0
  0
LINE
  5
4AD
  8
DATA
 62
     7
 10
432.5
 20
157.4999999999994
 30
0.0
 11
472.49999573500082
 21
197.499995735
 31
0.0
  0
LINE
  5
4AE
  8
DATA
 62
     7
 10
402.49999573500003
 20
102.499995735
 30
0.0
 11
414.4791666666668
 21
114.4791666666667
 31
0.0
  0
LINE
  5
4AF
  8
DATA
 62
     7
 10
422.49999999999989
 20
122.4999999999999
 30
0.0
 11
443.02083333333297
 21
143.0208333333328
 31
0.0
  0
LINE
  5
4B0
  8
DATA
 62
     7
 10
467.4999957350006
 20
167.499995735
 30
0.0
 11
497.49999573500082
 21
197.499995735
 31
0.0
  0
LINE
  5
4B1
  8
DATA
 62
     7
 10
427.49999573500003
 20
102.499995735
 30
0.0
 11
457.49999573500008
 21
132.499995735
 31
0.0
  0
LINE
  5
4B2
  8
DATA
 62
     7
 10
473.02083333333297
 20
148.02083333333269
 30
0.0
 11
522.49999573500077
 21
197.499995735
 31
0.0
  0
LINE
  5
4B3
  8
DATA
 62
     7
 10
452.49999573500003
 20
102.499995735
 30
0.0
 11
547.49999573500077
 21
197.499995735
 31
0.0
  0
LINE
  5
4B4
  8
DATA
 62
     7
 10
477.49999573500003
 20
102.499995735
 30
0.0
 11
572.49999573500099
 21
197.499995735
 31
0.0
  0
LINE
  5
4B5
  8
DATA
 62
     7
 10
502.49999573500003
 20
102.499995735
 30
0.0
 11
597.49999573500099
 21
197.499995735
 31
0.0
  0
LINE
  5
4B6
  8
DATA
 62
     7
 10
527.49999573499986
 20
102.499995735
 30
0.0
 11
605.55000000000018
 21
180.54999999999939
 31
0.0
  0
LINE
  5
4B7
  8
DATA
 62
     7
 10
552.49999573499986
 20
102.499995735
 30
0.0
 11
605.55000000000018
 21
155.54999999999961
 31
0.0
  0
LINE
  5
4B8
  8
DATA
 62
     7
 10
577.49999573499986
 20
102.499995735
 30
0.0
 11
605.55000000000018
 21
130.54999999999981
 31
0.0
  0
ENDSEC
  0
EOF
