  0
SECTION
  2
HEADER
  9
$ACADVER
  1
AC1009
  9
$INSBASE
 10
0.0
 20
0.0
 30
0.0
  9
$EXTMIN
 10
-350.0
 20
-533.91609515624953
 30
0.0
  9
$EXTMAX
 10
549.99999999999989
 20
804.1271999999999
 30
0.0
  9
$LIMMIN
 10
0.0
 20
0.0
  9
$LIMMAX
 10
0.0
 20
0.0
  9
$ORTHOMODE
 70
     0
  9
$REGENMODE
 70
     1
  9
$FILLMODE
 70
     1
  9
$QTEXTMODE
 70
     0
  9
$MIRRTEXT
 70
     1
  9
$DRAGMODE
 70
     2
  9
$LTSCALE
 40
25.399999999999999
  9
$OSMODE
 70
   167
  9
$ATTMODE
 70
     1
  9
$TEXTSIZE
 40
0.0
  9
$TRACEWID
 40
1.0
  9
$TEXTSTYLE
  7
STANDARD
  9
$CLAYER
  8
BRACKET1
  9
$CELTYPE
  6
BYLAYER
  9
$CECOLOR
 62
   256
  9
$DIMSCALE
 40
1.0
  9
$DIMASZ
 40
0.18
  9
$DIMEXO
 40
0.0625
  9
$DIMDLI
 40
0.38
  9
$DIMRND
 40
0.0
  9
$DIMDLE
 40
0.0
  9
$DIMEXE
 40
0.18
  9
$DIMTP
 40
0.0
  9
$DIMTM
 40
0.0
  9
$DIMTXT
 40
0.18
  9
$DIMCEN
 40
0.09
  9
$DIMTSZ
 40
0.0
  9
$DIMTOL
 70
     0
  9
$DIMLIM
 70
     0
  9
$DIMTIH
 70
     1
  9
$DIMTOH
 70
     1
  9
$DIMSE1
 70
     0
  9
$DIMSE2
 70
     0
  9
$DIMTAD
 70
     0
  9
$DIMZIN
 70
     0
  9
$DIMBLK
  1

  9
$DIMASO
 70
     1
  9
$DIMSHO
 70
     1
  9
$DIMPOST
  1

  9
$DIMAPOST
  1

  9
$DIMALT
 70
     0
  9
$DIMALTD
 70
     2
  9
$DIMALTF
 40
25.399999999999999
  9
$DIMLFAC
 40
1.0
  9
$DIMTOFL
 70
     0
  9
$DIMTVP
 40
0.0
  9
$DIMTIX
 70
     0
  9
$DIMSOXD
 70
     0
  9
$DIMSAH
 70
     0
  9
$DIMBLK1
  1

  9
$DIMBLK2
  1

  9
$DIMSTYLE
  2
STANDARD
  9
$DIMCLRD
 70
     0
  9
$DIMCLRE
 70
     0
  9
$DIMCLRT
 70
     0
  9
$DIMTFAC
 40
1.0
  9
$DIMGAP
 40
0.09
  9
$LUNITS
 70
     2
  9
$LUPREC
 70
     4
  9
$SKETCHINC
 40
0.1
  9
$FILLETRAD
 40
0.0
  9
$AUNITS
 70
     0
  9
$AUPREC
 70
     0
  9
$MENU
  1
acad
  9
$ELEVATION
 40
0.0
  9
$PELEVATION
 40
0.0
  9
$THICKNESS
 40
0.0
  9
$LIMCHECK
 70
     0
  9
$BLIPMODE
 70
     0
  9
$CHAMFERA
 40
0.0
  9
$CHAMFERB
 40
0.0
  9
$SKPOLY
 70
     0
  9
$TDCREATE
 40
2453085.7550115739
  9
$TDUPDATE
 40
2453087.533592836
  9
$TDINDWG
 40
0.0006693056
  9
$TDUSRTIMER
 40
0.0006673264
  9
$USRTIMER
 70
     1
  9
$ANGBASE
 50
0.0
  9
$ANGDIR
 70
     0
  9
$PDMODE
 70
     1
  9
$PDSIZE
 40
-2.0
  9
$PLINEWID
 40
0.0
  9
$COORDS
 70
     2
  9
$SPLFRAME
 70
     0
  9
$SPLINETYPE
 70
     6
  9
$SPLINESEGS
 70
     8
  9
$ATTDIA
 70
     0
  9
$ATTREQ
 70
     1
  9
$HANDLING
 70
     1
  9
$HANDSEED
  5
330
  9
$SURFTAB1
 70
     6
  9
$SURFTAB2
 70
     6
  9
$SURFTYPE
 70
     6
  9
$SURFU
 70
     6
  9
$SURFV
 70
     6
  9
$UCSNAME
  2

  9
$UCSORG
 10
0.0
 20
0.0
 30
0.0
  9
$UCSXDIR
 10
1.0
 20
0.0
 30
0.0
  9
$UCSYDIR
 10
0.0
 20
1.0
 30
0.0
  9
$PUCSNAME
  2

  9
$PUCSORG
 10
0.0
 20
0.0
 30
0.0
  9
$PUCSXDIR
 10
1.0
 20
0.0
 30
0.0
  9
$PUCSYDIR
 10
0.0
 20
1.0
 30
0.0
  9
$USERI1
 70
     0
  9
$USERI2
 70
     0
  9
$USERI3
 70
     0
  9
$USERI4
 70
     0
  9
$USERI5
 70
     0
  9
$USERR1
 40
0.0
  9
$USERR2
 40
0.0
  9
$USERR3
 40
0.0
  9
$USERR4
 40
0.0
  9
$USERR5
 40
0.0
  9
$WORLDVIEW
 70
     1
  9
$SHADEDGE
 70
     3
  9
$SHADEDIF
 70
    70
  9
$TILEMODE
 70
     1
  9
$MAXACTVP
 70
    16
  9
$PLIMCHECK
 70
     0
  9
$PEXTMIN
 10
1.0000000000000000E+020
 20
1.0000000000000000E+020
 30
1.0000000000000000E+020
  9
$PEXTMAX
 10
-1.0000000000000000E+020
 20
-1.0000000000000000E+020
 30
-1.0000000000000000E+020
  9
$PLIMMIN
 10
0.0
 20
0.0
  9
$PLIMMAX
 10
12.0
 20
9.0
  9
$UNITMODE
 70
     0
  9
$VISRETAIN
 70
     0
  9
$PLINEGEN
 70
     1
  9
$PSLTSCALE
 70
     0
  0
ENDSEC
  0
SECTION
  2
TABLES
  0
TABLE
  2
VPORT
 70
     2
  0
VPORT
  2
*ACTIVE
 70
     0
 10
0.0
 20
0.0
 11
1.0
 21
1.0
 12
100.00000209547569
 22
135.09286794812621
 13
0.0
 23
0.0
 14
1.0
 24
1.0
 15
0.0
 25
0.0
 16
0.0
 26
0.0
 36
1.0
 17
0.0
 27
0.0
 37
0.0
 40
1348.812722833316
 41
1.603723404255319
 42
50.0
 43
0.0
 44
0.0
 50
0.0
 51
0.0
 71
     0
 72
   100
 73
     1
 74
     1
 75
     0
 76
     0
 77
     0
 78
     0
  0
ENDTAB
  0
TABLE
  2
LTYPE
 70
     1
  0
LTYPE
  2
CONTINUOUS
 70
     0
  3
Solid line
 72
    65
 73
     0
 40
0.0
  0
ENDTAB
  0
TABLE
  2
LAYER
 70
     8
  0
LAYER
  2
0
 70
     0
 62
     7
  6
CONTINUOUS
  0
LAYER
  2
BRACKET1
 70
     0
 62
     7
  6
CONTINUOUS
  0
LAYER
  2
DEFPOINTS
 70
     0
 62
     7
  6
CONTINUOUS
  0
LAYER
  2
HIBINO-BASE
 70
     0
 62
     7
  6
CONTINUOUS
  0
LAYER
  2
SPEC
 70
     0
 62
     7
  6
CONTINUOUS
  0
LAYER
  2
DIMNSIONS
 70
     0
 62
     7
  6
CONTINUOUS
  0
LAYER
  2
BRACKET3
 70
     0
 62
     7
  6
CONTINUOUS
  0
LAYER
  2
BRACKET2
 70
     0
 62
     7
  6
CONTINUOUS
  0
ENDTAB
  0
TABLE
  2
STYLE
 70
     1
  0
STYLE
  2
STANDARD
 70
     0
 40
0.0
 41
1.0
 50
0.0
 71
     0
 42
0.0
  3
txt
  4
BIGFONT.SHX
  0
ENDTAB
  0
TABLE
  2
VIEW
 70
     0
  0
ENDTAB
  0
TABLE
  2
UCS
 70
     0
  0
ENDTAB
  0
TABLE
  2
APPID
 70
     1
  0
APPID
  2
ACAD
 70
     0
  0
ENDTAB
  0
TABLE
  2
DIMSTYLE
 70
     1
  0
DIMSTYLE
  2
STANDARD
 70
     0
  3

  4

  5

  6

  7

 40
1.0
 41
0.18
 42
0.0625
 43
0.38
 44
0.18
 45
0.0
 46
0.0
 47
0.0
 48
0.0
140
0.18
141
0.09
142
0.0
143
25.399999999999999
144
1.0
145
0.0
146
1.0
147
0.09
 71
     0
 72
     0
 73
     1
 74
     1
 75
     0
 76
     0
 77
     0
 78
     0
170
     0
171
     2
172
     0
173
     0
174
     0
175
     0
176
     0
177
     0
178
     0
  0
ENDTAB
  0
ENDSEC
  0
SECTION
  2
BLOCKS
  0
BLOCK
  8
0
  2
$MODEL_SPACE
 70
     0
 10
0.0
 20
0.0
 30
0.0
  3
$MODEL_SPACE
  1

  0
ENDBLK
  5
2FF
  8
0
  0
BLOCK
 67
     1
  8
0
  2
$PAPER_SPACE
 70
     0
 10
0.0
 20
0.0
 30
0.0
  3
$PAPER_SPACE
  1

  0
ENDBLK
  5
2FB
 67
     1
  8
0
  0
ENDSEC
  0
SECTION
  2
ENTITIES
  0
LINE
  5
33
  8
HIBINO-BASE
 62
     7
 10
-350.0
 20
804.1271999999999
 30
0.0
 11
549.99999999999989
 21
804.1271999999999
 31
0.0
  0
LINE
  5
34
  8
HIBINO-BASE
 62
     7
 10
549.99999999999989
 20
-495.87279999999993
 30
0.0
 11
-350.0
 21
-495.87279999999993
 31
0.0
  0
LINE
  5
35
  8
HIBINO-BASE
 62
     7
 10
-350.0
 20
-495.87279999999993
 30
0.0
 11
-350.0
 21
804.1271999999999
 31
0.0
  0
TEXT
  5
36
  8
HIBINO-BASE
 62
     7
 10
-314.07999999999998
 20
-527.91605999999979
 30
0.0
 40
18.00010546875
  1
Hibino Corporation
 41
0.8
 11
-314.07999999999998
 21
-509.91595453124972
 31
0.0
 73
     3
  0
LINE
  5
37
  8
HIBINO-BASE
 62
     7
 10
549.99999999999989
 20
804.1271999999999
 30
0.0
 11
549.99999999999989
 21
-495.87279999999993
 31
0.0
  0
LINE
  5
38
  8
HIBINO-BASE
 62
     7
 10
100.0
 20
-383.37279999999998
 30
0.0
 11
549.99999999999989
 21
-383.37279999999998
 31
0.0
  0
LINE
  5
39
  8
HIBINO-BASE
 62
     7
 10
100.0
 20
-495.87279999999993
 30
0.0
 11
100.0
 21
-383.37279999999998
 31
0.0
  0
TEXT
  5
3A
  8
HIBINO-BASE
 62
     7
 10
104.5
 20
-396.87292999999983
 30
0.0
 40
9.0000527343750001
  1
NOTE
 41
0.8
 11
104.5
 21
-387.87287726562482
 31
0.0
 73
     3
  0
LINE
  5
3B
  8
HIBINO-BASE
 62
     7
 10
275.0
 20
-495.87279999999993
 30
0.0
 11
275.0
 21
-383.37279999999998
 31
0.0
  0
TEXT
  5
3C
  8
HIBINO-BASE
 62
     7
 10
279.49999999999989
 20
-396.87292999999983
 30
0.0
 40
9.0000527343750001
  1
TITLE
 41
0.8
 11
279.49999999999989
 21
-387.87287726562482
 31
0.0
 73
     3
  0
TEXT
  5
3D
  8
HIBINO-BASE
 62
     7
 10
350.34199999999998
 20
-527.91605999999979
 30
0.0
 40
18.00010546875
  1
ヒビノ株式会社
 41
0.8
 11
350.34199999999998
 21
-509.91595453124972
 31
0.0
 73
     3
  0
LINE
  5
3E
  8
HIBINO-BASE
 62
     7
 10
100.0
 20
-445.87279999999993
 30
0.0
 11
549.99999999999989
 21
-445.87279999999993
 31
0.0
  0
TEXT
  5
3F
  8
HIBINO-BASE
 62
     7
 10
341.99999999999989
 20
-459.09092999999979
 30
0.0
 40
9.0000527343750001
  1
DRAWN
 41
0.8
 11
341.99999999999989
 21
-450.09087726562478
 31
0.0
 73
     3
  0
TEXT
  5
40
  8
HIBINO-BASE
 62
     7
 10
217.0
 20
-459.09092999999979
 30
0.0
 40
9.0000527343750001
  1
DATE
 41
0.8
 11
217.0
 21
-450.09087726562478
 31
0.0
 73
     3
  0
TEXT
  5
41
  8
HIBINO-BASE
 62
     7
 10
105.5
 20
-458.97010999999981
 30
0.0
 40
8.1443339843750007
  1
図面サイズ
 41
0.8
 11
105.5
 21
-450.8257760156248
 31
0.0
 73
     3
  0
TEXT
  5
42
  8
HIBINO-BASE
 62
     7
 10
167.0
 20
-459.09092999999979
 30
0.0
 40
9.0000527343750001
  1
SCALE
 41
0.8
 11
167.0
 21
-450.09087726562478
 31
0.0
 73
     3
  0
TEXT
  5
43
  8
HIBINO-BASE
 62
     7
 10
279.49999999999989
 20
-459.09092999999979
 30
0.0
 40
9.0000527343750001
  1
DESIGN
 41
0.8
 11
279.49999999999989
 21
-450.09087726562478
 31
0.0
 73
     3
  0
TEXT
  5
44
  8
HIBINO-BASE
 62
     7
 10
467.0
 20
-459.09092999999979
 30
0.0
 40
9.0000527343750001
  1
DRAWING NO.
 41
0.8
 11
467.0
 21
-450.09087726562478
 31
0.0
 73
     3
  0
TEXT
  5
45
  8
HIBINO-BASE
 62
     7
 10
404.49999999999989
 20
-459.09092999999979
 30
0.0
 40
9.0000527343750001
  1
CHECK
 41
0.8
 11
404.49999999999989
 21
-450.09087726562478
 31
0.0
 73
     3
  0
LINE
  5
46
  8
HIBINO-BASE
 62
     7
 10
171.875
 20
-489.62279999999993
 30
0.0
 11
190.625
 21
-470.87279999999993
 31
0.0
  0
TEXT
  5
47
  8
HIBINO-BASE
 62
     7
 10
168.75
 20
-479.45125999999982
 30
0.0
 40
10.858855468750001
  1
1
 41
0.8
 11
168.75
 21
-468.59240453124983
 31
0.0
 73
     3
  0
LINE
  5
48
  8
HIBINO-BASE
 62
     7
 10
162.5
 20
-495.87279999999993
 30
0.0
 11
162.5
 21
-445.87279999999993
 31
0.0
  0
LINE
  5
49
  8
HIBINO-BASE
 62
     7
 10
212.5
 20
-495.87279999999993
 30
0.0
 11
212.5
 21
-445.87279999999993
 31
0.0
  0
LINE
  5
4A
  8
HIBINO-BASE
 62
     7
 10
337.5
 20
-445.87279999999993
 30
0.0
 11
337.5
 21
-495.87279999999993
 31
0.0
  0
LINE
  5
4B
  8
HIBINO-BASE
 62
     7
 10
462.5
 20
-445.87279999999993
 30
0.0
 11
462.5
 21
-495.87279999999993
 31
0.0
  0
LINE
  5
4C
  8
HIBINO-BASE
 62
     7
 10
400.0
 20
-495.87279999999993
 30
0.0
 11
400.0
 21
-445.87279999999993
 31
0.0
  0
TEXT
  5
4D
  8
HIBINO-BASE
 62
     7
 10
119.5545
 20
-483.38048999999978
 30
0.0
 40
16.288283203125001
  1
A4
 41
0.8
 11
119.5545
 21
-467.09220679687479
 31
0.0
 73
     3
  0
TEXT
  5
4E
  8
HIBINO-BASE
 62
     7
 10
216.7825
 20
-482.5109299999998
 30
0.0
 40
9.0000527343750001
  1
'04.03.
 41
0.8
 11
216.7825
 21
-473.5108772656248
 31
0.0
 73
     3
  0
TEXT
  5
4F
  8
HIBINO-BASE
 62
     7
 10
187.5
 20
-488.82625999999982
 30
0.0
 40
10.858855468750001
  1
5
 41
0.8
 11
187.5
 21
-477.96740453124983
 31
0.0
 73
     3
  0
TEXT
  5
50
  8
HIBINO-BASE
 62
     7
 10
345.02905005517312
 20
-481.55456666666657
 30
0.0
 40
8.1442057291666661
  1
N.Sasaki
 41
0.8
 11
345.02905005517312
 21
-473.4103609375
 31
0.0
 73
     3
  0
LINE
  5
51
  8
SPEC
 62
     7
 10
-312.5
 20
716.6271999999999
 30
0.0
 11
100.0
 21
716.6271999999999
 31
0.0
  0
LINE
  5
52
  8
SPEC
 62
     7
 10
-312.5
 20
735.3771999999999
 30
0.0
 11
100.0
 21
735.3771999999999
 31
0.0
  0
LINE
  5
53
  8
SPEC
 62
     7
 10
-312.5
 20
754.1271999999999
 30
0.0
 11
100.0
 21
754.1271999999999
 31
0.0
  0
LINE
  5
54
  8
SPEC
 62
     7
 10
-312.5
 20
754.1271999999999
 30
0.0
 11
-312.5
 21
716.6271999999999
 31
0.0
  0
TEXT
  5
55
  8
SPEC
 62
     7
 10
-306.25
 20
761.09369999999979
 30
0.0
 40
12.21630859375
  1
仕様
 41
0.8
 11
-306.25
 21
773.3100085937499
 31
0.0
 73
     3
  0
LINE
  5
56
  8
SPEC
 62
     7
 10
-150.0
 20
754.1271999999999
 30
0.0
 11
-150.0
 21
716.6271999999999
 31
0.0
  0
LINE
  5
57
  8
SPEC
 62
     7
 10
100.0
 20
754.1271999999999
 30
0.0
 11
100.0
 21
716.6271999999999
 31
0.0
  0
TEXT
  5
58
  8
SPEC
 62
     7
 10
-308.0
 20
739.31677999999965
 30
0.0
 40
9.5014023437499997
  1
寸法
 41
0.8
 11
-308.0
 21
748.81818234374964
 31
0.0
 73
     3
  0
TEXT
  5
59
  8
SPEC
 62
     7
 10
-308.0
 20
720.56677999999965
 30
0.0
 40
9.5014023437499997
  1
重量
 41
0.8
 11
-308.0
 21
730.06818234374964
 31
0.0
 73
     3
  0
TEXT
  5
5A
  8
SPEC
 62
     7
 10
-145.5
 20
739.31677999999965
 30
0.0
 40
9.5014023437499997
  1
150(W)×231(H)×150(D)mm
 41
0.8
 11
-145.5
 21
748.81818234374964
 31
0.0
 73
     3
  0
TEXT
  5
5B
  8
SPEC
 62
     7
 10
-145.5
 20
720.56677999999965
 30
0.0
 40
9.5014023437499997
  1
約2.4kg(1個)
 41
0.8
 11
-145.5
 21
730.06818234374964
 31
0.0
 73
     3
  0
TEXT
  5
5C
  8
DIMNSIONS
 62
     7
 10
-0.0000000000000007
 20
-434.52530000000002
 30
0.0
 40
12.21630859375
  1
(単位：mm)
 41
0.8
 11
0.0
 21
-422.30899140625002
 31
0.0
 73
     3
  0
LINE
  5
5D
  8
DIMNSIONS
 62
     7
 10
364.68412074187211
 20
412.11746415884761
 30
0.0
 11
424.99999999999972
 21
375.0
 31
0.0
  0
LINE
  5
5E
  8
DIMNSIONS
 62
     7
 10
364.68412074187211
 20
412.11746415884761
 30
0.0
 11
380.4009983609721
 21
407.31233245395782
 31
0.0
  0
LINE
  5
5F
  8
DIMNSIONS
 62
     7
 10
364.68412074187211
 20
412.11746415884761
 30
0.0
 11
375.89277017573892
 21
400.09765922433297
 31
0.0
  0
LINE
  5
60
  8
DIMNSIONS
 62
     7
 10
424.99999999999972
 20
375.0
 30
0.0
 11
507.91666667318572
 21
375.0
 31
0.0
  0
TEXT
  5
61
  8
DIMNSIONS
 62
     7
 10
455.0000000065188
 20
380.46944444444438
 30
0.0
 40
13.57367621527778
  1
8-φ11
 41
0.8
 11
455.0000000065188
 21
394.04312065972221
 31
0.0
 73
     3
  0
LINE
  5
62
  8
DIMNSIONS
 62
     7
 10
240.0000000000002
 20
405.0000000372529
 30
0.0
 11
240.0000000000002
 21
340.0000000372529
 31
0.0
  0
LINE
  5
63
  8
DIMNSIONS
 62
     7
 10
300.00000000000028
 20
405.0000000372529
 30
0.0
 11
300.00000000000028
 21
340.0000000372529
 31
0.0
  0
LINE
  5
64
  8
DIMNSIONS
 62
     7
 10
240.0000000000002
 20
350.0
 30
0.0
 11
300.00000000000028
 21
350.0
 31
0.0
  0
LINE
  5
65
  8
DIMNSIONS
 62
     7
 10
240.0000000000002
 20
350.0
 30
0.0
 11
255.8750000000002
 21
354.25369342984408
 31
0.0
  0
LINE
  5
66
  8
DIMNSIONS
 62
     7
 10
240.0000000000002
 20
350.0
 30
0.0
 11
255.8750000000002
 21
345.74630657015592
 31
0.0
  0
LINE
  5
67
  8
DIMNSIONS
 62
     7
 10
300.00000000000028
 20
350.0
 30
0.0
 11
284.12500000000028
 21
345.74630657015592
 31
0.0
  0
LINE
  5
68
  8
DIMNSIONS
 62
     7
 10
300.00000000000028
 20
350.0
 30
0.0
 11
284.12500000000028
 21
354.25369342984408
 31
0.0
  0
TEXT
  5
69
  8
DIMNSIONS
 62
     7
 10
261.18055555555571
 20
355.46944444444438
 30
0.0
 40
13.57367621527778
  1
60
 41
0.8
 11
261.18055555555571
 21
369.04312065972221
 31
0.0
 73
     3
  0
LINE
  5
6A
  8
DIMNSIONS
 62
     7
 10
300.00000000000028
 20
405.0000000372529
 30
0.0
 11
300.00000000000028
 21
340.0000000372529
 31
0.0
  0
LINE
  5
6B
  8
DIMNSIONS
 62
     7
 10
359.99999999999977
 20
405.0000000372529
 30
0.0
 11
359.99999999999977
 21
340.0000000372529
 31
0.0
  0
LINE
  5
6C
  8
DIMNSIONS
 62
     7
 10
300.00000000000028
 20
350.0
 30
0.0
 11
359.99999999999977
 21
350.0
 31
0.0
  0
LINE
  5
6D
  8
DIMNSIONS
 62
     7
 10
300.00000000000028
 20
350.0
 30
0.0
 11
315.87500000000028
 21
354.25369342984408
 31
0.0
  0
LINE
  5
6E
  8
DIMNSIONS
 62
     7
 10
300.00000000000028
 20
350.0
 30
0.0
 11
315.87500000000028
 21
345.74630657015592
 31
0.0
  0
LINE
  5
6F
  8
DIMNSIONS
 62
     7
 10
359.99999999999977
 20
350.0
 30
0.0
 11
344.12499999999977
 21
345.74630657015592
 31
0.0
  0
LINE
  5
70
  8
DIMNSIONS
 62
     7
 10
359.99999999999977
 20
350.0
 30
0.0
 11
344.12499999999977
 21
354.25369342984408
 31
0.0
  0
TEXT
  5
71
  8
DIMNSIONS
 62
     7
 10
321.1805555555556
 20
355.46944444444438
 30
0.0
 40
13.57367621527778
  1
60
 41
0.8
 11
321.1805555555556
 21
369.04312065972221
 31
0.0
 73
     3
  0
LINE
  5
72
  8
DIMNSIONS
 62
     7
 10
374.99999999999977
 20
400.00000003725268
 30
0.0
 11
374.99999999999977
 21
290.0000000372529
 31
0.0
  0
LINE
  5
73
  8
DIMNSIONS
 62
     7
 10
225.00000000000011
 20
400.00000003725268
 30
0.0
 11
225.00000000000011
 21
290.0000000372529
 31
0.0
  0
LINE
  5
74
  8
DIMNSIONS
 62
     7
 10
374.99999999999977
 20
300.0
 30
0.0
 11
225.00000000000011
 21
300.0
 31
0.0
  0
LINE
  5
75
  8
DIMNSIONS
 62
     7
 10
374.99999999999977
 20
300.0
 30
0.0
 11
359.12499999999977
 21
295.74630657015598
 31
0.0
  0
LINE
  5
76
  8
DIMNSIONS
 62
     7
 10
374.99999999999977
 20
300.0
 30
0.0
 11
359.12499999999977
 21
304.25369342984408
 31
0.0
  0
LINE
  5
77
  8
DIMNSIONS
 62
     7
 10
225.00000000000011
 20
300.0
 30
0.0
 11
240.87500000000011
 21
304.25369342984408
 31
0.0
  0
LINE
  5
78
  8
DIMNSIONS
 62
     7
 10
225.00000000000011
 20
300.0
 30
0.0
 11
240.87500000000011
 21
295.74630657015598
 31
0.0
  0
TEXT
  5
79
  8
DIMNSIONS
 62
     7
 10
286.7708333333332
 20
305.46944444444432
 30
0.0
 40
13.57367621527778
  1
150
 41
0.8
 11
286.7708333333332
 21
319.04312065972198
 31
0.0
 73
     3
  0
LINE
  5
7A
  8
DIMNSIONS
 62
     7
 10
230.0000000372531
 20
535.0
 30
0.0
 11
190.0000000372529
 21
535.0
 31
0.0
  0
LINE
  5
7B
  8
DIMNSIONS
 62
     7
 10
230.0000000372531
 20
475.0
 30
0.0
 11
190.0000000372529
 21
475.0
 31
0.0
  0
LINE
  5
7C
  8
DIMNSIONS
 62
     7
 10
200.0
 20
535.0
 30
0.0
 11
200.0
 21
475.0
 31
0.0
  0
LINE
  5
7D
  8
DIMNSIONS
 62
     7
 10
200.0
 20
535.0
 30
0.0
 11
204.25369342984399
 21
519.125
 31
0.0
  0
LINE
  5
7E
  8
DIMNSIONS
 62
     7
 10
200.0
 20
535.0
 30
0.0
 11
195.74630657015581
 21
519.125
 31
0.0
  0
LINE
  5
7F
  8
DIMNSIONS
 62
     7
 10
200.0
 20
475.0
 30
0.0
 11
195.74630657015581
 21
490.875
 31
0.0
  0
LINE
  5
80
  8
DIMNSIONS
 62
     7
 10
200.0
 20
475.0
 30
0.0
 11
204.25369342984399
 21
490.875
 31
0.0
  0
TEXT
  5
81
  8
DIMNSIONS
 62
     7
 10
194.5305555555554
 20
496.1805555555556
 30
0.0
 40
13.57367621527778
  1
60
 50
90.0
 41
0.8
 11
180.95687934027771
 21
496.1805555555556
 31
0.0
 73
     3
  0
LINE
  5
82
  8
DIMNSIONS
 62
     7
 10
230.0000000372531
 20
475.0
 30
0.0
 11
190.0000000372529
 21
475.0
 31
0.0
  0
LINE
  5
83
  8
DIMNSIONS
 62
     7
 10
230.0000000372531
 20
415.0
 30
0.0
 11
190.0000000372529
 21
415.0
 31
0.0
  0
LINE
  5
84
  8
DIMNSIONS
 62
     7
 10
200.0
 20
475.0
 30
0.0
 11
200.0
 21
415.0
 31
0.0
  0
LINE
  5
85
  8
DIMNSIONS
 62
     7
 10
200.0
 20
475.0
 30
0.0
 11
204.25369342984399
 21
459.125
 31
0.0
  0
LINE
  5
86
  8
DIMNSIONS
 62
     7
 10
200.0
 20
475.0
 30
0.0
 11
195.74630657015581
 21
459.125
 31
0.0
  0
LINE
  5
87
  8
DIMNSIONS
 62
     7
 10
200.0
 20
415.0
 30
0.0
 11
195.74630657015581
 21
430.87499999999989
 31
0.0
  0
LINE
  5
88
  8
DIMNSIONS
 62
     7
 10
200.0
 20
415.0
 30
0.0
 11
204.25369342984399
 21
430.87499999999989
 31
0.0
  0
TEXT
  5
89
  8
DIMNSIONS
 62
     7
 10
194.5305555555554
 20
436.1805555555556
 30
0.0
 40
13.57367621527778
  1
60
 50
90.0
 41
0.8
 11
180.95687934027771
 21
436.1805555555556
 31
0.0
 73
     3
  0
LINE
  5
8A
  8
DIMNSIONS
 62
     7
 10
225.0000000372531
 20
550.0
 30
0.0
 11
140.0000000372529
 21
550.0
 31
0.0
  0
LINE
  5
8B
  8
DIMNSIONS
 62
     7
 10
225.0000000372531
 20
400.0
 30
0.0
 11
140.0000000372529
 21
400.0
 31
0.0
  0
LINE
  5
8C
  8
DIMNSIONS
 62
     7
 10
150.0
 20
550.0
 30
0.0
 11
150.0
 21
400.0
 31
0.0
  0
LINE
  5
8D
  8
DIMNSIONS
 62
     7
 10
150.0
 20
550.0
 30
0.0
 11
154.25369342984399
 21
534.125
 31
0.0
  0
LINE
  5
8E
  8
DIMNSIONS
 62
     7
 10
150.0
 20
550.0
 30
0.0
 11
145.74630657015581
 21
534.125
 31
0.0
  0
LINE
  5
8F
  8
DIMNSIONS
 62
     7
 10
150.0
 20
400.0
 30
0.0
 11
145.74630657015581
 21
415.875
 31
0.0
  0
LINE
  5
90
  8
DIMNSIONS
 62
     7
 10
150.0
 20
400.0
 30
0.0
 11
154.25369342984399
 21
415.875
 31
0.0
  0
TEXT
  5
91
  8
DIMNSIONS
 62
     7
 10
144.5305555555554
 20
461.77083333333309
 30
0.0
 40
13.57367621527778
  1
150
 50
90.0
 41
0.8
 11
130.95687934027771
 21
461.77083333333309
 31
0.0
 73
     3
  0
LINE
  5
92
  8
DIMNSIONS
 62
     7
 10
-184.9999999627469
 20
100.0
 30
0.0
 11
-259.99999996274698
 21
100.0
 31
0.0
  0
LINE
  5
93
  8
DIMNSIONS
 62
     7
 10
-170.09999983474691
 20
-130.99999953299999
 30
0.0
 11
-259.99999996274698
 21
-130.99999953299999
 31
0.0
  0
LINE
  5
94
  8
DIMNSIONS
 62
     7
 10
-250.0
 20
100.0
 30
0.0
 11
-250.0
 21
-130.99999953299999
 31
0.0
  0
LINE
  5
95
  8
DIMNSIONS
 62
     7
 10
-250.0
 20
100.0
 30
0.0
 11
-245.74630657015589
 21
84.124999999999986
 31
0.0
  0
LINE
  5
96
  8
DIMNSIONS
 62
     7
 10
-250.0
 20
100.0
 30
0.0
 11
-254.25369342984399
 21
84.124999999999986
 31
0.0
  0
LINE
  5
97
  8
DIMNSIONS
 62
     7
 10
-250.0
 20
-130.99999953299999
 30
0.0
 11
-254.25369342984399
 21
-115.12499953299999
 31
0.0
  0
LINE
  5
98
  8
DIMNSIONS
 62
     7
 10
-250.0
 20
-130.99999953299999
 30
0.0
 11
-245.74630657015589
 21
-115.12499953299999
 31
0.0
  0
TEXT
  5
99
  8
DIMNSIONS
 62
     7
 10
-257.46944442581793
 20
-28.729166433166711
 30
0.0
 40
13.57367621527778
  1
231
 50
90.0
 41
0.8
 11
-271.0431206410957
 21
-28.729166433166711
 31
0.0
 73
     3
  0
LINE
  5
9A
  8
DIMNSIONS
 62
     7
 10
-174.99999999999969
 20
109.999999962747
 30
0.0
 11
-174.99999999999969
 21
153.30127015196891
 31
0.0
  0
LINE
  5
9B
  8
DIMNSIONS
 62
     7
 10
-25.00000000000016
 20
109.999999962747
 30
0.0
 11
-25.00000000000016
 21
153.30127015196891
 31
0.0
  0
LINE
  5
9C
  8
DIMNSIONS
 62
     7
 10
-174.99999999999969
 20
143.30127018922181
 30
0.0
 11
-25.00000000000016
 21
143.30127018922181
 31
0.0
  0
LINE
  5
9D
  8
DIMNSIONS
 62
     7
 10
-174.99999999999969
 20
143.30127018922181
 30
0.0
 11
-159.12499999999969
 21
147.55496361906589
 31
0.0
  0
LINE
  5
9E
  8
DIMNSIONS
 62
     7
 10
-174.99999999999969
 20
143.30127018922181
 30
0.0
 11
-159.12499999999969
 21
139.04757675937771
 31
0.0
  0
LINE
  5
9F
  8
DIMNSIONS
 62
     7
 10
-25.00000000000016
 20
143.30127018922181
 30
0.0
 11
-40.875000000000149
 21
139.04757675937771
 31
0.0
  0
LINE
  5
A0
  8
DIMNSIONS
 62
     7
 10
-25.00000000000016
 20
143.30127018922181
 30
0.0
 11
-40.875000000000149
 21
147.55496361906589
 31
0.0
  0
TEXT
  5
A1
  8
DIMNSIONS
 62
     7
 10
-113.2291666666666
 20
150.77071461503971
 30
0.0
 40
13.57367621527778
  1
150
 41
0.8
 11
-113.2291666666666
 21
164.34439083031751
 31
0.0
 73
     3
  0
LINE
  5
A2
  8
DIMNSIONS
 62
     7
 10
225.00000000000011
 20
109.999999962747
 30
0.0
 11
225.00000000000011
 21
134.9999999627471
 31
0.0
  0
LINE
  5
A3
  8
DIMNSIONS
 62
     7
 10
374.99999999999977
 20
109.999999962747
 30
0.0
 11
374.99999999999977
 21
134.99999996274701
 31
0.0
  0
LINE
  5
A4
  8
DIMNSIONS
 62
     7
 10
225.00000000000011
 20
125.0
 30
0.0
 11
374.99999999999977
 21
125.0
 31
0.0
  0
LINE
  5
A5
  8
DIMNSIONS
 62
     7
 10
225.00000000000011
 20
125.0
 30
0.0
 11
240.87500000000011
 21
129.25369342984399
 31
0.0
  0
LINE
  5
A6
  8
DIMNSIONS
 62
     7
 10
225.00000000000011
 20
125.0
 30
0.0
 11
240.87500000000011
 21
120.7463065701558
 31
0.0
  0
LINE
  5
A7
  8
DIMNSIONS
 62
     7
 10
374.99999999999977
 20
125.0
 30
0.0
 11
359.12499999999977
 21
120.7463065701558
 31
0.0
  0
LINE
  5
A8
  8
DIMNSIONS
 62
     7
 10
374.99999999999977
 20
125.0
 30
0.0
 11
359.12499999999977
 21
129.25369342984399
 31
0.0
  0
TEXT
  5
A9
  8
DIMNSIONS
 62
     7
 10
286.7708333333332
 20
132.4694444258179
 30
0.0
 40
13.57367621527778
  1
150
 41
0.8
 11
286.7708333333332
 21
146.0431206410957
 31
0.0
 73
     3
  0
LINE
  5
AA
  8
DIMNSIONS
 62
     7
 10
249.9999982440001
 20
-141.0000008787471
 30
0.0
 11
249.9999982440001
 21
-209.99999996274701
 31
0.0
  0
LINE
  5
AB
  8
DIMNSIONS
 62
     7
 10
350.00000000000023
 20
-140.99999949574709
 30
0.0
 11
350.00000000000023
 21
-209.99999996274701
 31
0.0
  0
LINE
  5
AC
  8
DIMNSIONS
 62
     7
 10
249.9999982440001
 20
-200.0
 30
0.0
 11
350.00000000000023
 21
-200.0
 31
0.0
  0
LINE
  5
AD
  8
DIMNSIONS
 62
     7
 10
249.9999982440001
 20
-200.0
 30
0.0
 11
265.8749982440001
 21
-195.74630657015581
 31
0.0
  0
LINE
  5
AE
  8
DIMNSIONS
 62
     7
 10
249.9999982440001
 20
-200.0
 30
0.0
 11
265.8749982440001
 21
-204.25369342984399
 31
0.0
  0
LINE
  5
AF
  8
DIMNSIONS
 62
     7
 10
350.00000000000023
 20
-200.0
 30
0.0
 11
334.12500000000028
 21
-204.25369342984399
 31
0.0
  0
LINE
  5
B0
  8
DIMNSIONS
 62
     7
 10
350.00000000000023
 20
-200.0
 30
0.0
 11
334.12500000000028
 21
-195.74630657015581
 31
0.0
  0
TEXT
  5
B1
  8
DIMNSIONS
 62
     7
 10
286.7708324553335
 20
-192.53055557418179
 30
0.0
 40
13.57367621527778
  1
100
 41
0.8
 11
286.7708324553335
 21
-178.95687935890399
 31
0.0
 73
     3
  0
LINE
  5
B2
  8
DIMNSIONS
 62
     7
 10
239.999998281253
 20
-131.00000091599981
 30
0.0
 11
190.0000000372529
 21
-131.00000091599981
 31
0.0
  0
LINE
  5
B3
  8
DIMNSIONS
 62
     7
 10
215.0000000372529
 20
100.0
 30
0.0
 11
190.0000000372529
 21
100.0
 31
0.0
  0
LINE
  5
B4
  8
DIMNSIONS
 62
     7
 10
200.0
 20
-131.00000091599981
 30
0.0
 11
200.0
 21
100.0
 31
0.0
  0
LINE
  5
B5
  8
DIMNSIONS
 62
     7
 10
200.0
 20
-131.00000091599981
 30
0.0
 11
195.74630657015581
 21
-115.125000916
 31
0.0
  0
LINE
  5
B6
  8
DIMNSIONS
 62
     7
 10
200.0
 20
-131.00000091599981
 30
0.0
 11
204.25369342984399
 21
-115.125000916
 31
0.0
  0
LINE
  5
B7
  8
DIMNSIONS
 62
     7
 10
200.0
 20
100.0
 30
0.0
 11
204.25369342984399
 21
84.124999999999986
 31
0.0
  0
LINE
  5
B8
  8
DIMNSIONS
 62
     7
 10
200.0
 20
100.0
 30
0.0
 11
195.74630657015581
 21
84.124999999999986
 31
0.0
  0
TEXT
  5
B9
  8
DIMNSIONS
 62
     7
 10
192.53055557418199
 20
-28.729167124666681
 30
0.0
 40
13.57367621527778
  1
231
 50
90.0
 41
0.8
 11
178.95687935890419
 21
-28.729167124666681
 31
0.0
 73
     3
  0
CIRCLE
  5
C6
  8
BRACKET3
 62
     7
 10
-99.999999999999957
 20
0.1999999999999318
 30
0.0
 40
4.0999999999999091
  0
ARC
  5
C7
  8
BRACKET3
 62
     7
 10
-99.999999999999957
 20
30.099999999999891
 30
0.0
 40
4.0999999999999091
 50
0.0
 51
180.0
  0
LINE
  5
C8
  8
BRACKET3
 62
     7
 10
-104.0999999999998
 20
30.099999999999891
 30
0.0
 11
-104.0999999999998
 21
28.299999999999891
 31
0.0
  0
ARC
  5
C9
  8
BRACKET3
 62
     7
 10
-99.999999999999957
 20
28.299999999999891
 30
0.0
 40
4.0999999999999091
 50
180.0
 51
0.0
  0
LINE
  5
CA
  8
BRACKET3
 62
     7
 10
-95.900000000000034
 20
28.299999999999891
 30
0.0
 11
-95.900000000000034
 21
30.099999999999891
 31
0.0
  0
CIRCLE
  5
CB
  8
BRACKET3
 62
     7
 10
-72.904747692999933
 20
-108.4731213430001
 30
0.0
 40
2.5999999999999082
  0
CIRCLE
  5
CC
  8
BRACKET3
 62
     7
 10
-74.840122858000029
 20
-100.7107555330001
 30
0.0
 40
2.600000000000362
  0
CIRCLE
  5
CD
  8
BRACKET3
 62
     7
 10
-76.775498022000164
 20
-92.948389722000002
 30
0.0
 40
2.600000000000362
  0
CIRCLE
  5
CE
  8
BRACKET3
 62
     7
 10
-78.710873186999791
 20
-85.186023911999982
 30
0.0
 40
2.5999999999999082
  0
CIRCLE
  5
CF
  8
BRACKET3
 62
     7
 10
-80.646248351999873
 20
-77.42365810200009
 30
0.0
 40
2.5999999999999082
  0
LINE
  5
D0
  8
BRACKET3
 62
     7
 10
-114.9999999999999
 20
30.099999999999891
 30
0.0
 11
-114.9999999999999
 21
0.2000053949999483
 31
0.0
  0
ARC
  5
D1
  8
BRACKET3
 62
     7
 10
-99.999999999999957
 20
0.1999999999999318
 30
0.0
 40
15.00000000000006
 50
179.999979403
 51
193.9999999999996
  0
LINE
  5
D2
  8
BRACKET3
 62
     7
 10
-114.55443589399999
 20
-3.4288284340000801
 30
0.0
 11
-87.459185377999759
 21
-112.10194259400011
 31
0.0
  0
ARC
  5
D3
  8
BRACKET3
 62
     7
 10
-99.999999999999957
 20
30.099999999999891
 30
0.0
 40
15.000000000000011
 50
89.999970858000225
 51
180.0
  0
ARC
  5
D4
  8
BRACKET3
 62
     7
 10
-72.904747692999933
 20
-108.4731213430001
 30
0.0
 40
15.00000000000014
 50
193.99997172399961
 51
14.00002827599979
  0
ARC
  5
D5
  8
BRACKET3
 62
     7
 10
-87.36371397399985
 20
27.298602831999901
 30
0.0
 40
4.0999999999999934
 50
335.00000000000028
 51
155.0000000000002
  0
LINE
  5
D6
  8
BRACKET3
 62
     7
 10
-91.079575901000183
 20
29.031337705999931
 30
0.0
 11
-91.840288771999823
 21
27.399983688999939
 31
0.0
  0
ARC
  5
D7
  8
BRACKET3
 62
     7
 10
-88.124426844999974
 20
25.667248815999908
 30
0.0
 40
4.0999999999999934
 50
155.0000000000002
 51
335.00000000000028
  0
LINE
  5
D8
  8
BRACKET3
 62
     7
 10
-84.408564918000096
 20
23.934513942999949
 30
0.0
 11
-83.647852046999958
 21
25.565867958999931
 31
0.0
  0
ARC
  5
D9
  8
BRACKET3
 62
     7
 10
-77.095271150999864
 20
19.419349529999892
 30
0.0
 40
4.100000000000076
 50
310.00000000000182
 51
130.00000000000179
  0
LINE
  5
DA
  8
BRACKET3
 62
     7
 10
-79.730700349999978
 20
22.56013174599989
 30
0.0
 11
-81.109580347999739
 21
21.403114048999939
 31
0.0
  0
ARC
  5
DB
  8
BRACKET3
 62
     7
 10
-78.474151148000104
 20
18.262331831999902
 30
0.0
 40
4.100000000000076
 50
130.0000000000019
 51
310.00000000000182
  0
LINE
  5
DC
  8
BRACKET3
 62
     7
 10
-75.838721948999989
 20
15.121549614999919
 30
0.0
 11
-74.459841950999774
 21
16.278567312999979
 31
0.0
  0
ARC
  5
DD
  8
BRACKET3
 62
     7
 10
-71.118817793999781
 20
7.9386894489999804
 30
0.0
 40
4.0999999999999259
 50
284.99999999999471
 51
105.0000000000009
  0
LINE
  5
DE
  8
BRACKET3
 62
     7
 10
-72.17997587899977
 20
11.89898533599994
 30
0.0
 11
-73.918642365999816
 21
11.43311105499993
 31
0.0
  0
ARC
  5
DF
  8
BRACKET3
 62
     7
 10
-72.857484280999813
 20
7.4728151669999079
 30
0.0
 40
4.1000000000000441
 50
105.0000000000009
 51
284.99999999999471
  0
LINE
  5
E0
  8
BRACKET3
 62
     7
 10
-71.796326195999839
 20
3.5125192799999341
 30
0.0
 11
-70.057659708999793
 21
3.978393560999903
 31
0.0
  0
ARC
  5
E1
  8
BRACKET3
 62
     7
 10
-71.118817793999781
 20
7.9386894489999804
 30
0.0
 40
15.00000000000003
 50
284.19973260600062
 51
14.99999999999989
  0
ARC
  5
E2
  8
BRACKET3
 62
     7
 10
-99.999999999999957
 20
0.1999999999999318
 30
0.0
 40
44.900000000000169
 50
14.999999999999959
 51
89.999990263999763
  0
ARC
  5
E3
  8
BRACKET3
 62
     7
 10
-63.759756785999741
 20
-21.144711678000078
 30
0.0
 40
15.00000000000006
 50
104.199634739001
 51
193.99997172399961
  0
LINE
  5
E4
  8
BRACKET3
 62
     7
 10
-78.314194470999979
 20
-24.773532929000051
 30
0.0
 11
-58.350313589999999
 21
-104.84428572600009
 31
0.0
  0
LINE
  5
E5
  8
BRACKET3
 62
     7
 10
276.79999999999973
 20
-122.276283065
 30
0.0
 11
280.0
 21
-122.276283065
 31
0.0
  0
LINE
  5
E6
  8
BRACKET3
 62
     7
 10
320.0
 20
-122.276283065
 30
0.0
 11
323.19999999999982
 21
-122.276283065
 31
0.0
  0
LINE
  5
E7
  8
BRACKET3
 62
     7
 10
323.19999999999982
 20
-122.276283065
 30
0.0
 11
323.19999999999982
 21
45.299999999999933
 31
0.0
  0
LINE
  5
E8
  8
BRACKET3
 62
     7
 10
320.0
 20
45.299999999999933
 30
0.0
 11
323.19999999999982
 21
45.299999999999933
 31
0.0
  0
LINE
  5
E9
  8
BRACKET3
 62
     7
 10
320.0
 20
-122.276283065
 30
0.0
 11
320.0
 21
45.299999999999933
 31
0.0
  0
LINE
  5
EA
  8
BRACKET3
 62
     7
 10
280.0
 20
-122.276283065
 30
0.0
 11
280.0
 21
45.299999999999933
 31
0.0
  0
LINE
  5
EB
  8
BRACKET3
 62
     7
 10
276.79999999999973
 20
45.299999999999933
 30
0.0
 11
280.0
 21
45.299999999999933
 31
0.0
  0
LINE
  5
EC
  8
BRACKET3
 62
     7
 10
276.79999999999973
 20
-122.276283065
 30
0.0
 11
276.79999999999973
 21
45.299999999999933
 31
0.0
  0
LINE
  5
ED
  8
BRACKET2
 62
     7
 10
-158.4999998719999
 20
23.999999601999932
 30
0.0
 11
-158.50000039899979
 21
-130.99999953299999
 31
0.0
  0
LINE
  5
EE
  8
BRACKET2
 62
     7
 10
-156.4999998719999
 20
23.999999594999949
 30
0.0
 11
-156.50000039899979
 21
-130.99999953299999
 31
0.0
  0
CIRCLE
  5
EF
  8
BRACKET2
 62
     7
 10
-99.999999999999957
 20
0.1999999999999318
 30
0.0
 40
4.0999999999999091
  0
LINE
  5
F0
  8
BRACKET2
 62
     7
 10
-160.09999987199981
 20
-130.99999953299999
 30
0.0
 11
-160.09999987199981
 21
23.999999607999978
 31
0.0
  0
LINE
  5
F1
  8
BRACKET2
 62
     7
 10
-156.4999998719999
 20
23.999999600999949
 30
0.0
 11
-160.09999987199981
 21
23.999999612999979
 31
0.0
  0
LINE
  5
F2
  8
BRACKET2
 62
     7
 10
-111.990864109
 20
40.199999999999918
 30
0.0
 11
-156.49999987399991
 21
23.999999599999889
 31
0.0
  0
LINE
  5
F3
  8
BRACKET2
 62
     7
 10
-148.50000039899979
 20
-130.99999953299999
 30
0.0
 11
-160.09999987199981
 21
-130.99999953299999
 31
0.0
  0
ARC
  5
F4
  8
BRACKET2
 62
     7
 10
-102.52751653999979
 20
29.089646244999908
 30
0.0
 40
4.5000000000000364
 50
95.000000000002714
 51
275.00009677099689
  0
LINE
  5
F5
  8
BRACKET2
 62
     7
 10
-73.499999868000003
 20
40.199999999999918
 30
0.0
 11
-111.990864109
 21
40.199999999999918
 31
0.0
  0
ARC
  5
F6
  8
BRACKET2
 62
     7
 10
-73.499999868000003
 20
25.199999999999921
 30
0.0
 40
15.0
 50
0.0
 51
90.0
  0
LINE
  5
F7
  8
BRACKET2
 62
     7
 10
-148.50000039899979
 20
-130.99999953299999
 30
0.0
 11
-71.378680033999856
 21
-119.98266840399999
 31
0.0
  0
LINE
  5
F8
  8
BRACKET2
 62
     7
 10
-58.499999867999989
 20
25.199999948999949
 30
0.0
 11
-58.500000310999852
 21
-105.13342604100011
 31
0.0
  0
ARC
  5
F9
  8
BRACKET2
 62
     7
 10
-73.500000310999866
 20
-105.13342599000011
 30
0.0
 40
14.999999999999909
 50
278.13010209799899
 51
0.0
  0
CIRCLE
  5
FA
  8
BRACKET2
 62
     7
 10
-72.904747692999933
 20
-108.4731213430001
 30
0.0
 40
3.0999999999999082
  0
CIRCLE
  5
FB
  8
BRACKET2
 62
     7
 10
-76.605090347999933
 20
-101.13448673800001
 30
0.0
 40
3.0999999999999082
  0
CIRCLE
  5
FC
  8
BRACKET2
 62
     7
 10
-80.040477681000013
 20
-93.702169670000089
 30
0.0
 40
3.0999999999999082
  0
CIRCLE
  5
FD
  8
BRACKET2
 62
     7
 10
-83.208808407000063
 20
-86.183192143000127
 30
0.0
 40
3.0999999999999082
  0
CIRCLE
  5
FE
  8
BRACKET2
 62
     7
 10
-86.10814578699997
 20
-78.584620241000053
 30
0.0
 40
3.0999999999999082
  0
CIRCLE
  5
FF
  8
BRACKET2
 62
     7
 10
-82.479339914999827
 20
-110.4210941470001
 30
0.0
 40
3.0999999999999082
  0
CIRCLE
  5
100
  8
BRACKET2
 62
     7
 10
-85.52599749999986
 20
-102.7878791490001
 30
0.0
 40
3.0999999999999082
  0
CIRCLE
  5
101
  8
BRACKET2
 62
     7
 10
-88.300543032999897
 20
-95.084430558000136
 30
0.0
 40
3.0999999999999082
  0
CIRCLE
  5
102
  8
BRACKET2
 62
     7
 10
-90.801495231999937
 20
-87.317926792000094
 30
0.0
 40
3.0999999999999082
  0
CIRCLE
  5
103
  8
BRACKET2
 62
     7
 10
-93.027540579999794
 20
-79.49557584700004
 30
0.0
 40
3.0999999999999082
  0
CIRCLE
  5
104
  8
BRACKET2
 62
     7
 10
-92.18727494099987
 20
-111.5271736290001
 30
0.0
 40
3.0999999999999082
  0
CIRCLE
  5
105
  8
BRACKET2
 62
     7
 10
-94.55706055099968
 20
-103.657471614
 30
0.0
 40
3.0999999999999082
  0
CIRCLE
  5
106
  8
BRACKET2
 62
     7
 10
-96.649648316999816
 20
-95.741519394000079
 30
0.0
 40
3.0999999999999082
  0
CIRCLE
  5
107
  8
BRACKET2
 62
     7
 10
-98.464188233999721
 20
-87.786597174000136
 30
0.0
 40
3.0999999999999082
  0
CIRCLE
  5
108
  8
BRACKET2
 62
     7
 10
-99.999999999999957
 20
-79.800000000000068
 30
0.0
 40
3.0999999999999082
  0
CIRCLE
  5
109
  8
BRACKET2
 62
     7
 10
-101.9546695209996
 20
-111.7829418580001
 30
0.0
 40
3.0999999999999082
  0
CIRCLE
  5
10A
  8
BRACKET2
 62
     7
 10
-103.6295476569998
 20
-103.73664601
 30
0.0
 40
3.0999999999999082
  0
CIRCLE
  5
10B
  8
BRACKET2
 62
     7
 10
-105.0242517989999
 20
-95.668435336000002
 30
0.0
 40
3.0999999999999082
  0
CIRCLE
  5
10C
  8
BRACKET2
 62
     7
 10
-106.1385696889997
 20
-87.585636423000096
 30
0.0
 40
3.0999999999999082
  0
CIRCLE
  5
10D
  8
BRACKET2
 62
     7
 10
-106.97245942000011
 20
-79.49557584700004
 30
0.0
 40
3.100000000000362
  0
CIRCLE
  5
10E
  8
BRACKET2
 62
     7
 10
-112.6744117140001
 20
-103.024799771
 30
0.0
 40
3.100000000000362
  0
CIRCLE
  5
10F
  8
BRACKET2
 62
     7
 10
-113.36061769199971
 20
-94.865734599000135
 30
0.0
 40
3.0999999999999082
  0
CIRCLE
  5
110
  8
BRACKET2
 62
     7
 10
-113.7662329239997
 20
-86.716573972000106
 30
0.0
 40
3.0999999999999082
  0
CIRCLE
  5
111
  8
BRACKET2
 62
     7
 10
-113.8918542129999
 20
-78.584620241000053
 30
0.0
 40
3.0999999999999082
  0
CIRCLE
  5
112
  8
BRACKET2
 62
     7
 10
-111.7071878860001
 20
-111.186452281
 30
0.0
 40
3.100000000000362
  0
CIRCLE
  5
113
  8
BRACKET2
 62
     7
 10
-121.3706074819997
 20
-109.74224454599999
 30
0.0
 40
3.0999999999999082
  0
ARC
  5
114
  8
BRACKET2
 62
     7
 10
-99.999999999999957
 20
0.1999999999999318
 30
0.0
 40
33.499999999999872
 50
355.0
 51
95.000000000000156
  0
ARC
  5
115
  8
BRACKET2
 62
     7
 10
-71.11035375500019
 20
-2.3275165400000319
 30
0.0
 40
4.4999999999996163
 50
174.9999315729994
 51
355.00000000000011
  0
ARC
  5
116
  8
BRACKET2
 62
     7
 10
-99.999999999999957
 20
0.1999999999999318
 30
0.0
 40
24.500000000000171
 50
355.0000125680001
 51
94.999982226000284
  0
LINE
  5
117
  8
BRACKET2
 62
     7
 10
250.0
 20
-130.99999953300011
 30
0.0
 11
350.0
 21
-130.99999953300011
 31
0.0
  0
LINE
  5
118
  8
BRACKET2
 62
     7
 10
249.99999877099981
 20
23.999998218999949
 30
0.0
 11
249.99999824400001
 21
-131.000000916
 31
0.0
  0
LINE
  5
119
  8
BRACKET2
 62
     7
 10
349.99999877099981
 20
23.99999787899997
 30
0.0
 11
349.99999824399993
 21
-131.00000125599999
 31
0.0
  0
CIRCLE
  5
11A
  8
BRACKET2
 62
     7
 10
265.02079599999968
 20
-116.99999953300011
 30
0.0
 40
3.600000000000362
  0
CIRCLE
  5
11B
  8
BRACKET2
 62
     7
 10
334.8707960000001
 20
-116.99999953300011
 30
0.0
 40
3.5999999999999082
  0
CIRCLE
  5
11C
  8
BRACKET2
 62
     7
 10
334.8707960000001
 20
9.9999999509999462
 30
0.0
 40
3.5999999999999082
  0
CIRCLE
  5
11D
  8
BRACKET2
 62
     7
 10
265.02079599999968
 20
9.9999999509999462
 30
0.0
 40
3.600000000000362
  0
LINE
  5
11E
  8
BRACKET2
 62
     7
 10
250.0
 20
23.999999594999949
 30
0.0
 11
269.5
 21
23.999999594999949
 31
0.0
  0
LINE
  5
11F
  8
BRACKET2
 62
     7
 10
328.5
 20
23.999999594999949
 30
0.0
 11
350.0
 21
23.999999594999949
 31
0.0
  0
POLYLINE
  5
120
  8
BRACKET2
 62
     7
 66
     1
 10
0.0
 20
0.0
 30
0.0
  0
VERTEX
  5
315
  8
BRACKET2
 62
     7
 10
276.79999999999973
 20
40.199999999999918
 30
0.0
  0
VERTEX
  5
316
  8
BRACKET2
 62
     7
 10
274.79999999999973
 20
40.199999999999918
 30
0.0
  0
VERTEX
  5
317
  8
BRACKET2
 62
     7
 10
276.79999999999973
 20
40.199999999999918
 30
0.0
  0
SEQEND
  5
318
  8
BRACKET2
 62
     7
  0
LINE
  5
125
  8
BRACKET2
 62
     7
 10
276.79999999999973
 20
-130.99999953300011
 30
0.0
 11
276.79999999999973
 21
40.199999999999918
 31
0.0
  0
LINE
  5
126
  8
BRACKET2
 62
     7
 10
274.79999999999973
 20
40.199999999999918
 30
0.0
 11
274.79999999999973
 21
-130.99999953300011
 31
0.0
  0
LINE
  5
127
  8
BRACKET2
 62
     7
 10
323.19999999999982
 20
40.199999999999918
 30
0.0
 11
325.19999999999982
 21
40.199999999999918
 31
0.0
  0
LINE
  5
128
  8
BRACKET2
 62
     7
 10
323.19999999999982
 20
40.199999999999918
 30
0.0
 11
325.19999999999982
 21
40.199999999999918
 31
0.0
  0
LINE
  5
129
  8
BRACKET2
 62
     7
 10
325.19999999999982
 20
40.199999999999918
 30
0.0
 11
325.19999999999982
 21
-130.99999953300011
 31
0.0
  0
LINE
  5
12A
  8
BRACKET2
 62
     7
 10
323.19999999999982
 20
-130.99999953300011
 30
0.0
 11
323.19999999999982
 21
40.199999999999918
 31
0.0
  0
TEXT
  5
12B
  8
BRACKET1
 62
     7
 10
300.0
 20
-438.70135555555538
 30
0.0
 40
10.85894097222222
  1
JBL-2特型 0°～100°(天井取り付け用)
 41
0.8
 11
300.0
 21
-427.84241458333332
 31
0.0
 73
     3
  0
TEXT
  5
12C
  8
BRACKET1
 62
     7
 10
350.0
 20
-403.9683
 30
0.0
 40
12.21630859375
  1
JBL
 41
0.8
 11
350.0
 21
-391.75199140625
 31
0.0
 73
     3
  0
TEXT
  5
12D
  8
BRACKET1
 62
     7
 10
337.5
 20
-421.35310999999979
 30
0.0
 40
8.1443339843750007
  1
マウントブラケット（8330A、8340A用）
 41
0.8
 11
337.5
 21
-413.20877601562478
 31
0.0
 73
     3
  0
POLYLINE
  5
12E
  8
BRACKET1
 62
     7
 66
     1
 10
0.0
 20
0.0
 30
0.0
  0
VERTEX
  5
319
  8
BRACKET1
 62
     7
 10
-75.999999999999957
 20
68.79999999999994
 30
0.0
  0
VERTEX
  5
31A
  8
BRACKET1
 62
     7
 10
-75.999999999999957
 20
64.79999999999994
 30
0.0
  0
VERTEX
  5
31B
  8
BRACKET1
 62
     7
 10
-123.9999999999999
 20
64.79999999999994
 30
0.0
  0
VERTEX
  5
31C
  8
BRACKET1
 62
     7
 10
-123.9999999999999
 20
68.79999999999994
 30
0.0
  0
SEQEND
  5
31D
  8
BRACKET1
 62
     7
  0
LINE
  5
134
  8
BRACKET1
 62
     7
 10
-81.199999999999775
 20
64.79999999999994
 30
0.0
 11
-79.199999999999775
 21
63.799999999999933
 31
0.0
  0
LINE
  5
135
  8
BRACKET1
 62
     7
 10
-79.199999999999775
 20
63.799999999999933
 30
0.0
 11
-79.199999999999775
 21
51.799999999999933
 31
0.0
  0
LINE
  5
136
  8
BRACKET1
 62
     7
 10
-79.199999999999775
 20
51.799999999999933
 30
0.0
 11
-81.199999999999775
 21
50.799999999999933
 31
0.0
  0
LINE
  5
137
  8
BRACKET1
 62
     7
 10
-81.199999999999775
 20
50.799999999999933
 30
0.0
 11
-118.7999999999997
 21
50.799999999999933
 31
0.0
  0
LINE
  5
138
  8
BRACKET1
 62
     7
 10
-118.7999999999997
 20
50.799999999999933
 30
0.0
 11
-120.7999999999997
 21
51.799999999999933
 31
0.0
  0
LINE
  5
139
  8
BRACKET1
 62
     7
 10
-120.7999999999997
 20
51.799999999999933
 30
0.0
 11
-120.7999999999997
 21
63.799999999999933
 31
0.0
  0
LINE
  5
13A
  8
BRACKET1
 62
     7
 10
-120.7999999999997
 20
63.799999999999933
 30
0.0
 11
-118.7999999999997
 21
64.79999999999994
 31
0.0
  0
LINE
  5
13B
  8
BRACKET1
 62
     7
 10
-87.999999999999943
 20
50.799999999999933
 30
0.0
 11
-87.999999999999943
 21
47.199999999999918
 31
0.0
  0
LINE
  5
13C
  8
BRACKET1
 62
     7
 10
-87.999999999999943
 20
47.199999999999918
 30
0.0
 11
-88.999999999999957
 21
46.199999999999932
 31
0.0
  0
LINE
  5
13D
  8
BRACKET1
 62
     7
 10
-110.9999999999999
 20
46.199999999999932
 30
0.0
 11
-111.9999999999999
 21
47.199999999999918
 31
0.0
  0
LINE
  5
13E
  8
BRACKET1
 62
     7
 10
-111.9999999999999
 20
47.199999999999918
 30
0.0
 11
-111.9999999999999
 21
50.799999999999933
 31
0.0
  0
LINE
  5
13F
  8
BRACKET1
 62
     7
 10
-116.9999999999999
 20
43.199999999999918
 30
0.0
 11
-82.999999999999929
 21
43.199999999999918
 31
0.0
  0
LINE
  5
140
  8
BRACKET1
 62
     7
 10
-113.9999999999999
 20
64.79999999999994
 30
0.0
 11
-111.9999999999999
 21
63.799999999999933
 31
0.0
  0
LINE
  5
141
  8
BRACKET1
 62
     7
 10
-111.9999999999999
 20
63.799999999999933
 30
0.0
 11
-111.9999999999999
 21
51.799999999999933
 31
0.0
  0
LINE
  5
142
  8
BRACKET1
 62
     7
 10
-111.9999999999999
 20
51.799999999999933
 30
0.0
 11
-113.9999999999999
 21
50.799999999999933
 31
0.0
  0
LINE
  5
143
  8
BRACKET1
 62
     7
 10
-109.9999999999999
 20
50.799999999999933
 30
0.0
 11
-111.9999999999999
 21
51.799999999999933
 31
0.0
  0
LINE
  5
144
  8
BRACKET1
 62
     7
 10
-89.999999999999957
 20
50.799999999999933
 30
0.0
 11
-87.999999999999943
 21
51.799999999999933
 31
0.0
  0
LINE
  5
145
  8
BRACKET1
 62
     7
 10
-87.999999999999943
 20
51.799999999999933
 30
0.0
 11
-85.999999999999957
 21
50.799999999999933
 31
0.0
  0
LINE
  5
146
  8
BRACKET1
 62
     7
 10
-87.999999999999943
 20
51.799999999999933
 30
0.0
 11
-87.999999999999943
 21
63.799999999999933
 31
0.0
  0
LINE
  5
147
  8
BRACKET1
 62
     7
 10
-87.999999999999943
 20
63.799999999999933
 30
0.0
 11
-85.999999999999957
 21
64.79999999999994
 31
0.0
  0
LINE
  5
148
  8
BRACKET1
 62
     7
 10
-89.999999999999957
 20
64.79999999999994
 30
0.0
 11
-87.999999999999943
 21
63.799999999999933
 31
0.0
  0
LINE
  5
149
  8
BRACKET1
 62
     7
 10
-109.9999999999999
 20
64.79999999999994
 30
0.0
 11
-111.9999999999999
 21
63.799999999999933
 31
0.0
  0
LINE
  5
14A
  8
BRACKET1
 62
     7
 10
-88.999999999999957
 20
43.199999999999918
 30
0.0
 11
-88.999999999999957
 21
46.199999999999932
 31
0.0
  0
LINE
  5
14B
  8
BRACKET1
 62
     7
 10
-110.9999999999999
 20
46.199999999999932
 30
0.0
 11
-110.9999999999999
 21
43.199999999999918
 31
0.0
  0
LINE
  5
14C
  8
BRACKET1
 62
     7
 10
-110.9999999999999
 20
50.799999999999933
 30
0.0
 11
-110.9999999999999
 21
46.199999999999932
 31
0.0
  0
LINE
  5
14D
  8
BRACKET1
 62
     7
 10
-88.999999999999957
 20
46.199999999999932
 30
0.0
 11
-88.999999999999957
 21
50.799999999999933
 31
0.0
  0
LINE
  5
14E
  8
BRACKET1
 62
     7
 10
-111.9999999999999
 20
47.199999999999918
 30
0.0
 11
-87.999999999999943
 21
47.199999999999918
 31
0.0
  0
LINE
  5
14F
  8
BRACKET1
 62
     7
 10
-88.999999999999957
 20
46.199999999999932
 30
0.0
 11
-110.9999999999999
 21
46.199999999999932
 31
0.0
  0
LINE
  5
150
  8
BRACKET1
 62
     7
 10
-82.999999999999929
 20
43.199999999999918
 30
0.0
 11
-82.999999999999929
 21
-13.80000000000007
 31
0.0
  0
LINE
  5
151
  8
BRACKET1
 62
     7
 10
-116.9999999999999
 20
-13.80000000000007
 30
0.0
 11
-82.999999999999929
 21
-13.80000000000007
 31
0.0
  0
LINE
  5
152
  8
BRACKET1
 62
     7
 10
-116.9999999999999
 20
-13.80000000000007
 30
0.0
 11
-116.9999999999999
 21
43.199999999999918
 31
0.0
  0
LINE
  5
153
  8
BRACKET1
 62
     7
 10
-24.999999999999961
 20
100.0
 30
0.0
 11
-24.999999999999961
 21
96.79999999999994
 31
0.0
  0
LINE
  5
154
  8
BRACKET1
 62
     7
 10
-24.999999999999961
 20
96.79999999999994
 30
0.0
 11
-174.99999999999989
 21
96.79999999999994
 31
0.0
  0
LINE
  5
155
  8
BRACKET1
 62
     7
 10
-174.99999999999989
 20
96.79999999999994
 30
0.0
 11
-174.99999999999989
 21
100.0
 31
0.0
  0
LINE
  5
156
  8
BRACKET1
 62
     7
 10
-174.99999999999989
 20
100.0
 30
0.0
 11
-24.999999999999961
 21
100.0
 31
0.0
  0
LINE
  5
157
  8
BRACKET1
 62
     7
 10
-59.999999999999957
 20
96.79999999999994
 30
0.0
 11
-59.999999999999957
 21
68.79999999999994
 31
0.0
  0
LINE
  5
158
  8
BRACKET1
 62
     7
 10
-59.999999999999957
 20
68.79999999999994
 30
0.0
 11
-139.9999999999998
 21
68.79999999999994
 31
0.0
  0
LINE
  5
159
  8
BRACKET1
 62
     7
 10
-139.9999999999998
 20
68.79999999999994
 30
0.0
 11
-139.9999999999998
 21
96.79999999999994
 31
0.0
  0
LINE
  5
15A
  8
BRACKET1
 62
     7
 10
-139.9999999999998
 20
93.600000000000023
 30
0.0
 11
-59.999999999999957
 21
93.600000000000023
 31
0.0
  0
ARC
  5
15B
  8
BRACKET1
 62
     7
 10
-123.4999999999999
 20
92.600000000000037
 30
0.0
 40
1.0
 50
270.0
 51
0.0
  0
LINE
  5
15C
  8
BRACKET1
 62
     7
 10
-122.4999999999999
 20
92.600000000000037
 30
0.0
 11
-122.4999999999999
 21
93.600000000000023
 31
0.0
  0
LINE
  5
15D
  8
BRACKET1
 62
     7
 10
-133.4999999999998
 20
93.600000000000023
 30
0.0
 11
-133.4999999999998
 21
92.600000000000037
 31
0.0
  0
ARC
  5
15E
  8
BRACKET1
 62
     7
 10
-132.4999999999998
 20
92.600000000000037
 30
0.0
 40
1.0
 50
180.0
 51
270.0
  0
LINE
  5
15F
  8
BRACKET1
 62
     7
 10
-132.4999999999998
 20
91.600000000000009
 30
0.0
 11
-123.4999999999999
 21
91.600000000000009
 31
0.0
  0
ARC
  5
160
  8
BRACKET1
 62
     7
 10
-67.499999999999957
 20
92.600000000000037
 30
0.0
 40
1.0
 50
270.0
 51
0.0
  0
LINE
  5
161
  8
BRACKET1
 62
     7
 10
-66.499999999999929
 20
92.600000000000037
 30
0.0
 11
-66.499999999999929
 21
93.600000000000023
 31
0.0
  0
LINE
  5
162
  8
BRACKET1
 62
     7
 10
-77.499999999999957
 20
93.600000000000023
 30
0.0
 11
-77.499999999999957
 21
92.600000000000037
 31
0.0
  0
ARC
  5
163
  8
BRACKET1
 62
     7
 10
-76.499999999999929
 20
92.600000000000037
 30
0.0
 40
1.0
 50
180.0
 51
270.0
  0
LINE
  5
164
  8
BRACKET1
 62
     7
 10
-76.499999999999929
 20
91.600000000000009
 30
0.0
 11
-67.499999999999957
 21
91.600000000000009
 31
0.0
  0
CIRCLE
  5
165
  8
BRACKET1
 62
     7
 10
-127.9999999999999
 20
81.299999999999926
 30
0.0
 40
4.0
  0
CIRCLE
  5
166
  8
BRACKET1
 62
     7
 10
-127.9999999999999
 20
81.299999999999926
 30
0.0
 40
3.5
  0
CIRCLE
  5
167
  8
BRACKET1
 62
     7
 10
-127.9999999999999
 20
81.299999999999926
 30
0.0
 40
6.5
  0
LINE
  5
168
  8
BRACKET1
 62
     7
 10
-135.4999999999998
 20
81.299999999999926
 30
0.0
 11
-131.7999999999997
 21
87.79999999999994
 31
0.0
  0
LINE
  5
169
  8
BRACKET1
 62
     7
 10
-131.7999999999997
 20
87.79999999999994
 30
0.0
 11
-124.1999999999998
 21
87.79999999999994
 31
0.0
  0
LINE
  5
16A
  8
BRACKET1
 62
     7
 10
-131.7999999999997
 20
74.79999999999994
 30
0.0
 11
-135.4999999999998
 21
81.299999999999926
 31
0.0
  0
LINE
  5
16B
  8
BRACKET1
 62
     7
 10
-124.1999999999998
 20
74.79999999999994
 30
0.0
 11
-131.7999999999997
 21
74.79999999999994
 31
0.0
  0
LINE
  5
16C
  8
BRACKET1
 62
     7
 10
-124.1999999999998
 20
87.79999999999994
 30
0.0
 11
-120.4999999999999
 21
81.299999999999926
 31
0.0
  0
LINE
  5
16D
  8
BRACKET1
 62
     7
 10
-120.4999999999999
 20
81.299999999999926
 30
0.0
 11
-124.1999999999998
 21
74.79999999999994
 31
0.0
  0
CIRCLE
  5
16E
  8
BRACKET1
 62
     7
 10
-127.9999999999999
 20
81.299999999999926
 30
0.0
 40
9.0
  0
CIRCLE
  5
16F
  8
BRACKET1
 62
     7
 10
-99.999999999999957
 20
0.1999999999999318
 30
0.0
 40
4.0
  0
CIRCLE
  5
170
  8
BRACKET1
 62
     7
 10
-99.999999999999957
 20
0.1999999999999318
 30
0.0
 40
3.5
  0
CIRCLE
  5
171
  8
BRACKET1
 62
     7
 10
-99.999999999999957
 20
0.1999999999999318
 30
0.0
 40
6.5
  0
CIRCLE
  5
172
  8
BRACKET1
 62
     7
 10
-99.999999999999957
 20
0.1999999999999318
 30
0.0
 40
9.0
  0
LINE
  5
173
  8
BRACKET1
 62
     7
 10
-92.499999999999957
 20
0.1999999999999318
 30
0.0
 11
-96.199999999999775
 21
6.69999999999993
 31
0.0
  0
LINE
  5
174
  8
BRACKET1
 62
     7
 10
-96.199999999999775
 20
6.69999999999993
 30
0.0
 11
-103.7999999999997
 21
6.69999999999993
 31
0.0
  0
LINE
  5
175
  8
BRACKET1
 62
     7
 10
-96.199999999999775
 20
-6.3000000000000682
 30
0.0
 11
-92.499999999999957
 21
0.1999999999999318
 31
0.0
  0
LINE
  5
176
  8
BRACKET1
 62
     7
 10
-103.7999999999997
 20
-6.3000000000000682
 30
0.0
 11
-96.199999999999775
 21
-6.3000000000000682
 31
0.0
  0
LINE
  5
177
  8
BRACKET1
 62
     7
 10
-107.4999999999999
 20
0.1999999999999318
 30
0.0
 11
-103.7999999999997
 21
-6.3000000000000682
 31
0.0
  0
LINE
  5
178
  8
BRACKET1
 62
     7
 10
-103.7999999999997
 20
6.69999999999993
 30
0.0
 11
-107.4999999999999
 21
0.1999999999999318
 31
0.0
  0
CIRCLE
  5
179
  8
BRACKET1
 62
     7
 10
-99.999999999999957
 20
29.199999999999928
 30
0.0
 40
4.0
  0
CIRCLE
  5
17A
  8
BRACKET1
 62
     7
 10
-99.999999999999957
 20
29.199999999999928
 30
0.0
 40
3.5
  0
CIRCLE
  5
17B
  8
BRACKET1
 62
     7
 10
-99.999999999999957
 20
29.199999999999928
 30
0.0
 40
6.5
  0
CIRCLE
  5
17C
  8
BRACKET1
 62
     7
 10
-99.999999999999957
 20
29.199999999999928
 30
0.0
 40
9.0
  0
LINE
  5
17D
  8
BRACKET1
 62
     7
 10
-92.499999999999957
 20
29.199999999999928
 30
0.0
 11
-96.199999999999775
 21
35.699999999999932
 31
0.0
  0
LINE
  5
17E
  8
BRACKET1
 62
     7
 10
-96.199999999999775
 20
35.699999999999932
 30
0.0
 11
-103.7999999999997
 21
35.699999999999932
 31
0.0
  0
LINE
  5
17F
  8
BRACKET1
 62
     7
 10
-96.199999999999775
 20
22.699999999999921
 30
0.0
 11
-92.499999999999957
 21
29.199999999999928
 31
0.0
  0
LINE
  5
180
  8
BRACKET1
 62
     7
 10
-103.7999999999997
 20
22.699999999999921
 30
0.0
 11
-96.199999999999775
 21
22.699999999999921
 31
0.0
  0
LINE
  5
181
  8
BRACKET1
 62
     7
 10
-103.7999999999997
 20
35.699999999999932
 30
0.0
 11
-107.4999999999999
 21
29.199999999999928
 31
0.0
  0
LINE
  5
182
  8
BRACKET1
 62
     7
 10
-107.4999999999999
 20
29.199999999999928
 30
0.0
 11
-103.7999999999997
 21
22.699999999999921
 31
0.0
  0
LINE
  5
183
  8
BRACKET1
 62
     7
 10
325.0
 20
71.999999999999986
 30
0.0
 11
275.0
 21
71.999999999999986
 31
0.0
  0
LINE
  5
184
  8
BRACKET1
 62
     7
 10
250.0
 20
96.79999999999994
 30
0.0
 11
250.0
 21
93.600000000000023
 31
0.0
  0
LINE
  5
185
  8
BRACKET1
 62
     7
 10
250.0
 20
93.600000000000023
 30
0.0
 11
271.79999999999973
 21
93.600000000000023
 31
0.0
  0
LINE
  5
186
  8
BRACKET1
 62
     7
 10
328.19999999999982
 20
93.600000000000023
 30
0.0
 11
350.0
 21
93.600000000000023
 31
0.0
  0
LINE
  5
187
  8
BRACKET1
 62
     7
 10
350.0
 20
93.600000000000023
 30
0.0
 11
350.0
 21
96.79999999999994
 31
0.0
  0
LINE
  5
188
  8
BRACKET1
 62
     7
 10
325.0
 20
71.999999999999986
 30
0.0
 11
325.0
 21
93.799999999999926
 31
0.0
  0
ARC
  5
189
  8
BRACKET1
 62
     7
 10
328.0
 20
93.799999999999926
 30
0.0
 40
3.0
 50
90.0
 51
180.0
  0
LINE
  5
18A
  8
BRACKET1
 62
     7
 10
328.0
 20
96.79999999999994
 30
0.0
 11
350.0
 21
96.79999999999994
 31
0.0
  0
LINE
  5
18B
  8
BRACKET1
 62
     7
 10
328.19999999999982
 20
93.600000000000023
 30
0.0
 11
328.19999999999982
 21
71.79999999999994
 31
0.0
  0
ARC
  5
18C
  8
BRACKET1
 62
     7
 10
325.19999999999982
 20
71.79999999999994
 30
0.0
 40
3.0
 50
270.0
 51
0.0
  0
LINE
  5
18D
  8
BRACKET1
 62
     7
 10
325.19999999999982
 20
68.79999999999994
 30
0.0
 11
274.79999999999973
 21
68.79999999999994
 31
0.0
  0
ARC
  5
18E
  8
BRACKET1
 62
     7
 10
274.79999999999973
 20
71.79999999999994
 30
0.0
 40
3.0
 50
180.0
 51
270.0
  0
LINE
  5
18F
  8
BRACKET1
 62
     7
 10
271.79999999999973
 20
71.79999999999994
 30
0.0
 11
271.79999999999973
 21
93.600000000000023
 31
0.0
  0
LINE
  5
190
  8
BRACKET1
 62
     7
 10
250.0
 20
96.79999999999994
 30
0.0
 11
272.0
 21
96.79999999999994
 31
0.0
  0
ARC
  5
191
  8
BRACKET1
 62
     7
 10
272.0
 20
93.799999999999926
 30
0.0
 40
3.0
 50
0.0
 51
90.0
  0
LINE
  5
192
  8
BRACKET1
 62
     7
 10
275.0
 20
93.799999999999926
 30
0.0
 11
275.0
 21
71.999999999999986
 31
0.0
  0
LINE
  5
193
  8
BRACKET1
 62
     7
 10
225.0
 20
100.0
 30
0.0
 11
225.0
 21
96.79999999999994
 31
0.0
  0
LINE
  5
194
  8
BRACKET1
 62
     7
 10
225.0
 20
96.79999999999994
 30
0.0
 11
375.0
 21
96.79999999999994
 31
0.0
  0
LINE
  5
195
  8
BRACKET1
 62
     7
 10
375.0
 20
96.79999999999994
 30
0.0
 11
375.0
 21
100.0
 31
0.0
  0
LINE
  5
196
  8
BRACKET1
 62
     7
 10
375.0
 20
100.0
 30
0.0
 11
225.0
 21
100.0
 31
0.0
  0
ARC
  5
197
  8
BRACKET1
 62
     7
 10
255.5
 20
92.600000000000037
 30
0.0
 40
1.0
 50
180.0
 51
270.0
  0
LINE
  5
198
  8
BRACKET1
 62
     7
 10
254.5
 20
92.600000000000037
 30
0.0
 11
254.5
 21
93.600000000000023
 31
0.0
  0
LINE
  5
199
  8
BRACKET1
 62
     7
 10
265.5
 20
93.600000000000023
 30
0.0
 11
265.5
 21
92.600000000000037
 31
0.0
  0
ARC
  5
19A
  8
BRACKET1
 62
     7
 10
264.5
 20
92.600000000000037
 30
0.0
 40
1.0
 50
270.0
 51
0.0
  0
LINE
  5
19B
  8
BRACKET1
 62
     7
 10
264.5
 20
91.600000000000009
 30
0.0
 11
255.5
 21
91.600000000000009
 31
0.0
  0
ARC
  5
19C
  8
BRACKET1
 62
     7
 10
335.5
 20
92.600000000000037
 30
0.0
 40
1.0
 50
180.0
 51
270.0
  0
LINE
  5
19D
  8
BRACKET1
 62
     7
 10
334.5
 20
92.600000000000037
 30
0.0
 11
334.5
 21
93.600000000000023
 31
0.0
  0
LINE
  5
19E
  8
BRACKET1
 62
     7
 10
345.5
 20
93.600000000000023
 30
0.0
 11
345.5
 21
92.600000000000037
 31
0.0
  0
ARC
  5
19F
  8
BRACKET1
 62
     7
 10
344.5
 20
92.600000000000037
 30
0.0
 40
1.0
 50
270.0
 51
0.0
  0
LINE
  5
1A0
  8
BRACKET1
 62
     7
 10
344.5
 20
91.600000000000009
 30
0.0
 11
335.5
 21
91.600000000000009
 31
0.0
  0
LINE
  5
1A1
  8
BRACKET1
 62
     7
 10
328.19999999999982
 20
90.29999999999994
 30
0.0
 11
329.19999999999982
 21
90.29999999999994
 31
0.0
  0
LINE
  5
1A2
  8
BRACKET1
 62
     7
 10
329.19999999999982
 20
90.29999999999994
 30
0.0
 11
329.19999999999982
 21
72.29999999999994
 31
0.0
  0
LINE
  5
1A3
  8
BRACKET1
 62
     7
 10
329.19999999999982
 20
72.29999999999994
 30
0.0
 11
328.19999999999982
 21
72.29999999999994
 31
0.0
  0
LINE
  5
1A4
  8
BRACKET1
 62
     7
 10
329.19999999999982
 20
88.799999999999926
 30
0.0
 11
334.19999999999982
 21
88.799999999999926
 31
0.0
  0
LINE
  5
1A5
  8
BRACKET1
 62
     7
 10
334.19999999999982
 20
88.799999999999926
 30
0.0
 11
334.69999999999982
 21
88.29999999999994
 31
0.0
  0
LINE
  5
1A6
  8
BRACKET1
 62
     7
 10
334.69999999999982
 20
88.29999999999994
 30
0.0
 11
334.69999999999982
 21
74.29999999999994
 31
0.0
  0
LINE
  5
1A7
  8
BRACKET1
 62
     7
 10
334.69999999999982
 20
74.29999999999994
 30
0.0
 11
334.19999999999982
 21
73.79999999999994
 31
0.0
  0
LINE
  5
1A8
  8
BRACKET1
 62
     7
 10
334.19999999999982
 20
73.79999999999994
 30
0.0
 11
329.19999999999982
 21
73.79999999999994
 31
0.0
  0
LINE
  5
1A9
  8
BRACKET1
 62
     7
 10
271.79999999999973
 20
90.29999999999994
 30
0.0
 11
270.79999999999973
 21
90.29999999999994
 31
0.0
  0
LINE
  5
1AA
  8
BRACKET1
 62
     7
 10
270.79999999999973
 20
90.29999999999994
 30
0.0
 11
270.79999999999973
 21
72.29999999999994
 31
0.0
  0
LINE
  5
1AB
  8
BRACKET1
 62
     7
 10
270.79999999999973
 20
72.29999999999994
 30
0.0
 11
271.79999999999973
 21
72.29999999999994
 31
0.0
  0
LINE
  5
1AC
  8
BRACKET1
 62
     7
 10
270.79999999999973
 20
88.799999999999926
 30
0.0
 11
265.79999999999973
 21
88.799999999999926
 31
0.0
  0
LINE
  5
1AD
  8
BRACKET1
 62
     7
 10
265.79999999999973
 20
88.799999999999926
 30
0.0
 11
265.29999999999973
 21
88.29999999999994
 31
0.0
  0
LINE
  5
1AE
  8
BRACKET1
 62
     7
 10
265.29999999999973
 20
74.29999999999994
 30
0.0
 11
265.79999999999973
 21
73.79999999999994
 31
0.0
  0
LINE
  5
1AF
  8
BRACKET1
 62
     7
 10
265.79999999999973
 20
73.79999999999994
 30
0.0
 11
270.79999999999973
 21
73.79999999999994
 31
0.0
  0
LINE
  5
1B0
  8
BRACKET1
 62
     7
 10
265.29999999999973
 20
88.29999999999994
 30
0.0
 11
263.29999999999973
 21
87.79999999999994
 31
0.0
  0
LINE
  5
1B1
  8
BRACKET1
 62
     7
 10
263.29999999999973
 20
87.79999999999994
 30
0.0
 11
263.29999999999973
 21
74.79999999999994
 31
0.0
  0
LINE
  5
1B2
  8
BRACKET1
 62
     7
 10
263.29999999999973
 20
74.79999999999994
 30
0.0
 11
265.29999999999973
 21
74.29999999999994
 31
0.0
  0
LINE
  5
1B3
  8
BRACKET1
 62
     7
 10
263.19999999999987
 20
85.29999999999994
 30
0.0
 11
259.69999999999987
 21
85.29999999999994
 31
0.0
  0
LINE
  5
1B4
  8
BRACKET1
 62
     7
 10
259.69999999999987
 20
85.29999999999994
 30
0.0
 11
259.19999999999987
 21
84.799999999999955
 31
0.0
  0
LINE
  5
1B5
  8
BRACKET1
 62
     7
 10
259.19999999999987
 20
84.799999999999955
 30
0.0
 11
259.19999999999987
 21
77.79999999999994
 31
0.0
  0
LINE
  5
1B6
  8
BRACKET1
 62
     7
 10
259.19999999999987
 20
77.79999999999994
 30
0.0
 11
259.69999999999987
 21
77.29999999999994
 31
0.0
  0
LINE
  5
1B7
  8
BRACKET1
 62
     7
 10
259.69999999999987
 20
77.29999999999994
 30
0.0
 11
263.19999999999987
 21
77.29999999999994
 31
0.0
  0
LINE
  5
1B8
  8
BRACKET1
 62
     7
 10
318.79999999999973
 20
71.999999999999986
 30
0.0
 11
320.79999999999973
 21
72.999999999999986
 31
0.0
  0
LINE
  5
1B9
  8
BRACKET1
 62
     7
 10
281.19999999999987
 20
71.999999999999986
 30
0.0
 11
279.19999999999987
 21
72.999999999999986
 31
0.0
  0
LINE
  5
1BA
  8
BRACKET1
 62
     7
 10
324.0
 20
68.79999999999994
 30
0.0
 11
324.0
 21
64.79999999999994
 31
0.0
  0
LINE
  5
1BB
  8
BRACKET1
 62
     7
 10
324.0
 20
64.79999999999994
 30
0.0
 11
276.0
 21
64.79999999999994
 31
0.0
  0
LINE
  5
1BC
  8
BRACKET1
 62
     7
 10
276.0
 20
64.79999999999994
 30
0.0
 11
276.0
 21
68.79999999999994
 31
0.0
  0
LINE
  5
1BD
  8
BRACKET1
 62
     7
 10
318.79999999999973
 20
64.79999999999994
 30
0.0
 11
320.79999999999973
 21
63.799999999999933
 31
0.0
  0
LINE
  5
1BE
  8
BRACKET1
 62
     7
 10
320.79999999999973
 20
63.799999999999933
 30
0.0
 11
320.79999999999973
 21
51.799999999999933
 31
0.0
  0
LINE
  5
1BF
  8
BRACKET1
 62
     7
 10
320.79999999999973
 20
51.799999999999933
 30
0.0
 11
318.79999999999973
 21
50.799999999999933
 31
0.0
  0
LINE
  5
1C0
  8
BRACKET1
 62
     7
 10
318.79999999999973
 20
50.799999999999933
 30
0.0
 11
281.19999999999987
 21
50.799999999999933
 31
0.0
  0
LINE
  5
1C1
  8
BRACKET1
 62
     7
 10
281.19999999999987
 20
50.799999999999933
 30
0.0
 11
279.19999999999987
 21
51.799999999999933
 31
0.0
  0
LINE
  5
1C2
  8
BRACKET1
 62
     7
 10
279.19999999999987
 20
51.799999999999933
 30
0.0
 11
279.19999999999987
 21
63.799999999999933
 31
0.0
  0
LINE
  5
1C3
  8
BRACKET1
 62
     7
 10
279.19999999999987
 20
63.799999999999933
 30
0.0
 11
281.19999999999987
 21
64.79999999999994
 31
0.0
  0
LINE
  5
1C4
  8
BRACKET1
 62
     7
 10
317.0
 20
-12.80000000000007
 30
0.0
 11
316.0
 21
-13.80000000000007
 31
0.0
  0
LINE
  5
1C5
  8
BRACKET1
 62
     7
 10
316.0
 20
-13.80000000000007
 30
0.0
 11
284.0
 21
-13.80000000000007
 31
0.0
  0
LINE
  5
1C6
  8
BRACKET1
 62
     7
 10
284.0
 20
-13.80000000000007
 30
0.0
 11
283.0
 21
-12.80000000000007
 31
0.0
  0
LINE
  5
1C7
  8
BRACKET1
 62
     7
 10
280.0
 20
13.199999999999919
 30
0.0
 11
283.0
 21
13.199999999999919
 31
0.0
  0
LINE
  5
1C8
  8
BRACKET1
 62
     7
 10
312.0
 20
50.799999999999933
 30
0.0
 11
312.0
 21
47.199999999999918
 31
0.0
  0
LINE
  5
1C9
  8
BRACKET1
 62
     7
 10
312.0
 20
47.199999999999918
 30
0.0
 11
311.0
 21
46.199999999999932
 31
0.0
  0
LINE
  5
1CA
  8
BRACKET1
 62
     7
 10
289.0
 20
46.199999999999932
 30
0.0
 11
288.0
 21
47.199999999999918
 31
0.0
  0
LINE
  5
1CB
  8
BRACKET1
 62
     7
 10
288.0
 20
47.199999999999918
 30
0.0
 11
288.0
 21
50.799999999999933
 31
0.0
  0
LINE
  5
1CC
  8
BRACKET1
 62
     7
 10
263.5
 20
4.19999999999993
 30
0.0
 11
269.5
 21
4.19999999999993
 31
0.0
  0
LINE
  5
1CD
  8
BRACKET1
 62
     7
 10
263.5
 20
4.19999999999993
 30
0.0
 11
263.0
 21
3.69999999999993
 31
0.0
  0
LINE
  5
1CE
  8
BRACKET1
 62
     7
 10
263.0
 20
3.69999999999993
 30
0.0
 11
263.0
 21
-3.3000000000000682
 31
0.0
  0
LINE
  5
1CF
  8
BRACKET1
 62
     7
 10
263.0
 20
-3.3000000000000682
 30
0.0
 11
263.5
 21
-3.8000000000000682
 31
0.0
  0
LINE
  5
1D0
  8
BRACKET1
 62
     7
 10
263.5
 20
-3.8000000000000682
 30
0.0
 11
269.5
 21
-3.8000000000000682
 31
0.0
  0
LINE
  5
1D1
  8
BRACKET1
 62
     7
 10
259.19999999999987
 20
84.799999999999955
 30
0.0
 11
263.19999999999987
 21
84.799999999999955
 31
0.0
  0
LINE
  5
1D2
  8
BRACKET1
 62
     7
 10
259.69999999999987
 20
85.29999999999994
 30
0.0
 11
259.69999999999987
 21
77.29999999999994
 31
0.0
  0
LINE
  5
1D3
  8
BRACKET1
 62
     7
 10
259.19999999999987
 20
77.79999999999994
 30
0.0
 11
263.19999999999987
 21
77.79999999999994
 31
0.0
  0
LINE
  5
1D4
  8
BRACKET1
 62
     7
 10
269.5
 20
3.69999999999993
 30
0.0
 11
263.0
 21
3.69999999999993
 31
0.0
  0
LINE
  5
1D5
  8
BRACKET1
 62
     7
 10
263.5
 20
4.19999999999993
 30
0.0
 11
263.5
 21
-3.8000000000000682
 31
0.0
  0
LINE
  5
1D6
  8
BRACKET1
 62
     7
 10
263.0
 20
-3.3000000000000682
 30
0.0
 11
269.5
 21
-3.3000000000000682
 31
0.0
  0
LINE
  5
1D7
  8
BRACKET1
 62
     7
 10
288.0
 20
47.199999999999918
 30
0.0
 11
312.0
 21
47.199999999999918
 31
0.0
  0
LINE
  5
1D8
  8
BRACKET1
 62
     7
 10
310.0
 20
71.999999999999986
 30
0.0
 11
312.0
 21
72.999999999999986
 31
0.0
  0
LINE
  5
1D9
  8
BRACKET1
 62
     7
 10
310.0
 20
50.799999999999933
 30
0.0
 11
312.0
 21
51.799999999999933
 31
0.0
  0
LINE
  5
1DA
  8
BRACKET1
 62
     7
 10
312.0
 20
51.799999999999933
 30
0.0
 11
314.0
 21
50.799999999999933
 31
0.0
  0
LINE
  5
1DB
  8
BRACKET1
 62
     7
 10
312.0
 20
51.799999999999933
 30
0.0
 11
312.0
 21
63.799999999999933
 31
0.0
  0
LINE
  5
1DC
  8
BRACKET1
 62
     7
 10
312.0
 20
63.799999999999933
 30
0.0
 11
314.0
 21
64.79999999999994
 31
0.0
  0
LINE
  5
1DD
  8
BRACKET1
 62
     7
 10
310.0
 20
64.79999999999994
 30
0.0
 11
312.0
 21
63.799999999999933
 31
0.0
  0
LINE
  5
1DE
  8
BRACKET1
 62
     7
 10
286.0
 20
64.79999999999994
 30
0.0
 11
288.0
 21
63.799999999999933
 31
0.0
  0
LINE
  5
1DF
  8
BRACKET1
 62
     7
 10
288.0
 20
63.799999999999933
 30
0.0
 11
288.0
 21
51.799999999999933
 31
0.0
  0
LINE
  5
1E0
  8
BRACKET1
 62
     7
 10
288.0
 20
51.799999999999933
 30
0.0
 11
286.0
 21
50.799999999999933
 31
0.0
  0
LINE
  5
1E1
  8
BRACKET1
 62
     7
 10
290.0
 20
50.799999999999933
 30
0.0
 11
288.0
 21
51.799999999999933
 31
0.0
  0
LINE
  5
1E2
  8
BRACKET1
 62
     7
 10
290.0
 20
64.79999999999994
 30
0.0
 11
288.0
 21
63.799999999999933
 31
0.0
  0
LINE
  5
1E3
  8
BRACKET1
 62
     7
 10
290.0
 20
71.999999999999986
 30
0.0
 11
288.0
 21
72.999999999999986
 31
0.0
  0
LINE
  5
1E4
  8
BRACKET1
 62
     7
 10
270.79999999999973
 20
76.79999999999994
 30
0.0
 11
265.79999999999973
 21
76.79999999999994
 31
0.0
  0
LINE
  5
1E5
  8
BRACKET1
 62
     7
 10
265.79999999999973
 20
76.79999999999994
 30
0.0
 11
265.29999999999973
 21
75.79999999999994
 31
0.0
  0
LINE
  5
1E6
  8
BRACKET1
 62
     7
 10
265.29999999999973
 20
77.79999999999994
 30
0.0
 11
265.79999999999973
 21
76.79999999999994
 31
0.0
  0
LINE
  5
1E7
  8
BRACKET1
 62
     7
 10
270.79999999999973
 20
85.79999999999994
 30
0.0
 11
265.79999999999973
 21
85.79999999999994
 31
0.0
  0
LINE
  5
1E8
  8
BRACKET1
 62
     7
 10
265.29999999999973
 20
88.29999999999994
 30
0.0
 11
265.29999999999973
 21
74.29999999999994
 31
0.0
  0
LINE
  5
1E9
  8
BRACKET1
 62
     7
 10
265.79999999999973
 20
85.79999999999994
 30
0.0
 11
265.29999999999973
 21
84.799999999999955
 31
0.0
  0
LINE
  5
1EA
  8
BRACKET1
 62
     7
 10
265.29999999999973
 20
86.79999999999994
 30
0.0
 11
265.79999999999973
 21
85.79999999999994
 31
0.0
  0
LINE
  5
1EB
  8
BRACKET1
 62
     7
 10
311.0
 20
43.199999999999918
 30
0.0
 11
311.0
 21
46.199999999999932
 31
0.0
  0
LINE
  5
1EC
  8
BRACKET1
 62
     7
 10
289.0
 20
46.199999999999932
 30
0.0
 11
289.0
 21
43.199999999999918
 31
0.0
  0
LINE
  5
1ED
  8
BRACKET1
 62
     7
 10
289.0
 20
50.799999999999933
 30
0.0
 11
289.0
 21
46.199999999999932
 31
0.0
  0
LINE
  5
1EE
  8
BRACKET1
 62
     7
 10
311.0
 20
46.199999999999932
 30
0.0
 11
311.0
 21
50.799999999999933
 31
0.0
  0
LINE
  5
1EF
  8
BRACKET1
 62
     7
 10
311.0
 20
46.199999999999932
 30
0.0
 11
289.0
 21
46.199999999999932
 31
0.0
  0
ARC
  5
1F0
  8
BRACKET1
 62
     7
 10
276.39999999999958
 20
0.1999999999999318
 30
0.0
 40
14.60000000000012
 50
296.80000000000092
 51
63.199999999999072
  0
ARC
  5
1F1
  8
BRACKET1
 62
     7
 10
323.59999999999991
 20
0.1999999999999318
 30
0.0
 40
14.599999999999911
 50
116.7999999999993
 51
243.20000000000061
  0
LINE
  5
1F2
  8
BRACKET1
 62
     7
 10
317.0
 20
-12.80000000000007
 30
0.0
 11
283.0
 21
-12.80000000000007
 31
0.0
  0
LINE
  5
1F3
  8
BRACKET1
 62
     7
 10
329.19999999999982
 20
76.79999999999994
 30
0.0
 11
334.19999999999982
 21
76.79999999999994
 31
0.0
  0
LINE
  5
1F4
  8
BRACKET1
 62
     7
 10
334.19999999999982
 20
76.79999999999994
 30
0.0
 11
334.69999999999982
 21
75.79999999999994
 31
0.0
  0
LINE
  5
1F5
  8
BRACKET1
 62
     7
 10
334.69999999999982
 20
77.79999999999994
 30
0.0
 11
334.19999999999982
 21
76.79999999999994
 31
0.0
  0
LINE
  5
1F6
  8
BRACKET1
 62
     7
 10
329.19999999999982
 20
85.79999999999994
 30
0.0
 11
334.19999999999982
 21
85.79999999999994
 31
0.0
  0
LINE
  5
1F7
  8
BRACKET1
 62
     7
 10
334.19999999999982
 20
85.79999999999994
 30
0.0
 11
334.69999999999982
 21
86.79999999999994
 31
0.0
  0
LINE
  5
1F8
  8
BRACKET1
 62
     7
 10
334.69999999999982
 20
84.799999999999955
 30
0.0
 11
334.19999999999982
 21
85.79999999999994
 31
0.0
  0
LINE
  5
1F9
  8
BRACKET1
 62
     7
 10
320.0
 20
-12.80000000000007
 30
0.0
 11
317.0
 21
-12.80000000000007
 31
0.0
  0
LINE
  5
1FA
  8
BRACKET1
 62
     7
 10
317.0
 20
13.199999999999919
 30
0.0
 11
320.0
 21
13.199999999999919
 31
0.0
  0
LINE
  5
1FB
  8
BRACKET1
 62
     7
 10
320.0
 20
13.199999999999919
 30
0.0
 11
320.0
 21
-12.80000000000007
 31
0.0
  0
LINE
  5
1FC
  8
BRACKET1
 62
     7
 10
283.0
 20
-12.80000000000007
 30
0.0
 11
280.0
 21
-12.80000000000007
 31
0.0
  0
LINE
  5
1FD
  8
BRACKET1
 62
     7
 10
280.0
 20
-12.80000000000007
 30
0.0
 11
280.0
 21
13.199999999999919
 31
0.0
  0
LINE
  5
1FE
  8
BRACKET1
 62
     7
 10
279.19999999999987
 20
77.29999999999994
 30
0.0
 11
275.0
 21
77.29999999999994
 31
0.0
  0
LINE
  5
1FF
  8
BRACKET1
 62
     7
 10
325.0
 20
77.29999999999994
 30
0.0
 11
320.79999999999973
 21
77.29999999999994
 31
0.0
  0
LINE
  5
200
  8
BRACKET1
 62
     7
 10
312.0
 20
72.999999999999986
 30
0.0
 11
313.6666666659998
 21
71.999999999999986
 31
0.0
  0
LINE
  5
201
  8
BRACKET1
 62
     7
 10
286.33333333300021
 20
71.999999999999986
 30
0.0
 11
288.0
 21
72.999999999999986
 31
0.0
  0
LINE
  5
202
  8
BRACKET1
 62
     7
 10
318.79999999999973
 20
85.999999999999986
 30
0.0
 11
281.19999999999987
 21
85.999999999999986
 31
0.0
  0
LINE
  5
203
  8
BRACKET1
 62
     7
 10
288.0
 20
84.999999999999986
 30
0.0
 11
286.0
 21
85.999999999999986
 31
0.0
  0
LINE
  5
204
  8
BRACKET1
 62
     7
 10
281.19999999999987
 20
85.999999999999986
 30
0.0
 11
279.19999999999987
 21
84.999999999999986
 31
0.0
  0
LINE
  5
205
  8
BRACKET1
 62
     7
 10
310.0
 20
85.999999999999986
 30
0.0
 11
312.0
 21
84.999999999999986
 31
0.0
  0
LINE
  5
206
  8
BRACKET1
 62
     7
 10
279.19999999999987
 20
72.999999999999986
 30
0.0
 11
279.19999999999987
 21
84.999999999999986
 31
0.0
  0
LINE
  5
207
  8
BRACKET1
 62
     7
 10
320.79999999999973
 20
84.999999999999986
 30
0.0
 11
318.79999999999973
 21
85.999999999999986
 31
0.0
  0
LINE
  5
208
  8
BRACKET1
 62
     7
 10
320.79999999999973
 20
72.999999999999986
 30
0.0
 11
320.79999999999973
 21
84.999999999999986
 31
0.0
  0
LINE
  5
209
  8
BRACKET1
 62
     7
 10
312.0
 20
84.999999999999986
 30
0.0
 11
314.0
 21
85.999999999999986
 31
0.0
  0
LINE
  5
20A
  8
BRACKET1
 62
     7
 10
312.0
 20
84.999999999999986
 30
0.0
 11
312.0
 21
72.999999999999986
 31
0.0
  0
LINE
  5
20B
  8
BRACKET1
 62
     7
 10
290.0
 20
85.999999999999986
 30
0.0
 11
288.0
 21
84.999999999999986
 31
0.0
  0
LINE
  5
20C
  8
BRACKET1
 62
     7
 10
288.0
 20
84.999999999999986
 30
0.0
 11
288.0
 21
72.999999999999986
 31
0.0
  0
LINE
  5
20D
  8
BRACKET1
 62
     7
 10
320.19999999999982
 20
85.29999999999994
 30
0.0
 11
325.0
 21
85.29999999999994
 31
0.0
  0
LINE
  5
20E
  8
BRACKET1
 62
     7
 10
275.0
 20
85.29999999999994
 30
0.0
 11
279.79999999999973
 21
85.29999999999994
 31
0.0
  0
LINE
  5
20F
  8
BRACKET1
 62
     7
 10
326.19999999999982
 20
9.1999999999999336
 30
0.0
 11
326.19999999999982
 21
-8.8000000000000664
 31
0.0
  0
LINE
  5
210
  8
BRACKET1
 62
     7
 10
326.19999999999982
 20
7.6999999999999318
 30
0.0
 11
331.19999999999982
 21
7.6999999999999318
 31
0.0
  0
LINE
  5
211
  8
BRACKET1
 62
     7
 10
331.19999999999982
 20
7.6999999999999318
 30
0.0
 11
331.69999999999982
 21
7.19999999999993
 31
0.0
  0
LINE
  5
212
  8
BRACKET1
 62
     7
 10
331.69999999999982
 20
7.19999999999993
 30
0.0
 11
331.69999999999982
 21
-6.8000000000000682
 31
0.0
  0
LINE
  5
213
  8
BRACKET1
 62
     7
 10
331.69999999999982
 20
-6.8000000000000682
 30
0.0
 11
331.19999999999982
 21
-7.3000000000000673
 31
0.0
  0
LINE
  5
214
  8
BRACKET1
 62
     7
 10
331.19999999999982
 20
-7.3000000000000673
 30
0.0
 11
326.19999999999982
 21
-7.3000000000000673
 31
0.0
  0
LINE
  5
215
  8
BRACKET1
 62
     7
 10
326.19999999999982
 20
-4.3000000000000682
 30
0.0
 11
331.19999999999982
 21
-4.3000000000000682
 31
0.0
  0
LINE
  5
216
  8
BRACKET1
 62
     7
 10
331.19999999999982
 20
-4.3000000000000682
 30
0.0
 11
331.69999999999982
 21
-5.3000000000000682
 31
0.0
  0
LINE
  5
217
  8
BRACKET1
 62
     7
 10
331.69999999999982
 20
-3.3000000000000682
 30
0.0
 11
331.19999999999982
 21
-4.3000000000000682
 31
0.0
  0
LINE
  5
218
  8
BRACKET1
 62
     7
 10
326.19999999999982
 20
4.69999999999993
 30
0.0
 11
331.19999999999982
 21
4.69999999999993
 31
0.0
  0
LINE
  5
219
  8
BRACKET1
 62
     7
 10
331.19999999999982
 20
4.69999999999993
 30
0.0
 11
331.69999999999982
 21
5.69999999999993
 31
0.0
  0
LINE
  5
21A
  8
BRACKET1
 62
     7
 10
331.69999999999982
 20
3.69999999999993
 30
0.0
 11
331.19999999999982
 21
4.69999999999993
 31
0.0
  0
LINE
  5
21B
  8
BRACKET1
 62
     7
 10
325.19999999999982
 20
9.1999999999999336
 30
0.0
 11
326.19999999999982
 21
9.1999999999999336
 31
0.0
  0
LINE
  5
21C
  8
BRACKET1
 62
     7
 10
325.19999999999982
 20
9.1999999999999336
 30
0.0
 11
325.19999999999982
 21
-8.8000000000000664
 31
0.0
  0
LINE
  5
21D
  8
BRACKET1
 62
     7
 10
326.19999999999982
 20
-8.8000000000000664
 30
0.0
 11
325.19999999999982
 21
-8.8000000000000664
 31
0.0
  0
POLYLINE
  5
21E
  8
BRACKET1
 62
     7
 66
     1
 10
0.0
 20
0.0
 30
0.0
  0
VERTEX
  5
31E
  8
BRACKET1
 62
     7
 10
274.79999999999973
 20
-8.8000000000000664
 30
0.0
  0
VERTEX
  5
31F
  8
BRACKET1
 62
     7
 10
273.79999999999973
 20
-8.8000000000000664
 30
0.0
  0
VERTEX
  5
320
  8
BRACKET1
 62
     7
 10
273.79999999999973
 20
9.1999999999999336
 30
0.0
  0
VERTEX
  5
321
  8
BRACKET1
 62
     7
 10
274.79999999999973
 20
9.1999999999999336
 30
0.0
  0
SEQEND
  5
322
  8
BRACKET1
 62
     7
  0
LINE
  5
224
  8
BRACKET1
 62
     7
 10
273.79999999999973
 20
7.6999999999999318
 30
0.0
 11
268.79999999999973
 21
7.6999999999999318
 31
0.0
  0
LINE
  5
225
  8
BRACKET1
 62
     7
 10
268.79999999999973
 20
7.6999999999999318
 30
0.0
 11
268.29999999999973
 21
7.19999999999993
 31
0.0
  0
LINE
  5
226
  8
BRACKET1
 62
     7
 10
268.29999999999973
 20
-6.8000000000000682
 30
0.0
 11
268.79999999999973
 21
-7.3000000000000673
 31
0.0
  0
LINE
  5
227
  8
BRACKET1
 62
     7
 10
268.79999999999973
 20
-7.3000000000000673
 30
0.0
 11
273.79999999999973
 21
-7.3000000000000673
 31
0.0
  0
LINE
  5
228
  8
BRACKET1
 62
     7
 10
268.29999999999973
 20
7.19999999999993
 30
0.0
 11
266.29999999999973
 21
6.69999999999993
 31
0.0
  0
LINE
  5
229
  8
BRACKET1
 62
     7
 10
266.29999999999973
 20
6.69999999999993
 30
0.0
 11
266.29999999999973
 21
-6.3000000000000682
 31
0.0
  0
LINE
  5
22A
  8
BRACKET1
 62
     7
 10
266.29999999999973
 20
-6.3000000000000682
 30
0.0
 11
268.29999999999973
 21
-6.8000000000000682
 31
0.0
  0
LINE
  5
22B
  8
BRACKET1
 62
     7
 10
268.29999999999973
 20
7.19999999999993
 30
0.0
 11
268.29999999999973
 21
-6.8000000000000682
 31
0.0
  0
LINE
  5
22C
  8
BRACKET1
 62
     7
 10
273.79999999999973
 20
-4.3000000000000682
 30
0.0
 11
268.79999999999973
 21
-4.3000000000000682
 31
0.0
  0
LINE
  5
22D
  8
BRACKET1
 62
     7
 10
268.79999999999973
 20
-4.3000000000000682
 30
0.0
 11
268.29999999999973
 21
-5.3000000000000682
 31
0.0
  0
LINE
  5
22E
  8
BRACKET1
 62
     7
 10
268.29999999999973
 20
-3.3000000000000682
 30
0.0
 11
268.79999999999973
 21
-4.3000000000000682
 31
0.0
  0
LINE
  5
22F
  8
BRACKET1
 62
     7
 10
273.79999999999973
 20
4.69999999999993
 30
0.0
 11
268.79999999999973
 21
4.69999999999993
 31
0.0
  0
LINE
  5
230
  8
BRACKET1
 62
     7
 10
268.79999999999973
 20
4.69999999999993
 30
0.0
 11
268.29999999999973
 21
3.69999999999993
 31
0.0
  0
LINE
  5
231
  8
BRACKET1
 62
     7
 10
268.29999999999973
 20
5.69999999999993
 30
0.0
 11
268.79999999999973
 21
4.69999999999993
 31
0.0
  0
LINE
  5
232
  8
BRACKET1
 62
     7
 10
274.79999999999973
 20
9.1999999999999336
 30
0.0
 11
274.79999999999973
 21
-8.8000000000000664
 31
0.0
  0
LINE
  5
233
  8
BRACKET1
 62
     7
 10
317.0
 20
42.199999999999918
 30
0.0
 11
320.0
 21
42.199999999999918
 31
0.0
  0
ARC
  5
234
  8
BRACKET1
 62
     7
 10
323.59999999999991
 20
29.199999999999928
 30
0.0
 40
14.59999999999992
 50
116.7999999999993
 51
243.20000000000061
  0
LINE
  5
235
  8
BRACKET1
 62
     7
 10
320.0
 20
16.199999999999921
 30
0.0
 11
317.0
 21
16.199999999999921
 31
0.0
  0
LINE
  5
236
  8
BRACKET1
 62
     7
 10
320.0
 20
42.199999999999918
 30
0.0
 11
320.0
 21
16.199999999999921
 31
0.0
  0
LINE
  5
237
  8
BRACKET1
 62
     7
 10
326.19999999999982
 20
38.199999999999932
 30
0.0
 11
326.19999999999982
 21
20.199999999999921
 31
0.0
  0
LINE
  5
238
  8
BRACKET1
 62
     7
 10
326.19999999999982
 20
36.699999999999932
 30
0.0
 11
331.19999999999982
 21
36.699999999999932
 31
0.0
  0
LINE
  5
239
  8
BRACKET1
 62
     7
 10
331.19999999999982
 20
36.699999999999932
 30
0.0
 11
331.69999999999982
 21
36.199999999999932
 31
0.0
  0
LINE
  5
23A
  8
BRACKET1
 62
     7
 10
331.69999999999982
 20
36.199999999999932
 30
0.0
 11
331.69999999999982
 21
22.199999999999928
 31
0.0
  0
LINE
  5
23B
  8
BRACKET1
 62
     7
 10
331.69999999999982
 20
22.199999999999928
 30
0.0
 11
331.19999999999982
 21
21.699999999999921
 31
0.0
  0
LINE
  5
23C
  8
BRACKET1
 62
     7
 10
331.19999999999982
 20
21.699999999999921
 30
0.0
 11
326.19999999999982
 21
21.699999999999921
 31
0.0
  0
LINE
  5
23D
  8
BRACKET1
 62
     7
 10
326.19999999999982
 20
24.699999999999928
 30
0.0
 11
331.19999999999982
 21
24.699999999999928
 31
0.0
  0
LINE
  5
23E
  8
BRACKET1
 62
     7
 10
331.19999999999982
 20
24.699999999999928
 30
0.0
 11
331.69999999999982
 21
23.699999999999928
 31
0.0
  0
LINE
  5
23F
  8
BRACKET1
 62
     7
 10
331.69999999999982
 20
25.699999999999928
 30
0.0
 11
331.19999999999982
 21
24.699999999999928
 31
0.0
  0
LINE
  5
240
  8
BRACKET1
 62
     7
 10
326.19999999999982
 20
33.699999999999932
 30
0.0
 11
331.19999999999982
 21
33.699999999999932
 31
0.0
  0
LINE
  5
241
  8
BRACKET1
 62
     7
 10
331.19999999999982
 20
33.699999999999932
 30
0.0
 11
331.69999999999982
 21
34.699999999999932
 31
0.0
  0
LINE
  5
242
  8
BRACKET1
 62
     7
 10
331.69999999999982
 20
32.699999999999918
 30
0.0
 11
331.19999999999982
 21
33.699999999999932
 31
0.0
  0
LINE
  5
243
  8
BRACKET1
 62
     7
 10
325.19999999999982
 20
38.199999999999932
 30
0.0
 11
326.19999999999982
 21
38.199999999999932
 31
0.0
  0
LINE
  5
244
  8
BRACKET1
 62
     7
 10
325.19999999999982
 20
38.199999999999932
 30
0.0
 11
325.19999999999982
 21
20.199999999999921
 31
0.0
  0
LINE
  5
245
  8
BRACKET1
 62
     7
 10
326.19999999999982
 20
20.199999999999921
 30
0.0
 11
325.19999999999982
 21
20.199999999999921
 31
0.0
  0
LINE
  5
246
  8
BRACKET1
 62
     7
 10
283.0
 20
16.199999999999921
 30
0.0
 11
280.0
 21
16.199999999999921
 31
0.0
  0
LINE
  5
247
  8
BRACKET1
 62
     7
 10
280.0
 20
42.199999999999918
 30
0.0
 11
283.0
 21
42.199999999999918
 31
0.0
  0
LINE
  5
248
  8
BRACKET1
 62
     7
 10
263.5
 20
33.199999999999932
 30
0.0
 11
269.5
 21
33.199999999999932
 31
0.0
  0
LINE
  5
249
  8
BRACKET1
 62
     7
 10
263.5
 20
33.199999999999932
 30
0.0
 11
263.0
 21
32.699999999999918
 31
0.0
  0
LINE
  5
24A
  8
BRACKET1
 62
     7
 10
263.0
 20
32.699999999999918
 30
0.0
 11
263.0
 21
25.699999999999928
 31
0.0
  0
LINE
  5
24B
  8
BRACKET1
 62
     7
 10
263.0
 20
25.699999999999928
 30
0.0
 11
263.5
 21
25.199999999999921
 31
0.0
  0
LINE
  5
24C
  8
BRACKET1
 62
     7
 10
263.5
 20
25.199999999999921
 30
0.0
 11
269.5
 21
25.199999999999921
 31
0.0
  0
LINE
  5
24D
  8
BRACKET1
 62
     7
 10
263.0
 20
32.699999999999918
 30
0.0
 11
269.5
 21
32.699999999999918
 31
0.0
  0
LINE
  5
24E
  8
BRACKET1
 62
     7
 10
263.5
 20
33.199999999999932
 30
0.0
 11
263.5
 21
25.199999999999921
 31
0.0
  0
LINE
  5
24F
  8
BRACKET1
 62
     7
 10
263.0
 20
25.699999999999928
 30
0.0
 11
269.5
 21
25.699999999999928
 31
0.0
  0
ARC
  5
250
  8
BRACKET1
 62
     7
 10
276.39999999999958
 20
29.199999999999928
 30
0.0
 40
14.60000000000012
 50
296.80000000000092
 51
63.199999999999072
  0
LINE
  5
251
  8
BRACKET1
 62
     7
 10
280.0
 20
16.199999999999921
 30
0.0
 11
280.0
 21
42.199999999999918
 31
0.0
  0
POLYLINE
  5
252
  8
BRACKET1
 62
     7
 66
     1
 10
0.0
 20
0.0
 30
0.0
  0
VERTEX
  5
323
  8
BRACKET1
 62
     7
 10
274.79999999999973
 20
20.199999999999921
 30
0.0
  0
VERTEX
  5
324
  8
BRACKET1
 62
     7
 10
273.79999999999973
 20
20.199999999999921
 30
0.0
  0
VERTEX
  5
325
  8
BRACKET1
 62
     7
 10
273.79999999999973
 20
38.199999999999932
 30
0.0
  0
VERTEX
  5
326
  8
BRACKET1
 62
     7
 10
274.79999999999973
 20
38.199999999999932
 30
0.0
  0
SEQEND
  5
327
  8
BRACKET1
 62
     7
  0
LINE
  5
258
  8
BRACKET1
 62
     7
 10
273.79999999999973
 20
36.699999999999932
 30
0.0
 11
268.79999999999973
 21
36.699999999999932
 31
0.0
  0
LINE
  5
259
  8
BRACKET1
 62
     7
 10
268.79999999999973
 20
36.699999999999932
 30
0.0
 11
268.29999999999973
 21
36.199999999999932
 31
0.0
  0
LINE
  5
25A
  8
BRACKET1
 62
     7
 10
268.29999999999973
 20
22.199999999999928
 30
0.0
 11
268.79999999999973
 21
21.699999999999921
 31
0.0
  0
LINE
  5
25B
  8
BRACKET1
 62
     7
 10
268.79999999999973
 20
21.699999999999921
 30
0.0
 11
273.79999999999973
 21
21.699999999999921
 31
0.0
  0
LINE
  5
25C
  8
BRACKET1
 62
     7
 10
268.29999999999973
 20
36.199999999999932
 30
0.0
 11
266.29999999999973
 21
35.699999999999932
 31
0.0
  0
LINE
  5
25D
  8
BRACKET1
 62
     7
 10
266.29999999999973
 20
35.699999999999932
 30
0.0
 11
266.29999999999973
 21
22.699999999999921
 31
0.0
  0
LINE
  5
25E
  8
BRACKET1
 62
     7
 10
266.29999999999973
 20
22.699999999999921
 30
0.0
 11
268.29999999999973
 21
22.199999999999928
 31
0.0
  0
LINE
  5
25F
  8
BRACKET1
 62
     7
 10
268.29999999999973
 20
36.199999999999932
 30
0.0
 11
268.29999999999973
 21
22.199999999999928
 31
0.0
  0
LINE
  5
260
  8
BRACKET1
 62
     7
 10
273.79999999999973
 20
24.699999999999928
 30
0.0
 11
268.79999999999973
 21
24.699999999999928
 31
0.0
  0
LINE
  5
261
  8
BRACKET1
 62
     7
 10
268.79999999999973
 20
24.699999999999928
 30
0.0
 11
268.29999999999973
 21
23.699999999999928
 31
0.0
  0
LINE
  5
262
  8
BRACKET1
 62
     7
 10
268.29999999999973
 20
25.699999999999928
 30
0.0
 11
268.79999999999973
 21
24.699999999999928
 31
0.0
  0
LINE
  5
263
  8
BRACKET1
 62
     7
 10
273.79999999999973
 20
33.699999999999932
 30
0.0
 11
268.79999999999973
 21
33.699999999999932
 31
0.0
  0
LINE
  5
264
  8
BRACKET1
 62
     7
 10
268.79999999999973
 20
33.699999999999932
 30
0.0
 11
268.29999999999973
 21
32.699999999999918
 31
0.0
  0
LINE
  5
265
  8
BRACKET1
 62
     7
 10
268.29999999999973
 20
34.699999999999932
 30
0.0
 11
268.79999999999973
 21
33.699999999999932
 31
0.0
  0
LINE
  5
266
  8
BRACKET1
 62
     7
 10
274.79999999999973
 20
38.199999999999932
 30
0.0
 11
274.79999999999973
 21
20.199999999999921
 31
0.0
  0
LINE
  5
267
  8
BRACKET1
 62
     7
 10
317.0
 20
16.168247050999909
 30
0.0
 11
317.0
 21
13.199999999999919
 31
0.0
  0
LINE
  5
268
  8
BRACKET1
 62
     7
 10
283.0
 20
16.199999999999921
 30
0.0
 11
283.0
 21
13.199999999999919
 31
0.0
  0
LINE
  5
269
  8
BRACKET1
 62
     7
 10
283.0
 20
42.199999999999918
 30
0.0
 11
284.0
 21
43.199999999999918
 31
0.0
  0
LINE
  5
26A
  8
BRACKET1
 62
     7
 10
284.0
 20
43.199999999999918
 30
0.0
 11
316.0
 21
43.199999999999918
 31
0.0
  0
LINE
  5
26B
  8
BRACKET1
 62
     7
 10
317.0
 20
42.199999999999918
 30
0.0
 11
316.0
 21
43.199999999999918
 31
0.0
  0
LINE
  5
26C
  8
BRACKET1
 62
     7
 10
317.0
 20
42.199999999999918
 30
0.0
 11
283.0
 21
42.199999999999918
 31
0.0
  0
LINE
  5
26D
  8
BRACKET1
 62
     7
 10
225.0
 20
540.00000000000011
 30
0.0
 11
225.0
 21
410.0
 31
0.0
  0
ARC
  5
26E
  8
BRACKET1
 62
     7
 10
235.0
 20
410.0
 30
0.0
 40
10.0
 50
180.0
 51
270.0
  0
LINE
  5
26F
  8
BRACKET1
 62
     7
 10
235.0
 20
400.0
 30
0.0
 11
365.0
 21
400.0
 31
0.0
  0
ARC
  5
270
  8
BRACKET1
 62
     7
 10
365.0
 20
410.0
 30
0.0
 40
10.0
 50
270.0
 51
0.0
  0
LINE
  5
271
  8
BRACKET1
 62
     7
 10
375.0
 20
410.0
 30
0.0
 11
375.0
 21
540.00000000000011
 31
0.0
  0
ARC
  5
272
  8
BRACKET1
 62
     7
 10
365.0
 20
540.00000000000011
 30
0.0
 40
10.0
 50
0.0
 51
90.0
  0
LINE
  5
273
  8
BRACKET1
 62
     7
 10
365.0
 20
550.0
 30
0.0
 11
235.0
 21
550.0
 31
0.0
  0
ARC
  5
274
  8
BRACKET1
 62
     7
 10
235.0
 20
540.00000000000011
 30
0.0
 40
10.0
 50
90.0
 51
180.0
  0
CIRCLE
  5
275
  8
BRACKET1
 62
     7
 10
360.0
 20
475.0
 30
0.0
 40
5.5
  0
CIRCLE
  5
276
  8
BRACKET1
 62
     7
 10
360.0
 20
415.0
 30
0.0
 40
5.5
  0
CIRCLE
  5
277
  8
BRACKET1
 62
     7
 10
360.0
 20
535.00000000000011
 30
0.0
 40
5.5
  0
CIRCLE
  5
278
  8
BRACKET1
 62
     7
 10
300.0
 20
535.00000000000011
 30
0.0
 40
5.5
  0
CIRCLE
  5
279
  8
BRACKET1
 62
     7
 10
240.0
 20
535.00000000000011
 30
0.0
 40
5.5
  0
CIRCLE
  5
27A
  8
BRACKET1
 62
     7
 10
240.0
 20
475.0
 30
0.0
 40
5.5
  0
CIRCLE
  5
27B
  8
BRACKET1
 62
     7
 10
240.0
 20
415.0
 30
0.0
 40
5.5
  0
CIRCLE
  5
27C
  8
BRACKET1
 62
     7
 10
300.0
 20
415.0
 30
0.0
 40
5.5
  0
ENDSEC
  0
EOF
