  0
SECTION
  2
HEADER
  9
$ACADVER
  1
AC1009
  9
$INSBASE
 10
0.0
 20
0.0
 30
0.0
  9
$EXTMIN
 10
-1350.0823911746061
 20
-2014.8832945933329
 30
-0.0015258207003583
  9
$EXTMAX
 10
1350.0824037474611
 20
1999.567671355127
 30
0.0000000349246037
  9
$LIMMIN
 10
0.0
 20
0.0
  9
$LIMMAX
 10
0.0
 20
0.0
  9
$ORTHOMODE
 70
     0
  9
$REGENMODE
 70
     1
  9
$FILLMODE
 70
     1
  9
$QTEXTMODE
 70
     0
  9
$MIRRTEXT
 70
     1
  9
$DRAGMODE
 70
     2
  9
$LTSCALE
 40
76.200000000000003
  9
$OSMODE
 70
   231
  9
$ATTMODE
 70
     1
  9
$TEXTSIZE
 40
0.0
  9
$TRACEWID
 40
1.0
  9
$TEXTSTYLE
  7
STANDARD
  9
$CLAYER
  8
DATA
  9
$CELTYPE
  6
BYLAYER
  9
$CECOLOR
 62
   256
  9
$DIMSCALE
 40
1.0
  9
$DIMASZ
 40
0.18
  9
$DIMEXO
 40
0.0625
  9
$DIMDLI
 40
0.38
  9
$DIMRND
 40
0.0
  9
$DIMDLE
 40
0.0
  9
$DIMEXE
 40
0.18
  9
$DIMTP
 40
0.0
  9
$DIMTM
 40
0.0
  9
$DIMTXT
 40
0.18
  9
$DIMCEN
 40
0.09
  9
$DIMTSZ
 40
0.0
  9
$DIMTOL
 70
     0
  9
$DIMLIM
 70
     0
  9
$DIMTIH
 70
     1
  9
$DIMTOH
 70
     1
  9
$DIMSE1
 70
     0
  9
$DIMSE2
 70
     0
  9
$DIMTAD
 70
     0
  9
$DIMZIN
 70
     0
  9
$DIMBLK
  1

  9
$DIMASO
 70
     1
  9
$DIMSHO
 70
     1
  9
$DIMPOST
  1

  9
$DIMAPOST
  1

  9
$DIMALT
 70
     0
  9
$DIMALTD
 70
     2
  9
$DIMALTF
 40
25.399999999999999
  9
$DIMLFAC
 40
1.0
  9
$DIMTOFL
 70
     0
  9
$DIMTVP
 40
0.0
  9
$DIMTIX
 70
     0
  9
$DIMSOXD
 70
     0
  9
$DIMSAH
 70
     0
  9
$DIMBLK1
  1

  9
$DIMBLK2
  1

  9
$DIMSTYLE
  2
STANDARD
  9
$DIMCLRD
 70
     0
  9
$DIMCLRE
 70
     0
  9
$DIMCLRT
 70
     0
  9
$DIMTFAC
 40
1.0
  9
$DIMGAP
 40
0.09
  9
$LUNITS
 70
     2
  9
$LUPREC
 70
     4
  9
$SKETCHINC
 40
0.1
  9
$FILLETRAD
 40
0.0
  9
$AUNITS
 70
     0
  9
$AUPREC
 70
     0
  9
$MENU
  1
acad
  9
$ELEVATION
 40
0.0
  9
$PELEVATION
 40
0.0
  9
$THICKNESS
 40
0.0
  9
$LIMCHECK
 70
     0
  9
$BLIPMODE
 70
     0
  9
$CHAMFERA
 40
0.0
  9
$CHAMFERB
 40
0.0
  9
$SKPOLY
 70
     0
  9
$TDCREATE
 40
2456693.7591666668
  9
$TDUPDATE
 40
2456693.767273067
  9
$TDINDWG
 40
0.0004797917
  9
$TDUSRTIMER
 40
0.0004703588
  9
$USRTIMER
 70
     1
  9
$ANGBASE
 50
0.0
  9
$ANGDIR
 70
     0
  9
$PDMODE
 70
     1
  9
$PDSIZE
 40
-2.0
  9
$PLINEWID
 40
0.0
  9
$COORDS
 70
     2
  9
$SPLFRAME
 70
     0
  9
$SPLINETYPE
 70
     6
  9
$SPLINESEGS
 70
     8
  9
$ATTDIA
 70
     0
  9
$ATTREQ
 70
     1
  9
$HANDLING
 70
     1
  9
$HANDSEED
  5
3EF
  9
$SURFTAB1
 70
     6
  9
$SURFTAB2
 70
     6
  9
$SURFTYPE
 70
     6
  9
$SURFU
 70
     6
  9
$SURFV
 70
     6
  9
$UCSNAME
  2

  9
$UCSORG
 10
0.0
 20
0.0
 30
0.0
  9
$UCSXDIR
 10
1.0
 20
0.0
 30
0.0
  9
$UCSYDIR
 10
0.0
 20
1.0
 30
0.0
  9
$PUCSNAME
  2

  9
$PUCSORG
 10
0.0
 20
0.0
 30
0.0
  9
$PUCSXDIR
 10
1.0
 20
0.0
 30
0.0
  9
$PUCSYDIR
 10
0.0
 20
1.0
 30
0.0
  9
$USERI1
 70
     0
  9
$USERI2
 70
     0
  9
$USERI3
 70
     0
  9
$USERI4
 70
     0
  9
$USERI5
 70
     0
  9
$USERR1
 40
0.0
  9
$USERR2
 40
0.0
  9
$USERR3
 40
0.0
  9
$USERR4
 40
0.0
  9
$USERR5
 40
0.0
  9
$WORLDVIEW
 70
     1
  9
$SHADEDGE
 70
     3
  9
$SHADEDIF
 70
    70
  9
$TILEMODE
 70
     1
  9
$MAXACTVP
 70
    64
  9
$PLIMCHECK
 70
     0
  9
$PEXTMIN
 10
1.0000000000000000E+020
 20
1.0000000000000000E+020
 30
1.0000000000000000E+020
  9
$PEXTMAX
 10
-1.0000000000000000E+020
 20
-1.0000000000000000E+020
 30
-1.0000000000000000E+020
  9
$PLIMMIN
 10
0.0
 20
0.0
  9
$PLIMMAX
 10
12.0
 20
9.0
  9
$UNITMODE
 70
     0
  9
$VISRETAIN
 70
     0
  9
$PLINEGEN
 70
     1
  9
$PSLTSCALE
 70
     0
  0
ENDSEC
  0
SECTION
  2
TABLES
  0
TABLE
  2
VPORT
 70
     1
  0
VPORT
  2
*ACTIVE
 70
     0
 10
0.0
 20
0.0
 11
1.0
 21
1.0
 12
0.0000062864273787
 22
-7.6578116191026311
 13
0.0
 23
0.0
 14
1.0
 24
1.0
 15
0.0
 25
0.0
 16
0.0
 26
0.0
 36
1.0
 17
0.0
 27
0.0
 37
0.0
 40
4046.060816074038
 41
2.1787122207621552
 42
50.0
 43
0.0
 44
0.0
 50
0.0
 51
0.0
 71
     0
 72
  2000
 73
     1
 74
     1
 75
     0
 76
     0
 77
     0
 78
     0
  0
ENDTAB
  0
TABLE
  2
LTYPE
 70
    11
  0
LTYPE
  2
CONTINUOUS
 70
     0
  3
Solid line
 72
    65
 73
     0
 40
0.0
  0
ENDTAB
  0
TABLE
  2
LAYER
 70
     5
  0
LAYER
  2
0
 70
     0
 62
     7
  6
CONTINUOUS
  0
LAYER
  2
DATA
 70
     0
 62
     7
  6
CONTINUOUS
  0
LAYER
  2
HIBINO-BASE
 70
     0
 62
     7
  6
CONTINUOUS
  0
LAYER
  2
SPEC
 70
     0
 62
     7
  6
CONTINUOUS
  0
LAYER
  2
DIMNSIONS
 70
     0
 62
     7
  6
CONTINUOUS
  0
ENDTAB
  0
TABLE
  2
STYLE
 70
     3
  0
STYLE
  2
STANDARD
 70
     0
 40
0.0
 41
1.0
 50
0.0
 71
     0
 42
0.0
  3
txt
  4
BIGFONT.SHX
  0
ENDTAB
  0
TABLE
  2
VIEW
 70
     0
  0
ENDTAB
  0
TABLE
  2
UCS
 70
     0
  0
ENDTAB
  0
TABLE
  2
APPID
 70
     4
  0
APPID
  2
ACAD
 70
     0
  0
APPID
  2
ACADANNOTATIVE
 70
     0
  0
APPID
  2
ACAD_NAV_VCDISPLAY
 70
     0
  0
APPID
  2
ACAD_MLEADERVER
 70
     0
  0
ENDTAB
  0
TABLE
  2
DIMSTYLE
 70
     2
  0
DIMSTYLE
  2
STANDARD
 70
     0
  3

  4

  5

  6

  7

 40
1.0
 41
0.18
 42
0.0625
 43
0.38
 44
0.18
 45
0.0
 46
0.0
 47
0.0
 48
0.0
140
0.18
141
0.09
142
0.0
143
25.399999999999999
144
1.0
145
0.0
146
1.0
147
0.09
 71
     0
 72
     0
 73
     1
 74
     1
 75
     0
 76
     0
 77
     0
 78
     0
170
     0
171
     2
172
     0
173
     0
174
     0
175
     0
176
     0
177
     0
178
     0
  0
ENDTAB
  0
ENDSEC
  0
SECTION
  2
BLOCKS
  0
BLOCK
  8
0
  2
$MODEL_SPACE
 70
     0
 10
0.0
 20
0.0
 30
0.0
  3
$MODEL_SPACE
  1

  0
ENDBLK
  5
2F8
  8
0
  0
BLOCK
 67
     1
  8
0
  2
$PAPER_SPACE
 70
     0
 10
0.0
 20
0.0
 30
0.0
  3
$PAPER_SPACE
  1

  0
ENDBLK
  5
2F4
 67
     1
  8
0
  0
ENDSEC
  0
SECTION
  2
ENTITIES
  0
LINE
  5
2C
  8
HIBINO-BASE
  6
CONTINUOUS
 62
     7
 10
-1350.0
 20
1999.44541
 30
0.0
 11
1350.0
 21
1999.44541
 31
0.0
  0
LINE
  5
2D
  8
HIBINO-BASE
  6
CONTINUOUS
 62
     7
 10
1350.0
 20
-1900.5545900000011
 30
0.0
 11
-1350.0
 21
-1900.5545900000011
 31
0.0
  0
LINE
  5
2E
  8
HIBINO-BASE
  6
CONTINUOUS
 62
     7
 10
-1350.0
 20
-1900.5545900000011
 30
0.0
 11
-1350.0
 21
1999.44541
 31
0.0
  0
LINE
  5
2F
  8
HIBINO-BASE
  6
CONTINUOUS
 62
     7
 10
1350.0
 20
1999.44541
 30
0.0
 11
1350.0
 21
-1900.5545900000011
 31
0.0
  0
LINE
  5
30
  8
HIBINO-BASE
  6
CONTINUOUS
 62
     7
 10
0.0000000000001066
 20
-1563.0545900000011
 30
0.0
 11
1350.0
 21
-1563.0545900000011
 31
0.0
  0
LINE
  5
31
  8
HIBINO-BASE
  6
CONTINUOUS
 62
     7
 10
0.0000000000001066
 20
-1900.5545900000011
 30
0.0
 11
0.0000000000001066
 21
-1563.0545900000011
 31
0.0
  0
TEXT
  5
32
  8
HIBINO-BASE
 62
     7
 10
13.50000000000019
 20
-1600.68499
 30
0.0
 40
24.4326171875
  1
NOTE
 41
0.9
 11
13.50000000000019
 21
-1576.2523728125
 31
0.0
 73
     3
  0
LINE
  5
33
  8
HIBINO-BASE
  6
CONTINUOUS
 62
     7
 10
525.00000000000034
 20
-1900.5545900000011
 30
0.0
 11
525.00000000000034
 21
-1563.0545900000011
 31
0.0
  0
TEXT
  5
34
  8
HIBINO-BASE
 62
     7
 10
538.49999999999989
 20
-1600.68499
 30
0.0
 40
24.4326171875
  1
TITLE
 41
0.9
 11
538.49999999999989
 21
-1576.2523728125
 31
0.0
 73
     3
  0
LINE
  5
35
  8
HIBINO-BASE
  6
CONTINUOUS
 62
     7
 10
0.0000000000001066
 20
-1750.5545900000011
 30
0.0
 11
1350.0
 21
-1750.5545900000011
 31
0.0
  0
TEXT
  5
36
  8
HIBINO-BASE
 62
     7
 10
726.0
 20
-1787.3401899999999
 30
0.0
 40
24.4326171875
  1
DRAWN
 41
0.9
 11
726.0
 21
-1762.9075728124999
 31
0.0
 73
     3
  0
TEXT
  5
37
  8
HIBINO-BASE
 62
     7
 10
351.0
 20
-1787.3401899999999
 30
0.0
 40
24.4326171875
  1
DATE
 41
0.9
 11
351.0
 21
-1762.9075728124999
 31
0.0
 73
     3
  0
TEXT
  5
38
  8
HIBINO-BASE
 62
     7
 10
201.0
 20
-1787.3401899999999
 30
0.0
 40
24.4326171875
  1
SCALE
 41
0.9
 11
201.0
 21
-1762.9075728124999
 31
0.0
 73
     3
  0
TEXT
  5
39
  8
HIBINO-BASE
 62
     7
 10
538.49999999999989
 20
-1787.3401899999999
 30
0.0
 40
24.4326171875
  1
DESIGN
 41
0.9
 11
538.49999999999989
 21
-1762.9075728124999
 31
0.0
 73
     3
  0
TEXT
  5
3A
  8
HIBINO-BASE
 62
     7
 10
1100.9999999999991
 20
-1787.3401899999999
 30
0.0
 40
24.4326171875
  1
DRAWING NO.
 41
0.9
 11
1100.9999999999991
 21
-1762.9075728124999
 31
0.0
 73
     3
  0
TEXT
  5
3B
  8
HIBINO-BASE
 62
     7
 10
913.49999999999989
 20
-1787.3401899999999
 30
0.0
 40
24.4326171875
  1
CHECK
 41
0.9
 11
913.49999999999989
 21
-1762.9075728124999
 31
0.0
 73
     3
  0
LINE
  5
3C
  8
HIBINO-BASE
  6
CONTINUOUS
 62
     7
 10
215.62500000000011
 20
-1881.8045900000011
 30
0.0
 11
271.8750000000004
 21
-1825.5545900000011
 31
0.0
  0
TEXT
  5
3D
  8
HIBINO-BASE
 62
     7
 10
206.25000000000011
 20
-1842.1887400000001
 30
0.0
 40
24.4326171875
  1
1
 41
0.9
 11
206.25000000000011
 21
-1817.7561228125001
 31
0.0
 73
     3
  0
LINE
  5
3E
  8
HIBINO-BASE
  6
CONTINUOUS
 62
     7
 10
187.50000000000011
 20
-1900.5545900000011
 30
0.0
 11
187.50000000000011
 21
-1750.5545900000011
 31
0.0
  0
LINE
  5
3F
  8
HIBINO-BASE
  6
CONTINUOUS
 62
     7
 10
337.49999999999989
 20
-1900.5545900000011
 30
0.0
 11
337.49999999999989
 21
-1750.5545900000011
 31
0.0
  0
LINE
  5
40
  8
HIBINO-BASE
  6
CONTINUOUS
 62
     7
 10
712.49999999999955
 20
-1750.5545900000011
 30
0.0
 11
712.49999999999955
 21
-1900.5545900000011
 31
0.0
  0
LINE
  5
41
  8
HIBINO-BASE
  6
CONTINUOUS
 62
     7
 10
1087.5
 20
-1750.5545900000011
 30
0.0
 11
1087.5
 21
-1900.5545900000011
 31
0.0
  0
LINE
  5
42
  8
HIBINO-BASE
  6
CONTINUOUS
 62
     7
 10
899.99999999999955
 20
-1900.5545900000011
 30
0.0
 11
899.99999999999955
 21
-1750.5545900000011
 31
0.0
  0
TEXT
  5
43
  8
HIBINO-BASE
 62
     7
 10
350.34810000000022
 20
-1857.59989
 30
0.0
 40
24.4326171875
  1
'14.01.
 41
0.9
 11
350.34810000000022
 21
-1833.1672728125
 31
0.0
 73
     3
  0
TEXT
  5
44
  8
HIBINO-BASE
 62
     7
 10
262.5
 20
-1870.3137400000001
 30
0.0
 40
24.4326171875
  1
15
 41
0.9
 11
262.5
 21
-1845.8811228125001
 31
0.0
 73
     3
  0
TEXT
  5
45
  8
HIBINO-BASE
 62
     7
 10
735.08715016551935
 20
-1857.59989
 30
0.0
 40
24.4326171875
  1
N.Sasaki
 41
0.9
 11
735.08715016551935
 21
-1833.1672728125
 31
0.0
 73
     3
  0
TEXT
  5
46
  8
HIBINO-BASE
 62
     7
 10
58.250000000000412
 20
-1870.9145900000001
 30
0.0
 40
48.865234374999993
  1
A4
 41
0.9
 11
58.250000000000412
 21
-1822.0493556250001
 31
0.0
 73
     3
  0
TEXT
  5
47
  8
HIBINO-BASE
 62
     7
 10
14.37500000000003
 20
-1789.846415
 30
0.0
 40
24.4326171875
  1
PAPER SIZE
 41
0.9
 11
14.37500000000003
 21
-1765.4137978125
 31
0.0
 73
     3
  0
TEXT
  5
48
  8
HIBINO-BASE
 62
     7
 10
-1242.24
 20
-1996.684757
 30
0.0
 40
54.000662695312492
  1
Hibino Corporation
 41
0.9
 11
-1242.24
 21
-1942.684094304688
 31
0.0
 73
     3
  0
TEXT
  5
49
  8
HIBINO-BASE
 62
     7
 10
751.02584999999999
 20
-1996.684757
 30
0.0
 40
54.000662695312492
  1
ヒビノ株式会社
 41
0.9
 11
751.02584999999999
 21
-1942.684094304688
 31
0.0
 73
     3
  0
LINE
  5
4A
  8
SPEC
  6
CONTINUOUS
 62
     7
 10
-1237.5
 20
1849.44541
 30
0.0
 11
975.00000000000011
 21
1849.44541
 31
0.0
  0
LINE
  5
4B
  8
SPEC
  6
CONTINUOUS
 62
     7
 10
-1237.5
 20
1793.1954099999989
 30
0.0
 11
975.00000000000011
 21
1793.1954099999989
 31
0.0
  0
LINE
  5
4C
  8
SPEC
  6
CONTINUOUS
 62
     7
 10
-1237.5
 20
1849.44541
 30
0.0
 11
-1237.5
 21
1061.9454099999989
 31
0.0
  0
TEXT
  5
4D
  8
SPEC
 62
     7
 10
-1218.75
 20
1870.3444599999989
 30
0.0
 40
36.64892578125
  1
仕様
 41
0.9
 11
-1218.75
 21
1906.9933857812489
 31
0.0
 73
     3
  0
LINE
  5
4E
  8
SPEC
  6
CONTINUOUS
 62
     7
 10
-750.0
 20
1849.44541
 30
0.0
 11
-750.0
 21
1061.9454099999989
 31
0.0
  0
LINE
  5
4F
  8
SPEC
  6
CONTINUOUS
 62
     7
 10
975.00000000000011
 20
1849.44541
 30
0.0
 11
975.00000000000011
 21
1061.9454099999989
 31
0.0
  0
TEXT
  5
50
  8
SPEC
 62
     7
 10
-1224.0
 20
1130.0141766666659
 30
0.0
 40
28.504720052083339
  1
寸法(W\U+00D7H\U+00D7D)
 41
0.9
 11
-1224.0
 21
1158.5188967187489
 31
0.0
 73
     3
  0
TEXT
  5
51
  8
SPEC
 62
     7
 10
-1224.0
 20
1073.7641766666659
 30
0.0
 40
28.504720052083339
  1
質量
 41
0.9
 11
-1224.0
 21
1102.2688967187489
 31
0.0
 73
     3
  0
LINE
  5
52
  8
SPEC
  6
CONTINUOUS
 62
     7
 10
-1237.5
 20
1736.9454099999989
 30
0.0
 11
975.00000000000011
 21
1736.9454099999989
 31
0.0
  0
LINE
  5
53
  8
SPEC
  6
CONTINUOUS
 62
     7
 10
-1237.5
 20
1680.6954099999989
 30
0.0
 11
975.00000000000011
 21
1680.6954099999989
 31
0.0
  0
LINE
  5
54
  8
SPEC
  6
CONTINUOUS
 62
     7
 10
-1237.5
 20
1624.4454099999989
 30
0.0
 11
975.00000000000011
 21
1624.4454099999989
 31
0.0
  0
LINE
  5
55
  8
SPEC
  6
CONTINUOUS
 62
     7
 10
-1237.5
 20
1568.1954099999989
 30
0.0
 11
975.00000000000011
 21
1568.1954099999989
 31
0.0
  0
LINE
  5
56
  8
SPEC
  6
CONTINUOUS
 62
     7
 10
-1237.5
 20
1511.9454099999989
 30
0.0
 11
975.00000000000011
 21
1511.9454099999989
 31
0.0
  0
LINE
  5
57
  8
SPEC
  6
CONTINUOUS
 62
     7
 10
-1237.5
 20
1455.6954099999989
 30
0.0
 11
975.00000000000011
 21
1455.6954099999989
 31
0.0
  0
LINE
  5
58
  8
SPEC
  6
CONTINUOUS
 62
     7
 10
-900.0
 20
1399.4454099999989
 30
0.0
 11
975.00000000000011
 21
1399.4454099999989
 31
0.0
  0
LINE
  5
59
  8
SPEC
  6
CONTINUOUS
 62
     7
 10
-1237.5
 20
1343.19541
 30
0.0
 11
975.00000000000011
 21
1343.19541
 31
0.0
  0
LINE
  5
5A
  8
SPEC
  6
CONTINUOUS
 62
     7
 10
-1237.5
 20
1286.9454099999989
 30
0.0
 11
975.00000000000011
 21
1286.9454099999989
 31
0.0
  0
LINE
  5
5B
  8
SPEC
  6
CONTINUOUS
 62
     7
 10
-1237.5
 20
1230.69541
 30
0.0
 11
975.00000000000011
 21
1230.69541
 31
0.0
  0
LINE
  5
5C
  8
SPEC
  6
CONTINUOUS
 62
     7
 10
-1237.5
 20
1174.4454099999989
 30
0.0
 11
975.00000000000011
 21
1174.4454099999989
 31
0.0
  0
LINE
  5
5D
  8
SPEC
  6
CONTINUOUS
 62
     7
 10
-1237.5
 20
1118.1954099999989
 30
0.0
 11
975.00000000000011
 21
1118.1954099999989
 31
0.0
  0
LINE
  5
5E
  8
SPEC
  6
CONTINUOUS
 62
     7
 10
-1237.5
 20
1061.9454099999989
 30
0.0
 11
975.00000000000011
 21
1061.9454099999989
 31
0.0
  0
TEXT
  5
5F
  8
SPEC
 62
     7
 10
-1200.0
 20
986.66499999999985
 30
0.0
 40
28.504720052083329
  1
※ IEC ピンクノイズ、クレストファクタ ー6dB、100時間
 41
0.9
 11
-1200.0
 21
1015.169720052083
 31
0.0
 73
     3
  0
TEXT
  5
60
  8
SPEC
 62
     7
 10
-1224.0
 20
1805.0141766666659
 30
0.0
 40
28.504720052083329
  1
形式
 41
0.9
 11
-1224.0
 21
1833.5188967187489
 31
0.0
 73
     3
  0
TEXT
  5
61
  8
SPEC
 62
     7
 10
-736.5
 20
1805.0141766666659
 30
0.0
 40
28.504720052083329
  1
2-Wayステージモニタ ー
 41
0.9
 11
-736.5
 21
1833.5188967187489
 31
0.0
 73
     3
  0
TEXT
  5
62
  8
SPEC
 62
     7
 10
-1224.0
 20
1748.7641766666659
 30
0.0
 40
28.504720052083329
  1
周波数レンジ(-10dB)
 41
0.9
 11
-1224.0
 21
1777.2688967187489
 31
0.0
 73
     3
  0
TEXT
  5
63
  8
SPEC
 62
     7
 10
-736.5
 20
1748.7641766666659
 30
0.0
 40
28.504720052083329
  1
60Hz～20kHz
 41
0.9
 11
-736.5
 21
1777.2688967187489
 31
0.0
 73
     3
  0
TEXT
  5
64
  8
SPEC
 62
     7
 10
-1224.0
 20
1692.5141766666659
 30
0.0
 40
28.504720052083329
  1
指向角度(水平\U+00D7垂直)
 41
0.9
 11
-1224.0
 21
1721.0188967187489
 31
0.0
 73
     3
  0
TEXT
  5
65
  8
SPEC
 62
     7
 10
-736.5
 20
1692.5141766666659
 30
0.0
 40
28.504720052083329
  1
50\U+00B0\U+00D790\U+00B0
 41
0.9
 11
-736.5
 21
1721.0188967187489
 31
0.0
 73
     3
  0
TEXT
  5
66
  8
SPEC
 62
     7
 10
-1224.0
 20
1636.2641766666659
 30
0.0
 40
28.504720052083329
  1
最大音圧レベル(1m)
 41
0.9
 11
-1224.0
 21
1664.7688967187489
 31
0.0
 73
     3
  0
TEXT
  5
67
  8
SPEC
 62
     7
 10
-736.5
 20
1636.2641766666659
 30
0.0
 40
28.504720052083329
  1
128dB SPL(ピーク)
 41
0.9
 11
-736.5
 21
1664.7688967187489
 31
0.0
 73
     3
  0
TEXT
  5
68
  8
SPEC
 62
     7
 10
-1224.0
 20
1580.0141766666659
 30
0.0
 40
28.504720052083329
  1
感度(1W、1m)
 41
0.9
 11
-1224.0
 21
1608.5188967187489
 31
0.0
 73
     3
  0
TEXT
  5
69
  8
SPEC
 62
     7
 10
-736.5
 20
1580.0141766666659
 30
0.0
 40
28.504720052083329
  1
98dB SPL
 41
0.9
 11
-736.5
 21
1608.5188967187489
 31
0.0
 73
     3
  0
TEXT
  5
6A
  8
SPEC
 62
     7
 10
-1223.538036773745
 20
1527.1180291168071
 30
0.0
 40
28.504720052083329
  1
公称インピーダンス
 41
0.9
 11
-1223.538036773745
 21
1555.6227491688901
 31
0.0
 73
     3
  0
TEXT
  5
6B
  8
SPEC
 62
     7
 10
-736.5
 20
1523.7641766666659
 30
0.0
 40
28.504720052083329
  1
8\U+03A9
 41
0.9
 11
-736.5
 21
1552.2688967187489
 31
0.0
 73
     3
  0
TEXT
  5
6C
  8
SPEC
 62
     7
 10
-1224.0
 20
1467.5141766666659
 30
0.0
 40
28.504720052083329
  1
許容入力 ※
 41
0.9
 11
-1224.0
 21
1496.0188967187489
 31
0.0
 73
     3
  0
TEXT
  5
6D
  8
SPEC
 62
     7
 10
-736.5
 20
1467.5141766666659
 30
0.0
 40
28.504720052083329
  1
250W(連続)
 41
0.9
 11
-736.5
 21
1496.0188967187489
 31
0.0
 73
     3
  0
TEXT
  5
6E
  8
SPEC
 62
     7
 10
-1224.0
 20
1411.2641766666659
 30
0.0
 40
28.504720052083329
  1
ドライバー構成
 41
0.9
 11
-1224.0
 21
1439.7688967187489
 31
0.0
 73
     3
  0
TEXT
  5
6F
  8
SPEC
 62
     7
 10
-736.5
 20
1411.2641766666659
 30
0.0
 40
28.504720052083329
  1
300mm(M112－8)
 41
0.9
 11
-736.5
 21
1439.7688967187489
 31
0.0
 73
     3
  0
TEXT
  5
70
  8
SPEC
 62
     7
 10
-875.0
 20
1411.665
 30
0.0
 40
28.504720052083329
  1
低域
 41
0.9
 11
-875.0
 21
1440.169720052083
 31
0.0
 73
     3
  0
TEXT
  5
71
  8
SPEC
 62
     7
 10
-875.0
 20
1355.415
 30
0.0
 40
28.504720052083329
  1
高域
 41
0.9
 11
-875.0
 21
1383.919720052083
 31
0.0
 73
     3
  0
TEXT
  5
72
  8
SPEC
 62
     7
 10
-736.5
 20
1355.0141766666659
 30
0.0
 40
28.504720052083329
  1
25mm(2414H－C)
 41
0.9
 11
-736.5
 21
1383.5188967187489
 31
0.0
 73
     3
  0
LINE
  5
73
  8
SPEC
  6
CONTINUOUS
 62
     7
 10
-900.0
 20
1455.6954099999989
 30
0.0
 11
-900.0
 21
1343.19541
 31
0.0
  0
TEXT
  5
74
  8
SPEC
 62
     7
 10
-1224.0
 20
1298.7641766666659
 30
0.0
 40
28.504720052083329
  1
クロスオーバー周波数
 41
0.9
 11
-1224.0
 21
1327.2688967187501
 31
0.0
 73
     3
  0
TEXT
  5
75
  8
SPEC
 62
     7
 10
-736.5
 20
1298.7641766666659
 30
0.0
 40
28.504720052083329
  1
2.1kHz
 41
0.9
 11
-736.5
 21
1327.2688967187501
 31
0.0
 73
     3
  0
TEXT
  5
76
  8
SPEC
 62
     7
 10
-1224.0
 20
1242.5141766666659
 30
0.0
 40
28.504720052083329
  1
入力端子
 41
0.9
 11
-1224.0
 21
1271.0188967187489
 31
0.0
 73
     3
  0
TEXT
  5
77
  8
SPEC
 62
     7
 10
-736.5
 20
1242.5141766666659
 30
0.0
 40
28.504720052083329
  1
4Pスピコン\U+00D71、標準フォーンジャック(2P)\U+00D71
 41
0.9
 11
-736.5
 21
1271.0188967187489
 31
0.0
 73
     3
  0
TEXT
  5
78
  8
SPEC
 62
     7
 10
-1224.0
 20
1186.2641766666659
 30
0.0
 40
28.504720052083329
  1
エンクロージャー
 41
0.9
 11
-1224.0
 21
1214.7688967187489
 31
0.0
 73
     3
  0
TEXT
  5
79
  8
SPEC
 62
     7
 10
-736.5
 20
1186.2641766666659
 30
0.0
 40
28.504720052083329
  1
黒カーペット仕上げ
 41
0.9
 11
-736.5
 21
1214.7688967187489
 31
0.0
 73
     3
  0
TEXT
  5
7A
  8
SPEC
 62
     7
 10
-736.5
 20
1073.7642006666661
 30
0.0
 40
28.50466875
  1
19kg
 41
0.9
 11
-736.5
 21
1102.2688694166659
 31
0.0
 73
     3
  0
TEXT
  5
7B
  8
SPEC
 62
     7
 10
-736.5
 20
1130.0141766666659
 30
0.0
 40
28.504720052083339
  1
571\U+00D7400\U+00D7325mm(除突起部)
 41
0.9
 11
-736.5
 21
1158.5188967187489
 31
0.0
 73
     3
  0
TEXT
  5
7C
  8
DIMNSIONS
 62
     7
 10
-299.99999999999989
 20
-1716.51224
 30
0.0
 40
36.64892578125
  1
(単位：mm)
 41
0.9
 11
-299.99999999999989
 21
-1679.86331421875
 31
0.0
 73
     3
  0
LINE
  5
7D
  8
DIMNSIONS
  6
CONTINUOUS
 62
     7
 10
-525.0
 20
-600.0
 30
0.0
 11
-680.0
 21
-600.0
 31
0.0
  0
LINE
  5
7E
  8
DIMNSIONS
  6
CONTINUOUS
 62
     7
 10
-525.0
 20
-1000.0
 30
0.0
 11
-680.0
 21
-1000.0
 31
0.0
  0
LINE
  5
7F
  8
DIMNSIONS
  6
CONTINUOUS
 62
     7
 10
-650.0
 20
-600.0
 30
0.0
 11
-650.0
 21
-1000.0
 31
0.0
  0
LINE
  5
80
  8
DIMNSIONS
  6
CONTINUOUS
 62
     7
 10
-650.0
 20
-600.0
 30
0.0
 11
-639.94940307274635
 21
-637.50933837890636
 31
0.0
  0
LINE
  5
81
  8
DIMNSIONS
  6
CONTINUOUS
 62
     7
 10
-650.0
 20
-600.0
 30
0.0
 11
-660.05059692725365
 21
-637.50933837890636
 31
0.0
  0
LINE
  5
82
  8
DIMNSIONS
  6
CONTINUOUS
 62
     7
 10
-650.0
 20
-1000.0
 30
0.0
 11
-660.05059692725365
 21
-962.49066162109352
 31
0.0
  0
LINE
  5
83
  8
DIMNSIONS
  6
CONTINUOUS
 62
     7
 10
-650.0
 20
-1000.0
 30
0.0
 11
-639.94940307274635
 21
-962.49066162109352
 31
0.0
  0
TEXT
  5
84
  8
DIMNSIONS
 62
     7
 10
-664.9083333333333
 20
-839.68749999999989
 30
0.0
 40
40.721028645833343
  1
400
 50
90.0
 41
0.9
 11
-705.62936197916667
 21
-839.68749999999989
 31
0.0
 73
     3
  0
TEXT
  5
85
  8
DIMNSIONS
 62
     7
 10
-791.14583333333326
 20
-1219.05
 30
0.0
 40
40.721028645833343
  1
-10\U+00B0
 41
0.9
 11
-791.14583333333326
 21
-1178.328971354166
 31
0.0
 73
     3
  0
TEXT
  5
86
  8
DIMNSIONS
 62
     7
 10
-939.68749999999989
 20
-1219.05
 30
0.0
 40
40.721028645833343
  1
0\U+00B0
 41
0.9
 11
-939.68749999999989
 21
-1178.328971354166
 31
0.0
 73
     3
  0
LINE
  5
87
  8
DIMNSIONS
  6
CONTINUOUS
 62
     7
 10
-916.08107744650874
 20
-817.78756592775051
 30
0.0
 11
-800.0
 21
-1302.7939882006981
 31
0.0
  0
LINE
  5
88
  8
DIMNSIONS
  6
CONTINUOUS
 62
     7
 10
-916.08107744650874
 20
-817.78756592775051
 30
0.0
 11
-892.17752550097657
 21
-860.91071515810165
 31
0.0
  0
LINE
  5
89
  8
DIMNSIONS
  6
CONTINUOUS
 62
     7
 10
-916.08107744650874
 20
-817.78756592775051
 30
0.0
 11
-916.94156883617234
 21
-867.08508462518841
 31
0.0
  0
LINE
  5
8A
  8
DIMNSIONS
  6
CONTINUOUS
 62
     7
 10
-966.67782560566911
 20
-816.51444911361477
 30
0.0
 11
-800.0
 21
-1302.7939882006981
 31
0.0
  0
LINE
  5
8B
  8
DIMNSIONS
  6
CONTINUOUS
 62
     7
 10
-966.67782560566911
 20
-816.51444911361477
 30
0.0
 11
-939.1068037911798
 21
-857.39016991778965
 31
0.0
  0
LINE
  5
8C
  8
DIMNSIONS
  6
CONTINUOUS
 62
     7
 10
-966.67782560566911
 20
-816.51444911361477
 30
0.0
 11
-963.23848070811391
 21
-865.69937263527481
 31
0.0
  0
TEXT
  5
8D
  8
DIMNSIONS
 62
     7
 10
-963.12499999999989
 20
-1369.05
 30
0.0
 40
40.721028645833343
  1
\U+03C635ポールソケット
 41
0.9
 11
-963.12499999999989
 21
-1328.3289713541669
 31
0.0
 73
     3
  0
LINE
  5
8E
  8
DIMNSIONS
  6
CONTINUOUS
 62
     7
 10
-500.0
 20
-1025.0
 30
0.0
 11
-500.0
 21
-1280.0
 31
0.0
  0
LINE
  5
8F
  8
DIMNSIONS
  6
CONTINUOUS
 62
     7
 10
71.0
 20
-1025.0
 30
0.0
 11
71.0
 21
-1280.0
 31
0.0
  0
LINE
  5
90
  8
DIMNSIONS
  6
CONTINUOUS
 62
     7
 10
-500.0
 20
-1250.0
 30
0.0
 11
71.0
 21
-1250.0
 31
0.0
  0
LINE
  5
91
  8
DIMNSIONS
  6
CONTINUOUS
 62
     7
 10
-500.0
 20
-1250.0
 30
0.0
 11
-462.49066162109369
 21
-1239.949403072746
 31
0.0
  0
LINE
  5
92
  8
DIMNSIONS
  6
CONTINUOUS
 62
     7
 10
-500.0
 20
-1250.0
 30
0.0
 11
-462.49066162109369
 21
-1260.0505969272531
 31
0.0
  0
LINE
  5
93
  8
DIMNSIONS
  6
CONTINUOUS
 62
     7
 10
71.0
 20
-1250.0
 30
0.0
 11
33.49066162109375
 21
-1260.050596927254
 31
0.0
  0
LINE
  5
94
  8
DIMNSIONS
  6
CONTINUOUS
 62
     7
 10
71.0
 20
-1250.0
 30
0.0
 11
33.49066162109375
 21
-1239.949403072746
 31
0.0
  0
TEXT
  5
95
  8
DIMNSIONS
 62
     7
 10
-254.1875
 20
-1235.091666666666
 30
0.0
 40
40.721028645833343
  1
571
 41
0.9
 11
-254.1875
 21
-1194.370638020833
 31
0.0
 73
     3
  0
LINE
  5
96
  8
DIMNSIONS
  6
CONTINUOUS
 62
     7
 10
-500.0
 20
-1025.0
 30
0.0
 11
-500.0
 21
-1280.0
 31
0.0
  0
LINE
  5
97
  8
DIMNSIONS
  6
CONTINUOUS
 62
     7
 10
-512.0
 20
-1009.759405363018
 30
0.0
 11
-512.0
 21
-1280.0
 31
0.0
  0
LINE
  5
98
  8
DIMNSIONS
  6
CONTINUOUS
 62
     7
 10
-512.0
 20
-1250.0
 30
0.0
 11
-500.0
 21
-1250.0
 31
0.0
  0
LINE
  5
99
  8
DIMNSIONS
  6
CONTINUOUS
 62
     7
 10
-500.0
 20
-1250.0
 30
0.0
 11
-425.0
 21
-1250.0
 31
0.0
  0
LINE
  5
9A
  8
DIMNSIONS
  6
CONTINUOUS
 62
     7
 10
-500.0
 20
-1250.0
 30
0.0
 11
-462.49066162109369
 21
-1239.949403072746
 31
0.0
  0
LINE
  5
9B
  8
DIMNSIONS
  6
CONTINUOUS
 62
     7
 10
-500.0
 20
-1250.0
 30
0.0
 11
-462.49066162109369
 21
-1260.0505969272531
 31
0.0
  0
LINE
  5
9C
  8
DIMNSIONS
  6
CONTINUOUS
 62
     7
 10
-512.0
 20
-1250.0
 30
0.0
 11
-630.83333333333326
 21
-1250.0
 31
0.0
  0
LINE
  5
9D
  8
DIMNSIONS
  6
CONTINUOUS
 62
     7
 10
-512.0
 20
-1250.0
 30
0.0
 11
-549.50933837890625
 21
-1260.050596927254
 31
0.0
  0
LINE
  5
9E
  8
DIMNSIONS
  6
CONTINUOUS
 62
     7
 10
-512.0
 20
-1250.0
 30
0.0
 11
-549.50933837890625
 21
-1239.949403072746
 31
0.0
  0
TEXT
  5
9F
  8
DIMNSIONS
 62
     7
 10
-630.83333333333314
 20
-1235.091666666666
 30
0.0
 40
40.721028645833343
  1
12.0
 41
0.9
 11
-630.83333333333314
 21
-1194.370638020833
 31
0.0
 73
     3
  0
LINE
  5
A0
  8
DIMNSIONS
  6
CONTINUOUS
 62
     7
 10
300.0
 20
-1020.0
 30
0.0
 11
300.0
 21
-1280.0
 31
0.0
  0
LINE
  5
A1
  8
DIMNSIONS
  6
CONTINUOUS
 62
     7
 10
624.99999999999977
 20
-830.0
 30
0.0
 11
624.99999999999977
 21
-1280.0
 31
0.0
  0
LINE
  5
A2
  8
DIMNSIONS
  6
CONTINUOUS
 62
     7
 10
300.0
 20
-1250.0
 30
0.0
 11
624.99999999999977
 21
-1250.0
 31
0.0
  0
LINE
  5
A3
  8
DIMNSIONS
  6
CONTINUOUS
 62
     7
 10
300.0
 20
-1250.0
 30
0.0
 11
337.50933837890619
 21
-1239.949403072746
 31
0.0
  0
LINE
  5
A4
  8
DIMNSIONS
  6
CONTINUOUS
 62
     7
 10
300.0
 20
-1250.0
 30
0.0
 11
337.50933837890619
 21
-1260.0505969272531
 31
0.0
  0
LINE
  5
A5
  8
DIMNSIONS
  6
CONTINUOUS
 62
     7
 10
624.99999999999977
 20
-1250.0
 30
0.0
 11
587.49066162109341
 21
-1260.050596927254
 31
0.0
  0
LINE
  5
A6
  8
DIMNSIONS
  6
CONTINUOUS
 62
     7
 10
624.99999999999977
 20
-1250.0
 30
0.0
 11
587.49066162109341
 21
-1239.949403072746
 31
0.0
  0
TEXT
  5
A7
  8
DIMNSIONS
 62
     7
 10
422.81249999999989
 20
-1235.091666666666
 30
0.0
 40
40.721028645833343
  1
325
 41
0.9
 11
422.81249999999989
 21
-1194.370638020833
 31
0.0
 73
     3
  0
LINE
  5
A8
  8
DIMNSIONS
  6
CONTINUOUS
 62
     7
 10
638.66025403784442
 20
-820.98076211353305
 30
0.0
 11
736.46469970012095
 21
-990.38303120670594
 31
0.0
  0
LINE
  5
A9
  8
DIMNSIONS
  6
CONTINUOUS
 62
     7
 10
316.33974596215552
 20
-1020.980762113533
 30
0.0
 11
408.12177826491052
 21
-1179.951905283833
 31
0.0
  0
LINE
  5
AA
  8
DIMNSIONS
  6
CONTINUOUS
 62
     7
 10
721.46469970012095
 20
-964.40226909317312
 30
0.0
 11
393.12177826491052
 21
-1153.9711431702999
 31
0.0
  0
LINE
  5
AB
  8
DIMNSIONS
  6
CONTINUOUS
 62
     7
 10
721.46469970012095
 20
-964.40226909317312
 30
0.0
 11
694.00595824846846
 21
-991.86101054482549
 31
0.0
  0
LINE
  5
AC
  8
DIMNSIONS
  6
CONTINUOUS
 62
     7
 10
721.46469970012095
 20
-964.40226909317312
 30
0.0
 11
683.9553613212147
 21
-974.45286602042654
 31
0.0
  0
LINE
  5
AD
  8
DIMNSIONS
  6
CONTINUOUS
 62
     7
 10
393.12177826491052
 20
-1153.9711431702999
 30
0.0
 11
421.0555587333111
 21
-1126.9958049340401
 31
0.0
  0
LINE
  5
AE
  8
DIMNSIONS
  6
CONTINUOUS
 62
     7
 10
393.12177826491052
 20
-1153.9711431702999
 30
0.0
 11
430.80081089241281
 21
-1144.5767052162209
 31
0.0
  0
TEXT
  5
AF
  8
DIMNSIONS
 62
     7
 10
515.46868910315413
 20
-1066.119460736983
 30
0.0
 40
40.721028645833343
  1
379
 50
29.999999999999961
 41
0.9
 11
495.10817478023739
 21
-1030.8540154614579
 31
0.0
 73
     3
  0
LINE
  5
B0
  8
DIMNSIONS
  6
CONTINUOUS
 62
     7
 10
300.0
 20
-580.0
 30
0.0
 11
300.0
 21
-488.66357716414183
 31
0.0
  0
LINE
  5
B1
  8
DIMNSIONS
  6
CONTINUOUS
 62
     7
 10
638.6602540378442
 20
-779.01923788646684
 30
0.0
 11
738.46621361002701
 21
-606.15024500928098
 31
0.0
  0
ARC
  5
B2
  8
DIMNSIONS
  6
CONTINUOUS
 62
     7
 10
300.0
 20
-1365.5960043841951
 30
0.0
 40
846.93242722005357
 50
59.999999999999972
 51
90.0
  0
LINE
  5
B3
  8
DIMNSIONS
  6
CONTINUOUS
 62
     7
 10
300.0
 20
-518.66357716414188
 30
0.0
 11
337.50933837890631
 21
-508.61298023688818
 31
0.0
  0
LINE
  5
B4
  8
DIMNSIONS
  6
CONTINUOUS
 62
     7
 10
300.0
 20
-518.66357716414188
 30
0.0
 11
337.50933837890631
 21
-528.71417409139553
 31
0.0
  0
LINE
  5
B5
  8
DIMNSIONS
  6
CONTINUOUS
 62
     7
 10
723.4662136100269
 20
-632.13100712281403
 30
0.0
 11
686.13799518754843
 21
-621.42731273157131
 31
0.0
  0
LINE
  5
B6
  8
DIMNSIONS
  6
CONTINUOUS
 62
     7
 10
723.4662136100269
 20
-632.13100712281403
 30
0.0
 11
696.49087537376749
 21
-604.19722665441327
 31
0.0
  0
TEXT
  5
B7
  8
DIMNSIONS
 62
     7
 10
471.9472277023948
 20
-519.42591448039116
 30
0.0
 40
40.721028645833343
  1
30\U+00B0
 50
345.0
 41
0.9
 11
482.4866054521018
 21
-480.09242123832371
 31
0.0
 73
     3
  0
TEXT
  5
B8
  8
DATA
 62
     7
 10
749.99999999999955
 20
-1733.59124
 30
0.0
 40
36.64892578125
  1
JRX212
 41
0.9
 11
749.99999999999955
 21
-1696.94231421875
 31
0.0
 73
     3
  0
TEXT
  5
B9
  8
DATA
 62
     7
 10
461.78198242187489
 20
829.63948567708326
 30
0.0
 40
40.721028645833343
  1
コネクターパネル拡大図
 41
0.9
 72
     1
 11
700.0
 21
850.0
 31
0.0
 73
     2
  0
LINE
  5
BA
  8
DATA
  6
CONTINUOUS
 62
     7
 10
400.0
 20
800.0
 30
0.0
 11
1000.0
 21
800.0
 31
0.0
  0
TEXT
  5
BB
  8
DATA
 62
     7
 10
-1312.5
 20
-1782.4104233333339
 30
0.0
 40
28.504720052083339
  1
※仕様及び外観は予告なく変更されることがあります。
 41
0.9
 11
-1312.5
 21
-1753.9057032812509
 31
0.0
 73
     3
  0
TEXT
  5
BC
  8
DATA
 62
     7
 10
-1312.5
 20
-1819.45209
 30
0.0
 40
28.504720052083339
  1
　また、同一商品でも若干の個体差があることがあります。ご了承ください。
 41
0.9
 11
-1312.5
 21
-1790.947369947917
 31
0.0
 73
     3
  0
TEXT
  5
BD
  8
DATA
 62
     7
 10
749.99999999999955
 20
-1624.84124
 30
0.0
 40
36.64892578125
  1
JBL PROFESSIONAL
 41
0.9
 11
749.99999999999955
 21
-1588.19231421875
 31
0.0
 73
     3
  0
TEXT
  5
BE
  8
DATA
 62
     7
 10
712.49999999999955
 20
-1676.9955650000011
 30
0.0
 40
24.4326171875
  1
2-Wayステージモニタ ー
 41
0.9
 11
712.49999999999955
 21
-1652.5629478124999
 31
0.0
 73
     3
  0
LINE
  5
BF
  8
DATA
  6
CONTINUOUS
 62
     7
 10
150.00000000000111
 20
750.0
 30
0.0
 11
1249.9999999999991
 21
750.0
 31
0.0
  0
LINE
  5
C0
  8
DATA
  6
CONTINUOUS
 62
     7
 10
150.00000000000111
 20
50.0
 30
0.0
 11
150.00000000000111
 21
750.0
 31
0.0
  0
LINE
  5
C1
  8
DATA
  6
CONTINUOUS
 62
     7
 10
1249.9999999999991
 20
50.0
 30
0.0
 11
150.00000000000111
 21
50.0
 31
0.0
  0
LINE
  5
C2
  8
DATA
  6
CONTINUOUS
 62
     7
 10
1249.9999999999991
 20
750.0
 30
0.0
 11
1249.9999999999991
 21
50.0
 31
0.0
  0
CIRCLE
  5
C3
  8
DATA
  6
CONTINUOUS
 62
     7
 10
919.99999999999864
 20
546.99999999999807
 30
0.0
 40
117.5
  0
CIRCLE
  5
C4
  8
DATA
  6
CONTINUOUS
 62
     7
 10
1014.999999999999
 20
426.99999999999812
 30
0.0
 40
20.0
  0
CIRCLE
  5
C5
  8
DATA
  6
CONTINUOUS
 62
     7
 10
824.99999999999875
 20
666.99999999999795
 30
0.0
 40
20.0
  0
LINE
  5
C6
  8
DATA
  6
CONTINUOUS
 62
     7
 10
809.99999999999875
 20
701.99999999999807
 30
0.0
 11
1029.9999999999991
 21
701.99999999999807
 31
0.0
  0
LINE
  5
C7
  8
DATA
  6
CONTINUOUS
 62
     7
 10
789.99999999999875
 20
681.99999999999795
 30
0.0
 11
789.99999999999875
 21
411.99999999999812
 31
0.0
  0
LINE
  5
C8
  8
DATA
  6
CONTINUOUS
 62
     7
 10
809.99999999999875
 20
391.99999999999818
 30
0.0
 11
1029.9999999999991
 21
391.99999999999818
 31
0.0
  0
LINE
  5
C9
  8
DATA
  6
CONTINUOUS
 62
     7
 10
1049.9999999999991
 20
681.99999999999795
 30
0.0
 11
1049.9999999999991
 21
411.99999999999812
 31
0.0
  0
ARC
  5
CA
  8
DATA
  6
CONTINUOUS
 62
     7
 10
809.99999999999875
 20
681.99999999999795
 30
0.0
 40
20.0
 50
90.0
 51
180.0
  0
ARC
  5
CB
  8
DATA
  6
CONTINUOUS
 62
     7
 10
809.99999999999875
 20
411.99999999999812
 30
0.0
 40
20.0
 50
180.0
 51
270.0
  0
ARC
  5
CC
  8
DATA
  6
CONTINUOUS
 62
     7
 10
1029.9999999999991
 20
411.99999999999812
 30
0.0
 40
20.0
 50
270.0
 51
0.0
  0
ARC
  5
CD
  8
DATA
  6
CONTINUOUS
 62
     7
 10
1029.9999999999991
 20
681.99999999999795
 30
0.0
 40
20.0
 50
0.0
 51
90.0
  0
LINE
  5
CE
  8
DATA
  6
CONTINUOUS
 62
     7
 10
889.99999999999875
 20
646.99999999999807
 30
0.0
 11
949.99999999999875
 21
646.99999999999807
 31
0.0
  0
LINE
  5
CF
  8
DATA
  6
CONTINUOUS
 62
     7
 10
899.99999999999875
 20
446.99999999999812
 30
0.0
 11
939.99999999999875
 21
446.99999999999812
 31
0.0
  0
LINE
  5
D0
  8
DATA
  6
CONTINUOUS
 62
     7
 10
899.99999999999875
 20
446.99999999999812
 30
0.0
 11
899.99999999999875
 21
458.99999999999852
 31
0.0
  0
LINE
  5
D1
  8
DATA
  6
CONTINUOUS
 62
     7
 10
939.99999999999875
 20
446.99999999999812
 30
0.0
 11
939.99999999999875
 21
458.99999999999852
 31
0.0
  0
LINE
  5
D2
  8
DATA
  6
CONTINUOUS
 62
     7
 10
889.99999999999875
 20
646.99999999999807
 30
0.0
 11
889.99999999999875
 21
629.72849999999755
 31
0.0
  0
LINE
  5
D3
  8
DATA
  6
CONTINUOUS
 62
     7
 10
949.99999999999875
 20
646.99999999999807
 30
0.0
 11
949.99999999999875
 21
629.72849999999755
 31
0.0
  0
ARC
  5
D4
  8
DATA
  6
CONTINUOUS
 62
     7
 10
919.99999999999864
 20
546.99999999999807
 30
0.0
 40
88.000026774143166
 50
109.932264150679
 51
257.19616681969973
  0
ARC
  5
D5
  8
DATA
  6
CONTINUOUS
 62
     7
 10
919.99999999999864
 20
546.99999999999807
 30
0.0
 40
88.000035043459306
 50
282.9999995554212
 51
69.999994237961999
  0
ARC
  5
D6
  8
DATA
  6
CONTINUOUS
 62
     7
 10
919.99999999999864
 20
546.99999999999807
 30
0.0
 40
62.000021620641739
 50
60.000011535560738
 51
150.0000115355607
  0
LINE
  5
D7
  8
DATA
  6
CONTINUOUS
 62
     7
 10
866.30659999999909
 20
578.00029999999765
 30
0.0
 11
871.28619999999898
 21
575.12529999999845
 31
0.0
  0
LINE
  5
D8
  8
DATA
  6
CONTINUOUS
 62
     7
 10
950.99969999999871
 20
600.69379999999785
 30
0.0
 11
948.12469999999894
 21
595.71409999999776
 31
0.0
  0
ARC
  5
D9
  8
DATA
  6
CONTINUOUS
 62
     7
 10
919.99999999999864
 20
546.99999999999807
 30
0.0
 40
62.000021620641739
 50
240.0000115355607
 51
330.0000115355607
  0
LINE
  5
DA
  8
DATA
  6
CONTINUOUS
 62
     7
 10
888.99999999999841
 20
493.30639999999772
 30
0.0
 11
891.87499999999864
 21
498.28609999999799
 31
0.0
  0
LINE
  5
DB
  8
DATA
  6
CONTINUOUS
 62
     7
 10
973.69369999999878
 20
516.00019999999859
 30
0.0
 11
968.7139999999988
 21
518.87519999999756
 31
0.0
  0
ARC
  5
DC
  8
DATA
  6
CONTINUOUS
 62
     7
 10
919.99999999999864
 20
546.99999999999807
 30
0.0
 40
56.250038315809263
 50
149.999669682102
 51
240.0002126043025
  0
ARC
  5
DD
  8
DATA
  6
CONTINUOUS
 62
     7
 10
919.99999999999864
 20
546.99999999999807
 30
0.0
 40
56.249961520342602
 50
330.00021260430242
 51
60.000718243123067
  0
ARC
  5
DE
  8
DATA
  6
CONTINUOUS
 62
     7
 10
919.99999999999864
 20
546.99999999999807
 30
0.0
 40
35.99990080875186
 50
59.999908854704678
 51
149.99990885470589
  0
ARC
  5
DF
  8
DATA
  6
CONTINUOUS
 62
     7
 10
919.99999999999864
 20
546.99999999999807
 30
0.0
 40
35.99990080875186
 50
239.9999088547047
 51
329.99990885470601
  0
LINE
  5
E0
  8
DATA
  6
CONTINUOUS
 62
     7
 10
937.9997999999988
 20
578.17689999999845
 30
0.0
 11
934.49989999999877
 21
572.11479999999824
 31
0.0
  0
LINE
  5
E1
  8
DATA
  6
CONTINUOUS
 62
     7
 10
888.82329999999877
 20
565.0000999999985
 30
0.0
 11
894.88529999999832
 21
561.50009999999838
 31
0.0
  0
LINE
  5
E2
  8
DATA
  6
CONTINUOUS
 62
     7
 10
901.99999999999875
 20
515.82319999999856
 30
0.0
 11
905.49999999999875
 21
521.88529999999776
 31
0.0
  0
LINE
  5
E3
  8
DATA
  6
CONTINUOUS
 62
     7
 10
951.1768999999988
 20
529.00019999999813
 30
0.0
 11
945.1147999999987
 21
532.5000999999985
 31
0.0
  0
ARC
  5
E4
  8
DATA
  6
CONTINUOUS
 62
     7
 10
919.99999999999864
 20
546.99999999999807
 30
0.0
 40
29.000018208615352
 50
149.9997926340304
 51
240.0002336238293
  0
ARC
  5
E5
  8
DATA
  6
CONTINUOUS
 62
     7
 10
919.99999999999864
 20
546.99999999999807
 30
0.0
 40
29.000004811206331
 50
330.00023362383109
 51
59.999792634030591
  0
LINE
  5
E6
  8
DATA
  6
CONTINUOUS
 62
     7
 10
1014.999999999999
 20
436.99999999999818
 30
0.0
 11
1014.999999999999
 21
416.99999999999818
 31
0.0
  0
LINE
  5
E7
  8
DATA
  6
CONTINUOUS
 62
     7
 10
1004.999999999999
 20
426.99999999999812
 30
0.0
 11
1024.9999999999991
 21
426.99999999999812
 31
0.0
  0
LINE
  5
E8
  8
DATA
  6
CONTINUOUS
 62
     7
 10
824.99999999999875
 20
676.99999999999795
 30
0.0
 11
824.99999999999875
 21
656.99999999999795
 31
0.0
  0
LINE
  5
E9
  8
DATA
  6
CONTINUOUS
 62
     7
 10
814.99999999999875
 20
666.99999999999795
 30
0.0
 11
834.99999999999875
 21
666.99999999999795
 31
0.0
  0
CIRCLE
  5
EA
  8
DATA
  6
CONTINUOUS
 62
     7
 10
479.99999999999892
 20
546.99999999999807
 30
0.0
 40
84.999999999999986
  0
CIRCLE
  5
EB
  8
DATA
  6
CONTINUOUS
 62
     7
 10
479.99999999999892
 20
546.99999999999807
 30
0.0
 40
52.500000000006033
  0
CIRCLE
  5
EC
  8
DATA
  6
CONTINUOUS
 62
     7
 10
479.99999999999892
 20
546.99999999999807
 30
0.0
 40
45.000000000005862
  0
CIRCLE
  5
ED
  8
DATA
  6
CONTINUOUS
 62
     7
 10
479.99999999999892
 20
546.99999999999807
 30
0.0
 40
34.999999999997442
  0
POLYLINE
  5
EE
  8
DATA
  6
CONTINUOUS
 62
     7
 66
     1
 10
0.0
 20
0.0
 30
0.0
 70
     1
  0
VERTEX
  5
328
  8
DATA
  6
CONTINUOUS
 62
     7
 10
564.99999999999875
 20
546.99999999999807
 30
0.0
  0
VERTEX
  5
329
  8
DATA
  6
CONTINUOUS
 62
     7
 10
522.49999999999875
 20
620.61215932168125
 30
0.0
  0
VERTEX
  5
32A
  8
DATA
  6
CONTINUOUS
 62
     7
 10
437.49999999999881
 20
620.61215932168125
 30
0.0
  0
VERTEX
  5
32B
  8
DATA
  6
CONTINUOUS
 62
     7
 10
394.99999999999881
 20
546.99999999999807
 30
0.0
  0
VERTEX
  5
32C
  8
DATA
  6
CONTINUOUS
 62
     7
 10
437.49999999999881
 20
473.38784067832421
 30
0.0
  0
VERTEX
  5
32D
  8
DATA
  6
CONTINUOUS
 62
     7
 10
522.49999999999875
 20
473.38784067832421
 30
0.0
  0
SEQEND
  5
32E
  8
DATA
  6
CONTINUOUS
 62
     7
  0
TEXT
  5
F7
  8
DATA
 62
     7
 10
628.63476562499875
 20
550.04890950520644
 30
0.0
 40
20.360514322916661
  1
IN/OUT
 41
0.9
 72
     1
 11
677.49999999999875
 21
560.22916666666481
 31
0.0
 73
     2
  0
TEXT
  5
F8
  8
DATA
 62
     7
 10
543.73142089843634
 20
523.59057617187318
 30
0.0
 40
20.360514322916661
  1
(PARALLEL JACKS)
 41
0.9
 72
     1
 11
677.49999999999875
 21
533.77083333333155
 31
0.0
 73
     2
  0
TEXT
  5
F9
  8
DATA
 62
     7
 10
273.40429687500108
 20
211.45922851562321
 30
0.0
 40
61.08154296875
  1
JRX212
 41
0.9
 72
     1
 11
420.00000000000108
 21
241.99999999999821
 31
0.0
 73
     2
  0
TEXT
  5
FA
  8
DATA
 62
     7
 10
203.4402725749305
 20
700.33000000000004
 30
0.0
 40
26.548828125000011
  1
Recommended Amplifier Power
 41
0.9
 11
203.4402725749305
 21
726.87882812500004
 31
0.0
 73
     3
  0
TEXT
  5
FB
  8
DATA
 62
     7
 10
203.4402725749305
 20
665.83000000000004
 30
0.0
 40
26.548828125000011
  1
250 - 500 watts , 8 ohms
 41
0.9
 11
203.4402725749305
 21
692.37882812500004
 31
0.0
 73
     3
  0
TEXT
  5
FC
  8
DATA
 62
     7
 10
799.2500045895564
 20
316.36522842626039
 30
0.0
 40
26.548828125000011
  1
\U+00B12 N/C
 41
0.9
 11
799.2500045895564
 21
342.91405655126039
 31
0.0
 73
     3
  0
TEXT
  5
FD
  8
DATA
 62
     7
 10
799.2500045895564
 20
353.69962035774262
 30
0.0
 40
26.548828125000011
  1
\U+00B11 Full-Range
 41
0.9
 11
799.2500045895564
 21
380.2484484827425
 31
0.0
 73
     3
  0
LINE
  5
FE
  8
DATA
  6
CONTINUOUS
 62
     7
 10
-495.0
 20
-600.0
 30
0.0
 11
66.0
 21
-600.0
 31
0.0
  0
LINE
  5
FF
  8
DATA
  6
CONTINUOUS
 62
     7
 10
-475.0
 20
-625.0
 30
0.0
 11
46.0
 21
-625.0
 31
0.0
  0
LINE
  5
100
  8
DATA
  6
CONTINUOUS
 62
     7
 10
-461.0
 20
-639.0
 30
0.0
 11
32.0
 21
-639.0
 31
0.0
  0
LINE
  5
101
  8
DATA
  6
CONTINUOUS
 62
     7
 10
-500.0
 20
-995.0
 30
0.0
 11
-500.0
 21
-605.0
 31
0.0
  0
LINE
  5
102
  8
DATA
  6
CONTINUOUS
 62
     7
 10
-475.0
 20
-975.0
 30
0.0
 11
-475.0
 21
-625.0
 31
0.0
  0
LINE
  5
103
  8
DATA
  6
CONTINUOUS
 62
     7
 10
-461.0
 20
-961.0
 30
0.0
 11
-461.0
 21
-639.0
 31
0.0
  0
LINE
  5
104
  8
DATA
  6
CONTINUOUS
 62
     7
 10
66.0
 20
-1000.0
 30
0.0
 11
-495.0
 21
-1000.0
 31
0.0
  0
LINE
  5
105
  8
DATA
  6
CONTINUOUS
 62
     7
 10
46.0
 20
-975.0
 30
0.0
 11
-475.0
 21
-975.0
 31
0.0
  0
LINE
  5
106
  8
DATA
  6
CONTINUOUS
 62
     7
 10
32.0
 20
-961.0
 30
0.0
 11
-461.0
 21
-961.0
 31
0.0
  0
LINE
  5
107
  8
DATA
  6
CONTINUOUS
 62
     7
 10
71.0
 20
-605.0
 30
0.0
 11
71.0
 21
-995.0
 31
0.0
  0
LINE
  5
108
  8
DATA
  6
CONTINUOUS
 62
     7
 10
46.0
 20
-625.0
 30
0.0
 11
46.0
 21
-975.0
 31
0.0
  0
LINE
  5
109
  8
DATA
  6
CONTINUOUS
 62
     7
 10
32.0
 20
-639.0
 30
0.0
 11
32.0
 21
-961.0
 31
0.0
  0
LINE
  5
10A
  8
DATA
  6
CONTINUOUS
 62
     7
 10
-450.0
 20
-780.0
 30
0.0
 11
-410.0
 21
-780.0
 31
0.0
  0
LINE
  5
10B
  8
DATA
  6
CONTINUOUS
 62
     7
 10
-450.0
 20
-820.0
 30
0.0
 11
-450.0
 21
-780.0
 31
0.0
  0
LINE
  5
10C
  8
DATA
  6
CONTINUOUS
 62
     7
 10
-410.0
 20
-820.0
 30
0.0
 11
-450.0
 21
-820.0
 31
0.0
  0
LINE
  5
10D
  8
DATA
  6
CONTINUOUS
 62
     7
 10
-410.0
 20
-780.0
 30
0.0
 11
-410.0
 21
-820.0
 31
0.0
  0
ARC
  5
10E
  8
DATA
  6
CONTINUOUS
 62
     7
 10
66.0
 20
-995.0
 30
0.0
 40
5.0
 50
270.0
 51
0.0
  0
ARC
  5
10F
  8
DATA
  6
CONTINUOUS
 62
     7
 10
65.999999999999929
 20
-605.0
 30
0.0
 40
5.0
 50
0.0
 51
90.0
  0
ARC
  5
110
  8
DATA
  6
CONTINUOUS
 62
     7
 10
-495.0
 20
-605.0
 30
0.0
 40
5.0
 50
90.0
 51
180.0
  0
ARC
  5
111
  8
DATA
  6
CONTINUOUS
 62
     7
 10
-495.0
 20
-995.0
 30
0.0
 40
5.0
 50
180.0
 51
270.0
  0
LINE
  5
112
  8
DATA
  6
CONTINUOUS
 62
     7
 10
-510.1990074380418
 20
-653.21071876895348
 30
0.0
 11
-500.0
 21
-654.2306195127577
 31
0.0
  0
LINE
  5
113
  8
DATA
  6
CONTINUOUS
 62
     7
 10
-510.0
 20
-618.23061951275758
 30
0.0
 11
-510.0
 21
-653.2306195127577
 31
0.0
  0
LINE
  5
114
  8
DATA
  6
CONTINUOUS
 62
     7
 10
-512.0
 20
-620.240594636982
 30
0.0
 11
-512.0
 21
-651.22064438853363
 31
0.0
  0
LINE
  5
115
  8
DATA
  6
CONTINUOUS
 62
     7
 10
-500.0
 20
-617.2306195127577
 30
0.0
 11
-510.1990074380418
 21
-618.25052025656191
 31
0.0
  0
ARC
  5
116
  8
DATA
  6
CONTINUOUS
 62
     7
 10
-510.0
 20
-651.22064438853363
 30
0.0
 40
2.0
 50
180.0
 51
264.28940686250297
  0
ARC
  5
117
  8
DATA
  6
CONTINUOUS
 62
     7
 10
-510.0
 20
-620.240594636982
 30
0.0
 40
2.000000000000095
 50
95.710593137497099
 51
180.0
  0
LINE
  5
118
  8
DATA
  6
CONTINUOUS
 62
     7
 10
-510.1990074380418
 20
-817.48009925619567
 30
0.0
 11
-500.0
 21
-818.5
 31
0.0
  0
LINE
  5
119
  8
DATA
  6
CONTINUOUS
 62
     7
 10
-510.0
 20
-782.5
 30
0.0
 11
-510.0
 21
-817.5
 31
0.0
  0
LINE
  5
11A
  8
DATA
  6
CONTINUOUS
 62
     7
 10
-512.0
 20
-784.50997512422441
 30
0.0
 11
-512.0
 21
-815.49002487577582
 31
0.0
  0
LINE
  5
11B
  8
DATA
  6
CONTINUOUS
 62
     7
 10
-500.0
 20
-781.5
 30
0.0
 11
-510.1990074380418
 21
-782.51990074380421
 31
0.0
  0
ARC
  5
11C
  8
DATA
  6
CONTINUOUS
 62
     7
 10
-510.0
 20
-815.49002487577582
 30
0.0
 40
2.0
 50
180.0
 51
264.28940686250297
  0
ARC
  5
11D
  8
DATA
  6
CONTINUOUS
 62
     7
 10
-510.0
 20
-784.50997512422441
 30
0.0
 40
2.000000000000095
 50
95.710593137497099
 51
180.0
  0
LINE
  5
11E
  8
DATA
  6
CONTINUOUS
 62
     7
 10
-510.1990074380418
 20
-946.78928123104652
 30
0.0
 11
-500.0
 21
-945.76938048724196
 31
0.0
  0
LINE
  5
11F
  8
DATA
  6
CONTINUOUS
 62
     7
 10
-510.0
 20
-981.76938048724207
 30
0.0
 11
-510.0
 21
-946.76938048724207
 31
0.0
  0
LINE
  5
120
  8
DATA
  6
CONTINUOUS
 62
     7
 10
-512.0
 20
-979.75940536301789
 30
0.0
 11
-512.0
 21
-948.77935561146626
 31
0.0
  0
LINE
  5
121
  8
DATA
  6
CONTINUOUS
 62
     7
 10
-500.0
 20
-982.76938048724207
 30
0.0
 11
-510.1990074380418
 21
-981.74947974343831
 31
0.0
  0
ARC
  5
122
  8
DATA
  6
CONTINUOUS
 62
     7
 10
-510.0
 20
-948.77935561146626
 30
0.0
 40
2.000000000000095
 50
95.710593137497099
 51
180.0
  0
ARC
  5
123
  8
DATA
  6
CONTINUOUS
 62
     7
 10
-510.0
 20
-979.75940536301789
 30
0.0
 40
2.0
 50
180.0
 51
264.28940686250297
  0
LINE
  5
124
  8
DATA
  6
CONTINUOUS
 62
     7
 10
310.0
 20
-600.0
 30
0.0
 11
505.30344885397068
 21
-600.0
 31
0.0
  0
LINE
  5
125
  8
DATA
  6
CONTINUOUS
 62
     7
 10
505.30344885397068
 20
-1000.0
 30
0.0
 11
310.0
 21
-1000.0
 31
0.0
  0
LINE
  5
126
  8
DATA
  6
CONTINUOUS
 62
     7
 10
351.73061951275758
 20
-718.5
 30
0.0
 11
551.73061951275758
 21
-718.5
 31
0.0
  0
LINE
  5
127
  8
DATA
  6
CONTINUOUS
 62
     7
 10
369.73061951275758
 20
-743.5
 30
0.0
 11
533.7306195127577
 21
-743.5
 31
0.0
  0
LINE
  5
128
  8
DATA
  6
CONTINUOUS
 62
     7
 10
341.73061951275758
 20
-871.49999999999989
 30
0.0
 11
341.73061951275758
 21
-728.5
 31
0.0
  0
LINE
  5
129
  8
DATA
  6
CONTINUOUS
 62
     7
 10
369.73061951275758
 20
-856.49999999999989
 30
0.0
 11
369.73061951275758
 21
-743.5
 31
0.0
  0
LINE
  5
12A
  8
DATA
  6
CONTINUOUS
 62
     7
 10
419.73061951275758
 20
-856.49999999999989
 30
0.0
 11
419.73061951275758
 21
-743.5
 31
0.0
  0
LINE
  5
12B
  8
DATA
  6
CONTINUOUS
 62
     7
 10
425.73061951275758
 20
-856.49999999999989
 30
0.0
 11
425.73061951275758
 21
-743.5
 31
0.0
  0
LINE
  5
12C
  8
DATA
  6
CONTINUOUS
 62
     7
 10
551.73061951275758
 20
-881.49999999999989
 30
0.0
 11
351.73061951275758
 21
-881.49999999999989
 31
0.0
  0
LINE
  5
12D
  8
DATA
  6
CONTINUOUS
 62
     7
 10
533.7306195127577
 20
-856.49999999999989
 30
0.0
 11
369.73061951275758
 21
-856.49999999999989
 31
0.0
  0
LINE
  5
12E
  8
DATA
  6
CONTINUOUS
 62
     7
 10
561.7306195127577
 20
-728.5
 30
0.0
 11
561.7306195127577
 21
-871.49999999999989
 31
0.0
  0
LINE
  5
12F
  8
DATA
  6
CONTINUOUS
 62
     7
 10
533.7306195127577
 20
-743.5
 30
0.0
 11
533.7306195127577
 21
-856.49999999999989
 31
0.0
  0
LINE
  5
130
  8
DATA
  6
CONTINUOUS
 62
     7
 10
483.73061951275758
 20
-743.5
 30
0.0
 11
483.73061951275758
 21
-856.49999999999989
 31
0.0
  0
LINE
  5
131
  8
DATA
  6
CONTINUOUS
 62
     7
 10
477.73061951275758
 20
-743.5
 30
0.0
 11
477.73061951275758
 21
-856.49999999999989
 31
0.0
  0
ARC
  5
132
  8
DATA
  6
CONTINUOUS
 62
     7
 10
551.73061951275758
 20
-728.5
 30
0.0
 40
10.0
 50
0.0
 51
90.0
  0
ARC
  5
133
  8
DATA
  6
CONTINUOUS
 62
     7
 10
551.73061951275758
 20
-871.49999999999989
 30
0.0
 40
10.0
 50
270.0
 51
0.0
  0
ARC
  5
134
  8
DATA
  6
CONTINUOUS
 62
     7
 10
351.73061951275758
 20
-728.5
 30
0.0
 40
10.0
 50
90.0
 51
180.0
  0
ARC
  5
135
  8
DATA
  6
CONTINUOUS
 62
     7
 10
351.73061951275758
 20
-871.49999999999989
 30
0.0
 40
10.0
 50
180.0
 51
270.0
  0
LINE
  5
136
  8
DATA
  6
CONTINUOUS
 62
     7
 10
487.7306195127573
 20
-716.0
 30
0.0
 11
355.73061951275758
 21
-716.0
 31
0.0
  0
LINE
  5
137
  8
DATA
  6
CONTINUOUS
 62
     7
 10
476.7306195127573
 20
-702.0
 30
0.0
 11
366.73061951275758
 21
-702.0
 31
0.0
  0
LINE
  5
138
  8
DATA
  6
CONTINUOUS
 62
     7
 10
490.7306195127573
 20
-621.0
 30
0.0
 11
490.7306195127573
 21
-713.0
 31
0.0
  0
LINE
  5
139
  8
DATA
  6
CONTINUOUS
 62
     7
 10
476.7306195127573
 20
-632.0
 30
0.0
 11
476.7306195127573
 21
-702.0
 31
0.0
  0
LINE
  5
13A
  8
DATA
  6
CONTINUOUS
 62
     7
 10
355.73061951275758
 20
-618.0
 30
0.0
 11
487.7306195127573
 21
-618.0
 31
0.0
  0
LINE
  5
13B
  8
DATA
  6
CONTINUOUS
 62
     7
 10
366.73061951275758
 20
-632.0
 30
0.0
 11
476.7306195127573
 21
-632.0
 31
0.0
  0
LINE
  5
13C
  8
DATA
  6
CONTINUOUS
 62
     7
 10
352.7306195127577
 20
-713.0
 30
0.0
 11
352.7306195127577
 21
-621.0
 31
0.0
  0
LINE
  5
13D
  8
DATA
  6
CONTINUOUS
 62
     7
 10
366.73061951275758
 20
-702.0
 30
0.0
 11
366.73061951275758
 21
-632.0
 31
0.0
  0
ARC
  5
13E
  8
DATA
  6
CONTINUOUS
 62
     7
 10
355.73061951275758
 20
-621.0
 30
0.0
 40
3.0
 50
90.0
 51
180.0
  0
ARC
  5
13F
  8
DATA
  6
CONTINUOUS
 62
     7
 10
355.73061951275758
 20
-713.0
 30
0.0
 40
3.0
 50
180.0
 51
270.0
  0
ARC
  5
140
  8
DATA
  6
CONTINUOUS
 62
     7
 10
487.7306195127573
 20
-713.0
 30
0.0
 40
3.0
 50
270.0
 51
0.0
  0
ARC
  5
141
  8
DATA
  6
CONTINUOUS
 62
     7
 10
487.7306195127573
 20
-621.0
 30
0.0
 40
3.0
 50
0.0
 51
90.0
  0
CIRCLE
  5
142
  8
DATA
  6
CONTINUOUS
 62
     7
 10
399.73061951275758
 20
-681.69999999999982
 30
0.0
 40
11.75
  0
CIRCLE
  5
143
  8
DATA
  6
CONTINUOUS
 62
     7
 10
390.2306195127577
 20
-669.69999999999982
 30
0.0
 40
2.0
  0
CIRCLE
  5
144
  8
DATA
  6
CONTINUOUS
 62
     7
 10
409.23061951275758
 20
-693.69999999999982
 30
0.0
 40
2.0
  0
LINE
  5
145
  8
DATA
  6
CONTINUOUS
 62
     7
 10
410.73061951275758
 20
-697.19999999999982
 30
0.0
 11
388.73061951275758
 21
-697.19999999999982
 31
0.0
  0
LINE
  5
146
  8
DATA
  6
CONTINUOUS
 62
     7
 10
412.73061951275758
 20
-695.19999999999982
 30
0.0
 11
412.73061951275758
 21
-668.19999999999982
 31
0.0
  0
LINE
  5
147
  8
DATA
  6
CONTINUOUS
 62
     7
 10
410.73061951275758
 20
-666.19999999999982
 30
0.0
 11
388.73061951275758
 21
-666.19999999999982
 31
0.0
  0
LINE
  5
148
  8
DATA
  6
CONTINUOUS
 62
     7
 10
386.73061951275758
 20
-695.19999999999982
 30
0.0
 11
386.73061951275758
 21
-668.19999999999982
 31
0.0
  0
ARC
  5
149
  8
DATA
  6
CONTINUOUS
 62
     7
 10
410.73061951275758
 20
-695.19999999999982
 30
0.0
 40
2.0
 50
270.0
 51
0.0
  0
ARC
  5
14A
  8
DATA
  6
CONTINUOUS
 62
     7
 10
410.73061951275758
 20
-668.19999999999982
 30
0.0
 40
2.0
 50
0.0
 51
90.0
  0
ARC
  5
14B
  8
DATA
  6
CONTINUOUS
 62
     7
 10
388.73061951275758
 20
-668.19999999999982
 30
0.0
 40
2.0
 50
90.0
 51
180.0
  0
ARC
  5
14C
  8
DATA
  6
CONTINUOUS
 62
     7
 10
388.73061951275758
 20
-695.19999999999982
 30
0.0
 40
2.0
 50
180.0
 51
270.0
  0
LINE
  5
14D
  8
DATA
  6
CONTINUOUS
 62
     7
 10
402.73061951275758
 20
-691.69999999999982
 30
0.0
 11
396.73061951275758
 21
-691.69999999999982
 31
0.0
  0
LINE
  5
14E
  8
DATA
  6
CONTINUOUS
 62
     7
 10
401.73061951275758
 20
-671.69999999999982
 30
0.0
 11
397.73061951275758
 21
-671.69999999999982
 31
0.0
  0
LINE
  5
14F
  8
DATA
  6
CONTINUOUS
 62
     7
 10
401.73061951275758
 20
-671.69999999999982
 30
0.0
 11
401.73061951275758
 21
-672.89999999999986
 31
0.0
  0
LINE
  5
150
  8
DATA
  6
CONTINUOUS
 62
     7
 10
397.73061951275758
 20
-671.69999999999982
 30
0.0
 11
397.73061951275758
 21
-672.89999999999986
 31
0.0
  0
LINE
  5
151
  8
DATA
  6
CONTINUOUS
 62
     7
 10
402.73061951275758
 20
-691.69999999999982
 30
0.0
 11
402.73061951275758
 21
-689.97284999999965
 31
0.0
  0
LINE
  5
152
  8
DATA
  6
CONTINUOUS
 62
     7
 10
396.73061951275758
 20
-691.69999999999982
 30
0.0
 11
396.73061951275758
 21
-689.97284999999965
 31
0.0
  0
ARC
  5
153
  8
DATA
  6
CONTINUOUS
 62
     7
 10
399.73061951275758
 20
-681.69999999999982
 30
0.0
 40
8.8000026774143176
 50
289.93226415067898
 51
77.196166819700053
  0
ARC
  5
154
  8
DATA
  6
CONTINUOUS
 62
     7
 10
399.73061951275758
 20
-681.69999999999982
 30
0.0
 40
8.8000035043459288
 50
102.9999995554212
 51
249.999994237962
  0
ARC
  5
155
  8
DATA
  6
CONTINUOUS
 62
     7
 10
399.73061951275758
 20
-681.69999999999982
 30
0.0
 40
6.200002162064175
 50
240.0000115355607
 51
330.0000115355607
  0
LINE
  5
156
  8
DATA
  6
CONTINUOUS
 62
     7
 10
405.09995951275761
 20
-684.80002999999977
 30
0.0
 11
404.60199951275757
 21
-684.51252999999986
 31
0.0
  0
LINE
  5
157
  8
DATA
  6
CONTINUOUS
 62
     7
 10
396.63064951275771
 20
-687.06937999999968
 30
0.0
 11
396.91814951275762
 21
-686.57140999999979
 31
0.0
  0
ARC
  5
158
  8
DATA
  6
CONTINUOUS
 62
     7
 10
399.73061951275758
 20
-681.69999999999982
 30
0.0
 40
6.200002162064175
 50
60.000011535560738
 51
150.0000115355607
  0
LINE
  5
159
  8
DATA
  6
CONTINUOUS
 62
     7
 10
402.83061951275761
 20
-676.33063999999968
 30
0.0
 11
402.54311951275758
 21
-676.8286099999998
 31
0.0
  0
LINE
  5
15A
  8
DATA
  6
CONTINUOUS
 62
     7
 10
394.36124951275769
 20
-678.60001999999974
 30
0.0
 11
394.85921951275759
 21
-678.88751999999965
 31
0.0
  0
ARC
  5
15B
  8
DATA
  6
CONTINUOUS
 62
     7
 10
399.73061951275758
 20
-681.69999999999982
 30
0.0
 40
5.6250038315809752
 50
329.99966968210242
 51
60.000212604302583
  0
ARC
  5
15C
  8
DATA
  6
CONTINUOUS
 62
     7
 10
399.73061951275758
 20
-681.69999999999982
 30
0.0
 40
5.6249961520342593
 50
150.00021260430231
 51
240.0007182431236
  0
ARC
  5
15D
  8
DATA
  6
CONTINUOUS
 62
     7
 10
399.73061951275758
 20
-681.69999999999982
 30
0.0
 40
3.5999900808751581
 50
239.9999088547055
 51
329.9999088547064
  0
ARC
  5
15E
  8
DATA
  6
CONTINUOUS
 62
     7
 10
399.73061951275758
 20
-681.69999999999982
 30
0.0
 40
3.5999900808751581
 50
59.99990885470546
 51
149.99990885470629
  0
LINE
  5
15F
  8
DATA
  6
CONTINUOUS
 62
     7
 10
397.93063951275769
 20
-684.81768999999986
 30
0.0
 11
398.28062951275763
 21
-684.21147999999982
 31
0.0
  0
LINE
  5
160
  8
DATA
  6
CONTINUOUS
 62
     7
 10
402.8482895127575
 20
-683.50000999999975
 30
0.0
 11
402.24208951275762
 21
-683.15000999999984
 31
0.0
  0
LINE
  5
161
  8
DATA
  6
CONTINUOUS
 62
     7
 10
401.53061951275771
 20
-678.58231999999975
 30
0.0
 11
401.18061951275757
 21
-679.18852999999967
 31
0.0
  0
LINE
  5
162
  8
DATA
  6
CONTINUOUS
 62
     7
 10
396.61292951275772
 20
-679.90001999999981
 30
0.0
 11
397.21913951275758
 21
-680.25000999999975
 31
0.0
  0
ARC
  5
163
  8
DATA
  6
CONTINUOUS
 62
     7
 10
399.73061951275758
 20
-681.69999999999982
 30
0.0
 40
2.9000018208615339
 50
329.99979263403048
 51
60.000233623830347
  0
ARC
  5
164
  8
DATA
  6
CONTINUOUS
 62
     7
 10
399.73061951275758
 20
-681.69999999999982
 30
0.0
 40
2.900000481120633
 50
150.00023362383101
 51
239.99979263403151
  0
LINE
  5
165
  8
DATA
  6
CONTINUOUS
 62
     7
 10
390.2306195127577
 20
-670.69999999999982
 30
0.0
 11
390.2306195127577
 21
-668.69999999999982
 31
0.0
  0
LINE
  5
166
  8
DATA
  6
CONTINUOUS
 62
     7
 10
391.23061951275758
 20
-669.69999999999982
 30
0.0
 11
389.23061951275758
 21
-669.69999999999982
 31
0.0
  0
LINE
  5
167
  8
DATA
  6
CONTINUOUS
 62
     7
 10
409.23061951275758
 20
-694.69999999999982
 30
0.0
 11
409.23061951275758
 21
-692.69999999999982
 31
0.0
  0
LINE
  5
168
  8
DATA
  6
CONTINUOUS
 62
     7
 10
410.23061951275758
 20
-693.69999999999982
 30
0.0
 11
408.23061951275758
 21
-693.69999999999982
 31
0.0
  0
CIRCLE
  5
169
  8
DATA
  6
CONTINUOUS
 62
     7
 10
443.73061951275758
 20
-681.69999999999982
 30
0.0
 40
8.4999999999999982
  0
CIRCLE
  5
16A
  8
DATA
  6
CONTINUOUS
 62
     7
 10
443.73061951275758
 20
-681.69999999999982
 30
0.0
 40
5.2500000000006031
  0
CIRCLE
  5
16B
  8
DATA
  6
CONTINUOUS
 62
     7
 10
443.73061951275758
 20
-681.69999999999982
 30
0.0
 40
4.5000000000005853
  0
CIRCLE
  5
16C
  8
DATA
  6
CONTINUOUS
 62
     7
 10
443.73061951275758
 20
-681.69999999999982
 30
0.0
 40
3.4999999999997442
  0
POLYLINE
  5
16D
  8
DATA
  6
CONTINUOUS
 62
     7
 66
     1
 10
0.0
 20
0.0
 30
0.0
 70
     1
  0
VERTEX
  5
32F
  8
DATA
  6
CONTINUOUS
 62
     7
 10
435.23061951275758
 20
-681.69999999999982
 30
0.0
  0
VERTEX
  5
330
  8
DATA
  6
CONTINUOUS
 62
     7
 10
439.48061951275758
 20
-689.06121593216812
 30
0.0
  0
VERTEX
  5
331
  8
DATA
  6
CONTINUOUS
 62
     7
 10
447.98061951275758
 20
-689.06121593216812
 30
0.0
  0
VERTEX
  5
332
  8
DATA
  6
CONTINUOUS
 62
     7
 10
452.23061951275758
 20
-681.69999999999982
 30
0.0
  0
VERTEX
  5
333
  8
DATA
  6
CONTINUOUS
 62
     7
 10
447.98061951275758
 20
-674.33878406783242
 30
0.0
  0
VERTEX
  5
334
  8
DATA
  6
CONTINUOUS
 62
     7
 10
439.48061951275758
 20
-674.33878406783242
 30
0.0
  0
SEQEND
  5
335
  8
DATA
  6
CONTINUOUS
 62
     7
  0
TEXT
  5
176
  8
DATA
 62
     7
 10
428.86714295025757
 20
-682.00489095052058
 30
0.0
 40
2.0360514322916661
  1
IN/OUT
 50
180.0
 41
0.9
 72
     1
 11
423.98061951275758
 21
-683.02291666666645
 31
0.0
 73
     2
  0
TEXT
  5
177
  8
DATA
 62
     7
 10
437.35747742291392
 20
-679.35905761718743
 30
0.0
 40
2.0360514322916661
  1
(PARALLEL JACKS)
 50
180.0
 41
0.9
 72
     1
 11
423.98061951275758
 21
-680.3770833333333
 31
0.0
 73
     2
  0
TEXT
  5
178
  8
DATA
 62
     7
 10
464.39018982525738
 20
-648.14592285156232
 30
0.0
 40
6.108154296875
  1
JRX212
 50
180.0
 41
0.9
 72
     1
 11
449.7306195127573
 21
-651.19999999999982
 31
0.0
 73
     2
  0
LINE
  5
179
  8
DATA
  6
CONTINUOUS
 62
     7
 10
300.0
 20
-990.0
 30
0.0
 11
300.0
 21
-610.0
 31
0.0
  0
ARC
  5
17A
  8
DATA
  6
CONTINUOUS
 62
     7
 10
310.0
 20
-610.0
 30
0.0
 40
10.0
 50
90.0
 51
180.0
  0
ARC
  5
17B
  8
DATA
  6
CONTINUOUS
 62
     7
 10
310.0
 20
-990.0
 30
0.0
 40
10.0
 50
180.0
 51
270.0
  0
TEXT
  5
17C
  8
DATA
 62
     7
 10
471.3865922552643
 20
-697.03300000000002
 30
0.0
 40
2.6548828124999999
  1
Recommended Amplifier Power
 50
180.0
 41
0.9
 11
471.3865922552643
 21
-699.68788281249999
 31
0.0
 73
     3
  0
TEXT
  5
17D
  8
DATA
 62
     7
 10
471.3865922552643
 20
-693.58299999999997
 30
0.0
 40
2.6548828124999999
  1
250 - 500 watts , 8 ohms
 50
180.0
 41
0.9
 11
471.3865922552643
 21
-696.23788281249995
 31
0.0
 73
     3
  0
CIRCLE
  5
17E
  8
DATA
  6
CONTINUOUS
 62
     7
 10
358.98061951275753
 20
-624.0
 30
0.0
 40
3.999999999999944
  0
LINE
  5
17F
  8
DATA
  6
CONTINUOUS
 62
     7
 10
358.98061951275753
 20
-621.49999999999989
 30
0.0
 11
358.98061951275753
 21
-626.5
 31
0.0
  0
LINE
  5
180
  8
DATA
  6
CONTINUOUS
 62
     7
 10
361.48061951275753
 20
-624.0
 30
0.0
 11
356.48061951275753
 21
-624.0
 31
0.0
  0
CIRCLE
  5
181
  8
DATA
  6
CONTINUOUS
 62
     7
 10
358.98061951275753
 20
-710.0
 30
0.0
 40
3.999999999999944
  0
LINE
  5
182
  8
DATA
  6
CONTINUOUS
 62
     7
 10
358.98061951275753
 20
-707.5
 30
0.0
 11
358.98061951275753
 21
-712.5
 31
0.0
  0
LINE
  5
183
  8
DATA
  6
CONTINUOUS
 62
     7
 10
361.48061951275753
 20
-710.0
 30
0.0
 11
356.48061951275753
 21
-710.0
 31
0.0
  0
CIRCLE
  5
184
  8
DATA
  6
CONTINUOUS
 62
     7
 10
420.98061951275741
 20
-624.0
 30
0.0
 40
3.999999999999944
  0
LINE
  5
185
  8
DATA
  6
CONTINUOUS
 62
     7
 10
420.98061951275741
 20
-621.49999999999989
 30
0.0
 11
420.98061951275741
 21
-626.5
 31
0.0
  0
LINE
  5
186
  8
DATA
  6
CONTINUOUS
 62
     7
 10
423.48061951275741
 20
-624.0
 30
0.0
 11
418.48061951275741
 21
-624.0
 31
0.0
  0
CIRCLE
  5
187
  8
DATA
  6
CONTINUOUS
 62
     7
 10
420.98061951275741
 20
-710.0
 30
0.0
 40
3.999999999999944
  0
LINE
  5
188
  8
DATA
  6
CONTINUOUS
 62
     7
 10
420.98061951275741
 20
-707.5
 30
0.0
 11
420.98061951275741
 21
-712.5
 31
0.0
  0
LINE
  5
189
  8
DATA
  6
CONTINUOUS
 62
     7
 10
423.48061951275741
 20
-710.0
 30
0.0
 11
418.48061951275741
 21
-710.0
 31
0.0
  0
CIRCLE
  5
18A
  8
DATA
  6
CONTINUOUS
 62
     7
 10
482.98061951275753
 20
-624.0
 30
0.0
 40
3.999999999999944
  0
LINE
  5
18B
  8
DATA
  6
CONTINUOUS
 62
     7
 10
482.98061951275753
 20
-621.49999999999989
 30
0.0
 11
482.98061951275753
 21
-626.5
 31
0.0
  0
LINE
  5
18C
  8
DATA
  6
CONTINUOUS
 62
     7
 10
485.48061951275741
 20
-624.0
 30
0.0
 11
480.48061951275741
 21
-624.0
 31
0.0
  0
CIRCLE
  5
18D
  8
DATA
  6
CONTINUOUS
 62
     7
 10
482.98061951275753
 20
-710.0
 30
0.0
 40
3.999999999999944
  0
LINE
  5
18E
  8
DATA
  6
CONTINUOUS
 62
     7
 10
482.98061951275753
 20
-707.5
 30
0.0
 11
482.98061951275753
 21
-712.5
 31
0.0
  0
LINE
  5
18F
  8
DATA
  6
CONTINUOUS
 62
     7
 10
485.48061951275741
 20
-710.0
 30
0.0
 11
480.48061951275741
 21
-710.0
 31
0.0
  0
CIRCLE
  5
190
  8
DATA
  6
CONTINUOUS
 62
     7
 10
355.73061951275758
 20
-731.0
 30
0.0
 40
3.999999999999833
  0
LINE
  5
191
  8
DATA
  6
CONTINUOUS
 62
     7
 10
355.73061951275758
 20
-728.5
 30
0.0
 11
355.73061951275758
 21
-733.49999999999989
 31
0.0
  0
LINE
  5
192
  8
DATA
  6
CONTINUOUS
 62
     7
 10
358.23061951275758
 20
-731.0
 30
0.0
 11
353.23061951275758
 21
-731.0
 31
0.0
  0
CIRCLE
  5
193
  8
DATA
  6
CONTINUOUS
 62
     7
 10
355.73061951275758
 20
-869.0
 30
0.0
 40
3.999999999999833
  0
LINE
  5
194
  8
DATA
  6
CONTINUOUS
 62
     7
 10
355.73061951275758
 20
-866.5
 30
0.0
 11
355.73061951275758
 21
-871.49999999999989
 31
0.0
  0
LINE
  5
195
  8
DATA
  6
CONTINUOUS
 62
     7
 10
358.23061951275758
 20
-869.0
 30
0.0
 11
353.23061951275758
 21
-869.0
 31
0.0
  0
CIRCLE
  5
196
  8
DATA
  6
CONTINUOUS
 62
     7
 10
449.73061951275758
 20
-731.0
 30
0.0
 40
3.999999999999833
  0
LINE
  5
197
  8
DATA
  6
CONTINUOUS
 62
     7
 10
449.73061951275758
 20
-728.5
 30
0.0
 11
449.73061951275758
 21
-733.49999999999989
 31
0.0
  0
LINE
  5
198
  8
DATA
  6
CONTINUOUS
 62
     7
 10
452.23061951275758
 20
-731.0
 30
0.0
 11
447.23061951275758
 21
-731.0
 31
0.0
  0
CIRCLE
  5
199
  8
DATA
  6
CONTINUOUS
 62
     7
 10
449.73061951275758
 20
-869.0
 30
0.0
 40
3.999999999999833
  0
LINE
  5
19A
  8
DATA
  6
CONTINUOUS
 62
     7
 10
449.73061951275758
 20
-866.5
 30
0.0
 11
449.73061951275758
 21
-871.49999999999989
 31
0.0
  0
LINE
  5
19B
  8
DATA
  6
CONTINUOUS
 62
     7
 10
452.23061951275758
 20
-869.0
 30
0.0
 11
447.23061951275758
 21
-869.0
 31
0.0
  0
CIRCLE
  5
19C
  8
DATA
  6
CONTINUOUS
 62
     7
 10
547.73061951275758
 20
-731.0
 30
0.0
 40
3.999999999999833
  0
LINE
  5
19D
  8
DATA
  6
CONTINUOUS
 62
     7
 10
547.73061951275758
 20
-728.5
 30
0.0
 11
547.73061951275758
 21
-733.49999999999989
 31
0.0
  0
LINE
  5
19E
  8
DATA
  6
CONTINUOUS
 62
     7
 10
550.2306195127577
 20
-731.0
 30
0.0
 11
545.2306195127577
 21
-731.0
 31
0.0
  0
CIRCLE
  5
19F
  8
DATA
  6
CONTINUOUS
 62
     7
 10
547.73061951275758
 20
-869.0
 30
0.0
 40
3.999999999999833
  0
LINE
  5
1A0
  8
DATA
  6
CONTINUOUS
 62
     7
 10
547.73061951275758
 20
-866.5
 30
0.0
 11
547.73061951275758
 21
-871.49999999999989
 31
0.0
  0
LINE
  5
1A1
  8
DATA
  6
CONTINUOUS
 62
     7
 10
550.2306195127577
 20
-869.0
 30
0.0
 11
545.2306195127577
 21
-869.0
 31
0.0
  0
TEXT
  5
1A2
  8
DATA
 62
     7
 10
411.80561905380171
 20
-658.63652284262605
 30
0.0
 40
2.6548828124999999
  1
\U+00B12 N/C
 50
180.0
 41
0.9
 11
411.80561905380171
 21
-661.29140565512603
 31
0.0
 73
     3
  0
TEXT
  5
1A3
  8
DATA
 62
     7
 10
411.80561905380171
 20
-662.36996203577439
 30
0.0
 40
2.6548828124999999
  1
\U+00B11 Full-Range
 50
180.0
 41
0.9
 11
411.80561905380171
 21
-665.02484484827426
 31
0.0
 73
     3
  0
LINE
  5
1A4
  8
DATA
  6
CONTINUOUS
 62
     7
 10
513.96370289181505
 20
-605.0
 30
0.0
 11
623.66025403784408
 21
-795.0
 31
0.0
  0
LINE
  5
1A5
  8
DATA
  6
CONTINUOUS
 62
     7
 10
513.96370289181505
 20
-995.0
 30
0.0
 11
623.66025403784408
 21
-805.0
 31
0.0
  0
ARC
  5
1A6
  8
DATA
  6
CONTINUOUS
 62
     7
 10
614.99999999999966
 20
-800.0
 30
0.0
 40
10.00000000000003
 50
330.00000000000011
 51
29.99999999999984
  0
ARC
  5
1A7
  8
DATA
  6
CONTINUOUS
 62
     7
 10
505.30344885397068
 20
-610.0
 30
0.0
 40
9.999999999999984
 50
30.00000000000005
 51
90.000000000000298
  0
ARC
  5
1A8
  8
DATA
  6
CONTINUOUS
 62
     7
 10
505.30344885397068
 20
-990.0
 30
0.0
 40
10.0
 50
270.0
 51
329.99999999999989
  0
CIRCLE
  5
1A9
  8
DATA
  6
CONTINUOUS
 62
     7
 10
-835.0
 20
-965.73061951275758
 30
0.0
 40
18.499999999999972
  0
CIRCLE
  5
1AA
  8
DATA
  6
CONTINUOUS
 62
     7
 10
-835.0
 20
-965.73061951275758
 30
0.0
 40
17.499999999999879
  0
CIRCLE
  5
1AB
  8
DATA
  6
CONTINUOUS
 62
     7
 10
-835.0
 20
-965.73061951275758
 30
0.0
 40
15.499999999999931
  0
CIRCLE
  5
1AC
  8
DATA
  6
CONTINUOUS
 62
     7
 10
-835.0
 20
-635.7306195127577
 30
0.0
 40
18.499999999999972
  0
CIRCLE
  5
1AD
  8
DATA
  6
CONTINUOUS
 62
     7
 10
-835.0
 20
-635.7306195127577
 30
0.0
 40
17.499999999999879
  0
CIRCLE
  5
1AE
  8
DATA
  6
CONTINUOUS
 62
     7
 10
-835.0
 20
-635.7306195127577
 30
0.0
 40
15.499999999999931
  0
CIRCLE
  5
1AF
  8
DATA
  6
CONTINUOUS
 62
     7
 10
-1091.4612390255149
 20
-800.7306195127577
 30
0.0
 40
18.499999999999879
  0
CIRCLE
  5
1B0
  8
DATA
  6
CONTINUOUS
 62
     7
 10
-1091.4612390255149
 20
-800.7306195127577
 30
0.0
 40
17.499999999999812
  0
CIRCLE
  5
1B1
  8
DATA
  6
CONTINUOUS
 62
     7
 10
-1091.4612390255149
 20
-800.7306195127577
 30
0.0
 40
15.499999999999851
  0
ARC
  5
1B2
  8
DATA
  6
CONTINUOUS
 62
     7
 10
-972.33834028514821
 20
-800.0
 30
0.0
 40
43.999999999999552
 50
90.0
 51
270.0
  0
ARC
  5
1B3
  8
DATA
  6
CONTINUOUS
 62
     7
 10
-920.33834028514821
 20
-800.0
 30
0.0
 40
44.00000000000022
 50
270.0
 51
90.0
  0
LINE
  5
1B4
  8
DATA
  6
CONTINUOUS
 62
     7
 10
-972.33834028514821
 20
-756.00000000000034
 30
0.0
 11
-919.61212386127545
 21
-756.00000000000034
 31
0.0
  0
LINE
  5
1B5
  8
DATA
  6
CONTINUOUS
 62
     7
 10
-972.33834028514821
 20
-844.00000000000011
 30
0.0
 11
-919.12289874038731
 21
-844.00000000000011
 31
0.0
  0
CIRCLE
  5
1B6
  8
DATA
  6
CONTINUOUS
 62
     7
 10
-973.96022375284235
 20
-765.00000000000045
 30
0.0
 40
4.5
  0
POLYLINE
  5
1B7
  8
DATA
  6
CONTINUOUS
 62
     7
 66
     1
 10
0.0
 20
0.0
 30
0.0
  0
VERTEX
  5
336
  8
DATA
  6
CONTINUOUS
 62
     7
 10
-973.31022375284181
 20
-764.35000000000025
 30
0.0
  0
VERTEX
  5
337
  8
DATA
  6
CONTINUOUS
 62
     7
 10
-970.71022375284224
 20
-764.35000000000025
 30
0.0
  0
VERTEX
  5
338
  8
DATA
  6
CONTINUOUS
 62
     7
 10
-970.71022375284224
 20
-765.6500000000002
 30
0.0
  0
VERTEX
  5
339
  8
DATA
  6
CONTINUOUS
 62
     7
 10
-973.31022375284181
 20
-765.6500000000002
 30
0.0
  0
SEQEND
  5
33A
  8
DATA
  6
CONTINUOUS
 62
     7
  0
POLYLINE
  5
1BE
  8
DATA
  6
CONTINUOUS
 62
     7
 66
     1
 10
0.0
 20
0.0
 30
0.0
  0
VERTEX
  5
33B
  8
DATA
  6
CONTINUOUS
 62
     7
 10
-974.61022375284244
 20
-765.6500000000002
 30
0.0
  0
VERTEX
  5
33C
  8
DATA
  6
CONTINUOUS
 62
     7
 10
-977.21022375284224
 20
-765.6500000000002
 30
0.0
  0
VERTEX
  5
33D
  8
DATA
  6
CONTINUOUS
 62
     7
 10
-977.21022375284224
 20
-764.35000000000025
 30
0.0
  0
VERTEX
  5
33E
  8
DATA
  6
CONTINUOUS
 62
     7
 10
-974.61022375284244
 20
-764.35000000000025
 30
0.0
  0
SEQEND
  5
33F
  8
DATA
  6
CONTINUOUS
 62
     7
  0
POLYLINE
  5
1C5
  8
DATA
  6
CONTINUOUS
 62
     7
 66
     1
 10
0.0
 20
0.0
 30
0.0
  0
VERTEX
  5
340
  8
DATA
  6
CONTINUOUS
 62
     7
 10
-973.31022375284181
 20
-765.6500000000002
 30
0.0
  0
VERTEX
  5
341
  8
DATA
  6
CONTINUOUS
 62
     7
 10
-973.31022375284181
 20
-768.25000000000045
 30
0.0
  0
VERTEX
  5
342
  8
DATA
  6
CONTINUOUS
 62
     7
 10
-974.61022375284244
 20
-768.25000000000045
 30
0.0
  0
VERTEX
  5
343
  8
DATA
  6
CONTINUOUS
 62
     7
 10
-974.61022375284244
 20
-765.6500000000002
 30
0.0
  0
SEQEND
  5
344
  8
DATA
  6
CONTINUOUS
 62
     7
  0
POLYLINE
  5
1CC
  8
DATA
  6
CONTINUOUS
 62
     7
 66
     1
 10
0.0
 20
0.0
 30
0.0
  0
VERTEX
  5
345
  8
DATA
  6
CONTINUOUS
 62
     7
 10
-974.61022375284244
 20
-764.35000000000025
 30
0.0
  0
VERTEX
  5
346
  8
DATA
  6
CONTINUOUS
 62
     7
 10
-974.61022375284244
 20
-761.75000000000045
 30
0.0
  0
VERTEX
  5
347
  8
DATA
  6
CONTINUOUS
 62
     7
 10
-973.31022375284181
 20
-761.75000000000045
 30
0.0
  0
VERTEX
  5
348
  8
DATA
  6
CONTINUOUS
 62
     7
 10
-973.31022375284181
 20
-764.35000000000025
 30
0.0
  0
SEQEND
  5
349
  8
DATA
  6
CONTINUOUS
 62
     7
  0
CIRCLE
  5
1D3
  8
DATA
  6
CONTINUOUS
 62
     7
 10
-918.96022375284224
 20
-765.00000000000045
 30
0.0
 40
4.5
  0
POLYLINE
  5
1D4
  8
DATA
  6
CONTINUOUS
 62
     7
 66
     1
 10
0.0
 20
0.0
 30
0.0
  0
VERTEX
  5
34A
  8
DATA
  6
CONTINUOUS
 62
     7
 10
-918.31022375284192
 20
-764.35000000000025
 30
0.0
  0
VERTEX
  5
34B
  8
DATA
  6
CONTINUOUS
 62
     7
 10
-915.71022375284213
 20
-764.35000000000025
 30
0.0
  0
VERTEX
  5
34C
  8
DATA
  6
CONTINUOUS
 62
     7
 10
-915.71022375284213
 20
-765.6500000000002
 30
0.0
  0
VERTEX
  5
34D
  8
DATA
  6
CONTINUOUS
 62
     7
 10
-918.31022375284192
 20
-765.6500000000002
 30
0.0
  0
SEQEND
  5
34E
  8
DATA
  6
CONTINUOUS
 62
     7
  0
POLYLINE
  5
1DB
  8
DATA
  6
CONTINUOUS
 62
     7
 66
     1
 10
0.0
 20
0.0
 30
0.0
  0
VERTEX
  5
34F
  8
DATA
  6
CONTINUOUS
 62
     7
 10
-919.61022375284244
 20
-765.6500000000002
 30
0.0
  0
VERTEX
  5
350
  8
DATA
  6
CONTINUOUS
 62
     7
 10
-922.21022375284235
 20
-765.6500000000002
 30
0.0
  0
VERTEX
  5
351
  8
DATA
  6
CONTINUOUS
 62
     7
 10
-922.21022375284235
 20
-764.35000000000025
 30
0.0
  0
VERTEX
  5
352
  8
DATA
  6
CONTINUOUS
 62
     7
 10
-919.61022375284244
 20
-764.35000000000025
 30
0.0
  0
SEQEND
  5
353
  8
DATA
  6
CONTINUOUS
 62
     7
  0
POLYLINE
  5
1E2
  8
DATA
  6
CONTINUOUS
 62
     7
 66
     1
 10
0.0
 20
0.0
 30
0.0
  0
VERTEX
  5
354
  8
DATA
  6
CONTINUOUS
 62
     7
 10
-918.31022375284192
 20
-765.6500000000002
 30
0.0
  0
VERTEX
  5
355
  8
DATA
  6
CONTINUOUS
 62
     7
 10
-918.31022375284192
 20
-768.25000000000045
 30
0.0
  0
VERTEX
  5
356
  8
DATA
  6
CONTINUOUS
 62
     7
 10
-919.61022375284244
 20
-768.25000000000045
 30
0.0
  0
VERTEX
  5
357
  8
DATA
  6
CONTINUOUS
 62
     7
 10
-919.61022375284244
 20
-765.6500000000002
 30
0.0
  0
SEQEND
  5
358
  8
DATA
  6
CONTINUOUS
 62
     7
  0
POLYLINE
  5
1E9
  8
DATA
  6
CONTINUOUS
 62
     7
 66
     1
 10
0.0
 20
0.0
 30
0.0
  0
VERTEX
  5
359
  8
DATA
  6
CONTINUOUS
 62
     7
 10
-919.61022375284244
 20
-764.35000000000025
 30
0.0
  0
VERTEX
  5
35A
  8
DATA
  6
CONTINUOUS
 62
     7
 10
-919.61022375284244
 20
-761.75000000000045
 30
0.0
  0
VERTEX
  5
35B
  8
DATA
  6
CONTINUOUS
 62
     7
 10
-918.31022375284192
 20
-761.75000000000045
 30
0.0
  0
VERTEX
  5
35C
  8
DATA
  6
CONTINUOUS
 62
     7
 10
-918.31022375284192
 20
-764.35000000000025
 30
0.0
  0
SEQEND
  5
35D
  8
DATA
  6
CONTINUOUS
 62
     7
  0
CIRCLE
  5
1F0
  8
DATA
  6
CONTINUOUS
 62
     7
 10
-918.96022375284224
 20
-835.00000000000011
 30
0.0
 40
4.5
  0
POLYLINE
  5
1F1
  8
DATA
  6
CONTINUOUS
 62
     7
 66
     1
 10
0.0
 20
0.0
 30
0.0
  0
VERTEX
  5
35E
  8
DATA
  6
CONTINUOUS
 62
     7
 10
-918.31022375284192
 20
-834.35000000000025
 30
0.0
  0
VERTEX
  5
35F
  8
DATA
  6
CONTINUOUS
 62
     7
 10
-915.71022375284213
 20
-834.35000000000025
 30
0.0
  0
VERTEX
  5
360
  8
DATA
  6
CONTINUOUS
 62
     7
 10
-915.71022375284213
 20
-835.6500000000002
 30
0.0
  0
VERTEX
  5
361
  8
DATA
  6
CONTINUOUS
 62
     7
 10
-918.31022375284192
 20
-835.6500000000002
 30
0.0
  0
SEQEND
  5
362
  8
DATA
  6
CONTINUOUS
 62
     7
  0
POLYLINE
  5
1F8
  8
DATA
  6
CONTINUOUS
 62
     7
 66
     1
 10
0.0
 20
0.0
 30
0.0
  0
VERTEX
  5
363
  8
DATA
  6
CONTINUOUS
 62
     7
 10
-919.61022375284244
 20
-835.6500000000002
 30
0.0
  0
VERTEX
  5
364
  8
DATA
  6
CONTINUOUS
 62
     7
 10
-922.21022375284235
 20
-835.6500000000002
 30
0.0
  0
VERTEX
  5
365
  8
DATA
  6
CONTINUOUS
 62
     7
 10
-922.21022375284235
 20
-834.35000000000025
 30
0.0
  0
VERTEX
  5
366
  8
DATA
  6
CONTINUOUS
 62
     7
 10
-919.61022375284244
 20
-834.35000000000025
 30
0.0
  0
SEQEND
  5
367
  8
DATA
  6
CONTINUOUS
 62
     7
  0
POLYLINE
  5
1FF
  8
DATA
  6
CONTINUOUS
 62
     7
 66
     1
 10
0.0
 20
0.0
 30
0.0
  0
VERTEX
  5
368
  8
DATA
  6
CONTINUOUS
 62
     7
 10
-918.31022375284192
 20
-835.6500000000002
 30
0.0
  0
VERTEX
  5
369
  8
DATA
  6
CONTINUOUS
 62
     7
 10
-918.31022375284192
 20
-838.25000000000023
 30
0.0
  0
VERTEX
  5
36A
  8
DATA
  6
CONTINUOUS
 62
     7
 10
-919.61022375284244
 20
-838.25000000000023
 30
0.0
  0
VERTEX
  5
36B
  8
DATA
  6
CONTINUOUS
 62
     7
 10
-919.61022375284244
 20
-835.6500000000002
 30
0.0
  0
SEQEND
  5
36C
  8
DATA
  6
CONTINUOUS
 62
     7
  0
POLYLINE
  5
206
  8
DATA
  6
CONTINUOUS
 62
     7
 66
     1
 10
0.0
 20
0.0
 30
0.0
  0
VERTEX
  5
36D
  8
DATA
  6
CONTINUOUS
 62
     7
 10
-919.61022375284244
 20
-834.35000000000025
 30
0.0
  0
VERTEX
  5
36E
  8
DATA
  6
CONTINUOUS
 62
     7
 10
-919.61022375284244
 20
-831.75
 30
0.0
  0
VERTEX
  5
36F
  8
DATA
  6
CONTINUOUS
 62
     7
 10
-918.31022375284192
 20
-831.75
 30
0.0
  0
VERTEX
  5
370
  8
DATA
  6
CONTINUOUS
 62
     7
 10
-918.31022375284192
 20
-834.35000000000025
 30
0.0
  0
SEQEND
  5
371
  8
DATA
  6
CONTINUOUS
 62
     7
  0
CIRCLE
  5
20D
  8
DATA
  6
CONTINUOUS
 62
     7
 10
-973.96022375284235
 20
-835.00000000000011
 30
0.0
 40
4.5
  0
POLYLINE
  5
20E
  8
DATA
  6
CONTINUOUS
 62
     7
 66
     1
 10
0.0
 20
0.0
 30
0.0
  0
VERTEX
  5
372
  8
DATA
  6
CONTINUOUS
 62
     7
 10
-973.31022375284181
 20
-834.35000000000025
 30
0.0
  0
VERTEX
  5
373
  8
DATA
  6
CONTINUOUS
 62
     7
 10
-970.71022375284224
 20
-834.35000000000025
 30
0.0
  0
VERTEX
  5
374
  8
DATA
  6
CONTINUOUS
 62
     7
 10
-970.71022375284224
 20
-835.6500000000002
 30
0.0
  0
VERTEX
  5
375
  8
DATA
  6
CONTINUOUS
 62
     7
 10
-973.31022375284181
 20
-835.6500000000002
 30
0.0
  0
SEQEND
  5
376
  8
DATA
  6
CONTINUOUS
 62
     7
  0
POLYLINE
  5
215
  8
DATA
  6
CONTINUOUS
 62
     7
 66
     1
 10
0.0
 20
0.0
 30
0.0
  0
VERTEX
  5
377
  8
DATA
  6
CONTINUOUS
 62
     7
 10
-974.61022375284244
 20
-835.6500000000002
 30
0.0
  0
VERTEX
  5
378
  8
DATA
  6
CONTINUOUS
 62
     7
 10
-977.21022375284224
 20
-835.6500000000002
 30
0.0
  0
VERTEX
  5
379
  8
DATA
  6
CONTINUOUS
 62
     7
 10
-977.21022375284224
 20
-834.35000000000025
 30
0.0
  0
VERTEX
  5
37A
  8
DATA
  6
CONTINUOUS
 62
     7
 10
-974.61022375284244
 20
-834.35000000000025
 30
0.0
  0
SEQEND
  5
37B
  8
DATA
  6
CONTINUOUS
 62
     7
  0
POLYLINE
  5
21C
  8
DATA
  6
CONTINUOUS
 62
     7
 66
     1
 10
0.0
 20
0.0
 30
0.0
  0
VERTEX
  5
37C
  8
DATA
  6
CONTINUOUS
 62
     7
 10
-973.31022375284181
 20
-835.6500000000002
 30
0.0
  0
VERTEX
  5
37D
  8
DATA
  6
CONTINUOUS
 62
     7
 10
-973.31022375284181
 20
-838.25000000000023
 30
0.0
  0
VERTEX
  5
37E
  8
DATA
  6
CONTINUOUS
 62
     7
 10
-974.61022375284244
 20
-838.25000000000023
 30
0.0
  0
VERTEX
  5
37F
  8
DATA
  6
CONTINUOUS
 62
     7
 10
-974.61022375284244
 20
-835.6500000000002
 30
0.0
  0
SEQEND
  5
380
  8
DATA
  6
CONTINUOUS
 62
     7
  0
POLYLINE
  5
223
  8
DATA
  6
CONTINUOUS
 62
     7
 66
     1
 10
0.0
 20
0.0
 30
0.0
  0
VERTEX
  5
381
  8
DATA
  6
CONTINUOUS
 62
     7
 10
-974.61022375284244
 20
-834.35000000000025
 30
0.0
  0
VERTEX
  5
382
  8
DATA
  6
CONTINUOUS
 62
     7
 10
-974.61022375284244
 20
-831.75
 30
0.0
  0
VERTEX
  5
383
  8
DATA
  6
CONTINUOUS
 62
     7
 10
-973.31022375284181
 20
-831.75
 30
0.0
  0
VERTEX
  5
384
  8
DATA
  6
CONTINUOUS
 62
     7
 10
-973.31022375284181
 20
-834.35000000000025
 30
0.0
  0
SEQEND
  5
385
  8
DATA
  6
CONTINUOUS
 62
     7
  0
CIRCLE
  5
22A
  8
DATA
  6
CONTINUOUS
 62
     7
 10
-883.98020636967465
 20
-800.00000000000011
 30
0.0
 40
4.5
  0
POLYLINE
  5
22B
  8
DATA
  6
CONTINUOUS
 62
     7
 66
     1
 10
0.0
 20
0.0
 30
0.0
  0
VERTEX
  5
386
  8
DATA
  6
CONTINUOUS
 62
     7
 10
-883.33020636967456
 20
-799.35000000000014
 30
0.0
  0
VERTEX
  5
387
  8
DATA
  6
CONTINUOUS
 62
     7
 10
-880.73020636967465
 20
-799.35000000000014
 30
0.0
  0
VERTEX
  5
388
  8
DATA
  6
CONTINUOUS
 62
     7
 10
-880.73020636967465
 20
-800.6500000000002
 30
0.0
  0
VERTEX
  5
389
  8
DATA
  6
CONTINUOUS
 62
     7
 10
-883.33020636967456
 20
-800.6500000000002
 30
0.0
  0
SEQEND
  5
38A
  8
DATA
  6
CONTINUOUS
 62
     7
  0
POLYLINE
  5
232
  8
DATA
  6
CONTINUOUS
 62
     7
 66
     1
 10
0.0
 20
0.0
 30
0.0
  0
VERTEX
  5
38B
  8
DATA
  6
CONTINUOUS
 62
     7
 10
-884.63020636967485
 20
-800.6500000000002
 30
0.0
  0
VERTEX
  5
38C
  8
DATA
  6
CONTINUOUS
 62
     7
 10
-887.23020636967465
 20
-800.6500000000002
 30
0.0
  0
VERTEX
  5
38D
  8
DATA
  6
CONTINUOUS
 62
     7
 10
-887.23020636967465
 20
-799.35000000000014
 30
0.0
  0
VERTEX
  5
38E
  8
DATA
  6
CONTINUOUS
 62
     7
 10
-884.63020636967485
 20
-799.35000000000014
 30
0.0
  0
SEQEND
  5
38F
  8
DATA
  6
CONTINUOUS
 62
     7
  0
POLYLINE
  5
239
  8
DATA
  6
CONTINUOUS
 62
     7
 66
     1
 10
0.0
 20
0.0
 30
0.0
  0
VERTEX
  5
390
  8
DATA
  6
CONTINUOUS
 62
     7
 10
-883.33020636967456
 20
-800.6500000000002
 30
0.0
  0
VERTEX
  5
391
  8
DATA
  6
CONTINUOUS
 62
     7
 10
-883.33020636967456
 20
-803.25
 30
0.0
  0
VERTEX
  5
392
  8
DATA
  6
CONTINUOUS
 62
     7
 10
-884.63020636967485
 20
-803.25
 30
0.0
  0
VERTEX
  5
393
  8
DATA
  6
CONTINUOUS
 62
     7
 10
-884.63020636967485
 20
-800.6500000000002
 30
0.0
  0
SEQEND
  5
394
  8
DATA
  6
CONTINUOUS
 62
     7
  0
POLYLINE
  5
240
  8
DATA
  6
CONTINUOUS
 62
     7
 66
     1
 10
0.0
 20
0.0
 30
0.0
  0
VERTEX
  5
395
  8
DATA
  6
CONTINUOUS
 62
     7
 10
-884.63020636967485
 20
-799.35000000000014
 30
0.0
  0
VERTEX
  5
396
  8
DATA
  6
CONTINUOUS
 62
     7
 10
-884.63020636967485
 20
-796.75000000000011
 30
0.0
  0
VERTEX
  5
397
  8
DATA
  6
CONTINUOUS
 62
     7
 10
-883.33020636967456
 20
-796.75000000000011
 30
0.0
  0
VERTEX
  5
398
  8
DATA
  6
CONTINUOUS
 62
     7
 10
-883.33020636967456
 20
-799.35000000000014
 30
0.0
  0
SEQEND
  5
399
  8
DATA
  6
CONTINUOUS
 62
     7
  0
CIRCLE
  5
247
  8
DATA
  6
CONTINUOUS
 62
     7
 10
-1007.598738883848
 20
-800.00000000000011
 30
0.0
 40
4.5
  0
POLYLINE
  5
248
  8
DATA
  6
CONTINUOUS
 62
     7
 66
     1
 10
0.0
 20
0.0
 30
0.0
  0
VERTEX
  5
39A
  8
DATA
  6
CONTINUOUS
 62
     7
 10
-1006.948738883848
 20
-799.35000000000014
 30
0.0
  0
VERTEX
  5
39B
  8
DATA
  6
CONTINUOUS
 62
     7
 10
-1004.348738883849
 20
-799.35000000000014
 30
0.0
  0
VERTEX
  5
39C
  8
DATA
  6
CONTINUOUS
 62
     7
 10
-1004.348738883849
 20
-800.6500000000002
 30
0.0
  0
VERTEX
  5
39D
  8
DATA
  6
CONTINUOUS
 62
     7
 10
-1006.948738883848
 20
-800.6500000000002
 30
0.0
  0
SEQEND
  5
39E
  8
DATA
  6
CONTINUOUS
 62
     7
  0
POLYLINE
  5
24F
  8
DATA
  6
CONTINUOUS
 62
     7
 66
     1
 10
0.0
 20
0.0
 30
0.0
  0
VERTEX
  5
39F
  8
DATA
  6
CONTINUOUS
 62
     7
 10
-1008.248738883849
 20
-800.6500000000002
 30
0.0
  0
VERTEX
  5
3A0
  8
DATA
  6
CONTINUOUS
 62
     7
 10
-1010.848738883848
 20
-800.6500000000002
 30
0.0
  0
VERTEX
  5
3A1
  8
DATA
  6
CONTINUOUS
 62
     7
 10
-1010.848738883848
 20
-799.35000000000014
 30
0.0
  0
VERTEX
  5
3A2
  8
DATA
  6
CONTINUOUS
 62
     7
 10
-1008.248738883849
 20
-799.35000000000014
 30
0.0
  0
SEQEND
  5
3A3
  8
DATA
  6
CONTINUOUS
 62
     7
  0
POLYLINE
  5
256
  8
DATA
  6
CONTINUOUS
 62
     7
 66
     1
 10
0.0
 20
0.0
 30
0.0
  0
VERTEX
  5
3A4
  8
DATA
  6
CONTINUOUS
 62
     7
 10
-1006.948738883848
 20
-800.6500000000002
 30
0.0
  0
VERTEX
  5
3A5
  8
DATA
  6
CONTINUOUS
 62
     7
 10
-1006.948738883848
 20
-803.25
 30
0.0
  0
VERTEX
  5
3A6
  8
DATA
  6
CONTINUOUS
 62
     7
 10
-1008.248738883849
 20
-803.25
 30
0.0
  0
VERTEX
  5
3A7
  8
DATA
  6
CONTINUOUS
 62
     7
 10
-1008.248738883849
 20
-800.6500000000002
 30
0.0
  0
SEQEND
  5
3A8
  8
DATA
  6
CONTINUOUS
 62
     7
  0
POLYLINE
  5
25D
  8
DATA
  6
CONTINUOUS
 62
     7
 66
     1
 10
0.0
 20
0.0
 30
0.0
  0
VERTEX
  5
3A9
  8
DATA
  6
CONTINUOUS
 62
     7
 10
-1008.248738883849
 20
-799.35000000000014
 30
0.0
  0
VERTEX
  5
3AA
  8
DATA
  6
CONTINUOUS
 62
     7
 10
-1008.248738883849
 20
-796.75000000000011
 30
0.0
  0
VERTEX
  5
3AB
  8
DATA
  6
CONTINUOUS
 62
     7
 10
-1006.948738883848
 20
-796.75000000000011
 30
0.0
  0
VERTEX
  5
3AC
  8
DATA
  6
CONTINUOUS
 62
     7
 10
-1006.948738883848
 20
-799.35000000000014
 30
0.0
  0
SEQEND
  5
3AD
  8
DATA
  6
CONTINUOUS
 62
     7
  0
CIRCLE
  5
264
  8
DATA
  6
CONTINUOUS
 62
     7
 10
-918.83834028514809
 20
-800.0
 30
0.0
 40
18.0
  0
CIRCLE
  5
265
  8
DATA
  6
CONTINUOUS
 62
     7
 10
-973.83834028514821
 20
-800.0
 30
0.0
 40
18.0
  0
ARC
  5
266
  8
DATA
  6
CONTINUOUS
 62
     7
 10
-925.02129678605274
 20
-800.0
 30
0.0
 40
18.0
 50
279.88951308665918
 51
80.110486913340566
  0
LINE
  5
267
  8
DATA
  6
CONTINUOUS
 62
     7
 10
-810.0
 20
-600.7306195127577
 30
0.0
 11
-1005.303448853971
 21
-600.7306195127577
 31
0.0
  0
LINE
  5
268
  8
DATA
  6
CONTINUOUS
 62
     7
 10
-1005.303448853971
 20
-1000.730619512758
 30
0.0
 11
-810.0
 21
-1000.730619512758
 31
0.0
  0
LINE
  5
269
  8
DATA
  6
CONTINUOUS
 62
     7
 10
-800.0
 20
-990.73061951275758
 30
0.0
 11
-800.0
 21
-610.7306195127577
 31
0.0
  0
ARC
  5
26A
  8
DATA
  6
CONTINUOUS
 62
     7
 10
-810.0
 20
-610.7306195127577
 30
0.0
 40
10.0
 50
0.0
 51
90.0
  0
ARC
  5
26B
  8
DATA
  6
CONTINUOUS
 62
     7
 10
-810.0
 20
-990.73061951275758
 30
0.0
 40
10.0
 50
270.0
 51
0.0
  0
LINE
  5
26C
  8
DATA
  6
CONTINUOUS
 62
     7
 10
-1013.963702891815
 20
-605.73061951275758
 30
0.0
 11
-1123.660254037844
 21
-795.7306195127577
 31
0.0
  0
LINE
  5
26D
  8
DATA
  6
CONTINUOUS
 62
     7
 10
-1013.963702891815
 20
-995.7306195127577
 30
0.0
 11
-1123.660254037844
 21
-805.73061951275758
 31
0.0
  0
ARC
  5
26E
  8
DATA
  6
CONTINUOUS
 62
     7
 10
-1115.0
 20
-800.7306195127577
 30
0.0
 40
10.00000000000003
 50
150.00000000000011
 51
210.0
  0
ARC
  5
26F
  8
DATA
  6
CONTINUOUS
 62
     7
 10
-1005.303448853971
 20
-610.7306195127577
 30
0.0
 40
10.0
 50
90.0
 51
150.00000000000011
  0
ARC
  5
270
  8
DATA
  6
CONTINUOUS
 62
     7
 10
-1005.303448853971
 20
-990.73061951275758
 30
0.0
 40
10.00000000000003
 50
210.0
 51
270.0
  0
LINE
  5
271
  8
DATA
  6
CONTINUOUS
 62
     7
 10
-495.0
 20
-400.0
 30
0.0
 11
66.0
 21
-400.0
 31
0.0
  0
LINE
  5
272
  8
DATA
  6
CONTINUOUS
 62
     7
 10
-500.0
 20
-188.9230484541329
 30
0.0
 11
71.0
 21
-188.9230484541329
 31
0.0
  0
LINE
  5
273
  8
DATA
  6
CONTINUOUS
 62
     7
 10
-500.0
 20
-80.0
 30
0.0
 11
-500.0
 21
-395.0
 31
0.0
  0
LINE
  5
274
  8
DATA
  6
CONTINUOUS
 62
     7
 10
66.0
 20
-75.0
 30
0.0
 11
-495.0
 21
-75.0
 31
0.0
  0
LINE
  5
275
  8
DATA
  6
CONTINUOUS
 62
     7
 10
71.0
 20
-395.0
 30
0.0
 11
71.0
 21
-80.0
 31
0.0
  0
ARC
  5
276
  8
DATA
  6
CONTINUOUS
 62
     7
 10
66.0
 20
-395.0
 30
0.0
 40
5.0
 50
270.0
 51
0.0
  0
ARC
  5
277
  8
DATA
  6
CONTINUOUS
 62
     7
 10
66.0
 20
-80.0
 30
0.0
 40
5.0
 50
0.0
 51
90.0
  0
ARC
  5
278
  8
DATA
  6
CONTINUOUS
 62
     7
 10
-495.0
 20
-395.0
 30
0.0
 40
5.0
 50
180.0
 51
270.0
  0
ARC
  5
279
  8
DATA
  6
CONTINUOUS
 62
     7
 10
-495.0
 20
-80.0
 30
0.0
 40
5.0
 50
90.0
 51
180.0
  0
LINE
  5
27A
  8
DATA
  6
CONTINUOUS
 62
     7
 10
-510.1990074380418
 20
-347.5199007438041
 30
0.0
 11
-500.0
 21
-346.5
 31
0.0
  0
LINE
  5
27B
  8
DATA
  6
CONTINUOUS
 62
     7
 10
-510.0
 20
-382.5
 30
0.0
 11
-510.0
 21
-347.5
 31
0.0
  0
LINE
  5
27C
  8
DATA
  6
CONTINUOUS
 62
     7
 10
-512.0
 20
-380.49002487577582
 30
0.0
 11
-512.0
 21
-349.50997512422418
 31
0.0
  0
LINE
  5
27D
  8
DATA
  6
CONTINUOUS
 62
     7
 10
-500.0
 20
-383.5
 30
0.0
 11
-510.1990074380418
 21
-382.4800992561959
 31
0.0
  0
ARC
  5
27E
  8
DATA
  6
CONTINUOUS
 62
     7
 10
-510.0
 20
-349.50997512422418
 30
0.0
 40
2.000000000000095
 50
95.710593137497099
 51
180.0
  0
ARC
  5
27F
  8
DATA
  6
CONTINUOUS
 62
     7
 10
-510.0
 20
-380.49002487577582
 30
0.0
 40
2.0
 50
180.0
 51
264.28940686250297
  0
LINE
  5
280
  8
DATA
  6
CONTINUOUS
 62
     7
 10
-510.1990074380418
 20
-91.058661718288917
 30
0.0
 11
-500.0
 21
-90.038760974484831
 31
0.0
  0
LINE
  5
281
  8
DATA
  6
CONTINUOUS
 62
     7
 10
-510.0
 20
-126.0387609744848
 30
0.0
 11
-510.0
 21
-91.038760974484845
 31
0.0
  0
LINE
  5
282
  8
DATA
  6
CONTINUOUS
 62
     7
 10
-512.0
 20
-124.0287858502606
 30
0.0
 11
-512.0
 21
-93.048736098708986
 31
0.0
  0
LINE
  5
283
  8
DATA
  6
CONTINUOUS
 62
     7
 10
-500.0
 20
-127.0387609744848
 30
0.0
 11
-510.1990074380418
 21
-126.0188602306807
 31
0.0
  0
ARC
  5
284
  8
DATA
  6
CONTINUOUS
 62
     7
 10
-510.0
 20
-93.048736098708986
 30
0.0
 40
2.000000000000095
 50
95.710593137497099
 51
180.0
  0
ARC
  5
285
  8
DATA
  6
CONTINUOUS
 62
     7
 10
-510.0
 20
-124.0287858502606
 30
0.0
 40
2.0
 50
180.0
 51
264.28940686250297
  0
ENDSEC
  0
EOF
