  0
SECTION
  2
HEADER
  9
$ACADVER
  1
AC1009
  9
$INSBASE
 10
0.0
 20
0.0
 30
0.0
  9
$EXTMIN
 10
-1350.0823911746061
 20
-2014.6849778984381
 30
-0.0015258207003583
  9
$EXTMAX
 10
1350.0824037474611
 20
1999.567671355127
 30
0.0000000349246037
  9
$LIMMIN
 10
0.0
 20
0.0
  9
$LIMMAX
 10
0.0
 20
0.0
  9
$ORTHOMODE
 70
     0
  9
$REGENMODE
 70
     1
  9
$FILLMODE
 70
     1
  9
$QTEXTMODE
 70
     0
  9
$MIRRTEXT
 70
     1
  9
$DRAGMODE
 70
     2
  9
$LTSCALE
 40
76.200000000000003
  9
$OSMODE
 70
   231
  9
$ATTMODE
 70
     1
  9
$TEXTSIZE
 40
0.0
  9
$TRACEWID
 40
1.0
  9
$TEXTSTYLE
  7
STANDARD
  9
$CLAYER
  8
DATA
  9
$CELTYPE
  6
BYLAYER
  9
$CECOLOR
 62
   256
  9
$DIMSCALE
 40
1.0
  9
$DIMASZ
 40
0.18
  9
$DIMEXO
 40
0.0625
  9
$DIMDLI
 40
0.38
  9
$DIMRND
 40
0.0
  9
$DIMDLE
 40
0.0
  9
$DIMEXE
 40
0.18
  9
$DIMTP
 40
0.0
  9
$DIMTM
 40
0.0
  9
$DIMTXT
 40
0.18
  9
$DIMCEN
 40
0.09
  9
$DIMTSZ
 40
0.0
  9
$DIMTOL
 70
     0
  9
$DIMLIM
 70
     0
  9
$DIMTIH
 70
     1
  9
$DIMTOH
 70
     1
  9
$DIMSE1
 70
     0
  9
$DIMSE2
 70
     0
  9
$DIMTAD
 70
     0
  9
$DIMZIN
 70
     0
  9
$DIMBLK
  1

  9
$DIMASO
 70
     1
  9
$DIMSHO
 70
     1
  9
$DIMPOST
  1

  9
$DIMAPOST
  1

  9
$DIMALT
 70
     0
  9
$DIMALTD
 70
     2
  9
$DIMALTF
 40
25.399999999999999
  9
$DIMLFAC
 40
1.0
  9
$DIMTOFL
 70
     0
  9
$DIMTVP
 40
0.0
  9
$DIMTIX
 70
     0
  9
$DIMSOXD
 70
     0
  9
$DIMSAH
 70
     0
  9
$DIMBLK1
  1

  9
$DIMBLK2
  1

  9
$DIMSTYLE
  2
STANDARD
  9
$DIMCLRD
 70
     0
  9
$DIMCLRE
 70
     0
  9
$DIMCLRT
 70
     0
  9
$DIMTFAC
 40
1.0
  9
$DIMGAP
 40
0.09
  9
$LUNITS
 70
     2
  9
$LUPREC
 70
     4
  9
$SKETCHINC
 40
0.1
  9
$FILLETRAD
 40
0.0
  9
$AUNITS
 70
     0
  9
$AUPREC
 70
     0
  9
$MENU
  1
acad
  9
$ELEVATION
 40
0.0
  9
$PELEVATION
 40
0.0
  9
$THICKNESS
 40
0.0
  9
$LIMCHECK
 70
     0
  9
$BLIPMODE
 70
     0
  9
$CHAMFERA
 40
0.0
  9
$CHAMFERB
 40
0.0
  9
$SKPOLY
 70
     0
  9
$TDCREATE
 40
2456693.7594675929
  9
$TDUPDATE
 40
2456693.7677237159
  9
$TDINDWG
 40
0.0003568634
  9
$TDUSRTIMER
 40
0.0003567824
  9
$USRTIMER
 70
     1
  9
$ANGBASE
 50
0.0
  9
$ANGDIR
 70
     0
  9
$PDMODE
 70
     1
  9
$PDSIZE
 40
-2.0
  9
$PLINEWID
 40
0.0
  9
$COORDS
 70
     2
  9
$SPLFRAME
 70
     0
  9
$SPLINETYPE
 70
     6
  9
$SPLINESEGS
 70
     8
  9
$ATTDIA
 70
     0
  9
$ATTREQ
 70
     1
  9
$HANDLING
 70
     1
  9
$HANDSEED
  5
40D
  9
$SURFTAB1
 70
     6
  9
$SURFTAB2
 70
     6
  9
$SURFTYPE
 70
     6
  9
$SURFU
 70
     6
  9
$SURFV
 70
     6
  9
$UCSNAME
  2

  9
$UCSORG
 10
0.0
 20
0.0
 30
0.0
  9
$UCSXDIR
 10
1.0
 20
0.0
 30
0.0
  9
$UCSYDIR
 10
0.0
 20
1.0
 30
0.0
  9
$PUCSNAME
  2

  9
$PUCSORG
 10
0.0
 20
0.0
 30
0.0
  9
$PUCSXDIR
 10
1.0
 20
0.0
 30
0.0
  9
$PUCSYDIR
 10
0.0
 20
1.0
 30
0.0
  9
$USERI1
 70
     0
  9
$USERI2
 70
     0
  9
$USERI3
 70
     0
  9
$USERI4
 70
     0
  9
$USERI5
 70
     0
  9
$USERR1
 40
0.0
  9
$USERR2
 40
0.0
  9
$USERR3
 40
0.0
  9
$USERR4
 40
0.0
  9
$USERR5
 40
0.0
  9
$WORLDVIEW
 70
     1
  9
$SHADEDGE
 70
     3
  9
$SHADEDIF
 70
    70
  9
$TILEMODE
 70
     1
  9
$MAXACTVP
 70
    64
  9
$PLIMCHECK
 70
     0
  9
$PEXTMIN
 10
1.0000000000000000E+020
 20
1.0000000000000000E+020
 30
1.0000000000000000E+020
  9
$PEXTMAX
 10
-1.0000000000000000E+020
 20
-1.0000000000000000E+020
 30
-1.0000000000000000E+020
  9
$PLIMMIN
 10
0.0
 20
0.0
  9
$PLIMMAX
 10
12.0
 20
9.0
  9
$UNITMODE
 70
     0
  9
$VISRETAIN
 70
     0
  9
$PLINEGEN
 70
     1
  9
$PSLTSCALE
 70
     0
  0
ENDSEC
  0
SECTION
  2
TABLES
  0
TABLE
  2
VPORT
 70
     1
  0
VPORT
  2
*ACTIVE
 70
     0
 10
0.0
 20
0.0
 11
1.0
 21
1.0
 12
0.0000062864282881
 22
-3.531805672908376
 13
0.0
 23
0.0
 14
1.0
 24
1.0
 15
0.0
 25
0.0
 16
0.0
 26
0.0
 36
1.0
 17
0.0
 27
0.0
 37
0.0
 40
4037.7438277100559
 41
2.1787122207621552
 42
50.0
 43
0.0
 44
0.0
 50
0.0
 51
0.0
 71
     0
 72
  2000
 73
     1
 74
     1
 75
     0
 76
     0
 77
     0
 78
     0
  0
ENDTAB
  0
TABLE
  2
LTYPE
 70
    11
  0
LTYPE
  2
CONTINUOUS
 70
     0
  3
Solid line
 72
    65
 73
     0
 40
0.0
  0
ENDTAB
  0
TABLE
  2
LAYER
 70
     5
  0
LAYER
  2
0
 70
     0
 62
     7
  6
CONTINUOUS
  0
LAYER
  2
DATA
 70
     0
 62
     7
  6
CONTINUOUS
  0
LAYER
  2
HIBINO-BASE
 70
     0
 62
     7
  6
CONTINUOUS
  0
LAYER
  2
SPEC
 70
     0
 62
     7
  6
CONTINUOUS
  0
LAYER
  2
DIMNSIONS
 70
     0
 62
     7
  6
CONTINUOUS
  0
ENDTAB
  0
TABLE
  2
STYLE
 70
     3
  0
STYLE
  2
STANDARD
 70
     0
 40
0.0
 41
1.0
 50
0.0
 71
     0
 42
0.0
  3
txt
  4
BIGFONT.SHX
  0
ENDTAB
  0
TABLE
  2
VIEW
 70
     0
  0
ENDTAB
  0
TABLE
  2
UCS
 70
     0
  0
ENDTAB
  0
TABLE
  2
APPID
 70
     4
  0
APPID
  2
ACAD
 70
     0
  0
APPID
  2
ACADANNOTATIVE
 70
     0
  0
APPID
  2
ACAD_NAV_VCDISPLAY
 70
     0
  0
APPID
  2
ACAD_MLEADERVER
 70
     0
  0
ENDTAB
  0
TABLE
  2
DIMSTYLE
 70
     2
  0
DIMSTYLE
  2
STANDARD
 70
     0
  3

  4

  5

  6

  7

 40
1.0
 41
0.18
 42
0.0625
 43
0.38
 44
0.18
 45
0.0
 46
0.0
 47
0.0
 48
0.0
140
0.18
141
0.09
142
0.0
143
25.399999999999999
144
1.0
145
0.0
146
1.0
147
0.09
 71
     0
 72
     0
 73
     1
 74
     1
 75
     0
 76
     0
 77
     0
 78
     0
170
     0
171
     2
172
     0
173
     0
174
     0
175
     0
176
     0
177
     0
178
     0
  0
ENDTAB
  0
ENDSEC
  0
SECTION
  2
BLOCKS
  0
BLOCK
  8
0
  2
$MODEL_SPACE
 70
     0
 10
0.0
 20
0.0
 30
0.0
  3
$MODEL_SPACE
  1

  0
ENDBLK
  5
316
  8
0
  0
BLOCK
 67
     1
  8
0
  2
$PAPER_SPACE
 70
     0
 10
0.0
 20
0.0
 30
0.0
  3
$PAPER_SPACE
  1

  0
ENDBLK
  5
312
 67
     1
  8
0
  0
ENDSEC
  0
SECTION
  2
ENTITIES
  0
LINE
  5
2C
  8
HIBINO-BASE
  6
CONTINUOUS
 62
     7
 10
-1350.0
 20
1999.44541
 30
0.0
 11
1350.0
 21
1999.44541
 31
0.0
  0
LINE
  5
2D
  8
HIBINO-BASE
  6
CONTINUOUS
 62
     7
 10
1350.0
 20
-1900.5545900000011
 30
0.0
 11
-1350.0
 21
-1900.5545900000011
 31
0.0
  0
LINE
  5
2E
  8
HIBINO-BASE
  6
CONTINUOUS
 62
     7
 10
-1350.0
 20
-1900.5545900000011
 30
0.0
 11
-1350.0
 21
1999.44541
 31
0.0
  0
LINE
  5
2F
  8
HIBINO-BASE
  6
CONTINUOUS
 62
     7
 10
1350.0
 20
1999.44541
 30
0.0
 11
1350.0
 21
-1900.5545900000011
 31
0.0
  0
LINE
  5
30
  8
HIBINO-BASE
  6
CONTINUOUS
 62
     7
 10
0.0000000000001066
 20
-1563.0545900000011
 30
0.0
 11
1350.0
 21
-1563.0545900000011
 31
0.0
  0
LINE
  5
31
  8
HIBINO-BASE
  6
CONTINUOUS
 62
     7
 10
0.0000000000001066
 20
-1900.5545900000011
 30
0.0
 11
0.0000000000001066
 21
-1563.0545900000011
 31
0.0
  0
TEXT
  5
32
  8
HIBINO-BASE
 62
     7
 10
13.50000000000019
 20
-1600.68499
 30
0.0
 40
24.4326171875
  1
NOTE
 41
0.7
 11
13.50000000000019
 21
-1576.2523728125
 31
0.0
 73
     3
  0
LINE
  5
33
  8
HIBINO-BASE
  6
CONTINUOUS
 62
     7
 10
525.00000000000034
 20
-1900.5545900000011
 30
0.0
 11
525.00000000000034
 21
-1563.0545900000011
 31
0.0
  0
TEXT
  5
34
  8
HIBINO-BASE
 62
     7
 10
538.49999999999989
 20
-1600.68499
 30
0.0
 40
24.4326171875
  1
TITLE
 41
0.7
 11
538.49999999999989
 21
-1576.2523728125
 31
0.0
 73
     3
  0
LINE
  5
35
  8
HIBINO-BASE
  6
CONTINUOUS
 62
     7
 10
0.0000000000001066
 20
-1750.5545900000011
 30
0.0
 11
1350.0
 21
-1750.5545900000011
 31
0.0
  0
TEXT
  5
36
  8
HIBINO-BASE
 62
     7
 10
726.0
 20
-1787.3401899999999
 30
0.0
 40
24.4326171875
  1
DRAWN
 41
0.7
 11
726.0
 21
-1762.9075728124999
 31
0.0
 73
     3
  0
TEXT
  5
37
  8
HIBINO-BASE
 62
     7
 10
351.0
 20
-1787.3401899999999
 30
0.0
 40
24.4326171875
  1
DATE
 41
0.7
 11
351.0
 21
-1762.9075728124999
 31
0.0
 73
     3
  0
TEXT
  5
38
  8
HIBINO-BASE
 62
     7
 10
201.0
 20
-1787.3401899999999
 30
0.0
 40
24.4326171875
  1
SCALE
 41
0.7
 11
201.0
 21
-1762.9075728124999
 31
0.0
 73
     3
  0
TEXT
  5
39
  8
HIBINO-BASE
 62
     7
 10
538.49999999999989
 20
-1787.3401899999999
 30
0.0
 40
24.4326171875
  1
DESIGN
 41
0.7
 11
538.49999999999989
 21
-1762.9075728124999
 31
0.0
 73
     3
  0
TEXT
  5
3A
  8
HIBINO-BASE
 62
     7
 10
1100.9999999999991
 20
-1787.3401899999999
 30
0.0
 40
24.4326171875
  1
DRAWING NO.
 41
0.7
 11
1100.9999999999991
 21
-1762.9075728124999
 31
0.0
 73
     3
  0
TEXT
  5
3B
  8
HIBINO-BASE
 62
     7
 10
913.49999999999989
 20
-1787.3401899999999
 30
0.0
 40
24.4326171875
  1
CHECK
 41
0.7
 11
913.49999999999989
 21
-1762.9075728124999
 31
0.0
 73
     3
  0
LINE
  5
3C
  8
HIBINO-BASE
  6
CONTINUOUS
 62
     7
 10
215.62500000000011
 20
-1881.8045900000011
 30
0.0
 11
271.8750000000004
 21
-1825.5545900000011
 31
0.0
  0
TEXT
  5
3D
  8
HIBINO-BASE
 62
     7
 10
206.25000000000011
 20
-1842.1887400000001
 30
0.0
 40
24.4326171875
  1
1
 41
0.7
 11
206.25000000000011
 21
-1817.7561228125001
 31
0.0
 73
     3
  0
LINE
  5
3E
  8
HIBINO-BASE
  6
CONTINUOUS
 62
     7
 10
187.50000000000011
 20
-1900.5545900000011
 30
0.0
 11
187.50000000000011
 21
-1750.5545900000011
 31
0.0
  0
LINE
  5
3F
  8
HIBINO-BASE
  6
CONTINUOUS
 62
     7
 10
337.49999999999989
 20
-1900.5545900000011
 30
0.0
 11
337.49999999999989
 21
-1750.5545900000011
 31
0.0
  0
LINE
  5
40
  8
HIBINO-BASE
  6
CONTINUOUS
 62
     7
 10
712.49999999999955
 20
-1750.5545900000011
 30
0.0
 11
712.49999999999955
 21
-1900.5545900000011
 31
0.0
  0
LINE
  5
41
  8
HIBINO-BASE
  6
CONTINUOUS
 62
     7
 10
1087.5
 20
-1750.5545900000011
 30
0.0
 11
1087.5
 21
-1900.5545900000011
 31
0.0
  0
LINE
  5
42
  8
HIBINO-BASE
  6
CONTINUOUS
 62
     7
 10
899.99999999999955
 20
-1900.5545900000011
 30
0.0
 11
899.99999999999955
 21
-1750.5545900000011
 31
0.0
  0
TEXT
  5
43
  8
HIBINO-BASE
 62
     7
 10
350.34810000000022
 20
-1857.59989
 30
0.0
 40
24.4326171875
  1
'14.01.
 41
0.7
 11
350.34810000000022
 21
-1833.1672728125
 31
0.0
 73
     3
  0
TEXT
  5
44
  8
HIBINO-BASE
 62
     7
 10
262.5
 20
-1870.3137400000001
 30
0.0
 40
24.4326171875
  1
15
 41
0.7
 11
262.5
 21
-1845.8811228125001
 31
0.0
 73
     3
  0
TEXT
  5
45
  8
HIBINO-BASE
 62
     7
 10
735.08715016551935
 20
-1857.59989
 30
0.0
 40
24.4326171875
  1
N.Sasaki
 41
0.7
 11
735.08715016551935
 21
-1833.1672728125
 31
0.0
 73
     3
  0
TEXT
  5
46
  8
HIBINO-BASE
 62
     7
 10
58.250000000000412
 20
-1870.9145900000001
 30
0.0
 40
48.865234374999993
  1
A4
 41
0.7
 11
58.250000000000412
 21
-1822.0493556250001
 31
0.0
 73
     3
  0
TEXT
  5
47
  8
HIBINO-BASE
 62
     7
 10
14.37500000000003
 20
-1789.846415
 30
0.0
 40
24.4326171875
  1
PAPER SIZE
 41
0.7
 11
14.37500000000003
 21
-1765.4137978125
 31
0.0
 73
     3
  0
TEXT
  5
48
  8
HIBINO-BASE
 62
     7
 10
-1242.24
 20
-1996.684757
 30
0.0
 40
54.000662695312492
  1
Hibino Corporation
 41
0.7
 11
-1242.24
 21
-1942.684094304688
 31
0.0
 73
     3
  0
TEXT
  5
49
  8
HIBINO-BASE
 62
     7
 10
751.02584999999999
 20
-1996.684757
 30
0.0
 40
54.000662695312492
  1
ヒビノ株式会社
 41
0.7
 11
751.02584999999999
 21
-1942.684094304688
 31
0.0
 73
     3
  0
LINE
  5
4A
  8
SPEC
  6
CONTINUOUS
 62
     7
 10
-1237.5
 20
1849.44541
 30
0.0
 11
975.00000000000034
 21
1849.44541
 31
0.0
  0
LINE
  5
4B
  8
SPEC
  6
CONTINUOUS
 62
     7
 10
-1237.5
 20
1793.1954099999989
 30
0.0
 11
975.00000000000034
 21
1793.1954099999989
 31
0.0
  0
LINE
  5
4C
  8
SPEC
  6
CONTINUOUS
 62
     7
 10
-1237.5
 20
1849.44541
 30
0.0
 11
-1237.5
 21
1061.9454099999989
 31
0.0
  0
TEXT
  5
4D
  8
SPEC
 62
     7
 10
-1218.75
 20
1870.3444599999989
 30
0.0
 40
36.64892578125
  1
仕様
 41
0.7
 11
-1218.75
 21
1906.9933857812489
 31
0.0
 73
     3
  0
LINE
  5
4E
  8
SPEC
  6
CONTINUOUS
 62
     7
 10
-750.0
 20
1849.44541
 30
0.0
 11
-750.0
 21
1061.9454099999989
 31
0.0
  0
LINE
  5
4F
  8
SPEC
  6
CONTINUOUS
 62
     7
 10
975.00000000000034
 20
1849.44541
 30
0.0
 11
975.00000000000034
 21
1061.9454099999989
 31
0.0
  0
TEXT
  5
50
  8
SPEC
 62
     7
 10
-1224.0
 20
1130.0141766666659
 30
0.0
 40
28.504720052083339
  1
寸法(W\U+00D7H\U+00D7D)
 41
0.7
 11
-1224.0
 21
1158.5188967187489
 31
0.0
 73
     3
  0
TEXT
  5
51
  8
SPEC
 62
     7
 10
-1224.0
 20
1073.7641766666659
 30
0.0
 40
28.504720052083339
  1
質量
 41
0.7
 11
-1224.0
 21
1102.2688967187489
 31
0.0
 73
     3
  0
LINE
  5
52
  8
SPEC
  6
CONTINUOUS
 62
     7
 10
-1237.5
 20
1736.9454099999989
 30
0.0
 11
975.00000000000034
 21
1736.9454099999989
 31
0.0
  0
LINE
  5
53
  8
SPEC
  6
CONTINUOUS
 62
     7
 10
-1237.5
 20
1680.6954099999989
 30
0.0
 11
975.00000000000034
 21
1680.6954099999989
 31
0.0
  0
LINE
  5
54
  8
SPEC
  6
CONTINUOUS
 62
     7
 10
-1237.5
 20
1624.4454099999989
 30
0.0
 11
975.00000000000034
 21
1624.4454099999989
 31
0.0
  0
LINE
  5
55
  8
SPEC
  6
CONTINUOUS
 62
     7
 10
-1237.5
 20
1568.1954099999989
 30
0.0
 11
975.00000000000034
 21
1568.1954099999989
 31
0.0
  0
LINE
  5
56
  8
SPEC
  6
CONTINUOUS
 62
     7
 10
-1237.5
 20
1511.9454099999989
 30
0.0
 11
975.00000000000034
 21
1511.9454099999989
 31
0.0
  0
LINE
  5
57
  8
SPEC
  6
CONTINUOUS
 62
     7
 10
-1237.5
 20
1455.6954099999989
 30
0.0
 11
975.00000000000034
 21
1455.6954099999989
 31
0.0
  0
LINE
  5
58
  8
SPEC
  6
CONTINUOUS
 62
     7
 10
-900.0
 20
1399.4454099999989
 30
0.0
 11
975.00000000000034
 21
1399.4454099999989
 31
0.0
  0
LINE
  5
59
  8
SPEC
  6
CONTINUOUS
 62
     7
 10
-1237.5
 20
1343.19541
 30
0.0
 11
975.00000000000034
 21
1343.19541
 31
0.0
  0
LINE
  5
5A
  8
SPEC
  6
CONTINUOUS
 62
     7
 10
-1237.5
 20
1286.9454099999989
 30
0.0
 11
975.00000000000034
 21
1286.9454099999989
 31
0.0
  0
LINE
  5
5B
  8
SPEC
  6
CONTINUOUS
 62
     7
 10
-1237.5
 20
1230.69541
 30
0.0
 11
975.00000000000034
 21
1230.69541
 31
0.0
  0
LINE
  5
5C
  8
SPEC
  6
CONTINUOUS
 62
     7
 10
-1237.5
 20
1174.4454099999989
 30
0.0
 11
975.00000000000034
 21
1174.4454099999989
 31
0.0
  0
LINE
  5
5D
  8
SPEC
  6
CONTINUOUS
 62
     7
 10
-1237.5
 20
1118.1954099999989
 30
0.0
 11
975.00000000000034
 21
1118.1954099999989
 31
0.0
  0
LINE
  5
5E
  8
SPEC
  6
CONTINUOUS
 62
     7
 10
-1237.5
 20
1061.9454099999989
 30
0.0
 11
975.00000000000034
 21
1061.9454099999989
 31
0.0
  0
TEXT
  5
5F
  8
SPEC
 62
     7
 10
-1200.0
 20
986.66499999999985
 30
0.0
 40
28.504720052083329
  1
※ IEC ピンクノイズ、クレストファクタ ー6dB、100時間
 41
0.7
 11
-1200.0
 21
1015.169720052083
 31
0.0
 73
     3
  0
TEXT
  5
60
  8
SPEC
 62
     7
 10
-1224.0
 20
1805.0141766666659
 30
0.0
 40
28.504720052083329
  1
形式
 41
0.7
 11
-1224.0
 21
1833.5188967187489
 31
0.0
 73
     3
  0
TEXT
  5
61
  8
SPEC
 62
     7
 10
-1224.0
 20
1748.7641766666659
 30
0.0
 40
28.504720052083329
  1
周波数レンジ(-10dB)
 41
0.7
 11
-1224.0
 21
1777.2688967187489
 31
0.0
 73
     3
  0
TEXT
  5
62
  8
SPEC
 62
     7
 10
-1224.0
 20
1692.5141766666659
 30
0.0
 40
28.504720052083329
  1
指向角度(水平\U+00D7垂直)
 41
0.7
 11
-1224.0
 21
1721.0188967187489
 31
0.0
 73
     3
  0
TEXT
  5
63
  8
SPEC
 62
     7
 10
-1224.0
 20
1636.2641766666659
 30
0.0
 40
28.504720052083329
  1
最大音圧レベル(1m)
 41
0.7
 11
-1224.0
 21
1664.7688967187489
 31
0.0
 73
     3
  0
TEXT
  5
64
  8
SPEC
 62
     7
 10
-1224.0
 20
1580.0141766666659
 30
0.0
 40
28.504720052083329
  1
感度(1W、1m)
 41
0.7
 11
-1224.0
 21
1608.5188967187489
 31
0.0
 73
     3
  0
TEXT
  5
65
  8
SPEC
 62
     7
 10
-1223.538036773745
 20
1527.1180291168071
 30
0.0
 40
28.504720052083329
  1
公称インピーダンス
 41
0.7
 11
-1223.538036773745
 21
1555.6227491688901
 31
0.0
 73
     3
  0
TEXT
  5
66
  8
SPEC
 62
     7
 10
-736.5
 20
1523.7641766666659
 30
0.0
 40
28.504720052083329
  1
8\U+03A9
 41
0.7
 11
-736.5
 21
1552.2688967187489
 31
0.0
 73
     3
  0
TEXT
  5
67
  8
SPEC
 62
     7
 10
-1224.0
 20
1467.5141766666659
 30
0.0
 40
28.504720052083329
  1
許容入力 ※
 41
0.7
 11
-1224.0
 21
1496.0188967187489
 31
0.0
 73
     3
  0
TEXT
  5
68
  8
SPEC
 62
     7
 10
-736.5
 20
1467.5141766666659
 30
0.0
 40
28.504720052083329
  1
250W(連続)
 41
0.7
 11
-736.5
 21
1496.0188967187489
 31
0.0
 73
     3
  0
TEXT
  5
69
  8
SPEC
 62
     7
 10
-1224.0
 20
1411.2641766666659
 30
0.0
 40
28.504720052083329
  1
ドライバー構成
 41
0.7
 11
-1224.0
 21
1439.7688967187489
 31
0.0
 73
     3
  0
TEXT
  5
6A
  8
SPEC
 62
     7
 10
-875.0
 20
1411.665
 30
0.0
 40
28.504720052083329
  1
低域
 41
0.7
 11
-875.0
 21
1440.169720052083
 31
0.0
 73
     3
  0
TEXT
  5
6B
  8
SPEC
 62
     7
 10
-875.0
 20
1355.415
 30
0.0
 40
28.504720052083329
  1
高域
 41
0.7
 11
-875.0
 21
1383.919720052083
 31
0.0
 73
     3
  0
LINE
  5
6C
  8
SPEC
  6
CONTINUOUS
 62
     7
 10
-900.0
 20
1455.6954099999989
 30
0.0
 11
-900.0
 21
1343.19541
 31
0.0
  0
TEXT
  5
6D
  8
SPEC
 62
     7
 10
-1224.0
 20
1298.7641766666659
 30
0.0
 40
28.504720052083329
  1
クロスオーバー周波数
 41
0.7
 11
-1224.0
 21
1327.2688967187501
 31
0.0
 73
     3
  0
TEXT
  5
6E
  8
SPEC
 62
     7
 10
-736.5
 20
1298.7641766666659
 30
0.0
 40
28.504720052083329
  1
2.2kHz
 41
0.7
 11
-736.5
 21
1327.2688967187501
 31
0.0
 73
     3
  0
TEXT
  5
6F
  8
SPEC
 62
     7
 10
-1224.0
 20
1242.5141766666659
 30
0.0
 40
28.504720052083329
  1
入力端子
 41
0.7
 11
-1224.0
 21
1271.0188967187489
 31
0.0
 73
     3
  0
TEXT
  5
70
  8
SPEC
 62
     7
 10
-736.5
 20
1242.5141766666659
 30
0.0
 40
28.504720052083329
  1
4Pスピコン\U+00D71、標準フォーンジャック(2P)\U+00D71
 41
0.7
 11
-736.5
 21
1271.0188967187489
 31
0.0
 73
     3
  0
TEXT
  5
71
  8
SPEC
 62
     7
 10
-1224.0
 20
1186.2641766666659
 30
0.0
 40
28.504720052083329
  1
エンクロージャー
 41
0.7
 11
-1224.0
 21
1214.7688967187489
 31
0.0
 73
     3
  0
TEXT
  5
72
  8
SPEC
 62
     7
 10
-736.5
 20
1186.2641766666659
 30
0.0
 40
28.504720052083329
  1
黒カーペット仕上げ
 41
0.7
 11
-736.5
 21
1214.7688967187489
 31
0.0
 73
     3
  0
TEXT
  5
73
  8
SPEC
 62
     7
 10
-736.5
 20
1073.7642006666661
 30
0.0
 40
28.50466875
  1
28kg
 41
0.7
 11
-736.5
 21
1102.2688694166659
 31
0.0
 73
     3
  0
TEXT
  5
74
  8
SPEC
 62
     7
 10
-736.5
 20
1130.0141766666659
 30
0.0
 40
28.504720052083329
  1
470\U+00D7692\U+00D7438mm(除突起部)
 41
0.7
 11
-736.5
 21
1158.5188967187489
 31
0.0
 73
     3
  0
TEXT
  5
75
  8
SPEC
 62
     7
 10
-736.5
 20
1805.0141766666659
 30
0.0
 40
28.504720052083329
  1
2-Wayフルレンジ
 41
0.7
 11
-736.5
 21
1833.5188967187489
 31
0.0
 73
     3
  0
TEXT
  5
76
  8
SPEC
 62
     7
 10
-736.5
 20
1748.7641766666659
 30
0.0
 40
28.504720052083329
  1
41Hz～18kHz
 41
0.7
 11
-736.5
 21
1777.2688967187489
 31
0.0
 73
     3
  0
TEXT
  5
77
  8
SPEC
 62
     7
 10
-736.5
 20
1692.5141766666659
 30
0.0
 40
28.504720052083329
  1
90\U+00B0\U+00D750\U+00B0
 41
0.7
 11
-736.5
 21
1721.0188967187489
 31
0.0
 73
     3
  0
TEXT
  5
78
  8
SPEC
 62
     7
 10
-736.5
 20
1636.2641766666659
 30
0.0
 40
28.504720052083329
  1
129dB SPL(ピーク)
 41
0.7
 11
-736.5
 21
1664.7688967187489
 31
0.0
 73
     3
  0
TEXT
  5
79
  8
SPEC
 62
     7
 10
-736.5
 20
1580.0141766666659
 30
0.0
 40
28.504720052083329
  1
99dB SPL
 41
0.7
 11
-736.5
 21
1608.5188967187489
 31
0.0
 73
     3
  0
TEXT
  5
7A
  8
SPEC
 62
     7
 10
-736.5
 20
1411.2641766666659
 30
0.0
 40
28.504720052083329
  1
380mm(M115－8A)
 41
0.7
 11
-736.5
 21
1439.7688967187489
 31
0.0
 73
     3
  0
TEXT
  5
7B
  8
SPEC
 62
     7
 10
-736.5
 20
1355.0141766666659
 30
0.0
 40
28.504720052083329
  1
25mm(2414H－C)
 41
0.7
 11
-736.5
 21
1383.5188967187489
 31
0.0
 73
     3
  0
TEXT
  5
7C
  8
DIMNSIONS
 62
     7
 10
-299.99999999999989
 20
-1716.51224
 30
0.0
 40
36.64892578125
  1
(単位：mm)
 41
0.7
 11
-299.99999999999989
 21
-1679.86331421875
 31
0.0
 73
     3
  0
LINE
  5
7D
  8
DIMNSIONS
  6
CONTINUOUS
 62
     7
 10
-955.0
 20
100.0
 30
0.0
 11
-1080.0
 21
100.0
 31
0.0
  0
LINE
  5
7E
  8
DIMNSIONS
  6
CONTINUOUS
 62
     7
 10
-898.75544259714172
 20
538.0
 30
0.0
 11
-1080.0
 21
538.0
 31
0.0
  0
LINE
  5
7F
  8
DIMNSIONS
  6
CONTINUOUS
 62
     7
 10
-1050.0
 20
100.0
 30
0.0
 11
-1050.0
 21
538.0
 31
0.0
  0
LINE
  5
80
  8
DIMNSIONS
  6
CONTINUOUS
 62
     7
 10
-1050.0
 20
100.0
 30
0.0
 11
-1060.0505969272531
 21
137.50933837890619
 31
0.0
  0
LINE
  5
81
  8
DIMNSIONS
  6
CONTINUOUS
 62
     7
 10
-1050.0
 20
100.0
 30
0.0
 11
-1039.949403072746
 21
137.50933837890619
 31
0.0
  0
LINE
  5
82
  8
DIMNSIONS
  6
CONTINUOUS
 62
     7
 10
-1050.0
 20
538.0
 30
0.0
 11
-1039.949403072746
 21
500.49066162109369
 31
0.0
  0
LINE
  5
83
  8
DIMNSIONS
  6
CONTINUOUS
 62
     7
 10
-1050.0
 20
538.0
 30
0.0
 11
-1060.0505969272531
 21
500.49066162109369
 31
0.0
  0
TEXT
  5
84
  8
DIMNSIONS
 62
     7
 10
-1064.9083333333331
 20
279.3125
 30
0.0
 40
40.721028645833343
  1
438
 50
90.0
 41
0.7
 11
-1105.6293619791661
 21
279.3125
 31
0.0
 73
     3
  0
LINE
  5
85
  8
DIMNSIONS
  6
CONTINUOUS
 62
     7
 10
-955.0
 20
-108.0
 30
0.0
 11
-1080.0
 21
-108.0
 31
0.0
  0
LINE
  5
86
  8
DIMNSIONS
  6
CONTINUOUS
 62
     7
 10
-955.0
 20
-800.0
 30
0.0
 11
-1080.0
 21
-800.0
 31
0.0
  0
LINE
  5
87
  8
DIMNSIONS
  6
CONTINUOUS
 62
     7
 10
-1050.0
 20
-108.0
 30
0.0
 11
-1050.0
 21
-800.0
 31
0.0
  0
LINE
  5
88
  8
DIMNSIONS
  6
CONTINUOUS
 62
     7
 10
-1050.0
 20
-108.0
 30
0.0
 11
-1039.949403072746
 21
-145.50933837890619
 31
0.0
  0
LINE
  5
89
  8
DIMNSIONS
  6
CONTINUOUS
 62
     7
 10
-1050.0
 20
-108.0
 30
0.0
 11
-1060.0505969272531
 21
-145.50933837890619
 31
0.0
  0
LINE
  5
8A
  8
DIMNSIONS
  6
CONTINUOUS
 62
     7
 10
-1050.0
 20
-800.0
 30
0.0
 11
-1060.0505969272531
 21
-762.49066162109375
 31
0.0
  0
LINE
  5
8B
  8
DIMNSIONS
  6
CONTINUOUS
 62
     7
 10
-1050.0
 20
-800.0
 30
0.0
 11
-1039.949403072746
 21
-762.49066162109375
 31
0.0
  0
TEXT
  5
8C
  8
DIMNSIONS
 62
     7
 10
-1064.9083333333331
 20
-493.68749999999989
 30
0.0
 40
40.721028645833343
  1
692
 50
90.0
 41
0.7
 11
-1105.6293619791661
 21
-493.68749999999989
 31
0.0
 73
     3
  0
LINE
  5
8D
  8
DIMNSIONS
  6
CONTINUOUS
 62
     7
 10
-935.0
 20
-820.0
 30
0.0
 11
-935.0
 21
-980.0
 31
0.0
  0
LINE
  5
8E
  8
DIMNSIONS
  6
CONTINUOUS
 62
     7
 10
-465.0
 20
-820.0
 30
0.0
 11
-465.0
 21
-980.0
 31
0.0
  0
LINE
  5
8F
  8
DIMNSIONS
  6
CONTINUOUS
 62
     7
 10
-935.0
 20
-950.0
 30
0.0
 11
-465.0
 21
-950.0
 31
0.0
  0
LINE
  5
90
  8
DIMNSIONS
  6
CONTINUOUS
 62
     7
 10
-935.0
 20
-950.0
 30
0.0
 11
-897.49066162109375
 21
-939.94940307274646
 31
0.0
  0
LINE
  5
91
  8
DIMNSIONS
  6
CONTINUOUS
 62
     7
 10
-935.0
 20
-950.0
 30
0.0
 11
-897.49066162109375
 21
-960.05059692725365
 31
0.0
  0
LINE
  5
92
  8
DIMNSIONS
  6
CONTINUOUS
 62
     7
 10
-465.0
 20
-950.0
 30
0.0
 11
-502.50933837890619
 21
-960.05059692725365
 31
0.0
  0
LINE
  5
93
  8
DIMNSIONS
  6
CONTINUOUS
 62
     7
 10
-465.0
 20
-950.0
 30
0.0
 11
-502.50933837890619
 21
-939.94940307274646
 31
0.0
  0
TEXT
  5
94
  8
DIMNSIONS
 62
     7
 10
-739.6875
 20
-935.09166666666658
 30
0.0
 40
40.721028645833343
  1
470
 41
0.7
 11
-739.6875
 21
-894.37063802083321
 31
0.0
 73
     3
  0
LINE
  5
95
  8
DIMNSIONS
  6
CONTINUOUS
 62
     7
 10
-877.5
 20
568.0
 30
0.0
 11
-877.5
 21
730.0
 31
0.0
  0
LINE
  5
96
  8
DIMNSIONS
  6
CONTINUOUS
 62
     7
 10
-522.50000000000011
 20
568.0
 30
0.0
 11
-522.50000000000011
 21
730.0
 31
0.0
  0
LINE
  5
97
  8
DIMNSIONS
  6
CONTINUOUS
 62
     7
 10
-877.5
 20
700.0
 30
0.0
 11
-522.50000000000011
 21
700.0
 31
0.0
  0
LINE
  5
98
  8
DIMNSIONS
  6
CONTINUOUS
 62
     7
 10
-877.5
 20
700.0
 30
0.0
 11
-839.99066162109364
 21
710.05059692725354
 31
0.0
  0
LINE
  5
99
  8
DIMNSIONS
  6
CONTINUOUS
 62
     7
 10
-877.5
 20
700.0
 30
0.0
 11
-839.99066162109364
 21
689.94940307274635
 31
0.0
  0
LINE
  5
9A
  8
DIMNSIONS
  6
CONTINUOUS
 62
     7
 10
-522.50000000000011
 20
700.0
 30
0.0
 11
-560.00933837890625
 21
689.94940307274635
 31
0.0
  0
LINE
  5
9B
  8
DIMNSIONS
  6
CONTINUOUS
 62
     7
 10
-522.50000000000011
 20
700.0
 30
0.0
 11
-560.00933837890625
 21
710.05059692725354
 31
0.0
  0
TEXT
  5
9C
  8
DIMNSIONS
 62
     7
 10
-739.6875
 20
714.90833333333308
 30
0.0
 40
40.721028645833343
  1
355
 41
0.7
 11
-739.6875
 21
755.62936197916656
 31
0.0
 73
     3
  0
TEXT
  5
9D
  8
DIMNSIONS
 62
     7
 10
-466.14583333333331
 20
-1209.777713820564
 30
0.0
 40
40.721028645833343
  1
-10\U+00B0
 41
0.7
 11
-466.14583333333331
 21
-1169.056685174731
 31
0.0
 73
     3
  0
TEXT
  5
9E
  8
DIMNSIONS
 62
     7
 10
-439.6875
 20
-1344.05
 30
0.0
 40
40.721028645833343
  1
0\U+00B0
 41
0.7
 11
-439.6875
 21
-1303.328971354166
 31
0.0
 73
     3
  0
LINE
  5
9F
  8
DIMNSIONS
  6
CONTINUOUS
 62
     7
 10
-682.33836486287635
 20
-1279.634013202204
 30
0.0
 11
-350.0
 21
-1250.0
 31
0.0
  0
LINE
  5
A0
  8
DIMNSIONS
  6
CONTINUOUS
 62
     7
 10
-682.33836486287635
 20
-1279.634013202204
 30
0.0
 11
-636.00679379715382
 21
-1262.7707004274921
 31
0.0
  0
LINE
  5
A1
  8
DIMNSIONS
  6
CONTINUOUS
 62
     7
 10
-682.33836486287635
 20
-1279.634013202204
 30
0.0
 11
-633.78239093536047
 21
-1288.1957414802021
 31
0.0
  0
LINE
  5
A2
  8
DIMNSIONS
  6
CONTINUOUS
 62
     7
 10
-683.03087995939245
 20
-1332.1036417382991
 30
0.0
 11
-350.0
 21
-1250.0
 31
0.0
  0
LINE
  5
A3
  8
DIMNSIONS
  6
CONTINUOUS
 62
     7
 10
-683.03087995939245
 20
-1332.1036417382991
 30
0.0
 11
-639.49712408969276
 21
-1308.9563331467309
 31
0.0
  0
LINE
  5
A4
  8
DIMNSIONS
  6
CONTINUOUS
 62
     7
 10
-683.03087995939245
 20
-1332.1036417382991
 30
0.0
 11
-633.75588715829838
 21
-1333.8243624036129
 31
0.0
  0
TEXT
  5
A5
  8
DIMNSIONS
 62
     7
 10
-325.0
 20
-1269.05
 30
0.0
 40
40.721028645833343
  1
\U+03C635ポールソケット
 41
0.7
 11
-325.0
 21
-1228.328971354166
 31
0.0
 73
     3
  0
LINE
  5
A6
  8
DIMNSIONS
  6
CONTINUOUS
 62
     7
 10
-955.0
 20
-800.0
 30
0.0
 11
-1080.0
 21
-800.0
 31
0.0
  0
LINE
  5
A7
  8
DIMNSIONS
  6
CONTINUOUS
 62
     7
 10
-941.99355597266276
 20
-812.0
 30
0.0
 11
-1080.0
 21
-812.0
 31
0.0
  0
LINE
  5
A8
  8
DIMNSIONS
  6
CONTINUOUS
 62
     7
 10
-1050.0
 20
-812.0
 30
0.0
 11
-1050.0
 21
-800.0
 31
0.0
  0
LINE
  5
A9
  8
DIMNSIONS
  6
CONTINUOUS
 62
     7
 10
-1050.0
 20
-800.0
 30
0.0
 11
-1050.0
 21
-725.0
 31
0.0
  0
LINE
  5
AA
  8
DIMNSIONS
  6
CONTINUOUS
 62
     7
 10
-1050.0
 20
-800.0
 30
0.0
 11
-1060.0505969272531
 21
-762.49066162109375
 31
0.0
  0
LINE
  5
AB
  8
DIMNSIONS
  6
CONTINUOUS
 62
     7
 10
-1050.0
 20
-800.0
 30
0.0
 11
-1039.949403072746
 21
-762.49066162109375
 31
0.0
  0
LINE
  5
AC
  8
DIMNSIONS
  6
CONTINUOUS
 62
     7
 10
-1050.0
 20
-812.0
 30
0.0
 11
-1050.0
 21
-955.83333333333314
 31
0.0
  0
LINE
  5
AD
  8
DIMNSIONS
  6
CONTINUOUS
 62
     7
 10
-1050.0
 20
-812.0
 30
0.0
 11
-1039.949403072746
 21
-849.50933837890625
 31
0.0
  0
LINE
  5
AE
  8
DIMNSIONS
  6
CONTINUOUS
 62
     7
 10
-1050.0
 20
-812.0
 30
0.0
 11
-1060.0505969272531
 21
-849.50933837890625
 31
0.0
  0
TEXT
  5
AF
  8
DIMNSIONS
 62
     7
 10
-1064.9083333333331
 20
-955.83333333333314
 30
0.0
 40
40.721028645833343
  1
12.0
 50
90.0
 41
0.7
 11
-1105.629361979167
 21
-955.83333333333314
 31
0.0
 73
     3
  0
TEXT
  5
B0
  8
DATA
 62
     7
 10
-1312.5
 20
-1782.4104233333339
 30
0.0
 40
28.504720052083339
  1
※仕様及び外観は予告なく変更されることがあります。
 41
0.7
 11
-1312.5
 21
-1753.9057032812509
 31
0.0
 73
     3
  0
TEXT
  5
B1
  8
DATA
 62
     7
 10
-1312.5
 20
-1819.45209
 30
0.0
 40
28.504720052083339
  1
　また、同一商品でも若干の個体差があることがあります。ご了承ください。
 41
0.7
 11
-1312.5
 21
-1790.947369947917
 31
0.0
 73
     3
  0
TEXT
  5
B2
  8
DATA
 62
     7
 10
749.99999999999955
 20
-1733.59124
 30
0.0
 40
36.64892578125
  1
JRX215
 41
0.7
 11
749.99999999999955
 21
-1696.94231421875
 31
0.0
 73
     3
  0
TEXT
  5
B3
  8
DATA
 62
     7
 10
749.99999999999955
 20
-1624.84124
 30
0.0
 40
36.64892578125
  1
JBL PROFESSIONAL
 41
0.7
 11
749.99999999999955
 21
-1588.19231421875
 31
0.0
 73
     3
  0
LINE
  5
B4
  8
DATA
  6
CONTINUOUS
 62
     7
 10
265.0
 20
-790.0
 30
0.0
 11
265.0
 21
-118.0
 31
0.0
  0
LINE
  5
B5
  8
DATA
  6
CONTINUOUS
 62
     7
 10
735.0
 20
-118.0
 30
0.0
 11
735.0
 21
-790.0
 31
0.0
  0
LINE
  5
B6
  8
DATA
  6
CONTINUOUS
 62
     7
 10
275.0
 20
-108.0
 30
0.0
 11
725.0
 21
-108.0
 31
0.0
  0
LINE
  5
B7
  8
DATA
  6
CONTINUOUS
 62
     7
 10
322.5
 20
-800.0
 30
0.0
 11
322.5
 21
-108.0
 31
0.0
  0
LINE
  5
B8
  8
DATA
  6
CONTINUOUS
 62
     7
 10
677.5
 20
-108.0
 30
0.0
 11
677.5
 21
-800.0
 31
0.0
  0
ARC
  5
B9
  8
DATA
  6
CONTINUOUS
 62
     7
 10
725.0
 20
-118.0
 30
0.0
 40
10.0
 50
0.0
 51
90.0
  0
ARC
  5
BA
  8
DATA
  6
CONTINUOUS
 62
     7
 10
275.0
 20
-118.0
 30
0.0
 40
10.0
 50
90.0
 51
180.0
  0
ARC
  5
BB
  8
DATA
  6
CONTINUOUS
 62
     7
 10
275.0
 20
-790.0
 30
0.0
 40
10.0
 50
180.0
 51
270.0
  0
ARC
  5
BC
  8
DATA
  6
CONTINUOUS
 62
     7
 10
725.0
 20
-790.0
 30
0.0
 40
10.0
 50
270.0
 51
0.0
  0
LINE
  5
BD
  8
DATA
  6
CONTINUOUS
 62
     7
 10
-465.0
 20
-790.0
 30
0.0
 11
-465.0
 21
-118.0
 31
0.0
  0
LINE
  5
BE
  8
DATA
  6
CONTINUOUS
 62
     7
 10
-490.0
 20
-775.0
 30
0.0
 11
-490.0
 21
-133.0
 31
0.0
  0
LINE
  5
BF
  8
DATA
  6
CONTINUOUS
 62
     7
 10
-504.0
 20
-761.0
 30
0.0
 11
-504.0
 21
-147.0
 31
0.0
  0
LINE
  5
C0
  8
DATA
  6
CONTINUOUS
 62
     7
 10
-925.0
 20
-800.0
 30
0.0
 11
-475.0
 21
-800.0
 31
0.0
  0
LINE
  5
C1
  8
DATA
  6
CONTINUOUS
 62
     7
 10
-910.0
 20
-775.0
 30
0.0
 11
-490.0
 21
-775.0
 31
0.0
  0
LINE
  5
C2
  8
DATA
  6
CONTINUOUS
 62
     7
 10
-896.0
 20
-761.0
 30
0.0
 11
-504.0
 21
-761.0
 31
0.0
  0
LINE
  5
C3
  8
DATA
  6
CONTINUOUS
 62
     7
 10
-935.0
 20
-118.0
 30
0.0
 11
-935.0
 21
-790.0
 31
0.0
  0
LINE
  5
C4
  8
DATA
  6
CONTINUOUS
 62
     7
 10
-910.0
 20
-133.0
 30
0.0
 11
-910.0
 21
-775.0
 31
0.0
  0
LINE
  5
C5
  8
DATA
  6
CONTINUOUS
 62
     7
 10
-896.0
 20
-147.0
 30
0.0
 11
-896.0
 21
-761.0
 31
0.0
  0
LINE
  5
C6
  8
DATA
  6
CONTINUOUS
 62
     7
 10
-475.0
 20
-108.0
 30
0.0
 11
-925.0
 21
-108.0
 31
0.0
  0
LINE
  5
C7
  8
DATA
  6
CONTINUOUS
 62
     7
 10
-490.0
 20
-133.0
 30
0.0
 11
-910.0
 21
-133.0
 31
0.0
  0
LINE
  5
C8
  8
DATA
  6
CONTINUOUS
 62
     7
 10
-504.0
 20
-147.0
 30
0.0
 11
-896.0
 21
-147.0
 31
0.0
  0
ARC
  5
C9
  8
DATA
  6
CONTINUOUS
 62
     7
 10
-925.0
 20
-118.0
 30
0.0
 40
10.0
 50
90.0
 51
180.0
  0
ARC
  5
CA
  8
DATA
  6
CONTINUOUS
 62
     7
 10
-475.0
 20
-118.0
 30
0.0
 40
10.0
 50
0.0
 51
90.0
  0
ARC
  5
CB
  8
DATA
  6
CONTINUOUS
 62
     7
 10
-475.0
 20
-790.0
 30
0.0
 40
10.0
 50
270.0
 51
0.0
  0
ARC
  5
CC
  8
DATA
  6
CONTINUOUS
 62
     7
 10
-925.0
 20
-790.0
 30
0.0
 40
10.0
 50
180.0
 51
270.0
  0
LINE
  5
CD
  8
DATA
  6
CONTINUOUS
 62
     7
 10
-720.0
 20
-743.0
 30
0.0
 11
-720.0
 21
-703.0
 31
0.0
  0
LINE
  5
CE
  8
DATA
  6
CONTINUOUS
 62
     7
 10
-680.0
 20
-743.0
 30
0.0
 11
-720.0
 21
-743.0
 31
0.0
  0
LINE
  5
CF
  8
DATA
  6
CONTINUOUS
 62
     7
 10
-680.0
 20
-703.0
 30
0.0
 11
-680.0
 21
-743.0
 31
0.0
  0
LINE
  5
D0
  8
DATA
  6
CONTINUOUS
 62
     7
 10
-720.0
 20
-703.0
 30
0.0
 11
-680.0
 21
-703.0
 31
0.0
  0
LINE
  5
D1
  8
DATA
  6
CONTINUOUS
 62
     7
 10
-300.0
 20
-790.0
 30
0.0
 11
-300.0
 21
-118.0
 31
0.0
  0
ARC
  5
D2
  8
DATA
  6
CONTINUOUS
 62
     7
 10
-290.0
 20
-790.0
 30
0.0
 40
10.0
 50
180.0
 51
270.0
  0
LINE
  5
D3
  8
DATA
  6
CONTINUOUS
 62
     7
 10
128.0
 20
-800.0
 30
0.0
 11
-290.0
 21
-800.0
 31
0.0
  0
ARC
  5
D4
  8
DATA
  6
CONTINUOUS
 62
     7
 10
128.0
 20
-790.0
 30
0.0
 40
10.0
 50
270.0
 51
0.0
  0
LINE
  5
D5
  8
DATA
  6
CONTINUOUS
 62
     7
 10
138.0
 20
-118.0
 30
0.0
 11
138.0
 21
-790.0
 31
0.0
  0
ARC
  5
D6
  8
DATA
  6
CONTINUOUS
 62
     7
 10
128.0
 20
-118.0
 30
0.0
 40
10.0
 50
0.0
 51
90.0
  0
LINE
  5
D7
  8
DATA
  6
CONTINUOUS
 62
     7
 10
-290.0
 20
-108.0
 30
0.0
 11
128.0
 21
-108.0
 31
0.0
  0
ARC
  5
D8
  8
DATA
  6
CONTINUOUS
 62
     7
 10
-290.0
 20
-118.0
 30
0.0
 40
10.0
 50
90.0
 51
180.0
  0
LINE
  5
D9
  8
DATA
  6
CONTINUOUS
 62
     7
 10
-190.0
 20
-465.0
 30
0.0
 11
-190.0
 21
-265.0
 31
0.0
  0
LINE
  5
DA
  8
DATA
  6
CONTINUOUS
 62
     7
 10
-165.0
 20
-447.0
 30
0.0
 11
-165.0
 21
-283.0
 31
0.0
  0
LINE
  5
DB
  8
DATA
  6
CONTINUOUS
 62
     7
 10
-37.0
 20
-475.0
 30
0.0
 11
-180.0
 21
-475.0
 31
0.0
  0
LINE
  5
DC
  8
DATA
  6
CONTINUOUS
 62
     7
 10
-52.0
 20
-447.0
 30
0.0
 11
-165.0
 21
-447.0
 31
0.0
  0
LINE
  5
DD
  8
DATA
  6
CONTINUOUS
 62
     7
 10
-52.0
 20
-397.0
 30
0.0
 11
-165.0
 21
-397.0
 31
0.0
  0
LINE
  5
DE
  8
DATA
  6
CONTINUOUS
 62
     7
 10
-52.0
 20
-391.0
 30
0.0
 11
-165.0
 21
-391.0
 31
0.0
  0
LINE
  5
DF
  8
DATA
  6
CONTINUOUS
 62
     7
 10
-27.0
 20
-265.0
 30
0.0
 11
-27.0
 21
-465.0
 31
0.0
  0
LINE
  5
E0
  8
DATA
  6
CONTINUOUS
 62
     7
 10
-52.0
 20
-283.0
 30
0.0
 11
-52.0
 21
-447.0
 31
0.0
  0
LINE
  5
E1
  8
DATA
  6
CONTINUOUS
 62
     7
 10
-180.0
 20
-255.0
 30
0.0
 11
-37.0
 21
-255.0
 31
0.0
  0
LINE
  5
E2
  8
DATA
  6
CONTINUOUS
 62
     7
 10
-165.0
 20
-283.0
 30
0.0
 11
-52.0
 21
-283.0
 31
0.0
  0
LINE
  5
E3
  8
DATA
  6
CONTINUOUS
 62
     7
 10
-165.0
 20
-333.0
 30
0.0
 11
-52.0
 21
-333.0
 31
0.0
  0
LINE
  5
E4
  8
DATA
  6
CONTINUOUS
 62
     7
 10
-165.0
 20
-339.0
 30
0.0
 11
-52.0
 21
-339.0
 31
0.0
  0
ARC
  5
E5
  8
DATA
  6
CONTINUOUS
 62
     7
 10
-180.0
 20
-265.0
 30
0.0
 40
10.0
 50
90.0
 51
180.0
  0
ARC
  5
E6
  8
DATA
  6
CONTINUOUS
 62
     7
 10
-37.0
 20
-265.0
 30
0.0
 40
10.0
 50
0.0
 51
90.0
  0
ARC
  5
E7
  8
DATA
  6
CONTINUOUS
 62
     7
 10
-180.0
 20
-465.0
 30
0.0
 40
10.0
 50
180.0
 51
270.0
  0
ARC
  5
E8
  8
DATA
  6
CONTINUOUS
 62
     7
 10
-37.0
 20
-465.0
 30
0.0
 40
10.0
 50
270.0
 51
0.0
  0
CIRCLE
  5
E9
  8
DATA
  6
CONTINUOUS
 62
     7
 10
-177.5
 20
-461.0
 30
0.0
 40
4.0
  0
CIRCLE
  5
EA
  8
DATA
  6
CONTINUOUS
 62
     7
 10
-503.49646890311328
 20
-1085.0
 30
0.0
 40
18.499999999999972
  0
CIRCLE
  5
EB
  8
DATA
  6
CONTINUOUS
 62
     7
 10
-503.49646890311328
 20
-1085.0
 30
0.0
 40
17.499999999999879
  0
CIRCLE
  5
EC
  8
DATA
  6
CONTINUOUS
 62
     7
 10
-503.49646890311328
 20
-1085.0
 30
0.0
 40
15.499999999999931
  0
CIRCLE
  5
ED
  8
DATA
  6
CONTINUOUS
 62
     7
 10
-551.80697118621845
 20
-1453.0
 30
0.0
 40
18.499999999999972
  0
CIRCLE
  5
EE
  8
DATA
  6
CONTINUOUS
 62
     7
 10
-551.80697118621845
 20
-1453.0
 30
0.0
 40
17.499999999999879
  0
CIRCLE
  5
EF
  8
DATA
  6
CONTINUOUS
 62
     7
 10
-551.80697118621845
 20
-1453.0
 30
0.0
 40
15.499999999999931
  0
LINE
  5
F0
  8
DATA
  6
CONTINUOUS
 62
     7
 10
-282.4800992561959
 20
-810.1990074380418
 30
0.0
 11
-283.5
 21
-800.0
 31
0.0
  0
LINE
  5
F1
  8
DATA
  6
CONTINUOUS
 62
     7
 10
-247.5
 20
-810.0
 30
0.0
 11
-282.5
 21
-810.0
 31
0.0
  0
LINE
  5
F2
  8
DATA
  6
CONTINUOUS
 62
     7
 10
-249.5099751242241
 20
-812.0
 30
0.0
 11
-280.49002487577582
 21
-812.0
 31
0.0
  0
LINE
  5
F3
  8
DATA
  6
CONTINUOUS
 62
     7
 10
-246.5
 20
-800.0
 30
0.0
 11
-247.5199007438041
 21
-810.1990074380418
 31
0.0
  0
ARC
  5
F4
  8
DATA
  6
CONTINUOUS
 62
     7
 10
-280.49002487577582
 20
-810.0
 30
0.0
 40
2.000000000000095
 50
185.710593137497
 51
270.0
  0
ARC
  5
F5
  8
DATA
  6
CONTINUOUS
 62
     7
 10
-249.5099751242241
 20
-810.0
 30
0.0
 40
2.0
 50
270.0
 51
354.28940686250291
  0
LINE
  5
F6
  8
DATA
  6
CONTINUOUS
 62
     7
 10
434.0
 20
-477.0
 30
0.0
 11
565.99999999999989
 21
-477.0
 31
0.0
  0
LINE
  5
F7
  8
DATA
  6
CONTINUOUS
 62
     7
 10
445.00000000000011
 20
-491.0
 30
0.0
 11
554.99999999999977
 21
-491.0
 31
0.0
  0
LINE
  5
F8
  8
DATA
  6
CONTINUOUS
 62
     7
 10
431.0
 20
-572.0
 30
0.0
 11
431.0
 21
-480.0
 31
0.0
  0
LINE
  5
F9
  8
DATA
  6
CONTINUOUS
 62
     7
 10
445.00000000000011
 20
-561.0
 30
0.0
 11
445.00000000000011
 21
-491.0
 31
0.0
  0
LINE
  5
FA
  8
DATA
  6
CONTINUOUS
 62
     7
 10
565.99999999999989
 20
-575.0
 30
0.0
 11
434.0
 21
-575.0
 31
0.0
  0
LINE
  5
FB
  8
DATA
  6
CONTINUOUS
 62
     7
 10
554.99999999999977
 20
-561.0
 30
0.0
 11
445.00000000000011
 21
-561.0
 31
0.0
  0
LINE
  5
FC
  8
DATA
  6
CONTINUOUS
 62
     7
 10
568.99999999999977
 20
-480.0
 30
0.0
 11
568.99999999999977
 21
-572.0
 31
0.0
  0
LINE
  5
FD
  8
DATA
  6
CONTINUOUS
 62
     7
 10
554.99999999999977
 20
-491.0
 30
0.0
 11
554.99999999999977
 21
-561.0
 31
0.0
  0
ARC
  5
FE
  8
DATA
  6
CONTINUOUS
 62
     7
 10
565.99999999999989
 20
-572.0
 30
0.0
 40
3.0
 50
270.0
 51
0.0
  0
ARC
  5
FF
  8
DATA
  6
CONTINUOUS
 62
     7
 10
565.99999999999989
 20
-480.0
 30
0.0
 40
3.0
 50
0.0
 51
90.0
  0
ARC
  5
100
  8
DATA
  6
CONTINUOUS
 62
     7
 10
434.0
 20
-480.0
 30
0.0
 40
3.0
 50
90.0
 51
180.0
  0
ARC
  5
101
  8
DATA
  6
CONTINUOUS
 62
     7
 10
434.0
 20
-572.0
 30
0.0
 40
3.0
 50
180.0
 51
270.0
  0
CIRCLE
  5
102
  8
DATA
  6
CONTINUOUS
 62
     7
 10
521.99999999999977
 20
-511.30000000000013
 30
0.0
 40
11.75
  0
CIRCLE
  5
103
  8
DATA
  6
CONTINUOUS
 62
     7
 10
531.49999999999977
 20
-523.30000000000018
 30
0.0
 40
2.0
  0
CIRCLE
  5
104
  8
DATA
  6
CONTINUOUS
 62
     7
 10
512.49999999999989
 20
-499.30000000000013
 30
0.0
 40
2.0
  0
LINE
  5
105
  8
DATA
  6
CONTINUOUS
 62
     7
 10
510.99999999999989
 20
-495.80000000000013
 30
0.0
 11
532.99999999999989
 21
-495.80000000000013
 31
0.0
  0
LINE
  5
106
  8
DATA
  6
CONTINUOUS
 62
     7
 10
508.99999999999989
 20
-497.80000000000013
 30
0.0
 11
508.99999999999989
 21
-524.80000000000007
 31
0.0
  0
LINE
  5
107
  8
DATA
  6
CONTINUOUS
 62
     7
 10
510.99999999999989
 20
-526.80000000000007
 30
0.0
 11
532.99999999999989
 21
-526.80000000000007
 31
0.0
  0
LINE
  5
108
  8
DATA
  6
CONTINUOUS
 62
     7
 10
534.99999999999977
 20
-497.80000000000013
 30
0.0
 11
534.99999999999977
 21
-524.80000000000007
 31
0.0
  0
ARC
  5
109
  8
DATA
  6
CONTINUOUS
 62
     7
 10
510.99999999999989
 20
-497.80000000000013
 30
0.0
 40
2.0
 50
90.0
 51
180.0
  0
ARC
  5
10A
  8
DATA
  6
CONTINUOUS
 62
     7
 10
510.99999999999989
 20
-524.80000000000007
 30
0.0
 40
2.0
 50
180.0
 51
270.0
  0
ARC
  5
10B
  8
DATA
  6
CONTINUOUS
 62
     7
 10
532.99999999999989
 20
-524.80000000000007
 30
0.0
 40
2.0
 50
270.0
 51
0.0
  0
ARC
  5
10C
  8
DATA
  6
CONTINUOUS
 62
     7
 10
532.99999999999989
 20
-497.80000000000013
 30
0.0
 40
2.0
 50
0.0
 51
90.0
  0
LINE
  5
10D
  8
DATA
  6
CONTINUOUS
 62
     7
 10
518.99999999999977
 20
-501.30000000000013
 30
0.0
 11
524.99999999999989
 21
-501.30000000000013
 31
0.0
  0
LINE
  5
10E
  8
DATA
  6
CONTINUOUS
 62
     7
 10
519.99999999999989
 20
-521.30000000000007
 30
0.0
 11
523.99999999999989
 21
-521.30000000000007
 31
0.0
  0
LINE
  5
10F
  8
DATA
  6
CONTINUOUS
 62
     7
 10
519.99999999999989
 20
-521.30000000000007
 30
0.0
 11
519.99999999999989
 21
-520.10000000000014
 31
0.0
  0
LINE
  5
110
  8
DATA
  6
CONTINUOUS
 62
     7
 10
523.99999999999989
 20
-521.30000000000007
 30
0.0
 11
523.99999999999989
 21
-520.10000000000014
 31
0.0
  0
LINE
  5
111
  8
DATA
  6
CONTINUOUS
 62
     7
 10
518.99999999999977
 20
-501.30000000000013
 30
0.0
 11
518.99999999999977
 21
-503.02715000000018
 31
0.0
  0
LINE
  5
112
  8
DATA
  6
CONTINUOUS
 62
     7
 10
524.99999999999989
 20
-501.30000000000013
 30
0.0
 11
524.99999999999989
 21
-503.02715000000018
 31
0.0
  0
ARC
  5
113
  8
DATA
  6
CONTINUOUS
 62
     7
 10
521.99999999999977
 20
-511.30000000000013
 30
0.0
 40
8.8000026774143176
 50
109.932264150679
 51
257.19616681969927
  0
ARC
  5
114
  8
DATA
  6
CONTINUOUS
 62
     7
 10
521.99999999999977
 20
-511.30000000000013
 30
0.0
 40
8.8000035043459288
 50
282.9999995554212
 51
69.999994237961999
  0
ARC
  5
115
  8
DATA
  6
CONTINUOUS
 62
     7
 10
521.99999999999977
 20
-511.30000000000013
 30
0.0
 40
6.200002162064175
 50
60.000011535560738
 51
150.0000115355607
  0
LINE
  5
116
  8
DATA
  6
CONTINUOUS
 62
     7
 10
516.63065999999992
 20
-508.19997000000012
 30
0.0
 11
517.12861999999996
 21
-508.48747000000009
 31
0.0
  0
LINE
  5
117
  8
DATA
  6
CONTINUOUS
 62
     7
 10
525.09996999999976
 20
-505.93062000000009
 30
0.0
 11
524.81246999999985
 21
-506.4285900000001
 31
0.0
  0
ARC
  5
118
  8
DATA
  6
CONTINUOUS
 62
     7
 10
521.99999999999977
 20
-511.30000000000013
 30
0.0
 40
6.200002162064175
 50
240.0000115355607
 51
330.0000115355607
  0
LINE
  5
119
  8
DATA
  6
CONTINUOUS
 62
     7
 10
518.89999999999998
 20
-516.6693600000001
 30
0.0
 11
519.18749999999977
 21
-516.1713900000002
 31
0.0
  0
LINE
  5
11A
  8
DATA
  6
CONTINUOUS
 62
     7
 10
527.36936999999989
 20
-514.39998000000014
 30
0.0
 11
526.87139999999988
 21
-514.11248000000001
 31
0.0
  0
ARC
  5
11B
  8
DATA
  6
CONTINUOUS
 62
     7
 10
521.99999999999977
 20
-511.30000000000013
 30
0.0
 40
5.6250038315808757
 50
149.99966968210171
 51
240.0002126043025
  0
ARC
  5
11C
  8
DATA
  6
CONTINUOUS
 62
     7
 10
521.99999999999977
 20
-511.30000000000013
 30
0.0
 40
5.6249961520342593
 50
330.00021260430242
 51
60.000718243122613
  0
ARC
  5
11D
  8
DATA
  6
CONTINUOUS
 62
     7
 10
521.99999999999977
 20
-511.30000000000013
 30
0.0
 40
3.5999900808752141
 50
59.999908854703911
 51
149.99990885470541
  0
ARC
  5
11E
  8
DATA
  6
CONTINUOUS
 62
     7
 10
521.99999999999977
 20
-511.30000000000013
 30
0.0
 40
3.5999900808752141
 50
239.9999088547039
 51
329.99990885470538
  0
LINE
  5
11F
  8
DATA
  6
CONTINUOUS
 62
     7
 10
523.79997999999978
 20
-508.18231000000009
 30
0.0
 11
523.44998999999984
 21
-508.78852000000012
 31
0.0
  0
LINE
  5
120
  8
DATA
  6
CONTINUOUS
 62
     7
 10
518.88232999999991
 20
-509.49999000000008
 30
0.0
 11
519.48852999999997
 21
-509.8499900000001
 31
0.0
  0
LINE
  5
121
  8
DATA
  6
CONTINUOUS
 62
     7
 10
520.19999999999982
 20
-514.41768000000013
 30
0.0
 11
520.54999999999995
 21
-513.81146999999999
 31
0.0
  0
LINE
  5
122
  8
DATA
  6
CONTINUOUS
 62
     7
 10
525.11768999999981
 20
-513.09998000000019
 30
0.0
 11
524.51147999999978
 21
-512.74999000000014
 31
0.0
  0
ARC
  5
123
  8
DATA
  6
CONTINUOUS
 62
     7
 10
521.99999999999977
 20
-511.30000000000013
 30
0.0
 40
2.9000018208615339
 50
149.9997926340304
 51
240.00023362382839
  0
ARC
  5
124
  8
DATA
  6
CONTINUOUS
 62
     7
 10
521.99999999999977
 20
-511.30000000000013
 30
0.0
 40
2.900000481120633
 50
330.00023362383109
 51
59.999792634029582
  0
LINE
  5
125
  8
DATA
  6
CONTINUOUS
 62
     7
 10
531.49999999999977
 20
-522.30000000000007
 30
0.0
 11
531.49999999999977
 21
-524.30000000000018
 31
0.0
  0
LINE
  5
126
  8
DATA
  6
CONTINUOUS
 62
     7
 10
530.49999999999977
 20
-523.30000000000018
 30
0.0
 11
532.49999999999989
 21
-523.30000000000018
 31
0.0
  0
LINE
  5
127
  8
DATA
  6
CONTINUOUS
 62
     7
 10
512.49999999999989
 20
-498.30000000000013
 30
0.0
 11
512.49999999999989
 21
-500.30000000000013
 31
0.0
  0
LINE
  5
128
  8
DATA
  6
CONTINUOUS
 62
     7
 10
511.49999999999989
 20
-499.30000000000013
 30
0.0
 11
513.49999999999977
 21
-499.30000000000013
 31
0.0
  0
CIRCLE
  5
129
  8
DATA
  6
CONTINUOUS
 62
     7
 10
477.99999999999989
 20
-511.30000000000013
 30
0.0
 40
8.4999999999999982
  0
CIRCLE
  5
12A
  8
DATA
  6
CONTINUOUS
 62
     7
 10
477.99999999999989
 20
-511.30000000000013
 30
0.0
 40
5.2500000000006031
  0
CIRCLE
  5
12B
  8
DATA
  6
CONTINUOUS
 62
     7
 10
477.99999999999989
 20
-511.30000000000013
 30
0.0
 40
4.5000000000005853
  0
CIRCLE
  5
12C
  8
DATA
  6
CONTINUOUS
 62
     7
 10
477.99999999999989
 20
-511.30000000000013
 30
0.0
 40
3.4999999999997442
  0
POLYLINE
  5
12D
  8
DATA
  6
CONTINUOUS
 62
     7
 66
     1
 10
0.0
 20
0.0
 30
0.0
 70
     1
  0
VERTEX
  5
346
  8
DATA
  6
CONTINUOUS
 62
     7
 10
486.49999999999989
 20
-511.30000000000013
 30
0.0
  0
VERTEX
  5
347
  8
DATA
  6
CONTINUOUS
 62
     7
 10
482.24999999999989
 20
-503.93878406783188
 30
0.0
  0
VERTEX
  5
348
  8
DATA
  6
CONTINUOUS
 62
     7
 10
473.74999999999989
 20
-503.93878406783188
 30
0.0
  0
VERTEX
  5
349
  8
DATA
  6
CONTINUOUS
 62
     7
 10
469.49999999999989
 20
-511.30000000000013
 30
0.0
  0
VERTEX
  5
34A
  8
DATA
  6
CONTINUOUS
 62
     7
 10
473.74999999999989
 20
-518.66121593216758
 30
0.0
  0
VERTEX
  5
34B
  8
DATA
  6
CONTINUOUS
 62
     7
 10
482.24999999999989
 20
-518.66121593216758
 30
0.0
  0
SEQEND
  5
34C
  8
DATA
  6
CONTINUOUS
 62
     7
  0
TEXT
  5
136
  8
DATA
 62
     7
 10
493.94937065972209
 20
-510.99510904947942
 30
0.0
 40
2.0360514322916661
  1
IN/OUT
 41
0.7
 72
     1
 11
497.74999999999989
 21
-509.97708333333361
 31
0.0
 73
     2
  0
TEXT
  5
137
  8
DATA
 62
     7
 10
487.3457771809895
 20
-513.64094238281268
 30
0.0
 40
2.0360514322916661
  1
(PARALLEL JACKS)
 41
0.7
 72
     1
 11
497.74999999999989
 21
-512.62291666666692
 31
0.0
 73
     2
  0
TEXT
  5
138
  8
DATA
 62
     7
 10
460.59811197916667
 20
-544.8540771484378
 30
0.0
 40
6.108154296875
  1
JRX215
 41
0.7
 72
     1
 11
472.0
 21
-541.80000000000018
 31
0.0
 73
     2
  0
TEXT
  5
139
  8
DATA
 62
     7
 10
450.344027257493
 20
-495.96699999999998
 30
0.0
 40
2.6548828124999999
  1
Recommended Amplifier Power
 41
0.7
 11
450.344027257493
 21
-493.31211718750001
 31
0.0
 73
     3
  0
TEXT
  5
13A
  8
DATA
 62
     7
 10
450.344027257493
 20
-499.41699999999997
 30
0.0
 40
2.6548828124999999
  1
250 - 500 watts , 8 ohms
 41
0.7
 11
450.344027257493
 21
-496.7621171875
 31
0.0
 73
     3
  0
CIRCLE
  5
13B
  8
DATA
  6
CONTINUOUS
 62
     7
 10
562.75
 20
-569.0
 30
0.0
 40
3.999999999999944
  0
LINE
  5
13C
  8
DATA
  6
CONTINUOUS
 62
     7
 10
562.75
 20
-571.49999999999989
 30
0.0
 11
562.75
 21
-566.5
 31
0.0
  0
LINE
  5
13D
  8
DATA
  6
CONTINUOUS
 62
     7
 10
560.25
 20
-569.0
 30
0.0
 11
565.24999999999989
 21
-569.0
 31
0.0
  0
CIRCLE
  5
13E
  8
DATA
  6
CONTINUOUS
 62
     7
 10
562.75
 20
-483.0
 30
0.0
 40
3.999999999999944
  0
LINE
  5
13F
  8
DATA
  6
CONTINUOUS
 62
     7
 10
562.75
 20
-485.5
 30
0.0
 11
562.75
 21
-480.49999999999989
 31
0.0
  0
LINE
  5
140
  8
DATA
  6
CONTINUOUS
 62
     7
 10
560.25
 20
-483.0
 30
0.0
 11
565.24999999999989
 21
-483.0
 31
0.0
  0
CIRCLE
  5
141
  8
DATA
  6
CONTINUOUS
 62
     7
 10
500.75
 20
-569.0
 30
0.0
 40
3.999999999999944
  0
LINE
  5
142
  8
DATA
  6
CONTINUOUS
 62
     7
 10
500.75
 20
-571.49999999999989
 30
0.0
 11
500.75
 21
-566.5
 31
0.0
  0
LINE
  5
143
  8
DATA
  6
CONTINUOUS
 62
     7
 10
498.24999999999989
 20
-569.0
 30
0.0
 11
503.24999999999989
 21
-569.0
 31
0.0
  0
CIRCLE
  5
144
  8
DATA
  6
CONTINUOUS
 62
     7
 10
500.75
 20
-483.0
 30
0.0
 40
3.999999999999944
  0
LINE
  5
145
  8
DATA
  6
CONTINUOUS
 62
     7
 10
500.75
 20
-485.5
 30
0.0
 11
500.75
 21
-480.49999999999989
 31
0.0
  0
LINE
  5
146
  8
DATA
  6
CONTINUOUS
 62
     7
 10
498.24999999999989
 20
-483.0
 30
0.0
 11
503.24999999999989
 21
-483.0
 31
0.0
  0
CIRCLE
  5
147
  8
DATA
  6
CONTINUOUS
 62
     7
 10
438.75
 20
-569.0
 30
0.0
 40
3.999999999999944
  0
LINE
  5
148
  8
DATA
  6
CONTINUOUS
 62
     7
 10
438.75
 20
-571.49999999999989
 30
0.0
 11
438.75
 21
-566.5
 31
0.0
  0
LINE
  5
149
  8
DATA
  6
CONTINUOUS
 62
     7
 10
436.24999999999989
 20
-569.0
 30
0.0
 11
441.25
 21
-569.0
 31
0.0
  0
CIRCLE
  5
14A
  8
DATA
  6
CONTINUOUS
 62
     7
 10
438.75
 20
-483.0
 30
0.0
 40
3.999999999999944
  0
LINE
  5
14B
  8
DATA
  6
CONTINUOUS
 62
     7
 10
438.75
 20
-485.5
 30
0.0
 11
438.75
 21
-480.49999999999989
 31
0.0
  0
LINE
  5
14C
  8
DATA
  6
CONTINUOUS
 62
     7
 10
436.24999999999989
 20
-483.0
 30
0.0
 11
441.25
 21
-483.0
 31
0.0
  0
TEXT
  5
14D
  8
DATA
 62
     7
 10
509.92500045895559
 20
-534.36347715737395
 30
0.0
 40
2.6548828124999999
  1
\U+00B12 N/C
 41
0.7
 11
509.92500045895559
 21
-531.70859434487397
 31
0.0
 73
     3
  0
TEXT
  5
14E
  8
DATA
 62
     7
 10
509.92500045895559
 20
-530.63003796422572
 30
0.0
 40
2.6548828124999999
  1
\U+00B11 Full-Range
 41
0.7
 11
509.92500045895559
 21
-527.97515515172574
 31
0.0
 73
     3
  0
LINE
  5
14F
  8
DATA
  6
CONTINUOUS
 62
     7
 10
180.00000000000099
 20
740.0
 30
0.0
 11
1279.999999999998
 21
740.0
 31
0.0
  0
LINE
  5
150
  8
DATA
  6
CONTINUOUS
 62
     7
 10
180.00000000000099
 20
40.0
 30
0.0
 11
180.00000000000099
 21
740.0
 31
0.0
  0
LINE
  5
151
  8
DATA
  6
CONTINUOUS
 62
     7
 10
1279.999999999998
 20
40.0
 30
0.0
 11
180.00000000000099
 21
40.0
 31
0.0
  0
LINE
  5
152
  8
DATA
  6
CONTINUOUS
 62
     7
 10
1279.999999999998
 20
740.0
 30
0.0
 11
1279.999999999998
 21
40.0
 31
0.0
  0
CIRCLE
  5
153
  8
DATA
  6
CONTINUOUS
 62
     7
 10
949.99999999999875
 20
536.99999999999818
 30
0.0
 40
117.4999999999998
  0
CIRCLE
  5
154
  8
DATA
  6
CONTINUOUS
 62
     7
 10
1044.9999999999991
 20
416.99999999999818
 30
0.0
 40
20.0
  0
CIRCLE
  5
155
  8
DATA
  6
CONTINUOUS
 62
     7
 10
854.99999999999875
 20
656.99999999999795
 30
0.0
 40
20.0
  0
LINE
  5
156
  8
DATA
  6
CONTINUOUS
 62
     7
 10
839.99999999999875
 20
691.99999999999818
 30
0.0
 11
1059.999999999998
 21
691.99999999999818
 31
0.0
  0
LINE
  5
157
  8
DATA
  6
CONTINUOUS
 62
     7
 10
819.99999999999864
 20
671.99999999999807
 30
0.0
 11
819.99999999999864
 21
401.99999999999812
 31
0.0
  0
LINE
  5
158
  8
DATA
  6
CONTINUOUS
 62
     7
 10
839.99999999999875
 20
381.99999999999818
 30
0.0
 11
1059.999999999998
 21
381.99999999999818
 31
0.0
  0
LINE
  5
159
  8
DATA
  6
CONTINUOUS
 62
     7
 10
1079.999999999998
 20
671.99999999999807
 30
0.0
 11
1079.999999999998
 21
401.99999999999812
 31
0.0
  0
ARC
  5
15A
  8
DATA
  6
CONTINUOUS
 62
     7
 10
839.99999999999875
 20
671.99999999999807
 30
0.0
 40
20.0
 50
90.0
 51
180.0
  0
ARC
  5
15B
  8
DATA
  6
CONTINUOUS
 62
     7
 10
839.99999999999875
 20
401.99999999999812
 30
0.0
 40
20.0
 50
180.0
 51
270.0
  0
ARC
  5
15C
  8
DATA
  6
CONTINUOUS
 62
     7
 10
1059.999999999998
 20
401.99999999999812
 30
0.0
 40
20.0
 50
270.0
 51
0.0
  0
ARC
  5
15D
  8
DATA
  6
CONTINUOUS
 62
     7
 10
1059.999999999998
 20
671.99999999999807
 30
0.0
 40
20.0
 50
0.0
 51
90.0
  0
LINE
  5
15E
  8
DATA
  6
CONTINUOUS
 62
     7
 10
919.99999999999864
 20
636.99999999999795
 30
0.0
 11
979.99999999999875
 21
636.99999999999795
 31
0.0
  0
LINE
  5
15F
  8
DATA
  6
CONTINUOUS
 62
     7
 10
929.99999999999875
 20
436.99999999999818
 30
0.0
 11
969.99999999999864
 21
436.99999999999818
 31
0.0
  0
LINE
  5
160
  8
DATA
  6
CONTINUOUS
 62
     7
 10
929.99999999999875
 20
436.99999999999818
 30
0.0
 11
929.99999999999875
 21
448.99999999999852
 31
0.0
  0
LINE
  5
161
  8
DATA
  6
CONTINUOUS
 62
     7
 10
969.99999999999864
 20
436.99999999999818
 30
0.0
 11
969.99999999999864
 21
448.99999999999852
 31
0.0
  0
LINE
  5
162
  8
DATA
  6
CONTINUOUS
 62
     7
 10
919.99999999999864
 20
636.99999999999795
 30
0.0
 11
919.99999999999864
 21
619.72849999999755
 31
0.0
  0
LINE
  5
163
  8
DATA
  6
CONTINUOUS
 62
     7
 10
979.99999999999875
 20
636.99999999999795
 30
0.0
 11
979.99999999999875
 21
619.72849999999755
 31
0.0
  0
ARC
  5
164
  8
DATA
  6
CONTINUOUS
 62
     7
 10
949.99999999999875
 20
536.99999999999818
 30
0.0
 40
88.000026774143166
 50
109.932264150679
 51
257.19616681969927
  0
ARC
  5
165
  8
DATA
  6
CONTINUOUS
 62
     7
 10
949.99999999999875
 20
536.99999999999818
 30
0.0
 40
88.000035043459306
 50
282.9999995554212
 51
69.999994237961985
  0
ARC
  5
166
  8
DATA
  6
CONTINUOUS
 62
     7
 10
949.99999999999875
 20
536.99999999999818
 30
0.0
 40
62.000021620641739
 50
60.000011535560738
 51
150.0000115355607
  0
LINE
  5
167
  8
DATA
  6
CONTINUOUS
 62
     7
 10
896.30659999999921
 20
568.00029999999765
 30
0.0
 11
901.28619999999944
 21
565.12529999999845
 31
0.0
  0
LINE
  5
168
  8
DATA
  6
CONTINUOUS
 62
     7
 10
980.9996999999986
 20
590.69379999999785
 30
0.0
 11
978.12469999999837
 21
585.71409999999787
 31
0.0
  0
ARC
  5
169
  8
DATA
  6
CONTINUOUS
 62
     7
 10
949.99999999999875
 20
536.99999999999818
 30
0.0
 40
62.000021620641739
 50
240.0000115355607
 51
330.0000115355607
  0
LINE
  5
16A
  8
DATA
  6
CONTINUOUS
 62
     7
 10
918.99999999999829
 20
483.30639999999778
 30
0.0
 11
921.87499999999875
 21
488.28609999999799
 31
0.0
  0
LINE
  5
16B
  8
DATA
  6
CONTINUOUS
 62
     7
 10
1003.693699999999
 20
506.00019999999847
 30
0.0
 11
998.71399999999869
 21
508.87519999999768
 31
0.0
  0
ARC
  5
16C
  8
DATA
  6
CONTINUOUS
 62
     7
 10
949.99999999999875
 20
536.99999999999818
 30
0.0
 40
56.250038315808752
 50
149.99966968210171
 51
240.0002126043025
  0
ARC
  5
16D
  8
DATA
  6
CONTINUOUS
 62
     7
 10
949.99999999999875
 20
536.99999999999818
 30
0.0
 40
56.249961520342602
 50
330.00021260430242
 51
60.000718243122648
  0
ARC
  5
16E
  8
DATA
  6
CONTINUOUS
 62
     7
 10
949.99999999999875
 20
536.99999999999818
 30
0.0
 40
35.999900808752152
 50
59.999908854703911
 51
149.9999088547055
  0
ARC
  5
16F
  8
DATA
  6
CONTINUOUS
 62
     7
 10
949.99999999999875
 20
536.99999999999818
 30
0.0
 40
35.999900808752152
 50
239.9999088547039
 51
329.9999088547055
  0
LINE
  5
170
  8
DATA
  6
CONTINUOUS
 62
     7
 10
967.9997999999988
 20
568.17689999999845
 30
0.0
 11
964.49989999999821
 21
562.11479999999824
 31
0.0
  0
LINE
  5
171
  8
DATA
  6
CONTINUOUS
 62
     7
 10
918.82329999999888
 20
555.00009999999838
 30
0.0
 11
924.88529999999821
 21
551.50009999999827
 31
0.0
  0
LINE
  5
172
  8
DATA
  6
CONTINUOUS
 62
     7
 10
931.99999999999818
 20
505.82319999999862
 30
0.0
 11
935.49999999999955
 21
511.88529999999781
 31
0.0
  0
LINE
  5
173
  8
DATA
  6
CONTINUOUS
 62
     7
 10
981.176899999998
 20
519.00019999999813
 30
0.0
 11
975.11479999999881
 21
522.50009999999838
 31
0.0
  0
ARC
  5
174
  8
DATA
  6
CONTINUOUS
 62
     7
 10
949.99999999999875
 20
536.99999999999818
 30
0.0
 40
29.000018208615352
 50
149.9997926340304
 51
240.00023362382839
  0
ARC
  5
175
  8
DATA
  6
CONTINUOUS
 62
     7
 10
949.99999999999875
 20
536.99999999999818
 30
0.0
 40
29.000004811206331
 50
330.00023362383109
 51
59.999792634029468
  0
LINE
  5
176
  8
DATA
  6
CONTINUOUS
 62
     7
 10
1044.9999999999991
 20
426.99999999999812
 30
0.0
 11
1044.9999999999991
 21
406.99999999999812
 31
0.0
  0
LINE
  5
177
  8
DATA
  6
CONTINUOUS
 62
     7
 10
1034.9999999999991
 20
416.99999999999818
 30
0.0
 11
1054.999999999998
 21
416.99999999999818
 31
0.0
  0
LINE
  5
178
  8
DATA
  6
CONTINUOUS
 62
     7
 10
854.99999999999875
 20
666.99999999999795
 30
0.0
 11
854.99999999999875
 21
646.99999999999807
 31
0.0
  0
LINE
  5
179
  8
DATA
  6
CONTINUOUS
 62
     7
 10
844.99999999999864
 20
656.99999999999795
 30
0.0
 11
864.99999999999875
 21
656.99999999999795
 31
0.0
  0
CIRCLE
  5
17A
  8
DATA
  6
CONTINUOUS
 62
     7
 10
509.99999999999881
 20
536.99999999999818
 30
0.0
 40
84.999999999999986
  0
CIRCLE
  5
17B
  8
DATA
  6
CONTINUOUS
 62
     7
 10
509.99999999999881
 20
536.99999999999818
 30
0.0
 40
52.500000000006033
  0
CIRCLE
  5
17C
  8
DATA
  6
CONTINUOUS
 62
     7
 10
509.99999999999881
 20
536.99999999999818
 30
0.0
 40
45.000000000005862
  0
CIRCLE
  5
17D
  8
DATA
  6
CONTINUOUS
 62
     7
 10
509.99999999999881
 20
536.99999999999818
 30
0.0
 40
34.999999999997442
  0
POLYLINE
  5
17E
  8
DATA
  6
CONTINUOUS
 62
     7
 66
     1
 10
0.0
 20
0.0
 30
0.0
 70
     1
  0
VERTEX
  5
34D
  8
DATA
  6
CONTINUOUS
 62
     7
 10
594.99999999999875
 20
536.99999999999818
 30
0.0
  0
VERTEX
  5
34E
  8
DATA
  6
CONTINUOUS
 62
     7
 10
552.49999999999875
 20
610.61215932168125
 30
0.0
  0
VERTEX
  5
34F
  8
DATA
  6
CONTINUOUS
 62
     7
 10
467.49999999999881
 20
610.61215932168125
 30
0.0
  0
VERTEX
  5
350
  8
DATA
  6
CONTINUOUS
 62
     7
 10
424.99999999999881
 20
536.99999999999818
 30
0.0
  0
VERTEX
  5
351
  8
DATA
  6
CONTINUOUS
 62
     7
 10
467.49999999999881
 20
463.3878406783241
 30
0.0
  0
VERTEX
  5
352
  8
DATA
  6
CONTINUOUS
 62
     7
 10
552.49999999999875
 20
463.3878406783241
 30
0.0
  0
SEQEND
  5
353
  8
DATA
  6
CONTINUOUS
 62
     7
  0
TEXT
  5
187
  8
DATA
 62
     7
 10
669.49370659722103
 20
540.04890950520519
 30
0.0
 40
20.360514322916661
  1
IN/OUT
 41
0.7
 72
     1
 11
707.49999999999875
 21
550.22916666666367
 31
0.0
 73
     2
  0
TEXT
  5
188
  8
DATA
 62
     7
 10
603.45777180989455
 20
513.59057617187204
 30
0.0
 40
20.360514322916661
  1
(PARALLEL JACKS)
 41
0.7
 72
     1
 11
707.49999999999875
 21
523.77083333333042
 31
0.0
 73
     2
  0
TEXT
  5
189
  8
DATA
 62
     7
 10
335.9811197916676
 20
201.45922851562199
 30
0.0
 40
61.08154296875
  1
JRX215
 41
0.7
 72
     1
 11
450.0000000000008
 21
231.99999999999699
 31
0.0
 73
     2
  0
TEXT
  5
18A
  8
DATA
 62
     7
 10
233.44027257493039
 20
690.3299999999989
 30
0.0
 40
26.548828125000011
  1
Recommended Amplifier Power
 41
0.7
 11
233.44027257493039
 21
716.87882812499879
 31
0.0
 73
     3
  0
TEXT
  5
18B
  8
DATA
 62
     7
 10
233.44027257493039
 20
655.8299999999989
 30
0.0
 40
26.548828125000011
  1
250 - 500 watts , 8 ohms
 41
0.7
 11
233.44027257493039
 21
682.3788281249989
 31
0.0
 73
     3
  0
TEXT
  5
18C
  8
DATA
 62
     7
 10
829.25000458955628
 20
306.36522842626039
 30
0.0
 40
26.548828125000011
  1
\U+00B12 N/C
 41
0.7
 11
829.25000458955628
 21
332.91405655126039
 31
0.0
 73
     3
  0
TEXT
  5
18D
  8
DATA
 62
     7
 10
829.25000458955628
 20
343.69962035774262
 30
0.0
 40
26.548828125000011
  1
\U+00B11 Full-Range
 41
0.7
 11
829.25000458955628
 21
370.24844848274262
 31
0.0
 73
     3
  0
TEXT
  5
18E
  8
DATA
 62
     7
 10
514.71931966145871
 20
829.63948567708326
 30
0.0
 40
40.721028645833343
  1
コネクターパネル拡大図
 41
0.7
 72
     1
 11
700.00000000000045
 21
850.0
 31
0.0
 73
     2
  0
LINE
  5
18F
  8
DATA
  6
CONTINUOUS
 62
     7
 10
400.00000000000051
 20
800.0
 30
0.0
 11
1000.0
 21
800.0
 31
0.0
  0
ARC
  5
190
  8
DATA
  6
CONTINUOUS
 62
     7
 10
-700.0
 20
-1336.6077207723799
 30
0.0
 40
43.999999999999552
 50
180.0
 51
0.0
  0
ARC
  5
191
  8
DATA
  6
CONTINUOUS
 62
     7
 10
-700.0
 20
-1284.6077207723799
 30
0.0
 40
44.00000000000022
 50
0.0
 51
180.0
  0
LINE
  5
192
  8
DATA
  6
CONTINUOUS
 62
     7
 10
-743.99999999999955
 20
-1336.6077207723799
 30
0.0
 11
-743.99999999999955
 21
-1283.881504348507
 31
0.0
  0
LINE
  5
193
  8
DATA
  6
CONTINUOUS
 62
     7
 10
-655.99999999999966
 20
-1336.6077207723799
 30
0.0
 11
-655.99999999999966
 21
-1283.3922792276189
 31
0.0
  0
CIRCLE
  5
194
  8
DATA
  6
CONTINUOUS
 62
     7
 10
-734.99999999999943
 20
-1338.229604240074
 30
0.0
 40
4.5
  0
POLYLINE
  5
195
  8
DATA
  6
CONTINUOUS
 62
     7
 66
     1
 10
0.0
 20
0.0
 30
0.0
  0
VERTEX
  5
354
  8
DATA
  6
CONTINUOUS
 62
     7
 10
-735.64999999999941
 20
-1337.5796042400741
 30
0.0
  0
VERTEX
  5
355
  8
DATA
  6
CONTINUOUS
 62
     7
 10
-735.64999999999941
 20
-1334.979604240074
 30
0.0
  0
VERTEX
  5
356
  8
DATA
  6
CONTINUOUS
 62
     7
 10
-734.34999999999934
 20
-1334.979604240074
 30
0.0
  0
VERTEX
  5
357
  8
DATA
  6
CONTINUOUS
 62
     7
 10
-734.34999999999934
 20
-1337.5796042400741
 30
0.0
  0
SEQEND
  5
358
  8
DATA
  6
CONTINUOUS
 62
     7
  0
POLYLINE
  5
19C
  8
DATA
  6
CONTINUOUS
 62
     7
 66
     1
 10
0.0
 20
0.0
 30
0.0
  0
VERTEX
  5
359
  8
DATA
  6
CONTINUOUS
 62
     7
 10
-734.34999999999934
 20
-1338.8796042400741
 30
0.0
  0
VERTEX
  5
35A
  8
DATA
  6
CONTINUOUS
 62
     7
 10
-734.34999999999934
 20
-1341.479604240074
 30
0.0
  0
VERTEX
  5
35B
  8
DATA
  6
CONTINUOUS
 62
     7
 10
-735.64999999999941
 20
-1341.479604240074
 30
0.0
  0
VERTEX
  5
35C
  8
DATA
  6
CONTINUOUS
 62
     7
 10
-735.64999999999941
 20
-1338.8796042400741
 30
0.0
  0
SEQEND
  5
35D
  8
DATA
  6
CONTINUOUS
 62
     7
  0
POLYLINE
  5
1A3
  8
DATA
  6
CONTINUOUS
 62
     7
 66
     1
 10
0.0
 20
0.0
 30
0.0
  0
VERTEX
  5
35E
  8
DATA
  6
CONTINUOUS
 62
     7
 10
-734.34999999999934
 20
-1337.5796042400741
 30
0.0
  0
VERTEX
  5
35F
  8
DATA
  6
CONTINUOUS
 62
     7
 10
-731.74999999999943
 20
-1337.5796042400741
 30
0.0
  0
VERTEX
  5
360
  8
DATA
  6
CONTINUOUS
 62
     7
 10
-731.74999999999943
 20
-1338.8796042400741
 30
0.0
  0
VERTEX
  5
361
  8
DATA
  6
CONTINUOUS
 62
     7
 10
-734.34999999999934
 20
-1338.8796042400741
 30
0.0
  0
SEQEND
  5
362
  8
DATA
  6
CONTINUOUS
 62
     7
  0
POLYLINE
  5
1AA
  8
DATA
  6
CONTINUOUS
 62
     7
 66
     1
 10
0.0
 20
0.0
 30
0.0
  0
VERTEX
  5
363
  8
DATA
  6
CONTINUOUS
 62
     7
 10
-735.64999999999941
 20
-1338.8796042400741
 30
0.0
  0
VERTEX
  5
364
  8
DATA
  6
CONTINUOUS
 62
     7
 10
-738.24999999999943
 20
-1338.8796042400741
 30
0.0
  0
VERTEX
  5
365
  8
DATA
  6
CONTINUOUS
 62
     7
 10
-738.24999999999943
 20
-1337.5796042400741
 30
0.0
  0
VERTEX
  5
366
  8
DATA
  6
CONTINUOUS
 62
     7
 10
-735.64999999999941
 20
-1337.5796042400741
 30
0.0
  0
SEQEND
  5
367
  8
DATA
  6
CONTINUOUS
 62
     7
  0
CIRCLE
  5
1B1
  8
DATA
  6
CONTINUOUS
 62
     7
 10
-734.99999999999943
 20
-1283.229604240074
 30
0.0
 40
4.5
  0
POLYLINE
  5
1B2
  8
DATA
  6
CONTINUOUS
 62
     7
 66
     1
 10
0.0
 20
0.0
 30
0.0
  0
VERTEX
  5
368
  8
DATA
  6
CONTINUOUS
 62
     7
 10
-735.64999999999941
 20
-1282.5796042400741
 30
0.0
  0
VERTEX
  5
369
  8
DATA
  6
CONTINUOUS
 62
     7
 10
-735.64999999999941
 20
-1279.979604240074
 30
0.0
  0
VERTEX
  5
36A
  8
DATA
  6
CONTINUOUS
 62
     7
 10
-734.34999999999934
 20
-1279.979604240074
 30
0.0
  0
VERTEX
  5
36B
  8
DATA
  6
CONTINUOUS
 62
     7
 10
-734.34999999999934
 20
-1282.5796042400741
 30
0.0
  0
SEQEND
  5
36C
  8
DATA
  6
CONTINUOUS
 62
     7
  0
POLYLINE
  5
1B9
  8
DATA
  6
CONTINUOUS
 62
     7
 66
     1
 10
0.0
 20
0.0
 30
0.0
  0
VERTEX
  5
36D
  8
DATA
  6
CONTINUOUS
 62
     7
 10
-734.34999999999934
 20
-1283.8796042400741
 30
0.0
  0
VERTEX
  5
36E
  8
DATA
  6
CONTINUOUS
 62
     7
 10
-734.34999999999934
 20
-1286.479604240074
 30
0.0
  0
VERTEX
  5
36F
  8
DATA
  6
CONTINUOUS
 62
     7
 10
-735.64999999999941
 20
-1286.479604240074
 30
0.0
  0
VERTEX
  5
370
  8
DATA
  6
CONTINUOUS
 62
     7
 10
-735.64999999999941
 20
-1283.8796042400741
 30
0.0
  0
SEQEND
  5
371
  8
DATA
  6
CONTINUOUS
 62
     7
  0
POLYLINE
  5
1C0
  8
DATA
  6
CONTINUOUS
 62
     7
 66
     1
 10
0.0
 20
0.0
 30
0.0
  0
VERTEX
  5
372
  8
DATA
  6
CONTINUOUS
 62
     7
 10
-734.34999999999934
 20
-1282.5796042400741
 30
0.0
  0
VERTEX
  5
373
  8
DATA
  6
CONTINUOUS
 62
     7
 10
-731.74999999999943
 20
-1282.5796042400741
 30
0.0
  0
VERTEX
  5
374
  8
DATA
  6
CONTINUOUS
 62
     7
 10
-731.74999999999943
 20
-1283.8796042400741
 30
0.0
  0
VERTEX
  5
375
  8
DATA
  6
CONTINUOUS
 62
     7
 10
-734.34999999999934
 20
-1283.8796042400741
 30
0.0
  0
SEQEND
  5
376
  8
DATA
  6
CONTINUOUS
 62
     7
  0
POLYLINE
  5
1C7
  8
DATA
  6
CONTINUOUS
 62
     7
 66
     1
 10
0.0
 20
0.0
 30
0.0
  0
VERTEX
  5
377
  8
DATA
  6
CONTINUOUS
 62
     7
 10
-735.64999999999941
 20
-1283.8796042400741
 30
0.0
  0
VERTEX
  5
378
  8
DATA
  6
CONTINUOUS
 62
     7
 10
-738.24999999999943
 20
-1283.8796042400741
 30
0.0
  0
VERTEX
  5
379
  8
DATA
  6
CONTINUOUS
 62
     7
 10
-738.24999999999943
 20
-1282.5796042400741
 30
0.0
  0
VERTEX
  5
37A
  8
DATA
  6
CONTINUOUS
 62
     7
 10
-735.64999999999941
 20
-1282.5796042400741
 30
0.0
  0
SEQEND
  5
37B
  8
DATA
  6
CONTINUOUS
 62
     7
  0
CIRCLE
  5
1CE
  8
DATA
  6
CONTINUOUS
 62
     7
 10
-664.99999999999966
 20
-1283.229604240074
 30
0.0
 40
4.5
  0
POLYLINE
  5
1CF
  8
DATA
  6
CONTINUOUS
 62
     7
 66
     1
 10
0.0
 20
0.0
 30
0.0
  0
VERTEX
  5
37C
  8
DATA
  6
CONTINUOUS
 62
     7
 10
-665.64999999999975
 20
-1282.5796042400741
 30
0.0
  0
VERTEX
  5
37D
  8
DATA
  6
CONTINUOUS
 62
     7
 10
-665.64999999999975
 20
-1279.979604240074
 30
0.0
  0
VERTEX
  5
37E
  8
DATA
  6
CONTINUOUS
 62
     7
 10
-664.34999999999968
 20
-1279.979604240074
 30
0.0
  0
VERTEX
  5
37F
  8
DATA
  6
CONTINUOUS
 62
     7
 10
-664.34999999999968
 20
-1282.5796042400741
 30
0.0
  0
SEQEND
  5
380
  8
DATA
  6
CONTINUOUS
 62
     7
  0
POLYLINE
  5
1D6
  8
DATA
  6
CONTINUOUS
 62
     7
 66
     1
 10
0.0
 20
0.0
 30
0.0
  0
VERTEX
  5
381
  8
DATA
  6
CONTINUOUS
 62
     7
 10
-664.34999999999968
 20
-1283.8796042400741
 30
0.0
  0
VERTEX
  5
382
  8
DATA
  6
CONTINUOUS
 62
     7
 10
-664.34999999999968
 20
-1286.479604240074
 30
0.0
  0
VERTEX
  5
383
  8
DATA
  6
CONTINUOUS
 62
     7
 10
-665.64999999999975
 20
-1286.479604240074
 30
0.0
  0
VERTEX
  5
384
  8
DATA
  6
CONTINUOUS
 62
     7
 10
-665.64999999999975
 20
-1283.8796042400741
 30
0.0
  0
SEQEND
  5
385
  8
DATA
  6
CONTINUOUS
 62
     7
  0
POLYLINE
  5
1DD
  8
DATA
  6
CONTINUOUS
 62
     7
 66
     1
 10
0.0
 20
0.0
 30
0.0
  0
VERTEX
  5
386
  8
DATA
  6
CONTINUOUS
 62
     7
 10
-664.34999999999968
 20
-1282.5796042400741
 30
0.0
  0
VERTEX
  5
387
  8
DATA
  6
CONTINUOUS
 62
     7
 10
-661.74999999999966
 20
-1282.5796042400741
 30
0.0
  0
VERTEX
  5
388
  8
DATA
  6
CONTINUOUS
 62
     7
 10
-661.74999999999966
 20
-1283.8796042400741
 30
0.0
  0
VERTEX
  5
389
  8
DATA
  6
CONTINUOUS
 62
     7
 10
-664.34999999999968
 20
-1283.8796042400741
 30
0.0
  0
SEQEND
  5
38A
  8
DATA
  6
CONTINUOUS
 62
     7
  0
POLYLINE
  5
1E4
  8
DATA
  6
CONTINUOUS
 62
     7
 66
     1
 10
0.0
 20
0.0
 30
0.0
  0
VERTEX
  5
38B
  8
DATA
  6
CONTINUOUS
 62
     7
 10
-665.64999999999975
 20
-1283.8796042400741
 30
0.0
  0
VERTEX
  5
38C
  8
DATA
  6
CONTINUOUS
 62
     7
 10
-668.24999999999966
 20
-1283.8796042400741
 30
0.0
  0
VERTEX
  5
38D
  8
DATA
  6
CONTINUOUS
 62
     7
 10
-668.24999999999966
 20
-1282.5796042400741
 30
0.0
  0
VERTEX
  5
38E
  8
DATA
  6
CONTINUOUS
 62
     7
 10
-665.64999999999975
 20
-1282.5796042400741
 30
0.0
  0
SEQEND
  5
38F
  8
DATA
  6
CONTINUOUS
 62
     7
  0
CIRCLE
  5
1EB
  8
DATA
  6
CONTINUOUS
 62
     7
 10
-664.99999999999966
 20
-1338.229604240074
 30
0.0
 40
4.5
  0
POLYLINE
  5
1EC
  8
DATA
  6
CONTINUOUS
 62
     7
 66
     1
 10
0.0
 20
0.0
 30
0.0
  0
VERTEX
  5
390
  8
DATA
  6
CONTINUOUS
 62
     7
 10
-665.64999999999975
 20
-1337.5796042400741
 30
0.0
  0
VERTEX
  5
391
  8
DATA
  6
CONTINUOUS
 62
     7
 10
-665.64999999999975
 20
-1334.979604240074
 30
0.0
  0
VERTEX
  5
392
  8
DATA
  6
CONTINUOUS
 62
     7
 10
-664.34999999999968
 20
-1334.979604240074
 30
0.0
  0
VERTEX
  5
393
  8
DATA
  6
CONTINUOUS
 62
     7
 10
-664.34999999999968
 20
-1337.5796042400741
 30
0.0
  0
SEQEND
  5
394
  8
DATA
  6
CONTINUOUS
 62
     7
  0
POLYLINE
  5
1F3
  8
DATA
  6
CONTINUOUS
 62
     7
 66
     1
 10
0.0
 20
0.0
 30
0.0
  0
VERTEX
  5
395
  8
DATA
  6
CONTINUOUS
 62
     7
 10
-664.34999999999968
 20
-1338.8796042400741
 30
0.0
  0
VERTEX
  5
396
  8
DATA
  6
CONTINUOUS
 62
     7
 10
-664.34999999999968
 20
-1341.479604240074
 30
0.0
  0
VERTEX
  5
397
  8
DATA
  6
CONTINUOUS
 62
     7
 10
-665.64999999999975
 20
-1341.479604240074
 30
0.0
  0
VERTEX
  5
398
  8
DATA
  6
CONTINUOUS
 62
     7
 10
-665.64999999999975
 20
-1338.8796042400741
 30
0.0
  0
SEQEND
  5
399
  8
DATA
  6
CONTINUOUS
 62
     7
  0
POLYLINE
  5
1FA
  8
DATA
  6
CONTINUOUS
 62
     7
 66
     1
 10
0.0
 20
0.0
 30
0.0
  0
VERTEX
  5
39A
  8
DATA
  6
CONTINUOUS
 62
     7
 10
-664.34999999999968
 20
-1337.5796042400741
 30
0.0
  0
VERTEX
  5
39B
  8
DATA
  6
CONTINUOUS
 62
     7
 10
-661.74999999999966
 20
-1337.5796042400741
 30
0.0
  0
VERTEX
  5
39C
  8
DATA
  6
CONTINUOUS
 62
     7
 10
-661.74999999999966
 20
-1338.8796042400741
 30
0.0
  0
VERTEX
  5
39D
  8
DATA
  6
CONTINUOUS
 62
     7
 10
-664.34999999999968
 20
-1338.8796042400741
 30
0.0
  0
SEQEND
  5
39E
  8
DATA
  6
CONTINUOUS
 62
     7
  0
POLYLINE
  5
201
  8
DATA
  6
CONTINUOUS
 62
     7
 66
     1
 10
0.0
 20
0.0
 30
0.0
  0
VERTEX
  5
39F
  8
DATA
  6
CONTINUOUS
 62
     7
 10
-665.64999999999975
 20
-1338.8796042400741
 30
0.0
  0
VERTEX
  5
3A0
  8
DATA
  6
CONTINUOUS
 62
     7
 10
-668.24999999999966
 20
-1338.8796042400741
 30
0.0
  0
VERTEX
  5
3A1
  8
DATA
  6
CONTINUOUS
 62
     7
 10
-668.24999999999966
 20
-1337.5796042400741
 30
0.0
  0
VERTEX
  5
3A2
  8
DATA
  6
CONTINUOUS
 62
     7
 10
-665.64999999999975
 20
-1337.5796042400741
 30
0.0
  0
SEQEND
  5
3A3
  8
DATA
  6
CONTINUOUS
 62
     7
  0
CIRCLE
  5
208
  8
DATA
  6
CONTINUOUS
 62
     7
 10
-699.99999999999955
 20
-1248.249586856906
 30
0.0
 40
4.5
  0
POLYLINE
  5
209
  8
DATA
  6
CONTINUOUS
 62
     7
 66
     1
 10
0.0
 20
0.0
 30
0.0
  0
VERTEX
  5
3A4
  8
DATA
  6
CONTINUOUS
 62
     7
 10
-700.64999999999986
 20
-1247.5995868569059
 30
0.0
  0
VERTEX
  5
3A5
  8
DATA
  6
CONTINUOUS
 62
     7
 10
-700.64999999999986
 20
-1244.999586856906
 30
0.0
  0
VERTEX
  5
3A6
  8
DATA
  6
CONTINUOUS
 62
     7
 10
-699.3499999999998
 20
-1244.999586856906
 30
0.0
  0
VERTEX
  5
3A7
  8
DATA
  6
CONTINUOUS
 62
     7
 10
-699.3499999999998
 20
-1247.5995868569059
 30
0.0
  0
SEQEND
  5
3A8
  8
DATA
  6
CONTINUOUS
 62
     7
  0
POLYLINE
  5
210
  8
DATA
  6
CONTINUOUS
 62
     7
 66
     1
 10
0.0
 20
0.0
 30
0.0
  0
VERTEX
  5
3A9
  8
DATA
  6
CONTINUOUS
 62
     7
 10
-699.3499999999998
 20
-1248.8995868569059
 30
0.0
  0
VERTEX
  5
3AA
  8
DATA
  6
CONTINUOUS
 62
     7
 10
-699.3499999999998
 20
-1251.499586856906
 30
0.0
  0
VERTEX
  5
3AB
  8
DATA
  6
CONTINUOUS
 62
     7
 10
-700.64999999999986
 20
-1251.499586856906
 30
0.0
  0
VERTEX
  5
3AC
  8
DATA
  6
CONTINUOUS
 62
     7
 10
-700.64999999999986
 20
-1248.8995868569059
 30
0.0
  0
SEQEND
  5
3AD
  8
DATA
  6
CONTINUOUS
 62
     7
  0
POLYLINE
  5
217
  8
DATA
  6
CONTINUOUS
 62
     7
 66
     1
 10
0.0
 20
0.0
 30
0.0
  0
VERTEX
  5
3AE
  8
DATA
  6
CONTINUOUS
 62
     7
 10
-699.3499999999998
 20
-1247.5995868569059
 30
0.0
  0
VERTEX
  5
3AF
  8
DATA
  6
CONTINUOUS
 62
     7
 10
-696.74999999999955
 20
-1247.5995868569059
 30
0.0
  0
VERTEX
  5
3B0
  8
DATA
  6
CONTINUOUS
 62
     7
 10
-696.74999999999955
 20
-1248.8995868569059
 30
0.0
  0
VERTEX
  5
3B1
  8
DATA
  6
CONTINUOUS
 62
     7
 10
-699.3499999999998
 20
-1248.8995868569059
 30
0.0
  0
SEQEND
  5
3B2
  8
DATA
  6
CONTINUOUS
 62
     7
  0
POLYLINE
  5
21E
  8
DATA
  6
CONTINUOUS
 62
     7
 66
     1
 10
0.0
 20
0.0
 30
0.0
  0
VERTEX
  5
3B3
  8
DATA
  6
CONTINUOUS
 62
     7
 10
-700.64999999999986
 20
-1248.8995868569059
 30
0.0
  0
VERTEX
  5
3B4
  8
DATA
  6
CONTINUOUS
 62
     7
 10
-703.24999999999966
 20
-1248.8995868569059
 30
0.0
  0
VERTEX
  5
3B5
  8
DATA
  6
CONTINUOUS
 62
     7
 10
-703.24999999999966
 20
-1247.5995868569059
 30
0.0
  0
VERTEX
  5
3B6
  8
DATA
  6
CONTINUOUS
 62
     7
 10
-700.64999999999986
 20
-1247.5995868569059
 30
0.0
  0
SEQEND
  5
3B7
  8
DATA
  6
CONTINUOUS
 62
     7
  0
CIRCLE
  5
225
  8
DATA
  6
CONTINUOUS
 62
     7
 10
-699.99999999999955
 20
-1371.86811937108
 30
0.0
 40
4.5
  0
POLYLINE
  5
226
  8
DATA
  6
CONTINUOUS
 62
     7
 66
     1
 10
0.0
 20
0.0
 30
0.0
  0
VERTEX
  5
3B8
  8
DATA
  6
CONTINUOUS
 62
     7
 10
-700.64999999999986
 20
-1371.2181193710801
 30
0.0
  0
VERTEX
  5
3B9
  8
DATA
  6
CONTINUOUS
 62
     7
 10
-700.64999999999986
 20
-1368.61811937108
 30
0.0
  0
VERTEX
  5
3BA
  8
DATA
  6
CONTINUOUS
 62
     7
 10
-699.3499999999998
 20
-1368.61811937108
 30
0.0
  0
VERTEX
  5
3BB
  8
DATA
  6
CONTINUOUS
 62
     7
 10
-699.3499999999998
 20
-1371.2181193710801
 30
0.0
  0
SEQEND
  5
3BC
  8
DATA
  6
CONTINUOUS
 62
     7
  0
POLYLINE
  5
22D
  8
DATA
  6
CONTINUOUS
 62
     7
 66
     1
 10
0.0
 20
0.0
 30
0.0
  0
VERTEX
  5
3BD
  8
DATA
  6
CONTINUOUS
 62
     7
 10
-699.3499999999998
 20
-1372.518119371081
 30
0.0
  0
VERTEX
  5
3BE
  8
DATA
  6
CONTINUOUS
 62
     7
 10
-699.3499999999998
 20
-1375.11811937108
 30
0.0
  0
VERTEX
  5
3BF
  8
DATA
  6
CONTINUOUS
 62
     7
 10
-700.64999999999986
 20
-1375.11811937108
 30
0.0
  0
VERTEX
  5
3C0
  8
DATA
  6
CONTINUOUS
 62
     7
 10
-700.64999999999986
 20
-1372.518119371081
 30
0.0
  0
SEQEND
  5
3C1
  8
DATA
  6
CONTINUOUS
 62
     7
  0
POLYLINE
  5
234
  8
DATA
  6
CONTINUOUS
 62
     7
 66
     1
 10
0.0
 20
0.0
 30
0.0
  0
VERTEX
  5
3C2
  8
DATA
  6
CONTINUOUS
 62
     7
 10
-699.3499999999998
 20
-1371.2181193710801
 30
0.0
  0
VERTEX
  5
3C3
  8
DATA
  6
CONTINUOUS
 62
     7
 10
-696.74999999999955
 20
-1371.2181193710801
 30
0.0
  0
VERTEX
  5
3C4
  8
DATA
  6
CONTINUOUS
 62
     7
 10
-696.74999999999955
 20
-1372.518119371081
 30
0.0
  0
VERTEX
  5
3C5
  8
DATA
  6
CONTINUOUS
 62
     7
 10
-699.3499999999998
 20
-1372.518119371081
 30
0.0
  0
SEQEND
  5
3C6
  8
DATA
  6
CONTINUOUS
 62
     7
  0
POLYLINE
  5
23B
  8
DATA
  6
CONTINUOUS
 62
     7
 66
     1
 10
0.0
 20
0.0
 30
0.0
  0
VERTEX
  5
3C7
  8
DATA
  6
CONTINUOUS
 62
     7
 10
-700.64999999999986
 20
-1372.518119371081
 30
0.0
  0
VERTEX
  5
3C8
  8
DATA
  6
CONTINUOUS
 62
     7
 10
-703.24999999999966
 20
-1372.518119371081
 30
0.0
  0
VERTEX
  5
3C9
  8
DATA
  6
CONTINUOUS
 62
     7
 10
-703.24999999999966
 20
-1371.2181193710801
 30
0.0
  0
VERTEX
  5
3CA
  8
DATA
  6
CONTINUOUS
 62
     7
 10
-700.64999999999986
 20
-1371.2181193710801
 30
0.0
  0
SEQEND
  5
3CB
  8
DATA
  6
CONTINUOUS
 62
     7
  0
CIRCLE
  5
242
  8
DATA
  6
CONTINUOUS
 62
     7
 10
-700.0
 20
-1283.1077207723799
 30
0.0
 40
18.0
  0
CIRCLE
  5
243
  8
DATA
  6
CONTINUOUS
 62
     7
 10
-700.0
 20
-1338.1077207723799
 30
0.0
 40
18.0
  0
ARC
  5
244
  8
DATA
  6
CONTINUOUS
 62
     7
 10
-700.0
 20
-1289.2906772732849
 30
0.0
 40
18.0
 50
9.8895130866591767
 51
170.11048691334059
  0
LINE
  5
245
  8
DATA
  6
CONTINUOUS
 62
     7
 10
-177.5
 20
-463.49999999999989
 30
0.0
 11
-177.5
 21
-458.49999999999989
 31
0.0
  0
LINE
  5
246
  8
DATA
  6
CONTINUOUS
 62
     7
 10
-180.0
 20
-461.0
 30
0.0
 11
-175.0
 21
-461.0
 31
0.0
  0
CIRCLE
  5
247
  8
DATA
  6
CONTINUOUS
 62
     7
 10
-39.5
 20
-461.0
 30
0.0
 40
4.0
  0
LINE
  5
248
  8
DATA
  6
CONTINUOUS
 62
     7
 10
-39.5
 20
-463.49999999999989
 30
0.0
 11
-39.5
 21
-458.49999999999989
 31
0.0
  0
LINE
  5
249
  8
DATA
  6
CONTINUOUS
 62
     7
 10
-42.0
 20
-461.0
 30
0.0
 11
-37.0
 21
-461.0
 31
0.0
  0
CIRCLE
  5
24A
  8
DATA
  6
CONTINUOUS
 62
     7
 10
-177.5
 20
-269.0
 30
0.0
 40
4.0
  0
LINE
  5
24B
  8
DATA
  6
CONTINUOUS
 62
     7
 10
-177.5
 20
-271.5
 30
0.0
 11
-177.5
 21
-266.5
 31
0.0
  0
LINE
  5
24C
  8
DATA
  6
CONTINUOUS
 62
     7
 10
-180.0
 20
-269.0
 30
0.0
 11
-175.0
 21
-269.0
 31
0.0
  0
CIRCLE
  5
24D
  8
DATA
  6
CONTINUOUS
 62
     7
 10
-39.5
 20
-269.0
 30
0.0
 40
4.0
  0
LINE
  5
24E
  8
DATA
  6
CONTINUOUS
 62
     7
 10
-39.5
 20
-271.5
 30
0.0
 11
-39.5
 21
-266.5
 31
0.0
  0
LINE
  5
24F
  8
DATA
  6
CONTINUOUS
 62
     7
 10
-42.0
 20
-269.0
 30
0.0
 11
-37.0
 21
-269.0
 31
0.0
  0
CIRCLE
  5
250
  8
DATA
  6
CONTINUOUS
 62
     7
 10
-177.5
 20
-375.0
 30
0.0
 40
4.0
  0
LINE
  5
251
  8
DATA
  6
CONTINUOUS
 62
     7
 10
-177.5
 20
-377.5
 30
0.0
 11
-177.5
 21
-372.5
 31
0.0
  0
LINE
  5
252
  8
DATA
  6
CONTINUOUS
 62
     7
 10
-180.0
 20
-375.0
 30
0.0
 11
-175.0
 21
-375.0
 31
0.0
  0
CIRCLE
  5
253
  8
DATA
  6
CONTINUOUS
 62
     7
 10
-39.5
 20
-375.0
 30
0.0
 40
4.0
  0
LINE
  5
254
  8
DATA
  6
CONTINUOUS
 62
     7
 10
-39.5
 20
-377.5
 30
0.0
 11
-39.5
 21
-372.5
 31
0.0
  0
LINE
  5
255
  8
DATA
  6
CONTINUOUS
 62
     7
 10
-42.0
 20
-375.0
 30
0.0
 11
-37.0
 21
-375.0
 31
0.0
  0
TEXT
  5
256
  8
DATA
 62
     7
 10
712.49999999999955
 20
-1676.9955650000011
 30
0.0
 40
24.4326171875
  1
2-Wayフルレンジ・スピーカー
 41
0.7
 11
712.49999999999955
 21
-1652.5629478124999
 31
0.0
 73
     3
  0
LINE
  5
257
  8
DATA
  6
CONTINUOUS
 62
     7
 10
-520.97656815930873
 20
-810.1990074380418
 30
0.0
 11
-521.99646890311294
 21
-800.0
 31
0.0
  0
LINE
  5
258
  8
DATA
  6
CONTINUOUS
 62
     7
 10
-485.99646890311288
 20
-810.0
 30
0.0
 11
-520.99646890311294
 21
-810.0
 31
0.0
  0
LINE
  5
259
  8
DATA
  6
CONTINUOUS
 62
     7
 10
-488.00644402733712
 20
-812.0
 30
0.0
 11
-518.98649377888864
 21
-812.0
 31
0.0
  0
LINE
  5
25A
  8
DATA
  6
CONTINUOUS
 62
     7
 10
-484.99646890311288
 20
-800.0
 30
0.0
 11
-486.01636964691698
 21
-810.1990074380418
 31
0.0
  0
ARC
  5
25B
  8
DATA
  6
CONTINUOUS
 62
     7
 10
-518.98649377888864
 20
-810.0
 30
0.0
 40
2.000000000000095
 50
185.710593137497
 51
270.0
  0
ARC
  5
25C
  8
DATA
  6
CONTINUOUS
 62
     7
 10
-488.00644402733712
 20
-810.0
 30
0.0
 40
2.0
 50
270.0
 51
354.28940686250291
  0
LINE
  5
25D
  8
DATA
  6
CONTINUOUS
 62
     7
 10
-569.28707044241378
 20
-810.1990074380418
 30
0.0
 11
-570.30697118621799
 21
-800.0
 31
0.0
  0
LINE
  5
25E
  8
DATA
  6
CONTINUOUS
 62
     7
 10
-534.30697118621788
 20
-810.0
 30
0.0
 11
-569.30697118621799
 21
-810.0
 31
0.0
  0
LINE
  5
25F
  8
DATA
  6
CONTINUOUS
 62
     7
 10
-536.31694631044206
 20
-812.0
 30
0.0
 11
-567.29699606199358
 21
-812.0
 31
0.0
  0
LINE
  5
260
  8
DATA
  6
CONTINUOUS
 62
     7
 10
-533.30697118621788
 20
-800.0
 30
0.0
 11
-534.32687193002209
 21
-810.1990074380418
 31
0.0
  0
ARC
  5
261
  8
DATA
  6
CONTINUOUS
 62
     7
 10
-567.29699606199358
 20
-810.0
 30
0.0
 40
2.000000000000095
 50
185.710593137497
 51
270.0
  0
ARC
  5
262
  8
DATA
  6
CONTINUOUS
 62
     7
 10
-536.31694631044206
 20
-810.0
 30
0.0
 40
2.0
 50
270.0
 51
354.28940686250291
  0
LINE
  5
263
  8
DATA
  6
CONTINUOUS
 62
     7
 10
275.0
 20
-800.0
 30
0.0
 11
725.0
 21
-800.0
 31
0.0
  0
LINE
  5
264
  8
DATA
  6
CONTINUOUS
 62
     7
 10
679.02343184069127
 20
-810.1990074380418
 30
0.0
 11
678.00353109688706
 21
-800.0
 31
0.0
  0
LINE
  5
265
  8
DATA
  6
CONTINUOUS
 62
     7
 10
714.00353109688695
 20
-810.0
 30
0.0
 11
679.00353109688706
 21
-810.0
 31
0.0
  0
LINE
  5
266
  8
DATA
  6
CONTINUOUS
 62
     7
 10
711.99355597266265
 20
-812.0
 30
0.0
 11
681.01350622111124
 21
-812.0
 31
0.0
  0
LINE
  5
267
  8
DATA
  6
CONTINUOUS
 62
     7
 10
715.00353109688706
 20
-800.0
 30
0.0
 11
713.98363035308296
 21
-810.1990074380418
 31
0.0
  0
ARC
  5
268
  8
DATA
  6
CONTINUOUS
 62
     7
 10
681.01350622111124
 20
-810.0
 30
0.0
 40
2.000000000000095
 50
185.710593137497
 51
270.0
  0
ARC
  5
269
  8
DATA
  6
CONTINUOUS
 62
     7
 10
711.99355597266265
 20
-810.0
 30
0.0
 40
2.0
 50
270.0
 51
354.28940686250291
  0
LINE
  5
26A
  8
DATA
  6
CONTINUOUS
 62
     7
 10
630.71292955758611
 20
-810.1990074380418
 30
0.0
 11
629.69302881378189
 21
-800.0
 31
0.0
  0
LINE
  5
26B
  8
DATA
  6
CONTINUOUS
 62
     7
 10
665.69302881378201
 20
-810.0
 30
0.0
 11
630.69302881378201
 21
-810.0
 31
0.0
  0
LINE
  5
26C
  8
DATA
  6
CONTINUOUS
 62
     7
 10
663.68305368955771
 20
-812.0
 30
0.0
 11
632.70300393800619
 21
-812.0
 31
0.0
  0
LINE
  5
26D
  8
DATA
  6
CONTINUOUS
 62
     7
 10
666.69302881378201
 20
-800.0
 30
0.0
 11
665.67312806997791
 21
-810.1990074380418
 31
0.0
  0
ARC
  5
26E
  8
DATA
  6
CONTINUOUS
 62
     7
 10
632.70300393800619
 20
-810.0
 30
0.0
 40
2.000000000000095
 50
185.710593137497
 51
270.0
  0
ARC
  5
26F
  8
DATA
  6
CONTINUOUS
 62
     7
 10
663.68305368955771
 20
-810.0
 30
0.0
 40
2.0
 50
270.0
 51
354.28940686250291
  0
LINE
  5
270
  8
DATA
  6
CONTINUOUS
 62
     7
 10
88.221315928615184
 20
-810.1990074380418
 30
0.0
 11
87.201415184811054
 21
-800.0
 31
0.0
  0
LINE
  5
271
  8
DATA
  6
CONTINUOUS
 62
     7
 10
123.2014151848111
 20
-810.0
 30
0.0
 11
88.201415184811054
 21
-810.0
 31
0.0
  0
LINE
  5
272
  8
DATA
  6
CONTINUOUS
 62
     7
 10
121.1914400605869
 20
-812.0
 30
0.0
 11
90.211390309035266
 21
-812.0
 31
0.0
  0
LINE
  5
273
  8
DATA
  6
CONTINUOUS
 62
     7
 10
124.2014151848111
 20
-800.0
 30
0.0
 11
123.181514441007
 21
-810.1990074380418
 31
0.0
  0
ARC
  5
274
  8
DATA
  6
CONTINUOUS
 62
     7
 10
90.211390309035266
 20
-810.0
 30
0.0
 40
2.000000000000095
 50
185.710593137497
 51
270.0
  0
ARC
  5
275
  8
DATA
  6
CONTINUOUS
 62
     7
 10
121.1914400605869
 20
-810.0
 30
0.0
 40
2.0
 50
270.0
 51
354.28940686250291
  0
LINE
  5
276
  8
DATA
  6
CONTINUOUS
 62
     7
 10
-879.02343184069105
 20
-810.1990074380418
 30
0.0
 11
-878.00353109688695
 21
-800.0
 31
0.0
  0
LINE
  5
277
  8
DATA
  6
CONTINUOUS
 62
     7
 10
-914.00353109688706
 20
-810.0
 30
0.0
 11
-879.00353109688706
 21
-810.0
 31
0.0
  0
LINE
  5
278
  8
DATA
  6
CONTINUOUS
 62
     7
 10
-911.99355597266265
 20
-812.0
 30
0.0
 11
-881.01350622111136
 21
-812.0
 31
0.0
  0
LINE
  5
279
  8
DATA
  6
CONTINUOUS
 62
     7
 10
-915.00353109688706
 20
-800.0
 30
0.0
 11
-913.98363035308273
 21
-810.1990074380418
 31
0.0
  0
ARC
  5
27A
  8
DATA
  6
CONTINUOUS
 62
     7
 10
-881.01350622111136
 20
-810.0
 30
0.0
 40
2.0
 50
270.0
 51
354.28940686250291
  0
ARC
  5
27B
  8
DATA
  6
CONTINUOUS
 62
     7
 10
-911.99355597266265
 20
-810.0
 30
0.0
 40
2.000000000000095
 50
185.710593137497
 51
270.0
  0
CIRCLE
  5
27C
  8
DATA
  6
CONTINUOUS
 62
     7
 10
-848.19302881378235
 20
-1453.0
 30
0.0
 40
18.499999999999972
  0
CIRCLE
  5
27D
  8
DATA
  6
CONTINUOUS
 62
     7
 10
-848.19302881378235
 20
-1453.0
 30
0.0
 40
17.499999999999879
  0
CIRCLE
  5
27E
  8
DATA
  6
CONTINUOUS
 62
     7
 10
-848.19302881378235
 20
-1453.0
 30
0.0
 40
15.499999999999931
  0
CIRCLE
  5
27F
  8
DATA
  6
CONTINUOUS
 62
     7
 10
-896.50353109688695
 20
-1085.0
 30
0.0
 40
18.499999999999972
  0
CIRCLE
  5
280
  8
DATA
  6
CONTINUOUS
 62
     7
 10
-896.50353109688695
 20
-1085.0
 30
0.0
 40
17.499999999999879
  0
CIRCLE
  5
281
  8
DATA
  6
CONTINUOUS
 62
     7
 10
-896.50353109688695
 20
-1085.0
 30
0.0
 40
15.499999999999931
  0
LINE
  5
282
  8
DATA
  6
CONTINUOUS
 62
     7
 10
-830.71292955758599
 20
-810.1990074380418
 30
0.0
 11
-829.69302881378223
 21
-800.0
 31
0.0
  0
LINE
  5
283
  8
DATA
  6
CONTINUOUS
 62
     7
 10
-865.69302881378223
 20
-810.0
 30
0.0
 11
-830.69302881378223
 21
-810.0
 31
0.0
  0
LINE
  5
284
  8
DATA
  6
CONTINUOUS
 62
     7
 10
-863.68305368955782
 20
-812.0
 30
0.0
 11
-832.70300393800619
 21
-812.0
 31
0.0
  0
LINE
  5
285
  8
DATA
  6
CONTINUOUS
 62
     7
 10
-866.69302881378212
 20
-800.0
 30
0.0
 11
-865.67312806997779
 21
-810.1990074380418
 31
0.0
  0
ARC
  5
286
  8
DATA
  6
CONTINUOUS
 62
     7
 10
-832.70300393800619
 20
-810.0
 30
0.0
 40
2.0
 50
270.0
 51
354.28940686250291
  0
ARC
  5
287
  8
DATA
  6
CONTINUOUS
 62
     7
 10
-863.68305368955782
 20
-810.0
 30
0.0
 40
2.000000000000095
 50
185.710593137497
 51
270.0
  0
LINE
  5
288
  8
DATA
  6
CONTINUOUS
 62
     7
 10
320.9765681593089
 20
-810.1990074380418
 30
0.0
 11
321.99646890311288
 21
-800.0
 31
0.0
  0
LINE
  5
289
  8
DATA
  6
CONTINUOUS
 62
     7
 10
285.996468903113
 20
-810.0
 30
0.0
 11
320.99646890311288
 21
-810.0
 31
0.0
  0
LINE
  5
28A
  8
DATA
  6
CONTINUOUS
 62
     7
 10
288.00644402733718
 20
-812.0
 30
0.0
 11
318.98649377888881
 21
-812.0
 31
0.0
  0
LINE
  5
28B
  8
DATA
  6
CONTINUOUS
 62
     7
 10
284.99646890311288
 20
-800.0
 30
0.0
 11
286.0163696469171
 21
-810.1990074380418
 31
0.0
  0
ARC
  5
28C
  8
DATA
  6
CONTINUOUS
 62
     7
 10
318.98649377888881
 20
-810.0
 30
0.0
 40
2.0
 50
270.0
 51
354.28940686250291
  0
ARC
  5
28D
  8
DATA
  6
CONTINUOUS
 62
     7
 10
288.00644402733718
 20
-810.0
 30
0.0
 40
2.000000000000095
 50
185.710593137497
 51
270.0
  0
LINE
  5
28E
  8
DATA
  6
CONTINUOUS
 62
     7
 10
369.28707044241378
 20
-810.1990074380418
 30
0.0
 11
370.30697118621799
 21
-800.0
 31
0.0
  0
LINE
  5
28F
  8
DATA
  6
CONTINUOUS
 62
     7
 10
334.30697118621799
 20
-810.0
 30
0.0
 11
369.30697118621811
 21
-810.0
 31
0.0
  0
LINE
  5
290
  8
DATA
  6
CONTINUOUS
 62
     7
 10
336.31694631044218
 20
-812.0
 30
0.0
 11
367.2969960619937
 21
-812.0
 31
0.0
  0
LINE
  5
291
  8
DATA
  6
CONTINUOUS
 62
     7
 10
333.30697118621799
 20
-800.0
 30
0.0
 11
334.32687193002198
 21
-810.1990074380418
 31
0.0
  0
ARC
  5
292
  8
DATA
  6
CONTINUOUS
 62
     7
 10
367.2969960619937
 20
-810.0
 30
0.0
 40
2.0
 50
270.0
 51
354.28940686250291
  0
ARC
  5
293
  8
DATA
  6
CONTINUOUS
 62
     7
 10
336.31694631044218
 20
-810.0
 30
0.0
 40
2.000000000000095
 50
185.710593137497
 51
270.0
  0
LINE
  5
294
  8
DATA
  6
CONTINUOUS
 62
     7
 10
-475.0
 20
100.0
 30
0.0
 11
-925.0
 21
100.0
 31
0.0
  0
LINE
  5
295
  8
DATA
  6
CONTINUOUS
 62
     7
 10
-531.24455740285828
 20
538.0
 30
0.0
 11
-868.75544259714161
 21
538.0
 31
0.0
  0
LINE
  5
296
  8
DATA
  6
CONTINUOUS
 62
     7
 10
-934.91068394789932
 20
111.3335455316009
 30
0.0
 11
-878.66612654504104
 21
529.33354553160086
 31
0.0
  0
ARC
  5
297
  8
DATA
  6
CONTINUOUS
 62
     7
 10
-925.0
 20
110.0
 30
0.0
 40
10.000000000000099
 50
172.33651757751841
 51
270.0
  0
LINE
  5
298
  8
DATA
  6
CONTINUOUS
 62
     7
 10
-465.0893160521008
 20
111.3335455316009
 30
0.0
 11
-521.33387345495908
 21
529.33354553160086
 31
0.0
  0
ARC
  5
299
  8
DATA
  6
CONTINUOUS
 62
     7
 10
-868.75544259714161
 20
528.0
 30
0.0
 40
10.0
 50
90.0
 51
172.33651757751821
  0
ARC
  5
29A
  8
DATA
  6
CONTINUOUS
 62
     7
 10
-531.24455740285828
 20
528.0
 30
0.0
 40
9.9999999999999911
 50
7.6634824224817208
 51
90.0
  0
ARC
  5
29B
  8
DATA
  6
CONTINUOUS
 62
     7
 10
-475.0
 20
110.0
 30
0.0
 40
10.0
 50
270.0
 51
7.6634824224816507
  0
LINE
  5
29C
  8
DATA
  6
CONTINUOUS
 62
     7
 10
-925.0
 20
-1050.0
 30
0.0
 11
-475.0
 21
-1050.0
 31
0.0
  0
LINE
  5
29D
  8
DATA
  6
CONTINUOUS
 62
     7
 10
-868.75544259714161
 20
-1488.0
 30
0.0
 11
-531.24455740285805
 21
-1488.0
 31
0.0
  0
LINE
  5
29E
  8
DATA
  6
CONTINUOUS
 62
     7
 10
-465.08931605210068
 20
-1061.333545531601
 30
0.0
 11
-521.33387345495908
 21
-1479.333545531601
 31
0.0
  0
ARC
  5
29F
  8
DATA
  6
CONTINUOUS
 62
     7
 10
-475.0
 20
-1060.0
 30
0.0
 40
10.000000000000099
 50
352.33651757751841
 51
90.0
  0
LINE
  5
2A0
  8
DATA
  6
CONTINUOUS
 62
     7
 10
-934.91068394789932
 20
-1061.333545531601
 30
0.0
 11
-878.66612654504104
 21
-1479.333545531601
 31
0.0
  0
ARC
  5
2A1
  8
DATA
  6
CONTINUOUS
 62
     7
 10
-531.24455740285805
 20
-1478.0
 30
0.0
 40
10.0
 50
270.0
 51
352.33651757751818
  0
ARC
  5
2A2
  8
DATA
  6
CONTINUOUS
 62
     7
 10
-868.75544259714161
 20
-1478.0
 30
0.0
 40
10.000000000000099
 50
187.66348242248171
 51
270.0
  0
ARC
  5
2A3
  8
DATA
  6
CONTINUOUS
 62
     7
 10
-925.0
 20
-1060.0
 30
0.0
 40
10.0
 50
90.0
 51
187.66348242248171
  0
ENDSEC
  0
EOF
