  0
SECTION
  2
HEADER
  9
$ACADVER
  1
AC1009
  9
$INSBASE
 10
0.0
 20
0.0
 30
0.0
  9
$EXTMIN
 10
-720.08788660158461
 20
-1057.940925074545
 30
-0.0000000349181948
  9
$EXTMAX
 10
720.0879000130376
 20
1083.0669204123319
 30
0.0000000814935747
  9
$LIMMIN
 10
0.0
 20
0.0
  9
$LIMMAX
 10
0.0
 20
0.0
  9
$ORTHOMODE
 70
     0
  9
$REGENMODE
 70
     1
  9
$FILLMODE
 70
     1
  9
$QTEXTMODE
 70
     0
  9
$MIRRTEXT
 70
     1
  9
$DRAGMODE
 70
     2
  9
$LTSCALE
 40
101.59999999999999
  9
$OSMODE
 70
   231
  9
$ATTMODE
 70
     1
  9
$TEXTSIZE
 40
0.0
  9
$TRACEWID
 40
1.0
  9
$TEXTSTYLE
  7
STANDARD
  9
$CLAYER
  8
DATA
  9
$CELTYPE
  6
BYLAYER
  9
$CECOLOR
 62
   256
  9
$DIMSCALE
 40
1.0
  9
$DIMASZ
 40
0.18
  9
$DIMEXO
 40
0.0625
  9
$DIMDLI
 40
0.38
  9
$DIMRND
 40
0.0
  9
$DIMDLE
 40
0.0
  9
$DIMEXE
 40
0.18
  9
$DIMTP
 40
0.0
  9
$DIMTM
 40
0.0
  9
$DIMTXT
 40
0.18
  9
$DIMCEN
 40
0.09
  9
$DIMTSZ
 40
0.0
  9
$DIMTOL
 70
     0
  9
$DIMLIM
 70
     0
  9
$DIMTIH
 70
     1
  9
$DIMTOH
 70
     1
  9
$DIMSE1
 70
     0
  9
$DIMSE2
 70
     0
  9
$DIMTAD
 70
     0
  9
$DIMZIN
 70
     0
  9
$DIMBLK
  1

  9
$DIMASO
 70
     1
  9
$DIMSHO
 70
     1
  9
$DIMPOST
  1

  9
$DIMAPOST
  1

  9
$DIMALT
 70
     0
  9
$DIMALTD
 70
     2
  9
$DIMALTF
 40
25.399999999999999
  9
$DIMLFAC
 40
1.0
  9
$DIMTOFL
 70
     0
  9
$DIMTVP
 40
0.0
  9
$DIMTIX
 70
     0
  9
$DIMSOXD
 70
     0
  9
$DIMSAH
 70
     0
  9
$DIMBLK1
  1

  9
$DIMBLK2
  1

  9
$DIMSTYLE
  2
STANDARD
  9
$DIMCLRD
 70
     0
  9
$DIMCLRE
 70
     0
  9
$DIMCLRT
 70
     0
  9
$DIMTFAC
 40
1.0
  9
$DIMGAP
 40
0.09
  9
$LUNITS
 70
     2
  9
$LUPREC
 70
     4
  9
$SKETCHINC
 40
0.1
  9
$FILLETRAD
 40
0.0
  9
$AUNITS
 70
     0
  9
$AUPREC
 70
     0
  9
$MENU
  1
acad
  9
$ELEVATION
 40
0.0
  9
$PELEVATION
 40
0.0
  9
$THICKNESS
 40
0.0
  9
$LIMCHECK
 70
     0
  9
$BLIPMODE
 70
     0
  9
$CHAMFERA
 40
0.0
  9
$CHAMFERB
 40
0.0
  9
$SKPOLY
 70
     0
  9
$TDCREATE
 40
2456675.7930555558
  9
$TDUPDATE
 40
2456675.795033067
  9
$TDINDWG
 40
0.0006756366
  9
$TDUSRTIMER
 40
0.0006751157
  9
$USRTIMER
 70
     1
  9
$ANGBASE
 50
0.0
  9
$ANGDIR
 70
     0
  9
$PDMODE
 70
     1
  9
$PDSIZE
 40
-2.0
  9
$PLINEWID
 40
0.0
  9
$COORDS
 70
     2
  9
$SPLFRAME
 70
     0
  9
$SPLINETYPE
 70
     6
  9
$SPLINESEGS
 70
     8
  9
$ATTDIA
 70
     0
  9
$ATTREQ
 70
     1
  9
$HANDLING
 70
     1
  9
$HANDSEED
  5
65C
  9
$SURFTAB1
 70
     6
  9
$SURFTAB2
 70
     6
  9
$SURFTYPE
 70
     6
  9
$SURFU
 70
     6
  9
$SURFV
 70
     6
  9
$UCSNAME
  2

  9
$UCSORG
 10
0.0
 20
0.0
 30
0.0
  9
$UCSXDIR
 10
1.0
 20
0.0
 30
0.0
  9
$UCSYDIR
 10
0.0
 20
1.0
 30
0.0
  9
$PUCSNAME
  2

  9
$PUCSORG
 10
0.0
 20
0.0
 30
0.0
  9
$PUCSXDIR
 10
1.0
 20
0.0
 30
0.0
  9
$PUCSYDIR
 10
0.0
 20
1.0
 30
0.0
  9
$USERI1
 70
     0
  9
$USERI2
 70
     0
  9
$USERI3
 70
     0
  9
$USERI4
 70
     0
  9
$USERI5
 70
     0
  9
$USERR1
 40
0.0
  9
$USERR2
 40
0.0
  9
$USERR3
 40
0.0
  9
$USERR4
 40
0.0
  9
$USERR5
 40
0.0
  9
$WORLDVIEW
 70
     1
  9
$SHADEDGE
 70
     3
  9
$SHADEDIF
 70
    70
  9
$TILEMODE
 70
     1
  9
$MAXACTVP
 70
    64
  9
$PLIMCHECK
 70
     0
  9
$PEXTMIN
 10
1.0000000000000000E+020
 20
1.0000000000000000E+020
 30
1.0000000000000000E+020
  9
$PEXTMAX
 10
-1.0000000000000000E+020
 20
-1.0000000000000000E+020
 30
-1.0000000000000000E+020
  9
$PLIMMIN
 10
0.0
 20
0.0
  9
$PLIMMAX
 10
12.0
 20
9.0
  9
$UNITMODE
 70
     0
  9
$VISRETAIN
 70
     0
  9
$PLINEGEN
 70
     1
  9
$PSLTSCALE
 70
     0
  0
ENDSEC
  0
SECTION
  2
TABLES
  0
TABLE
  2
VPORT
 70
     1
  0
VPORT
  2
*ACTIVE
 70
     0
 10
0.0
 20
0.0
 11
1.0
 21
1.0
 12
0.000006705726264
 22
12.562997668893781
 13
0.0
 23
0.0
 14
1.0
 24
1.0
 15
0.0
 25
0.0
 16
0.0
 26
0.0
 36
1.0
 17
0.0
 27
0.0
 37
0.0
 40
2157.8661749788998
 41
2.1787122207621552
 42
50.0
 43
0.0
 44
0.0
 50
0.0
 51
0.0
 71
     0
 72
  2000
 73
     1
 74
     1
 75
     0
 76
     0
 77
     0
 78
     0
  0
ENDTAB
  0
TABLE
  2
LTYPE
 70
     1
  0
LTYPE
  2
CONTINUOUS
 70
     0
  3
Solid line
 72
    65
 73
     0
 40
0.0
  0
ENDTAB
  0
TABLE
  2
LAYER
 70
     5
  0
LAYER
  2
0
 70
     0
 62
     7
  6
CONTINUOUS
  0
LAYER
  2
DATA
 70
     0
 62
     7
  6
CONTINUOUS
  0
LAYER
  2
HIBINO-BASE
 70
     0
 62
     7
  6
CONTINUOUS
  0
LAYER
  2
SPEC
 70
     0
 62
     7
  6
CONTINUOUS
  0
LAYER
  2
DIMNSIONS
 70
     0
 62
     7
  6
CONTINUOUS
  0
ENDTAB
  0
TABLE
  2
STYLE
 70
     2
  0
STYLE
  2
STANDARD
 70
     0
 40
0.0
 41
1.0
 50
0.0
 71
     0
 42
0.0
  3
txt
  4
BIGFONT.SHX
  0
ENDTAB
  0
TABLE
  2
VIEW
 70
     0
  0
ENDTAB
  0
TABLE
  2
UCS
 70
     0
  0
ENDTAB
  0
TABLE
  2
APPID
 70
     4
  0
APPID
  2
ACAD
 70
     0
  0
APPID
  2
ACADANNOTATIVE
 70
     0
  0
APPID
  2
ACAD_NAV_VCDISPLAY
 70
     0
  0
APPID
  2
ACAD_MLEADERVER
 70
     0
  0
ENDTAB
  0
TABLE
  2
DIMSTYLE
 70
     2
  0
DIMSTYLE
  2
STANDARD
 70
     0
  3

  4

  5

  6

  7

 40
1.0
 41
0.18
 42
0.0625
 43
0.38
 44
0.18
 45
0.0
 46
0.0
 47
0.0
 48
0.0
140
0.18
141
0.09
142
0.0
143
25.399999999999999
144
1.0
145
0.0
146
1.0
147
0.09
 71
     0
 72
     0
 73
     1
 74
     1
 75
     0
 76
     0
 77
     0
 78
     0
170
     0
171
     2
172
     0
173
     0
174
     0
175
     0
176
     0
177
     0
178
     0
  0
ENDTAB
  0
ENDSEC
  0
SECTION
  2
BLOCKS
  0
BLOCK
  8
0
  2
$MODEL_SPACE
 70
     0
 10
0.0
 20
0.0
 30
0.0
  3
$MODEL_SPACE
  1

  0
ENDBLK
  5
5CC
  8
0
  0
BLOCK
 67
     1
  8
0
  2
$PAPER_SPACE
 70
     0
 10
0.0
 20
0.0
 30
0.0
  3
$PAPER_SPACE
  1

  0
ENDBLK
  5
5C8
 67
     1
  8
0
  0
ENDSEC
  0
SECTION
  2
ENTITIES
  0
LINE
  5
2E
  8
HIBINO-BASE
  6
CONTINUOUS
 62
     7
 10
-720.0
 20
1082.9363699999999
 30
0.0
 11
720.0
 21
1082.9363699999999
 31
0.0
  0
LINE
  5
2F
  8
HIBINO-BASE
  6
CONTINUOUS
 62
     7
 10
720.0
 20
-997.06362999999999
 30
0.0
 11
-720.0
 21
-997.06362999999999
 31
0.0
  0
LINE
  5
30
  8
HIBINO-BASE
  6
CONTINUOUS
 62
     7
 10
-720.0
 20
-997.06362999999999
 30
0.0
 11
-720.0
 21
1082.9363699999999
 31
0.0
  0
LINE
  5
31
  8
HIBINO-BASE
  6
CONTINUOUS
 62
     7
 10
720.0
 20
1082.9363699999999
 30
0.0
 11
720.0
 21
-997.06362999999999
 31
0.0
  0
LINE
  5
32
  8
HIBINO-BASE
  6
CONTINUOUS
 62
     7
 10
0.0
 20
-817.0636300000001
 30
0.0
 11
720.0
 21
-817.0636300000001
 31
0.0
  0
LINE
  5
33
  8
HIBINO-BASE
  6
CONTINUOUS
 62
     7
 10
0.0
 20
-997.06362999999999
 30
0.0
 11
0.0
 21
-817.0636300000001
 31
0.0
  0
TEXT
  5
34
  8
HIBINO-BASE
 62
     7
 10
7.2000000000002711
 20
-837.13317666666649
 30
0.0
 40
13.03072916666666
  1
NOTE
 41
0.7
 11
7.200000000000272
 21
-824.1024474999997
 31
0.0
 73
     3
  0
LINE
  5
35
  8
HIBINO-BASE
  6
CONTINUOUS
 62
     7
 10
280.0
 20
-997.06362999999999
 30
0.0
 11
280.0
 21
-817.0636300000001
 31
0.0
  0
TEXT
  5
36
  8
HIBINO-BASE
 62
     7
 10
287.19999999999982
 20
-837.13317666666649
 30
0.0
 40
13.03072916666666
  1
TITLE
 41
0.7
 11
287.19999999999982
 21
-824.1024474999997
 31
0.0
 73
     3
  0
LINE
  5
37
  8
HIBINO-BASE
  6
CONTINUOUS
 62
     7
 10
0.0
 20
-917.06362999999988
 30
0.0
 11
720.0
 21
-917.06362999999988
 31
0.0
  0
TEXT
  5
38
  8
HIBINO-BASE
 62
     7
 10
387.19999999999987
 20
-936.68261666666672
 30
0.0
 40
13.03072916666666
  1
DRAWN
 41
0.7
 11
387.19999999999987
 21
-923.65188749999993
 31
0.0
 73
     3
  0
TEXT
  5
39
  8
HIBINO-BASE
 62
     7
 10
187.1999999999997
 20
-936.68261666666672
 30
0.0
 40
13.03072916666666
  1
DATE
 41
0.7
 11
187.1999999999997
 21
-923.65188749999993
 31
0.0
 73
     3
  0
TEXT
  5
3A
  8
HIBINO-BASE
 62
     7
 10
107.1999999999998
 20
-936.68261666666672
 30
0.0
 40
13.03072916666666
  1
SCALE
 41
0.7
 11
107.1999999999998
 21
-923.65188749999993
 31
0.0
 73
     3
  0
TEXT
  5
3B
  8
HIBINO-BASE
 62
     7
 10
287.19999999999982
 20
-936.68261666666672
 30
0.0
 40
13.03072916666666
  1
DESIGN
 41
0.7
 11
287.19999999999982
 21
-923.65188749999993
 31
0.0
 73
     3
  0
TEXT
  5
3C
  8
HIBINO-BASE
 62
     7
 10
587.19999999999982
 20
-936.68261666666672
 30
0.0
 40
13.03072916666666
  1
DRAWING NO.
 41
0.7
 11
587.19999999999982
 21
-923.65188749999993
 31
0.0
 73
     3
  0
TEXT
  5
3D
  8
HIBINO-BASE
 62
     7
 10
487.19999999999982
 20
-936.68261666666672
 30
0.0
 40
13.03072916666666
  1
CHECK
 41
0.7
 11
487.19999999999982
 21
-923.65188749999993
 31
0.0
 73
     3
  0
LINE
  5
3E
  8
HIBINO-BASE
  6
CONTINUOUS
 62
     7
 10
115.0
 20
-987.06362999999988
 30
0.0
 11
145.0
 21
-957.06363000000022
 31
0.0
  0
TEXT
  5
3F
  8
HIBINO-BASE
 62
     7
 10
110.0
 20
-965.93517666666673
 30
0.0
 40
13.03072916666666
  1
1
 41
0.7
 11
110.0
 21
-952.90444749999995
 31
0.0
 73
     3
  0
LINE
  5
40
  8
HIBINO-BASE
  6
CONTINUOUS
 62
     7
 10
100.0
 20
-997.06362999999999
 30
0.0
 11
100.0
 21
-917.06362999999988
 31
0.0
  0
LINE
  5
41
  8
HIBINO-BASE
  6
CONTINUOUS
 62
     7
 10
180.0
 20
-997.06362999999999
 30
0.0
 11
180.0
 21
-917.06362999999988
 31
0.0
  0
LINE
  5
42
  8
HIBINO-BASE
  6
CONTINUOUS
 62
     7
 10
380.0
 20
-917.06362999999988
 30
0.0
 11
380.0
 21
-997.06362999999999
 31
0.0
  0
LINE
  5
43
  8
HIBINO-BASE
  6
CONTINUOUS
 62
     7
 10
580.0
 20
-917.06362999999988
 30
0.0
 11
580.0
 21
-997.06362999999999
 31
0.0
  0
LINE
  5
44
  8
HIBINO-BASE
  6
CONTINUOUS
 62
     7
 10
480.0
 20
-997.06362999999999
 30
0.0
 11
480.0
 21
-917.06362999999988
 31
0.0
  0
TEXT
  5
45
  8
HIBINO-BASE
 62
     7
 10
186.85231999999999
 20
-974.15445666666665
 30
0.0
 40
13.03072916666666
  1
'14.01.
 41
0.7
 11
186.85231999999999
 21
-961.12372749999997
 31
0.0
 73
     3
  0
TEXT
  5
46
  8
HIBINO-BASE
 62
     7
 10
140.0
 20
-980.93517666666651
 30
0.0
 40
13.03072916666666
  1
8
 41
0.7
 11
140.0
 21
-967.90444749999995
 31
0.0
 73
     3
  0
TEXT
  5
47
  8
HIBINO-BASE
 62
     7
 10
392.04648008827689
 20
-974.15445666666665
 30
0.0
 40
13.03072916666666
  1
N.Sasaki
 41
0.7
 11
392.04648008827689
 21
-961.12372749999997
 31
0.0
 73
     3
  0
TEXT
  5
48
  8
HIBINO-BASE
 62
     7
 10
31.066666666667061
 20
-981.25562999999966
 30
0.0
 40
26.061458333333331
  1
A4
 41
0.7
 11
31.066666666667061
 21
-955.19417166666642
 31
0.0
 73
     3
  0
TEXT
  5
49
  8
HIBINO-BASE
 62
     7
 10
7.6666666666665142
 20
-938.01926999999955
 30
0.0
 40
13.03072916666666
  1
PAPER SIZE
 41
0.7
 11
7.6666666666665151
 21
-924.98854083333299
 31
0.0
 73
     3
  0
TEXT
  5
4A
  8
HIBINO-BASE
 62
     7
 10
-662.52799999999979
 20
-1048.3330524
 30
0.0
 40
28.8003534375
  1
Hibino Corporation
 41
0.7
 11
-662.52799999999979
 21
-1019.5326989625
 31
0.0
 73
     3
  0
TEXT
  5
4B
  8
HIBINO-BASE
 62
     7
 10
400.54712000000001
 20
-1048.3330524
 30
0.0
 40
28.8003534375
  1
ヒビノ株式会社
 41
0.7
 11
400.54712000000001
 21
-1019.5326989625
 31
0.0
 73
     3
  0
TEXT
  5
4C
  8
SPEC
 62
     7
 10
-242.7999999999993
 20
619.23971222222178
 30
0.0
 40
15.2025173611111
  1
8.8kg
 41
0.7
 11
-242.7999999999993
 21
634.44222958333296
 31
0.0
 73
     3
  0
TEXT
  5
4D
  8
SPEC
 62
     7
 10
-242.7999999999993
 20
649.23971222222167
 30
0.0
 40
15.2025173611111
  1
257\U+00D7423\U+00D7300mm(除突起部)
 41
0.7
 11
-242.7999999999993
 21
664.44222958333285
 31
0.0
 73
     3
  0
LINE
  5
4E
  8
SPEC
  6
CONTINUOUS
 62
     7
 10
-659.9999999999992
 20
1002.93637
 30
0.0
 11
520.0000000000008
 21
1002.93637
 31
0.0
  0
LINE
  5
4F
  8
SPEC
  6
CONTINUOUS
 62
     7
 10
-659.9999999999992
 20
972.93637000000001
 30
0.0
 11
520.0000000000008
 21
972.93637000000001
 31
0.0
  0
LINE
  5
50
  8
SPEC
  6
CONTINUOUS
 62
     7
 10
-659.9999999999992
 20
1002.93637
 30
0.0
 11
-659.9999999999992
 21
582.9363699999999
 31
0.0
  0
TEXT
  5
51
  8
SPEC
 62
     7
 10
-649.9999999999992
 20
1014.082529999999
 30
0.0
 40
19.546093750000001
  1
仕様
 41
0.7
 11
-649.9999999999992
 21
1033.628623749999
 31
0.0
 73
     3
  0
LINE
  5
52
  8
SPEC
  6
CONTINUOUS
 62
     7
 10
-249.9999999999992
 20
1002.93637
 30
0.0
 11
-249.9999999999992
 21
582.9363699999999
 31
0.0
  0
LINE
  5
53
  8
SPEC
  6
CONTINUOUS
 62
     7
 10
520.0000000000008
 20
1002.93637
 30
0.0
 11
520.0000000000008
 21
582.9363699999999
 31
0.0
  0
TEXT
  5
54
  8
SPEC
 62
     7
 10
-652.79999999999916
 20
589.23971222222178
 30
0.0
 40
15.2025173611111
  1
付属品
 41
0.7
 11
-652.79999999999916
 21
604.44222958333285
 31
0.0
 73
     3
  0
TEXT
  5
55
  8
SPEC
 62
     7
 10
-652.79999999999916
 20
649.23971222222167
 30
0.0
 40
15.2025173611111
  1
寸法(W\U+00D7H\U+00D7D)
 41
0.7
 11
-652.79999999999916
 21
664.44222958333285
 31
0.0
 73
     3
  0
TEXT
  5
56
  8
SPEC
 62
     7
 10
-652.79999999999916
 20
619.23971222222178
 30
0.0
 40
15.2025173611111
  1
質量
 41
0.7
 11
-652.79999999999916
 21
634.44222958333296
 31
0.0
 73
     3
  0
LINE
  5
57
  8
SPEC
  6
CONTINUOUS
 62
     7
 10
-659.9999999999992
 20
942.9363699999999
 30
0.0
 11
520.0000000000008
 21
942.9363699999999
 31
0.0
  0
LINE
  5
58
  8
SPEC
  6
CONTINUOUS
 62
     7
 10
-659.9999999999992
 20
912.93637000000001
 30
0.0
 11
520.0000000000008
 21
912.93637000000001
 31
0.0
  0
LINE
  5
59
  8
SPEC
  6
CONTINUOUS
 62
     7
 10
-659.9999999999992
 20
882.93637000000001
 30
0.0
 11
520.0000000000008
 21
882.93637000000001
 31
0.0
  0
LINE
  5
5A
  8
SPEC
  6
CONTINUOUS
 62
     7
 10
-659.9999999999992
 20
852.9363699999999
 30
0.0
 11
520.0000000000008
 21
852.9363699999999
 31
0.0
  0
LINE
  5
5B
  8
SPEC
  6
CONTINUOUS
 62
     7
 10
-659.9999999999992
 20
822.93636999999956
 30
0.0
 11
520.0000000000008
 21
822.93636999999956
 31
0.0
  0
LINE
  5
5C
  8
SPEC
  6
CONTINUOUS
 62
     7
 10
-659.9999999999992
 20
792.93636999999967
 30
0.0
 11
520.0000000000008
 21
792.93636999999967
 31
0.0
  0
LINE
  5
5D
  8
SPEC
  6
CONTINUOUS
 62
     7
 10
-659.9999999999992
 20
762.93636999999967
 30
0.0
 11
520.0000000000008
 21
762.93636999999967
 31
0.0
  0
LINE
  5
5E
  8
SPEC
  6
CONTINUOUS
 62
     7
 10
-659.9999999999992
 20
732.9363699999999
 30
0.0
 11
520.0000000000008
 21
732.9363699999999
 31
0.0
  0
LINE
  5
5F
  8
SPEC
  6
CONTINUOUS
 62
     7
 10
-659.9999999999992
 20
702.9363699999999
 30
0.0
 11
520.0000000000008
 21
702.9363699999999
 31
0.0
  0
LINE
  5
60
  8
SPEC
  6
CONTINUOUS
 62
     7
 10
-659.9999999999992
 20
672.9363699999999
 30
0.0
 11
520.0000000000008
 21
672.9363699999999
 31
0.0
  0
LINE
  5
61
  8
SPEC
  6
CONTINUOUS
 62
     7
 10
-659.9999999999992
 20
642.93636999999967
 30
0.0
 11
520.0000000000008
 21
642.93636999999967
 31
0.0
  0
LINE
  5
62
  8
SPEC
  6
CONTINUOUS
 62
     7
 10
-659.9999999999992
 20
612.93636999999978
 30
0.0
 11
520.0000000000008
 21
612.93636999999978
 31
0.0
  0
LINE
  5
63
  8
SPEC
  6
CONTINUOUS
 62
     7
 10
-659.9999999999992
 20
582.9363699999999
 30
0.0
 11
520.0000000000008
 21
582.9363699999999
 31
0.0
  0
TEXT
  5
64
  8
SPEC
 62
     7
 10
-242.79999999999939
 20
979.23971222222167
 30
0.0
 40
15.2025173611111
  1
2-Wayバイアンプ
 41
0.7
 11
-242.79999999999939
 21
994.44222958333285
 31
0.0
 73
     3
  0
TEXT
  5
65
  8
SPEC
 62
     7
 10
-652.79999999999916
 20
979.23971222222167
 30
0.0
 40
15.2025173611111
  1
形式
 41
0.7
 11
-652.79999999999916
 21
994.44222958333285
 31
0.0
 73
     3
  0
TEXT
  5
66
  8
SPEC
 62
     7
 10
-652.79999999999916
 20
949.23971222222178
 30
0.0
 40
15.2025173611111
  1
周波数レンジ(-10dB)
 41
0.7
 11
-652.79999999999916
 21
964.44222958333285
 31
0.0
 73
     3
  0
TEXT
  5
67
  8
SPEC
 62
     7
 10
-242.79999999999939
 20
949.23971222222178
 30
0.0
 40
15.2025173611111
  1
37Hz～24kHz
 41
0.7
 11
-242.79999999999939
 21
964.44222958333285
 31
0.0
 73
     3
  0
TEXT
  5
68
  8
SPEC
 62
     7
 10
-242.79999999999939
 20
919.23971222222167
 30
0.0
 40
15.2025173611111
  1
112dB SPL
 41
0.7
 11
-242.79999999999939
 21
934.44222958333285
 31
0.0
 73
     3
  0
TEXT
  5
69
  8
SPEC
 62
     7
 10
-652.79999999999916
 20
919.23971222222167
 30
0.0
 40
15.2025173611111
  1
最大音圧レベル(1m)
 41
0.7
 11
-652.79999999999916
 21
934.44222958333285
 31
0.0
 73
     3
  0
TEXT
  5
6A
  8
SPEC
 62
     7
 10
-242.79999999999939
 20
889.23971222222178
 30
0.0
 40
15.2025173611111
  1
F:200mm、HF:25mm
 41
0.7
 11
-242.79999999999939
 21
904.44222958333285
 31
0.0
 73
     3
  0
TEXT
  5
6B
  8
SPEC
 62
     7
 10
-652.79999999999916
 20
889.23971222222178
 30
0.0
 40
15.2025173611111
  1
ドライバー構成
 41
0.7
 11
-652.79999999999916
 21
904.44222958333285
 31
0.0
 73
     3
  0
TEXT
  5
6C
  8
SPEC
 62
     7
 10
-242.79999999999939
 20
859.23971222222178
 30
0.0
 40
15.2025173611111
  1
1,800Hz
 41
0.7
 11
-242.79999999999939
 21
874.44222958333285
 31
0.0
 73
     3
  0
TEXT
  5
6D
  8
SPEC
 62
     7
 10
-652.79999999999916
 20
859.23971222222178
 30
0.0
 40
15.2025173611111
  1
クロスオーバー周波数
 41
0.7
 11
-652.79999999999916
 21
874.44222958333285
 31
0.0
 73
     3
  0
TEXT
  5
6E
  8
SPEC
 62
     7
 10
-242.79999999999939
 20
829.2397122222219
 30
0.0
 40
15.2025173611111
  1
LF:56W、HF:56W
 41
0.7
 11
-242.79999999999939
 21
844.44222958333296
 31
0.0
 73
     3
  0
TEXT
  5
6F
  8
SPEC
 62
     7
 10
-652.79999999999916
 20
829.2397122222219
 30
0.0
 40
15.2025173611111
  1
パワーアンプ出力
 41
0.7
 11
-652.79999999999916
 21
844.44222958333296
 31
0.0
 73
     3
  0
TEXT
  5
70
  8
SPEC
 62
     7
 10
-652.79999999999916
 20
799.23971222222167
 30
0.0
 40
15.2025173611111
  1
入力端子・形式
 41
0.7
 11
-652.79999999999916
 21
814.44222958333285
 31
0.0
 73
     3
  0
TEXT
  5
71
  8
SPEC
 62
     7
 10
-242.79999999999939
 20
799.23971222222167
 30
0.0
 40
15.2025173611111
  1
XLR\U+00D71、標準フォーン(3P)\U+00D7、電子バランス
 41
0.7
 11
-242.79999999999939
 21
814.44222958333285
 31
0.0
 73
     3
  0
TEXT
  5
72
  8
SPEC
 62
     7
 10
-652.79999999999916
 20
769.23971222222178
 30
0.0
 40
15.2025173611111
  1
入力感度(-10dBV、1m)
 41
0.7
 11
-652.79999999999916
 21
784.44222958333296
 31
0.0
 73
     3
  0
TEXT
  5
73
  8
SPEC
 62
     7
 10
-242.79999999999939
 20
769.23971222222178
 30
0.0
 40
15.2025173611111
  1
92dB SPL
 41
0.7
 11
-242.79999999999939
 21
784.44222958333296
 31
0.0
 73
     3
  0
TEXT
  5
74
  8
SPEC
 62
     7
 10
-652.79999999999916
 20
739.23971222222178
 30
0.0
 40
15.2025173611111
  1
最大入力レベル(+4dBu)
 41
0.7
 11
-652.79999999999916
 21
754.44222958333285
 31
0.0
 73
     3
  0
TEXT
  5
75
  8
SPEC
 62
     7
 10
-242.79999999999939
 20
739.23971222222178
 30
0.0
 40
15.2025173611111
  1
+23dBu
 41
0.7
 11
-242.79999999999939
 21
754.44222958333285
 31
0.0
 73
     3
  0
TEXT
  5
76
  8
SPEC
 62
     7
 10
-652.79999999999916
 20
709.23971222222178
 30
0.0
 40
15.2025173611111
  1
電源
 41
0.7
 11
-652.79999999999916
 21
724.44222958333285
 31
0.0
 73
     3
  0
TEXT
  5
77
  8
SPEC
 62
     7
 10
-242.79999999999939
 20
709.23971222222178
 30
0.0
 40
15.2025173611111
  1
AC100V、50/60Hz
 41
0.7
 11
-242.79999999999939
 21
724.44222958333285
 31
0.0
 73
     3
  0
TEXT
  5
78
  8
SPEC
 62
     7
 10
-242.7999999999993
 20
679.23971222222178
 30
0.0
 40
15.2025173611111
  1
20W
 41
0.7
 11
-242.7999999999993
 21
694.44222958333285
 31
0.0
 73
     3
  0
TEXT
  5
79
  8
SPEC
 62
     7
 10
-652.79999999999916
 20
679.23971222222178
 30
0.0
 40
15.2025173611111
  1
消費電力(1/8出力時、ピンクノイズ)
 41
0.7
 11
-652.79999999999916
 21
694.44222958333285
 31
0.0
 73
     3
  0
TEXT
  5
7A
  8
SPEC
 62
     7
 10
-242.7999999999993
 20
589.23971222222178
 30
0.0
 40
15.2025173611111
  1
電源ケーブル、ゴム足\U+00D7 4(1 シート)
 41
0.7
 11
-242.7999999999993
 21
604.44222958333285
 31
0.0
 73
     3
  0
LINE
  5
7B
  8
DIMNSIONS
  6
CONTINUOUS
 62
     7
 10
-528.5
 20
-461.0
 30
0.0
 11
-528.5
 21
-528.5
 31
0.0
  0
LINE
  5
7C
  8
DIMNSIONS
  6
CONTINUOUS
 62
     7
 10
-271.5
 20
-461.0
 30
0.0
 11
-271.5
 21
-528.5
 31
0.0
  0
LINE
  5
7D
  8
DIMNSIONS
  6
CONTINUOUS
 62
     7
 10
-528.5
 20
-512.5
 30
0.0
 11
-271.5
 21
-512.5
 31
0.0
  0
LINE
  5
7E
  8
DIMNSIONS
  6
CONTINUOUS
 62
     7
 10
-528.5
 20
-512.5
 30
0.0
 11
-508.49501953125002
 21
-507.13968163879798
 31
0.0
  0
LINE
  5
7F
  8
DIMNSIONS
  6
CONTINUOUS
 62
     7
 10
-528.5
 20
-512.5
 30
0.0
 11
-508.49501953125002
 21
-517.86031836120173
 31
0.0
  0
LINE
  5
80
  8
DIMNSIONS
  6
CONTINUOUS
 62
     7
 10
-271.5
 20
-512.5
 30
0.0
 11
-291.50498046874998
 21
-517.86031836120173
 31
0.0
  0
LINE
  5
81
  8
DIMNSIONS
  6
CONTINUOUS
 62
     7
 10
-271.5
 20
-512.5
 30
0.0
 11
-291.50498046874998
 21
-507.13968163879798
 31
0.0
  0
TEXT
  5
82
  8
DIMNSIONS
 62
     7
 10
-421.16666666666657
 20
-504.54888888888883
 30
0.0
 40
21.717881944444461
  1
257
 41
0.7
 11
-421.16666666666657
 21
-482.83100694444443
 31
0.0
 73
     3
  0
TEXT
  5
83
  8
DIMNSIONS
 62
     7
 10
-160.0
 20
-898.90770999999995
 30
0.0
 40
19.546093750000001
  1
(単位：mm)
 41
0.7
 11
-160.0
 21
-879.36161624999988
 31
0.0
 73
     3
  0
LINE
  5
84
  8
DIMNSIONS
  6
CONTINUOUS
 62
     7
 10
-539.5
 20
-27.0
 30
0.0
 11
-616.0
 21
-27.0
 31
0.0
  0
LINE
  5
85
  8
DIMNSIONS
  6
CONTINUOUS
 62
     7
 10
-539.5
 20
-450.0
 30
0.0
 11
-616.0
 21
-450.0
 31
0.0
  0
LINE
  5
86
  8
DIMNSIONS
  6
CONTINUOUS
 62
     7
 10
-600.0
 20
-27.0
 30
0.0
 11
-600.0
 21
-450.0
 31
0.0
  0
LINE
  5
87
  8
DIMNSIONS
  6
CONTINUOUS
 62
     7
 10
-600.0
 20
-27.0
 30
0.0
 11
-594.63968163879815
 21
-47.004980468749999
 31
0.0
  0
LINE
  5
88
  8
DIMNSIONS
  6
CONTINUOUS
 62
     7
 10
-600.0
 20
-27.0
 30
0.0
 11
-605.36031836120185
 21
-47.004980468749999
 31
0.0
  0
LINE
  5
89
  8
DIMNSIONS
  6
CONTINUOUS
 62
     7
 10
-600.0
 20
-450.0
 30
0.0
 11
-605.36031836120185
 21
-429.99501953125002
 31
0.0
  0
LINE
  5
8A
  8
DIMNSIONS
  6
CONTINUOUS
 62
     7
 10
-600.0
 20
-450.0
 30
0.0
 11
-594.63968163879815
 21
-429.99501953125002
 31
0.0
  0
TEXT
  5
8B
  8
DIMNSIONS
 62
     7
 10
-607.95111111111089
 20
-259.66666666666669
 30
0.0
 40
21.71788194444445
  1
423
 50
90.0
 41
0.7
 11
-629.66899305555546
 21
-259.66666666666669
 31
0.0
 73
     3
  0
LINE
  5
8C
  8
DIMNSIONS
  6
CONTINUOUS
 62
     7
 10
-416.0
 20
50.0
 30
0.0
 11
-616.0
 21
50.0
 31
0.0
  0
LINE
  5
8D
  8
DIMNSIONS
  6
CONTINUOUS
 62
     7
 10
-544.5
 20
350.0
 30
0.0
 11
-616.0
 21
350.0
 31
0.0
  0
LINE
  5
8E
  8
DIMNSIONS
  6
CONTINUOUS
 62
     7
 10
-600.0
 20
50.0
 30
0.0
 11
-600.0
 21
350.0
 31
0.0
  0
LINE
  5
8F
  8
DIMNSIONS
  6
CONTINUOUS
 62
     7
 10
-600.0
 20
50.0
 30
0.0
 11
-605.36031836120185
 21
70.004980468750006
 31
0.0
  0
LINE
  5
90
  8
DIMNSIONS
  6
CONTINUOUS
 62
     7
 10
-600.0
 20
50.0
 30
0.0
 11
-594.63968163879815
 21
70.004980468750006
 31
0.0
  0
LINE
  5
91
  8
DIMNSIONS
  6
CONTINUOUS
 62
     7
 10
-600.0
 20
350.0
 30
0.0
 11
-594.63968163879815
 21
329.99501953125002
 31
0.0
  0
LINE
  5
92
  8
DIMNSIONS
  6
CONTINUOUS
 62
     7
 10
-600.0
 20
350.0
 30
0.0
 11
-605.36031836120185
 21
329.99501953125002
 31
0.0
  0
TEXT
  5
93
  8
DIMNSIONS
 62
     7
 10
-607.95111111111089
 20
178.83333333333329
 30
0.0
 40
21.71788194444445
  1
300
 50
90.0
 41
0.7
 11
-629.66899305555546
 21
178.83333333333329
 31
0.0
 73
     3
  0
LINE
  5
94
  8
DIMNSIONS
  6
CONTINUOUS
 62
     7
 10
-544.5
 20
350.0
 30
0.0
 11
-616.0
 21
350.0
 31
0.0
  0
LINE
  5
95
  8
DIMNSIONS
  6
CONTINUOUS
 62
     7
 10
-502.49999999998983
 20
364.0
 30
0.0
 11
-616.0
 21
364.0
 31
0.0
  0
LINE
  5
96
  8
DIMNSIONS
  6
CONTINUOUS
 62
     7
 10
-600.0
 20
364.0
 30
0.0
 11
-600.0
 21
350.0
 31
0.0
  0
LINE
  5
97
  8
DIMNSIONS
  6
CONTINUOUS
 62
     7
 10
-600.0
 20
350.0
 30
0.0
 11
-600.0
 21
310.0
 31
0.0
  0
LINE
  5
98
  8
DIMNSIONS
  6
CONTINUOUS
 62
     7
 10
-600.0
 20
350.0
 30
0.0
 11
-594.63968163879815
 21
329.99501953125002
 31
0.0
  0
LINE
  5
99
  8
DIMNSIONS
  6
CONTINUOUS
 62
     7
 10
-600.0
 20
350.0
 30
0.0
 11
-605.36031836120185
 21
329.99501953125002
 31
0.0
  0
LINE
  5
9A
  8
DIMNSIONS
  6
CONTINUOUS
 62
     7
 10
-600.0
 20
364.0
 30
0.0
 11
-600.0
 21
431.44444444444451
 31
0.0
  0
LINE
  5
9B
  8
DIMNSIONS
  6
CONTINUOUS
 62
     7
 10
-600.0
 20
364.0
 30
0.0
 11
-605.36031836120185
 21
384.00498046874998
 31
0.0
  0
LINE
  5
9C
  8
DIMNSIONS
  6
CONTINUOUS
 62
     7
 10
-600.0
 20
364.0
 30
0.0
 11
-594.63968163879815
 21
384.00498046874998
 31
0.0
  0
TEXT
  5
9D
  8
DIMNSIONS
 62
     7
 10
-607.95111111111089
 20
375.0
 30
0.0
 40
21.71788194444445
  1
14.0
 50
90.0
 41
0.7
 11
-629.66899305555546
 21
375.0
 31
0.0
 73
     3
  0
TEXT
  5
9E
  8
DATA
 62
     7
 10
400.0
 20
-908.01650999999958
 30
0.0
 40
19.546093750000001
  1
LSR308
 41
0.7
 11
400.0
 21
-888.47041624999974
 31
0.0
 73
     3
  0
TEXT
  5
9F
  8
DATA
 62
     7
 10
400.0
 20
-850.01650999999958
 30
0.0
 40
19.546093750000001
  1
JBL PROFESSIONAL
 41
0.7
 11
400.0
 21
-830.47041624999974
 31
0.0
 73
     3
  0
CIRCLE
  5
A0
  8
DATA
  6
CONTINUOUS
 62
     7
 10
-329.0
 20
-229.00000000000031
 30
0.0
 40
4.3500000000000307
  0
CIRCLE
  5
A1
  8
DATA
  6
CONTINUOUS
 62
     7
 10
-329.0
 20
-229.00000000000031
 30
0.0
 40
3.249999999999992
  0
CIRCLE
  5
A2
  8
DATA
  6
CONTINUOUS
 62
     7
 10
-329.0
 20
-229.00000000000031
 30
0.0
 40
3.9999999999998548
  0
LINE
  5
A3
  8
DATA
  6
CONTINUOUS
 62
     7
 10
-528.5
 20
-420.0
 30
0.0
 11
-528.5
 21
-32.0
 31
0.0
  0
LINE
  5
A4
  8
DATA
  6
CONTINUOUS
 62
     7
 10
-528.5
 20
-445.0
 30
0.0
 11
-528.5
 21
-420.0
 31
0.0
  0
LINE
  5
A5
  8
DATA
  6
CONTINUOUS
 62
     7
 10
-519.5
 20
-300.00000000000028
 30
0.0
 11
-519.5
 21
-36.0
 31
0.0
  0
LINE
  5
A6
  8
DATA
  6
CONTINUOUS
 62
     7
 10
-499.5
 20
-170.0
 30
0.0
 11
-499.5
 21
-50.0
 31
0.0
  0
LINE
  5
A7
  8
DATA
  6
CONTINUOUS
 62
     7
 10
-301.5
 20
-450.0
 30
0.0
 11
-498.5
 21
-450.0
 31
0.0
  0
LINE
  5
A8
  8
DATA
  6
CONTINUOUS
 62
     7
 10
-276.5
 20
-450.0
 30
0.0
 11
-301.5
 21
-450.0
 31
0.0
  0
LINE
  5
A9
  8
DATA
  6
CONTINUOUS
 62
     7
 10
-498.5
 20
-450.0
 30
0.0
 11
-523.5
 21
-450.0
 31
0.0
  0
LINE
  5
AA
  8
DATA
  6
CONTINUOUS
 62
     7
 10
-271.5
 20
-32.0
 30
0.0
 11
-271.5
 21
-420.0
 31
0.0
  0
LINE
  5
AB
  8
DATA
  6
CONTINUOUS
 62
     7
 10
-271.5
 20
-420.0
 30
0.0
 11
-271.5
 21
-445.0
 31
0.0
  0
LINE
  5
AC
  8
DATA
  6
CONTINUOUS
 62
     7
 10
-280.5
 20
-36.0
 30
0.0
 11
-280.5
 21
-300.00000000000028
 31
0.0
  0
LINE
  5
AD
  8
DATA
  6
CONTINUOUS
 62
     7
 10
-300.5
 20
-50.0
 30
0.0
 11
-300.5
 21
-170.0
 31
0.0
  0
LINE
  5
AE
  8
DATA
  6
CONTINUOUS
 62
     7
 10
-523.5
 20
-27.0
 30
0.0
 11
-276.5
 21
-27.0
 31
0.0
  0
LINE
  5
AF
  8
DATA
  6
CONTINUOUS
 62
     7
 10
-519.5
 20
-36.0
 30
0.0
 11
-280.5
 21
-36.0
 31
0.0
  0
LINE
  5
B0
  8
DATA
  6
CONTINUOUS
 62
     7
 10
-499.5
 20
-50.0
 30
0.0
 11
-300.5
 21
-50.0
 31
0.0
  0
LINE
  5
B1
  8
DATA
  6
CONTINUOUS
 62
     7
 10
-499.5
 20
-170.0
 30
0.0
 11
-300.5
 21
-170.0
 31
0.0
  0
ARC
  5
B2
  8
DATA
  6
CONTINUOUS
 62
     7
 10
-523.5
 20
-445.0
 30
0.0
 40
5.0
 50
180.0
 51
270.0
  0
ARC
  5
B3
  8
DATA
  6
CONTINUOUS
 62
     7
 10
-276.5
 20
-445.0
 30
0.0
 40
5.0
 50
270.0
 51
0.0
  0
ARC
  5
B4
  8
DATA
  6
CONTINUOUS
 62
     7
 10
-276.5
 20
-32.0
 30
0.0
 40
5.0
 50
0.0
 51
90.0
  0
ARC
  5
B5
  8
DATA
  6
CONTINUOUS
 62
     7
 10
-523.5
 20
-32.0
 30
0.0
 40
5.0
 50
90.0
 51
180.0
  0
LINE
  5
B6
  8
DATA
  6
CONTINUOUS
 62
     7
 10
-414.0
 20
-447.00000000000068
 30
0.0
 11
-414.0
 21
-428.00000000000068
 31
0.0
  0
LINE
  5
B7
  8
DATA
  6
CONTINUOUS
 62
     7
 10
-386.0
 20
-447.00000000000068
 30
0.0
 11
-414.0
 21
-447.00000000000068
 31
0.0
  0
LINE
  5
B8
  8
DATA
  6
CONTINUOUS
 62
     7
 10
-386.0
 20
-428.00000000000068
 30
0.0
 11
-386.0
 21
-447.00000000000068
 31
0.0
  0
LINE
  5
B9
  8
DATA
  6
CONTINUOUS
 62
     7
 10
-414.0
 20
-428.00000000000068
 30
0.0
 11
-386.0
 21
-428.00000000000068
 31
0.0
  0
LINE
  5
BA
  8
DATA
  6
CONTINUOUS
 62
     7
 10
-409.49999999999989
 20
-447.00000000000068
 30
0.0
 11
-409.49999999999989
 21
-428.00000000000068
 31
0.0
  0
LINE
  5
BB
  8
DATA
  6
CONTINUOUS
 62
     7
 10
-390.5
 20
-428.00000000000068
 30
0.0
 11
-390.5
 21
-447.00000000000068
 31
0.0
  0
LINE
  5
BC
  8
DATA
  6
CONTINUOUS
 62
     7
 10
-280.5
 20
-36.0
 30
0.0
 11
-272.96446609406757
 21
-28.464466094067351
 31
0.0
  0
LINE
  5
BD
  8
DATA
  6
CONTINUOUS
 62
     7
 10
-519.5
 20
-36.0
 30
0.0
 11
-527.03553390593243
 21
-28.464466094067351
 31
0.0
  0
CIRCLE
  5
BE
  8
DATA
  6
CONTINUOUS
 62
     7
 10
-400.0
 20
-300.00000000000028
 30
0.0
 40
110.0000000000002
  0
ARC
  5
BF
  8
DATA
  6
CONTINUOUS
 62
     7
 10
-400.0
 20
-297.47329059829082
 30
0.0
 40
119.5267094017094
 50
181.2112821466138
 51
358.78871785338617
  0
CIRCLE
  5
C0
  8
DATA
  6
CONTINUOUS
 62
     7
 10
-400.0
 20
-300.00000000000028
 30
0.0
 40
108.9999999999997
  0
CIRCLE
  5
C1
  8
DATA
  6
CONTINUOUS
 62
     7
 10
-400.0
 20
-300.00000000000028
 30
0.0
 40
92.000000000000341
  0
CIRCLE
  5
C2
  8
DATA
  6
CONTINUOUS
 62
     7
 10
-400.0
 20
-300.00000000000028
 30
0.0
 40
87.499999999999844
  0
CIRCLE
  5
C3
  8
DATA
  6
CONTINUOUS
 62
     7
 10
-400.0
 20
-300.00000000000028
 30
0.0
 40
76.499999999999901
  0
CIRCLE
  5
C4
  8
DATA
  6
CONTINUOUS
 62
     7
 10
-400.0
 20
-300.00000000000028
 30
0.0
 40
71.00000000000027
  0
CIRCLE
  5
C5
  8
DATA
  6
CONTINUOUS
 62
     7
 10
-400.0
 20
-300.00000000000028
 30
0.0
 40
31.5
  0
CIRCLE
  5
C6
  8
DATA
  6
CONTINUOUS
 62
     7
 10
-400.0
 20
-300.00000000000028
 30
0.0
 40
34.999999999999602
  0
CIRCLE
  5
C7
  8
DATA
  6
CONTINUOUS
 62
     7
 10
-471.0
 20
-229.00000000000031
 30
0.0
 40
4.3500000000000307
  0
CIRCLE
  5
C8
  8
DATA
  6
CONTINUOUS
 62
     7
 10
-471.0
 20
-229.00000000000031
 30
0.0
 40
3.249999999999992
  0
CIRCLE
  5
C9
  8
DATA
  6
CONTINUOUS
 62
     7
 10
-471.0
 20
-229.00000000000031
 30
0.0
 40
3.9999999999998548
  0
CIRCLE
  5
CA
  8
DATA
  6
CONTINUOUS
 62
     7
 10
-329.0
 20
-371.00000000000023
 30
0.0
 40
4.3500000000000307
  0
CIRCLE
  5
CB
  8
DATA
  6
CONTINUOUS
 62
     7
 10
-329.0
 20
-371.00000000000023
 30
0.0
 40
3.249999999999992
  0
CIRCLE
  5
CC
  8
DATA
  6
CONTINUOUS
 62
     7
 10
-329.0
 20
-371.00000000000023
 30
0.0
 40
3.9999999999998548
  0
CIRCLE
  5
CD
  8
DATA
  6
CONTINUOUS
 62
     7
 10
-471.0
 20
-371.00000000000023
 30
0.0
 40
4.3500000000000307
  0
CIRCLE
  5
CE
  8
DATA
  6
CONTINUOUS
 62
     7
 10
-471.0
 20
-371.00000000000023
 30
0.0
 40
3.249999999999992
  0
CIRCLE
  5
CF
  8
DATA
  6
CONTINUOUS
 62
     7
 10
-471.0
 20
-371.00000000000023
 30
0.0
 40
3.9999999999998548
  0
LINE
  5
D0
  8
DATA
  6
CONTINUOUS
 62
     7
 10
-408.0
 20
-178.50000000000071
 30
0.0
 11
-408.0
 21
-176.00000000000071
 31
0.0
  0
LINE
  5
D1
  8
DATA
  6
CONTINUOUS
 62
     7
 10
-392.0
 20
-178.50000000000071
 30
0.0
 11
-408.0
 21
-178.50000000000071
 31
0.0
  0
LINE
  5
D2
  8
DATA
  6
CONTINUOUS
 62
     7
 10
-392.0
 20
-176.00000000000071
 30
0.0
 11
-392.0
 21
-178.50000000000071
 31
0.0
  0
LINE
  5
D3
  8
DATA
  6
CONTINUOUS
 62
     7
 10
-408.0
 20
-176.00000000000071
 30
0.0
 11
-392.0
 21
-176.00000000000071
 31
0.0
  0
LINE
  5
D4
  8
DATA
  6
CONTINUOUS
 62
     7
 10
-403.0
 20
-178.50000000000071
 30
0.0
 11
-403.0
 21
-176.00000000000071
 31
0.0
  0
LINE
  5
D5
  8
DATA
  6
CONTINUOUS
 62
     7
 10
-397.0
 20
-178.50000000000071
 30
0.0
 11
-403.0
 21
-178.50000000000071
 31
0.0
  0
LINE
  5
D6
  8
DATA
  6
CONTINUOUS
 62
     7
 10
-397.0
 20
-176.00000000000071
 30
0.0
 11
-397.0
 21
-178.50000000000071
 31
0.0
  0
LINE
  5
D7
  8
DATA
  6
CONTINUOUS
 62
     7
 10
-403.0
 20
-176.00000000000071
 30
0.0
 11
-397.0
 21
-176.00000000000071
 31
0.0
  0
LINE
  5
D8
  8
DATA
  6
CONTINUOUS
 62
     7
 10
-499.5
 20
-50.0
 30
0.0
 11
-414.55797927143061
 21
-101.2213190323032
 31
0.0
  0
LINE
  5
D9
  8
DATA
  6
CONTINUOUS
 62
     7
 10
-385.44202072856928
 20
-118.778680967697
 30
0.0
 11
-300.5
 21
-170.0
 31
0.0
  0
CIRCLE
  5
DA
  8
DATA
  6
CONTINUOUS
 62
     7
 10
-400.0
 20
-110.0
 30
0.0
 40
13.50000000000021
  0
CIRCLE
  5
DB
  8
DATA
  6
CONTINUOUS
 62
     7
 10
-400.0
 20
-110.0
 30
0.0
 40
16.999999999999758
  0
LINE
  5
DC
  8
DATA
  6
CONTINUOUS
 62
     7
 10
-499.5
 20
-170.0
 30
0.0
 11
-414.55797927143158
 21
-118.7786809676972
 31
0.0
  0
LINE
  5
DD
  8
DATA
  6
CONTINUOUS
 62
     7
 10
-385.44202072857018
 20
-101.2213190323036
 30
0.0
 11
-300.5
 21
-50.0
 31
0.0
  0
ARC
  5
DE
  8
DATA
  6
CONTINUOUS
 62
     7
 10
-498.5
 20
-420.0
 30
0.0
 40
30.0
 50
180.0
 51
270.0
  0
ARC
  5
DF
  8
DATA
  6
CONTINUOUS
 62
     7
 10
-301.5
 20
-420.0
 30
0.0
 40
30.0
 50
270.0
 51
0.0
  0
LINE
  5
E0
  8
DATA
  6
CONTINUOUS
 62
     7
 10
-409.49999999999989
 20
-551.60532035419851
 30
0.0
 11
-390.5
 21
-551.60532035419851
 31
0.0
  0
LINE
  5
E1
  8
DATA
  6
CONTINUOUS
 62
     7
 10
-390.5
 20
-551.60532035419851
 30
0.0
 11
-390.5
 21
-554.60163698584847
 31
0.0
  0
LINE
  5
E2
  8
DATA
  6
CONTINUOUS
 62
     7
 10
-409.49999999999989
 20
-551.60532035419851
 30
0.0
 11
-409.49999999999989
 21
-554.60163698584847
 31
0.0
  0
POLYLINE
  5
E3
  8
DATA
  6
CONTINUOUS
 62
     7
 66
     1
 10
0.0
 20
0.0
 30
0.0
 70
     1
  0
VERTEX
  5
5F5
  8
DATA
  6
CONTINUOUS
 62
     7
 10
-528.5
 20
-615.5
 30
0.0
  0
VERTEX
  5
5F6
  8
DATA
  6
CONTINUOUS
 62
     7
 10
-271.5
 20
-615.5
 30
0.0
  0
VERTEX
  5
5F7
  8
DATA
  6
CONTINUOUS
 62
     7
 10
-271.5
 20
-851.5
 30
0.0
  0
VERTEX
  5
5F8
  8
DATA
  6
CONTINUOUS
 62
     7
 10
-528.5
 20
-851.5
 30
0.0
  0
SEQEND
  5
5F9
  8
DATA
  6
CONTINUOUS
 62
     7
  0
POLYLINE
  5
EA
  8
DATA
  6
CONTINUOUS
 62
     7
 66
     1
 10
0.0
 20
0.0
 30
0.0
 70
     1
  0
VERTEX
  5
5FA
  8
DATA
  6
CONTINUOUS
 62
     7
 10
-527.0
 20
-614.0
 30
0.0
  0
VERTEX
  5
5FB
  8
DATA
  6
CONTINUOUS
 62
     7
 10
-273.0
 20
-614.0
 30
0.0
  0
VERTEX
  5
5FC
  8
DATA
  6
CONTINUOUS
 62
     7
 10
-273.0
 20
-615.5
 30
0.0
  0
VERTEX
  5
5FD
  8
DATA
  6
CONTINUOUS
 62
     7
 10
-527.0
 20
-615.5
 30
0.0
  0
SEQEND
  5
5FE
  8
DATA
  6
CONTINUOUS
 62
     7
  0
LINE
  5
F1
  8
DATA
  6
CONTINUOUS
 62
     7
 10
-528.5
 20
-614.0
 30
0.0
 11
-528.5
 21
-573.5
 31
0.0
  0
LINE
  5
F2
  8
DATA
  6
CONTINUOUS
 62
     7
 10
-271.5
 20
-614.0
 30
0.0
 11
-271.5
 21
-573.5
 31
0.0
  0
ARC
  5
F3
  8
DATA
  6
CONTINUOUS
 62
     7
 10
-400.0
 20
-998.53289473684174
 30
0.0
 40
444.03289473684202
 50
73.178382237954622
 51
106.82161776204541
  0
ARC
  5
F4
  8
DATA
  6
CONTINUOUS
 62
     7
 10
-400.0
 20
-980.00735294117635
 30
0.0
 40
428.50735294117652
 50
73.806925664223058
 51
106.1930743357769
  0
LINE
  5
F5
  8
DATA
  6
CONTINUOUS
 62
     7
 10
-271.5
 20
-573.5
 30
0.0
 11
-280.5
 21
-568.5
 31
0.0
  0
LINE
  5
F6
  8
DATA
  6
CONTINUOUS
 62
     7
 10
-528.5
 20
-573.5
 30
0.0
 11
-519.5
 21
-568.5
 31
0.0
  0
LINE
  5
F7
  8
DATA
  6
CONTINUOUS
 62
     7
 10
-271.5
 20
-614.0
 30
0.0
 11
-528.5
 21
-614.0
 31
0.0
  0
LINE
  5
F8
  8
DATA
  6
CONTINUOUS
 62
     7
 10
-525.49999999999989
 20
-614.0
 30
0.0
 11
-498.5
 21
-565.56296320766637
 31
0.0
  0
LINE
  5
F9
  8
DATA
  6
CONTINUOUS
 62
     7
 10
-274.5
 20
-614.0
 30
0.0
 11
-301.5
 21
-565.56296320766637
 31
0.0
  0
POLYLINE
  5
FA
  8
DATA
  6
CONTINUOUS
 62
     7
 66
     1
 10
0.0
 20
0.0
 30
0.0
 70
     1
  0
VERTEX
  5
5FF
  8
DATA
  6
CONTINUOUS
 62
     7
 10
-528.5
 20
350.0
 30
0.0
  0
VERTEX
  5
600
  8
DATA
  6
CONTINUOUS
 62
     7
 10
-271.5
 20
350.0
 30
0.0
  0
VERTEX
  5
601
  8
DATA
  6
CONTINUOUS
 62
     7
 10
-271.5
 20
113.9999999999999
 30
0.0
  0
VERTEX
  5
602
  8
DATA
  6
CONTINUOUS
 62
     7
 10
-528.5
 20
113.9999999999999
 30
0.0
  0
SEQEND
  5
603
  8
DATA
  6
CONTINUOUS
 62
     7
  0
POLYLINE
  5
101
  8
DATA
  6
CONTINUOUS
 62
     7
 66
     1
 10
0.0
 20
0.0
 30
0.0
 70
     1
  0
VERTEX
  5
604
  8
DATA
  6
CONTINUOUS
 62
     7
 10
-527.0
 20
113.9999999999999
 30
0.0
  0
VERTEX
  5
605
  8
DATA
  6
CONTINUOUS
 62
     7
 10
-273.0
 20
113.9999999999999
 30
0.0
  0
VERTEX
  5
606
  8
DATA
  6
CONTINUOUS
 62
     7
 10
-273.0
 20
112.4999999999999
 30
0.0
  0
VERTEX
  5
607
  8
DATA
  6
CONTINUOUS
 62
     7
 10
-527.0
 20
112.4999999999999
 30
0.0
  0
SEQEND
  5
608
  8
DATA
  6
CONTINUOUS
 62
     7
  0
LINE
  5
108
  8
DATA
  6
CONTINUOUS
 62
     7
 10
-271.5
 20
112.4999999999999
 30
0.0
 11
-271.5
 21
72.0
 31
0.0
  0
LINE
  5
109
  8
DATA
  6
CONTINUOUS
 62
     7
 10
-528.5
 20
112.4999999999999
 30
0.0
 11
-528.5
 21
72.0
 31
0.0
  0
ARC
  5
10A
  8
DATA
  6
CONTINUOUS
 62
     7
 10
-400.0
 20
497.03289473684191
 30
0.0
 40
444.03289473684202
 50
253.17838223795471
 51
286.82161776204538
  0
ARC
  5
10B
  8
DATA
  6
CONTINUOUS
 62
     7
 10
-400.0
 20
478.50735294117652
 30
0.0
 40
428.50735294117652
 50
253.80692566422309
 51
286.19307433577688
  0
LINE
  5
10C
  8
DATA
  6
CONTINUOUS
 62
     7
 10
-528.5
 20
72.0
 30
0.0
 11
-519.5
 21
67.0
 31
0.0
  0
LINE
  5
10D
  8
DATA
  6
CONTINUOUS
 62
     7
 10
-271.5
 20
72.0
 30
0.0
 11
-280.5
 21
67.0
 31
0.0
  0
LINE
  5
10E
  8
DATA
  6
CONTINUOUS
 62
     7
 10
-528.5
 20
112.4999999999999
 30
0.0
 11
-271.5
 21
112.4999999999999
 31
0.0
  0
ARC
  5
10F
  8
DATA
  6
CONTINUOUS
 62
     7
 10
-296.5
 20
-847.984375
 30
0.0
 40
5.515625
 50
219.5977527090497
 51
320.40224729095007
  0
LINE
  5
110
  8
DATA
  6
CONTINUOUS
 62
     7
 10
-353.0
 20
-851.5
 30
0.0
 11
-353.0
 21
-852.19374728496905
 31
0.0
  0
LINE
  5
111
  8
DATA
  6
CONTINUOUS
 62
     7
 10
-345.0
 20
-851.5
 30
0.0
 11
-353.0
 21
-851.5
 31
0.0
  0
LINE
  5
112
  8
DATA
  6
CONTINUOUS
 62
     7
 10
-345.0
 20
-852.19374728496905
 30
0.0
 11
-345.0
 21
-851.5
 31
0.0
  0
ARC
  5
113
  8
DATA
  6
CONTINUOUS
 62
     7
 10
-352.5
 20
-852.19374728496905
 30
0.0
 40
0.5
 50
180.0
 51
244.05552022762549
  0
ARC
  5
114
  8
DATA
  6
CONTINUOUS
 62
     7
 10
-345.5
 20
-852.19374728496905
 30
0.0
 40
0.4999999999999217
 50
295.94447977237439
 51
0.0
  0
ARC
  5
115
  8
DATA
  6
CONTINUOUS
 62
     7
 10
-349.0
 20
-845.00000000000091
 30
0.0
 40
8.499999999998872
 50
244.05552022762629
 51
295.94447977237371
  0
LINE
  5
116
  8
DATA
  6
CONTINUOUS
 62
     7
 10
-402.5
 20
-851.5
 30
0.0
 11
-385.5
 21
-851.5
 31
0.0
  0
LINE
  5
117
  8
DATA
  6
CONTINUOUS
 62
     7
 10
-402.5
 20
-853.5
 30
0.0
 11
-402.5
 21
-851.5
 31
0.0
  0
LINE
  5
118
  8
DATA
  6
CONTINUOUS
 62
     7
 10
-385.5
 20
-853.5
 30
0.0
 11
-402.5
 21
-853.5
 31
0.0
  0
LINE
  5
119
  8
DATA
  6
CONTINUOUS
 62
     7
 10
-385.5
 20
-851.5
 30
0.0
 11
-385.5
 21
-853.5
 31
0.0
  0
LINE
  5
11A
  8
DATA
  6
CONTINUOUS
 62
     7
 10
-401.49999999999989
 20
-853.5
 30
0.0
 11
-386.5
 21
-853.5
 31
0.0
  0
LINE
  5
11B
  8
DATA
  6
CONTINUOUS
 62
     7
 10
-401.49999999999989
 20
-857.50000000000011
 30
0.0
 11
-401.49999999999989
 21
-853.5
 31
0.0
  0
LINE
  5
11C
  8
DATA
  6
CONTINUOUS
 62
     7
 10
-386.5
 20
-857.50000000000011
 30
0.0
 11
-401.49999999999989
 21
-857.50000000000011
 31
0.0
  0
LINE
  5
11D
  8
DATA
  6
CONTINUOUS
 62
     7
 10
-386.5
 20
-853.5
 30
0.0
 11
-386.5
 21
-857.50000000000011
 31
0.0
  0
LINE
  5
11E
  8
DATA
  6
CONTINUOUS
 62
     7
 10
-399.25
 20
-857.50000000000011
 30
0.0
 11
-388.75
 21
-857.50000000000011
 31
0.0
  0
LINE
  5
11F
  8
DATA
  6
CONTINUOUS
 62
     7
 10
-399.25
 20
-859.5
 30
0.0
 11
-399.25
 21
-857.50000000000011
 31
0.0
  0
LINE
  5
120
  8
DATA
  6
CONTINUOUS
 62
     7
 10
-388.75
 20
-859.5
 30
0.0
 11
-399.25
 21
-859.5
 31
0.0
  0
LINE
  5
121
  8
DATA
  6
CONTINUOUS
 62
     7
 10
-388.75
 20
-857.50000000000011
 30
0.0
 11
-388.75
 21
-859.5
 31
0.0
  0
LINE
  5
122
  8
DATA
  6
CONTINUOUS
 62
     7
 10
-292.25
 20
-851.5
 30
0.0
 11
-300.75
 21
-851.5
 31
0.0
  0
ARC
  5
123
  8
DATA
  6
CONTINUOUS
 62
     7
 10
-340.0
 20
-847.984375
 30
0.0
 40
5.515625
 50
219.5977527090497
 51
320.40224729095007
  0
LINE
  5
124
  8
DATA
  6
CONTINUOUS
 62
     7
 10
-335.75
 20
-851.5
 30
0.0
 11
-344.25
 21
-851.5
 31
0.0
  0
ARC
  5
125
  8
DATA
  6
CONTINUOUS
 62
     7
 10
-460.0
 20
-847.984375
 30
0.0
 40
5.515625
 50
219.5977527090497
 51
320.40224729095007
  0
LINE
  5
126
  8
DATA
  6
CONTINUOUS
 62
     7
 10
-455.75
 20
-851.5
 30
0.0
 11
-464.25
 21
-851.5
 31
0.0
  0
ARC
  5
127
  8
DATA
  6
CONTINUOUS
 62
     7
 10
-503.5
 20
-847.984375
 30
0.0
 40
5.515625
 50
219.5977527090497
 51
320.40224729095007
  0
LINE
  5
128
  8
DATA
  6
CONTINUOUS
 62
     7
 10
-499.24999999999989
 20
-851.5
 30
0.0
 11
-507.74999999999989
 21
-851.5
 31
0.0
  0
LINE
  5
129
  8
DATA
  6
CONTINUOUS
 62
     7
 10
171.5
 20
-445.0
 30
0.0
 11
171.5
 21
-32.0
 31
0.0
  0
LINE
  5
12A
  8
DATA
  6
CONTINUOUS
 62
     7
 10
186.5
 20
-435.0
 30
0.0
 11
186.5
 21
-42.0
 31
0.0
  0
LINE
  5
12B
  8
DATA
  6
CONTINUOUS
 62
     7
 10
423.5
 20
-450.0
 30
0.0
 11
176.5
 21
-450.0
 31
0.0
  0
LINE
  5
12C
  8
DATA
  6
CONTINUOUS
 62
     7
 10
413.49999999999989
 20
-435.0
 30
0.0
 11
186.5
 21
-435.0
 31
0.0
  0
LINE
  5
12D
  8
DATA
  6
CONTINUOUS
 62
     7
 10
428.5
 20
-32.0
 30
0.0
 11
428.5
 21
-445.0
 31
0.0
  0
LINE
  5
12E
  8
DATA
  6
CONTINUOUS
 62
     7
 10
413.49999999999989
 20
-42.0
 30
0.0
 11
413.49999999999989
 21
-435.0
 31
0.0
  0
LINE
  5
12F
  8
DATA
  6
CONTINUOUS
 62
     7
 10
176.5
 20
-27.0
 30
0.0
 11
423.5
 21
-27.0
 31
0.0
  0
LINE
  5
130
  8
DATA
  6
CONTINUOUS
 62
     7
 10
186.5
 20
-42.0
 30
0.0
 11
413.49999999999989
 21
-42.0
 31
0.0
  0
LINE
  5
131
  8
DATA
  6
CONTINUOUS
 62
     7
 10
172.9644660940674
 20
-28.464466094067571
 30
0.0
 11
186.5
 21
-42.0
 31
0.0
  0
LINE
  5
132
  8
DATA
  6
CONTINUOUS
 62
     7
 10
427.03553390593243
 20
-28.464466094067571
 30
0.0
 11
413.49999999999989
 21
-42.0
 31
0.0
  0
LINE
  5
133
  8
DATA
  6
CONTINUOUS
 62
     7
 10
427.03553390593243
 20
-448.53553390593231
 30
0.0
 11
413.49999999999989
 21
-435.0
 31
0.0
  0
LINE
  5
134
  8
DATA
  6
CONTINUOUS
 62
     7
 10
172.9644660940674
 20
-448.53553390593231
 30
0.0
 11
186.5
 21
-435.0
 31
0.0
  0
ARC
  5
135
  8
DATA
  6
CONTINUOUS
 62
     7
 10
176.5
 20
-445.0
 30
0.0
 40
5.0
 50
180.0
 51
270.0
  0
ARC
  5
136
  8
DATA
  6
CONTINUOUS
 62
     7
 10
423.5
 20
-445.0
 30
0.0
 40
5.0
 50
270.0
 51
0.0
  0
ARC
  5
137
  8
DATA
  6
CONTINUOUS
 62
     7
 10
423.5
 20
-32.0
 30
0.0
 40
5.0
 50
0.0
 51
90.0
  0
ARC
  5
138
  8
DATA
  6
CONTINUOUS
 62
     7
 10
176.5
 20
-32.0
 30
0.0
 40
5.0
 50
90.0
 51
180.0
  0
CIRCLE
  5
139
  8
DATA
  6
CONTINUOUS
 62
     7
 10
360.0
 20
-426.0
 30
0.0
 40
4.25
  0
LINE
  5
13A
  8
DATA
  6
CONTINUOUS
 62
     7
 10
360.0
 20
-428.5
 30
0.0
 11
360.0
 21
-423.5
 31
0.0
  0
LINE
  5
13B
  8
DATA
  6
CONTINUOUS
 62
     7
 10
357.5
 20
-426.0
 30
0.0
 11
362.5
 21
-426.0
 31
0.0
  0
CIRCLE
  5
13C
  8
DATA
  6
CONTINUOUS
 62
     7
 10
341.0
 20
-353.0
 30
0.0
 40
4.0
  0
LINE
  5
13D
  8
DATA
  6
CONTINUOUS
 62
     7
 10
341.0
 20
-355.5
 30
0.0
 11
341.0
 21
-350.5
 31
0.0
  0
LINE
  5
13E
  8
DATA
  6
CONTINUOUS
 62
     7
 10
338.5
 20
-353.0
 30
0.0
 11
343.5
 21
-353.0
 31
0.0
  0
CIRCLE
  5
13F
  8
DATA
  6
CONTINUOUS
 62
     7
 10
341.0
 20
-353.0
 30
0.0
 40
3.5
  0
CIRCLE
  5
140
  8
DATA
  6
CONTINUOUS
 62
     7
 10
355.0
 20
-297.0
 30
0.0
 40
4.0
  0
LINE
  5
141
  8
DATA
  6
CONTINUOUS
 62
     7
 10
355.0
 20
-299.5
 30
0.0
 11
355.0
 21
-294.5
 31
0.0
  0
LINE
  5
142
  8
DATA
  6
CONTINUOUS
 62
     7
 10
352.5
 20
-297.0
 30
0.0
 11
357.5
 21
-297.0
 31
0.0
  0
CIRCLE
  5
143
  8
DATA
  6
CONTINUOUS
 62
     7
 10
355.0
 20
-297.0
 30
0.0
 40
3.5
  0
CIRCLE
  5
144
  8
DATA
  6
CONTINUOUS
 62
     7
 10
403.5
 20
-341.0
 30
0.0
 40
4.25
  0
LINE
  5
145
  8
DATA
  6
CONTINUOUS
 62
     7
 10
403.5
 20
-343.5
 30
0.0
 11
403.5
 21
-338.5
 31
0.0
  0
LINE
  5
146
  8
DATA
  6
CONTINUOUS
 62
     7
 10
401.0
 20
-341.0
 30
0.0
 11
406.0
 21
-341.0
 31
0.0
  0
CIRCLE
  5
147
  8
DATA
  6
CONTINUOUS
 62
     7
 10
225.5
 20
-310.0
 30
0.0
 40
2.75
  0
LINE
  5
148
  8
DATA
  6
CONTINUOUS
 62
     7
 10
225.5
 20
-312.0
 30
0.0
 11
225.5
 21
-308.0
 31
0.0
  0
LINE
  5
149
  8
DATA
  6
CONTINUOUS
 62
     7
 10
223.5
 20
-310.0
 30
0.0
 11
227.5
 21
-310.0
 31
0.0
  0
CIRCLE
  5
14A
  8
DATA
  6
CONTINUOUS
 62
     7
 10
403.5
 20
-136.0
 30
0.0
 40
4.25
  0
LINE
  5
14B
  8
DATA
  6
CONTINUOUS
 62
     7
 10
403.5
 20
-133.5
 30
0.0
 11
403.5
 21
-138.5
 31
0.0
  0
LINE
  5
14C
  8
DATA
  6
CONTINUOUS
 62
     7
 10
401.0
 20
-136.0
 30
0.0
 11
406.0
 21
-136.0
 31
0.0
  0
CIRCLE
  5
14D
  8
DATA
  6
CONTINUOUS
 62
     7
 10
341.0
 20
-234.0
 30
0.0
 40
4.0
  0
LINE
  5
14E
  8
DATA
  6
CONTINUOUS
 62
     7
 10
341.0
 20
-236.5
 30
0.0
 11
341.0
 21
-231.5
 31
0.0
  0
LINE
  5
14F
  8
DATA
  6
CONTINUOUS
 62
     7
 10
338.5
 20
-234.0
 30
0.0
 11
343.5
 21
-234.0
 31
0.0
  0
CIRCLE
  5
150
  8
DATA
  6
CONTINUOUS
 62
     7
 10
341.0
 20
-234.0
 30
0.0
 40
3.5
  0
CIRCLE
  5
151
  8
DATA
  6
CONTINUOUS
 62
     7
 10
351.0
 20
-192.0
 30
0.0
 40
3.0
  0
LINE
  5
152
  8
DATA
  6
CONTINUOUS
 62
     7
 10
351.0
 20
-194.0
 30
0.0
 11
351.0
 21
-190.0
 31
0.0
  0
LINE
  5
153
  8
DATA
  6
CONTINUOUS
 62
     7
 10
349.0
 20
-192.0
 30
0.0
 11
353.0
 21
-192.0
 31
0.0
  0
CIRCLE
  5
154
  8
DATA
  6
CONTINUOUS
 62
     7
 10
351.0
 20
-192.0
 30
0.0
 40
2.5
  0
CIRCLE
  5
155
  8
DATA
  6
CONTINUOUS
 62
     7
 10
300.0
 20
-159.0
 30
0.0
 40
2.75
  0
LINE
  5
156
  8
DATA
  6
CONTINUOUS
 62
     7
 10
300.0
 20
-161.0
 30
0.0
 11
300.0
 21
-157.0
 31
0.0
  0
LINE
  5
157
  8
DATA
  6
CONTINUOUS
 62
     7
 10
298.0
 20
-159.0
 30
0.0
 11
302.0
 21
-159.0
 31
0.0
  0
CIRCLE
  5
158
  8
DATA
  6
CONTINUOUS
 62
     7
 10
343.0
 20
-84.0
 30
0.0
 40
2.75
  0
LINE
  5
159
  8
DATA
  6
CONTINUOUS
 62
     7
 10
343.0
 20
-86.0
 30
0.0
 11
343.0
 21
-82.0
 31
0.0
  0
LINE
  5
15A
  8
DATA
  6
CONTINUOUS
 62
     7
 10
341.0
 20
-84.0
 30
0.0
 11
345.0
 21
-84.0
 31
0.0
  0
CIRCLE
  5
15B
  8
DATA
  6
CONTINUOUS
 62
     7
 10
360.0
 20
-51.0
 30
0.0
 40
4.25
  0
LINE
  5
15C
  8
DATA
  6
CONTINUOUS
 62
     7
 10
360.0
 20
-48.5
 30
0.0
 11
360.0
 21
-53.5
 31
0.0
  0
LINE
  5
15D
  8
DATA
  6
CONTINUOUS
 62
     7
 10
357.5
 20
-51.0
 30
0.0
 11
362.5
 21
-51.0
 31
0.0
  0
CIRCLE
  5
15E
  8
DATA
  6
CONTINUOUS
 62
     7
 10
240.0
 20
-426.0
 30
0.0
 40
4.25
  0
LINE
  5
15F
  8
DATA
  6
CONTINUOUS
 62
     7
 10
240.0
 20
-428.5
 30
0.0
 11
240.0
 21
-423.5
 31
0.0
  0
LINE
  5
160
  8
DATA
  6
CONTINUOUS
 62
     7
 10
242.5
 20
-426.0
 30
0.0
 11
237.5
 21
-426.0
 31
0.0
  0
CIRCLE
  5
161
  8
DATA
  6
CONTINUOUS
 62
     7
 10
259.0
 20
-353.0
 30
0.0
 40
4.0
  0
LINE
  5
162
  8
DATA
  6
CONTINUOUS
 62
     7
 10
259.0
 20
-355.5
 30
0.0
 11
259.0
 21
-350.5
 31
0.0
  0
LINE
  5
163
  8
DATA
  6
CONTINUOUS
 62
     7
 10
261.5
 20
-353.0
 30
0.0
 11
256.5
 21
-353.0
 31
0.0
  0
CIRCLE
  5
164
  8
DATA
  6
CONTINUOUS
 62
     7
 10
259.0
 20
-353.0
 30
0.0
 40
3.5
  0
CIRCLE
  5
165
  8
DATA
  6
CONTINUOUS
 62
     7
 10
245.0
 20
-297.0
 30
0.0
 40
4.0
  0
LINE
  5
166
  8
DATA
  6
CONTINUOUS
 62
     7
 10
245.0
 20
-299.5
 30
0.0
 11
245.0
 21
-294.5
 31
0.0
  0
LINE
  5
167
  8
DATA
  6
CONTINUOUS
 62
     7
 10
247.5
 20
-297.0
 30
0.0
 11
242.5
 21
-297.0
 31
0.0
  0
CIRCLE
  5
168
  8
DATA
  6
CONTINUOUS
 62
     7
 10
245.0
 20
-297.0
 30
0.0
 40
3.5
  0
CIRCLE
  5
169
  8
DATA
  6
CONTINUOUS
 62
     7
 10
196.5
 20
-341.0
 30
0.0
 40
4.25
  0
LINE
  5
16A
  8
DATA
  6
CONTINUOUS
 62
     7
 10
196.5
 20
-343.5
 30
0.0
 11
196.5
 21
-338.5
 31
0.0
  0
LINE
  5
16B
  8
DATA
  6
CONTINUOUS
 62
     7
 10
199.0
 20
-341.0
 30
0.0
 11
194.0
 21
-341.0
 31
0.0
  0
CIRCLE
  5
16C
  8
DATA
  6
CONTINUOUS
 62
     7
 10
196.5
 20
-136.0
 30
0.0
 40
4.25
  0
LINE
  5
16D
  8
DATA
  6
CONTINUOUS
 62
     7
 10
196.5
 20
-133.5
 30
0.0
 11
196.5
 21
-138.5
 31
0.0
  0
LINE
  5
16E
  8
DATA
  6
CONTINUOUS
 62
     7
 10
199.0
 20
-136.0
 30
0.0
 11
194.0
 21
-136.0
 31
0.0
  0
CIRCLE
  5
16F
  8
DATA
  6
CONTINUOUS
 62
     7
 10
259.0
 20
-234.0
 30
0.0
 40
4.0
  0
LINE
  5
170
  8
DATA
  6
CONTINUOUS
 62
     7
 10
259.0
 20
-236.5
 30
0.0
 11
259.0
 21
-231.5
 31
0.0
  0
LINE
  5
171
  8
DATA
  6
CONTINUOUS
 62
     7
 10
261.5
 20
-234.0
 30
0.0
 11
256.5
 21
-234.0
 31
0.0
  0
CIRCLE
  5
172
  8
DATA
  6
CONTINUOUS
 62
     7
 10
259.0
 20
-234.0
 30
0.0
 40
3.5
  0
CIRCLE
  5
173
  8
DATA
  6
CONTINUOUS
 62
     7
 10
249.0
 20
-192.0
 30
0.0
 40
3.0
  0
LINE
  5
174
  8
DATA
  6
CONTINUOUS
 62
     7
 10
249.0
 20
-194.0
 30
0.0
 11
249.0
 21
-190.0
 31
0.0
  0
LINE
  5
175
  8
DATA
  6
CONTINUOUS
 62
     7
 10
251.0
 20
-192.0
 30
0.0
 11
247.0
 21
-192.0
 31
0.0
  0
CIRCLE
  5
176
  8
DATA
  6
CONTINUOUS
 62
     7
 10
249.0
 20
-192.0
 30
0.0
 40
2.5
  0
CIRCLE
  5
177
  8
DATA
  6
CONTINUOUS
 62
     7
 10
257.0
 20
-84.0
 30
0.0
 40
2.75
  0
LINE
  5
178
  8
DATA
  6
CONTINUOUS
 62
     7
 10
257.0
 20
-86.0
 30
0.0
 11
257.0
 21
-82.0
 31
0.0
  0
LINE
  5
179
  8
DATA
  6
CONTINUOUS
 62
     7
 10
259.0
 20
-84.0
 30
0.0
 11
255.0
 21
-84.0
 31
0.0
  0
CIRCLE
  5
17A
  8
DATA
  6
CONTINUOUS
 62
     7
 10
240.0
 20
-51.0
 30
0.0
 40
4.25
  0
LINE
  5
17B
  8
DATA
  6
CONTINUOUS
 62
     7
 10
240.0
 20
-48.5
 30
0.0
 11
240.0
 21
-53.5
 31
0.0
  0
LINE
  5
17C
  8
DATA
  6
CONTINUOUS
 62
     7
 10
242.5
 20
-51.0
 30
0.0
 11
237.5
 21
-51.0
 31
0.0
  0
LINE
  5
17D
  8
DATA
  6
CONTINUOUS
 62
     7
 10
255.0
 20
-343.5
 30
0.0
 11
255.0
 21
-314.5
 31
0.0
  0
LINE
  5
17E
  8
DATA
  6
CONTINUOUS
 62
     7
 10
256.5
 20
-345.0
 30
0.0
 11
343.5
 21
-345.0
 31
0.0
  0
LINE
  5
17F
  8
DATA
  6
CONTINUOUS
 62
     7
 10
345.0
 20
-343.5
 30
0.0
 11
345.0
 21
-314.5
 31
0.0
  0
LINE
  5
180
  8
DATA
  6
CONTINUOUS
 62
     7
 10
256.5
 20
-313.0
 30
0.0
 11
343.5
 21
-313.0
 31
0.0
  0
LINE
  5
181
  8
DATA
  6
CONTINUOUS
 62
     7
 10
255.0
 20
-316.0
 30
0.0
 11
345.0
 21
-316.0
 31
0.0
  0
LINE
  5
182
  8
DATA
  6
CONTINUOUS
 62
     7
 10
268.0
 20
-337.0
 30
0.0
 11
268.0
 21
-325.0
 31
0.0
  0
LINE
  5
183
  8
DATA
  6
CONTINUOUS
 62
     7
 10
271.0
 20
-336.0
 30
0.0
 11
271.0
 21
-329.24264068711909
 31
0.0
  0
LINE
  5
184
  8
DATA
  6
CONTINUOUS
 62
     7
 10
293.0
 20
-342.0
 30
0.0
 11
273.0
 21
-342.0
 31
0.0
  0
LINE
  5
185
  8
DATA
  6
CONTINUOUS
 62
     7
 10
292.0
 20
-339.0
 30
0.0
 11
274.0
 21
-339.0
 31
0.0
  0
LINE
  5
186
  8
DATA
  6
CONTINUOUS
 62
     7
 10
298.0
 20
-325.0
 30
0.0
 11
298.0
 21
-337.0
 31
0.0
  0
LINE
  5
187
  8
DATA
  6
CONTINUOUS
 62
     7
 10
295.0
 20
-329.24264068711909
 30
0.0
 11
295.0
 21
-336.0
 31
0.0
  0
LINE
  5
188
  8
DATA
  6
CONTINUOUS
 62
     7
 10
273.0
 20
-320.0
 30
0.0
 11
293.0
 21
-320.0
 31
0.0
  0
LINE
  5
189
  8
DATA
  6
CONTINUOUS
 62
     7
 10
277.24264068711909
 20
-323.0
 30
0.0
 11
288.75735931288079
 21
-323.0
 31
0.0
  0
LINE
  5
18A
  8
DATA
  6
CONTINUOUS
 62
     7
 10
275.12132034356
 20
-323.87867965644051
 30
0.0
 11
271.87867965644
 21
-327.12132034355949
 31
0.0
  0
LINE
  5
18B
  8
DATA
  6
CONTINUOUS
 62
     7
 10
290.87867965644
 20
-323.87867965644051
 30
0.0
 11
294.12132034356
 21
-327.12132034355949
 31
0.0
  0
ARC
  5
18C
  8
DATA
  6
CONTINUOUS
 62
     7
 10
273.0
 20
-325.0
 30
0.0
 40
5.0
 50
90.0
 51
180.0
  0
ARC
  5
18D
  8
DATA
  6
CONTINUOUS
 62
     7
 10
293.0
 20
-325.0
 30
0.0
 40
5.0
 50
0.0
 51
90.0
  0
ARC
  5
18E
  8
DATA
  6
CONTINUOUS
 62
     7
 10
293.0
 20
-337.0
 30
0.0
 40
5.0
 50
270.0
 51
0.0
  0
ARC
  5
18F
  8
DATA
  6
CONTINUOUS
 62
     7
 10
273.0
 20
-337.0
 30
0.0
 40
5.0
 50
180.0
 51
270.0
  0
ARC
  5
190
  8
DATA
  6
CONTINUOUS
 62
     7
 10
274.0
 20
-336.0
 30
0.0
 40
3.0
 50
180.0
 51
270.0
  0
ARC
  5
191
  8
DATA
  6
CONTINUOUS
 62
     7
 10
292.0
 20
-336.0
 30
0.0
 40
3.0
 50
270.0
 51
0.0
  0
ARC
  5
192
  8
DATA
  6
CONTINUOUS
 62
     7
 10
292.0
 20
-329.24264068711977
 30
0.0
 40
3.0
 50
0.0000000000130276
 51
45.000000000003041
  0
ARC
  5
193
  8
DATA
  6
CONTINUOUS
 62
     7
 10
288.75735931288182
 20
-326.0
 30
0.0
 40
2.9999999999988982
 50
45.000000000018417
 51
90.000000000017309
  0
ARC
  5
194
  8
DATA
  6
CONTINUOUS
 62
     7
 10
277.24264068711909
 20
-326.0
 30
0.0
 40
3.0
 50
90.0
 51
134.9999999999938
  0
ARC
  5
195
  8
DATA
  6
CONTINUOUS
 62
     7
 10
274.0
 20
-329.24264068711858
 30
0.0
 40
2.9999999999998641
 50
135.00000000001231
 51
180.0000000000087
  0
LINE
  5
196
  8
DATA
  6
CONTINUOUS
 62
     7
 10
323.0
 20
-341.0
 30
0.0
 11
338.0
 21
-341.0
 31
0.0
  0
LINE
  5
197
  8
DATA
  6
CONTINUOUS
 62
     7
 10
325.0
 20
-339.0
 30
0.0
 11
336.0
 21
-339.0
 31
0.0
  0
LINE
  5
198
  8
DATA
  6
CONTINUOUS
 62
     7
 10
338.0
 20
-341.0
 30
0.0
 11
338.0
 21
-320.0
 31
0.0
  0
LINE
  5
199
  8
DATA
  6
CONTINUOUS
 62
     7
 10
336.0
 20
-339.0
 30
0.0
 11
336.0
 21
-322.0
 31
0.0
  0
LINE
  5
19A
  8
DATA
  6
CONTINUOUS
 62
     7
 10
338.0
 20
-320.0
 30
0.0
 11
323.0
 21
-320.0
 31
0.0
  0
LINE
  5
19B
  8
DATA
  6
CONTINUOUS
 62
     7
 10
336.0
 20
-322.0
 30
0.0
 11
325.0
 21
-322.0
 31
0.0
  0
LINE
  5
19C
  8
DATA
  6
CONTINUOUS
 62
     7
 10
336.0
 20
-326.0
 30
0.0
 11
325.0
 21
-326.0
 31
0.0
  0
LINE
  5
19D
  8
DATA
  6
CONTINUOUS
 62
     7
 10
323.0
 20
-320.0
 30
0.0
 11
323.0
 21
-341.0
 31
0.0
  0
LINE
  5
19E
  8
DATA
  6
CONTINUOUS
 62
     7
 10
325.0
 20
-322.0
 30
0.0
 11
325.0
 21
-339.0
 31
0.0
  0
LINE
  5
19F
  8
DATA
  6
CONTINUOUS
 62
     7
 10
282.5
 20
-329.0
 30
0.0
 11
282.5
 21
-325.0
 31
0.0
  0
LINE
  5
1A0
  8
DATA
  6
CONTINUOUS
 62
     7
 10
283.5
 20
-329.0
 30
0.0
 11
282.5
 21
-329.0
 31
0.0
  0
LINE
  5
1A1
  8
DATA
  6
CONTINUOUS
 62
     7
 10
283.5
 20
-325.0
 30
0.0
 11
283.5
 21
-329.0
 31
0.0
  0
LINE
  5
1A2
  8
DATA
  6
CONTINUOUS
 62
     7
 10
282.5
 20
-325.0
 30
0.0
 11
283.5
 21
-325.0
 31
0.0
  0
LINE
  5
1A3
  8
DATA
  6
CONTINUOUS
 62
     7
 10
274.39999999999958
 20
-334.30000000000018
 30
0.0
 11
274.39999999999958
 21
-330.30000000000018
 31
0.0
  0
LINE
  5
1A4
  8
DATA
  6
CONTINUOUS
 62
     7
 10
275.39999999999958
 20
-334.30000000000018
 30
0.0
 11
274.39999999999958
 21
-334.30000000000018
 31
0.0
  0
LINE
  5
1A5
  8
DATA
  6
CONTINUOUS
 62
     7
 10
275.39999999999958
 20
-330.30000000000018
 30
0.0
 11
275.39999999999958
 21
-334.30000000000018
 31
0.0
  0
LINE
  5
1A6
  8
DATA
  6
CONTINUOUS
 62
     7
 10
274.39999999999958
 20
-330.30000000000018
 30
0.0
 11
275.39999999999958
 21
-330.30000000000018
 31
0.0
  0
LINE
  5
1A7
  8
DATA
  6
CONTINUOUS
 62
     7
 10
291.60000000000031
 20
-334.30000000000018
 30
0.0
 11
291.60000000000031
 21
-330.30000000000018
 31
0.0
  0
LINE
  5
1A8
  8
DATA
  6
CONTINUOUS
 62
     7
 10
290.60000000000042
 20
-334.30000000000018
 30
0.0
 11
291.60000000000031
 21
-334.30000000000018
 31
0.0
  0
LINE
  5
1A9
  8
DATA
  6
CONTINUOUS
 62
     7
 10
290.60000000000042
 20
-330.30000000000018
 30
0.0
 11
290.60000000000042
 21
-334.30000000000018
 31
0.0
  0
LINE
  5
1AA
  8
DATA
  6
CONTINUOUS
 62
     7
 10
291.60000000000031
 20
-330.30000000000018
 30
0.0
 11
290.60000000000042
 21
-330.30000000000018
 31
0.0
  0
TEXT
  5
1AB
  8
DATA
 62
     7
 10
266.4435084364149
 20
-315.72852647569442
 30
0.0
 40
2.0360514322916661
  1
Power AC～100-240V 50/60Hz
 41
0.7
 72
     1
 11
283.0
 21
-316.0
 31
0.0
 73
     1
  0
TEXT
  5
1AC
  8
DATA
 62
     7
 10
325.0841031901042
 20
-315.72852647569442
 30
0.0
 40
2.0360514322916661
  1
224W Max
 41
0.7
 72
     1
 11
330.5
 21
-316.0
 31
0.0
 73
     1
  0
TEXT
  5
1AD
  8
DATA
 62
     7
 10
328.12460666232641
 20
-330.55083333333329
 30
0.0
 40
4.072102864583333
  1
ON
 41
0.7
 72
     1
 11
330.5
 21
-326.47873046874997
 31
0.0
 73
     3
  0
TEXT
  5
1AE
  8
DATA
 62
     7
 10
326.69937065972221
 20
-338.4570529513889
 30
0.0
 40
4.072102864583333
  1
OFF
 41
0.7
 72
     1
 11
330.5
 21
-339.0
 31
0.0
 73
     1
  0
LINE
  5
1AF
  8
DATA
  6
CONTINUOUS
 62
     7
 10
319.0
 20
-310.0
 30
0.0
 11
319.0
 21
-279.0
 31
0.0
  0
LINE
  5
1B0
  8
DATA
  6
CONTINUOUS
 62
     7
 10
343.5
 20
-311.5
 30
0.0
 11
320.5
 21
-311.5
 31
0.0
  0
LINE
  5
1B1
  8
DATA
  6
CONTINUOUS
 62
     7
 10
345.0
 20
-279.0
 30
0.0
 11
345.0
 21
-310.0
 31
0.0
  0
LINE
  5
1B2
  8
DATA
  6
CONTINUOUS
 62
     7
 10
320.5
 20
-277.5
 30
0.0
 11
343.5
 21
-277.5
 31
0.0
  0
LINE
  5
1B3
  8
DATA
  6
CONTINUOUS
 62
     7
 10
319.0
 20
-280.5
 30
0.0
 11
345.0
 21
-280.5
 31
0.0
  0
LINE
  5
1B4
  8
DATA
  6
CONTINUOUS
 62
     7
 10
316.5
 20
-311.5
 30
0.0
 11
256.5
 21
-311.5
 31
0.0
  0
LINE
  5
1B5
  8
DATA
  6
CONTINUOUS
 62
     7
 10
255.0
 20
-310.0
 30
0.0
 11
255.0
 21
-291.0
 31
0.0
  0
LINE
  5
1B6
  8
DATA
  6
CONTINUOUS
 62
     7
 10
318.0
 20
-310.0
 30
0.0
 11
318.0
 21
-300.0
 31
0.0
  0
LINE
  5
1B7
  8
DATA
  6
CONTINUOUS
 62
     7
 10
316.5
 20
-298.5
 30
0.0
 11
287.5
 21
-298.5
 31
0.0
  0
LINE
  5
1B8
  8
DATA
  6
CONTINUOUS
 62
     7
 10
256.5
 20
-289.5
 30
0.0
 11
284.5
 21
-289.5
 31
0.0
  0
LINE
  5
1B9
  8
DATA
  6
CONTINUOUS
 62
     7
 10
256.5
 20
-288.5
 30
0.0
 11
284.5
 21
-288.5
 31
0.0
  0
LINE
  5
1BA
  8
DATA
  6
CONTINUOUS
 62
     7
 10
286.0
 20
-297.0
 30
0.0
 11
286.0
 21
-291.0
 31
0.0
  0
LINE
  5
1BB
  8
DATA
  6
CONTINUOUS
 62
     7
 10
303.0
 20
-295.5
 30
0.0
 11
303.0
 21
-279.0
 31
0.0
  0
LINE
  5
1BC
  8
DATA
  6
CONTINUOUS
 62
     7
 10
316.5
 20
-297.0
 30
0.0
 11
304.5
 21
-297.0
 31
0.0
  0
LINE
  5
1BD
  8
DATA
  6
CONTINUOUS
 62
     7
 10
318.0
 20
-279.0
 30
0.0
 11
318.0
 21
-295.5
 31
0.0
  0
LINE
  5
1BE
  8
DATA
  6
CONTINUOUS
 62
     7
 10
304.5
 20
-277.5
 30
0.0
 11
316.5
 21
-277.5
 31
0.0
  0
LINE
  5
1BF
  8
DATA
  6
CONTINUOUS
 62
     7
 10
303.0
 20
-280.5
 30
0.0
 11
318.0
 21
-280.5
 31
0.0
  0
LINE
  5
1C0
  8
DATA
  6
CONTINUOUS
 62
     7
 10
302.0
 20
-295.5
 30
0.0
 11
302.0
 21
-279.0
 31
0.0
  0
LINE
  5
1C1
  8
DATA
  6
CONTINUOUS
 62
     7
 10
288.5
 20
-297.0
 30
0.0
 11
300.5
 21
-297.0
 31
0.0
  0
LINE
  5
1C2
  8
DATA
  6
CONTINUOUS
 62
     7
 10
287.0
 20
-279.0
 30
0.0
 11
287.0
 21
-295.5
 31
0.0
  0
LINE
  5
1C3
  8
DATA
  6
CONTINUOUS
 62
     7
 10
300.5
 20
-277.5
 30
0.0
 11
288.5
 21
-277.5
 31
0.0
  0
LINE
  5
1C4
  8
DATA
  6
CONTINUOUS
 62
     7
 10
302.0
 20
-280.5
 30
0.0
 11
287.0
 21
-280.5
 31
0.0
  0
TEXT
  5
1C5
  8
DATA
 62
     7
 10
306.27179985894099
 20
-280.22852647569442
 30
0.0
 40
2.0360514322916661
  1
HF TRIM
 41
0.7
 72
     1
 11
310.5
 21
-280.5
 31
0.0
 73
     1
  0
TEXT
  5
1C6
  8
DATA
 62
     7
 10
328.08060099283853
 20
-280.22852647569442
 30
0.0
 40
2.0360514322916661
  1
Volume
 41
0.7
 72
     1
 11
332.0
 21
-280.5
 31
0.0
 73
     1
  0
TEXT
  5
1C7
  8
DATA
 62
     7
 10
290.27179985894099
 20
-280.22852647569442
 30
0.0
 40
2.0360514322916661
  1
LF TRIM
 41
0.7
 72
     1
 11
294.5
 21
-280.5
 31
0.0
 73
     1
  0
LINE
  5
1C8
  8
DATA
  6
CONTINUOUS
 62
     7
 10
255.0
 20
-287.0
 30
0.0
 11
255.0
 21
-251.0
 31
0.0
  0
LINE
  5
1C9
  8
DATA
  6
CONTINUOUS
 62
     7
 10
256.5
 20
-249.5
 30
0.0
 11
316.5
 21
-249.5
 31
0.0
  0
LINE
  5
1CA
  8
DATA
  6
CONTINUOUS
 62
     7
 10
255.0
 20
-252.5
 30
0.0
 11
318.0
 21
-252.5
 31
0.0
  0
LINE
  5
1CB
  8
DATA
  6
CONTINUOUS
 62
     7
 10
286.0
 20
-277.5
 30
0.0
 11
286.0
 21
-287.0
 31
0.0
  0
LINE
  5
1CC
  8
DATA
  6
CONTINUOUS
 62
     7
 10
316.5
 20
-276.0
 30
0.0
 11
287.5
 21
-276.0
 31
0.0
  0
LINE
  5
1CD
  8
DATA
  6
CONTINUOUS
 62
     7
 10
318.0
 20
-251.0
 30
0.0
 11
318.0
 21
-274.5
 31
0.0
  0
LINE
  5
1CE
  8
DATA
  6
CONTINUOUS
 62
     7
 10
319.0
 20
-274.5
 30
0.0
 11
319.0
 21
-251.0
 31
0.0
  0
LINE
  5
1CF
  8
DATA
  6
CONTINUOUS
 62
     7
 10
343.5
 20
-276.0
 30
0.0
 11
320.5
 21
-276.0
 31
0.0
  0
LINE
  5
1D0
  8
DATA
  6
CONTINUOUS
 62
     7
 10
345.0
 20
-251.0
 30
0.0
 11
345.0
 21
-274.5
 31
0.0
  0
LINE
  5
1D1
  8
DATA
  6
CONTINUOUS
 62
     7
 10
320.5
 20
-249.5
 30
0.0
 11
343.5
 21
-249.5
 31
0.0
  0
LINE
  5
1D2
  8
DATA
  6
CONTINUOUS
 62
     7
 10
319.0
 20
-252.5
 30
0.0
 11
345.0
 21
-252.5
 31
0.0
  0
TEXT
  5
1D3
  8
DATA
 62
     7
 10
322.07085584852427
 20
-252.22852647569439
 30
0.0
 40
2.0360514322916661
  1
Input Sensitivity
 41
0.7
 72
     1
 11
332.0
 21
-252.5
 31
0.0
 73
     1
  0
TEXT
  5
1D4
  8
DATA
 62
     7
 10
277.68729071723089
 20
-252.22852647569439
 30
0.0
 40
2.0360514322916661
  1
Blanced Input 
 41
0.7
 72
     1
 11
286.5
 21
-252.5
 31
0.0
 73
     1
  0
LINE
  5
1D5
  8
DATA
  6
CONTINUOUS
 62
     7
 10
291.0
 20
-288.0
 30
0.0
 11
291.0
 21
-285.5
 31
0.0
  0
LINE
  5
1D6
  8
DATA
  6
CONTINUOUS
 62
     7
 10
298.0
 20
-288.0
 30
0.0
 11
291.0
 21
-288.0
 31
0.0
  0
LINE
  5
1D7
  8
DATA
  6
CONTINUOUS
 62
     7
 10
298.0
 20
-285.5
 30
0.0
 11
298.0
 21
-288.0
 31
0.0
  0
LINE
  5
1D8
  8
DATA
  6
CONTINUOUS
 62
     7
 10
291.0
 20
-285.5
 30
0.0
 11
298.0
 21
-285.5
 31
0.0
  0
LINE
  5
1D9
  8
DATA
  6
CONTINUOUS
 62
     7
 10
293.5
 20
-288.0
 30
0.0
 11
293.5
 21
-285.5
 31
0.0
  0
LINE
  5
1DA
  8
DATA
  6
CONTINUOUS
 62
     7
 10
294.10000000000042
 20
-288.0
 30
0.0
 11
294.10000000000042
 21
-285.5
 31
0.0
  0
LINE
  5
1DB
  8
DATA
  6
CONTINUOUS
 62
     7
 10
295.5
 20
-288.0
 30
0.0
 11
293.5
 21
-288.0
 31
0.0
  0
LINE
  5
1DC
  8
DATA
  6
CONTINUOUS
 62
     7
 10
295.5
 20
-285.5
 30
0.0
 11
295.5
 21
-288.0
 31
0.0
  0
LINE
  5
1DD
  8
DATA
  6
CONTINUOUS
 62
     7
 10
294.89999999999958
 20
-285.5
 30
0.0
 11
294.89999999999958
 21
-288.0
 31
0.0
  0
LINE
  5
1DE
  8
DATA
  6
CONTINUOUS
 62
     7
 10
293.5
 20
-285.5
 30
0.0
 11
295.5
 21
-285.5
 31
0.0
  0
LINE
  5
1DF
  8
DATA
  6
CONTINUOUS
 62
     7
 10
310.0
 20
-288.0
 30
0.0
 11
310.0
 21
-285.5
 31
0.0
  0
LINE
  5
1E0
  8
DATA
  6
CONTINUOUS
 62
     7
 10
317.0
 20
-288.0
 30
0.0
 11
310.0
 21
-288.0
 31
0.0
  0
LINE
  5
1E1
  8
DATA
  6
CONTINUOUS
 62
     7
 10
317.0
 20
-285.5
 30
0.0
 11
317.0
 21
-288.0
 31
0.0
  0
LINE
  5
1E2
  8
DATA
  6
CONTINUOUS
 62
     7
 10
310.0
 20
-285.5
 30
0.0
 11
317.0
 21
-285.5
 31
0.0
  0
LINE
  5
1E3
  8
DATA
  6
CONTINUOUS
 62
     7
 10
312.5
 20
-288.0
 30
0.0
 11
312.5
 21
-285.5
 31
0.0
  0
LINE
  5
1E4
  8
DATA
  6
CONTINUOUS
 62
     7
 10
313.10000000000042
 20
-288.0
 30
0.0
 11
313.10000000000042
 21
-285.5
 31
0.0
  0
LINE
  5
1E5
  8
DATA
  6
CONTINUOUS
 62
     7
 10
314.5
 20
-288.0
 30
0.0
 11
312.5
 21
-288.0
 31
0.0
  0
LINE
  5
1E6
  8
DATA
  6
CONTINUOUS
 62
     7
 10
314.5
 20
-285.5
 30
0.0
 11
314.5
 21
-288.0
 31
0.0
  0
LINE
  5
1E7
  8
DATA
  6
CONTINUOUS
 62
     7
 10
313.89999999999958
 20
-285.5
 30
0.0
 11
313.89999999999958
 21
-288.0
 31
0.0
  0
LINE
  5
1E8
  8
DATA
  6
CONTINUOUS
 62
     7
 10
312.5
 20
-285.5
 30
0.0
 11
314.5
 21
-285.5
 31
0.0
  0
LINE
  5
1E9
  8
DATA
  6
CONTINUOUS
 62
     7
 10
331.0
 20
-259.0
 30
0.0
 11
331.0
 21
-256.5
 31
0.0
  0
LINE
  5
1EA
  8
DATA
  6
CONTINUOUS
 62
     7
 10
338.0
 20
-259.0
 30
0.0
 11
331.0
 21
-259.0
 31
0.0
  0
LINE
  5
1EB
  8
DATA
  6
CONTINUOUS
 62
     7
 10
338.0
 20
-256.5
 30
0.0
 11
338.0
 21
-259.0
 31
0.0
  0
LINE
  5
1EC
  8
DATA
  6
CONTINUOUS
 62
     7
 10
331.0
 20
-256.5
 30
0.0
 11
338.0
 21
-256.5
 31
0.0
  0
ARC
  5
1ED
  8
DATA
  6
CONTINUOUS
 62
     7
 10
329.99999999997641
 20
-294.50000000002359
 30
0.0
 40
7.0000000000334861
 50
21.876302269095088
 51
38.147761665057409
  0
ARC
  5
1EE
  8
DATA
  6
CONTINUOUS
 62
     7
 10
329.99999999997641
 20
-294.50000000002359
 30
0.0
 40
7.0000000000338831
 50
291.8539337900807
 51
308.14776166516288
  0
ARC
  5
1EF
  8
DATA
  6
CONTINUOUS
 62
     7
 10
329.99999999997641
 20
-294.50000000002359
 30
0.0
 40
7.0000000000339986
 50
261.87630226883289
 51
278.14606620947268
  0
ARC
  5
1F0
  8
DATA
  6
CONTINUOUS
 62
     7
 10
329.99999999997641
 20
-294.50000000002359
 30
0.0
 40
7.0000000000338547
 50
218.14776166495901
 51
231.92483788699849
  0
ARC
  5
1F1
  8
DATA
  6
CONTINUOUS
 62
     7
 10
329.99999999997641
 20
-294.50000000002359
 30
0.0
 40
7.000000000033995
 50
171.85393379052809
 51
188.12369773116259
  0
ARC
  5
1F2
  8
DATA
  6
CONTINUOUS
 62
     7
 10
329.99999999997641
 20
-294.50000000002359
 30
0.0
 40
7.0000000000336353
 50
141.8522383348384
 51
158.146066209921
  0
ARC
  5
1F3
  8
DATA
  6
CONTINUOUS
 62
     7
 10
329.99999999997641
 20
-294.50000000002359
 30
0.0
 40
7.0000000000330651
 50
81.876302268846814
 51
104.9999999997668
  0
ARC
  5
1F4
  8
DATA
  6
CONTINUOUS
 62
     7
 10
329.99999999997641
 20
-294.50000000002359
 30
0.0
 40
7.0000000000333182
 50
51.852238334938221
 51
68.123697730900062
  0
ARC
  5
1F5
  8
DATA
  6
CONTINUOUS
 62
     7
 10
329.99999999995998
 20
-294.50000000004047
 30
0.0
 40
6.499999999943709
 50
229.4117257858064
 51
220.5882742141917
  0
ARC
  5
1F6
  8
DATA
  6
CONTINUOUS
 62
     7
 10
335.30330085889909
 20
-289.19669914110091
 30
0.0
 40
0.9999999999997136
 50
168.3670129692313
 51
281.63298703076612
  0
ARC
  5
1F7
  8
DATA
  6
CONTINUOUS
 62
     7
 10
331.93989805541793
 20
-287.26020189567731
 30
0.0
 40
1.0000000000004381
 50
198.06170338760441
 51
311.93829661211879
  0
ARC
  5
1F8
  8
DATA
  6
CONTINUOUS
 62
     7
 10
337.2397981043232
 20
-292.56010194458207
 30
0.0
 40
1.0000000000004341
 50
138.06170338790051
 51
251.93829661232121
  0
ARC
  5
1F9
  8
DATA
  6
CONTINUOUS
 62
     7
 10
328.06010194453478
 20
-301.73979810437049
 30
0.0
 40
0.9999999999996443
 50
18.06170338763301
 51
131.93829661211009
  0
ARC
  5
1FA
  8
DATA
  6
CONTINUOUS
 62
     7
 10
322.76020189562951
 20
-296.43989805546562
 30
0.0
 40
1.000000000000129
 50
318.06170338791998
 51
71.938296612420302
  0
ARC
  5
1FB
  8
DATA
  6
CONTINUOUS
 62
     7
 10
324.69669914110091
 20
-289.19669914110091
 30
0.0
 40
1.0000000000000271
 50
258.36701296604281
 51
11.63298703185708
  0
ARC
  5
1FC
  8
DATA
  6
CONTINUOUS
 62
     7
 10
322.7558819484002
 20
-292.55894441825831
 30
0.0
 40
1.000000000000236
 50
288.3455825307226
 51
41.654417469702878
  0
LINE
  5
1FD
  8
DATA
  6
CONTINUOUS
 62
     7
 10
326.81801948461361
 20
-296.97487373420017
 30
0.0
 11
324.7093421948266
 21
-299.08355102398718
 31
0.0
  0
LINE
  5
1FE
  8
DATA
  6
CONTINUOUS
 62
     7
 10
327.52512626580022
 20
-297.68198051538678
 30
0.0
 11
326.81801948461361
 21
-296.97487373420017
 31
0.0
  0
LINE
  5
1FF
  8
DATA
  6
CONTINUOUS
 62
     7
 10
325.41644897601242
 20
-299.79065780517379
 30
0.0
 11
327.52512626580022
 21
-297.68198051538678
 31
0.0
  0
ARC
  5
200
  8
DATA
  6
CONTINUOUS
 62
     7
 10
330.00000000003172
 20
-294.50000000000978
 30
0.0
 40
7.000000000033598
 50
105.0000000002367
 51
128.12369773115481
  0
ARC
  5
201
  8
DATA
  6
CONTINUOUS
 62
     7
 10
335.30330085889909
 20
-299.8033008588996
 30
0.0
 40
1.000000000000262
 50
78.367012968173711
 51
191.63298703395719
  0
ARC
  5
202
  8
DATA
  6
CONTINUOUS
 62
     7
 10
331.94105558174118
 20
-301.74411805159917
 30
0.0
 40
1.0000000000004159
 50
48.345582530267919
 51
161.65441746925691
  0
ARC
  5
203
  8
DATA
  6
CONTINUOUS
 62
     7
 10
329.99999999997641
 20
-294.50000000002359
 30
0.0
 40
7.0000000000328404
 50
345.00000000023942
 51
8.1236977311610872
  0
ARC
  5
204
  8
DATA
  6
CONTINUOUS
 62
     7
 10
329.99999999999
 20
-294.49999999996771
 30
0.0
 40
7.0000000000339959
 50
321.8763022688492
 51
344.99999999975921
  0
ARC
  5
205
  8
DATA
  6
CONTINUOUS
 62
     7
 10
330.00000000004638
 20
-294.49999999995413
 30
0.0
 40
7.0000000000333182
 50
231.85223833493819
 51
248.123697730907
  0
ARC
  5
206
  8
DATA
  6
CONTINUOUS
 62
     7
 10
330.00000000004638
 20
-294.49999999995413
 30
0.0
 40
7.0000000000343281
 50
201.87630226909241
 51
218.1477616650528
  0
LINE
  5
207
  8
DATA
  6
CONTINUOUS
 62
     7
 10
325.40404431008392
 20
-299.09595568991841
 30
0.0
 11
325.40380592230849
 21
-299.09619407769372
 31
0.0
  0
LINE
  5
208
  8
DATA
  6
CONTINUOUS
 62
     7
 10
324.69669914110273
 20
-299.8033008589
 30
0.0
 11
323.9895923599388
 21
-300.51040764006348
 31
0.0
  0
LINE
  5
209
  8
DATA
  6
CONTINUOUS
 62
     7
 10
322.7555563028472
 20
-296.44114283832448
 30
0.0
 11
321.78963047658732
 21
-296.69996188341929
 31
0.0
  0
LINE
  5
20A
  8
DATA
  6
CONTINUOUS
 62
     7
 10
325.40720673230493
 20
-289.90720673225741
 30
0.0
 11
325.40380592238682
 21
-289.90380592233907
 31
0.0
  0
LINE
  5
20B
  8
DATA
  6
CONTINUOUS
 62
     7
 10
324.6966991411245
 20
-289.19669914107732
 30
0.0
 11
323.9895923599388
 21
-288.48959235989088
 31
0.0
  0
LINE
  5
20C
  8
DATA
  6
CONTINUOUS
 62
     7
 10
322.75555630285822
 20
-292.55885716163328
 30
0.0
 11
321.78963047658732
 21
-292.30003811653552
 31
0.0
  0
LINE
  5
20D
  8
DATA
  6
CONTINUOUS
 62
     7
 10
328.31767620686333
 20
-288.22148212923088
 30
0.0
 11
328.31767620576107
 21
-288.22148212512002
 31
0.0
  0
LINE
  5
20E
  8
DATA
  6
CONTINUOUS
 62
     7
 10
328.05885716172452
 20
-287.25555630283452
 30
0.0
 11
327.80003811661197
 21
-286.28963047653087
 31
0.0
  0
LINE
  5
20F
  8
DATA
  6
CONTINUOUS
 62
     7
 10
334.59279327040798
 20
-299.0927932703803
 30
0.0
 11
334.59619407772152
 21
-299.09619407769401
 31
0.0
  0
LINE
  5
210
  8
DATA
  6
CONTINUOUS
 62
     7
 10
335.30330085891279
 20
-299.80330085888482
 30
0.0
 11
336.01040764009122
 21
-300.51040764006348
 31
0.0
  0
LINE
  5
211
  8
DATA
  6
CONTINUOUS
 62
     7
 10
336.2781922246449
 20
-296.18223653657219
 30
0.0
 11
336.27851787084001
 21
-296.18232379320722
 31
0.0
  0
LINE
  5
212
  8
DATA
  6
CONTINUOUS
 62
     7
 10
337.24444369715548
 20
-296.44114283831692
 30
0.0
 11
338.21036952346168
 21
-296.69996188342378
 31
0.0
  0
LINE
  5
213
  8
DATA
  6
CONTINUOUS
 62
     7
 10
345.0
 20
-298.519237886518
 30
0.0
 11
345.30992434671128
 21
-298.60228186493441
 31
0.0
  0
LINE
  5
214
  8
DATA
  6
CONTINUOUS
 62
     7
 10
335.30330085889
 20
-289.19669914109232
 30
0.0
 11
336.01040764009122
 21
-288.48959235989088
 31
0.0
  0
LINE
  5
215
  8
DATA
  6
CONTINUOUS
 62
     7
 10
337.24444369714371
 20
-292.55885716164079
 30
0.0
 11
338.21036952346168
 21
-292.30003811653069
 31
0.0
  0
LINE
  5
216
  8
DATA
  6
CONTINUOUS
 62
     7
 10
345.0
 20
-290.48076211343641
 30
0.0
 11
345.30992434671128
 21
-290.39771813502
 31
0.0
  0
LINE
  5
217
  8
DATA
  6
CONTINUOUS
 62
     7
 10
331.68107900728148
 20
-288.22612773340012
 30
0.0
 11
331.6823237931676
 21
-288.22148212923088
 31
0.0
  0
LINE
  5
218
  8
DATA
  6
CONTINUOUS
 62
     7
 10
331.94114283830368
 20
-287.25555630283998
 30
0.0
 11
332.19996188341793
 21
-286.28963047653087
 31
0.0
  0
TEXT
  5
219
  8
DATA
 62
     7
 10
323.51451369240408
 20
-302.78582430673021
 30
0.0
 40
2.0360514322916661
  1
1
 41
0.7
 72
     2
 11
323.9895923599388
 21
-300.74977287443852
 31
0.0
 73
     3
  0
TEXT
  5
21A
  8
DATA
 62
     7
 10
320.83947314151777
 20
-297.71798759956511
 30
0.0
 40
2.0360514322916661
  1
2
 41
0.7
 72
     2
 11
321.78963047658732
 21
-296.69996188341929
 31
0.0
 73
     2
  0
TEXT
  5
21B
  8
DATA
 62
     7
 10
320.83947314151777
 20
-293.31806383268128
 30
0.0
 40
2.0360514322916661
  1
3
 41
0.7
 72
     2
 11
321.78963047658732
 21
-292.30003811653552
 31
0.0
 73
     2
  0
TEXT
  5
21C
  8
DATA
 62
     7
 10
323.03943502486942
 20
-289.13720140936999
 30
0.0
 40
2.0360514322916661
  1
4
 41
0.7
 72
     2
 11
323.9895923599388
 21
-288.11917569322418
 31
0.0
 73
     2
  0
TEXT
  5
21D
  8
DATA
 62
     7
 10
326.97174675493659
 20
-286.16806383278549
 30
0.0
 40
2.0360514322916661
  1
5
 41
0.7
 72
     2
 11
327.92190409000608
 21
-285.15003811663968
 31
0.0
 73
     2
  0
TEXT
  5
21E
  8
DATA
 62
     7
 10
332.5727212150145
 20
-285.98473952601017
 30
0.0
 40
2.0360514322916661
  1
6
 41
0.7
 72
     2
 11
333.52287855008399
 21
-284.96671380986442
 31
0.0
 73
     2
  0
TEXT
  5
21F
  8
DATA
 62
     7
 10
336.38316697168779
 20
-289.50761807603669
 30
0.0
 40
2.0360514322916661
  1
7
 41
0.7
 72
     2
 11
337.33332430675722
 21
-288.48959235989088
 31
0.0
 73
     2
  0
TEXT
  5
220
  8
DATA
 62
     7
 10
338.58312885505848
 20
-293.3180638326765
 30
0.0
 40
2.0360514322916661
  1
8
 41
0.7
 72
     2
 11
339.53328619012802
 21
-292.30003811653069
 31
0.0
 73
     2
  0
TEXT
  5
221
  8
DATA
 62
     7
 10
338.58312885505848
 20
-297.7179875995696
 30
0.0
 40
2.0360514322916661
  1
9
 41
0.7
 72
     2
 11
339.53328619012802
 21
-296.69996188342378
 31
0.0
 73
     2
  0
TEXT
  5
222
  8
DATA
 62
     7
 10
335.67054897038571
 20
-302.85135002287581
 30
0.0
 40
2.0360514322916661
  1
10
 41
0.7
 72
     2
 11
337.33332430675722
 21
-301.83332430672999
 31
0.0
 73
     2
  0
TEXT
  5
223
  8
DATA
 62
     7
 10
319.90337056473948
 20
-305.53060078242459
 30
0.0
 40
2.0360514322916661
  1
Min
 41
0.7
 72
     1
 11
321.32860656734368
 21
-305.80207430673022
 31
0.0
 73
     1
  0
TEXT
  5
224
  8
DATA
 62
     7
 10
337.35537291786829
 20
-305.53060078242441
 30
0.0
 40
2.0360514322916661
  1
Max
 41
0.7
 72
     1
 11
339.25568758800722
 21
-305.80207430672999
 31
0.0
 73
     1
  0
CIRCLE
  5
225
  8
DATA
  6
CONTINUOUS
 62
     7
 10
338.0
 20
-260.5
 30
0.0
 40
0.4999999999998443
  0
LINE
  5
226
  8
DATA
  6
CONTINUOUS
 62
     7
 10
338.25
 20
-260.9330127018921
 30
0.0
 11
339.39999999999969
 21
-262.92487113059639
 31
0.0
  0
CIRCLE
  5
227
  8
DATA
  6
CONTINUOUS
 62
     7
 10
331.0
 20
-260.5
 30
0.0
 40
0.4999999999998443
  0
LINE
  5
228
  8
DATA
  6
CONTINUOUS
 62
     7
 10
330.75
 20
-260.9330127018921
 30
0.0
 11
329.60000000000042
 21
-262.92487113059639
 31
0.0
  0
TEXT
  5
229
  8
DATA
 62
     7
 10
335.48060099283822
 20
-265.200287797263
 30
0.0
 40
2.0360514322916661
  1
-10dBV
 41
0.7
 72
     1
 11
339.39999999999969
 21
-263.16423636497132
 31
0.0
 73
     3
  0
TEXT
  5
22A
  8
DATA
 62
     7
 10
326.27444932725729
 20
-265.200287797263
 30
0.0
 40
2.0360514322916661
  1
+4dBu
 41
0.7
 72
     1
 11
329.60000000000042
 21
-263.16423636497132
 31
0.0
 73
     3
  0
CIRCLE
  5
22B
  8
DATA
  6
CONTINUOUS
 62
     7
 10
317.0
 20
-288.5
 30
0.0
 40
0.4999999999998443
  0
LINE
  5
22C
  8
DATA
  6
CONTINUOUS
 62
     7
 10
316.64644660940672
 20
-288.85355339059288
 30
0.0
 11
314.36000000000058
 21
-291.13999999999987
 31
0.0
  0
TEXT
  5
22D
  8
DATA
 62
     7
 10
312.62636091400958
 20
-293.41541666666649
 30
0.0
 40
2.0360514322916661
  1
+2dB
 41
0.7
 72
     1
 11
315.23929358545053
 21
-291.3793652343748
 31
0.0
 73
     3
  0
TEXT
  5
22E
  8
DATA
 62
     7
 10
303.66011880928448
 20
-293.41541666666649
 30
0.0
 40
2.0360514322916661
  1
-2dB
 41
0.7
 72
     1
 11
306.27305148072543
 21
-291.3793652343748
 31
0.0
 73
     3
  0
TEXT
  5
22F
  8
DATA
 62
     7
 10
310.50369099934949
 20
-293.41541666666649
 30
0.0
 40
2.0360514322916661
  1
0
 41
0.7
 72
     1
 11
310.86000000000058
 21
-291.3793652343748
 31
0.0
 73
     3
  0
CIRCLE
  5
230
  8
DATA
  6
CONTINUOUS
 62
     7
 10
313.5
 20
-288.5
 30
0.0
 40
0.4999999999998443
  0
LINE
  5
231
  8
DATA
  6
CONTINUOUS
 62
     7
 10
313.14644660940672
 20
-288.85355339059288
 30
0.0
 11
310.86000000000058
 21
-291.13999999999987
 31
0.0
  0
CIRCLE
  5
232
  8
DATA
  6
CONTINUOUS
 62
     7
 10
310.0
 20
-288.5
 30
0.0
 40
0.4999999999998443
  0
LINE
  5
233
  8
DATA
  6
CONTINUOUS
 62
     7
 10
309.64644660940672
 20
-288.85355339059288
 30
0.0
 11
307.36000000000058
 21
-291.13999999999987
 31
0.0
  0
CIRCLE
  5
234
  8
DATA
  6
CONTINUOUS
 62
     7
 10
298.0
 20
-288.5
 30
0.0
 40
0.4999999999998443
  0
CIRCLE
  5
235
  8
DATA
  6
CONTINUOUS
 62
     7
 10
294.5
 20
-288.5
 30
0.0
 40
0.4999999999998443
  0
CIRCLE
  5
236
  8
DATA
  6
CONTINUOUS
 62
     7
 10
291.0
 20
-288.5
 30
0.0
 40
0.4999999999998443
  0
LINE
  5
237
  8
DATA
  6
CONTINUOUS
 62
     7
 10
298.25
 20
-288.93301270189198
 30
0.0
 11
299.67431578065037
 21
-291.40000000000009
 31
0.0
  0
TEXT
  5
238
  8
DATA
 62
     7
 10
296.22706732855909
 20
-293.67541666666682
 30
0.0
 40
2.0360514322916661
  1
+2dB
 41
0.7
 72
     1
 11
298.84000000000009
 21
-291.63936523437508
 31
0.0
 73
     3
  0
TEXT
  5
239
  8
DATA
 62
     7
 10
287.3001188092847
 20
-293.67541666666682
 30
0.0
 40
2.0360514322916661
  1
-2dB
 41
0.7
 72
     1
 11
289.91305148072558
 21
-291.63936523437508
 31
0.0
 73
     3
  0
TEXT
  5
23A
  8
DATA
 62
     7
 10
294.14369099934902
 20
-293.67541666666682
 30
0.0
 40
2.0360514322916661
  1
0
 41
0.7
 72
     1
 11
294.5
 21
-291.63936523437508
 31
0.0
 73
     3
  0
LINE
  5
23B
  8
DATA
  6
CONTINUOUS
 62
     7
 10
294.5
 20
-288.99999999999972
 30
0.0
 11
294.5
 21
-291.40000000000009
 31
0.0
  0
LINE
  5
23C
  8
DATA
  6
CONTINUOUS
 62
     7
 10
290.75
 20
-288.93301270189198
 30
0.0
 11
289.32568421934963
 21
-291.40000000000009
 31
0.0
  0
ARC
  5
23D
  8
DATA
  6
CONTINUOUS
 62
     7
 10
256.5
 20
-251.0
 30
0.0
 40
1.5
 50
90.0
 51
180.0
  0
ARC
  5
23E
  8
DATA
  6
CONTINUOUS
 62
     7
 10
316.5
 20
-251.0
 30
0.0
 40
1.5
 50
0.0
 51
90.0
  0
ARC
  5
23F
  8
DATA
  6
CONTINUOUS
 62
     7
 10
320.5
 20
-251.0
 30
0.0
 40
1.5
 50
90.0
 51
180.0
  0
ARC
  5
240
  8
DATA
  6
CONTINUOUS
 62
     7
 10
343.5
 20
-251.0
 30
0.0
 40
1.5
 50
0.0
 51
90.0
  0
ARC
  5
241
  8
DATA
  6
CONTINUOUS
 62
     7
 10
320.5
 20
-274.5
 30
0.0
 40
1.5
 50
180.0
 51
270.0
  0
ARC
  5
242
  8
DATA
  6
CONTINUOUS
 62
     7
 10
343.5
 20
-274.5
 30
0.0
 40
1.5
 50
270.0
 51
0.0
  0
ARC
  5
243
  8
DATA
  6
CONTINUOUS
 62
     7
 10
343.5
 20
-279.0
 30
0.0
 40
1.5
 50
0.0
 51
90.0
  0
ARC
  5
244
  8
DATA
  6
CONTINUOUS
 62
     7
 10
320.5
 20
-279.0
 30
0.0
 40
1.5
 50
90.0
 51
180.0
  0
ARC
  5
245
  8
DATA
  6
CONTINUOUS
 62
     7
 10
316.5
 20
-274.5
 30
0.0
 40
1.5
 50
270.0
 51
0.0
  0
ARC
  5
246
  8
DATA
  6
CONTINUOUS
 62
     7
 10
316.5
 20
-279.0
 30
0.0
 40
1.5
 50
0.0
 51
90.0
  0
ARC
  5
247
  8
DATA
  6
CONTINUOUS
 62
     7
 10
304.5
 20
-279.0
 30
0.0
 40
1.5
 50
90.0
 51
180.0
  0
ARC
  5
248
  8
DATA
  6
CONTINUOUS
 62
     7
 10
300.5
 20
-279.0
 30
0.0
 40
1.5
 50
0.0
 51
90.0
  0
ARC
  5
249
  8
DATA
  6
CONTINUOUS
 62
     7
 10
288.5
 20
-279.0
 30
0.0
 40
1.5
 50
90.0
 51
180.0
  0
ARC
  5
24A
  8
DATA
  6
CONTINUOUS
 62
     7
 10
287.5
 20
-277.5
 30
0.0
 40
1.5
 50
90.0
 51
180.0
  0
ARC
  5
24B
  8
DATA
  6
CONTINUOUS
 62
     7
 10
288.5
 20
-295.5
 30
0.0
 40
1.5
 50
180.0
 51
270.0
  0
ARC
  5
24C
  8
DATA
  6
CONTINUOUS
 62
     7
 10
300.5
 20
-295.5
 30
0.0
 40
1.5
 50
270.0
 51
0.0
  0
ARC
  5
24D
  8
DATA
  6
CONTINUOUS
 62
     7
 10
304.5
 20
-295.5
 30
0.0
 40
1.5
 50
180.0
 51
270.0
  0
ARC
  5
24E
  8
DATA
  6
CONTINUOUS
 62
     7
 10
316.5
 20
-295.5
 30
0.0
 40
1.5
 50
270.0
 51
0.0
  0
ARC
  5
24F
  8
DATA
  6
CONTINUOUS
 62
     7
 10
287.5
 20
-297.0
 30
0.0
 40
1.5
 50
180.0
 51
270.0
  0
ARC
  5
250
  8
DATA
  6
CONTINUOUS
 62
     7
 10
284.5
 20
-291.0
 30
0.0
 40
1.5
 50
0.0
 51
90.0
  0
ARC
  5
251
  8
DATA
  6
CONTINUOUS
 62
     7
 10
284.5
 20
-287.0
 30
0.0
 40
1.5
 50
270.0
 51
0.0
  0
ARC
  5
252
  8
DATA
  6
CONTINUOUS
 62
     7
 10
256.5
 20
-287.0
 30
0.0
 40
1.5
 50
180.0
 51
270.0
  0
ARC
  5
253
  8
DATA
  6
CONTINUOUS
 62
     7
 10
256.5
 20
-291.0
 30
0.0
 40
1.5
 50
90.0
 51
180.0
  0
ARC
  5
254
  8
DATA
  6
CONTINUOUS
 62
     7
 10
256.5
 20
-310.0
 30
0.0
 40
1.5
 50
180.0
 51
270.0
  0
ARC
  5
255
  8
DATA
  6
CONTINUOUS
 62
     7
 10
256.5
 20
-314.5
 30
0.0
 40
1.5
 50
90.0
 51
180.0
  0
ARC
  5
256
  8
DATA
  6
CONTINUOUS
 62
     7
 10
256.5
 20
-343.5
 30
0.0
 40
1.5
 50
180.0
 51
270.0
  0
ARC
  5
257
  8
DATA
  6
CONTINUOUS
 62
     7
 10
343.5
 20
-343.5
 30
0.0
 40
1.5
 50
270.0
 51
0.0
  0
ARC
  5
258
  8
DATA
  6
CONTINUOUS
 62
     7
 10
343.5
 20
-314.5
 30
0.0
 40
1.5
 50
0.0
 51
90.0
  0
ARC
  5
259
  8
DATA
  6
CONTINUOUS
 62
     7
 10
320.5
 20
-310.0
 30
0.0
 40
1.5
 50
180.0
 51
270.0
  0
ARC
  5
25A
  8
DATA
  6
CONTINUOUS
 62
     7
 10
316.5
 20
-300.0
 30
0.0
 40
1.5
 50
0.0
 51
90.0
  0
ARC
  5
25B
  8
DATA
  6
CONTINUOUS
 62
     7
 10
316.5
 20
-310.0
 30
0.0
 40
1.5
 50
270.0
 51
0.0
  0
ARC
  5
25C
  8
DATA
  6
CONTINUOUS
 62
     7
 10
343.5
 20
-310.0
 30
0.0
 40
1.5
 50
270.0
 51
0.0
  0
CIRCLE
  5
25D
  8
DATA
  6
CONTINUOUS
 62
     7
 10
294.0
 20
-266.5
 30
0.0
 40
8.4999999999999982
  0
CIRCLE
  5
25E
  8
DATA
  6
CONTINUOUS
 62
     7
 10
294.0
 20
-266.5
 30
0.0
 40
5.2500000000006031
  0
CIRCLE
  5
25F
  8
DATA
  6
CONTINUOUS
 62
     7
 10
294.0
 20
-266.5
 30
0.0
 40
4.5000000000005844
  0
CIRCLE
  5
260
  8
DATA
  6
CONTINUOUS
 62
     7
 10
294.0
 20
-266.5
 30
0.0
 40
3.4999999999998752
  0
POLYLINE
  5
261
  8
DATA
  6
CONTINUOUS
 62
     7
 66
     1
 10
0.0
 20
0.0
 30
0.0
 70
     1
  0
VERTEX
  5
609
  8
DATA
  6
CONTINUOUS
 62
     7
 10
302.5
 20
-266.5
 30
0.0
  0
VERTEX
  5
60A
  8
DATA
  6
CONTINUOUS
 62
     7
 10
298.25
 20
-259.13878406783209
 30
0.0
  0
VERTEX
  5
60B
  8
DATA
  6
CONTINUOUS
 62
     7
 10
289.75
 20
-259.13878406783209
 30
0.0
  0
VERTEX
  5
60C
  8
DATA
  6
CONTINUOUS
 62
     7
 10
285.5
 20
-266.5
 30
0.0
  0
VERTEX
  5
60D
  8
DATA
  6
CONTINUOUS
 62
     7
 10
289.75
 20
-273.86121593216791
 30
0.0
  0
VERTEX
  5
60E
  8
DATA
  6
CONTINUOUS
 62
     7
 10
298.25
 20
-273.86121593216791
 30
0.0
  0
SEQEND
  5
60F
  8
DATA
  6
CONTINUOUS
 62
     7
  0
CIRCLE
  5
26A
  8
DATA
  6
CONTINUOUS
 62
     7
 10
300.0
 20
-109.5000000000003
 30
0.0
 40
45.500000000000341
  0
CIRCLE
  5
26B
  8
DATA
  6
CONTINUOUS
 62
     7
 10
300.0
 20
-109.5000000000003
 30
0.0
 40
39.999999999999773
  0
CIRCLE
  5
26C
  8
DATA
  6
CONTINUOUS
 62
     7
 10
300.0
 20
-109.5000000000003
 30
0.0
 40
28.000000000000181
  0
CIRCLE
  5
26D
  8
DATA
  6
CONTINUOUS
 62
     7
 10
274.08323529284741
 20
-269.49950980283307
 30
0.0
 40
1.813725490014177
  0
CIRCLE
  5
26E
  8
DATA
  6
CONTINUOUS
 62
     7
 10
270.00235294031432
 20
-265.91740196005372
 30
0.0
 40
1.8137254900151361
  0
CIRCLE
  5
26F
  8
DATA
  6
CONTINUOUS
 62
     7
 10
265.92147058778119
 20
-269.49950980283307
 30
0.0
 40
1.81372549001519
  0
CIRCLE
  5
270
  8
DATA
  6
CONTINUOUS
 62
     7
 10
265.92147058778119
 20
-269.49950980283307
 30
0.0
 40
1.81372549001519
  0
CIRCLE
  5
271
  8
DATA
  6
CONTINUOUS
 62
     7
 10
270.00235294031432
 20
-269.49950980283307
 30
0.0
 40
10.882352940088349
  0
CIRCLE
  5
272
  8
DATA
  6
CONTINUOUS
 62
     7
 10
270.00235294031432
 20
-269.49950980283307
 30
0.0
 40
7.1642155523996243
  0
ARC
  5
273
  8
DATA
  6
CONTINUOUS
 62
     7
 10
270.00235294031432
 20
-269.49950980283307
 30
0.0
 40
8.8419117638218623
 50
300.85188598606999
 51
239.1481140139351
  0
CIRCLE
  5
274
  8
DATA
  6
CONTINUOUS
 62
     7
 10
261.38715686274458
 20
-258.61715686274482
 30
0.0
 40
2.26715686274474
  0
CIRCLE
  5
275
  8
DATA
  6
CONTINUOUS
 62
     7
 10
278.6198698307926
 20
-280.38292528377099
 30
0.0
 40
2.2671568627456491
  0
LINE
  5
276
  8
DATA
  6
CONTINUOUS
 62
     7
 10
274.53666666535167
 20
-278.94351764652453
 30
0.0
 11
274.53666666535167
 21
-277.09025434353191
 31
0.0
  0
LINE
  5
277
  8
DATA
  6
CONTINUOUS
 62
     7
 10
267.82588235229741
 20
-276.32512055709452
 30
0.0
 11
267.82588235229741
 21
-276.32512041733082
 31
0.0
  0
LINE
  5
278
  8
DATA
  6
CONTINUOUS
 62
     7
 10
265.4680392152776
 20
-278.94351764652453
 30
0.0
 11
265.4680392152776
 21
-277.09025434353191
 31
0.0
  0
LINE
  5
279
  8
DATA
  6
CONTINUOUS
 62
     7
 10
272.5869117635857
 20
-276.18127904236093
 30
0.0
 11
272.5869117635857
 21
-276.18127889958822
 31
0.0
  0
LINE
  5
27A
  8
DATA
  6
CONTINUOUS
 62
     7
 10
262.74977179329932
 20
-258.61715686274482
 30
0.0
 11
260.02918355800563
 21
-258.61715686274482
 31
0.0
  0
LINE
  5
27B
  8
DATA
  6
CONTINUOUS
 62
     7
 10
261.38715686274458
 20
-259.97851352124133
 30
0.0
 11
261.38715686274458
 21
-257.25792528594718
 31
0.0
  0
LINE
  5
27C
  8
DATA
  6
CONTINUOUS
 62
     7
 10
279.98248476134808
 20
-280.38292528377099
 30
0.0
 11
277.26189652605359
 21
-280.38292528377099
 31
0.0
  0
LINE
  5
27D
  8
DATA
  6
CONTINUOUS
 62
     7
 10
278.6198698307926
 20
-281.74428194226761
 30
0.0
 11
278.6198698307926
 21
-279.02369370697318
 31
0.0
  0
CIRCLE
  5
27E
  8
DATA
  6
CONTINUOUS
 62
     7
 10
270.00235294031432
 20
-269.49950980283307
 30
0.0
 40
10.476129299925759
  0
LINE
  5
27F
  8
DATA
  6
CONTINUOUS
 62
     7
 10
-435.99999999994361
 20
-851.5
 30
0.0
 11
-443.99999999994361
 21
-851.5
 31
0.0
  0
LINE
  5
280
  8
DATA
  6
CONTINUOUS
 62
     7
 10
-429.99999999999
 20
-855.49999999999989
 30
0.0
 11
-429.99999999999
 21
-865.49999999999989
 31
0.0
  0
LINE
  5
281
  8
DATA
  6
CONTINUOUS
 62
     7
 10
-423.49999999998983
 20
-865.49999999999989
 30
0.0
 11
-436.49999999998983
 21
-865.49999999999989
 31
0.0
  0
LINE
  5
282
  8
DATA
  6
CONTINUOUS
 62
     7
 10
-422.99999999999
 20
-864.5022188372692
 30
0.0
 11
-436.99999999998971
 21
-864.5022188372692
 31
0.0
  0
LINE
  5
283
  8
DATA
  6
CONTINUOUS
 62
     7
 10
-423.49999999998983
 20
-865.49999999999989
 30
0.0
 11
-422.99999999999
 21
-864.5022188372692
 31
0.0
  0
LINE
  5
284
  8
DATA
  6
CONTINUOUS
 62
     7
 10
-436.49999999998983
 20
-865.49999999999989
 30
0.0
 11
-437.0760692228842
 21
-864.5022188372692
 31
0.0
  0
LINE
  5
285
  8
DATA
  6
CONTINUOUS
 62
     7
 10
-422.99999999999
 20
-864.5022188372692
 30
0.0
 11
-422.49999999999
 21
-851.5
 31
0.0
  0
LINE
  5
286
  8
DATA
  6
CONTINUOUS
 62
     7
 10
-436.99999999998971
 20
-864.5022188372692
 30
0.0
 11
-437.44717555106843
 21
-852.87367008966703
 31
0.0
  0
LINE
  5
287
  8
DATA
  6
CONTINUOUS
 62
     7
 10
-422.49999999999
 20
-851.5
 30
0.0
 11
-437.49999999998971
 21
-851.5
 31
0.0
  0
LINE
  5
288
  8
DATA
  6
CONTINUOUS
 62
     7
 10
-363.0
 20
-851.5
 30
0.0
 11
-363.0
 21
-852.19374728496905
 31
0.0
  0
LINE
  5
289
  8
DATA
  6
CONTINUOUS
 62
     7
 10
-355.0
 20
-851.5
 30
0.0
 11
-363.0
 21
-851.5
 31
0.0
  0
LINE
  5
28A
  8
DATA
  6
CONTINUOUS
 62
     7
 10
-355.0
 20
-852.19374728496905
 30
0.0
 11
-355.0
 21
-851.5
 31
0.0
  0
ARC
  5
28B
  8
DATA
  6
CONTINUOUS
 62
     7
 10
-362.5
 20
-852.19374728496905
 30
0.0
 40
0.5
 50
180.0
 51
244.05552022762549
  0
ARC
  5
28C
  8
DATA
  6
CONTINUOUS
 62
     7
 10
-355.5
 20
-852.19374728496905
 30
0.0
 40
0.4999999999999217
 50
295.94447977237439
 51
0.0
  0
ARC
  5
28D
  8
DATA
  6
CONTINUOUS
 62
     7
 10
-359.0
 20
-845.00000000000091
 30
0.0
 40
8.499999999998872
 50
244.05552022762629
 51
295.94447977237371
  0
LINE
  5
28E
  8
DATA
  6
CONTINUOUS
 62
     7
 10
-445.0
 20
-851.5
 30
0.0
 11
-445.0
 21
-852.19374728496905
 31
0.0
  0
LINE
  5
28F
  8
DATA
  6
CONTINUOUS
 62
     7
 10
-437.0
 20
-851.5
 30
0.0
 11
-445.0
 21
-851.5
 31
0.0
  0
LINE
  5
290
  8
DATA
  6
CONTINUOUS
 62
     7
 10
-437.0
 20
-852.19374728496905
 30
0.0
 11
-437.0
 21
-851.5
 31
0.0
  0
ARC
  5
291
  8
DATA
  6
CONTINUOUS
 62
     7
 10
-444.5
 20
-852.19374728496905
 30
0.0
 40
0.5
 50
180.0
 51
244.05552022762549
  0
ARC
  5
292
  8
DATA
  6
CONTINUOUS
 62
     7
 10
-437.5
 20
-852.19374728496905
 30
0.0
 40
0.4999999999999217
 50
295.94447977237439
 51
0.0
  0
ARC
  5
293
  8
DATA
  6
CONTINUOUS
 62
     7
 10
-441.0
 20
-845.00000000000091
 30
0.0
 40
8.499999999998872
 50
244.05552022762629
 51
295.94447977237371
  0
LINE
  5
294
  8
DATA
  6
CONTINUOUS
 62
     7
 10
-455.0
 20
-851.5
 30
0.0
 11
-455.0
 21
-852.19374728496905
 31
0.0
  0
LINE
  5
295
  8
DATA
  6
CONTINUOUS
 62
     7
 10
-447.0
 20
-851.5
 30
0.0
 11
-455.0
 21
-851.5
 31
0.0
  0
LINE
  5
296
  8
DATA
  6
CONTINUOUS
 62
     7
 10
-447.0
 20
-852.19374728496905
 30
0.0
 11
-447.0
 21
-851.5
 31
0.0
  0
ARC
  5
297
  8
DATA
  6
CONTINUOUS
 62
     7
 10
-454.49999999999989
 20
-852.19374728496905
 30
0.0
 40
0.5
 50
180.0
 51
244.05552022762549
  0
ARC
  5
298
  8
DATA
  6
CONTINUOUS
 62
     7
 10
-447.5
 20
-852.19374728496905
 30
0.0
 40
0.4999999999999217
 50
295.94447977237439
 51
0.0
  0
ARC
  5
299
  8
DATA
  6
CONTINUOUS
 62
     7
 10
-451.0
 20
-845.00000000000091
 30
0.0
 40
8.499999999998872
 50
244.05552022762629
 51
295.94447977237371
  0
ARC
  5
29A
  8
DATA
  6
CONTINUOUS
 62
     7
 10
-400.0
 20
-848.73772321428578
 30
0.0
 40
4.3337053571425139
 50
219.59775270905249
 51
234.76905599831599
  0
LINE
  5
29B
  8
DATA
  6
CONTINUOUS
 62
     7
 10
-396.66071428571462
 20
-851.5
 30
0.0
 11
-403.3392857142851
 21
-851.5
 31
0.0
  0
ARC
  5
29C
  8
DATA
  6
CONTINUOUS
 62
     7
 10
-325.5
 20
-848.73772321428578
 30
0.0
 40
4.3337053571425139
 50
219.59775270905249
 51
320.40224729094751
  0
LINE
  5
29D
  8
DATA
  6
CONTINUOUS
 62
     7
 10
-322.16071428571468
 20
-851.5
 30
0.0
 11
-328.83928571428532
 21
-851.5
 31
0.0
  0
LINE
  5
29E
  8
DATA
  6
CONTINUOUS
 62
     7
 10
-424.49999999998971
 20
-851.5
 30
0.0
 11
-424.49999999998971
 21
-855.49999999999989
 31
0.0
  0
LINE
  5
29F
  8
DATA
  6
CONTINUOUS
 62
     7
 10
-435.49999999999
 20
-851.5
 30
0.0
 11
-424.49999999998971
 21
-851.5
 31
0.0
  0
LINE
  5
2A0
  8
DATA
  6
CONTINUOUS
 62
     7
 10
-435.49999999999
 20
-855.49999999999989
 30
0.0
 11
-435.49999999999
 21
-851.5
 31
0.0
  0
LINE
  5
2A1
  8
DATA
  6
CONTINUOUS
 62
     7
 10
-424.49999999998971
 20
-855.49999999999989
 30
0.0
 11
-435.49999999999
 21
-855.49999999999989
 31
0.0
  0
ARC
  5
2A2
  8
DATA
  6
CONTINUOUS
 62
     7
 10
-296.5
 20
346.484375
 30
0.0
 40
5.515625
 50
39.59775270904985
 51
140.4022472909501
  0
LINE
  5
2A3
  8
DATA
  6
CONTINUOUS
 62
     7
 10
-353.0
 20
350.0
 30
0.0
 11
-353.0
 21
350.69374728496888
 31
0.0
  0
LINE
  5
2A4
  8
DATA
  6
CONTINUOUS
 62
     7
 10
-345.0
 20
350.0
 30
0.0
 11
-353.0
 21
350.0
 31
0.0
  0
LINE
  5
2A5
  8
DATA
  6
CONTINUOUS
 62
     7
 10
-345.0
 20
350.69374728496888
 30
0.0
 11
-345.0
 21
350.0
 31
0.0
  0
ARC
  5
2A6
  8
DATA
  6
CONTINUOUS
 62
     7
 10
-352.5
 20
350.69374728496888
 30
0.0
 40
0.4999999999999217
 50
115.94447977237439
 51
180.0
  0
ARC
  5
2A7
  8
DATA
  6
CONTINUOUS
 62
     7
 10
-345.5
 20
350.69374728496888
 30
0.0
 40
0.5
 50
0.0
 51
64.055520227625621
  0
ARC
  5
2A8
  8
DATA
  6
CONTINUOUS
 62
     7
 10
-349.0
 20
343.50000000000108
 30
0.0
 40
8.499999999998872
 50
64.055520227626289
 51
115.9444797723737
  0
LINE
  5
2A9
  8
DATA
  6
CONTINUOUS
 62
     7
 10
-402.5
 20
350.0
 30
0.0
 11
-385.5
 21
350.0
 31
0.0
  0
LINE
  5
2AA
  8
DATA
  6
CONTINUOUS
 62
     7
 10
-402.5
 20
352.0
 30
0.0
 11
-402.5
 21
350.77763876730802
 31
0.0
  0
LINE
  5
2AB
  8
DATA
  6
CONTINUOUS
 62
     7
 10
-385.5
 20
352.0
 30
0.0
 11
-402.5
 21
352.0
 31
0.0
  0
LINE
  5
2AC
  8
DATA
  6
CONTINUOUS
 62
     7
 10
-385.5
 20
350.0
 30
0.0
 11
-385.5
 21
352.0
 31
0.0
  0
LINE
  5
2AD
  8
DATA
  6
CONTINUOUS
 62
     7
 10
-401.49999999999989
 20
352.0
 30
0.0
 11
-386.5
 21
352.0
 31
0.0
  0
LINE
  5
2AE
  8
DATA
  6
CONTINUOUS
 62
     7
 10
-451.49999999999989
 20
356.0
 30
0.0
 11
-451.49999999999989
 21
352.0
 31
0.0
  0
LINE
  5
2AF
  8
DATA
  6
CONTINUOUS
 62
     7
 10
-436.5
 20
356.0
 30
0.0
 11
-451.49999999999989
 21
356.0
 31
0.0
  0
LINE
  5
2B0
  8
DATA
  6
CONTINUOUS
 62
     7
 10
-436.5
 20
352.0
 30
0.0
 11
-436.5
 21
356.0
 31
0.0
  0
LINE
  5
2B1
  8
DATA
  6
CONTINUOUS
 62
     7
 10
-449.24999999999989
 20
356.0
 30
0.0
 11
-438.75
 21
356.0
 31
0.0
  0
LINE
  5
2B2
  8
DATA
  6
CONTINUOUS
 62
     7
 10
-449.24999999999989
 20
358.0
 30
0.0
 11
-449.24999999999989
 21
356.0
 31
0.0
  0
LINE
  5
2B3
  8
DATA
  6
CONTINUOUS
 62
     7
 10
-438.75
 20
358.0
 30
0.0
 11
-449.24999999999989
 21
358.0
 31
0.0
  0
LINE
  5
2B4
  8
DATA
  6
CONTINUOUS
 62
     7
 10
-438.75
 20
356.0
 30
0.0
 11
-438.75
 21
358.0
 31
0.0
  0
LINE
  5
2B5
  8
DATA
  6
CONTINUOUS
 62
     7
 10
-292.25
 20
350.0
 30
0.0
 11
-300.75
 21
350.0
 31
0.0
  0
ARC
  5
2B6
  8
DATA
  6
CONTINUOUS
 62
     7
 10
-340.0
 20
346.484375
 30
0.0
 40
5.515625
 50
39.59775270904985
 51
140.4022472909501
  0
LINE
  5
2B7
  8
DATA
  6
CONTINUOUS
 62
     7
 10
-335.75
 20
350.0
 30
0.0
 11
-344.25
 21
350.0
 31
0.0
  0
ARC
  5
2B8
  8
DATA
  6
CONTINUOUS
 62
     7
 10
-460.0
 20
346.484375
 30
0.0
 40
5.515625
 50
39.59775270904985
 51
140.4022472909501
  0
LINE
  5
2B9
  8
DATA
  6
CONTINUOUS
 62
     7
 10
-455.75
 20
350.0
 30
0.0
 11
-464.25
 21
350.0
 31
0.0
  0
ARC
  5
2BA
  8
DATA
  6
CONTINUOUS
 62
     7
 10
-503.5
 20
346.484375
 30
0.0
 40
5.515625
 50
39.59775270904985
 51
140.4022472909501
  0
LINE
  5
2BB
  8
DATA
  6
CONTINUOUS
 62
     7
 10
-499.24999999999989
 20
350.0
 30
0.0
 11
-507.74999999999989
 21
350.0
 31
0.0
  0
LINE
  5
2BC
  8
DATA
  6
CONTINUOUS
 62
     7
 10
-435.99999999994361
 20
350.0
 30
0.0
 11
-443.99999999994361
 21
350.0
 31
0.0
  0
LINE
  5
2BD
  8
DATA
  6
CONTINUOUS
 62
     7
 10
-479.99999999999
 20
350.0
 30
0.0
 11
-479.99999999999
 21
364.0
 31
0.0
  0
LINE
  5
2BE
  8
DATA
  6
CONTINUOUS
 62
     7
 10
-473.49999999998983
 20
364.0
 30
0.0
 11
-486.49999999998983
 21
364.0
 31
0.0
  0
LINE
  5
2BF
  8
DATA
  6
CONTINUOUS
 62
     7
 10
-472.99999999999
 20
363.00221883726931
 30
0.0
 11
-486.99999999998971
 21
363.00221883726931
 31
0.0
  0
LINE
  5
2C0
  8
DATA
  6
CONTINUOUS
 62
     7
 10
-473.49999999998983
 20
364.0
 30
0.0
 11
-472.99999999999
 21
363.00221883726931
 31
0.0
  0
LINE
  5
2C1
  8
DATA
  6
CONTINUOUS
 62
     7
 10
-486.49999999998983
 20
364.0
 30
0.0
 11
-487.0760692228842
 21
363.00221883726931
 31
0.0
  0
LINE
  5
2C2
  8
DATA
  6
CONTINUOUS
 62
     7
 10
-472.99999999999
 20
363.00221883726931
 30
0.0
 11
-472.49999999999
 21
350.0
 31
0.0
  0
LINE
  5
2C3
  8
DATA
  6
CONTINUOUS
 62
     7
 10
-486.99999999998971
 20
363.00221883726931
 30
0.0
 11
-487.4999999999896
 21
350.0
 31
0.0
  0
LINE
  5
2C4
  8
DATA
  6
CONTINUOUS
 62
     7
 10
-422.49999999999
 20
350.0
 30
0.0
 11
-437.49999999998971
 21
350.0
 31
0.0
  0
LINE
  5
2C5
  8
DATA
  6
CONTINUOUS
 62
     7
 10
-363.0
 20
350.0
 30
0.0
 11
-363.0
 21
350.69374728496888
 31
0.0
  0
LINE
  5
2C6
  8
DATA
  6
CONTINUOUS
 62
     7
 10
-355.0
 20
350.0
 30
0.0
 11
-363.0
 21
350.0
 31
0.0
  0
LINE
  5
2C7
  8
DATA
  6
CONTINUOUS
 62
     7
 10
-355.0
 20
350.69374728496888
 30
0.0
 11
-355.0
 21
350.0
 31
0.0
  0
ARC
  5
2C8
  8
DATA
  6
CONTINUOUS
 62
     7
 10
-362.5
 20
350.69374728496888
 30
0.0
 40
0.4999999999999217
 50
115.94447977237439
 51
180.0
  0
ARC
  5
2C9
  8
DATA
  6
CONTINUOUS
 62
     7
 10
-355.5
 20
350.69374728496888
 30
0.0
 40
0.5
 50
0.0
 51
64.055520227625621
  0
ARC
  5
2CA
  8
DATA
  6
CONTINUOUS
 62
     7
 10
-359.0
 20
343.50000000000108
 30
0.0
 40
8.499999999998872
 50
64.055520227626289
 51
115.9444797723737
  0
LINE
  5
2CB
  8
DATA
  6
CONTINUOUS
 62
     7
 10
-445.0
 20
350.0
 30
0.0
 11
-445.0
 21
350.69374728496888
 31
0.0
  0
LINE
  5
2CC
  8
DATA
  6
CONTINUOUS
 62
     7
 10
-437.0
 20
350.0
 30
0.0
 11
-445.0
 21
350.0
 31
0.0
  0
LINE
  5
2CD
  8
DATA
  6
CONTINUOUS
 62
     7
 10
-437.0
 20
350.69374728496888
 30
0.0
 11
-437.0
 21
350.0
 31
0.0
  0
ARC
  5
2CE
  8
DATA
  6
CONTINUOUS
 62
     7
 10
-444.5
 20
350.69374728496888
 30
0.0
 40
0.4999999999999217
 50
115.94447977237439
 51
180.0
  0
ARC
  5
2CF
  8
DATA
  6
CONTINUOUS
 62
     7
 10
-437.5
 20
350.69374728496888
 30
0.0
 40
0.5
 50
0.0
 51
64.055520227625621
  0
ARC
  5
2D0
  8
DATA
  6
CONTINUOUS
 62
     7
 10
-441.0
 20
343.50000000000108
 30
0.0
 40
8.499999999998872
 50
64.055520227626289
 51
115.9444797723737
  0
LINE
  5
2D1
  8
DATA
  6
CONTINUOUS
 62
     7
 10
-455.0
 20
350.0
 30
0.0
 11
-455.0
 21
350.69374728496888
 31
0.0
  0
LINE
  5
2D2
  8
DATA
  6
CONTINUOUS
 62
     7
 10
-447.0
 20
350.0
 30
0.0
 11
-455.0
 21
350.0
 31
0.0
  0
LINE
  5
2D3
  8
DATA
  6
CONTINUOUS
 62
     7
 10
-447.0
 20
350.69374728496888
 30
0.0
 11
-447.0
 21
350.0
 31
0.0
  0
ARC
  5
2D4
  8
DATA
  6
CONTINUOUS
 62
     7
 10
-454.49999999999989
 20
350.69374728496888
 30
0.0
 40
0.4999999999999217
 50
115.94447977237439
 51
180.0
  0
ARC
  5
2D5
  8
DATA
  6
CONTINUOUS
 62
     7
 10
-447.5
 20
350.69374728496888
 30
0.0
 40
0.5
 50
0.0
 51
64.055520227625621
  0
ARC
  5
2D6
  8
DATA
  6
CONTINUOUS
 62
     7
 10
-451.0
 20
343.50000000000108
 30
0.0
 40
8.499999999998872
 50
64.055520227626289
 51
115.9444797723737
  0
ARC
  5
2D7
  8
DATA
  6
CONTINUOUS
 62
     7
 10
-400.0
 20
347.23772321428572
 30
0.0
 40
4.3337053571425139
 50
39.597752709052493
 51
140.40224729094751
  0
LINE
  5
2D8
  8
DATA
  6
CONTINUOUS
 62
     7
 10
-396.66071428571462
 20
350.0
 30
0.0
 11
-403.3392857142851
 21
350.0
 31
0.0
  0
ARC
  5
2D9
  8
DATA
  6
CONTINUOUS
 62
     7
 10
-325.5
 20
347.23772321428572
 30
0.0
 40
4.3337053571425139
 50
39.597752709052493
 51
140.40224729094751
  0
LINE
  5
2DA
  8
DATA
  6
CONTINUOUS
 62
     7
 10
-322.16071428571468
 20
350.0
 30
0.0
 11
-328.83928571428532
 21
350.0
 31
0.0
  0
ARC
  5
2DB
  8
DATA
  6
CONTINUOUS
 62
     7
 10
96.484375
 20
-135.9999999999998
 30
0.0
 40
5.515625000000087
 50
309.59775270904908
 51
50.402247290950129
  0
LINE
  5
2DC
  8
DATA
  6
CONTINUOUS
 62
     7
 10
100.0
 20
-230.0
 30
0.0
 11
100.6937472849695
 21
-230.0
 31
0.0
  0
LINE
  5
2DD
  8
DATA
  6
CONTINUOUS
 62
     7
 10
100.0
 20
-238.0
 30
0.0
 11
100.0
 21
-230.0
 31
0.0
  0
LINE
  5
2DE
  8
DATA
  6
CONTINUOUS
 62
     7
 10
100.6937472849695
 20
-238.0
 30
0.0
 11
100.0
 21
-238.0
 31
0.0
  0
ARC
  5
2DF
  8
DATA
  6
CONTINUOUS
 62
     7
 10
100.6937472849695
 20
-230.5
 30
0.0
 40
0.4999999999999217
 50
25.944479772374368
 51
90.0
  0
ARC
  5
2E0
  8
DATA
  6
CONTINUOUS
 62
     7
 10
100.6937472849695
 20
-237.5
 30
0.0
 40
0.5
 50
270.0
 51
334.05552022762561
  0
ARC
  5
2E1
  8
DATA
  6
CONTINUOUS
 62
     7
 10
93.500000000000924
 20
-234.0
 30
0.0
 40
8.4999999999994866
 50
334.05552022762839
 51
25.944479772371722
  0
LINE
  5
2E2
  8
DATA
  6
CONTINUOUS
 62
     7
 10
100.0
 20
-131.7499999999998
 30
0.0
 11
100.0
 21
-140.25
 31
0.0
  0
ARC
  5
2E3
  8
DATA
  6
CONTINUOUS
 62
     7
 10
96.484375
 20
-426.0
 30
0.0
 40
5.515625
 50
309.59775270904993
 51
50.402247290950193
  0
LINE
  5
2E4
  8
DATA
  6
CONTINUOUS
 62
     7
 10
100.0
 20
-421.75
 30
0.0
 11
100.0
 21
-430.25
 31
0.0
  0
ARC
  5
2E5
  8
DATA
  6
CONTINUOUS
 62
     7
 10
96.484375
 20
-51.0
 30
0.0
 40
5.515625
 50
309.59775270904993
 51
50.402247290950193
  0
LINE
  5
2E6
  8
DATA
  6
CONTINUOUS
 62
     7
 10
100.0
 20
-46.749999999999993
 30
0.0
 11
100.0
 21
-55.25
 31
0.0
  0
LINE
  5
2E7
  8
DATA
  6
CONTINUOUS
 62
     7
 10
100.0
 20
-306.57142857142873
 30
0.0
 11
100.5946405299737
 21
-306.57142857142873
 31
0.0
  0
LINE
  5
2E8
  8
DATA
  6
CONTINUOUS
 62
     7
 10
100.0
 20
-313.42857142857127
 30
0.0
 11
100.0
 21
-306.57142857142873
 31
0.0
  0
LINE
  5
2E9
  8
DATA
  6
CONTINUOUS
 62
     7
 10
100.5946405299737
 20
-313.42857142857127
 30
0.0
 11
100.0
 21
-313.42857142857127
 31
0.0
  0
ARC
  5
2EA
  8
DATA
  6
CONTINUOUS
 62
     7
 10
100.5946405299737
 20
-307.0
 30
0.0
 40
0.4285714285711277
 50
25.94447977238957
 51
89.999999999999986
  0
ARC
  5
2EB
  8
DATA
  6
CONTINUOUS
 62
     7
 10
100.5946405299737
 20
-313.0
 30
0.0
 40
0.4285714285714449
 50
270.0
 51
334.05552022761037
  0
ARC
  5
2EC
  8
DATA
  6
CONTINUOUS
 62
     7
 10
94.428571428572468
 20
-310.0
 30
0.0
 40
7.285714285713258
 50
334.05552022762612
 51
25.944479772373938
  0
LINE
  5
2ED
  8
DATA
  6
CONTINUOUS
 62
     7
 10
100.0
 20
-80.571428571428555
 30
0.0
 11
100.5946405299737
 21
-80.571428571428555
 31
0.0
  0
LINE
  5
2EE
  8
DATA
  6
CONTINUOUS
 62
     7
 10
100.0
 20
-87.428571428571416
 30
0.0
 11
100.0
 21
-80.571428571428555
 31
0.0
  0
LINE
  5
2EF
  8
DATA
  6
CONTINUOUS
 62
     7
 10
100.5946405299737
 20
-87.428571428571416
 30
0.0
 11
100.0
 21
-87.428571428571416
 31
0.0
  0
ARC
  5
2F0
  8
DATA
  6
CONTINUOUS
 62
     7
 10
100.5946405299737
 20
-80.999999999999872
 30
0.0
 40
0.4285714285711277
 50
25.94447977238957
 51
89.999999999999986
  0
ARC
  5
2F1
  8
DATA
  6
CONTINUOUS
 62
     7
 10
100.5946405299737
 20
-86.999999999999858
 30
0.0
 40
0.4285714285715585
 50
270.0
 51
334.05552022761037
  0
ARC
  5
2F2
  8
DATA
  6
CONTINUOUS
 62
     7
 10
94.428571428572468
 20
-83.999999999999872
 30
0.0
 40
7.285714285713258
 50
334.05552022762612
 51
25.944479772373938
  0
ARC
  5
2F3
  8
DATA
  6
CONTINUOUS
 62
     7
 10
97.237723214286234
 20
-192.0
 30
0.0
 40
4.3337053571424882
 50
309.59775270904493
 51
50.402247290955017
  0
LINE
  5
2F4
  8
DATA
  6
CONTINUOUS
 62
     7
 10
100.0
 20
-188.66071428571439
 30
0.0
 11
100.0
 21
-195.33928571428569
 31
0.0
  0
LINE
  5
2F5
  8
DATA
  6
CONTINUOUS
 62
     7
 10
100.0
 20
-294.50000000000978
 30
0.0
 11
114.0
 21
-294.50000000000978
 31
0.0
  0
LINE
  5
2F6
  8
DATA
  6
CONTINUOUS
 62
     7
 10
114.0
 20
-288.00000000000978
 30
0.0
 11
114.0
 21
-301.00000000000978
 31
0.0
  0
LINE
  5
2F7
  8
DATA
  6
CONTINUOUS
 62
     7
 10
113.0022188372695
 20
-287.50000000000978
 30
0.0
 11
113.0022188372695
 21
-301.50000000000978
 31
0.0
  0
LINE
  5
2F8
  8
DATA
  6
CONTINUOUS
 62
     7
 10
114.0
 20
-288.00000000000978
 30
0.0
 11
113.0022188372695
 21
-287.50000000000978
 31
0.0
  0
LINE
  5
2F9
  8
DATA
  6
CONTINUOUS
 62
     7
 10
114.0
 20
-301.00000000000978
 30
0.0
 11
113.0022188372695
 21
-301.57606922290438
 31
0.0
  0
LINE
  5
2FA
  8
DATA
  6
CONTINUOUS
 62
     7
 10
113.0022188372695
 20
-287.50000000000978
 30
0.0
 11
100.0
 21
-287.00000000000978
 31
0.0
  0
LINE
  5
2FB
  8
DATA
  6
CONTINUOUS
 62
     7
 10
113.0022188372695
 20
-301.50000000000978
 30
0.0
 11
100.0
 21
-302.00000000000972
 31
0.0
  0
LINE
  5
2FC
  8
DATA
  6
CONTINUOUS
 62
     7
 10
100.0
 20
-287.20000000000988
 30
0.0
 11
100.0
 21
-302.20000000000982
 31
0.0
  0
LINE
  5
2FD
  8
DATA
  6
CONTINUOUS
 62
     7
 10
100.0
 20
-326.25
 30
0.0
 11
104.0
 21
-326.25
 31
0.0
  0
LINE
  5
2FE
  8
DATA
  6
CONTINUOUS
 62
     7
 10
100.5439626602483
 20
-337.26611902045812
 30
0.0
 11
104.0
 21
-326.25
 31
0.0
  0
LINE
  5
2FF
  8
DATA
  6
CONTINUOUS
 62
     7
 10
104.0
 20
-326.25
 30
0.0
 11
100.0
 21
-322.25
 31
0.0
  0
LINE
  5
300
  8
DATA
  6
CONTINUOUS
 62
     7
 10
100.0
 20
-275.0
 30
0.0
 11
100.0
 21
-258.0
 31
0.0
  0
LINE
  5
301
  8
DATA
  6
CONTINUOUS
 62
     7
 10
102.0
 20
-275.0
 30
0.0
 11
100.0
 21
-275.0
 31
0.0
  0
LINE
  5
302
  8
DATA
  6
CONTINUOUS
 62
     7
 10
102.0
 20
-258.0
 30
0.0
 11
102.0
 21
-275.0
 31
0.0
  0
LINE
  5
303
  8
DATA
  6
CONTINUOUS
 62
     7
 10
100.0
 20
-258.0
 30
0.0
 11
102.0
 21
-258.0
 31
0.0
  0
LINE
  5
304
  8
DATA
  6
CONTINUOUS
 62
     7
 10
102.0
 20
-274.0
 30
0.0
 11
102.0
 21
-259.0
 31
0.0
  0
LINE
  5
305
  8
DATA
  6
CONTINUOUS
 62
     7
 10
106.0
 20
-274.0
 30
0.0
 11
102.0
 21
-274.0
 31
0.0
  0
LINE
  5
306
  8
DATA
  6
CONTINUOUS
 62
     7
 10
106.0
 20
-259.0
 30
0.0
 11
106.0
 21
-274.0
 31
0.0
  0
LINE
  5
307
  8
DATA
  6
CONTINUOUS
 62
     7
 10
102.0
 20
-259.0
 30
0.0
 11
106.0
 21
-259.0
 31
0.0
  0
LINE
  5
308
  8
DATA
  6
CONTINUOUS
 62
     7
 10
106.0
 20
-271.75
 30
0.0
 11
106.0
 21
-261.25
 31
0.0
  0
LINE
  5
309
  8
DATA
  6
CONTINUOUS
 62
     7
 10
108.0
 20
-271.75
 30
0.0
 11
106.0
 21
-271.75
 31
0.0
  0
LINE
  5
30A
  8
DATA
  6
CONTINUOUS
 62
     7
 10
108.0
 20
-261.25
 30
0.0
 11
108.0
 21
-271.75
 31
0.0
  0
LINE
  5
30B
  8
DATA
  6
CONTINUOUS
 62
     7
 10
106.0
 20
-261.25
 30
0.0
 11
108.0
 21
-261.25
 31
0.0
  0
LINE
  5
30C
  8
DATA
  6
CONTINUOUS
 62
     7
 10
-136.0
 20
-450.0
 30
0.0
 11
-136.0
 21
-27.0
 31
0.0
  0
LINE
  5
30D
  8
DATA
  6
CONTINUOUS
 62
     7
 10
100.0
 20
-450.0
 30
0.0
 11
-136.0
 21
-450.0
 31
0.0
  0
LINE
  5
30E
  8
DATA
  6
CONTINUOUS
 62
     7
 10
100.0
 20
-27.0
 30
0.0
 11
100.0
 21
-450.0
 31
0.0
  0
LINE
  5
30F
  8
DATA
  6
CONTINUOUS
 62
     7
 10
-136.0
 20
-27.0
 30
0.0
 11
100.0
 21
-27.0
 31
0.0
  0
POLYLINE
  5
310
  8
DATA
  6
CONTINUOUS
 62
     7
 66
     1
 10
0.0
 20
0.0
 30
0.0
 70
     1
  0
VERTEX
  5
610
  8
DATA
  6
CONTINUOUS
 62
     7
 10
-137.5
 20
-28.5
 30
0.0
  0
VERTEX
  5
611
  8
DATA
  6
CONTINUOUS
 62
     7
 10
-136.0
 20
-28.5
 30
0.0
  0
VERTEX
  5
612
  8
DATA
  6
CONTINUOUS
 62
     7
 10
-136.0
 20
-448.5
 30
0.0
  0
VERTEX
  5
613
  8
DATA
  6
CONTINUOUS
 62
     7
 10
-137.5
 20
-448.5
 30
0.0
  0
SEQEND
  5
614
  8
DATA
  6
CONTINUOUS
 62
     7
  0
LINE
  5
317
  8
DATA
  6
CONTINUOUS
 62
     7
 10
-137.5
 20
-450.0
 30
0.0
 11
-137.5
 21
-27.0
 31
0.0
  0
LINE
  5
318
  8
DATA
  6
CONTINUOUS
 62
     7
 10
-192.41520008885061
 20
-29.196608003554051
 30
0.0
 11
-137.5
 21
-27.0
 31
0.0
  0
LINE
  5
319
  8
DATA
  6
CONTINUOUS
 62
     7
 10
-175.5
 20
-419.5
 30
0.0
 11
-175.5
 21
-30.91967948635488
 31
0.0
  0
LINE
  5
31A
  8
DATA
  6
CONTINUOUS
 62
     7
 10
-195.19984019174441
 20
-447.69200639233009
 30
0.0
 11
-137.5
 21
-450.0
 31
0.0
  0
LINE
  5
31B
  8
DATA
  6
CONTINUOUS
 62
     7
 10
-200.0
 20
-442.69600159872112
 30
0.0
 11
-200.0
 21
-419.5
 31
0.0
  0
LINE
  5
31C
  8
DATA
  6
CONTINUOUS
 62
     7
 10
-137.5
 20
-444.98000000000002
 30
0.0
 11
-175.5
 21
-419.5
 31
0.0
  0
LINE
  5
31D
  8
DATA
  6
CONTINUOUS
 62
     7
 10
-196.40882180707641
 20
-31.469585582896912
 30
0.0
 11
-199.1934619099693
 21
-35.757931341353469
 31
0.0
  0
LINE
  5
31E
  8
DATA
  6
CONTINUOUS
 62
     7
 10
-187.52525962488011
 20
-340.80000000000013
 30
0.0
 11
-187.50035945132461
 21
-36.0
 31
0.0
  0
LINE
  5
31F
  8
DATA
  6
CONTINUOUS
 62
     7
 10
-192.50561377768011
 20
-76.5
 30
0.0
 11
-199.4538093485416
 21
-53.070533676859199
 31
0.0
  0
LINE
  5
320
  8
DATA
  6
CONTINUOUS
 62
     7
 10
-192.51108724102679
 20
-143.5
 30
0.0
 11
-198.9076186970824
 21
-165.8589326462814
 31
0.0
  0
LINE
  5
321
  8
DATA
  6
CONTINUOUS
 62
     7
 10
-200.0
 20
-38.480958555619402
 30
0.0
 11
-200.0
 21
-50.79818196841984
 31
0.0
  0
LINE
  5
322
  8
DATA
  6
CONTINUOUS
 62
     7
 10
-200.0
 20
-170.40363606316021
 30
0.0
 11
-200.0
 21
-189.55990091466609
 31
0.0
  0
ARC
  5
323
  8
DATA
  6
CONTINUOUS
 62
     7
 10
-838.47699218745663
 20
-303.49790838067798
 30
0.0
 40
648.48642604107795
 50
349.92019469687477
 51
10.04107023035942
  0
LINE
  5
324
  8
DATA
  6
CONTINUOUS
 62
     7
 10
-200.0
 20
-416.99581676135591
 30
0.0
 11
-200.0
 21
-419.5
 31
0.0
  0
ARC
  5
325
  8
DATA
  6
CONTINUOUS
 62
     7
 10
-177.99198715887539
 20
-31.119679486354929
 30
0.0
 40
2.5
 50
0.0
 51
90.0
  0
LINE
  5
326
  8
DATA
  6
CONTINUOUS
 62
     7
 10
-175.5
 20
-419.5
 30
0.0
 11
-177.10000000000039
 21
-430.6959999999998
 31
0.0
  0
LINE
  5
327
  8
DATA
  6
CONTINUOUS
 62
     7
 10
-177.10000000000039
 20
-430.6959999999998
 30
0.0
 11
-178.7000000000007
 21
-438.09599999999989
 31
0.0
  0
LINE
  5
328
  8
DATA
  6
CONTINUOUS
 62
     7
 10
-178.7000000000007
 20
-438.09599999999989
 30
0.0
 11
-180.30000000000109
 21
-443.09599999999989
 31
0.0
  0
LINE
  5
329
  8
DATA
  6
CONTINUOUS
 62
     7
 10
-180.30000000000109
 20
-443.09599999999989
 30
0.0
 11
-181.9000000000014
 21
-445.59599999999989
 31
0.0
  0
LINE
  5
32A
  8
DATA
  6
CONTINUOUS
 62
     7
 10
-181.9000000000014
 20
-445.59599999999989
 30
0.0
 11
-183.45000000000161
 21
-447.14600000000002
 31
0.0
  0
LINE
  5
32B
  8
DATA
  6
CONTINUOUS
 62
     7
 10
-183.45000000000161
 20
-447.14600000000002
 30
0.0
 11
-185.10000000000221
 21
-448.09599999999989
 31
0.0
  0
ARC
  5
32C
  8
DATA
  6
CONTINUOUS
 62
     7
 10
-572.21291666666639
 20
-320.16182880055811
 30
0.0
 40
385.2408695748108
 50
345.05688614950759
 51
356.92907335133549
  0
ARC
  5
32D
  8
DATA
  6
CONTINUOUS
 62
     7
 10
-195.0000000000164
 20
-189.55990091466609
 30
0.0
 40
4.9999999999836291
 50
180.0
 51
190.04107023039279
  0
ARC
  5
32E
  8
DATA
  6
CONTINUOUS
 62
     7
 10
-194.99999999999909
 20
-50.798181968420863
 30
0.0
 40
5.0000000000009077
 50
179.99999999998829
 51
207.03086025982529
  0
ARC
  5
32F
  8
DATA
  6
CONTINUOUS
 62
     7
 10
-195.0
 20
-38.480958555618599
 30
0.0
 40
4.9999999999991891
 50
147.0022948987899
 51
180.00000000000909
  0
ARC
  5
330
  8
DATA
  6
CONTINUOUS
 62
     7
 10
-192.21535989710631
 20
-34.192612797162951
 30
0.0
 40
4.99999999999996
 50
92.290610042639514
 51
147.0022948987868
  0
ARC
  5
331
  8
DATA
  6
CONTINUOUS
 62
     7
 10
-195.0
 20
-442.69600159872112
 30
0.0
 40
5.0
 50
180.0
 51
267.70938995736049
  0
LINE
  5
332
  8
DATA
  6
CONTINUOUS
 62
     7
 10
-192.50344890038559
 20
-50.0
 30
0.0
 11
-200.0
 21
-50.0
 31
0.0
  0
ARC
  5
333
  8
DATA
  6
CONTINUOUS
 62
     7
 10
-190.0
 20
-170.40363606316009
 30
0.0
 40
10.000000000000011
 50
152.96913974015769
 51
180.0000000000006
  0
LINE
  5
334
  8
DATA
  6
CONTINUOUS
 62
     7
 10
-192.5199999999995
 20
-252.60000000000011
 30
0.0
 11
-192.50344890038559
 21
-50.0
 31
0.0
  0
LINE
  5
335
  8
DATA
  6
CONTINUOUS
 62
     7
 10
-192.50174974305079
 20
-29.200821451842788
 30
0.0
 11
-192.50174974304991
 21
-29.200821448117491
 31
0.0
  0
LINE
  5
336
  8
DATA
  6
CONTINUOUS
 62
     7
 10
-187.50035945132461
 20
-36.0
 30
0.0
 11
-199.34106492064981
 21
-36.0
 31
0.0
  0
LINE
  5
337
  8
DATA
  6
CONTINUOUS
 62
     7
 10
-175.68228832759721
 20
-30.162970905442311
 30
0.0
 11
-187.50035945132461
 21
-36.0
 31
0.0
  0
LINE
  5
338
  8
DATA
  6
CONTINUOUS
 62
     7
 10
100.0
 20
-155.5714285714285
 30
0.0
 11
100.5946405299737
 21
-155.5714285714285
 31
0.0
  0
LINE
  5
339
  8
DATA
  6
CONTINUOUS
 62
     7
 10
100.0
 20
-162.42857142857139
 30
0.0
 11
100.0
 21
-155.5714285714285
 31
0.0
  0
LINE
  5
33A
  8
DATA
  6
CONTINUOUS
 62
     7
 10
100.5946405299737
 20
-162.42857142857139
 30
0.0
 11
100.0
 21
-162.42857142857139
 31
0.0
  0
ARC
  5
33B
  8
DATA
  6
CONTINUOUS
 62
     7
 10
100.5946405299737
 20
-155.9999999999998
 30
0.0
 40
0.4285714285711277
 50
25.94447977238957
 51
89.999999999999986
  0
ARC
  5
33C
  8
DATA
  6
CONTINUOUS
 62
     7
 10
100.5946405299737
 20
-161.9999999999998
 30
0.0
 40
0.4285714285715585
 50
270.0
 51
334.05552022761037
  0
ARC
  5
33D
  8
DATA
  6
CONTINUOUS
 62
     7
 10
94.428571428572468
 20
-158.9999999999998
 30
0.0
 40
7.285714285713258
 50
334.05552022762612
 51
25.944479772373938
  0
LINE
  5
33E
  8
DATA
  6
CONTINUOUS
 62
     7
 10
100.0
 20
-293.0
 30
0.0
 11
100.6937472849695
 21
-293.0
 31
0.0
  0
LINE
  5
33F
  8
DATA
  6
CONTINUOUS
 62
     7
 10
100.0
 20
-301.0
 30
0.0
 11
100.0
 21
-293.0
 31
0.0
  0
LINE
  5
340
  8
DATA
  6
CONTINUOUS
 62
     7
 10
100.6937472849695
 20
-301.0
 30
0.0
 11
100.0
 21
-301.0
 31
0.0
  0
ARC
  5
341
  8
DATA
  6
CONTINUOUS
 62
     7
 10
100.6937472849695
 20
-293.5
 30
0.0
 40
0.4999999999999217
 50
25.944479772374368
 51
90.0
  0
ARC
  5
342
  8
DATA
  6
CONTINUOUS
 62
     7
 10
100.6937472849695
 20
-300.5
 30
0.0
 40
0.5
 50
270.0
 51
334.05552022762561
  0
ARC
  5
343
  8
DATA
  6
CONTINUOUS
 62
     7
 10
93.500000000000924
 20
-297.0
 30
0.0
 40
8.4999999999994866
 50
334.05552022762839
 51
25.944479772371722
  0
ARC
  5
344
  8
DATA
  6
CONTINUOUS
 62
     7
 10
96.484375
 20
-341.0
 30
0.0
 40
5.515625
 50
309.59775270904993
 51
50.402247290950193
  0
LINE
  5
345
  8
DATA
  6
CONTINUOUS
 62
     7
 10
100.0
 20
-336.75
 30
0.0
 11
100.0
 21
-345.25
 31
0.0
  0
LINE
  5
346
  8
DATA
  6
CONTINUOUS
 62
     7
 10
100.0
 20
-349.0
 30
0.0
 11
100.6937472849695
 21
-349.0
 31
0.0
  0
LINE
  5
347
  8
DATA
  6
CONTINUOUS
 62
     7
 10
100.0
 20
-357.0
 30
0.0
 11
100.0
 21
-349.0
 31
0.0
  0
LINE
  5
348
  8
DATA
  6
CONTINUOUS
 62
     7
 10
100.6937472849695
 20
-357.0
 30
0.0
 11
100.0
 21
-357.0
 31
0.0
  0
ARC
  5
349
  8
DATA
  6
CONTINUOUS
 62
     7
 10
100.6937472849695
 20
-349.5
 30
0.0
 40
0.4999999999999217
 50
25.944479772374368
 51
90.0
  0
ARC
  5
34A
  8
DATA
  6
CONTINUOUS
 62
     7
 10
100.6937472849695
 20
-356.5
 30
0.0
 40
0.5
 50
270.0
 51
334.05552022762561
  0
ARC
  5
34B
  8
DATA
  6
CONTINUOUS
 62
     7
 10
93.500000000000924
 20
-353.0
 30
0.0
 40
8.4999999999994866
 50
334.05552022762839
 51
25.944479772371722
  0
TEXT
  5
34C
  8
DATA
 62
     7
 10
347.07871999999998
 20
553.74997440000004
 30
0.0
 40
14.4002075
  1
コネクターパネル拡大図
 41
0.7
 11
347.07871999999998
 21
568.15018190000001
 31
0.0
 73
     3
  0
LINE
  5
34D
  8
DATA
  6
CONTINUOUS
 62
     7
 10
310.0
 20
543.75
 30
0.0
 11
590.0
 21
543.75
 31
0.0
  0
TEXT
  5
34E
  8
DATA
 62
     7
 10
-700.0
 20
-934.05340777777781
 30
0.0
 40
15.2025173611111
  1
※仕様及び外観は予告なく変更されることがあります。
 41
0.7
 11
-700.0
 21
-918.85089041666686
 31
0.0
 73
     3
  0
TEXT
  5
34F
  8
DATA
 62
     7
 10
-700.0
 20
-953.80896333333351
 30
0.0
 40
15.2025173611111
  1
　また、同一商品でも若干の個体差があることがあります。ご了承ください。
 41
0.7
 11
-700.0
 21
-938.60644597222245
 31
0.0
 73
     3
  0
LINE
  5
350
  8
DATA
  6
CONTINUOUS
 62
     7
 10
202.5
 20
8.25
 30
0.0
 11
202.5
 21
167.75
 31
0.0
  0
LINE
  5
351
  8
DATA
  6
CONTINUOUS
 62
     7
 10
210.75
 20
0.0
 30
0.0
 11
689.25
 21
0.0
 31
0.0
  0
LINE
  5
352
  8
DATA
  6
CONTINUOUS
 62
     7
 10
697.5
 20
8.25
 30
0.0
 11
697.5
 21
167.75
 31
0.0
  0
LINE
  5
353
  8
DATA
  6
CONTINUOUS
 62
     7
 10
210.75
 20
176.0
 30
0.0
 11
689.25
 21
176.0
 31
0.0
  0
LINE
  5
354
  8
DATA
  6
CONTINUOUS
 62
     7
 10
202.5
 20
159.5
 30
0.0
 11
697.5
 21
159.5
 31
0.0
  0
LINE
  5
355
  8
DATA
  6
CONTINUOUS
 62
     7
 10
274.0
 20
44.0
 30
0.0
 11
274.0
 21
110.0
 31
0.0
  0
LINE
  5
356
  8
DATA
  6
CONTINUOUS
 62
     7
 10
290.5
 20
49.5
 30
0.0
 11
290.5
 21
86.665476220844994
 31
0.0
  0
LINE
  5
357
  8
DATA
  6
CONTINUOUS
 62
     7
 10
411.5
 20
16.5
 30
0.0
 11
301.5
 21
16.5
 31
0.0
  0
LINE
  5
358
  8
DATA
  6
CONTINUOUS
 62
     7
 10
406.0
 20
33.0
 30
0.0
 11
307.0
 21
33.0
 31
0.0
  0
LINE
  5
359
  8
DATA
  6
CONTINUOUS
 62
     7
 10
439.0
 20
110.0
 30
0.0
 11
439.0
 21
44.0
 31
0.0
  0
LINE
  5
35A
  8
DATA
  6
CONTINUOUS
 62
     7
 10
422.49999999999989
 20
86.665476220844994
 30
0.0
 11
422.49999999999989
 21
49.5
 31
0.0
  0
LINE
  5
35B
  8
DATA
  6
CONTINUOUS
 62
     7
 10
301.5
 20
137.5
 30
0.0
 11
411.5
 21
137.5
 31
0.0
  0
LINE
  5
35C
  8
DATA
  6
CONTINUOUS
 62
     7
 10
324.83452377915501
 20
121.0
 30
0.0
 11
388.16547622084488
 21
121.0
 31
0.0
  0
LINE
  5
35D
  8
DATA
  6
CONTINUOUS
 62
     7
 10
313.16726188957989
 20
116.1672618895775
 30
0.0
 11
295.33273811042
 21
98.332738110422483
 31
0.0
  0
LINE
  5
35E
  8
DATA
  6
CONTINUOUS
 62
     7
 10
399.83273811042
 20
116.1672618895775
 30
0.0
 11
417.66726188958
 21
98.332738110422483
 31
0.0
  0
ARC
  5
35F
  8
DATA
  6
CONTINUOUS
 62
     7
 10
301.5
 20
110.0
 30
0.0
 40
27.5
 50
90.0
 51
180.0
  0
ARC
  5
360
  8
DATA
  6
CONTINUOUS
 62
     7
 10
411.5
 20
110.0
 30
0.0
 40
27.5
 50
0.0
 51
90.0
  0
ARC
  5
361
  8
DATA
  6
CONTINUOUS
 62
     7
 10
411.5
 20
44.0
 30
0.0
 40
27.5
 50
270.0
 51
0.0
  0
ARC
  5
362
  8
DATA
  6
CONTINUOUS
 62
     7
 10
301.5
 20
44.0
 30
0.0
 40
27.5
 50
180.0
 51
270.0
  0
ARC
  5
363
  8
DATA
  6
CONTINUOUS
 62
     7
 10
307.0
 20
49.5
 30
0.0
 40
16.5
 50
180.0
 51
270.0
  0
ARC
  5
364
  8
DATA
  6
CONTINUOUS
 62
     7
 10
406.0
 20
49.5
 30
0.0
 40
16.5
 50
270.0
 51
0.0
  0
ARC
  5
365
  8
DATA
  6
CONTINUOUS
 62
     7
 10
406.0
 20
86.665476220841256
 30
0.0
 40
16.5
 50
0.0000000000130276
 51
45.000000000003112
  0
ARC
  5
366
  8
DATA
  6
CONTINUOUS
 62
     7
 10
388.16547622085
 20
104.5
 30
0.0
 40
16.499999999993939
 50
45.000000000018417
 51
90.000000000017309
  0
ARC
  5
367
  8
DATA
  6
CONTINUOUS
 62
     7
 10
324.83452377915501
 20
104.5
 30
0.0
 40
16.5
 50
90.0
 51
134.99999999999389
  0
ARC
  5
368
  8
DATA
  6
CONTINUOUS
 62
     7
 10
307.0
 20
86.665476220847495
 30
0.0
 40
16.49999999999925
 50
135.00000000001231
 51
180.0000000000087
  0
LINE
  5
369
  8
DATA
  6
CONTINUOUS
 62
     7
 10
576.49999999999977
 20
22.0
 30
0.0
 11
659.0
 21
22.0
 31
0.0
  0
LINE
  5
36A
  8
DATA
  6
CONTINUOUS
 62
     7
 10
587.5
 20
33.0
 30
0.0
 11
648.0
 21
33.0
 31
0.0
  0
LINE
  5
36B
  8
DATA
  6
CONTINUOUS
 62
     7
 10
659.0
 20
22.0
 30
0.0
 11
659.0
 21
137.5
 31
0.0
  0
LINE
  5
36C
  8
DATA
  6
CONTINUOUS
 62
     7
 10
648.0
 20
33.0
 30
0.0
 11
648.0
 21
126.5
 31
0.0
  0
LINE
  5
36D
  8
DATA
  6
CONTINUOUS
 62
     7
 10
659.0
 20
137.5
 30
0.0
 11
576.49999999999977
 21
137.5
 31
0.0
  0
LINE
  5
36E
  8
DATA
  6
CONTINUOUS
 62
     7
 10
648.0
 20
126.5
 30
0.0
 11
587.5
 21
126.5
 31
0.0
  0
LINE
  5
36F
  8
DATA
  6
CONTINUOUS
 62
     7
 10
648.0
 20
104.5
 30
0.0
 11
587.5
 21
104.5
 31
0.0
  0
LINE
  5
370
  8
DATA
  6
CONTINUOUS
 62
     7
 10
576.49999999999977
 20
137.5
 30
0.0
 11
576.49999999999977
 21
22.0
 31
0.0
  0
LINE
  5
371
  8
DATA
  6
CONTINUOUS
 62
     7
 10
587.5
 20
126.5
 30
0.0
 11
587.5
 21
33.0
 31
0.0
  0
LINE
  5
372
  8
DATA
  6
CONTINUOUS
 62
     7
 10
353.75
 20
88.0
 30
0.0
 11
353.75
 21
110.0
 31
0.0
  0
LINE
  5
373
  8
DATA
  6
CONTINUOUS
 62
     7
 10
359.25
 20
88.0
 30
0.0
 11
353.75
 21
88.0
 31
0.0
  0
LINE
  5
374
  8
DATA
  6
CONTINUOUS
 62
     7
 10
359.25
 20
110.0
 30
0.0
 11
359.25
 21
88.0
 31
0.0
  0
LINE
  5
375
  8
DATA
  6
CONTINUOUS
 62
     7
 10
353.75
 20
110.0
 30
0.0
 11
359.25
 21
110.0
 31
0.0
  0
LINE
  5
376
  8
DATA
  6
CONTINUOUS
 62
     7
 10
309.199999999998
 20
58.849999999999
 30
0.0
 11
309.199999999998
 21
80.849999999998985
 31
0.0
  0
LINE
  5
377
  8
DATA
  6
CONTINUOUS
 62
     7
 10
314.699999999998
 20
58.849999999999
 30
0.0
 11
309.199999999998
 21
58.849999999999
 31
0.0
  0
LINE
  5
378
  8
DATA
  6
CONTINUOUS
 62
     7
 10
314.699999999998
 20
80.849999999998985
 30
0.0
 11
314.699999999998
 21
58.849999999999
 31
0.0
  0
LINE
  5
379
  8
DATA
  6
CONTINUOUS
 62
     7
 10
309.199999999998
 20
80.849999999998985
 30
0.0
 11
314.699999999998
 21
80.849999999998985
 31
0.0
  0
LINE
  5
37A
  8
DATA
  6
CONTINUOUS
 62
     7
 10
403.80000000000177
 20
58.849999999999
 30
0.0
 11
403.80000000000177
 21
80.849999999998985
 31
0.0
  0
LINE
  5
37B
  8
DATA
  6
CONTINUOUS
 62
     7
 10
398.300000000002
 20
58.849999999999
 30
0.0
 11
403.80000000000177
 21
58.849999999999
 31
0.0
  0
LINE
  5
37C
  8
DATA
  6
CONTINUOUS
 62
     7
 10
398.300000000002
 20
80.849999999998985
 30
0.0
 11
398.300000000002
 21
58.849999999999
 31
0.0
  0
LINE
  5
37D
  8
DATA
  6
CONTINUOUS
 62
     7
 10
403.80000000000177
 20
80.849999999998985
 30
0.0
 11
398.300000000002
 21
80.849999999998985
 31
0.0
  0
TEXT
  5
37E
  8
DATA
 62
     7
 10
265.43929640028222
 20
160.9931043836805
 30
0.0
 40
11.198282877604161
  1
Power AC～100-240V 50/60Hz
 41
0.7
 72
     1
 11
356.5
 21
159.5
 31
0.0
 73
     1
  0
TEXT
  5
37F
  8
DATA
 62
     7
 10
587.96256754557294
 20
160.9931043836805
 30
0.0
 40
11.198282877604161
  1
224W Max
 41
0.7
 72
     1
 11
617.75
 21
159.5
 31
0.0
 73
     1
  0
TEXT
  5
380
  8
DATA
 62
     7
 10
604.68533664279505
 20
79.470416666666665
 30
0.0
 40
22.396565755208329
  1
ON
 41
0.7
 72
     1
 11
617.75
 21
101.86698242187499
 31
0.0
 73
     3
  0
TEXT
  5
381
  8
DATA
 62
     7
 10
596.84653862847222
 20
35.98620876736112
 30
0.0
 40
22.396565755208329
  1
OFF
 41
0.7
 72
     1
 11
617.75
 21
33.0
 31
0.0
 73
     1
  0
LINE
  5
382
  8
DATA
  6
CONTINUOUS
 62
     7
 10
554.49999999999989
 20
192.5
 30
0.0
 11
554.49999999999989
 21
363.0
 31
0.0
  0
LINE
  5
383
  8
DATA
  6
CONTINUOUS
 62
     7
 10
689.25
 20
184.25
 30
0.0
 11
562.75
 21
184.25
 31
0.0
  0
LINE
  5
384
  8
DATA
  6
CONTINUOUS
 62
     7
 10
697.5
 20
363.0
 30
0.0
 11
697.5
 21
192.5
 31
0.0
  0
LINE
  5
385
  8
DATA
  6
CONTINUOUS
 62
     7
 10
562.75
 20
371.25
 30
0.0
 11
689.25
 21
371.25
 31
0.0
  0
LINE
  5
386
  8
DATA
  6
CONTINUOUS
 62
     7
 10
554.49999999999989
 20
354.75
 30
0.0
 11
697.5
 21
354.75
 31
0.0
  0
LINE
  5
387
  8
DATA
  6
CONTINUOUS
 62
     7
 10
540.74999999999977
 20
184.25
 30
0.0
 11
210.75
 21
184.25
 31
0.0
  0
LINE
  5
388
  8
DATA
  6
CONTINUOUS
 62
     7
 10
202.5
 20
192.5
 30
0.0
 11
202.5
 21
297.0
 31
0.0
  0
LINE
  5
389
  8
DATA
  6
CONTINUOUS
 62
     7
 10
549.0
 20
192.5
 30
0.0
 11
549.0
 21
247.5
 31
0.0
  0
LINE
  5
38A
  8
DATA
  6
CONTINUOUS
 62
     7
 10
540.74999999999977
 20
255.75
 30
0.0
 11
381.25
 21
255.75
 31
0.0
  0
LINE
  5
38B
  8
DATA
  6
CONTINUOUS
 62
     7
 10
210.75
 20
305.25
 30
0.0
 11
364.75
 21
305.25
 31
0.0
  0
LINE
  5
38C
  8
DATA
  6
CONTINUOUS
 62
     7
 10
210.75
 20
310.75
 30
0.0
 11
364.75
 21
310.75
 31
0.0
  0
LINE
  5
38D
  8
DATA
  6
CONTINUOUS
 62
     7
 10
373.0
 20
264.0
 30
0.0
 11
373.0
 21
297.0
 31
0.0
  0
LINE
  5
38E
  8
DATA
  6
CONTINUOUS
 62
     7
 10
466.5
 20
272.25
 30
0.0
 11
466.5
 21
363.0
 31
0.0
  0
LINE
  5
38F
  8
DATA
  6
CONTINUOUS
 62
     7
 10
540.74999999999977
 20
264.0
 30
0.0
 11
474.75
 21
264.0
 31
0.0
  0
LINE
  5
390
  8
DATA
  6
CONTINUOUS
 62
     7
 10
549.0
 20
363.0
 30
0.0
 11
549.0
 21
272.25
 31
0.0
  0
LINE
  5
391
  8
DATA
  6
CONTINUOUS
 62
     7
 10
474.75
 20
371.25
 30
0.0
 11
540.74999999999977
 21
371.25
 31
0.0
  0
LINE
  5
392
  8
DATA
  6
CONTINUOUS
 62
     7
 10
466.5
 20
354.75
 30
0.0
 11
549.0
 21
354.75
 31
0.0
  0
LINE
  5
393
  8
DATA
  6
CONTINUOUS
 62
     7
 10
461.0
 20
272.25
 30
0.0
 11
461.0
 21
363.0
 31
0.0
  0
LINE
  5
394
  8
DATA
  6
CONTINUOUS
 62
     7
 10
386.75
 20
264.0
 30
0.0
 11
452.74999999999989
 21
264.0
 31
0.0
  0
LINE
  5
395
  8
DATA
  6
CONTINUOUS
 62
     7
 10
378.5
 20
363.0
 30
0.0
 11
378.5
 21
272.25
 31
0.0
  0
LINE
  5
396
  8
DATA
  6
CONTINUOUS
 62
     7
 10
452.74999999999989
 20
371.25
 30
0.0
 11
386.75
 21
371.25
 31
0.0
  0
LINE
  5
397
  8
DATA
  6
CONTINUOUS
 62
     7
 10
461.0
 20
354.75
 30
0.0
 11
378.5
 21
354.75
 31
0.0
  0
TEXT
  5
398
  8
DATA
 62
     7
 10
484.4948992241753
 20
356.24310438368047
 30
0.0
 40
11.198282877604161
  1
HF TRIM
 41
0.7
 72
     1
 11
507.74999999999989
 21
354.75
 31
0.0
 73
     1
  0
TEXT
  5
399
  8
DATA
 62
     7
 10
604.44330546061201
 20
356.24310438368047
 30
0.0
 40
11.198282877604161
  1
Volume
 41
0.7
 72
     1
 11
626.0
 21
354.75
 31
0.0
 73
     1
  0
TEXT
  5
39A
  8
DATA
 62
     7
 10
396.4948992241753
 20
356.24310438368047
 30
0.0
 40
11.198282877604161
  1
LF TRIM
 41
0.7
 72
     1
 11
419.74999999999989
 21
354.75
 31
0.0
 73
     1
  0
LINE
  5
39B
  8
DATA
  6
CONTINUOUS
 62
     7
 10
202.5
 20
319.0
 30
0.0
 11
202.5
 21
517.0
 31
0.0
  0
LINE
  5
39C
  8
DATA
  6
CONTINUOUS
 62
     7
 10
210.75
 20
525.25
 30
0.0
 11
540.74999999999977
 21
525.25
 31
0.0
  0
LINE
  5
39D
  8
DATA
  6
CONTINUOUS
 62
     7
 10
202.5
 20
508.75
 30
0.0
 11
549.0
 21
508.75
 31
0.0
  0
LINE
  5
39E
  8
DATA
  6
CONTINUOUS
 62
     7
 10
373.0
 20
371.25
 30
0.0
 11
373.0
 21
319.0
 31
0.0
  0
LINE
  5
39F
  8
DATA
  6
CONTINUOUS
 62
     7
 10
540.74999999999977
 20
379.5
 30
0.0
 11
381.25
 21
379.5
 31
0.0
  0
LINE
  5
3A0
  8
DATA
  6
CONTINUOUS
 62
     7
 10
549.0
 20
517.0
 30
0.0
 11
549.0
 21
387.75
 31
0.0
  0
LINE
  5
3A1
  8
DATA
  6
CONTINUOUS
 62
     7
 10
554.49999999999989
 20
387.75
 30
0.0
 11
554.49999999999989
 21
517.0
 31
0.0
  0
LINE
  5
3A2
  8
DATA
  6
CONTINUOUS
 62
     7
 10
689.25
 20
379.5
 30
0.0
 11
562.75
 21
379.5
 31
0.0
  0
LINE
  5
3A3
  8
DATA
  6
CONTINUOUS
 62
     7
 10
697.5
 20
517.0
 30
0.0
 11
697.5
 21
387.75
 31
0.0
  0
LINE
  5
3A4
  8
DATA
  6
CONTINUOUS
 62
     7
 10
562.75
 20
525.25
 30
0.0
 11
689.25
 21
525.25
 31
0.0
  0
LINE
  5
3A5
  8
DATA
  6
CONTINUOUS
 62
     7
 10
554.49999999999989
 20
508.75
 30
0.0
 11
697.5
 21
508.75
 31
0.0
  0
TEXT
  5
3A6
  8
DATA
 62
     7
 10
571.38970716688368
 20
510.24310438368047
 30
0.0
 40
11.198282877604161
  1
Input Sensitivity
 41
0.7
 72
     1
 11
626.0
 21
508.75
 31
0.0
 73
     1
  0
TEXT
  5
3A7
  8
DATA
 62
     7
 10
327.28009894476997
 20
510.24310438368047
 30
0.0
 40
11.198282877604161
  1
Blanced Input 
 41
0.7
 72
     1
 11
375.75
 21
508.75
 31
0.0
 73
     1
  0
LINE
  5
3A8
  8
DATA
  6
CONTINUOUS
 62
     7
 10
400.49999999999989
 20
313.5
 30
0.0
 11
400.49999999999989
 21
327.25
 31
0.0
  0
LINE
  5
3A9
  8
DATA
  6
CONTINUOUS
 62
     7
 10
439.0
 20
313.5
 30
0.0
 11
400.49999999999989
 21
313.5
 31
0.0
  0
LINE
  5
3AA
  8
DATA
  6
CONTINUOUS
 62
     7
 10
439.0
 20
327.25
 30
0.0
 11
439.0
 21
313.5
 31
0.0
  0
LINE
  5
3AB
  8
DATA
  6
CONTINUOUS
 62
     7
 10
400.49999999999989
 20
327.25
 30
0.0
 11
439.0
 21
327.25
 31
0.0
  0
LINE
  5
3AC
  8
DATA
  6
CONTINUOUS
 62
     7
 10
414.25
 20
313.5
 30
0.0
 11
414.25
 21
327.25
 31
0.0
  0
LINE
  5
3AD
  8
DATA
  6
CONTINUOUS
 62
     7
 10
417.55000000000177
 20
313.5
 30
0.0
 11
417.55000000000177
 21
327.25
 31
0.0
  0
LINE
  5
3AE
  8
DATA
  6
CONTINUOUS
 62
     7
 10
425.25
 20
313.5
 30
0.0
 11
414.25
 21
313.5
 31
0.0
  0
LINE
  5
3AF
  8
DATA
  6
CONTINUOUS
 62
     7
 10
425.25
 20
327.25
 30
0.0
 11
425.25
 21
313.5
 31
0.0
  0
LINE
  5
3B0
  8
DATA
  6
CONTINUOUS
 62
     7
 10
421.949999999998
 20
327.25
 30
0.0
 11
421.949999999998
 21
313.5
 31
0.0
  0
LINE
  5
3B1
  8
DATA
  6
CONTINUOUS
 62
     7
 10
414.25
 20
327.25
 30
0.0
 11
425.25
 21
327.25
 31
0.0
  0
LINE
  5
3B2
  8
DATA
  6
CONTINUOUS
 62
     7
 10
505.0
 20
313.5
 30
0.0
 11
505.0
 21
327.25
 31
0.0
  0
LINE
  5
3B3
  8
DATA
  6
CONTINUOUS
 62
     7
 10
543.5
 20
313.5
 30
0.0
 11
505.0
 21
313.5
 31
0.0
  0
LINE
  5
3B4
  8
DATA
  6
CONTINUOUS
 62
     7
 10
543.5
 20
327.25
 30
0.0
 11
543.5
 21
313.5
 31
0.0
  0
LINE
  5
3B5
  8
DATA
  6
CONTINUOUS
 62
     7
 10
505.0
 20
327.25
 30
0.0
 11
543.5
 21
327.25
 31
0.0
  0
LINE
  5
3B6
  8
DATA
  6
CONTINUOUS
 62
     7
 10
518.75
 20
313.5
 30
0.0
 11
518.75
 21
327.25
 31
0.0
  0
LINE
  5
3B7
  8
DATA
  6
CONTINUOUS
 62
     7
 10
522.05000000000189
 20
313.5
 30
0.0
 11
522.05000000000189
 21
327.25
 31
0.0
  0
LINE
  5
3B8
  8
DATA
  6
CONTINUOUS
 62
     7
 10
529.75
 20
313.5
 30
0.0
 11
518.75
 21
313.5
 31
0.0
  0
LINE
  5
3B9
  8
DATA
  6
CONTINUOUS
 62
     7
 10
529.75
 20
327.25
 30
0.0
 11
529.75
 21
313.5
 31
0.0
  0
LINE
  5
3BA
  8
DATA
  6
CONTINUOUS
 62
     7
 10
526.449999999998
 20
327.25
 30
0.0
 11
526.449999999998
 21
313.5
 31
0.0
  0
LINE
  5
3BB
  8
DATA
  6
CONTINUOUS
 62
     7
 10
518.75
 20
327.25
 30
0.0
 11
529.75
 21
327.25
 31
0.0
  0
LINE
  5
3BC
  8
DATA
  6
CONTINUOUS
 62
     7
 10
620.5
 20
473.0
 30
0.0
 11
620.5
 21
486.74999999999989
 31
0.0
  0
LINE
  5
3BD
  8
DATA
  6
CONTINUOUS
 62
     7
 10
659.0
 20
473.0
 30
0.0
 11
620.5
 21
473.0
 31
0.0
  0
LINE
  5
3BE
  8
DATA
  6
CONTINUOUS
 62
     7
 10
659.0
 20
486.74999999999989
 30
0.0
 11
659.0
 21
473.0
 31
0.0
  0
LINE
  5
3BF
  8
DATA
  6
CONTINUOUS
 62
     7
 10
620.5
 20
486.74999999999989
 30
0.0
 11
659.0
 21
486.74999999999989
 31
0.0
  0
ARC
  5
3C0
  8
DATA
  6
CONTINUOUS
 62
     7
 10
614.99999999986971
 20
277.74999999987
 30
0.0
 40
38.500000000184173
 50
21.876302269095088
 51
38.147761665057438
  0
ARC
  5
3C1
  8
DATA
  6
CONTINUOUS
 62
     7
 10
614.99999999986971
 20
277.74999999987
 30
0.0
 40
38.50000000018634
 50
291.8539337900807
 51
308.1477616651631
  0
ARC
  5
3C2
  8
DATA
  6
CONTINUOUS
 62
     7
 10
614.99999999986971
 20
277.74999999987
 30
0.0
 40
38.500000000186994
 50
261.87630226883289
 51
278.14606620947279
  0
ARC
  5
3C3
  8
DATA
  6
CONTINUOUS
 62
     7
 10
614.99999999986971
 20
277.74999999987
 30
0.0
 40
38.500000000186212
 50
218.14776166495901
 51
231.92483788699849
  0
ARC
  5
3C4
  8
DATA
  6
CONTINUOUS
 62
     7
 10
614.99999999986971
 20
277.74999999987
 30
0.0
 40
38.500000000186972
 50
171.85393379052809
 51
188.12369773116271
  0
ARC
  5
3C5
  8
DATA
  6
CONTINUOUS
 62
     7
 10
614.99999999986971
 20
277.74999999987
 30
0.0
 40
38.500000000184997
 50
141.8522383348384
 51
158.146066209921
  0
ARC
  5
3C6
  8
DATA
  6
CONTINUOUS
 62
     7
 10
614.99999999986971
 20
277.74999999987
 30
0.0
 40
38.500000000181849
 50
81.876302268846814
 51
104.9999999997667
  0
ARC
  5
3C7
  8
DATA
  6
CONTINUOUS
 62
     7
 10
614.99999999986971
 20
277.74999999987
 30
0.0
 40
38.500000000183249
 50
51.852238334938221
 51
68.123697730900005
  0
ARC
  5
3C8
  8
DATA
  6
CONTINUOUS
 62
     7
 10
614.9999999997799
 20
277.7499999997774
 30
0.0
 40
35.749999999690402
 50
229.4117257858064
 51
220.5882742141917
  0
ARC
  5
3C9
  8
DATA
  6
CONTINUOUS
 62
     7
 10
644.16815472394501
 20
306.91815472394501
 30
0.0
 40
5.4999999999984244
 50
168.3670129692313
 51
281.63298703076617
  0
ARC
  5
3CA
  8
DATA
  6
CONTINUOUS
 62
     7
 10
625.66943930479829
 20
317.56888957377521
 30
0.0
 40
5.5000000000024123
 50
198.06170338760441
 51
311.93829661211868
  0
ARC
  5
3CB
  8
DATA
  6
CONTINUOUS
 62
     7
 10
654.8188895737776
 20
288.41943930479817
 30
0.0
 40
5.5000000000023901
 50
138.06170338790051
 51
251.93829661232081
  0
ARC
  5
3CC
  8
DATA
  6
CONTINUOUS
 62
     7
 10
604.3305606949416
 20
237.93111042596229
 30
0.0
 40
5.4999999999980442
 50
18.06170338763301
 51
131.93829661211001
  0
ARC
  5
3CD
  8
DATA
  6
CONTINUOUS
 62
     7
 10
575.1811104259624
 20
267.08056069493909
 30
0.0
 40
5.5000000000007203
 50
318.06170338791998
 51
71.93829661241962
  0
ARC
  5
3CE
  8
DATA
  6
CONTINUOUS
 62
     7
 10
585.83184527605476
 20
306.91815472394501
 30
0.0
 40
5.5000000000001501
 50
258.36701296604281
 51
11.63298703185683
  0
ARC
  5
3CF
  8
DATA
  6
CONTINUOUS
 62
     7
 10
575.15735071620111
 20
288.4258056995792
 30
0.0
 40
5.5000000000013021
 50
288.3455825307226
 51
41.654417469702992
  0
LINE
  5
3D0
  8
DATA
  6
CONTINUOUS
 62
     7
 10
597.49910716537465
 20
264.1381944618991
 30
0.0
 11
585.90138207154644
 21
252.54046936807049
 31
0.0
  0
LINE
  5
3D1
  8
DATA
  6
CONTINUOUS
 62
     7
 10
601.38819446190155
 20
260.24910716537238
 30
0.0
 11
597.49910716537465
 21
264.1381944618991
 31
0.0
  0
LINE
  5
3D2
  8
DATA
  6
CONTINUOUS
 62
     7
 10
589.79046936806776
 20
248.65138207154399
 30
0.0
 11
601.38819446190155
 21
260.24910716537238
 31
0.0
  0
ARC
  5
3D3
  8
DATA
  6
CONTINUOUS
 62
     7
 10
615.00000000017496
 20
277.74999999994623
 30
0.0
 40
38.500000000184791
 50
105.0000000002367
 51
128.12369773115481
  0
ARC
  5
3D4
  8
DATA
  6
CONTINUOUS
 62
     7
 10
644.16815472394501
 20
248.58184527605249
 30
0.0
 40
5.5000000000014477
 50
78.367012968173711
 51
191.6329870339566
  0
ARC
  5
3D5
  8
DATA
  6
CONTINUOUS
 62
     7
 10
625.67580569957647
 20
237.90735071620361
 30
0.0
 40
5.5000000000022951
 50
48.345582530267919
 51
161.65441746925711
  0
ARC
  5
3D6
  8
DATA
  6
CONTINUOUS
 62
     7
 10
614.99999999986971
 20
277.74999999987
 30
0.0
 40
38.500000000180613
 50
345.00000000023942
 51
8.123697731161144
  0
ARC
  5
3D7
  8
DATA
  6
CONTINUOUS
 62
     7
 10
614.99999999994475
 20
277.75000000017758
 30
0.0
 40
38.500000000186979
 50
321.8763022688492
 51
344.99999999975921
  0
ARC
  5
3D8
  8
DATA
  6
CONTINUOUS
 62
     7
 10
615.00000000025511
 20
277.75000000025261
 30
0.0
 40
38.500000000183249
 50
231.85223833493819
 51
248.12369773090691
  0
ARC
  5
3D9
  8
DATA
  6
CONTINUOUS
 62
     7
 10
615.00000000025511
 20
277.75000000025261
 30
0.0
 40
38.500000000188813
 50
201.87630226909241
 51
218.1477616650528
  0
LINE
  5
3DA
  8
DATA
  6
CONTINUOUS
 62
     7
 10
589.72224370546155
 20
252.47224370544899
 30
0.0
 11
589.72093257269671
 21
252.47093257268421
 31
0.0
  0
LINE
  5
3DB
  8
DATA
  6
CONTINUOUS
 62
     7
 10
585.83184527606488
 20
248.58184527604999
 30
0.0
 11
581.94275797966327
 21
244.69275797965091
 31
0.0
  0
LINE
  5
3DC
  8
DATA
  6
CONTINUOUS
 62
     7
 10
575.15555966565989
 20
267.07371438921467
 30
0.0
 11
569.84296762122995
 21
265.6502096411939
 31
0.0
  0
LINE
  5
3DD
  8
DATA
  6
CONTINUOUS
 62
     7
 10
589.73963702767753
 20
303.01036297258389
 30
0.0
 11
589.72093257312667
 21
303.02906742713571
 31
0.0
  0
LINE
  5
3DE
  8
DATA
  6
CONTINUOUS
 62
     7
 10
585.83184527618505
 20
306.91815472407512
 30
0.0
 11
581.94275797966327
 21
310.80724202059929
 31
0.0
  0
LINE
  5
3DF
  8
DATA
  6
CONTINUOUS
 62
     7
 10
575.15555966571981
 20
288.42628561101662
 30
0.0
 11
569.84296762122995
 21
289.84979035905508
 31
0.0
  0
LINE
  5
3E0
  8
DATA
  6
CONTINUOUS
 62
     7
 10
605.74721913774829
 20
312.2818482892298
 30
0.0
 11
605.7472191316856
 21
312.28184831183989
 31
0.0
  0
LINE
  5
3E1
  8
DATA
  6
CONTINUOUS
 62
     7
 10
604.32371438948485
 20
317.59444033441008
 30
0.0
 11
602.90020964136625
 21
322.90703237908019
 31
0.0
  0
LINE
  5
3E2
  8
DATA
  6
CONTINUOUS
 62
     7
 10
640.26036298724409
 20
252.48963701290839
 30
0.0
 11
640.27906742746825
 21
252.4709325726829
 31
0.0
  0
LINE
  5
3E3
  8
DATA
  6
CONTINUOUS
 62
     7
 10
644.16815472402004
 20
248.58184527613381
 30
0.0
 11
648.05724202050158
 21
244.69275797965091
 31
0.0
  0
LINE
  5
3E4
  8
DATA
  6
CONTINUOUS
 62
     7
 10
649.53005723554725
 20
268.49769904885289
 30
0.0
 11
649.53184828962003
 21
268.49721913736062
 31
0.0
  0
LINE
  5
3E5
  8
DATA
  6
CONTINUOUS
 62
     7
 10
654.84444033435511
 20
267.07371438925719
 30
0.0
 11
660.15703237904017
 21
265.65020964116889
 31
0.0
  0
LINE
  5
3E6
  8
DATA
  6
CONTINUOUS
 62
     7
 10
697.5
 20
255.64419162415041
 30
0.0
 11
699.20458390691215
 21
255.18744974286079
 31
0.0
  0
LINE
  5
3E7
  8
DATA
  6
CONTINUOUS
 62
     7
 10
644.16815472389499
 20
306.91815472399247
 30
0.0
 11
648.05724202050158
 21
310.80724202059929
 31
0.0
  0
LINE
  5
3E8
  8
DATA
  6
CONTINUOUS
 62
     7
 10
654.8444403342902
 20
288.4262856109753
 30
0.0
 11
660.15703237904017
 21
289.84979035908128
 31
0.0
  0
LINE
  5
3E9
  8
DATA
  6
CONTINUOUS
 62
     7
 10
697.5
 20
299.85580837609967
 30
0.0
 11
699.20458390691215
 21
300.31255025738938
 31
0.0
  0
LINE
  5
3EA
  8
DATA
  6
CONTINUOUS
 62
     7
 10
624.24593454004753
 20
312.25629746629971
 30
0.0
 11
624.25278086242167
 21
312.2818482892298
 31
0.0
  0
LINE
  5
3EB
  8
DATA
  6
CONTINUOUS
 62
     7
 10
625.67628561067022
 20
317.59444033438012
 30
0.0
 11
627.0997903587986
 21
322.90703237908019
 31
0.0
  0
TEXT
  5
3EC
  8
DATA
 62
     7
 10
579.32982530822233
 20
232.1779663129843
 30
0.0
 40
11.198282877604161
  1
1
 41
0.7
 72
     2
 11
581.94275797966327
 21
243.3762491905884
 31
0.0
 73
     3
  0
TEXT
  5
3ED
  8
DATA
 62
     7
 10
564.61710227834806
 20
260.05106820239178
 30
0.0
 40
11.198282877604161
  1
2
 41
0.7
 72
     2
 11
569.84296762122995
 21
265.6502096411939
 31
0.0
 73
     2
  0
TEXT
  5
3EE
  8
DATA
 62
     7
 10
564.61710227834806
 20
284.25064892025301
 30
0.0
 40
11.198282877604161
  1
3
 41
0.7
 72
     2
 11
569.84296762122995
 21
289.84979035905508
 31
0.0
 73
     2
  0
TEXT
  5
3EF
  8
DATA
 62
     7
 10
576.71689263678138
 20
307.2453922484637
 30
0.0
 40
11.198282877604161
  1
4
 41
0.7
 72
     2
 11
581.94275797966327
 21
312.84453368726582
 31
0.0
 73
     2
  0
TEXT
  5
3F0
  8
DATA
 62
     7
 10
598.34460715215187
 20
323.57564891967928
 30
0.0
 40
11.198282877604161
  1
5
 41
0.7
 72
     2
 11
603.57047249503375
 21
329.1747903584814
 31
0.0
 73
     2
  0
TEXT
  5
3F1
  8
DATA
 62
     7
 10
629.14996668258004
 20
324.58393260694402
 30
0.0
 40
11.198282877604161
  1
6
 41
0.7
 72
     2
 11
634.37583202546193
 21
330.18307404574608
 31
0.0
 73
     2
  0
TEXT
  5
3F2
  8
DATA
 62
     7
 10
650.10741834428313
 20
305.20810058179723
 30
0.0
 40
11.198282877604161
  1
7
 41
0.7
 72
     2
 11
655.33328368716502
 21
310.80724202059929
 31
0.0
 73
     2
  0
TEXT
  5
3F3
  8
DATA
 62
     7
 10
662.2072087028215
 20
284.25064892027922
 30
0.0
 40
11.198282877604161
  1
8
 41
0.7
 72
     2
 11
667.43307404570351
 21
289.84979035908128
 31
0.0
 73
     2
  0
TEXT
  5
3F4
  8
DATA
 62
     7
 10
662.2072087028215
 20
260.05106820236682
 30
0.0
 40
11.198282877604161
  1
9
 41
0.7
 72
     2
 11
667.43307404570351
 21
265.65020964116889
 31
0.0
 73
     2
  0
TEXT
  5
3F5
  8
DATA
 62
     7
 10
646.18801933712155
 20
231.8175748741829
 30
0.0
 40
11.198282877604161
  1
10
 41
0.7
 72
     2
 11
655.33328368716502
 21
237.4167163129849
 31
0.0
 73
     2
  0
TEXT
  5
3F6
  8
DATA
 62
     7
 10
559.46853810606729
 20
217.0816956966643
 30
0.0
 40
11.198282877604161
  1
Min
 41
0.7
 72
     1
 11
567.30733612039035
 21
215.58859131298379
 31
0.0
 73
     1
  0
TEXT
  5
3F7
  8
DATA
 62
     7
 10
655.45455104827613
 20
217.08169569666549
 30
0.0
 40
11.198282877604161
  1
Max
 41
0.7
 72
     1
 11
665.90628173404002
 21
215.58859131298499
 31
0.0
 73
     1
  0
CIRCLE
  5
3F8
  8
DATA
  6
CONTINUOUS
 62
     7
 10
659.0
 20
464.74999999999989
 30
0.0
 40
2.749999999999142
  0
LINE
  5
3F9
  8
DATA
  6
CONTINUOUS
 62
     7
 10
660.37499999999977
 20
462.36843013959361
 30
0.0
 11
666.699999999998
 21
451.41320878172002
 31
0.0
  0
CIRCLE
  5
3FA
  8
DATA
  6
CONTINUOUS
 62
     7
 10
620.5
 20
464.74999999999989
 30
0.0
 40
2.749999999999142
  0
LINE
  5
3FB
  8
DATA
  6
CONTINUOUS
 62
     7
 10
619.125
 20
462.36843013959361
 30
0.0
 11
612.800000000002
 21
451.41320878172002
 31
0.0
  0
TEXT
  5
3FC
  8
DATA
 62
     7
 10
645.14330546060989
 20
438.89841711505352
 30
0.0
 40
11.198282877604161
  1
-10dBV
 41
0.7
 72
     1
 11
666.699999999998
 21
450.0966999926577
 31
0.0
 73
     3
  0
TEXT
  5
3FD
  8
DATA
 62
     7
 10
594.50947129991505
 20
438.89841711505352
 30
0.0
 40
11.198282877604161
  1
+4dBu
 41
0.7
 72
     1
 11
612.800000000002
 21
450.0966999926577
 31
0.0
 73
     3
  0
CIRCLE
  5
3FE
  8
DATA
  6
CONTINUOUS
 62
     7
 10
543.5
 20
310.75
 30
0.0
 40
2.749999999999142
  0
LINE
  5
3FF
  8
DATA
  6
CONTINUOUS
 62
     7
 10
541.55545635173678
 20
308.80545635173922
 30
0.0
 11
528.9800000000032
 21
296.2300000000007
 31
0.0
  0
TEXT
  5
400
  8
DATA
 62
     7
 10
519.44498502705221
 20
283.71520833333409
 30
0.0
 40
11.198282877604161
  1
+2dB
 41
0.7
 72
     1
 11
533.81611471997769
 21
294.91349121093822
 31
0.0
 73
     3
  0
TEXT
  5
401
  8
DATA
 62
     7
 10
470.13065345106418
 20
283.71520833333409
 30
0.0
 40
11.198282877604161
  1
-2dB
 41
0.7
 72
     1
 11
484.5017831439896
 21
294.91349121093822
 31
0.0
 73
     3
  0
TEXT
  5
402
  8
DATA
 62
     7
 10
507.77030049642241
 20
283.71520833333409
 30
0.0
 40
11.198282877604161
  1
0
 41
0.7
 72
     1
 11
509.73000000000309
 21
294.91349121093822
 31
0.0
 73
     3
  0
CIRCLE
  5
403
  8
DATA
  6
CONTINUOUS
 62
     7
 10
524.24999999999977
 20
310.75
 30
0.0
 40
2.749999999999142
  0
LINE
  5
404
  8
DATA
  6
CONTINUOUS
 62
     7
 10
522.30545635173678
 20
308.80545635173922
 30
0.0
 11
509.73000000000309
 21
296.2300000000007
 31
0.0
  0
CIRCLE
  5
405
  8
DATA
  6
CONTINUOUS
 62
     7
 10
505.0
 20
310.75
 30
0.0
 40
2.749999999999142
  0
LINE
  5
406
  8
DATA
  6
CONTINUOUS
 62
     7
 10
503.05545635173678
 20
308.80545635173922
 30
0.0
 11
490.48000000000309
 21
296.2300000000007
 31
0.0
  0
CIRCLE
  5
407
  8
DATA
  6
CONTINUOUS
 62
     7
 10
439.0
 20
310.75
 30
0.0
 40
2.749999999999142
  0
CIRCLE
  5
408
  8
DATA
  6
CONTINUOUS
 62
     7
 10
419.74999999999989
 20
310.75
 30
0.0
 40
2.749999999999142
  0
CIRCLE
  5
409
  8
DATA
  6
CONTINUOUS
 62
     7
 10
400.49999999999989
 20
310.75
 30
0.0
 40
2.749999999999142
  0
LINE
  5
40A
  8
DATA
  6
CONTINUOUS
 62
     7
 10
440.375
 20
308.36843013959373
 30
0.0
 11
448.20873679357737
 21
294.7999999999995
 31
0.0
  0
TEXT
  5
40B
  8
DATA
 62
     7
 10
429.24887030707549
 20
282.28520833333289
 30
0.0
 40
11.198282877604161
  1
+2dB
 41
0.7
 72
     1
 11
443.6200000000008
 21
293.48349121093707
 31
0.0
 73
     3
  0
TEXT
  5
40C
  8
DATA
 62
     7
 10
380.15065345106598
 20
282.28520833333289
 30
0.0
 40
11.198282877604161
  1
-2dB
 41
0.7
 72
     1
 11
394.5217831439914
 21
293.48349121093707
 31
0.0
 73
     3
  0
TEXT
  5
40D
  8
DATA
 62
     7
 10
417.79030049641921
 20
282.28520833333289
 30
0.0
 40
11.198282877604161
  1
0
 41
0.7
 72
     1
 11
419.74999999999989
 21
293.48349121093707
 31
0.0
 73
     3
  0
LINE
  5
40E
  8
DATA
  6
CONTINUOUS
 62
     7
 10
419.74999999999989
 20
308.00000000000119
 30
0.0
 11
419.74999999999989
 21
294.7999999999995
 31
0.0
  0
LINE
  5
40F
  8
DATA
  6
CONTINUOUS
 62
     7
 10
399.125
 20
308.36843013959373
 30
0.0
 11
391.29126320642263
 21
294.7999999999995
 31
0.0
  0
ARC
  5
410
  8
DATA
  6
CONTINUOUS
 62
     7
 10
210.75
 20
517.0
 30
0.0
 40
8.25
 50
90.0
 51
180.0
  0
ARC
  5
411
  8
DATA
  6
CONTINUOUS
 62
     7
 10
540.74999999999977
 20
517.0
 30
0.0
 40
8.25
 50
0.0
 51
90.0
  0
ARC
  5
412
  8
DATA
  6
CONTINUOUS
 62
     7
 10
562.75
 20
517.0
 30
0.0
 40
8.25
 50
90.0
 51
180.0
  0
ARC
  5
413
  8
DATA
  6
CONTINUOUS
 62
     7
 10
689.25
 20
517.0
 30
0.0
 40
8.25
 50
0.0
 51
90.0
  0
ARC
  5
414
  8
DATA
  6
CONTINUOUS
 62
     7
 10
562.75
 20
387.75
 30
0.0
 40
8.25
 50
180.0
 51
270.0
  0
ARC
  5
415
  8
DATA
  6
CONTINUOUS
 62
     7
 10
689.25
 20
387.75
 30
0.0
 40
8.25
 50
270.0
 51
0.0
  0
ARC
  5
416
  8
DATA
  6
CONTINUOUS
 62
     7
 10
689.25
 20
363.0
 30
0.0
 40
8.25
 50
0.0
 51
90.0
  0
ARC
  5
417
  8
DATA
  6
CONTINUOUS
 62
     7
 10
562.75
 20
363.0
 30
0.0
 40
8.25
 50
90.0
 51
180.0
  0
ARC
  5
418
  8
DATA
  6
CONTINUOUS
 62
     7
 10
540.74999999999977
 20
387.75
 30
0.0
 40
8.25
 50
270.0
 51
0.0
  0
ARC
  5
419
  8
DATA
  6
CONTINUOUS
 62
     7
 10
540.74999999999977
 20
363.0
 30
0.0
 40
8.25
 50
0.0
 51
90.0
  0
ARC
  5
41A
  8
DATA
  6
CONTINUOUS
 62
     7
 10
474.75
 20
363.0
 30
0.0
 40
8.25
 50
90.0
 51
180.0
  0
ARC
  5
41B
  8
DATA
  6
CONTINUOUS
 62
     7
 10
452.74999999999989
 20
363.0
 30
0.0
 40
8.25
 50
0.0
 51
90.0
  0
ARC
  5
41C
  8
DATA
  6
CONTINUOUS
 62
     7
 10
386.75
 20
363.0
 30
0.0
 40
8.25
 50
90.0
 51
180.0
  0
ARC
  5
41D
  8
DATA
  6
CONTINUOUS
 62
     7
 10
381.25
 20
371.25
 30
0.0
 40
8.25
 50
90.0
 51
180.0
  0
ARC
  5
41E
  8
DATA
  6
CONTINUOUS
 62
     7
 10
386.75
 20
272.25
 30
0.0
 40
8.25
 50
180.0
 51
270.0
  0
ARC
  5
41F
  8
DATA
  6
CONTINUOUS
 62
     7
 10
452.74999999999989
 20
272.25
 30
0.0
 40
8.25
 50
270.0
 51
0.0
  0
ARC
  5
420
  8
DATA
  6
CONTINUOUS
 62
     7
 10
474.75
 20
272.25
 30
0.0
 40
8.25
 50
180.0
 51
270.0
  0
ARC
  5
421
  8
DATA
  6
CONTINUOUS
 62
     7
 10
540.74999999999977
 20
272.25
 30
0.0
 40
8.25
 50
270.0
 51
0.0
  0
ARC
  5
422
  8
DATA
  6
CONTINUOUS
 62
     7
 10
381.25
 20
264.0
 30
0.0
 40
8.25
 50
180.0
 51
270.0
  0
ARC
  5
423
  8
DATA
  6
CONTINUOUS
 62
     7
 10
364.75
 20
297.0
 30
0.0
 40
8.25
 50
0.0
 51
90.0
  0
ARC
  5
424
  8
DATA
  6
CONTINUOUS
 62
     7
 10
364.75
 20
319.0
 30
0.0
 40
8.25
 50
270.0
 51
0.0
  0
ARC
  5
425
  8
DATA
  6
CONTINUOUS
 62
     7
 10
210.75
 20
319.0
 30
0.0
 40
8.25
 50
180.0
 51
270.0
  0
ARC
  5
426
  8
DATA
  6
CONTINUOUS
 62
     7
 10
210.75
 20
297.0
 30
0.0
 40
8.25
 50
90.0
 51
180.0
  0
ARC
  5
427
  8
DATA
  6
CONTINUOUS
 62
     7
 10
210.75
 20
192.5
 30
0.0
 40
8.25
 50
180.0
 51
270.0
  0
ARC
  5
428
  8
DATA
  6
CONTINUOUS
 62
     7
 10
210.75
 20
167.75
 30
0.0
 40
8.25
 50
90.0
 51
180.0
  0
ARC
  5
429
  8
DATA
  6
CONTINUOUS
 62
     7
 10
210.75
 20
8.25
 30
0.0
 40
8.25
 50
180.0
 51
270.0
  0
ARC
  5
42A
  8
DATA
  6
CONTINUOUS
 62
     7
 10
689.25
 20
8.25
 30
0.0
 40
8.25
 50
270.0
 51
0.0
  0
ARC
  5
42B
  8
DATA
  6
CONTINUOUS
 62
     7
 10
689.25
 20
167.75
 30
0.0
 40
8.25
 50
0.0
 51
90.0
  0
ARC
  5
42C
  8
DATA
  6
CONTINUOUS
 62
     7
 10
562.75
 20
192.5
 30
0.0
 40
8.25
 50
180.0
 51
270.0
  0
ARC
  5
42D
  8
DATA
  6
CONTINUOUS
 62
     7
 10
540.74999999999977
 20
247.5
 30
0.0
 40
8.25
 50
0.0
 51
90.0
  0
ARC
  5
42E
  8
DATA
  6
CONTINUOUS
 62
     7
 10
540.74999999999977
 20
192.5
 30
0.0
 40
8.25
 50
270.0
 51
0.0
  0
ARC
  5
42F
  8
DATA
  6
CONTINUOUS
 62
     7
 10
689.25
 20
192.5
 30
0.0
 40
8.25
 50
270.0
 51
0.0
  0
CIRCLE
  5
430
  8
DATA
  6
CONTINUOUS
 62
     7
 10
417.0
 20
431.74999999999989
 30
0.0
 40
46.749999999999993
  0
CIRCLE
  5
431
  8
DATA
  6
CONTINUOUS
 62
     7
 10
417.0
 20
431.74999999999989
 30
0.0
 40
28.875000000003318
  0
CIRCLE
  5
432
  8
DATA
  6
CONTINUOUS
 62
     7
 10
417.0
 20
431.74999999999989
 30
0.0
 40
24.750000000003229
  0
CIRCLE
  5
433
  8
DATA
  6
CONTINUOUS
 62
     7
 10
417.0
 20
431.74999999999989
 30
0.0
 40
19.249999999999311
  0
POLYLINE
  5
434
  8
DATA
  6
CONTINUOUS
 62
     7
 66
     1
 10
0.0
 20
0.0
 30
0.0
 70
     1
  0
VERTEX
  5
615
  8
DATA
  6
CONTINUOUS
 62
     7
 10
463.75
 20
431.74999999999989
 30
0.0
  0
VERTEX
  5
616
  8
DATA
  6
CONTINUOUS
 62
     7
 10
440.375
 20
472.23668762692319
 30
0.0
  0
VERTEX
  5
617
  8
DATA
  6
CONTINUOUS
 62
     7
 10
393.625
 20
472.23668762692319
 30
0.0
  0
VERTEX
  5
618
  8
DATA
  6
CONTINUOUS
 62
     7
 10
370.25
 20
431.74999999999989
 30
0.0
  0
VERTEX
  5
619
  8
DATA
  6
CONTINUOUS
 62
     7
 10
393.625
 20
391.26331237307681
 30
0.0
  0
VERTEX
  5
61A
  8
DATA
  6
CONTINUOUS
 62
     7
 10
440.375
 20
391.26331237307681
 30
0.0
  0
SEQEND
  5
61B
  8
DATA
  6
CONTINUOUS
 62
     7
  0
CIRCLE
  5
43D
  8
DATA
  6
CONTINUOUS
 62
     7
 10
307.45779411066042
 20
415.25269608441772
 30
0.0
 40
9.9754901950779811
  0
CIRCLE
  5
43E
  8
DATA
  6
CONTINUOUS
 62
     7
 10
285.01294117172853
 20
434.95428921970421
 30
0.0
 40
9.9754901950832569
  0
CIRCLE
  5
43F
  8
DATA
  6
CONTINUOUS
 62
     7
 10
262.56808823279653
 20
415.25269608441772
 30
0.0
 40
9.9754901950835464
  0
CIRCLE
  5
440
  8
DATA
  6
CONTINUOUS
 62
     7
 10
262.56808823279653
 20
415.25269608441772
 30
0.0
 40
9.9754901950835464
  0
CIRCLE
  5
441
  8
DATA
  6
CONTINUOUS
 62
     7
 10
285.01294117172853
 20
415.25269608441772
 30
0.0
 40
59.85294117048592
  0
CIRCLE
  5
442
  8
DATA
  6
CONTINUOUS
 62
     7
 10
285.01294117172853
 20
415.25269608441772
 30
0.0
 40
39.403185538197931
  0
ARC
  5
443
  8
DATA
  6
CONTINUOUS
 62
     7
 10
285.01294117172853
 20
415.25269608441772
 30
0.0
 40
48.630514701020253
 50
300.85188598606999
 51
239.1481140139351
  0
CIRCLE
  5
444
  8
DATA
  6
CONTINUOUS
 62
     7
 10
237.62936274509551
 20
475.1056372549038
 30
0.0
 40
12.46936274509607
  0
CIRCLE
  5
445
  8
DATA
  6
CONTINUOUS
 62
     7
 10
332.40928406935927
 20
355.39391093925963
 30
0.0
 40
12.46936274510108
  0
LINE
  5
446
  8
DATA
  6
CONTINUOUS
 62
     7
 10
309.95166665943452
 20
363.31065294411479
 30
0.0
 11
309.95166665943452
 21
373.50360111057449
 31
0.0
  0
LINE
  5
447
  8
DATA
  6
CONTINUOUS
 62
     7
 10
273.04235293763583
 20
377.71183693598061
 30
0.0
 11
273.04235293763583
 21
377.71183770468048
 31
0.0
  0
LINE
  5
448
  8
DATA
  6
CONTINUOUS
 62
     7
 10
260.07421568402742
 20
363.31065294411479
 30
0.0
 11
260.07421568402742
 21
373.50360111057449
 31
0.0
  0
LINE
  5
449
  8
DATA
  6
CONTINUOUS
 62
     7
 10
299.22801469972131
 20
378.5029652670151
 30
0.0
 11
299.22801469972131
 21
378.50296605226509
 31
0.0
  0
LINE
  5
44A
  8
DATA
  6
CONTINUOUS
 62
     7
 10
245.12374486314599
 20
475.1056372549038
 30
0.0
 11
230.16050956903061
 21
475.1056372549038
 31
0.0
  0
LINE
  5
44B
  8
DATA
  6
CONTINUOUS
 62
     7
 10
237.62936274509551
 20
467.61817563317271
 30
0.0
 11
237.62936274509551
 21
482.58141092729028
 31
0.0
  0
LINE
  5
44C
  8
DATA
  6
CONTINUOUS
 62
     7
 10
339.90366618741467
 20
355.39391093925963
 30
0.0
 11
324.94043089329438
 21
355.39391093925963
 31
0.0
  0
LINE
  5
44D
  8
DATA
  6
CONTINUOUS
 62
     7
 10
332.40928406935927
 20
347.9064493175286
 30
0.0
 11
332.40928406935927
 21
362.86968461164741
 31
0.0
  0
CIRCLE
  5
44E
  8
DATA
  6
CONTINUOUS
 62
     7
 10
285.01294117172853
 20
415.25269608441772
 30
0.0
 40
57.618711149591682
  0
TEXT
  5
44F
  8
DATA
 62
     7
 10
325.0
 20
-877.83215000000018
 30
0.0
 40
13.03072916666666
  1
2-Wayバイアンプ　パワード・スタ ジオモニタ ー
 41
0.7
 11
325.0
 21
-864.80142083333362
 31
0.0
 73
     3
  0
ENDSEC
  0
EOF
