  0
SECTION
  2
HEADER
  9
$ACADVER
  1
AC1009
  9
$INSBASE
 10
0.0
 20
0.0
 30
0.0
  9
$EXTMIN
 10
-270.01647823492112
 20
-412.82607757968719
 30
-0.0015258207003583
  9
$EXTMAX
 10
270.0164807494923
 20
390.02445227102521
 30
0.0000000349246037
  9
$LIMMIN
 10
0.0
 20
0.0
  9
$LIMMAX
 10
0.0
 20
0.0
  9
$ORTHOMODE
 70
     0
  9
$REGENMODE
 70
     1
  9
$FILLMODE
 70
     1
  9
$QTEXTMODE
 70
     0
  9
$MIRRTEXT
 70
     1
  9
$DRAGMODE
 70
     2
  9
$LTSCALE
 40
15.24
  9
$OSMODE
 70
   231
  9
$ATTMODE
 70
     1
  9
$TEXTSIZE
 40
0.0
  9
$TRACEWID
 40
1.0
  9
$TEXTSTYLE
  7
STANDARD
  9
$CLAYER
  8
DATA
  9
$CELTYPE
  6
BYLAYER
  9
$CECOLOR
 62
   256
  9
$DIMSCALE
 40
1.0
  9
$DIMASZ
 40
0.18
  9
$DIMEXO
 40
0.0625
  9
$DIMDLI
 40
0.38
  9
$DIMRND
 40
0.0
  9
$DIMDLE
 40
0.0
  9
$DIMEXE
 40
0.18
  9
$DIMTP
 40
0.0
  9
$DIMTM
 40
0.0
  9
$DIMTXT
 40
0.18
  9
$DIMCEN
 40
0.09
  9
$DIMTSZ
 40
0.0
  9
$DIMTOL
 70
     0
  9
$DIMLIM
 70
     0
  9
$DIMTIH
 70
     1
  9
$DIMTOH
 70
     1
  9
$DIMSE1
 70
     0
  9
$DIMSE2
 70
     0
  9
$DIMTAD
 70
     0
  9
$DIMZIN
 70
     0
  9
$DIMBLK
  1

  9
$DIMASO
 70
     1
  9
$DIMSHO
 70
     1
  9
$DIMPOST
  1

  9
$DIMAPOST
  1

  9
$DIMALT
 70
     0
  9
$DIMALTD
 70
     2
  9
$DIMALTF
 40
25.399999999999999
  9
$DIMLFAC
 40
1.0
  9
$DIMTOFL
 70
     0
  9
$DIMTVP
 40
0.0
  9
$DIMTIX
 70
     0
  9
$DIMSOXD
 70
     0
  9
$DIMSAH
 70
     0
  9
$DIMBLK1
  1

  9
$DIMBLK2
  1

  9
$DIMSTYLE
  2
STANDARD
  9
$DIMCLRD
 70
     0
  9
$DIMCLRE
 70
     0
  9
$DIMCLRT
 70
     0
  9
$DIMTFAC
 40
1.0
  9
$DIMGAP
 40
0.09
  9
$LUNITS
 70
     2
  9
$LUPREC
 70
     4
  9
$SKETCHINC
 40
0.1
  9
$FILLETRAD
 40
0.0
  9
$AUNITS
 70
     0
  9
$AUPREC
 70
     0
  9
$MENU
  1
acad
  9
$ELEVATION
 40
0.0
  9
$PELEVATION
 40
0.0
  9
$THICKNESS
 40
0.0
  9
$LIMCHECK
 70
     0
  9
$BLIPMODE
 70
     0
  9
$CHAMFERA
 40
0.0
  9
$CHAMFERB
 40
0.0
  9
$SKPOLY
 70
     0
  9
$TDCREATE
 40
2456909.6013888889
  9
$TDUPDATE
 40
2456909.6023277091
  9
$TDINDWG
 40
0.0003153356
  9
$TDUSRTIMER
 40
0.0003152546
  9
$USRTIMER
 70
     1
  9
$ANGBASE
 50
0.0
  9
$ANGDIR
 70
     0
  9
$PDMODE
 70
     1
  9
$PDSIZE
 40
-2.0
  9
$PLINEWID
 40
0.0
  9
$COORDS
 70
     2
  9
$SPLFRAME
 70
     0
  9
$SPLINETYPE
 70
     6
  9
$SPLINESEGS
 70
     8
  9
$ATTDIA
 70
     0
  9
$ATTREQ
 70
     1
  9
$HANDLING
 70
     1
  9
$HANDSEED
  5
918
  9
$SURFTAB1
 70
     6
  9
$SURFTAB2
 70
     6
  9
$SURFTYPE
 70
     6
  9
$SURFU
 70
     6
  9
$SURFV
 70
     6
  9
$UCSNAME
  2

  9
$UCSORG
 10
0.0
 20
0.0
 30
0.0
  9
$UCSXDIR
 10
1.0
 20
0.0
 30
0.0
  9
$UCSYDIR
 10
0.0
 20
1.0
 30
0.0
  9
$PUCSNAME
  2

  9
$PUCSORG
 10
0.0
 20
0.0
 30
0.0
  9
$PUCSXDIR
 10
1.0
 20
0.0
 30
0.0
  9
$PUCSYDIR
 10
0.0
 20
1.0
 30
0.0
  9
$USERI1
 70
     0
  9
$USERI2
 70
     0
  9
$USERI3
 70
     0
  9
$USERI4
 70
     0
  9
$USERI5
 70
     0
  9
$USERR1
 40
0.0
  9
$USERR2
 40
0.0
  9
$USERR3
 40
0.0
  9
$USERR4
 40
0.0
  9
$USERR5
 40
0.0
  9
$WORLDVIEW
 70
     1
  9
$SHADEDGE
 70
     3
  9
$SHADEDIF
 70
    70
  9
$TILEMODE
 70
     1
  9
$MAXACTVP
 70
    64
  9
$PLIMCHECK
 70
     0
  9
$PEXTMIN
 10
1.0000000000000000E+020
 20
1.0000000000000000E+020
 30
1.0000000000000000E+020
  9
$PEXTMAX
 10
-1.0000000000000000E+020
 20
-1.0000000000000000E+020
 30
-1.0000000000000000E+020
  9
$PLIMMIN
 10
0.0
 20
0.0
  9
$PLIMMAX
 10
12.0
 20
9.0
  9
$UNITMODE
 70
     0
  9
$VISRETAIN
 70
     0
  9
$PLINEGEN
 70
     1
  9
$PSLTSCALE
 70
     0
  0
ENDSEC
  0
SECTION
  2
TABLES
  0
TABLE
  2
VPORT
 70
     1
  0
VPORT
  2
*ACTIVE
 70
     0
 10
0.0
 20
0.0
 11
1.0
 21
1.0
 12
0.0000012572857031
 22
-10.59544313458184
 13
0.0
 23
0.0
 14
1.0
 24
1.0
 15
0.0
 25
0.0
 16
0.0
 26
0.0
 36
1.0
 17
0.0
 27
0.0
 37
0.0
 40
807.41901798970673
 41
2.4427284427284421
 42
50.0
 43
0.0
 44
0.0
 50
0.0
 51
0.0
 71
     0
 72
  2000
 73
     1
 74
     1
 75
     0
 76
     0
 77
     0
 78
     0
  0
ENDTAB
  0
TABLE
  2
LTYPE
 70
    11
  0
LTYPE
  2
CONTINUOUS
 70
     0
  3
Solid line
 72
    65
 73
     0
 40
0.0
  0
ENDTAB
  0
TABLE
  2
LAYER
 70
     6
  0
LAYER
  2
0
 70
     0
 62
     7
  6
CONTINUOUS
  0
LAYER
  2
DATA
 70
     0
 62
     7
  6
CONTINUOUS
  0
LAYER
  2
HIBINO-BASE
 70
     0
 62
     7
  6
CONTINUOUS
  0
LAYER
  2
PATTERN_FILL
 70
     0
 62
     7
  6
CONTINUOUS
  0
LAYER
  2
SPEC
 70
     0
 62
     7
  6
CONTINUOUS
  0
LAYER
  2
DIMNSIONS
 70
     0
 62
     7
  6
CONTINUOUS
  0
ENDTAB
  0
TABLE
  2
STYLE
 70
     3
  0
STYLE
  2
STANDARD
 70
     0
 40
0.0
 41
1.0
 50
0.0
 71
     0
 42
0.0
  3
txt
  4
BIGFONT.SHX
  0
ENDTAB
  0
TABLE
  2
VIEW
 70
     0
  0
ENDTAB
  0
TABLE
  2
UCS
 70
     0
  0
ENDTAB
  0
TABLE
  2
APPID
 70
     4
  0
APPID
  2
ACAD
 70
     0
  0
APPID
  2
ACADANNOTATIVE
 70
     0
  0
APPID
  2
ACAD_NAV_VCDISPLAY
 70
     0
  0
APPID
  2
ACAD_MLEADERVER
 70
     0
  0
ENDTAB
  0
TABLE
  2
DIMSTYLE
 70
     2
  0
DIMSTYLE
  2
STANDARD
 70
     0
  3

  4

  5

  6

  7

 40
1.0
 41
0.18
 42
0.0625
 43
0.38
 44
0.18
 45
0.0
 46
0.0
 47
0.0
 48
0.0
140
0.18
141
0.09
142
0.0
143
25.399999999999999
144
1.0
145
0.0
146
1.0
147
0.09
 71
     0
 72
     0
 73
     1
 74
     1
 75
     0
 76
     0
 77
     0
 78
     0
170
     0
171
     2
172
     0
173
     0
174
     0
175
     0
176
     0
177
     0
178
     0
  0
ENDTAB
  0
ENDSEC
  0
SECTION
  2
BLOCKS
  0
BLOCK
  8
0
  2
$MODEL_SPACE
 70
     0
 10
0.0
 20
0.0
 30
0.0
  3
$MODEL_SPACE
  1

  0
ENDBLK
  5
817
  8
0
  0
BLOCK
 67
     1
  8
0
  2
$PAPER_SPACE
 70
     0
 10
0.0
 20
0.0
 30
0.0
  3
$PAPER_SPACE
  1

  0
ENDBLK
  5
813
 67
     1
  8
0
  0
ENDSEC
  0
SECTION
  2
ENTITIES
  0
LINE
  5
2D
  8
HIBINO-BASE
  6
CONTINUOUS
 62
     7
 10
-269.99999999999989
 20
390.00000000000011
 30
0.0
 11
269.99999999999989
 21
390.00000000000011
 31
0.0
  0
LINE
  5
2E
  8
HIBINO-BASE
  6
CONTINUOUS
 62
     7
 10
269.99999999999989
 20
-390.0
 30
0.0
 11
-269.99999999999989
 21
-390.0
 31
0.0
  0
LINE
  5
2F
  8
HIBINO-BASE
  6
CONTINUOUS
 62
     7
 10
-269.99999999999989
 20
-390.0
 30
0.0
 11
-269.99999999999989
 21
390.00000000000011
 31
0.0
  0
LINE
  5
30
  8
HIBINO-BASE
  6
CONTINUOUS
 62
     7
 10
269.99999999999989
 20
390.00000000000011
 30
0.0
 11
269.99999999999989
 21
-390.0
 31
0.0
  0
LINE
  5
31
  8
HIBINO-BASE
  6
CONTINUOUS
 62
     7
 10
0.0000000000000213
 20
-322.49999999999989
 30
0.0
 11
269.99999999999989
 21
-322.49999999999989
 31
0.0
  0
LINE
  5
32
  8
HIBINO-BASE
  6
CONTINUOUS
 62
     7
 10
0.0000000000000213
 20
-390.0
 30
0.0
 11
0.0000000000000213
 21
-322.49999999999989
 31
0.0
  0
TEXT
  5
33
  8
HIBINO-BASE
 62
     7
 10
2.700000000000037
 20
-330.02607999999992
 30
0.0
 40
4.8865234374999993
  1
NOTE
 41
0.7
 11
2.7000000000000379
 21
-325.13955656249988
 31
0.0
 73
     3
1001
ACADANNOTATIVE
1000
AnnotativeData
1002
{
1070
     1
1070
     0
1002
}
  0
LINE
  5
34
  8
HIBINO-BASE
  6
CONTINUOUS
 62
     7
 10
105.0
 20
-390.0
 30
0.0
 11
105.0
 21
-322.49999999999989
 31
0.0
  0
TEXT
  5
35
  8
HIBINO-BASE
 62
     7
 10
107.7
 20
-330.02607999999992
 30
0.0
 40
4.8865234374999993
  1
TITLE
 41
0.7
 11
107.7
 21
-325.13955656249988
 31
0.0
 73
     3
1001
ACADANNOTATIVE
1000
AnnotativeData
1002
{
1070
     1
1070
     0
1002
}
  0
LINE
  5
36
  8
HIBINO-BASE
  6
CONTINUOUS
 62
     7
 10
0.0000000000000213
 20
-359.99999999999977
 30
0.0
 11
269.99999999999989
 21
-359.99999999999977
 31
0.0
  0
TEXT
  5
37
  8
HIBINO-BASE
 62
     7
 10
145.19999999999999
 20
-367.3571199999999
 30
0.0
 40
4.8865234374999993
  1
DRAWN
 41
0.7
 11
145.19999999999999
 21
-362.47059656249991
 31
0.0
 73
     3
1001
ACADANNOTATIVE
1000
AnnotativeData
1002
{
1070
     1
1070
     0
1002
}
  0
TEXT
  5
38
  8
HIBINO-BASE
 62
     7
 10
70.199999999999989
 20
-367.3571199999999
 30
0.0
 40
4.8865234374999993
  1
DATE
 41
0.7
 11
70.199999999999989
 21
-362.47059656249991
 31
0.0
 73
     3
1001
ACADANNOTATIVE
1000
AnnotativeData
1002
{
1070
     1
1070
     0
1002
}
  0
TEXT
  5
39
  8
HIBINO-BASE
 62
     7
 10
40.200000000000003
 20
-367.3571199999999
 30
0.0
 40
4.8865234374999993
  1
SCALE
 41
0.7
 11
40.200000000000003
 21
-362.47059656249991
 31
0.0
 73
     3
1001
ACADANNOTATIVE
1000
AnnotativeData
1002
{
1070
     1
1070
     0
1002
}
  0
TEXT
  5
3A
  8
HIBINO-BASE
 62
     7
 10
107.7
 20
-367.3571199999999
 30
0.0
 40
4.8865234374999993
  1
DESIGN
 41
0.7
 11
107.7
 21
-362.47059656249991
 31
0.0
 73
     3
1001
ACADANNOTATIVE
1000
AnnotativeData
1002
{
1070
     1
1070
     0
1002
}
  0
TEXT
  5
3B
  8
HIBINO-BASE
 62
     7
 10
220.19999999999999
 20
-367.3571199999999
 30
0.0
 40
4.8865234374999993
  1
DRAWING NO.
 41
0.7
 11
220.19999999999999
 21
-362.47059656249991
 31
0.0
 73
     3
1001
ACADANNOTATIVE
1000
AnnotativeData
1002
{
1070
     1
1070
     0
1002
}
  0
TEXT
  5
3C
  8
HIBINO-BASE
 62
     7
 10
182.69999999999999
 20
-367.3571199999999
 30
0.0
 40
4.8865234374999993
  1
CHECK
 41
0.7
 11
182.69999999999999
 21
-362.47059656249991
 31
0.0
 73
     3
1001
ACADANNOTATIVE
1000
AnnotativeData
1002
{
1070
     1
1070
     0
1002
}
  0
LINE
  5
3D
  8
HIBINO-BASE
  6
CONTINUOUS
 62
     7
 10
43.125000000000021
 20
-386.24999999999989
 30
0.0
 11
54.375000000000071
 21
-375.0
 31
0.0
  0
TEXT
  5
3E
  8
HIBINO-BASE
 62
     7
 10
41.250000000000007
 20
-378.32682999999997
 30
0.0
 40
4.8865234374999993
  1
1
 41
0.7
 11
41.250000000000007
 21
-373.44030656249998
 31
0.0
 73
     3
1001
ACADANNOTATIVE
1000
AnnotativeData
1002
{
1070
     1
1070
     0
1002
}
  0
LINE
  5
3F
  8
HIBINO-BASE
  6
CONTINUOUS
 62
     7
 10
37.500000000000021
 20
-390.0
 30
0.0
 11
37.500000000000021
 21
-359.99999999999977
 31
0.0
  0
LINE
  5
40
  8
HIBINO-BASE
  6
CONTINUOUS
 62
     7
 10
67.499999999999972
 20
-390.0
 30
0.0
 11
67.499999999999972
 21
-359.99999999999977
 31
0.0
  0
LINE
  5
41
  8
HIBINO-BASE
  6
CONTINUOUS
 62
     7
 10
142.49999999999989
 20
-359.99999999999977
 30
0.0
 11
142.49999999999989
 21
-390.0
 31
0.0
  0
LINE
  5
42
  8
HIBINO-BASE
  6
CONTINUOUS
 62
     7
 10
217.50000000000011
 20
-359.99999999999977
 30
0.0
 11
217.50000000000011
 21
-390.0
 31
0.0
  0
LINE
  5
43
  8
HIBINO-BASE
  6
CONTINUOUS
 62
     7
 10
179.99999999999989
 20
-390.0
 30
0.0
 11
179.99999999999989
 21
-359.99999999999977
 31
0.0
  0
TEXT
  5
44
  8
HIBINO-BASE
 62
     7
 10
70.069620000000043
 20
-381.4090599999999
 30
0.0
 40
4.8865234374999993
  1
'14.09
 41
0.7
 11
70.069620000000043
 21
-376.52253656249991
 31
0.0
 73
     3
1001
ACADANNOTATIVE
1000
AnnotativeData
1002
{
1070
     1
1070
     0
1002
}
  0
TEXT
  5
45
  8
HIBINO-BASE
 62
     7
 10
52.500000000000021
 20
-383.95182999999997
 30
0.0
 40
4.8865234374999993
  1
3
 41
0.7
 11
52.500000000000021
 21
-379.06530656249998
 31
0.0
 73
     3
1001
ACADANNOTATIVE
1000
AnnotativeData
1002
{
1070
     1
1070
     0
1002
}
  0
TEXT
  5
46
  8
HIBINO-BASE
 62
     7
 10
147.01743003310381
 20
-381.4090599999999
 30
0.0
 40
4.8865234374999993
  1
N.Sasaki
 41
0.7
 11
147.01743003310381
 21
-376.52253656249991
 31
0.0
 73
     3
1001
ACADANNOTATIVE
1000
AnnotativeData
1002
{
1070
     1
1070
     0
1002
}
  0
TEXT
  5
47
  8
HIBINO-BASE
 62
     7
 10
11.65000000000008
 20
-384.07199999999989
 30
0.0
 40
9.7730468749999986
  1
A4
 41
0.7
 11
11.65000000000008
 21
-374.29895312499991
 31
0.0
 73
     3
1001
ACADANNOTATIVE
1000
AnnotativeData
1002
{
1070
     1
1070
     0
1002
}
  0
TEXT
  5
48
  8
HIBINO-BASE
 62
     7
 10
2.8750000000000062
 20
-367.85836499999988
 30
0.0
 40
4.8865234374999993
  1
PAPER SIZE
 41
0.7
 11
2.8750000000000071
 21
-362.9718415625
 31
0.0
 73
     3
1001
ACADANNOTATIVE
1000
AnnotativeData
1002
{
1070
     1
1070
     0
1002
}
  0
TEXT
  5
49
  8
HIBINO-BASE
 62
     7
 10
-248.44799999999989
 20
-409.22603339999978
 30
0.0
 40
10.800132539062499
  1
Hibino Corporation
 41
0.7
 11
-248.44799999999989
 21
-398.42590086093742
 31
0.0
 73
     3
1001
ACADANNOTATIVE
1000
AnnotativeData
1002
{
1070
     1
1070
     0
1002
}
  0
TEXT
  5
4A
  8
HIBINO-BASE
 62
     7
 10
150.20517000000001
 20
-409.22603339999978
 30
0.0
 40
10.800132539062499
  1
ヒビノ株式会社
 41
0.7
 11
150.20517000000001
 21
-398.42590086093742
 31
0.0
 73
     3
1001
ACADANNOTATIVE
1000
AnnotativeData
1002
{
1070
     1
1070
     0
1002
}
  0
ARC
  5
4B
  8
PATTERN_FILL
  6
CONTINUOUS
 62
     7
 10
-205.0
 20
-25.561624370459509
 30
0.0
 40
1.499999999999998
 50
289.7580135068049
 51
44.037731275414579
  0
ARC
  5
4C
  8
PATTERN_FILL
  6
CONTINUOUS
 62
     7
 10
-205.0
 20
-30.561624370459509
 30
0.0
 40
1.499999999999996
 50
251.6354028397773
 51
87.388046790133572
  0
ARC
  5
4D
  8
PATTERN_FILL
  6
CONTINUOUS
 62
     7
 10
-205.0
 20
-35.561624370459541
 30
0.0
 40
1.5000000000000171
 50
220.04332630679741
 51
124.29758278931899
  0
CIRCLE
  5
4E
  8
PATTERN_FILL
  6
CONTINUOUS
 62
     7
 10
-205.0
 20
-40.561624370459512
 30
0.0
 40
1.5
  0
CIRCLE
  5
4F
  8
PATTERN_FILL
  6
CONTINUOUS
 62
     7
 10
-205.0
 20
-45.561624370459512
 30
0.0
 40
1.5
  0
CIRCLE
  5
50
  8
PATTERN_FILL
  6
CONTINUOUS
 62
     7
 10
-205.0
 20
-50.561624370459512
 30
0.0
 40
1.5
  0
CIRCLE
  5
51
  8
PATTERN_FILL
  6
CONTINUOUS
 62
     7
 10
-205.0
 20
-55.561624370459512
 30
0.0
 40
1.5
  0
CIRCLE
  5
52
  8
PATTERN_FILL
  6
CONTINUOUS
 62
     7
 10
-205.0
 20
-60.561624370459512
 30
0.0
 40
1.5
  0
ARC
  5
53
  8
PATTERN_FILL
  6
CONTINUOUS
 62
     7
 10
-205.0
 20
-65.561624370459498
 30
0.0
 40
1.5000000000000231
 50
244.10053536369381
 51
132.75988357206219
  0
ARC
  5
54
  8
PATTERN_FILL
  6
CONTINUOUS
 62
     7
 10
-205.0
 20
-70.561624370459512
 30
0.0
 40
1.4999999999999989
 50
281.26366626287722
 51
100.8958118626614
  0
ARC
  5
55
  8
PATTERN_FILL
  6
CONTINUOUS
 62
     7
 10
-205.0
 20
-75.561624370459484
 30
0.0
 40
1.5000000000000311
 50
329.28587579089771
 51
58.078461895901562
  0
ARC
  5
56
  8
PATTERN_FILL
  6
CONTINUOUS
 62
     7
 10
-200.0
 20
-10.56162437045951
 30
0.0
 40
1.5000000000000011
 50
268.16262507050902
 51
48.79043341467689
  0
CIRCLE
  5
57
  8
PATTERN_FILL
  6
CONTINUOUS
 62
     7
 10
-200.0
 20
-15.56162437045951
 30
0.0
 40
1.5
  0
CIRCLE
  5
58
  8
PATTERN_FILL
  6
CONTINUOUS
 62
     7
 10
-200.0
 20
-20.561624370459509
 30
0.0
 40
1.5
  0
CIRCLE
  5
59
  8
PATTERN_FILL
  6
CONTINUOUS
 62
     7
 10
-200.0
 20
-25.561624370459509
 30
0.0
 40
1.5
  0
CIRCLE
  5
5A
  8
PATTERN_FILL
  6
CONTINUOUS
 62
     7
 10
-200.0
 20
-30.561624370459509
 30
0.0
 40
1.5
  0
CIRCLE
  5
5B
  8
PATTERN_FILL
  6
CONTINUOUS
 62
     7
 10
-200.0
 20
-35.561624370459512
 30
0.0
 40
1.5
  0
CIRCLE
  5
5C
  8
PATTERN_FILL
  6
CONTINUOUS
 62
     7
 10
-200.0
 20
-40.561624370459512
 30
0.0
 40
1.5
  0
CIRCLE
  5
5D
  8
PATTERN_FILL
  6
CONTINUOUS
 62
     7
 10
-200.0
 20
-45.561624370459512
 30
0.0
 40
1.5
  0
CIRCLE
  5
5E
  8
PATTERN_FILL
  6
CONTINUOUS
 62
     7
 10
-200.0
 20
-50.561624370459512
 30
0.0
 40
1.5
  0
CIRCLE
  5
5F
  8
PATTERN_FILL
  6
CONTINUOUS
 62
     7
 10
-200.0
 20
-55.561624370459512
 30
0.0
 40
1.5
  0
CIRCLE
  5
60
  8
PATTERN_FILL
  6
CONTINUOUS
 62
     7
 10
-200.0
 20
-60.561624370459512
 30
0.0
 40
1.5
  0
CIRCLE
  5
61
  8
PATTERN_FILL
  6
CONTINUOUS
 62
     7
 10
-200.0
 20
-65.561624370459512
 30
0.0
 40
1.5
  0
CIRCLE
  5
62
  8
PATTERN_FILL
  6
CONTINUOUS
 62
     7
 10
-200.0
 20
-70.561624370459512
 30
0.0
 40
1.5
  0
CIRCLE
  5
63
  8
PATTERN_FILL
  6
CONTINUOUS
 62
     7
 10
-200.0
 20
-75.561624370459498
 30
0.0
 40
1.5
  0
CIRCLE
  5
64
  8
PATTERN_FILL
  6
CONTINUOUS
 62
     7
 10
-200.0
 20
-80.561624370459498
 30
0.0
 40
1.5
  0
ARC
  5
65
  8
PATTERN_FILL
  6
CONTINUOUS
 62
     7
 10
-200.0
 20
-85.561624370459498
 30
0.0
 40
1.499999999999984
 50
254.68787574653851
 51
144.4645496486927
  0
ARC
  5
66
  8
PATTERN_FILL
  6
CONTINUOUS
 62
     7
 10
-200.0
 20
-90.561624370459512
 30
0.0
 40
1.499999999999972
 50
329.89467137507091
 51
74.261876186357398
  0
ARC
  5
67
  8
PATTERN_FILL
  6
CONTINUOUS
 62
     7
 10
-195.0
 20
-0.5616243704595105
 30
0.0
 40
1.4999999999999989
 50
246.50582577078791
 51
58.508879880983777
  0
CIRCLE
  5
68
  8
PATTERN_FILL
  6
CONTINUOUS
 62
     7
 10
-195.0
 20
-5.5616243704595121
 30
0.0
 40
1.5
  0
CIRCLE
  5
69
  8
PATTERN_FILL
  6
CONTINUOUS
 62
     7
 10
-195.0
 20
-10.56162437045951
 30
0.0
 40
1.5
  0
CIRCLE
  5
6A
  8
PATTERN_FILL
  6
CONTINUOUS
 62
     7
 10
-195.0
 20
-15.56162437045951
 30
0.0
 40
1.5
  0
CIRCLE
  5
6B
  8
PATTERN_FILL
  6
CONTINUOUS
 62
     7
 10
-195.0
 20
-20.561624370459509
 30
0.0
 40
1.5
  0
CIRCLE
  5
6C
  8
PATTERN_FILL
  6
CONTINUOUS
 62
     7
 10
-195.0
 20
-25.561624370459509
 30
0.0
 40
1.5
  0
CIRCLE
  5
6D
  8
PATTERN_FILL
  6
CONTINUOUS
 62
     7
 10
-195.0
 20
-30.561624370459509
 30
0.0
 40
1.5
  0
CIRCLE
  5
6E
  8
PATTERN_FILL
  6
CONTINUOUS
 62
     7
 10
-195.0
 20
-35.561624370459512
 30
0.0
 40
1.5
  0
CIRCLE
  5
6F
  8
PATTERN_FILL
  6
CONTINUOUS
 62
     7
 10
-195.0
 20
-40.561624370459512
 30
0.0
 40
1.5
  0
CIRCLE
  5
70
  8
PATTERN_FILL
  6
CONTINUOUS
 62
     7
 10
-195.0
 20
-45.561624370459512
 30
0.0
 40
1.5
  0
CIRCLE
  5
71
  8
PATTERN_FILL
  6
CONTINUOUS
 62
     7
 10
-195.0
 20
-50.561624370459512
 30
0.0
 40
1.5
  0
CIRCLE
  5
72
  8
PATTERN_FILL
  6
CONTINUOUS
 62
     7
 10
-195.0
 20
-55.561624370459512
 30
0.0
 40
1.5
  0
CIRCLE
  5
73
  8
PATTERN_FILL
  6
CONTINUOUS
 62
     7
 10
-195.0
 20
-60.561624370459512
 30
0.0
 40
1.5
  0
CIRCLE
  5
74
  8
PATTERN_FILL
  6
CONTINUOUS
 62
     7
 10
-195.0
 20
-65.561624370459512
 30
0.0
 40
1.5
  0
CIRCLE
  5
75
  8
PATTERN_FILL
  6
CONTINUOUS
 62
     7
 10
-195.0
 20
-70.561624370459512
 30
0.0
 40
1.5
  0
CIRCLE
  5
76
  8
PATTERN_FILL
  6
CONTINUOUS
 62
     7
 10
-195.0
 20
-75.561624370459498
 30
0.0
 40
1.5
  0
CIRCLE
  5
77
  8
PATTERN_FILL
  6
CONTINUOUS
 62
     7
 10
-195.0
 20
-80.561624370459498
 30
0.0
 40
1.5
  0
CIRCLE
  5
78
  8
PATTERN_FILL
  6
CONTINUOUS
 62
     7
 10
-195.0
 20
-85.561624370459498
 30
0.0
 40
1.5
  0
CIRCLE
  5
79
  8
PATTERN_FILL
  6
CONTINUOUS
 62
     7
 10
-195.0
 20
-90.561624370459512
 30
0.0
 40
1.5
  0
CIRCLE
  5
7A
  8
PATTERN_FILL
  6
CONTINUOUS
 62
     7
 10
-195.0
 20
-95.561624370459512
 30
0.0
 40
1.5
  0
ARC
  5
7B
  8
PATTERN_FILL
  6
CONTINUOUS
 62
     7
 10
-195.0
 20
-100.5616243704595
 30
0.0
 40
1.499999999999992
 50
322.68773369853352
 51
93.358549244512844
  0
ARC
  5
7C
  8
PATTERN_FILL
  6
CONTINUOUS
 62
     7
 10
-190.0
 20
9.4383756295404808
 30
0.0
 40
1.4999999999999929
 50
271.68353741331993
 51
21.43281138947793
  0
CIRCLE
  5
7D
  8
PATTERN_FILL
  6
CONTINUOUS
 62
     7
 10
-190.0
 20
4.438375629540487
 30
0.0
 40
1.5
  0
CIRCLE
  5
7E
  8
PATTERN_FILL
  6
CONTINUOUS
 62
     7
 10
-190.0
 20
-0.5616243704595121
 30
0.0
 40
1.5
  0
CIRCLE
  5
7F
  8
PATTERN_FILL
  6
CONTINUOUS
 62
     7
 10
-190.0
 20
-5.5616243704595121
 30
0.0
 40
1.5
  0
CIRCLE
  5
80
  8
PATTERN_FILL
  6
CONTINUOUS
 62
     7
 10
-190.0
 20
-10.56162437045951
 30
0.0
 40
1.5
  0
CIRCLE
  5
81
  8
PATTERN_FILL
  6
CONTINUOUS
 62
     7
 10
-190.0
 20
-15.56162437045951
 30
0.0
 40
1.5
  0
CIRCLE
  5
82
  8
PATTERN_FILL
  6
CONTINUOUS
 62
     7
 10
-190.0
 20
-20.561624370459509
 30
0.0
 40
1.5
  0
CIRCLE
  5
83
  8
PATTERN_FILL
  6
CONTINUOUS
 62
     7
 10
-190.0
 20
-25.561624370459509
 30
0.0
 40
1.5
  0
CIRCLE
  5
84
  8
PATTERN_FILL
  6
CONTINUOUS
 62
     7
 10
-190.0
 20
-30.561624370459509
 30
0.0
 40
1.5
  0
CIRCLE
  5
85
  8
PATTERN_FILL
  6
CONTINUOUS
 62
     7
 10
-190.0
 20
-35.561624370459512
 30
0.0
 40
1.5
  0
CIRCLE
  5
86
  8
PATTERN_FILL
  6
CONTINUOUS
 62
     7
 10
-190.0
 20
-40.561624370459512
 30
0.0
 40
1.5
  0
CIRCLE
  5
87
  8
PATTERN_FILL
  6
CONTINUOUS
 62
     7
 10
-190.0
 20
-45.561624370459512
 30
0.0
 40
1.5
  0
CIRCLE
  5
88
  8
PATTERN_FILL
  6
CONTINUOUS
 62
     7
 10
-190.0
 20
-50.561624370459512
 30
0.0
 40
1.5
  0
CIRCLE
  5
89
  8
PATTERN_FILL
  6
CONTINUOUS
 62
     7
 10
-190.0
 20
-55.561624370459512
 30
0.0
 40
1.5
  0
CIRCLE
  5
8A
  8
PATTERN_FILL
  6
CONTINUOUS
 62
     7
 10
-190.0
 20
-60.561624370459512
 30
0.0
 40
1.5
  0
CIRCLE
  5
8B
  8
PATTERN_FILL
  6
CONTINUOUS
 62
     7
 10
-190.0
 20
-65.561624370459512
 30
0.0
 40
1.5
  0
CIRCLE
  5
8C
  8
PATTERN_FILL
  6
CONTINUOUS
 62
     7
 10
-190.0
 20
-70.561624370459512
 30
0.0
 40
1.5
  0
CIRCLE
  5
8D
  8
PATTERN_FILL
  6
CONTINUOUS
 62
     7
 10
-190.0
 20
-75.561624370459498
 30
0.0
 40
1.5
  0
CIRCLE
  5
8E
  8
PATTERN_FILL
  6
CONTINUOUS
 62
     7
 10
-190.0
 20
-80.561624370459498
 30
0.0
 40
1.5
  0
CIRCLE
  5
8F
  8
PATTERN_FILL
  6
CONTINUOUS
 62
     7
 10
-190.0
 20
-85.561624370459498
 30
0.0
 40
1.5
  0
CIRCLE
  5
90
  8
PATTERN_FILL
  6
CONTINUOUS
 62
     7
 10
-190.0
 20
-90.561624370459512
 30
0.0
 40
1.5
  0
CIRCLE
  5
91
  8
PATTERN_FILL
  6
CONTINUOUS
 62
     7
 10
-190.0
 20
-95.561624370459512
 30
0.0
 40
1.5
  0
CIRCLE
  5
92
  8
PATTERN_FILL
  6
CONTINUOUS
 62
     7
 10
-190.0
 20
-100.5616243704595
 30
0.0
 40
1.5
  0
ARC
  5
93
  8
PATTERN_FILL
  6
CONTINUOUS
 62
     7
 10
-190.0
 20
-105.5616243704595
 30
0.0
 40
1.500000000000038
 50
246.7731096616379
 51
176.60522064627449
  0
ARC
  5
94
  8
PATTERN_FILL
  6
CONTINUOUS
 62
     7
 10
-185.0
 20
14.43837562954049
 30
0.0
 40
1.499999999999994
 50
220.30007879004759
 51
65.368495704063321
  0
CIRCLE
  5
95
  8
PATTERN_FILL
  6
CONTINUOUS
 62
     7
 10
-185.0
 20
9.4383756295404897
 30
0.0
 40
1.5
  0
CIRCLE
  5
96
  8
PATTERN_FILL
  6
CONTINUOUS
 62
     7
 10
-185.0
 20
4.438375629540487
 30
0.0
 40
1.5
  0
CIRCLE
  5
97
  8
PATTERN_FILL
  6
CONTINUOUS
 62
     7
 10
-185.0
 20
-0.5616243704595121
 30
0.0
 40
1.5
  0
CIRCLE
  5
98
  8
PATTERN_FILL
  6
CONTINUOUS
 62
     7
 10
-185.0
 20
-5.5616243704595121
 30
0.0
 40
1.5
  0
CIRCLE
  5
99
  8
PATTERN_FILL
  6
CONTINUOUS
 62
     7
 10
-185.0
 20
-10.56162437045951
 30
0.0
 40
1.5
  0
CIRCLE
  5
9A
  8
PATTERN_FILL
  6
CONTINUOUS
 62
     7
 10
-185.0
 20
-15.56162437045951
 30
0.0
 40
1.5
  0
CIRCLE
  5
9B
  8
PATTERN_FILL
  6
CONTINUOUS
 62
     7
 10
-185.0
 20
-20.561624370459509
 30
0.0
 40
1.5
  0
CIRCLE
  5
9C
  8
PATTERN_FILL
  6
CONTINUOUS
 62
     7
 10
-185.0
 20
-25.561624370459509
 30
0.0
 40
1.5
  0
CIRCLE
  5
9D
  8
PATTERN_FILL
  6
CONTINUOUS
 62
     7
 10
-185.0
 20
-30.561624370459509
 30
0.0
 40
1.5
  0
CIRCLE
  5
9E
  8
PATTERN_FILL
  6
CONTINUOUS
 62
     7
 10
-185.0
 20
-35.561624370459512
 30
0.0
 40
1.5
  0
CIRCLE
  5
9F
  8
PATTERN_FILL
  6
CONTINUOUS
 62
     7
 10
-185.0
 20
-40.561624370459512
 30
0.0
 40
1.5
  0
CIRCLE
  5
A0
  8
PATTERN_FILL
  6
CONTINUOUS
 62
     7
 10
-185.0
 20
-45.561624370459512
 30
0.0
 40
1.5
  0
CIRCLE
  5
A1
  8
PATTERN_FILL
  6
CONTINUOUS
 62
     7
 10
-185.0
 20
-50.561624370459512
 30
0.0
 40
1.5
  0
CIRCLE
  5
A2
  8
PATTERN_FILL
  6
CONTINUOUS
 62
     7
 10
-185.0
 20
-55.561624370459512
 30
0.0
 40
1.5
  0
CIRCLE
  5
A3
  8
PATTERN_FILL
  6
CONTINUOUS
 62
     7
 10
-185.0
 20
-60.561624370459512
 30
0.0
 40
1.5
  0
CIRCLE
  5
A4
  8
PATTERN_FILL
  6
CONTINUOUS
 62
     7
 10
-185.0
 20
-65.561624370459512
 30
0.0
 40
1.5
  0
CIRCLE
  5
A5
  8
PATTERN_FILL
  6
CONTINUOUS
 62
     7
 10
-185.0
 20
-70.561624370459512
 30
0.0
 40
1.5
  0
CIRCLE
  5
A6
  8
PATTERN_FILL
  6
CONTINUOUS
 62
     7
 10
-185.0
 20
-75.561624370459498
 30
0.0
 40
1.5
  0
CIRCLE
  5
A7
  8
PATTERN_FILL
  6
CONTINUOUS
 62
     7
 10
-185.0
 20
-80.561624370459498
 30
0.0
 40
1.5
  0
CIRCLE
  5
A8
  8
PATTERN_FILL
  6
CONTINUOUS
 62
     7
 10
-185.0
 20
-85.561624370459498
 30
0.0
 40
1.5
  0
CIRCLE
  5
A9
  8
PATTERN_FILL
  6
CONTINUOUS
 62
     7
 10
-185.0
 20
-90.561624370459512
 30
0.0
 40
1.5
  0
CIRCLE
  5
AA
  8
PATTERN_FILL
  6
CONTINUOUS
 62
     7
 10
-185.0
 20
-95.561624370459512
 30
0.0
 40
1.5
  0
CIRCLE
  5
AB
  8
PATTERN_FILL
  6
CONTINUOUS
 62
     7
 10
-185.0
 20
-100.5616243704595
 30
0.0
 40
1.5
  0
CIRCLE
  5
AC
  8
PATTERN_FILL
  6
CONTINUOUS
 62
     7
 10
-185.0
 20
-105.5616243704595
 30
0.0
 40
1.5
  0
CIRCLE
  5
AD
  8
PATTERN_FILL
  6
CONTINUOUS
 62
     7
 10
-185.0
 20
-110.5616243704595
 30
0.0
 40
1.5
  0
ARC
  5
AE
  8
PATTERN_FILL
  6
CONTINUOUS
 62
     7
 10
-185.0
 20
-115.5616243704595
 30
0.0
 40
1.4999999999999869
 50
321.39936787347028
 51
113.8875867058637
  0
ARC
  5
AF
  8
PATTERN_FILL
  6
CONTINUOUS
 62
     7
 10
-180.0
 20
19.438375629540499
 30
0.0
 40
1.4999999999999829
 50
183.95457728342649
 51
94.130788359370882
  0
CIRCLE
  5
B0
  8
PATTERN_FILL
  6
CONTINUOUS
 62
     7
 10
-180.0
 20
14.43837562954049
 30
0.0
 40
1.5
  0
CIRCLE
  5
B1
  8
PATTERN_FILL
  6
CONTINUOUS
 62
     7
 10
-180.0
 20
9.4383756295404897
 30
0.0
 40
1.5
  0
CIRCLE
  5
B2
  8
PATTERN_FILL
  6
CONTINUOUS
 62
     7
 10
-180.0
 20
4.438375629540487
 30
0.0
 40
1.5
  0
CIRCLE
  5
B3
  8
PATTERN_FILL
  6
CONTINUOUS
 62
     7
 10
-180.0
 20
-0.5616243704595121
 30
0.0
 40
1.5
  0
CIRCLE
  5
B4
  8
PATTERN_FILL
  6
CONTINUOUS
 62
     7
 10
-180.0
 20
-5.5616243704595121
 30
0.0
 40
1.5
  0
CIRCLE
  5
B5
  8
PATTERN_FILL
  6
CONTINUOUS
 62
     7
 10
-180.0
 20
-10.56162437045951
 30
0.0
 40
1.5
  0
CIRCLE
  5
B6
  8
PATTERN_FILL
  6
CONTINUOUS
 62
     7
 10
-180.0
 20
-15.56162437045951
 30
0.0
 40
1.5
  0
CIRCLE
  5
B7
  8
PATTERN_FILL
  6
CONTINUOUS
 62
     7
 10
-180.0
 20
-20.561624370459509
 30
0.0
 40
1.5
  0
CIRCLE
  5
B8
  8
PATTERN_FILL
  6
CONTINUOUS
 62
     7
 10
-180.0
 20
-25.561624370459509
 30
0.0
 40
1.5
  0
CIRCLE
  5
B9
  8
PATTERN_FILL
  6
CONTINUOUS
 62
     7
 10
-180.0
 20
-30.561624370459509
 30
0.0
 40
1.5
  0
CIRCLE
  5
BA
  8
PATTERN_FILL
  6
CONTINUOUS
 62
     7
 10
-180.0
 20
-35.561624370459512
 30
0.0
 40
1.5
  0
CIRCLE
  5
BB
  8
PATTERN_FILL
  6
CONTINUOUS
 62
     7
 10
-180.0
 20
-40.561624370459512
 30
0.0
 40
1.5
  0
CIRCLE
  5
BC
  8
PATTERN_FILL
  6
CONTINUOUS
 62
     7
 10
-180.0
 20
-45.561624370459512
 30
0.0
 40
1.5
  0
CIRCLE
  5
BD
  8
PATTERN_FILL
  6
CONTINUOUS
 62
     7
 10
-180.0
 20
-50.561624370459512
 30
0.0
 40
1.5
  0
CIRCLE
  5
BE
  8
PATTERN_FILL
  6
CONTINUOUS
 62
     7
 10
-180.0
 20
-55.561624370459512
 30
0.0
 40
1.5
  0
CIRCLE
  5
BF
  8
PATTERN_FILL
  6
CONTINUOUS
 62
     7
 10
-180.0
 20
-60.561624370459512
 30
0.0
 40
1.5
  0
CIRCLE
  5
C0
  8
PATTERN_FILL
  6
CONTINUOUS
 62
     7
 10
-180.0
 20
-65.561624370459512
 30
0.0
 40
1.5
  0
CIRCLE
  5
C1
  8
PATTERN_FILL
  6
CONTINUOUS
 62
     7
 10
-180.0
 20
-70.561624370459512
 30
0.0
 40
1.5
  0
CIRCLE
  5
C2
  8
PATTERN_FILL
  6
CONTINUOUS
 62
     7
 10
-180.0
 20
-75.561624370459498
 30
0.0
 40
1.5
  0
CIRCLE
  5
C3
  8
PATTERN_FILL
  6
CONTINUOUS
 62
     7
 10
-180.0
 20
-80.561624370459498
 30
0.0
 40
1.5
  0
CIRCLE
  5
C4
  8
PATTERN_FILL
  6
CONTINUOUS
 62
     7
 10
-180.0
 20
-85.561624370459498
 30
0.0
 40
1.5
  0
CIRCLE
  5
C5
  8
PATTERN_FILL
  6
CONTINUOUS
 62
     7
 10
-180.0
 20
-90.561624370459512
 30
0.0
 40
1.5
  0
CIRCLE
  5
C6
  8
PATTERN_FILL
  6
CONTINUOUS
 62
     7
 10
-180.0
 20
-95.561624370459512
 30
0.0
 40
1.5
  0
CIRCLE
  5
C7
  8
PATTERN_FILL
  6
CONTINUOUS
 62
     7
 10
-180.0
 20
-100.5616243704595
 30
0.0
 40
1.5
  0
CIRCLE
  5
C8
  8
PATTERN_FILL
  6
CONTINUOUS
 62
     7
 10
-180.0
 20
-105.5616243704595
 30
0.0
 40
1.5
  0
CIRCLE
  5
C9
  8
PATTERN_FILL
  6
CONTINUOUS
 62
     7
 10
-180.0
 20
-110.5616243704595
 30
0.0
 40
1.5
  0
CIRCLE
  5
CA
  8
PATTERN_FILL
  6
CONTINUOUS
 62
     7
 10
-180.0
 20
-115.5616243704595
 30
0.0
 40
1.5
  0
ARC
  5
CB
  8
PATTERN_FILL
  6
CONTINUOUS
 62
     7
 10
-180.0
 20
-120.5616243704595
 30
0.0
 40
1.499999999999984
 50
299.18001635907819
 51
143.6458796196672
  0
ARC
  5
CC
  8
PATTERN_FILL
  6
CONTINUOUS
 62
     7
 10
-174.99999999999989
 20
24.43837562954041
 30
0.0
 40
1.500000000000105
 50
162.91510838864781
 51
107.54925858304981
  0
CIRCLE
  5
CD
  8
PATTERN_FILL
  6
CONTINUOUS
 62
     7
 10
-175.0
 20
19.438375629540491
 30
0.0
 40
1.5
  0
CIRCLE
  5
CE
  8
PATTERN_FILL
  6
CONTINUOUS
 62
     7
 10
-175.0
 20
14.43837562954049
 30
0.0
 40
1.5
  0
CIRCLE
  5
CF
  8
PATTERN_FILL
  6
CONTINUOUS
 62
     7
 10
-175.0
 20
9.4383756295404897
 30
0.0
 40
1.5
  0
CIRCLE
  5
D0
  8
PATTERN_FILL
  6
CONTINUOUS
 62
     7
 10
-175.0
 20
4.438375629540487
 30
0.0
 40
1.5
  0
CIRCLE
  5
D1
  8
PATTERN_FILL
  6
CONTINUOUS
 62
     7
 10
-175.0
 20
-0.5616243704595121
 30
0.0
 40
1.5
  0
CIRCLE
  5
D2
  8
PATTERN_FILL
  6
CONTINUOUS
 62
     7
 10
-175.0
 20
-5.5616243704595121
 30
0.0
 40
1.5
  0
CIRCLE
  5
D3
  8
PATTERN_FILL
  6
CONTINUOUS
 62
     7
 10
-175.0
 20
-10.56162437045951
 30
0.0
 40
1.5
  0
CIRCLE
  5
D4
  8
PATTERN_FILL
  6
CONTINUOUS
 62
     7
 10
-175.0
 20
-15.56162437045951
 30
0.0
 40
1.5
  0
CIRCLE
  5
D5
  8
PATTERN_FILL
  6
CONTINUOUS
 62
     7
 10
-175.0
 20
-20.561624370459509
 30
0.0
 40
1.5
  0
CIRCLE
  5
D6
  8
PATTERN_FILL
  6
CONTINUOUS
 62
     7
 10
-175.0
 20
-25.561624370459509
 30
0.0
 40
1.5
  0
CIRCLE
  5
D7
  8
PATTERN_FILL
  6
CONTINUOUS
 62
     7
 10
-175.0
 20
-30.561624370459509
 30
0.0
 40
1.5
  0
CIRCLE
  5
D8
  8
PATTERN_FILL
  6
CONTINUOUS
 62
     7
 10
-175.0
 20
-35.561624370459512
 30
0.0
 40
1.5
  0
CIRCLE
  5
D9
  8
PATTERN_FILL
  6
CONTINUOUS
 62
     7
 10
-175.0
 20
-40.561624370459512
 30
0.0
 40
1.5
  0
CIRCLE
  5
DA
  8
PATTERN_FILL
  6
CONTINUOUS
 62
     7
 10
-175.0
 20
-45.561624370459512
 30
0.0
 40
1.5
  0
CIRCLE
  5
DB
  8
PATTERN_FILL
  6
CONTINUOUS
 62
     7
 10
-175.0
 20
-50.561624370459512
 30
0.0
 40
1.5
  0
CIRCLE
  5
DC
  8
PATTERN_FILL
  6
CONTINUOUS
 62
     7
 10
-175.0
 20
-55.561624370459512
 30
0.0
 40
1.5
  0
CIRCLE
  5
DD
  8
PATTERN_FILL
  6
CONTINUOUS
 62
     7
 10
-175.0
 20
-60.561624370459512
 30
0.0
 40
1.5
  0
CIRCLE
  5
DE
  8
PATTERN_FILL
  6
CONTINUOUS
 62
     7
 10
-175.0
 20
-65.561624370459512
 30
0.0
 40
1.5
  0
CIRCLE
  5
DF
  8
PATTERN_FILL
  6
CONTINUOUS
 62
     7
 10
-175.0
 20
-70.561624370459512
 30
0.0
 40
1.5
  0
CIRCLE
  5
E0
  8
PATTERN_FILL
  6
CONTINUOUS
 62
     7
 10
-175.0
 20
-75.561624370459498
 30
0.0
 40
1.5
  0
CIRCLE
  5
E1
  8
PATTERN_FILL
  6
CONTINUOUS
 62
     7
 10
-175.0
 20
-80.561624370459498
 30
0.0
 40
1.5
  0
CIRCLE
  5
E2
  8
PATTERN_FILL
  6
CONTINUOUS
 62
     7
 10
-175.0
 20
-85.561624370459498
 30
0.0
 40
1.5
  0
CIRCLE
  5
E3
  8
PATTERN_FILL
  6
CONTINUOUS
 62
     7
 10
-175.0
 20
-90.561624370459512
 30
0.0
 40
1.5
  0
CIRCLE
  5
E4
  8
PATTERN_FILL
  6
CONTINUOUS
 62
     7
 10
-175.0
 20
-95.561624370459512
 30
0.0
 40
1.5
  0
CIRCLE
  5
E5
  8
PATTERN_FILL
  6
CONTINUOUS
 62
     7
 10
-175.0
 20
-100.5616243704595
 30
0.0
 40
1.5
  0
CIRCLE
  5
E6
  8
PATTERN_FILL
  6
CONTINUOUS
 62
     7
 10
-175.0
 20
-105.5616243704595
 30
0.0
 40
1.5
  0
CIRCLE
  5
E7
  8
PATTERN_FILL
  6
CONTINUOUS
 62
     7
 10
-175.0
 20
-110.5616243704595
 30
0.0
 40
1.5
  0
CIRCLE
  5
E8
  8
PATTERN_FILL
  6
CONTINUOUS
 62
     7
 10
-175.0
 20
-115.5616243704595
 30
0.0
 40
1.5
  0
CIRCLE
  5
E9
  8
PATTERN_FILL
  6
CONTINUOUS
 62
     7
 10
-175.0
 20
-120.5616243704595
 30
0.0
 40
1.5
  0
ARC
  5
EA
  8
PATTERN_FILL
  6
CONTINUOUS
 62
     7
 10
-175.0
 20
-125.5616243704595
 30
0.0
 40
1.5000000000000111
 50
294.649051921808
 51
155.77839507188651
  0
ARC
  5
EB
  8
PATTERN_FILL
  6
CONTINUOUS
 62
     7
 10
-170.0
 20
29.438375629540481
 30
0.0
 40
1.5000000000000271
 50
173.32045320425169
 51
89.451661231441378
  0
CIRCLE
  5
EC
  8
PATTERN_FILL
  6
CONTINUOUS
 62
     7
 10
-170.0
 20
24.438375629540491
 30
0.0
 40
1.5
  0
CIRCLE
  5
ED
  8
PATTERN_FILL
  6
CONTINUOUS
 62
     7
 10
-170.0
 20
19.438375629540491
 30
0.0
 40
1.5
  0
CIRCLE
  5
EE
  8
PATTERN_FILL
  6
CONTINUOUS
 62
     7
 10
-170.0
 20
14.43837562954049
 30
0.0
 40
1.5
  0
CIRCLE
  5
EF
  8
PATTERN_FILL
  6
CONTINUOUS
 62
     7
 10
-170.0
 20
9.4383756295404897
 30
0.0
 40
1.5
  0
CIRCLE
  5
F0
  8
PATTERN_FILL
  6
CONTINUOUS
 62
     7
 10
-170.0
 20
4.438375629540487
 30
0.0
 40
1.5
  0
CIRCLE
  5
F1
  8
PATTERN_FILL
  6
CONTINUOUS
 62
     7
 10
-170.0
 20
-0.5616243704595121
 30
0.0
 40
1.5
  0
CIRCLE
  5
F2
  8
PATTERN_FILL
  6
CONTINUOUS
 62
     7
 10
-170.0
 20
-5.5616243704595121
 30
0.0
 40
1.5
  0
CIRCLE
  5
F3
  8
PATTERN_FILL
  6
CONTINUOUS
 62
     7
 10
-170.0
 20
-10.56162437045951
 30
0.0
 40
1.5
  0
CIRCLE
  5
F4
  8
PATTERN_FILL
  6
CONTINUOUS
 62
     7
 10
-170.0
 20
-15.56162437045951
 30
0.0
 40
1.5
  0
CIRCLE
  5
F5
  8
PATTERN_FILL
  6
CONTINUOUS
 62
     7
 10
-170.0
 20
-20.561624370459509
 30
0.0
 40
1.5
  0
CIRCLE
  5
F6
  8
PATTERN_FILL
  6
CONTINUOUS
 62
     7
 10
-170.0
 20
-25.561624370459509
 30
0.0
 40
1.5
  0
CIRCLE
  5
F7
  8
PATTERN_FILL
  6
CONTINUOUS
 62
     7
 10
-170.0
 20
-30.561624370459509
 30
0.0
 40
1.5
  0
CIRCLE
  5
F8
  8
PATTERN_FILL
  6
CONTINUOUS
 62
     7
 10
-170.0
 20
-35.561624370459512
 30
0.0
 40
1.5
  0
CIRCLE
  5
F9
  8
PATTERN_FILL
  6
CONTINUOUS
 62
     7
 10
-170.0
 20
-40.561624370459512
 30
0.0
 40
1.5
  0
CIRCLE
  5
FA
  8
PATTERN_FILL
  6
CONTINUOUS
 62
     7
 10
-170.0
 20
-45.561624370459512
 30
0.0
 40
1.5
  0
CIRCLE
  5
FB
  8
PATTERN_FILL
  6
CONTINUOUS
 62
     7
 10
-170.0
 20
-50.561624370459512
 30
0.0
 40
1.5
  0
CIRCLE
  5
FC
  8
PATTERN_FILL
  6
CONTINUOUS
 62
     7
 10
-170.0
 20
-55.561624370459512
 30
0.0
 40
1.5
  0
CIRCLE
  5
FD
  8
PATTERN_FILL
  6
CONTINUOUS
 62
     7
 10
-170.0
 20
-60.561624370459512
 30
0.0
 40
1.5
  0
CIRCLE
  5
FE
  8
PATTERN_FILL
  6
CONTINUOUS
 62
     7
 10
-170.0
 20
-65.561624370459512
 30
0.0
 40
1.5
  0
CIRCLE
  5
FF
  8
PATTERN_FILL
  6
CONTINUOUS
 62
     7
 10
-170.0
 20
-70.561624370459512
 30
0.0
 40
1.5
  0
CIRCLE
  5
100
  8
PATTERN_FILL
  6
CONTINUOUS
 62
     7
 10
-170.0
 20
-75.561624370459498
 30
0.0
 40
1.5
  0
CIRCLE
  5
101
  8
PATTERN_FILL
  6
CONTINUOUS
 62
     7
 10
-170.0
 20
-80.561624370459498
 30
0.0
 40
1.5
  0
CIRCLE
  5
102
  8
PATTERN_FILL
  6
CONTINUOUS
 62
     7
 10
-170.0
 20
-85.561624370459498
 30
0.0
 40
1.5
  0
CIRCLE
  5
103
  8
PATTERN_FILL
  6
CONTINUOUS
 62
     7
 10
-170.0
 20
-90.561624370459512
 30
0.0
 40
1.5
  0
CIRCLE
  5
104
  8
PATTERN_FILL
  6
CONTINUOUS
 62
     7
 10
-170.0
 20
-95.561624370459512
 30
0.0
 40
1.5
  0
CIRCLE
  5
105
  8
PATTERN_FILL
  6
CONTINUOUS
 62
     7
 10
-170.0
 20
-100.5616243704595
 30
0.0
 40
1.5
  0
CIRCLE
  5
106
  8
PATTERN_FILL
  6
CONTINUOUS
 62
     7
 10
-170.0
 20
-105.5616243704595
 30
0.0
 40
1.5
  0
CIRCLE
  5
107
  8
PATTERN_FILL
  6
CONTINUOUS
 62
     7
 10
-170.0
 20
-110.5616243704595
 30
0.0
 40
1.5
  0
CIRCLE
  5
108
  8
PATTERN_FILL
  6
CONTINUOUS
 62
     7
 10
-170.0
 20
-115.5616243704595
 30
0.0
 40
1.5
  0
CIRCLE
  5
109
  8
PATTERN_FILL
  6
CONTINUOUS
 62
     7
 10
-170.0
 20
-120.5616243704595
 30
0.0
 40
1.5
  0
CIRCLE
  5
10A
  8
PATTERN_FILL
  6
CONTINUOUS
 62
     7
 10
-170.0
 20
-125.5616243704595
 30
0.0
 40
1.5
  0
ARC
  5
10B
  8
PATTERN_FILL
  6
CONTINUOUS
 62
     7
 10
-170.0
 20
-130.5616243704595
 30
0.0
 40
1.4999999999999929
 50
308.83504050255351
 51
149.19020291991831
  0
ARC
  5
10C
  8
PATTERN_FILL
  6
CONTINUOUS
 62
     7
 10
-164.99999999999989
 20
34.438375629540481
 30
0.0
 40
1.500000000000032
 50
200.87979461487089
 51
54.297794757796609
  0
CIRCLE
  5
10D
  8
PATTERN_FILL
  6
CONTINUOUS
 62
     7
 10
-165.0
 20
29.438375629540491
 30
0.0
 40
1.5
  0
CIRCLE
  5
10E
  8
PATTERN_FILL
  6
CONTINUOUS
 62
     7
 10
-165.0
 20
24.438375629540491
 30
0.0
 40
1.5
  0
CIRCLE
  5
10F
  8
PATTERN_FILL
  6
CONTINUOUS
 62
     7
 10
-165.0
 20
19.438375629540491
 30
0.0
 40
1.5
  0
CIRCLE
  5
110
  8
PATTERN_FILL
  6
CONTINUOUS
 62
     7
 10
-165.0
 20
14.43837562954049
 30
0.0
 40
1.5
  0
CIRCLE
  5
111
  8
PATTERN_FILL
  6
CONTINUOUS
 62
     7
 10
-165.0
 20
9.4383756295404897
 30
0.0
 40
1.5
  0
CIRCLE
  5
112
  8
PATTERN_FILL
  6
CONTINUOUS
 62
     7
 10
-165.0
 20
4.438375629540487
 30
0.0
 40
1.5
  0
CIRCLE
  5
113
  8
PATTERN_FILL
  6
CONTINUOUS
 62
     7
 10
-165.0
 20
-0.5616243704595121
 30
0.0
 40
1.5
  0
CIRCLE
  5
114
  8
PATTERN_FILL
  6
CONTINUOUS
 62
     7
 10
-165.0
 20
-5.5616243704595121
 30
0.0
 40
1.5
  0
CIRCLE
  5
115
  8
PATTERN_FILL
  6
CONTINUOUS
 62
     7
 10
-165.0
 20
-10.56162437045951
 30
0.0
 40
1.5
  0
CIRCLE
  5
116
  8
PATTERN_FILL
  6
CONTINUOUS
 62
     7
 10
-165.0
 20
-15.56162437045951
 30
0.0
 40
1.5
  0
CIRCLE
  5
117
  8
PATTERN_FILL
  6
CONTINUOUS
 62
     7
 10
-165.0
 20
-20.561624370459509
 30
0.0
 40
1.5
  0
CIRCLE
  5
118
  8
PATTERN_FILL
  6
CONTINUOUS
 62
     7
 10
-165.0
 20
-25.561624370459509
 30
0.0
 40
1.5
  0
CIRCLE
  5
119
  8
PATTERN_FILL
  6
CONTINUOUS
 62
     7
 10
-165.0
 20
-30.561624370459509
 30
0.0
 40
1.5
  0
CIRCLE
  5
11A
  8
PATTERN_FILL
  6
CONTINUOUS
 62
     7
 10
-165.0
 20
-35.561624370459512
 30
0.0
 40
1.5
  0
CIRCLE
  5
11B
  8
PATTERN_FILL
  6
CONTINUOUS
 62
     7
 10
-165.0
 20
-40.561624370459512
 30
0.0
 40
1.5
  0
CIRCLE
  5
11C
  8
PATTERN_FILL
  6
CONTINUOUS
 62
     7
 10
-165.0
 20
-45.561624370459512
 30
0.0
 40
1.5
  0
CIRCLE
  5
11D
  8
PATTERN_FILL
  6
CONTINUOUS
 62
     7
 10
-165.0
 20
-50.561624370459512
 30
0.0
 40
1.5
  0
CIRCLE
  5
11E
  8
PATTERN_FILL
  6
CONTINUOUS
 62
     7
 10
-165.0
 20
-55.561624370459512
 30
0.0
 40
1.5
  0
CIRCLE
  5
11F
  8
PATTERN_FILL
  6
CONTINUOUS
 62
     7
 10
-165.0
 20
-60.561624370459512
 30
0.0
 40
1.5
  0
CIRCLE
  5
120
  8
PATTERN_FILL
  6
CONTINUOUS
 62
     7
 10
-165.0
 20
-65.561624370459512
 30
0.0
 40
1.5
  0
CIRCLE
  5
121
  8
PATTERN_FILL
  6
CONTINUOUS
 62
     7
 10
-165.0
 20
-70.561624370459512
 30
0.0
 40
1.5
  0
CIRCLE
  5
122
  8
PATTERN_FILL
  6
CONTINUOUS
 62
     7
 10
-165.0
 20
-75.561624370459498
 30
0.0
 40
1.5
  0
CIRCLE
  5
123
  8
PATTERN_FILL
  6
CONTINUOUS
 62
     7
 10
-165.0
 20
-80.561624370459498
 30
0.0
 40
1.5
  0
CIRCLE
  5
124
  8
PATTERN_FILL
  6
CONTINUOUS
 62
     7
 10
-165.0
 20
-85.561624370459498
 30
0.0
 40
1.5
  0
CIRCLE
  5
125
  8
PATTERN_FILL
  6
CONTINUOUS
 62
     7
 10
-165.0
 20
-90.561624370459512
 30
0.0
 40
1.5
  0
CIRCLE
  5
126
  8
PATTERN_FILL
  6
CONTINUOUS
 62
     7
 10
-165.0
 20
-95.561624370459512
 30
0.0
 40
1.5
  0
CIRCLE
  5
127
  8
PATTERN_FILL
  6
CONTINUOUS
 62
     7
 10
-165.0
 20
-100.5616243704595
 30
0.0
 40
1.5
  0
CIRCLE
  5
128
  8
PATTERN_FILL
  6
CONTINUOUS
 62
     7
 10
-165.0
 20
-105.5616243704595
 30
0.0
 40
1.5
  0
CIRCLE
  5
129
  8
PATTERN_FILL
  6
CONTINUOUS
 62
     7
 10
-165.0
 20
-110.5616243704595
 30
0.0
 40
1.5
  0
CIRCLE
  5
12A
  8
PATTERN_FILL
  6
CONTINUOUS
 62
     7
 10
-165.0
 20
-115.5616243704595
 30
0.0
 40
1.5
  0
CIRCLE
  5
12B
  8
PATTERN_FILL
  6
CONTINUOUS
 62
     7
 10
-165.0
 20
-120.5616243704595
 30
0.0
 40
1.5
  0
CIRCLE
  5
12C
  8
PATTERN_FILL
  6
CONTINUOUS
 62
     7
 10
-165.0
 20
-125.5616243704595
 30
0.0
 40
1.5
  0
CIRCLE
  5
12D
  8
PATTERN_FILL
  6
CONTINUOUS
 62
     7
 10
-165.0
 20
-130.5616243704595
 30
0.0
 40
1.5
  0
ARC
  5
12E
  8
PATTERN_FILL
  6
CONTINUOUS
 62
     7
 10
-164.99999999999989
 20
-135.5616243704595
 30
0.0
 40
1.4999999999999889
 50
340.66981896544542
 51
124.8832973972013
  0
ARC
  5
12F
  8
PATTERN_FILL
  6
CONTINUOUS
 62
     7
 10
-160.0
 20
39.438375629540531
 30
0.0
 40
1.5000000000000051
 50
242.01402257687769
 51
5.6975815745034302
  0
CIRCLE
  5
130
  8
PATTERN_FILL
  6
CONTINUOUS
 62
     7
 10
-160.0
 20
34.438375629540488
 30
0.0
 40
1.5
  0
CIRCLE
  5
131
  8
PATTERN_FILL
  6
CONTINUOUS
 62
     7
 10
-160.0
 20
29.438375629540491
 30
0.0
 40
1.5
  0
CIRCLE
  5
132
  8
PATTERN_FILL
  6
CONTINUOUS
 62
     7
 10
-160.0
 20
24.438375629540491
 30
0.0
 40
1.5
  0
CIRCLE
  5
133
  8
PATTERN_FILL
  6
CONTINUOUS
 62
     7
 10
-160.0
 20
19.438375629540491
 30
0.0
 40
1.5
  0
CIRCLE
  5
134
  8
PATTERN_FILL
  6
CONTINUOUS
 62
     7
 10
-160.0
 20
14.43837562954049
 30
0.0
 40
1.5
  0
CIRCLE
  5
135
  8
PATTERN_FILL
  6
CONTINUOUS
 62
     7
 10
-160.0
 20
9.4383756295404897
 30
0.0
 40
1.5
  0
CIRCLE
  5
136
  8
PATTERN_FILL
  6
CONTINUOUS
 62
     7
 10
-160.0
 20
4.438375629540487
 30
0.0
 40
1.5
  0
CIRCLE
  5
137
  8
PATTERN_FILL
  6
CONTINUOUS
 62
     7
 10
-160.0
 20
-0.5616243704595121
 30
0.0
 40
1.5
  0
CIRCLE
  5
138
  8
PATTERN_FILL
  6
CONTINUOUS
 62
     7
 10
-160.0
 20
-5.5616243704595121
 30
0.0
 40
1.5
  0
CIRCLE
  5
139
  8
PATTERN_FILL
  6
CONTINUOUS
 62
     7
 10
-160.0
 20
-10.56162437045951
 30
0.0
 40
1.5
  0
CIRCLE
  5
13A
  8
PATTERN_FILL
  6
CONTINUOUS
 62
     7
 10
-160.0
 20
-15.56162437045951
 30
0.0
 40
1.5
  0
CIRCLE
  5
13B
  8
PATTERN_FILL
  6
CONTINUOUS
 62
     7
 10
-160.0
 20
-20.561624370459509
 30
0.0
 40
1.5
  0
CIRCLE
  5
13C
  8
PATTERN_FILL
  6
CONTINUOUS
 62
     7
 10
-160.0
 20
-25.561624370459509
 30
0.0
 40
1.5
  0
CIRCLE
  5
13D
  8
PATTERN_FILL
  6
CONTINUOUS
 62
     7
 10
-160.0
 20
-30.561624370459509
 30
0.0
 40
1.5
  0
CIRCLE
  5
13E
  8
PATTERN_FILL
  6
CONTINUOUS
 62
     7
 10
-160.0
 20
-35.561624370459512
 30
0.0
 40
1.5
  0
CIRCLE
  5
13F
  8
PATTERN_FILL
  6
CONTINUOUS
 62
     7
 10
-160.0
 20
-40.561624370459512
 30
0.0
 40
1.5
  0
CIRCLE
  5
140
  8
PATTERN_FILL
  6
CONTINUOUS
 62
     7
 10
-160.0
 20
-45.561624370459512
 30
0.0
 40
1.5
  0
CIRCLE
  5
141
  8
PATTERN_FILL
  6
CONTINUOUS
 62
     7
 10
-160.0
 20
-50.561624370459512
 30
0.0
 40
1.5
  0
CIRCLE
  5
142
  8
PATTERN_FILL
  6
CONTINUOUS
 62
     7
 10
-160.0
 20
-55.561624370459512
 30
0.0
 40
1.5
  0
CIRCLE
  5
143
  8
PATTERN_FILL
  6
CONTINUOUS
 62
     7
 10
-160.0
 20
-60.561624370459512
 30
0.0
 40
1.5
  0
CIRCLE
  5
144
  8
PATTERN_FILL
  6
CONTINUOUS
 62
     7
 10
-160.0
 20
-65.561624370459512
 30
0.0
 40
1.5
  0
CIRCLE
  5
145
  8
PATTERN_FILL
  6
CONTINUOUS
 62
     7
 10
-160.0
 20
-70.561624370459512
 30
0.0
 40
1.5
  0
CIRCLE
  5
146
  8
PATTERN_FILL
  6
CONTINUOUS
 62
     7
 10
-160.0
 20
-75.561624370459498
 30
0.0
 40
1.5
  0
CIRCLE
  5
147
  8
PATTERN_FILL
  6
CONTINUOUS
 62
     7
 10
-160.0
 20
-80.561624370459498
 30
0.0
 40
1.5
  0
CIRCLE
  5
148
  8
PATTERN_FILL
  6
CONTINUOUS
 62
     7
 10
-160.0
 20
-85.561624370459498
 30
0.0
 40
1.5
  0
CIRCLE
  5
149
  8
PATTERN_FILL
  6
CONTINUOUS
 62
     7
 10
-160.0
 20
-90.561624370459512
 30
0.0
 40
1.5
  0
CIRCLE
  5
14A
  8
PATTERN_FILL
  6
CONTINUOUS
 62
     7
 10
-160.0
 20
-95.561624370459512
 30
0.0
 40
1.5
  0
CIRCLE
  5
14B
  8
PATTERN_FILL
  6
CONTINUOUS
 62
     7
 10
-160.0
 20
-100.5616243704595
 30
0.0
 40
1.5
  0
CIRCLE
  5
14C
  8
PATTERN_FILL
  6
CONTINUOUS
 62
     7
 10
-160.0
 20
-105.5616243704595
 30
0.0
 40
1.5
  0
CIRCLE
  5
14D
  8
PATTERN_FILL
  6
CONTINUOUS
 62
     7
 10
-160.0
 20
-110.5616243704595
 30
0.0
 40
1.5
  0
CIRCLE
  5
14E
  8
PATTERN_FILL
  6
CONTINUOUS
 62
     7
 10
-160.0
 20
-115.5616243704595
 30
0.0
 40
1.5
  0
CIRCLE
  5
14F
  8
PATTERN_FILL
  6
CONTINUOUS
 62
     7
 10
-160.0
 20
-120.5616243704595
 30
0.0
 40
1.5
  0
CIRCLE
  5
150
  8
PATTERN_FILL
  6
CONTINUOUS
 62
     7
 10
-160.0
 20
-125.5616243704595
 30
0.0
 40
1.5
  0
CIRCLE
  5
151
  8
PATTERN_FILL
  6
CONTINUOUS
 62
     7
 10
-160.0
 20
-130.5616243704595
 30
0.0
 40
1.5
  0
CIRCLE
  5
152
  8
PATTERN_FILL
  6
CONTINUOUS
 62
     7
 10
-160.0
 20
-135.5616243704595
 30
0.0
 40
1.5
  0
CIRCLE
  5
153
  8
PATTERN_FILL
  6
CONTINUOUS
 62
     7
 10
-155.0
 20
39.438375629540488
 30
0.0
 40
1.5
  0
CIRCLE
  5
154
  8
PATTERN_FILL
  6
CONTINUOUS
 62
     7
 10
-155.0
 20
34.438375629540488
 30
0.0
 40
1.5
  0
CIRCLE
  5
155
  8
PATTERN_FILL
  6
CONTINUOUS
 62
     7
 10
-155.0
 20
29.438375629540491
 30
0.0
 40
1.5
  0
CIRCLE
  5
156
  8
PATTERN_FILL
  6
CONTINUOUS
 62
     7
 10
-155.0
 20
24.438375629540491
 30
0.0
 40
1.5
  0
CIRCLE
  5
157
  8
PATTERN_FILL
  6
CONTINUOUS
 62
     7
 10
-155.0
 20
19.438375629540491
 30
0.0
 40
1.5
  0
CIRCLE
  5
158
  8
PATTERN_FILL
  6
CONTINUOUS
 62
     7
 10
-155.0
 20
14.43837562954049
 30
0.0
 40
1.5
  0
CIRCLE
  5
159
  8
PATTERN_FILL
  6
CONTINUOUS
 62
     7
 10
-155.0
 20
9.4383756295404897
 30
0.0
 40
1.5
  0
CIRCLE
  5
15A
  8
PATTERN_FILL
  6
CONTINUOUS
 62
     7
 10
-155.0
 20
4.438375629540487
 30
0.0
 40
1.5
  0
CIRCLE
  5
15B
  8
PATTERN_FILL
  6
CONTINUOUS
 62
     7
 10
-155.0
 20
-0.5616243704595121
 30
0.0
 40
1.5
  0
CIRCLE
  5
15C
  8
PATTERN_FILL
  6
CONTINUOUS
 62
     7
 10
-155.0
 20
-5.5616243704595121
 30
0.0
 40
1.5
  0
CIRCLE
  5
15D
  8
PATTERN_FILL
  6
CONTINUOUS
 62
     7
 10
-155.0
 20
-10.56162437045951
 30
0.0
 40
1.5
  0
CIRCLE
  5
15E
  8
PATTERN_FILL
  6
CONTINUOUS
 62
     7
 10
-155.0
 20
-15.56162437045951
 30
0.0
 40
1.5
  0
CIRCLE
  5
15F
  8
PATTERN_FILL
  6
CONTINUOUS
 62
     7
 10
-155.0
 20
-20.561624370459509
 30
0.0
 40
1.5
  0
CIRCLE
  5
160
  8
PATTERN_FILL
  6
CONTINUOUS
 62
     7
 10
-155.0
 20
-25.561624370459509
 30
0.0
 40
1.5
  0
CIRCLE
  5
161
  8
PATTERN_FILL
  6
CONTINUOUS
 62
     7
 10
-155.0
 20
-30.561624370459509
 30
0.0
 40
1.5
  0
CIRCLE
  5
162
  8
PATTERN_FILL
  6
CONTINUOUS
 62
     7
 10
-155.0
 20
-35.561624370459512
 30
0.0
 40
1.5
  0
CIRCLE
  5
163
  8
PATTERN_FILL
  6
CONTINUOUS
 62
     7
 10
-155.0
 20
-40.561624370459512
 30
0.0
 40
1.5
  0
CIRCLE
  5
164
  8
PATTERN_FILL
  6
CONTINUOUS
 62
     7
 10
-155.0
 20
-45.561624370459512
 30
0.0
 40
1.5
  0
CIRCLE
  5
165
  8
PATTERN_FILL
  6
CONTINUOUS
 62
     7
 10
-155.0
 20
-50.561624370459512
 30
0.0
 40
1.5
  0
CIRCLE
  5
166
  8
PATTERN_FILL
  6
CONTINUOUS
 62
     7
 10
-155.0
 20
-55.561624370459512
 30
0.0
 40
1.5
  0
CIRCLE
  5
167
  8
PATTERN_FILL
  6
CONTINUOUS
 62
     7
 10
-155.0
 20
-60.561624370459512
 30
0.0
 40
1.5
  0
CIRCLE
  5
168
  8
PATTERN_FILL
  6
CONTINUOUS
 62
     7
 10
-155.0
 20
-65.561624370459512
 30
0.0
 40
1.5
  0
CIRCLE
  5
169
  8
PATTERN_FILL
  6
CONTINUOUS
 62
     7
 10
-155.0
 20
-70.561624370459512
 30
0.0
 40
1.5
  0
CIRCLE
  5
16A
  8
PATTERN_FILL
  6
CONTINUOUS
 62
     7
 10
-155.0
 20
-75.561624370459498
 30
0.0
 40
1.5
  0
CIRCLE
  5
16B
  8
PATTERN_FILL
  6
CONTINUOUS
 62
     7
 10
-155.0
 20
-80.561624370459498
 30
0.0
 40
1.5
  0
CIRCLE
  5
16C
  8
PATTERN_FILL
  6
CONTINUOUS
 62
     7
 10
-155.0
 20
-85.561624370459498
 30
0.0
 40
1.5
  0
CIRCLE
  5
16D
  8
PATTERN_FILL
  6
CONTINUOUS
 62
     7
 10
-155.0
 20
-90.561624370459512
 30
0.0
 40
1.5
  0
CIRCLE
  5
16E
  8
PATTERN_FILL
  6
CONTINUOUS
 62
     7
 10
-155.0
 20
-95.561624370459512
 30
0.0
 40
1.5
  0
CIRCLE
  5
16F
  8
PATTERN_FILL
  6
CONTINUOUS
 62
     7
 10
-155.0
 20
-100.5616243704595
 30
0.0
 40
1.5
  0
CIRCLE
  5
170
  8
PATTERN_FILL
  6
CONTINUOUS
 62
     7
 10
-155.0
 20
-105.5616243704595
 30
0.0
 40
1.5
  0
CIRCLE
  5
171
  8
PATTERN_FILL
  6
CONTINUOUS
 62
     7
 10
-155.0
 20
-110.5616243704595
 30
0.0
 40
1.5
  0
CIRCLE
  5
172
  8
PATTERN_FILL
  6
CONTINUOUS
 62
     7
 10
-155.0
 20
-115.5616243704595
 30
0.0
 40
1.5
  0
CIRCLE
  5
173
  8
PATTERN_FILL
  6
CONTINUOUS
 62
     7
 10
-155.0
 20
-120.5616243704595
 30
0.0
 40
1.5
  0
CIRCLE
  5
174
  8
PATTERN_FILL
  6
CONTINUOUS
 62
     7
 10
-155.0
 20
-125.5616243704595
 30
0.0
 40
1.5
  0
CIRCLE
  5
175
  8
PATTERN_FILL
  6
CONTINUOUS
 62
     7
 10
-155.0
 20
-130.5616243704595
 30
0.0
 40
1.5
  0
CIRCLE
  5
176
  8
PATTERN_FILL
  6
CONTINUOUS
 62
     7
 10
-155.0
 20
-135.5616243704595
 30
0.0
 40
1.5
  0
ARC
  5
177
  8
PATTERN_FILL
  6
CONTINUOUS
 62
     7
 10
-155.0
 20
-140.5616243704595
 30
0.0
 40
1.499999999999982
 50
284.84517048118443
 51
192.61242989184129
  0
ARC
  5
178
  8
PATTERN_FILL
  6
CONTINUOUS
 62
     7
 10
-150.0
 20
44.438375629540481
 30
0.0
 40
1.49999999999999
 50
202.86230479085901
 51
32.935282301266398
  0
CIRCLE
  5
179
  8
PATTERN_FILL
  6
CONTINUOUS
 62
     7
 10
-150.0
 20
39.438375629540488
 30
0.0
 40
1.5
  0
CIRCLE
  5
17A
  8
PATTERN_FILL
  6
CONTINUOUS
 62
     7
 10
-150.0
 20
34.438375629540488
 30
0.0
 40
1.5
  0
CIRCLE
  5
17B
  8
PATTERN_FILL
  6
CONTINUOUS
 62
     7
 10
-150.0
 20
29.438375629540491
 30
0.0
 40
1.5
  0
CIRCLE
  5
17C
  8
PATTERN_FILL
  6
CONTINUOUS
 62
     7
 10
-150.0
 20
24.438375629540491
 30
0.0
 40
1.5
  0
CIRCLE
  5
17D
  8
PATTERN_FILL
  6
CONTINUOUS
 62
     7
 10
-150.0
 20
19.438375629540491
 30
0.0
 40
1.5
  0
CIRCLE
  5
17E
  8
PATTERN_FILL
  6
CONTINUOUS
 62
     7
 10
-150.0
 20
14.43837562954049
 30
0.0
 40
1.5
  0
CIRCLE
  5
17F
  8
PATTERN_FILL
  6
CONTINUOUS
 62
     7
 10
-150.0
 20
9.4383756295404897
 30
0.0
 40
1.5
  0
CIRCLE
  5
180
  8
PATTERN_FILL
  6
CONTINUOUS
 62
     7
 10
-150.0
 20
4.438375629540487
 30
0.0
 40
1.5
  0
CIRCLE
  5
181
  8
PATTERN_FILL
  6
CONTINUOUS
 62
     7
 10
-150.0
 20
-0.5616243704595121
 30
0.0
 40
1.5
  0
CIRCLE
  5
182
  8
PATTERN_FILL
  6
CONTINUOUS
 62
     7
 10
-150.0
 20
-5.5616243704595121
 30
0.0
 40
1.5
  0
CIRCLE
  5
183
  8
PATTERN_FILL
  6
CONTINUOUS
 62
     7
 10
-150.0
 20
-10.56162437045951
 30
0.0
 40
1.5
  0
CIRCLE
  5
184
  8
PATTERN_FILL
  6
CONTINUOUS
 62
     7
 10
-150.0
 20
-15.56162437045951
 30
0.0
 40
1.5
  0
CIRCLE
  5
185
  8
PATTERN_FILL
  6
CONTINUOUS
 62
     7
 10
-150.0
 20
-20.561624370459509
 30
0.0
 40
1.5
  0
CIRCLE
  5
186
  8
PATTERN_FILL
  6
CONTINUOUS
 62
     7
 10
-150.0
 20
-25.561624370459509
 30
0.0
 40
1.5
  0
CIRCLE
  5
187
  8
PATTERN_FILL
  6
CONTINUOUS
 62
     7
 10
-150.0
 20
-30.561624370459509
 30
0.0
 40
1.5
  0
CIRCLE
  5
188
  8
PATTERN_FILL
  6
CONTINUOUS
 62
     7
 10
-150.0
 20
-35.561624370459512
 30
0.0
 40
1.5
  0
CIRCLE
  5
189
  8
PATTERN_FILL
  6
CONTINUOUS
 62
     7
 10
-150.0
 20
-40.561624370459512
 30
0.0
 40
1.5
  0
CIRCLE
  5
18A
  8
PATTERN_FILL
  6
CONTINUOUS
 62
     7
 10
-150.0
 20
-45.561624370459512
 30
0.0
 40
1.5
  0
CIRCLE
  5
18B
  8
PATTERN_FILL
  6
CONTINUOUS
 62
     7
 10
-150.0
 20
-50.561624370459512
 30
0.0
 40
1.5
  0
CIRCLE
  5
18C
  8
PATTERN_FILL
  6
CONTINUOUS
 62
     7
 10
-150.0
 20
-55.561624370459512
 30
0.0
 40
1.5
  0
CIRCLE
  5
18D
  8
PATTERN_FILL
  6
CONTINUOUS
 62
     7
 10
-150.0
 20
-60.561624370459512
 30
0.0
 40
1.5
  0
CIRCLE
  5
18E
  8
PATTERN_FILL
  6
CONTINUOUS
 62
     7
 10
-150.0
 20
-65.561624370459512
 30
0.0
 40
1.5
  0
CIRCLE
  5
18F
  8
PATTERN_FILL
  6
CONTINUOUS
 62
     7
 10
-150.0
 20
-70.561624370459512
 30
0.0
 40
1.5
  0
CIRCLE
  5
190
  8
PATTERN_FILL
  6
CONTINUOUS
 62
     7
 10
-150.0
 20
-75.561624370459498
 30
0.0
 40
1.5
  0
CIRCLE
  5
191
  8
PATTERN_FILL
  6
CONTINUOUS
 62
     7
 10
-150.0
 20
-80.561624370459498
 30
0.0
 40
1.5
  0
CIRCLE
  5
192
  8
PATTERN_FILL
  6
CONTINUOUS
 62
     7
 10
-150.0
 20
-85.561624370459498
 30
0.0
 40
1.5
  0
CIRCLE
  5
193
  8
PATTERN_FILL
  6
CONTINUOUS
 62
     7
 10
-150.0
 20
-90.561624370459512
 30
0.0
 40
1.5
  0
CIRCLE
  5
194
  8
PATTERN_FILL
  6
CONTINUOUS
 62
     7
 10
-150.0
 20
-95.561624370459512
 30
0.0
 40
1.5
  0
CIRCLE
  5
195
  8
PATTERN_FILL
  6
CONTINUOUS
 62
     7
 10
-150.0
 20
-100.5616243704595
 30
0.0
 40
1.5
  0
CIRCLE
  5
196
  8
PATTERN_FILL
  6
CONTINUOUS
 62
     7
 10
-150.0
 20
-105.5616243704595
 30
0.0
 40
1.5
  0
CIRCLE
  5
197
  8
PATTERN_FILL
  6
CONTINUOUS
 62
     7
 10
-150.0
 20
-110.5616243704595
 30
0.0
 40
1.5
  0
CIRCLE
  5
198
  8
PATTERN_FILL
  6
CONTINUOUS
 62
     7
 10
-150.0
 20
-115.5616243704595
 30
0.0
 40
1.5
  0
CIRCLE
  5
199
  8
PATTERN_FILL
  6
CONTINUOUS
 62
     7
 10
-150.0
 20
-120.5616243704595
 30
0.0
 40
1.5
  0
CIRCLE
  5
19A
  8
PATTERN_FILL
  6
CONTINUOUS
 62
     7
 10
-150.0
 20
-125.5616243704595
 30
0.0
 40
1.5
  0
CIRCLE
  5
19B
  8
PATTERN_FILL
  6
CONTINUOUS
 62
     7
 10
-150.0
 20
-130.5616243704595
 30
0.0
 40
1.5
  0
CIRCLE
  5
19C
  8
PATTERN_FILL
  6
CONTINUOUS
 62
     7
 10
-150.0
 20
-135.5616243704595
 30
0.0
 40
1.5
  0
CIRCLE
  5
19D
  8
PATTERN_FILL
  6
CONTINUOUS
 62
     7
 10
-150.0
 20
-140.5616243704595
 30
0.0
 40
1.5
  0
ARC
  5
19E
  8
PATTERN_FILL
  6
CONTINUOUS
 62
     7
 10
-150.0
 20
-145.5616243704595
 30
0.0
 40
1.5000000000000071
 50
7.313474015338195
 51
117.4473654794696
  0
CIRCLE
  5
19F
  8
PATTERN_FILL
  6
CONTINUOUS
 62
     7
 10
-145.0
 20
44.438375629540481
 30
0.0
 40
1.5
  0
CIRCLE
  5
1A0
  8
PATTERN_FILL
  6
CONTINUOUS
 62
     7
 10
-145.0
 20
39.438375629540488
 30
0.0
 40
1.5
  0
CIRCLE
  5
1A1
  8
PATTERN_FILL
  6
CONTINUOUS
 62
     7
 10
-145.0
 20
34.438375629540488
 30
0.0
 40
1.5
  0
CIRCLE
  5
1A2
  8
PATTERN_FILL
  6
CONTINUOUS
 62
     7
 10
-145.0
 20
29.438375629540491
 30
0.0
 40
1.5
  0
CIRCLE
  5
1A3
  8
PATTERN_FILL
  6
CONTINUOUS
 62
     7
 10
-145.0
 20
24.438375629540491
 30
0.0
 40
1.5
  0
CIRCLE
  5
1A4
  8
PATTERN_FILL
  6
CONTINUOUS
 62
     7
 10
-145.0
 20
19.438375629540491
 30
0.0
 40
1.5
  0
CIRCLE
  5
1A5
  8
PATTERN_FILL
  6
CONTINUOUS
 62
     7
 10
-145.0
 20
14.43837562954049
 30
0.0
 40
1.5
  0
CIRCLE
  5
1A6
  8
PATTERN_FILL
  6
CONTINUOUS
 62
     7
 10
-145.0
 20
9.4383756295404897
 30
0.0
 40
1.5
  0
CIRCLE
  5
1A7
  8
PATTERN_FILL
  6
CONTINUOUS
 62
     7
 10
-145.0
 20
4.438375629540487
 30
0.0
 40
1.5
  0
CIRCLE
  5
1A8
  8
PATTERN_FILL
  6
CONTINUOUS
 62
     7
 10
-145.0
 20
-0.5616243704595121
 30
0.0
 40
1.5
  0
CIRCLE
  5
1A9
  8
PATTERN_FILL
  6
CONTINUOUS
 62
     7
 10
-145.0
 20
-5.5616243704595121
 30
0.0
 40
1.5
  0
CIRCLE
  5
1AA
  8
PATTERN_FILL
  6
CONTINUOUS
 62
     7
 10
-145.0
 20
-10.56162437045951
 30
0.0
 40
1.5
  0
CIRCLE
  5
1AB
  8
PATTERN_FILL
  6
CONTINUOUS
 62
     7
 10
-145.0
 20
-15.56162437045951
 30
0.0
 40
1.5
  0
CIRCLE
  5
1AC
  8
PATTERN_FILL
  6
CONTINUOUS
 62
     7
 10
-145.0
 20
-20.561624370459509
 30
0.0
 40
1.5
  0
CIRCLE
  5
1AD
  8
PATTERN_FILL
  6
CONTINUOUS
 62
     7
 10
-145.0
 20
-25.561624370459509
 30
0.0
 40
1.5
  0
CIRCLE
  5
1AE
  8
PATTERN_FILL
  6
CONTINUOUS
 62
     7
 10
-145.0
 20
-30.561624370459509
 30
0.0
 40
1.5
  0
CIRCLE
  5
1AF
  8
PATTERN_FILL
  6
CONTINUOUS
 62
     7
 10
-145.0
 20
-35.561624370459512
 30
0.0
 40
1.5
  0
CIRCLE
  5
1B0
  8
PATTERN_FILL
  6
CONTINUOUS
 62
     7
 10
-145.0
 20
-40.561624370459512
 30
0.0
 40
1.5
  0
CIRCLE
  5
1B1
  8
PATTERN_FILL
  6
CONTINUOUS
 62
     7
 10
-145.0
 20
-45.561624370459512
 30
0.0
 40
1.5
  0
CIRCLE
  5
1B2
  8
PATTERN_FILL
  6
CONTINUOUS
 62
     7
 10
-145.0
 20
-50.561624370459512
 30
0.0
 40
1.5
  0
CIRCLE
  5
1B3
  8
PATTERN_FILL
  6
CONTINUOUS
 62
     7
 10
-145.0
 20
-55.561624370459512
 30
0.0
 40
1.5
  0
CIRCLE
  5
1B4
  8
PATTERN_FILL
  6
CONTINUOUS
 62
     7
 10
-145.0
 20
-60.561624370459512
 30
0.0
 40
1.5
  0
CIRCLE
  5
1B5
  8
PATTERN_FILL
  6
CONTINUOUS
 62
     7
 10
-145.0
 20
-65.561624370459512
 30
0.0
 40
1.5
  0
CIRCLE
  5
1B6
  8
PATTERN_FILL
  6
CONTINUOUS
 62
     7
 10
-145.0
 20
-70.561624370459512
 30
0.0
 40
1.5
  0
CIRCLE
  5
1B7
  8
PATTERN_FILL
  6
CONTINUOUS
 62
     7
 10
-145.0
 20
-75.561624370459498
 30
0.0
 40
1.5
  0
CIRCLE
  5
1B8
  8
PATTERN_FILL
  6
CONTINUOUS
 62
     7
 10
-145.0
 20
-80.561624370459498
 30
0.0
 40
1.5
  0
CIRCLE
  5
1B9
  8
PATTERN_FILL
  6
CONTINUOUS
 62
     7
 10
-145.0
 20
-85.561624370459498
 30
0.0
 40
1.5
  0
CIRCLE
  5
1BA
  8
PATTERN_FILL
  6
CONTINUOUS
 62
     7
 10
-145.0
 20
-90.561624370459512
 30
0.0
 40
1.5
  0
CIRCLE
  5
1BB
  8
PATTERN_FILL
  6
CONTINUOUS
 62
     7
 10
-145.0
 20
-95.561624370459512
 30
0.0
 40
1.5
  0
CIRCLE
  5
1BC
  8
PATTERN_FILL
  6
CONTINUOUS
 62
     7
 10
-145.0
 20
-100.5616243704595
 30
0.0
 40
1.5
  0
CIRCLE
  5
1BD
  8
PATTERN_FILL
  6
CONTINUOUS
 62
     7
 10
-145.0
 20
-105.5616243704595
 30
0.0
 40
1.5
  0
CIRCLE
  5
1BE
  8
PATTERN_FILL
  6
CONTINUOUS
 62
     7
 10
-145.0
 20
-110.5616243704595
 30
0.0
 40
1.5
  0
CIRCLE
  5
1BF
  8
PATTERN_FILL
  6
CONTINUOUS
 62
     7
 10
-145.0
 20
-115.5616243704595
 30
0.0
 40
1.5
  0
CIRCLE
  5
1C0
  8
PATTERN_FILL
  6
CONTINUOUS
 62
     7
 10
-145.0
 20
-120.5616243704595
 30
0.0
 40
1.5
  0
CIRCLE
  5
1C1
  8
PATTERN_FILL
  6
CONTINUOUS
 62
     7
 10
-145.0
 20
-125.5616243704595
 30
0.0
 40
1.5
  0
CIRCLE
  5
1C2
  8
PATTERN_FILL
  6
CONTINUOUS
 62
     7
 10
-145.0
 20
-130.5616243704595
 30
0.0
 40
1.5
  0
CIRCLE
  5
1C3
  8
PATTERN_FILL
  6
CONTINUOUS
 62
     7
 10
-145.0
 20
-135.5616243704595
 30
0.0
 40
1.5
  0
CIRCLE
  5
1C4
  8
PATTERN_FILL
  6
CONTINUOUS
 62
     7
 10
-145.0
 20
-140.5616243704595
 30
0.0
 40
1.5
  0
CIRCLE
  5
1C5
  8
PATTERN_FILL
  6
CONTINUOUS
 62
     7
 10
-145.0
 20
-145.5616243704595
 30
0.0
 40
1.5
  0
ARC
  5
1C6
  8
PATTERN_FILL
  6
CONTINUOUS
 62
     7
 10
-139.99999999999989
 20
49.438375629540459
 30
0.0
 40
1.500000000000002
 50
209.28179385392289
 51
14.54402663141863
  0
CIRCLE
  5
1C7
  8
PATTERN_FILL
  6
CONTINUOUS
 62
     7
 10
-140.0
 20
44.438375629540481
 30
0.0
 40
1.5
  0
CIRCLE
  5
1C8
  8
PATTERN_FILL
  6
CONTINUOUS
 62
     7
 10
-140.0
 20
39.438375629540488
 30
0.0
 40
1.5
  0
CIRCLE
  5
1C9
  8
PATTERN_FILL
  6
CONTINUOUS
 62
     7
 10
-140.0
 20
34.438375629540488
 30
0.0
 40
1.5
  0
CIRCLE
  5
1CA
  8
PATTERN_FILL
  6
CONTINUOUS
 62
     7
 10
-140.0
 20
29.438375629540491
 30
0.0
 40
1.5
  0
CIRCLE
  5
1CB
  8
PATTERN_FILL
  6
CONTINUOUS
 62
     7
 10
-140.0
 20
24.438375629540491
 30
0.0
 40
1.5
  0
CIRCLE
  5
1CC
  8
PATTERN_FILL
  6
CONTINUOUS
 62
     7
 10
-140.0
 20
19.438375629540491
 30
0.0
 40
1.5
  0
CIRCLE
  5
1CD
  8
PATTERN_FILL
  6
CONTINUOUS
 62
     7
 10
-140.0
 20
14.43837562954049
 30
0.0
 40
1.5
  0
CIRCLE
  5
1CE
  8
PATTERN_FILL
  6
CONTINUOUS
 62
     7
 10
-140.0
 20
9.4383756295404897
 30
0.0
 40
1.5
  0
CIRCLE
  5
1CF
  8
PATTERN_FILL
  6
CONTINUOUS
 62
     7
 10
-140.0
 20
4.438375629540487
 30
0.0
 40
1.5
  0
CIRCLE
  5
1D0
  8
PATTERN_FILL
  6
CONTINUOUS
 62
     7
 10
-140.0
 20
-0.5616243704595121
 30
0.0
 40
1.5
  0
CIRCLE
  5
1D1
  8
PATTERN_FILL
  6
CONTINUOUS
 62
     7
 10
-140.0
 20
-5.5616243704595121
 30
0.0
 40
1.5
  0
CIRCLE
  5
1D2
  8
PATTERN_FILL
  6
CONTINUOUS
 62
     7
 10
-140.0
 20
-10.56162437045951
 30
0.0
 40
1.5
  0
CIRCLE
  5
1D3
  8
PATTERN_FILL
  6
CONTINUOUS
 62
     7
 10
-140.0
 20
-15.56162437045951
 30
0.0
 40
1.5
  0
CIRCLE
  5
1D4
  8
PATTERN_FILL
  6
CONTINUOUS
 62
     7
 10
-140.0
 20
-20.561624370459509
 30
0.0
 40
1.5
  0
CIRCLE
  5
1D5
  8
PATTERN_FILL
  6
CONTINUOUS
 62
     7
 10
-140.0
 20
-25.561624370459509
 30
0.0
 40
1.5
  0
CIRCLE
  5
1D6
  8
PATTERN_FILL
  6
CONTINUOUS
 62
     7
 10
-140.0
 20
-30.561624370459509
 30
0.0
 40
1.5
  0
CIRCLE
  5
1D7
  8
PATTERN_FILL
  6
CONTINUOUS
 62
     7
 10
-140.0
 20
-35.561624370459512
 30
0.0
 40
1.5
  0
CIRCLE
  5
1D8
  8
PATTERN_FILL
  6
CONTINUOUS
 62
     7
 10
-140.0
 20
-40.561624370459512
 30
0.0
 40
1.5
  0
CIRCLE
  5
1D9
  8
PATTERN_FILL
  6
CONTINUOUS
 62
     7
 10
-140.0
 20
-45.561624370459512
 30
0.0
 40
1.5
  0
CIRCLE
  5
1DA
  8
PATTERN_FILL
  6
CONTINUOUS
 62
     7
 10
-140.0
 20
-50.561624370459512
 30
0.0
 40
1.5
  0
CIRCLE
  5
1DB
  8
PATTERN_FILL
  6
CONTINUOUS
 62
     7
 10
-140.0
 20
-55.561624370459512
 30
0.0
 40
1.5
  0
CIRCLE
  5
1DC
  8
PATTERN_FILL
  6
CONTINUOUS
 62
     7
 10
-140.0
 20
-60.561624370459512
 30
0.0
 40
1.5
  0
CIRCLE
  5
1DD
  8
PATTERN_FILL
  6
CONTINUOUS
 62
     7
 10
-140.0
 20
-65.561624370459512
 30
0.0
 40
1.5
  0
CIRCLE
  5
1DE
  8
PATTERN_FILL
  6
CONTINUOUS
 62
     7
 10
-140.0
 20
-70.561624370459512
 30
0.0
 40
1.5
  0
CIRCLE
  5
1DF
  8
PATTERN_FILL
  6
CONTINUOUS
 62
     7
 10
-140.0
 20
-75.561624370459498
 30
0.0
 40
1.5
  0
CIRCLE
  5
1E0
  8
PATTERN_FILL
  6
CONTINUOUS
 62
     7
 10
-140.0
 20
-80.561624370459498
 30
0.0
 40
1.5
  0
CIRCLE
  5
1E1
  8
PATTERN_FILL
  6
CONTINUOUS
 62
     7
 10
-140.0
 20
-85.561624370459498
 30
0.0
 40
1.5
  0
CIRCLE
  5
1E2
  8
PATTERN_FILL
  6
CONTINUOUS
 62
     7
 10
-140.0
 20
-90.561624370459512
 30
0.0
 40
1.5
  0
CIRCLE
  5
1E3
  8
PATTERN_FILL
  6
CONTINUOUS
 62
     7
 10
-140.0
 20
-95.561624370459512
 30
0.0
 40
1.5
  0
CIRCLE
  5
1E4
  8
PATTERN_FILL
  6
CONTINUOUS
 62
     7
 10
-140.0
 20
-100.5616243704595
 30
0.0
 40
1.5
  0
CIRCLE
  5
1E5
  8
PATTERN_FILL
  6
CONTINUOUS
 62
     7
 10
-140.0
 20
-105.5616243704595
 30
0.0
 40
1.5
  0
CIRCLE
  5
1E6
  8
PATTERN_FILL
  6
CONTINUOUS
 62
     7
 10
-140.0
 20
-110.5616243704595
 30
0.0
 40
1.5
  0
CIRCLE
  5
1E7
  8
PATTERN_FILL
  6
CONTINUOUS
 62
     7
 10
-140.0
 20
-115.5616243704595
 30
0.0
 40
1.5
  0
CIRCLE
  5
1E8
  8
PATTERN_FILL
  6
CONTINUOUS
 62
     7
 10
-140.0
 20
-120.5616243704595
 30
0.0
 40
1.5
  0
CIRCLE
  5
1E9
  8
PATTERN_FILL
  6
CONTINUOUS
 62
     7
 10
-140.0
 20
-125.5616243704595
 30
0.0
 40
1.5
  0
CIRCLE
  5
1EA
  8
PATTERN_FILL
  6
CONTINUOUS
 62
     7
 10
-140.0
 20
-130.5616243704595
 30
0.0
 40
1.5
  0
CIRCLE
  5
1EB
  8
PATTERN_FILL
  6
CONTINUOUS
 62
     7
 10
-140.0
 20
-135.5616243704595
 30
0.0
 40
1.5
  0
CIRCLE
  5
1EC
  8
PATTERN_FILL
  6
CONTINUOUS
 62
     7
 10
-140.0
 20
-140.5616243704595
 30
0.0
 40
1.5
  0
CIRCLE
  5
1ED
  8
PATTERN_FILL
  6
CONTINUOUS
 62
     7
 10
-140.0
 20
-145.5616243704595
 30
0.0
 40
1.5
  0
ARC
  5
1EE
  8
PATTERN_FILL
  6
CONTINUOUS
 62
     7
 10
-140.0
 20
-150.5616243704595
 30
0.0
 40
1.499999999999998
 50
33.288169475602601
 51
103.3298641105372
  0
CIRCLE
  5
1EF
  8
PATTERN_FILL
  6
CONTINUOUS
 62
     7
 10
-135.0
 20
49.438375629540481
 30
0.0
 40
1.5
  0
CIRCLE
  5
1F0
  8
PATTERN_FILL
  6
CONTINUOUS
 62
     7
 10
-135.0
 20
44.438375629540481
 30
0.0
 40
1.5
  0
CIRCLE
  5
1F1
  8
PATTERN_FILL
  6
CONTINUOUS
 62
     7
 10
-135.0
 20
39.438375629540488
 30
0.0
 40
1.5
  0
CIRCLE
  5
1F2
  8
PATTERN_FILL
  6
CONTINUOUS
 62
     7
 10
-135.0
 20
34.438375629540488
 30
0.0
 40
1.5
  0
CIRCLE
  5
1F3
  8
PATTERN_FILL
  6
CONTINUOUS
 62
     7
 10
-135.0
 20
29.438375629540491
 30
0.0
 40
1.5
  0
CIRCLE
  5
1F4
  8
PATTERN_FILL
  6
CONTINUOUS
 62
     7
 10
-135.0
 20
24.438375629540491
 30
0.0
 40
1.5
  0
CIRCLE
  5
1F5
  8
PATTERN_FILL
  6
CONTINUOUS
 62
     7
 10
-135.0
 20
19.438375629540491
 30
0.0
 40
1.5
  0
CIRCLE
  5
1F6
  8
PATTERN_FILL
  6
CONTINUOUS
 62
     7
 10
-135.0
 20
14.43837562954049
 30
0.0
 40
1.5
  0
CIRCLE
  5
1F7
  8
PATTERN_FILL
  6
CONTINUOUS
 62
     7
 10
-135.0
 20
9.4383756295404897
 30
0.0
 40
1.5
  0
CIRCLE
  5
1F8
  8
PATTERN_FILL
  6
CONTINUOUS
 62
     7
 10
-135.0
 20
4.438375629540487
 30
0.0
 40
1.5
  0
CIRCLE
  5
1F9
  8
PATTERN_FILL
  6
CONTINUOUS
 62
     7
 10
-135.0
 20
-0.5616243704595121
 30
0.0
 40
1.5
  0
CIRCLE
  5
1FA
  8
PATTERN_FILL
  6
CONTINUOUS
 62
     7
 10
-135.0
 20
-5.5616243704595121
 30
0.0
 40
1.5
  0
CIRCLE
  5
1FB
  8
PATTERN_FILL
  6
CONTINUOUS
 62
     7
 10
-135.0
 20
-10.56162437045951
 30
0.0
 40
1.5
  0
CIRCLE
  5
1FC
  8
PATTERN_FILL
  6
CONTINUOUS
 62
     7
 10
-135.0
 20
-15.56162437045951
 30
0.0
 40
1.5
  0
CIRCLE
  5
1FD
  8
PATTERN_FILL
  6
CONTINUOUS
 62
     7
 10
-135.0
 20
-20.561624370459509
 30
0.0
 40
1.5
  0
CIRCLE
  5
1FE
  8
PATTERN_FILL
  6
CONTINUOUS
 62
     7
 10
-135.0
 20
-25.561624370459509
 30
0.0
 40
1.5
  0
CIRCLE
  5
1FF
  8
PATTERN_FILL
  6
CONTINUOUS
 62
     7
 10
-135.0
 20
-30.561624370459509
 30
0.0
 40
1.5
  0
CIRCLE
  5
200
  8
PATTERN_FILL
  6
CONTINUOUS
 62
     7
 10
-135.0
 20
-35.561624370459512
 30
0.0
 40
1.5
  0
CIRCLE
  5
201
  8
PATTERN_FILL
  6
CONTINUOUS
 62
     7
 10
-135.0
 20
-40.561624370459512
 30
0.0
 40
1.5
  0
CIRCLE
  5
202
  8
PATTERN_FILL
  6
CONTINUOUS
 62
     7
 10
-135.0
 20
-45.561624370459512
 30
0.0
 40
1.5
  0
CIRCLE
  5
203
  8
PATTERN_FILL
  6
CONTINUOUS
 62
     7
 10
-135.0
 20
-50.561624370459512
 30
0.0
 40
1.5
  0
CIRCLE
  5
204
  8
PATTERN_FILL
  6
CONTINUOUS
 62
     7
 10
-135.0
 20
-55.561624370459512
 30
0.0
 40
1.5
  0
CIRCLE
  5
205
  8
PATTERN_FILL
  6
CONTINUOUS
 62
     7
 10
-135.0
 20
-60.561624370459512
 30
0.0
 40
1.5
  0
CIRCLE
  5
206
  8
PATTERN_FILL
  6
CONTINUOUS
 62
     7
 10
-135.0
 20
-65.561624370459512
 30
0.0
 40
1.5
  0
CIRCLE
  5
207
  8
PATTERN_FILL
  6
CONTINUOUS
 62
     7
 10
-135.0
 20
-70.561624370459512
 30
0.0
 40
1.5
  0
CIRCLE
  5
208
  8
PATTERN_FILL
  6
CONTINUOUS
 62
     7
 10
-135.0
 20
-75.561624370459498
 30
0.0
 40
1.5
  0
CIRCLE
  5
209
  8
PATTERN_FILL
  6
CONTINUOUS
 62
     7
 10
-135.0
 20
-80.561624370459498
 30
0.0
 40
1.5
  0
CIRCLE
  5
20A
  8
PATTERN_FILL
  6
CONTINUOUS
 62
     7
 10
-135.0
 20
-85.561624370459498
 30
0.0
 40
1.5
  0
CIRCLE
  5
20B
  8
PATTERN_FILL
  6
CONTINUOUS
 62
     7
 10
-135.0
 20
-90.561624370459512
 30
0.0
 40
1.5
  0
CIRCLE
  5
20C
  8
PATTERN_FILL
  6
CONTINUOUS
 62
     7
 10
-135.0
 20
-95.561624370459512
 30
0.0
 40
1.5
  0
CIRCLE
  5
20D
  8
PATTERN_FILL
  6
CONTINUOUS
 62
     7
 10
-135.0
 20
-100.5616243704595
 30
0.0
 40
1.5
  0
CIRCLE
  5
20E
  8
PATTERN_FILL
  6
CONTINUOUS
 62
     7
 10
-135.0
 20
-105.5616243704595
 30
0.0
 40
1.5
  0
CIRCLE
  5
20F
  8
PATTERN_FILL
  6
CONTINUOUS
 62
     7
 10
-135.0
 20
-110.5616243704595
 30
0.0
 40
1.5
  0
CIRCLE
  5
210
  8
PATTERN_FILL
  6
CONTINUOUS
 62
     7
 10
-135.0
 20
-115.5616243704595
 30
0.0
 40
1.5
  0
CIRCLE
  5
211
  8
PATTERN_FILL
  6
CONTINUOUS
 62
     7
 10
-135.0
 20
-120.5616243704595
 30
0.0
 40
1.5
  0
CIRCLE
  5
212
  8
PATTERN_FILL
  6
CONTINUOUS
 62
     7
 10
-135.0
 20
-125.5616243704595
 30
0.0
 40
1.5
  0
CIRCLE
  5
213
  8
PATTERN_FILL
  6
CONTINUOUS
 62
     7
 10
-135.0
 20
-130.5616243704595
 30
0.0
 40
1.5
  0
CIRCLE
  5
214
  8
PATTERN_FILL
  6
CONTINUOUS
 62
     7
 10
-135.0
 20
-135.5616243704595
 30
0.0
 40
1.5
  0
CIRCLE
  5
215
  8
PATTERN_FILL
  6
CONTINUOUS
 62
     7
 10
-135.0
 20
-140.5616243704595
 30
0.0
 40
1.5
  0
CIRCLE
  5
216
  8
PATTERN_FILL
  6
CONTINUOUS
 62
     7
 10
-135.0
 20
-145.5616243704595
 30
0.0
 40
1.5
  0
ARC
  5
217
  8
PATTERN_FILL
  6
CONTINUOUS
 62
     7
 10
-135.0
 20
-150.5616243704595
 30
0.0
 40
1.4999999999999869
 50
320.8371817099773
 51
180.78239562502711
  0
CIRCLE
  5
218
  8
PATTERN_FILL
  6
CONTINUOUS
 62
     7
 10
-130.0
 20
49.438375629540481
 30
0.0
 40
1.5
  0
CIRCLE
  5
219
  8
PATTERN_FILL
  6
CONTINUOUS
 62
     7
 10
-130.0
 20
44.438375629540481
 30
0.0
 40
1.5
  0
CIRCLE
  5
21A
  8
PATTERN_FILL
  6
CONTINUOUS
 62
     7
 10
-130.0
 20
39.438375629540488
 30
0.0
 40
1.5
  0
CIRCLE
  5
21B
  8
PATTERN_FILL
  6
CONTINUOUS
 62
     7
 10
-130.0
 20
34.438375629540488
 30
0.0
 40
1.5
  0
CIRCLE
  5
21C
  8
PATTERN_FILL
  6
CONTINUOUS
 62
     7
 10
-130.0
 20
29.438375629540491
 30
0.0
 40
1.5
  0
CIRCLE
  5
21D
  8
PATTERN_FILL
  6
CONTINUOUS
 62
     7
 10
-130.0
 20
24.438375629540491
 30
0.0
 40
1.5
  0
CIRCLE
  5
21E
  8
PATTERN_FILL
  6
CONTINUOUS
 62
     7
 10
-130.0
 20
19.438375629540491
 30
0.0
 40
1.5
  0
CIRCLE
  5
21F
  8
PATTERN_FILL
  6
CONTINUOUS
 62
     7
 10
-130.0
 20
14.43837562954049
 30
0.0
 40
1.5
  0
CIRCLE
  5
220
  8
PATTERN_FILL
  6
CONTINUOUS
 62
     7
 10
-130.0
 20
9.4383756295404897
 30
0.0
 40
1.5
  0
CIRCLE
  5
221
  8
PATTERN_FILL
  6
CONTINUOUS
 62
     7
 10
-130.0
 20
4.438375629540487
 30
0.0
 40
1.5
  0
CIRCLE
  5
222
  8
PATTERN_FILL
  6
CONTINUOUS
 62
     7
 10
-130.0
 20
-0.5616243704595121
 30
0.0
 40
1.5
  0
CIRCLE
  5
223
  8
PATTERN_FILL
  6
CONTINUOUS
 62
     7
 10
-130.0
 20
-5.5616243704595121
 30
0.0
 40
1.5
  0
CIRCLE
  5
224
  8
PATTERN_FILL
  6
CONTINUOUS
 62
     7
 10
-130.0
 20
-10.56162437045951
 30
0.0
 40
1.5
  0
CIRCLE
  5
225
  8
PATTERN_FILL
  6
CONTINUOUS
 62
     7
 10
-130.0
 20
-15.56162437045951
 30
0.0
 40
1.5
  0
CIRCLE
  5
226
  8
PATTERN_FILL
  6
CONTINUOUS
 62
     7
 10
-130.0
 20
-20.561624370459509
 30
0.0
 40
1.5
  0
CIRCLE
  5
227
  8
PATTERN_FILL
  6
CONTINUOUS
 62
     7
 10
-130.0
 20
-25.561624370459509
 30
0.0
 40
1.5
  0
CIRCLE
  5
228
  8
PATTERN_FILL
  6
CONTINUOUS
 62
     7
 10
-130.0
 20
-30.561624370459509
 30
0.0
 40
1.5
  0
CIRCLE
  5
229
  8
PATTERN_FILL
  6
CONTINUOUS
 62
     7
 10
-130.0
 20
-35.561624370459512
 30
0.0
 40
1.5
  0
CIRCLE
  5
22A
  8
PATTERN_FILL
  6
CONTINUOUS
 62
     7
 10
-130.0
 20
-40.561624370459512
 30
0.0
 40
1.5
  0
CIRCLE
  5
22B
  8
PATTERN_FILL
  6
CONTINUOUS
 62
     7
 10
-130.0
 20
-45.561624370459512
 30
0.0
 40
1.5
  0
CIRCLE
  5
22C
  8
PATTERN_FILL
  6
CONTINUOUS
 62
     7
 10
-130.0
 20
-50.561624370459512
 30
0.0
 40
1.5
  0
CIRCLE
  5
22D
  8
PATTERN_FILL
  6
CONTINUOUS
 62
     7
 10
-130.0
 20
-55.561624370459512
 30
0.0
 40
1.5
  0
CIRCLE
  5
22E
  8
PATTERN_FILL
  6
CONTINUOUS
 62
     7
 10
-130.0
 20
-60.561624370459512
 30
0.0
 40
1.5
  0
CIRCLE
  5
22F
  8
PATTERN_FILL
  6
CONTINUOUS
 62
     7
 10
-130.0
 20
-65.561624370459512
 30
0.0
 40
1.5
  0
CIRCLE
  5
230
  8
PATTERN_FILL
  6
CONTINUOUS
 62
     7
 10
-130.0
 20
-70.561624370459512
 30
0.0
 40
1.5
  0
CIRCLE
  5
231
  8
PATTERN_FILL
  6
CONTINUOUS
 62
     7
 10
-130.0
 20
-75.561624370459498
 30
0.0
 40
1.5
  0
CIRCLE
  5
232
  8
PATTERN_FILL
  6
CONTINUOUS
 62
     7
 10
-130.0
 20
-80.561624370459498
 30
0.0
 40
1.5
  0
CIRCLE
  5
233
  8
PATTERN_FILL
  6
CONTINUOUS
 62
     7
 10
-130.0
 20
-85.561624370459498
 30
0.0
 40
1.5
  0
CIRCLE
  5
234
  8
PATTERN_FILL
  6
CONTINUOUS
 62
     7
 10
-130.0
 20
-90.561624370459512
 30
0.0
 40
1.5
  0
CIRCLE
  5
235
  8
PATTERN_FILL
  6
CONTINUOUS
 62
     7
 10
-130.0
 20
-95.561624370459512
 30
0.0
 40
1.5
  0
CIRCLE
  5
236
  8
PATTERN_FILL
  6
CONTINUOUS
 62
     7
 10
-130.0
 20
-100.5616243704595
 30
0.0
 40
1.5
  0
CIRCLE
  5
237
  8
PATTERN_FILL
  6
CONTINUOUS
 62
     7
 10
-130.0
 20
-105.5616243704595
 30
0.0
 40
1.5
  0
CIRCLE
  5
238
  8
PATTERN_FILL
  6
CONTINUOUS
 62
     7
 10
-130.0
 20
-110.5616243704595
 30
0.0
 40
1.5
  0
CIRCLE
  5
239
  8
PATTERN_FILL
  6
CONTINUOUS
 62
     7
 10
-130.0
 20
-115.5616243704595
 30
0.0
 40
1.5
  0
CIRCLE
  5
23A
  8
PATTERN_FILL
  6
CONTINUOUS
 62
     7
 10
-130.0
 20
-120.5616243704595
 30
0.0
 40
1.5
  0
CIRCLE
  5
23B
  8
PATTERN_FILL
  6
CONTINUOUS
 62
     7
 10
-130.0
 20
-125.5616243704595
 30
0.0
 40
1.5
  0
CIRCLE
  5
23C
  8
PATTERN_FILL
  6
CONTINUOUS
 62
     7
 10
-130.0
 20
-130.5616243704595
 30
0.0
 40
1.5
  0
CIRCLE
  5
23D
  8
PATTERN_FILL
  6
CONTINUOUS
 62
     7
 10
-130.0
 20
-135.5616243704595
 30
0.0
 40
1.5
  0
CIRCLE
  5
23E
  8
PATTERN_FILL
  6
CONTINUOUS
 62
     7
 10
-130.0
 20
-140.5616243704595
 30
0.0
 40
1.5
  0
CIRCLE
  5
23F
  8
PATTERN_FILL
  6
CONTINUOUS
 62
     7
 10
-130.0
 20
-145.5616243704595
 30
0.0
 40
1.5
  0
CIRCLE
  5
240
  8
PATTERN_FILL
  6
CONTINUOUS
 62
     7
 10
-130.0
 20
-150.5616243704595
 30
0.0
 40
1.5
  0
CIRCLE
  5
241
  8
PATTERN_FILL
  6
CONTINUOUS
 62
     7
 10
-125.0
 20
49.438375629540481
 30
0.0
 40
1.5
  0
CIRCLE
  5
242
  8
PATTERN_FILL
  6
CONTINUOUS
 62
     7
 10
-125.0
 20
44.438375629540481
 30
0.0
 40
1.5
  0
CIRCLE
  5
243
  8
PATTERN_FILL
  6
CONTINUOUS
 62
     7
 10
-125.0
 20
39.438375629540488
 30
0.0
 40
1.5
  0
CIRCLE
  5
244
  8
PATTERN_FILL
  6
CONTINUOUS
 62
     7
 10
-125.0
 20
34.438375629540488
 30
0.0
 40
1.5
  0
CIRCLE
  5
245
  8
PATTERN_FILL
  6
CONTINUOUS
 62
     7
 10
-125.0
 20
29.438375629540491
 30
0.0
 40
1.5
  0
CIRCLE
  5
246
  8
PATTERN_FILL
  6
CONTINUOUS
 62
     7
 10
-125.0
 20
24.438375629540491
 30
0.0
 40
1.5
  0
CIRCLE
  5
247
  8
PATTERN_FILL
  6
CONTINUOUS
 62
     7
 10
-125.0
 20
19.438375629540491
 30
0.0
 40
1.5
  0
CIRCLE
  5
248
  8
PATTERN_FILL
  6
CONTINUOUS
 62
     7
 10
-125.0
 20
14.43837562954049
 30
0.0
 40
1.5
  0
CIRCLE
  5
249
  8
PATTERN_FILL
  6
CONTINUOUS
 62
     7
 10
-125.0
 20
9.4383756295404897
 30
0.0
 40
1.5
  0
CIRCLE
  5
24A
  8
PATTERN_FILL
  6
CONTINUOUS
 62
     7
 10
-125.0
 20
4.438375629540487
 30
0.0
 40
1.5
  0
CIRCLE
  5
24B
  8
PATTERN_FILL
  6
CONTINUOUS
 62
     7
 10
-125.0
 20
-0.5616243704595121
 30
0.0
 40
1.5
  0
CIRCLE
  5
24C
  8
PATTERN_FILL
  6
CONTINUOUS
 62
     7
 10
-125.0
 20
-5.5616243704595121
 30
0.0
 40
1.5
  0
CIRCLE
  5
24D
  8
PATTERN_FILL
  6
CONTINUOUS
 62
     7
 10
-125.0
 20
-10.56162437045951
 30
0.0
 40
1.5
  0
CIRCLE
  5
24E
  8
PATTERN_FILL
  6
CONTINUOUS
 62
     7
 10
-125.0
 20
-15.56162437045951
 30
0.0
 40
1.5
  0
CIRCLE
  5
24F
  8
PATTERN_FILL
  6
CONTINUOUS
 62
     7
 10
-125.0
 20
-20.561624370459509
 30
0.0
 40
1.5
  0
CIRCLE
  5
250
  8
PATTERN_FILL
  6
CONTINUOUS
 62
     7
 10
-125.0
 20
-25.561624370459509
 30
0.0
 40
1.5
  0
CIRCLE
  5
251
  8
PATTERN_FILL
  6
CONTINUOUS
 62
     7
 10
-125.0
 20
-30.561624370459509
 30
0.0
 40
1.5
  0
CIRCLE
  5
252
  8
PATTERN_FILL
  6
CONTINUOUS
 62
     7
 10
-125.0
 20
-35.561624370459512
 30
0.0
 40
1.5
  0
CIRCLE
  5
253
  8
PATTERN_FILL
  6
CONTINUOUS
 62
     7
 10
-125.0
 20
-40.561624370459512
 30
0.0
 40
1.5
  0
CIRCLE
  5
254
  8
PATTERN_FILL
  6
CONTINUOUS
 62
     7
 10
-125.0
 20
-45.561624370459512
 30
0.0
 40
1.5
  0
CIRCLE
  5
255
  8
PATTERN_FILL
  6
CONTINUOUS
 62
     7
 10
-125.0
 20
-50.561624370459512
 30
0.0
 40
1.5
  0
CIRCLE
  5
256
  8
PATTERN_FILL
  6
CONTINUOUS
 62
     7
 10
-125.0
 20
-55.561624370459512
 30
0.0
 40
1.5
  0
CIRCLE
  5
257
  8
PATTERN_FILL
  6
CONTINUOUS
 62
     7
 10
-125.0
 20
-60.561624370459512
 30
0.0
 40
1.5
  0
CIRCLE
  5
258
  8
PATTERN_FILL
  6
CONTINUOUS
 62
     7
 10
-125.0
 20
-65.561624370459512
 30
0.0
 40
1.5
  0
CIRCLE
  5
259
  8
PATTERN_FILL
  6
CONTINUOUS
 62
     7
 10
-125.0
 20
-70.561624370459512
 30
0.0
 40
1.5
  0
CIRCLE
  5
25A
  8
PATTERN_FILL
  6
CONTINUOUS
 62
     7
 10
-125.0
 20
-75.561624370459498
 30
0.0
 40
1.5
  0
CIRCLE
  5
25B
  8
PATTERN_FILL
  6
CONTINUOUS
 62
     7
 10
-125.0
 20
-80.561624370459498
 30
0.0
 40
1.5
  0
CIRCLE
  5
25C
  8
PATTERN_FILL
  6
CONTINUOUS
 62
     7
 10
-125.0
 20
-85.561624370459498
 30
0.0
 40
1.5
  0
CIRCLE
  5
25D
  8
PATTERN_FILL
  6
CONTINUOUS
 62
     7
 10
-125.0
 20
-90.561624370459512
 30
0.0
 40
1.5
  0
CIRCLE
  5
25E
  8
PATTERN_FILL
  6
CONTINUOUS
 62
     7
 10
-125.0
 20
-95.561624370459512
 30
0.0
 40
1.5
  0
CIRCLE
  5
25F
  8
PATTERN_FILL
  6
CONTINUOUS
 62
     7
 10
-125.0
 20
-100.5616243704595
 30
0.0
 40
1.5
  0
CIRCLE
  5
260
  8
PATTERN_FILL
  6
CONTINUOUS
 62
     7
 10
-125.0
 20
-105.5616243704595
 30
0.0
 40
1.5
  0
CIRCLE
  5
261
  8
PATTERN_FILL
  6
CONTINUOUS
 62
     7
 10
-125.0
 20
-110.5616243704595
 30
0.0
 40
1.5
  0
CIRCLE
  5
262
  8
PATTERN_FILL
  6
CONTINUOUS
 62
     7
 10
-125.0
 20
-115.5616243704595
 30
0.0
 40
1.5
  0
CIRCLE
  5
263
  8
PATTERN_FILL
  6
CONTINUOUS
 62
     7
 10
-125.0
 20
-120.5616243704595
 30
0.0
 40
1.5
  0
CIRCLE
  5
264
  8
PATTERN_FILL
  6
CONTINUOUS
 62
     7
 10
-125.0
 20
-125.5616243704595
 30
0.0
 40
1.5
  0
CIRCLE
  5
265
  8
PATTERN_FILL
  6
CONTINUOUS
 62
     7
 10
-125.0
 20
-130.5616243704595
 30
0.0
 40
1.5
  0
CIRCLE
  5
266
  8
PATTERN_FILL
  6
CONTINUOUS
 62
     7
 10
-125.0
 20
-135.5616243704595
 30
0.0
 40
1.5
  0
CIRCLE
  5
267
  8
PATTERN_FILL
  6
CONTINUOUS
 62
     7
 10
-125.0
 20
-140.5616243704595
 30
0.0
 40
1.5
  0
CIRCLE
  5
268
  8
PATTERN_FILL
  6
CONTINUOUS
 62
     7
 10
-125.0
 20
-145.5616243704595
 30
0.0
 40
1.5
  0
CIRCLE
  5
269
  8
PATTERN_FILL
  6
CONTINUOUS
 62
     7
 10
-125.0
 20
-150.5616243704595
 30
0.0
 40
1.5
  0
ARC
  5
26A
  8
PATTERN_FILL
  6
CONTINUOUS
 62
     7
 10
-125.0
 20
-155.5616243704595
 30
0.0
 40
1.4999999999999849
 50
67.753650153801402
 51
85.598764756263634
  0
ARC
  5
26B
  8
PATTERN_FILL
  6
CONTINUOUS
 62
     7
 10
-120.0
 20
54.438375629540481
 30
0.0
 40
1.500000000000004
 50
164.9344812799753
 51
36.747359615353702
  0
CIRCLE
  5
26C
  8
PATTERN_FILL
  6
CONTINUOUS
 62
     7
 10
-120.0
 20
49.438375629540481
 30
0.0
 40
1.5
  0
CIRCLE
  5
26D
  8
PATTERN_FILL
  6
CONTINUOUS
 62
     7
 10
-120.0
 20
44.438375629540481
 30
0.0
 40
1.5
  0
CIRCLE
  5
26E
  8
PATTERN_FILL
  6
CONTINUOUS
 62
     7
 10
-120.0
 20
39.438375629540488
 30
0.0
 40
1.5
  0
CIRCLE
  5
26F
  8
PATTERN_FILL
  6
CONTINUOUS
 62
     7
 10
-120.0
 20
34.438375629540488
 30
0.0
 40
1.5
  0
CIRCLE
  5
270
  8
PATTERN_FILL
  6
CONTINUOUS
 62
     7
 10
-120.0
 20
29.438375629540491
 30
0.0
 40
1.5
  0
CIRCLE
  5
271
  8
PATTERN_FILL
  6
CONTINUOUS
 62
     7
 10
-120.0
 20
24.438375629540491
 30
0.0
 40
1.5
  0
CIRCLE
  5
272
  8
PATTERN_FILL
  6
CONTINUOUS
 62
     7
 10
-120.0
 20
19.438375629540491
 30
0.0
 40
1.5
  0
CIRCLE
  5
273
  8
PATTERN_FILL
  6
CONTINUOUS
 62
     7
 10
-120.0
 20
14.43837562954049
 30
0.0
 40
1.5
  0
CIRCLE
  5
274
  8
PATTERN_FILL
  6
CONTINUOUS
 62
     7
 10
-120.0
 20
9.4383756295404897
 30
0.0
 40
1.5
  0
CIRCLE
  5
275
  8
PATTERN_FILL
  6
CONTINUOUS
 62
     7
 10
-120.0
 20
4.438375629540487
 30
0.0
 40
1.5
  0
CIRCLE
  5
276
  8
PATTERN_FILL
  6
CONTINUOUS
 62
     7
 10
-120.0
 20
-0.5616243704595121
 30
0.0
 40
1.5
  0
CIRCLE
  5
277
  8
PATTERN_FILL
  6
CONTINUOUS
 62
     7
 10
-120.0
 20
-5.5616243704595121
 30
0.0
 40
1.5
  0
CIRCLE
  5
278
  8
PATTERN_FILL
  6
CONTINUOUS
 62
     7
 10
-120.0
 20
-10.56162437045951
 30
0.0
 40
1.5
  0
CIRCLE
  5
279
  8
PATTERN_FILL
  6
CONTINUOUS
 62
     7
 10
-120.0
 20
-15.56162437045951
 30
0.0
 40
1.5
  0
CIRCLE
  5
27A
  8
PATTERN_FILL
  6
CONTINUOUS
 62
     7
 10
-120.0
 20
-20.561624370459509
 30
0.0
 40
1.5
  0
CIRCLE
  5
27B
  8
PATTERN_FILL
  6
CONTINUOUS
 62
     7
 10
-120.0
 20
-25.561624370459509
 30
0.0
 40
1.5
  0
CIRCLE
  5
27C
  8
PATTERN_FILL
  6
CONTINUOUS
 62
     7
 10
-120.0
 20
-30.561624370459509
 30
0.0
 40
1.5
  0
CIRCLE
  5
27D
  8
PATTERN_FILL
  6
CONTINUOUS
 62
     7
 10
-120.0
 20
-35.561624370459512
 30
0.0
 40
1.5
  0
CIRCLE
  5
27E
  8
PATTERN_FILL
  6
CONTINUOUS
 62
     7
 10
-120.0
 20
-40.561624370459512
 30
0.0
 40
1.5
  0
CIRCLE
  5
27F
  8
PATTERN_FILL
  6
CONTINUOUS
 62
     7
 10
-120.0
 20
-45.561624370459512
 30
0.0
 40
1.5
  0
CIRCLE
  5
280
  8
PATTERN_FILL
  6
CONTINUOUS
 62
     7
 10
-120.0
 20
-50.561624370459512
 30
0.0
 40
1.5
  0
CIRCLE
  5
281
  8
PATTERN_FILL
  6
CONTINUOUS
 62
     7
 10
-120.0
 20
-55.561624370459512
 30
0.0
 40
1.5
  0
CIRCLE
  5
282
  8
PATTERN_FILL
  6
CONTINUOUS
 62
     7
 10
-120.0
 20
-60.561624370459512
 30
0.0
 40
1.5
  0
CIRCLE
  5
283
  8
PATTERN_FILL
  6
CONTINUOUS
 62
     7
 10
-120.0
 20
-65.561624370459512
 30
0.0
 40
1.5
  0
CIRCLE
  5
284
  8
PATTERN_FILL
  6
CONTINUOUS
 62
     7
 10
-120.0
 20
-70.561624370459512
 30
0.0
 40
1.5
  0
CIRCLE
  5
285
  8
PATTERN_FILL
  6
CONTINUOUS
 62
     7
 10
-120.0
 20
-75.561624370459498
 30
0.0
 40
1.5
  0
CIRCLE
  5
286
  8
PATTERN_FILL
  6
CONTINUOUS
 62
     7
 10
-120.0
 20
-80.561624370459498
 30
0.0
 40
1.5
  0
CIRCLE
  5
287
  8
PATTERN_FILL
  6
CONTINUOUS
 62
     7
 10
-120.0
 20
-85.561624370459498
 30
0.0
 40
1.5
  0
CIRCLE
  5
288
  8
PATTERN_FILL
  6
CONTINUOUS
 62
     7
 10
-120.0
 20
-90.561624370459512
 30
0.0
 40
1.5
  0
CIRCLE
  5
289
  8
PATTERN_FILL
  6
CONTINUOUS
 62
     7
 10
-120.0
 20
-95.561624370459512
 30
0.0
 40
1.5
  0
CIRCLE
  5
28A
  8
PATTERN_FILL
  6
CONTINUOUS
 62
     7
 10
-120.0
 20
-100.5616243704595
 30
0.0
 40
1.5
  0
CIRCLE
  5
28B
  8
PATTERN_FILL
  6
CONTINUOUS
 62
     7
 10
-120.0
 20
-105.5616243704595
 30
0.0
 40
1.5
  0
CIRCLE
  5
28C
  8
PATTERN_FILL
  6
CONTINUOUS
 62
     7
 10
-120.0
 20
-110.5616243704595
 30
0.0
 40
1.5
  0
CIRCLE
  5
28D
  8
PATTERN_FILL
  6
CONTINUOUS
 62
     7
 10
-120.0
 20
-115.5616243704595
 30
0.0
 40
1.5
  0
CIRCLE
  5
28E
  8
PATTERN_FILL
  6
CONTINUOUS
 62
     7
 10
-120.0
 20
-120.5616243704595
 30
0.0
 40
1.5
  0
CIRCLE
  5
28F
  8
PATTERN_FILL
  6
CONTINUOUS
 62
     7
 10
-120.0
 20
-125.5616243704595
 30
0.0
 40
1.5
  0
CIRCLE
  5
290
  8
PATTERN_FILL
  6
CONTINUOUS
 62
     7
 10
-120.0
 20
-130.5616243704595
 30
0.0
 40
1.5
  0
CIRCLE
  5
291
  8
PATTERN_FILL
  6
CONTINUOUS
 62
     7
 10
-120.0
 20
-135.5616243704595
 30
0.0
 40
1.5
  0
CIRCLE
  5
292
  8
PATTERN_FILL
  6
CONTINUOUS
 62
     7
 10
-120.0
 20
-140.5616243704595
 30
0.0
 40
1.5
  0
CIRCLE
  5
293
  8
PATTERN_FILL
  6
CONTINUOUS
 62
     7
 10
-120.0
 20
-145.5616243704595
 30
0.0
 40
1.5
  0
CIRCLE
  5
294
  8
PATTERN_FILL
  6
CONTINUOUS
 62
     7
 10
-120.0
 20
-150.5616243704595
 30
0.0
 40
1.5
  0
ARC
  5
295
  8
PATTERN_FILL
  6
CONTINUOUS
 62
     7
 10
-120.0
 20
-155.5616243704595
 30
0.0
 40
1.499999999999992
 50
6.6941206027492406
 51
151.8493657879807
  0
ARC
  5
296
  8
PATTERN_FILL
  6
CONTINUOUS
 62
     7
 10
-115.0
 20
54.43837562954073
 30
0.0
 40
1.4999999999997471
 50
104.8620695975624
 51
91.484397148187156
  0
CIRCLE
  5
297
  8
PATTERN_FILL
  6
CONTINUOUS
 62
     7
 10
-115.0
 20
49.438375629540481
 30
0.0
 40
1.5
  0
CIRCLE
  5
298
  8
PATTERN_FILL
  6
CONTINUOUS
 62
     7
 10
-115.0
 20
44.438375629540481
 30
0.0
 40
1.5
  0
CIRCLE
  5
299
  8
PATTERN_FILL
  6
CONTINUOUS
 62
     7
 10
-115.0
 20
39.438375629540488
 30
0.0
 40
1.5
  0
CIRCLE
  5
29A
  8
PATTERN_FILL
  6
CONTINUOUS
 62
     7
 10
-115.0
 20
34.438375629540488
 30
0.0
 40
1.5
  0
CIRCLE
  5
29B
  8
PATTERN_FILL
  6
CONTINUOUS
 62
     7
 10
-115.0
 20
29.438375629540491
 30
0.0
 40
1.5
  0
CIRCLE
  5
29C
  8
PATTERN_FILL
  6
CONTINUOUS
 62
     7
 10
-115.0
 20
24.438375629540491
 30
0.0
 40
1.5
  0
CIRCLE
  5
29D
  8
PATTERN_FILL
  6
CONTINUOUS
 62
     7
 10
-115.0
 20
19.438375629540491
 30
0.0
 40
1.5
  0
CIRCLE
  5
29E
  8
PATTERN_FILL
  6
CONTINUOUS
 62
     7
 10
-115.0
 20
14.43837562954049
 30
0.0
 40
1.5
  0
CIRCLE
  5
29F
  8
PATTERN_FILL
  6
CONTINUOUS
 62
     7
 10
-115.0
 20
9.4383756295404897
 30
0.0
 40
1.5
  0
CIRCLE
  5
2A0
  8
PATTERN_FILL
  6
CONTINUOUS
 62
     7
 10
-115.0
 20
4.438375629540487
 30
0.0
 40
1.5
  0
CIRCLE
  5
2A1
  8
PATTERN_FILL
  6
CONTINUOUS
 62
     7
 10
-115.0
 20
-0.5616243704595121
 30
0.0
 40
1.5
  0
CIRCLE
  5
2A2
  8
PATTERN_FILL
  6
CONTINUOUS
 62
     7
 10
-115.0
 20
-5.5616243704595121
 30
0.0
 40
1.5
  0
CIRCLE
  5
2A3
  8
PATTERN_FILL
  6
CONTINUOUS
 62
     7
 10
-115.0
 20
-10.56162437045951
 30
0.0
 40
1.5
  0
CIRCLE
  5
2A4
  8
PATTERN_FILL
  6
CONTINUOUS
 62
     7
 10
-115.0
 20
-15.56162437045951
 30
0.0
 40
1.5
  0
CIRCLE
  5
2A5
  8
PATTERN_FILL
  6
CONTINUOUS
 62
     7
 10
-115.0
 20
-20.561624370459509
 30
0.0
 40
1.5
  0
CIRCLE
  5
2A6
  8
PATTERN_FILL
  6
CONTINUOUS
 62
     7
 10
-115.0
 20
-25.561624370459509
 30
0.0
 40
1.5
  0
CIRCLE
  5
2A7
  8
PATTERN_FILL
  6
CONTINUOUS
 62
     7
 10
-115.0
 20
-30.561624370459509
 30
0.0
 40
1.5
  0
CIRCLE
  5
2A8
  8
PATTERN_FILL
  6
CONTINUOUS
 62
     7
 10
-115.0
 20
-35.561624370459512
 30
0.0
 40
1.5
  0
CIRCLE
  5
2A9
  8
PATTERN_FILL
  6
CONTINUOUS
 62
     7
 10
-115.0
 20
-40.561624370459512
 30
0.0
 40
1.5
  0
CIRCLE
  5
2AA
  8
PATTERN_FILL
  6
CONTINUOUS
 62
     7
 10
-115.0
 20
-45.561624370459512
 30
0.0
 40
1.5
  0
CIRCLE
  5
2AB
  8
PATTERN_FILL
  6
CONTINUOUS
 62
     7
 10
-115.0
 20
-50.561624370459512
 30
0.0
 40
1.5
  0
CIRCLE
  5
2AC
  8
PATTERN_FILL
  6
CONTINUOUS
 62
     7
 10
-115.0
 20
-55.561624370459512
 30
0.0
 40
1.5
  0
CIRCLE
  5
2AD
  8
PATTERN_FILL
  6
CONTINUOUS
 62
     7
 10
-115.0
 20
-60.561624370459512
 30
0.0
 40
1.5
  0
CIRCLE
  5
2AE
  8
PATTERN_FILL
  6
CONTINUOUS
 62
     7
 10
-115.0
 20
-65.561624370459512
 30
0.0
 40
1.5
  0
CIRCLE
  5
2AF
  8
PATTERN_FILL
  6
CONTINUOUS
 62
     7
 10
-115.0
 20
-70.561624370459512
 30
0.0
 40
1.5
  0
CIRCLE
  5
2B0
  8
PATTERN_FILL
  6
CONTINUOUS
 62
     7
 10
-115.0
 20
-75.561624370459498
 30
0.0
 40
1.5
  0
CIRCLE
  5
2B1
  8
PATTERN_FILL
  6
CONTINUOUS
 62
     7
 10
-115.0
 20
-80.561624370459498
 30
0.0
 40
1.5
  0
CIRCLE
  5
2B2
  8
PATTERN_FILL
  6
CONTINUOUS
 62
     7
 10
-115.0
 20
-85.561624370459498
 30
0.0
 40
1.5
  0
CIRCLE
  5
2B3
  8
PATTERN_FILL
  6
CONTINUOUS
 62
     7
 10
-115.0
 20
-90.561624370459512
 30
0.0
 40
1.5
  0
CIRCLE
  5
2B4
  8
PATTERN_FILL
  6
CONTINUOUS
 62
     7
 10
-115.0
 20
-95.561624370459512
 30
0.0
 40
1.5
  0
CIRCLE
  5
2B5
  8
PATTERN_FILL
  6
CONTINUOUS
 62
     7
 10
-115.0
 20
-100.5616243704595
 30
0.0
 40
1.5
  0
CIRCLE
  5
2B6
  8
PATTERN_FILL
  6
CONTINUOUS
 62
     7
 10
-115.0
 20
-105.5616243704595
 30
0.0
 40
1.5
  0
CIRCLE
  5
2B7
  8
PATTERN_FILL
  6
CONTINUOUS
 62
     7
 10
-115.0
 20
-110.5616243704595
 30
0.0
 40
1.5
  0
CIRCLE
  5
2B8
  8
PATTERN_FILL
  6
CONTINUOUS
 62
     7
 10
-115.0
 20
-115.5616243704595
 30
0.0
 40
1.5
  0
CIRCLE
  5
2B9
  8
PATTERN_FILL
  6
CONTINUOUS
 62
     7
 10
-115.0
 20
-120.5616243704595
 30
0.0
 40
1.5
  0
CIRCLE
  5
2BA
  8
PATTERN_FILL
  6
CONTINUOUS
 62
     7
 10
-115.0
 20
-125.5616243704595
 30
0.0
 40
1.5
  0
CIRCLE
  5
2BB
  8
PATTERN_FILL
  6
CONTINUOUS
 62
     7
 10
-115.0
 20
-130.5616243704595
 30
0.0
 40
1.5
  0
CIRCLE
  5
2BC
  8
PATTERN_FILL
  6
CONTINUOUS
 62
     7
 10
-115.0
 20
-135.5616243704595
 30
0.0
 40
1.5
  0
CIRCLE
  5
2BD
  8
PATTERN_FILL
  6
CONTINUOUS
 62
     7
 10
-115.0
 20
-140.5616243704595
 30
0.0
 40
1.5
  0
CIRCLE
  5
2BE
  8
PATTERN_FILL
  6
CONTINUOUS
 62
     7
 10
-115.0
 20
-145.5616243704595
 30
0.0
 40
1.5
  0
CIRCLE
  5
2BF
  8
PATTERN_FILL
  6
CONTINUOUS
 62
     7
 10
-115.0
 20
-150.5616243704595
 30
0.0
 40
1.5
  0
ARC
  5
2C0
  8
PATTERN_FILL
  6
CONTINUOUS
 62
     7
 10
-115.0
 20
-155.5616243704595
 30
0.0
 40
1.499999999999984
 50
337.70741476009613
 51
186.1177429436141
  0
CIRCLE
  5
2C1
  8
PATTERN_FILL
  6
CONTINUOUS
 62
     7
 10
-110.0
 20
54.438375629540481
 30
0.0
 40
1.5
  0
CIRCLE
  5
2C2
  8
PATTERN_FILL
  6
CONTINUOUS
 62
     7
 10
-110.0
 20
49.438375629540481
 30
0.0
 40
1.5
  0
CIRCLE
  5
2C3
  8
PATTERN_FILL
  6
CONTINUOUS
 62
     7
 10
-110.0
 20
44.438375629540481
 30
0.0
 40
1.5
  0
CIRCLE
  5
2C4
  8
PATTERN_FILL
  6
CONTINUOUS
 62
     7
 10
-110.0
 20
39.438375629540488
 30
0.0
 40
1.5
  0
CIRCLE
  5
2C5
  8
PATTERN_FILL
  6
CONTINUOUS
 62
     7
 10
-110.0
 20
34.438375629540488
 30
0.0
 40
1.5
  0
CIRCLE
  5
2C6
  8
PATTERN_FILL
  6
CONTINUOUS
 62
     7
 10
-110.0
 20
29.438375629540491
 30
0.0
 40
1.5
  0
CIRCLE
  5
2C7
  8
PATTERN_FILL
  6
CONTINUOUS
 62
     7
 10
-110.0
 20
24.438375629540491
 30
0.0
 40
1.5
  0
CIRCLE
  5
2C8
  8
PATTERN_FILL
  6
CONTINUOUS
 62
     7
 10
-110.0
 20
19.438375629540491
 30
0.0
 40
1.5
  0
CIRCLE
  5
2C9
  8
PATTERN_FILL
  6
CONTINUOUS
 62
     7
 10
-110.0
 20
14.43837562954049
 30
0.0
 40
1.5
  0
CIRCLE
  5
2CA
  8
PATTERN_FILL
  6
CONTINUOUS
 62
     7
 10
-110.0
 20
9.4383756295404897
 30
0.0
 40
1.5
  0
CIRCLE
  5
2CB
  8
PATTERN_FILL
  6
CONTINUOUS
 62
     7
 10
-110.0
 20
4.438375629540487
 30
0.0
 40
1.5
  0
CIRCLE
  5
2CC
  8
PATTERN_FILL
  6
CONTINUOUS
 62
     7
 10
-110.0
 20
-0.5616243704595121
 30
0.0
 40
1.5
  0
CIRCLE
  5
2CD
  8
PATTERN_FILL
  6
CONTINUOUS
 62
     7
 10
-110.0
 20
-5.5616243704595121
 30
0.0
 40
1.5
  0
CIRCLE
  5
2CE
  8
PATTERN_FILL
  6
CONTINUOUS
 62
     7
 10
-110.0
 20
-10.56162437045951
 30
0.0
 40
1.5
  0
CIRCLE
  5
2CF
  8
PATTERN_FILL
  6
CONTINUOUS
 62
     7
 10
-110.0
 20
-15.56162437045951
 30
0.0
 40
1.5
  0
CIRCLE
  5
2D0
  8
PATTERN_FILL
  6
CONTINUOUS
 62
     7
 10
-110.0
 20
-20.561624370459509
 30
0.0
 40
1.5
  0
CIRCLE
  5
2D1
  8
PATTERN_FILL
  6
CONTINUOUS
 62
     7
 10
-110.0
 20
-25.561624370459509
 30
0.0
 40
1.5
  0
CIRCLE
  5
2D2
  8
PATTERN_FILL
  6
CONTINUOUS
 62
     7
 10
-110.0
 20
-30.561624370459509
 30
0.0
 40
1.5
  0
CIRCLE
  5
2D3
  8
PATTERN_FILL
  6
CONTINUOUS
 62
     7
 10
-110.0
 20
-35.561624370459512
 30
0.0
 40
1.5
  0
CIRCLE
  5
2D4
  8
PATTERN_FILL
  6
CONTINUOUS
 62
     7
 10
-110.0
 20
-40.561624370459512
 30
0.0
 40
1.5
  0
CIRCLE
  5
2D5
  8
PATTERN_FILL
  6
CONTINUOUS
 62
     7
 10
-110.0
 20
-45.561624370459512
 30
0.0
 40
1.5
  0
CIRCLE
  5
2D6
  8
PATTERN_FILL
  6
CONTINUOUS
 62
     7
 10
-110.0
 20
-50.561624370459512
 30
0.0
 40
1.5
  0
CIRCLE
  5
2D7
  8
PATTERN_FILL
  6
CONTINUOUS
 62
     7
 10
-110.0
 20
-55.561624370459512
 30
0.0
 40
1.5
  0
CIRCLE
  5
2D8
  8
PATTERN_FILL
  6
CONTINUOUS
 62
     7
 10
-110.0
 20
-60.561624370459512
 30
0.0
 40
1.5
  0
CIRCLE
  5
2D9
  8
PATTERN_FILL
  6
CONTINUOUS
 62
     7
 10
-110.0
 20
-65.561624370459512
 30
0.0
 40
1.5
  0
CIRCLE
  5
2DA
  8
PATTERN_FILL
  6
CONTINUOUS
 62
     7
 10
-110.0
 20
-70.561624370459512
 30
0.0
 40
1.5
  0
CIRCLE
  5
2DB
  8
PATTERN_FILL
  6
CONTINUOUS
 62
     7
 10
-110.0
 20
-75.561624370459498
 30
0.0
 40
1.5
  0
CIRCLE
  5
2DC
  8
PATTERN_FILL
  6
CONTINUOUS
 62
     7
 10
-110.0
 20
-80.561624370459498
 30
0.0
 40
1.5
  0
CIRCLE
  5
2DD
  8
PATTERN_FILL
  6
CONTINUOUS
 62
     7
 10
-110.0
 20
-85.561624370459498
 30
0.0
 40
1.5
  0
CIRCLE
  5
2DE
  8
PATTERN_FILL
  6
CONTINUOUS
 62
     7
 10
-110.0
 20
-90.561624370459512
 30
0.0
 40
1.5
  0
CIRCLE
  5
2DF
  8
PATTERN_FILL
  6
CONTINUOUS
 62
     7
 10
-110.0
 20
-95.561624370459512
 30
0.0
 40
1.5
  0
CIRCLE
  5
2E0
  8
PATTERN_FILL
  6
CONTINUOUS
 62
     7
 10
-110.0
 20
-100.5616243704595
 30
0.0
 40
1.5
  0
CIRCLE
  5
2E1
  8
PATTERN_FILL
  6
CONTINUOUS
 62
     7
 10
-110.0
 20
-105.5616243704595
 30
0.0
 40
1.5
  0
CIRCLE
  5
2E2
  8
PATTERN_FILL
  6
CONTINUOUS
 62
     7
 10
-110.0
 20
-110.5616243704595
 30
0.0
 40
1.5
  0
CIRCLE
  5
2E3
  8
PATTERN_FILL
  6
CONTINUOUS
 62
     7
 10
-110.0
 20
-115.5616243704595
 30
0.0
 40
1.5
  0
CIRCLE
  5
2E4
  8
PATTERN_FILL
  6
CONTINUOUS
 62
     7
 10
-110.0
 20
-120.5616243704595
 30
0.0
 40
1.5
  0
CIRCLE
  5
2E5
  8
PATTERN_FILL
  6
CONTINUOUS
 62
     7
 10
-110.0
 20
-125.5616243704595
 30
0.0
 40
1.5
  0
CIRCLE
  5
2E6
  8
PATTERN_FILL
  6
CONTINUOUS
 62
     7
 10
-110.0
 20
-130.5616243704595
 30
0.0
 40
1.5
  0
CIRCLE
  5
2E7
  8
PATTERN_FILL
  6
CONTINUOUS
 62
     7
 10
-110.0
 20
-135.5616243704595
 30
0.0
 40
1.5
  0
CIRCLE
  5
2E8
  8
PATTERN_FILL
  6
CONTINUOUS
 62
     7
 10
-110.0
 20
-140.5616243704595
 30
0.0
 40
1.5
  0
CIRCLE
  5
2E9
  8
PATTERN_FILL
  6
CONTINUOUS
 62
     7
 10
-110.0
 20
-145.5616243704595
 30
0.0
 40
1.5
  0
CIRCLE
  5
2EA
  8
PATTERN_FILL
  6
CONTINUOUS
 62
     7
 10
-110.0
 20
-150.5616243704595
 30
0.0
 40
1.5
  0
ARC
  5
2EB
  8
PATTERN_FILL
  6
CONTINUOUS
 62
     7
 10
-110.0
 20
-155.56162437045961
 30
0.0
 40
1.49999999999994
 50
314.8182415594132
 51
214.35863870636911
  0
CIRCLE
  5
2EC
  8
PATTERN_FILL
  6
CONTINUOUS
 62
     7
 10
-105.0
 20
54.438375629540481
 30
0.0
 40
1.5
  0
CIRCLE
  5
2ED
  8
PATTERN_FILL
  6
CONTINUOUS
 62
     7
 10
-105.0
 20
49.438375629540481
 30
0.0
 40
1.5
  0
CIRCLE
  5
2EE
  8
PATTERN_FILL
  6
CONTINUOUS
 62
     7
 10
-105.0
 20
44.438375629540481
 30
0.0
 40
1.5
  0
CIRCLE
  5
2EF
  8
PATTERN_FILL
  6
CONTINUOUS
 62
     7
 10
-105.0
 20
39.438375629540488
 30
0.0
 40
1.5
  0
CIRCLE
  5
2F0
  8
PATTERN_FILL
  6
CONTINUOUS
 62
     7
 10
-105.0
 20
34.438375629540488
 30
0.0
 40
1.5
  0
CIRCLE
  5
2F1
  8
PATTERN_FILL
  6
CONTINUOUS
 62
     7
 10
-105.0
 20
29.438375629540491
 30
0.0
 40
1.5
  0
CIRCLE
  5
2F2
  8
PATTERN_FILL
  6
CONTINUOUS
 62
     7
 10
-105.0
 20
24.438375629540491
 30
0.0
 40
1.5
  0
CIRCLE
  5
2F3
  8
PATTERN_FILL
  6
CONTINUOUS
 62
     7
 10
-105.0
 20
19.438375629540491
 30
0.0
 40
1.5
  0
CIRCLE
  5
2F4
  8
PATTERN_FILL
  6
CONTINUOUS
 62
     7
 10
-105.0
 20
14.43837562954049
 30
0.0
 40
1.5
  0
CIRCLE
  5
2F5
  8
PATTERN_FILL
  6
CONTINUOUS
 62
     7
 10
-105.0
 20
9.4383756295404897
 30
0.0
 40
1.5
  0
CIRCLE
  5
2F6
  8
PATTERN_FILL
  6
CONTINUOUS
 62
     7
 10
-105.0
 20
4.438375629540487
 30
0.0
 40
1.5
  0
CIRCLE
  5
2F7
  8
PATTERN_FILL
  6
CONTINUOUS
 62
     7
 10
-105.0
 20
-0.5616243704595121
 30
0.0
 40
1.5
  0
CIRCLE
  5
2F8
  8
PATTERN_FILL
  6
CONTINUOUS
 62
     7
 10
-105.0
 20
-5.5616243704595121
 30
0.0
 40
1.5
  0
CIRCLE
  5
2F9
  8
PATTERN_FILL
  6
CONTINUOUS
 62
     7
 10
-105.0
 20
-10.56162437045951
 30
0.0
 40
1.5
  0
CIRCLE
  5
2FA
  8
PATTERN_FILL
  6
CONTINUOUS
 62
     7
 10
-105.0
 20
-15.56162437045951
 30
0.0
 40
1.5
  0
CIRCLE
  5
2FB
  8
PATTERN_FILL
  6
CONTINUOUS
 62
     7
 10
-105.0
 20
-20.561624370459509
 30
0.0
 40
1.5
  0
CIRCLE
  5
2FC
  8
PATTERN_FILL
  6
CONTINUOUS
 62
     7
 10
-105.0
 20
-25.561624370459509
 30
0.0
 40
1.5
  0
CIRCLE
  5
2FD
  8
PATTERN_FILL
  6
CONTINUOUS
 62
     7
 10
-105.0
 20
-30.561624370459509
 30
0.0
 40
1.5
  0
CIRCLE
  5
2FE
  8
PATTERN_FILL
  6
CONTINUOUS
 62
     7
 10
-105.0
 20
-35.561624370459512
 30
0.0
 40
1.5
  0
CIRCLE
  5
2FF
  8
PATTERN_FILL
  6
CONTINUOUS
 62
     7
 10
-105.0
 20
-40.561624370459512
 30
0.0
 40
1.5
  0
ARC
  5
300
  8
PATTERN_FILL
  6
CONTINUOUS
 62
     7
 10
-105.0
 20
-45.561624370459512
 30
0.0
 40
1.499999999999994
 50
21.988237936214571
 51
228.18968510422161
  0
ARC
  5
301
  8
PATTERN_FILL
  6
CONTINUOUS
 62
     7
 10
-105.0
 20
-50.561624370459477
 30
0.0
 40
1.50000000000003
 50
131.81031489577751
 51
228.18968510422249
  0
ARC
  5
302
  8
PATTERN_FILL
  6
CONTINUOUS
 62
     7
 10
-105.0
 20
-55.561624370459519
 30
0.0
 40
1.500000000000014
 50
131.81031489577811
 51
21.988237936215079
  0
CIRCLE
  5
303
  8
PATTERN_FILL
  6
CONTINUOUS
 62
     7
 10
-105.0
 20
-60.561624370459512
 30
0.0
 40
1.5
  0
CIRCLE
  5
304
  8
PATTERN_FILL
  6
CONTINUOUS
 62
     7
 10
-105.0
 20
-65.561624370459512
 30
0.0
 40
1.5
  0
CIRCLE
  5
305
  8
PATTERN_FILL
  6
CONTINUOUS
 62
     7
 10
-105.0
 20
-70.561624370459512
 30
0.0
 40
1.5
  0
CIRCLE
  5
306
  8
PATTERN_FILL
  6
CONTINUOUS
 62
     7
 10
-105.0
 20
-75.561624370459498
 30
0.0
 40
1.5
  0
CIRCLE
  5
307
  8
PATTERN_FILL
  6
CONTINUOUS
 62
     7
 10
-105.0
 20
-80.561624370459498
 30
0.0
 40
1.5
  0
CIRCLE
  5
308
  8
PATTERN_FILL
  6
CONTINUOUS
 62
     7
 10
-105.0
 20
-85.561624370459498
 30
0.0
 40
1.5
  0
CIRCLE
  5
309
  8
PATTERN_FILL
  6
CONTINUOUS
 62
     7
 10
-105.0
 20
-90.561624370459512
 30
0.0
 40
1.5
  0
CIRCLE
  5
30A
  8
PATTERN_FILL
  6
CONTINUOUS
 62
     7
 10
-105.0
 20
-95.561624370459512
 30
0.0
 40
1.5
  0
CIRCLE
  5
30B
  8
PATTERN_FILL
  6
CONTINUOUS
 62
     7
 10
-105.0
 20
-100.5616243704595
 30
0.0
 40
1.5
  0
CIRCLE
  5
30C
  8
PATTERN_FILL
  6
CONTINUOUS
 62
     7
 10
-105.0
 20
-105.5616243704595
 30
0.0
 40
1.5
  0
CIRCLE
  5
30D
  8
PATTERN_FILL
  6
CONTINUOUS
 62
     7
 10
-105.0
 20
-110.5616243704595
 30
0.0
 40
1.5
  0
CIRCLE
  5
30E
  8
PATTERN_FILL
  6
CONTINUOUS
 62
     7
 10
-105.0
 20
-115.5616243704595
 30
0.0
 40
1.5
  0
CIRCLE
  5
30F
  8
PATTERN_FILL
  6
CONTINUOUS
 62
     7
 10
-105.0
 20
-120.5616243704595
 30
0.0
 40
1.5
  0
CIRCLE
  5
310
  8
PATTERN_FILL
  6
CONTINUOUS
 62
     7
 10
-105.0
 20
-125.5616243704595
 30
0.0
 40
1.5
  0
CIRCLE
  5
311
  8
PATTERN_FILL
  6
CONTINUOUS
 62
     7
 10
-105.0
 20
-130.5616243704595
 30
0.0
 40
1.5
  0
CIRCLE
  5
312
  8
PATTERN_FILL
  6
CONTINUOUS
 62
     7
 10
-105.0
 20
-135.5616243704595
 30
0.0
 40
1.5
  0
CIRCLE
  5
313
  8
PATTERN_FILL
  6
CONTINUOUS
 62
     7
 10
-105.0
 20
-140.5616243704595
 30
0.0
 40
1.5
  0
CIRCLE
  5
314
  8
PATTERN_FILL
  6
CONTINUOUS
 62
     7
 10
-105.0
 20
-145.5616243704595
 30
0.0
 40
1.5
  0
CIRCLE
  5
315
  8
PATTERN_FILL
  6
CONTINUOUS
 62
     7
 10
-105.0
 20
-150.5616243704595
 30
0.0
 40
1.5
  0
ARC
  5
316
  8
PATTERN_FILL
  6
CONTINUOUS
 62
     7
 10
-105.0
 20
-155.56162437045941
 30
0.0
 40
1.5000000000000639
 50
295.8361009668447
 51
238.74024346058599
  0
CIRCLE
  5
317
  8
PATTERN_FILL
  6
CONTINUOUS
 62
     7
 10
-100.0
 20
54.438375629540481
 30
0.0
 40
1.5
  0
CIRCLE
  5
318
  8
PATTERN_FILL
  6
CONTINUOUS
 62
     7
 10
-100.0
 20
49.438375629540481
 30
0.0
 40
1.5
  0
CIRCLE
  5
319
  8
PATTERN_FILL
  6
CONTINUOUS
 62
     7
 10
-100.0
 20
44.438375629540481
 30
0.0
 40
1.5
  0
CIRCLE
  5
31A
  8
PATTERN_FILL
  6
CONTINUOUS
 62
     7
 10
-100.0
 20
39.438375629540488
 30
0.0
 40
1.5
  0
CIRCLE
  5
31B
  8
PATTERN_FILL
  6
CONTINUOUS
 62
     7
 10
-100.0
 20
34.438375629540488
 30
0.0
 40
1.5
  0
CIRCLE
  5
31C
  8
PATTERN_FILL
  6
CONTINUOUS
 62
     7
 10
-100.0
 20
29.438375629540491
 30
0.0
 40
1.5
  0
CIRCLE
  5
31D
  8
PATTERN_FILL
  6
CONTINUOUS
 62
     7
 10
-100.0
 20
24.438375629540491
 30
0.0
 40
1.5
  0
CIRCLE
  5
31E
  8
PATTERN_FILL
  6
CONTINUOUS
 62
     7
 10
-100.0
 20
19.438375629540491
 30
0.0
 40
1.5
  0
CIRCLE
  5
31F
  8
PATTERN_FILL
  6
CONTINUOUS
 62
     7
 10
-100.0
 20
14.43837562954049
 30
0.0
 40
1.5
  0
CIRCLE
  5
320
  8
PATTERN_FILL
  6
CONTINUOUS
 62
     7
 10
-100.0
 20
9.4383756295404897
 30
0.0
 40
1.5
  0
CIRCLE
  5
321
  8
PATTERN_FILL
  6
CONTINUOUS
 62
     7
 10
-100.0
 20
4.438375629540487
 30
0.0
 40
1.5
  0
CIRCLE
  5
322
  8
PATTERN_FILL
  6
CONTINUOUS
 62
     7
 10
-100.0
 20
-0.5616243704595121
 30
0.0
 40
1.5
  0
CIRCLE
  5
323
  8
PATTERN_FILL
  6
CONTINUOUS
 62
     7
 10
-100.0
 20
-5.5616243704595121
 30
0.0
 40
1.5
  0
CIRCLE
  5
324
  8
PATTERN_FILL
  6
CONTINUOUS
 62
     7
 10
-100.0
 20
-10.56162437045951
 30
0.0
 40
1.5
  0
CIRCLE
  5
325
  8
PATTERN_FILL
  6
CONTINUOUS
 62
     7
 10
-100.0
 20
-15.56162437045951
 30
0.0
 40
1.5
  0
CIRCLE
  5
326
  8
PATTERN_FILL
  6
CONTINUOUS
 62
     7
 10
-100.0
 20
-20.561624370459509
 30
0.0
 40
1.5
  0
CIRCLE
  5
327
  8
PATTERN_FILL
  6
CONTINUOUS
 62
     7
 10
-100.0
 20
-25.561624370459509
 30
0.0
 40
1.5
  0
CIRCLE
  5
328
  8
PATTERN_FILL
  6
CONTINUOUS
 62
     7
 10
-100.0
 20
-30.561624370459509
 30
0.0
 40
1.5
  0
CIRCLE
  5
329
  8
PATTERN_FILL
  6
CONTINUOUS
 62
     7
 10
-100.0
 20
-35.561624370459512
 30
0.0
 40
1.5
  0
CIRCLE
  5
32A
  8
PATTERN_FILL
  6
CONTINUOUS
 62
     7
 10
-100.0
 20
-40.561624370459512
 30
0.0
 40
1.5
  0
ARC
  5
32B
  8
PATTERN_FILL
  6
CONTINUOUS
 62
     7
 10
-100.0
 20
-45.561624370459512
 30
0.0
 40
1.499999999999994
 50
21.988237936214571
 51
158.0117620637854
  0
ARC
  5
32C
  8
PATTERN_FILL
  6
CONTINUOUS
 62
     7
 10
-100.0
 20
-55.561624370459498
 30
0.0
 40
1.499999999999988
 50
158.01176206378591
 51
21.98823793621407
  0
CIRCLE
  5
32D
  8
PATTERN_FILL
  6
CONTINUOUS
 62
     7
 10
-100.0
 20
-60.561624370459512
 30
0.0
 40
1.5
  0
CIRCLE
  5
32E
  8
PATTERN_FILL
  6
CONTINUOUS
 62
     7
 10
-100.0
 20
-65.561624370459512
 30
0.0
 40
1.5
  0
CIRCLE
  5
32F
  8
PATTERN_FILL
  6
CONTINUOUS
 62
     7
 10
-100.0
 20
-70.561624370459512
 30
0.0
 40
1.5
  0
CIRCLE
  5
330
  8
PATTERN_FILL
  6
CONTINUOUS
 62
     7
 10
-100.0
 20
-75.561624370459498
 30
0.0
 40
1.5
  0
CIRCLE
  5
331
  8
PATTERN_FILL
  6
CONTINUOUS
 62
     7
 10
-100.0
 20
-80.561624370459498
 30
0.0
 40
1.5
  0
CIRCLE
  5
332
  8
PATTERN_FILL
  6
CONTINUOUS
 62
     7
 10
-100.0
 20
-85.561624370459498
 30
0.0
 40
1.5
  0
CIRCLE
  5
333
  8
PATTERN_FILL
  6
CONTINUOUS
 62
     7
 10
-100.0
 20
-90.561624370459512
 30
0.0
 40
1.5
  0
CIRCLE
  5
334
  8
PATTERN_FILL
  6
CONTINUOUS
 62
     7
 10
-100.0
 20
-95.561624370459512
 30
0.0
 40
1.5
  0
CIRCLE
  5
335
  8
PATTERN_FILL
  6
CONTINUOUS
 62
     7
 10
-100.0
 20
-100.5616243704595
 30
0.0
 40
1.5
  0
CIRCLE
  5
336
  8
PATTERN_FILL
  6
CONTINUOUS
 62
     7
 10
-100.0
 20
-105.5616243704595
 30
0.0
 40
1.5
  0
CIRCLE
  5
337
  8
PATTERN_FILL
  6
CONTINUOUS
 62
     7
 10
-100.0
 20
-110.5616243704595
 30
0.0
 40
1.5
  0
CIRCLE
  5
338
  8
PATTERN_FILL
  6
CONTINUOUS
 62
     7
 10
-100.0
 20
-115.5616243704595
 30
0.0
 40
1.5
  0
CIRCLE
  5
339
  8
PATTERN_FILL
  6
CONTINUOUS
 62
     7
 10
-100.0
 20
-120.5616243704595
 30
0.0
 40
1.5
  0
CIRCLE
  5
33A
  8
PATTERN_FILL
  6
CONTINUOUS
 62
     7
 10
-100.0
 20
-125.5616243704595
 30
0.0
 40
1.5
  0
CIRCLE
  5
33B
  8
PATTERN_FILL
  6
CONTINUOUS
 62
     7
 10
-100.0
 20
-130.5616243704595
 30
0.0
 40
1.5
  0
CIRCLE
  5
33C
  8
PATTERN_FILL
  6
CONTINUOUS
 62
     7
 10
-100.0
 20
-135.5616243704595
 30
0.0
 40
1.5
  0
CIRCLE
  5
33D
  8
PATTERN_FILL
  6
CONTINUOUS
 62
     7
 10
-100.0
 20
-140.5616243704595
 30
0.0
 40
1.5
  0
CIRCLE
  5
33E
  8
PATTERN_FILL
  6
CONTINUOUS
 62
     7
 10
-100.0
 20
-145.5616243704595
 30
0.0
 40
1.5
  0
CIRCLE
  5
33F
  8
PATTERN_FILL
  6
CONTINUOUS
 62
     7
 10
-100.0
 20
-150.5616243704595
 30
0.0
 40
1.5
  0
ARC
  5
340
  8
PATTERN_FILL
  6
CONTINUOUS
 62
     7
 10
-100.0
 20
-155.5616243704595
 30
0.0
 40
1.500000000000052
 50
286.59544136426518
 51
253.4045586357349
  0
CIRCLE
  5
341
  8
PATTERN_FILL
  6
CONTINUOUS
 62
     7
 10
-95.0
 20
54.438375629540481
 30
0.0
 40
1.5
  0
CIRCLE
  5
342
  8
PATTERN_FILL
  6
CONTINUOUS
 62
     7
 10
-95.0
 20
49.438375629540481
 30
0.0
 40
1.5
  0
CIRCLE
  5
343
  8
PATTERN_FILL
  6
CONTINUOUS
 62
     7
 10
-95.0
 20
44.438375629540481
 30
0.0
 40
1.5
  0
CIRCLE
  5
344
  8
PATTERN_FILL
  6
CONTINUOUS
 62
     7
 10
-95.0
 20
39.438375629540488
 30
0.0
 40
1.5
  0
CIRCLE
  5
345
  8
PATTERN_FILL
  6
CONTINUOUS
 62
     7
 10
-95.0
 20
34.438375629540488
 30
0.0
 40
1.5
  0
CIRCLE
  5
346
  8
PATTERN_FILL
  6
CONTINUOUS
 62
     7
 10
-95.0
 20
29.438375629540491
 30
0.0
 40
1.5
  0
CIRCLE
  5
347
  8
PATTERN_FILL
  6
CONTINUOUS
 62
     7
 10
-95.0
 20
24.438375629540491
 30
0.0
 40
1.5
  0
CIRCLE
  5
348
  8
PATTERN_FILL
  6
CONTINUOUS
 62
     7
 10
-95.0
 20
19.438375629540491
 30
0.0
 40
1.5
  0
CIRCLE
  5
349
  8
PATTERN_FILL
  6
CONTINUOUS
 62
     7
 10
-95.0
 20
14.43837562954049
 30
0.0
 40
1.5
  0
CIRCLE
  5
34A
  8
PATTERN_FILL
  6
CONTINUOUS
 62
     7
 10
-95.0
 20
9.4383756295404897
 30
0.0
 40
1.5
  0
CIRCLE
  5
34B
  8
PATTERN_FILL
  6
CONTINUOUS
 62
     7
 10
-95.0
 20
4.438375629540487
 30
0.0
 40
1.5
  0
CIRCLE
  5
34C
  8
PATTERN_FILL
  6
CONTINUOUS
 62
     7
 10
-95.0
 20
-0.5616243704595121
 30
0.0
 40
1.5
  0
CIRCLE
  5
34D
  8
PATTERN_FILL
  6
CONTINUOUS
 62
     7
 10
-95.0
 20
-5.5616243704595121
 30
0.0
 40
1.5
  0
CIRCLE
  5
34E
  8
PATTERN_FILL
  6
CONTINUOUS
 62
     7
 10
-95.0
 20
-10.56162437045951
 30
0.0
 40
1.5
  0
CIRCLE
  5
34F
  8
PATTERN_FILL
  6
CONTINUOUS
 62
     7
 10
-95.0
 20
-15.56162437045951
 30
0.0
 40
1.5
  0
CIRCLE
  5
350
  8
PATTERN_FILL
  6
CONTINUOUS
 62
     7
 10
-95.0
 20
-20.561624370459509
 30
0.0
 40
1.5
  0
CIRCLE
  5
351
  8
PATTERN_FILL
  6
CONTINUOUS
 62
     7
 10
-95.0
 20
-25.561624370459509
 30
0.0
 40
1.5
  0
CIRCLE
  5
352
  8
PATTERN_FILL
  6
CONTINUOUS
 62
     7
 10
-95.0
 20
-30.561624370459509
 30
0.0
 40
1.5
  0
CIRCLE
  5
353
  8
PATTERN_FILL
  6
CONTINUOUS
 62
     7
 10
-95.0
 20
-35.561624370459512
 30
0.0
 40
1.5
  0
CIRCLE
  5
354
  8
PATTERN_FILL
  6
CONTINUOUS
 62
     7
 10
-95.0
 20
-40.561624370459512
 30
0.0
 40
1.5
  0
ARC
  5
355
  8
PATTERN_FILL
  6
CONTINUOUS
 62
     7
 10
-94.999999999999986
 20
-45.561624370459512
 30
0.0
 40
1.4999999999999989
 50
311.81031489577788
 51
158.01176206378591
  0
ARC
  5
356
  8
PATTERN_FILL
  6
CONTINUOUS
 62
     7
 10
-95.0
 20
-50.561624370459519
 30
0.0
 40
1.499999999999998
 50
311.81031489577867
 51
48.18968510422178
  0
ARC
  5
357
  8
PATTERN_FILL
  6
CONTINUOUS
 62
     7
 10
-94.999999999999986
 20
-55.561624370459519
 30
0.0
 40
1.500000000000012
 50
158.01176206378511
 51
48.189685104222271
  0
CIRCLE
  5
358
  8
PATTERN_FILL
  6
CONTINUOUS
 62
     7
 10
-95.0
 20
-60.561624370459512
 30
0.0
 40
1.5
  0
CIRCLE
  5
359
  8
PATTERN_FILL
  6
CONTINUOUS
 62
     7
 10
-95.0
 20
-65.561624370459512
 30
0.0
 40
1.5
  0
CIRCLE
  5
35A
  8
PATTERN_FILL
  6
CONTINUOUS
 62
     7
 10
-95.0
 20
-70.561624370459512
 30
0.0
 40
1.5
  0
CIRCLE
  5
35B
  8
PATTERN_FILL
  6
CONTINUOUS
 62
     7
 10
-95.0
 20
-75.561624370459498
 30
0.0
 40
1.5
  0
CIRCLE
  5
35C
  8
PATTERN_FILL
  6
CONTINUOUS
 62
     7
 10
-95.0
 20
-80.561624370459498
 30
0.0
 40
1.5
  0
CIRCLE
  5
35D
  8
PATTERN_FILL
  6
CONTINUOUS
 62
     7
 10
-95.0
 20
-85.561624370459498
 30
0.0
 40
1.5
  0
CIRCLE
  5
35E
  8
PATTERN_FILL
  6
CONTINUOUS
 62
     7
 10
-95.0
 20
-90.561624370459512
 30
0.0
 40
1.5
  0
CIRCLE
  5
35F
  8
PATTERN_FILL
  6
CONTINUOUS
 62
     7
 10
-95.0
 20
-95.561624370459512
 30
0.0
 40
1.5
  0
CIRCLE
  5
360
  8
PATTERN_FILL
  6
CONTINUOUS
 62
     7
 10
-95.0
 20
-100.5616243704595
 30
0.0
 40
1.5
  0
CIRCLE
  5
361
  8
PATTERN_FILL
  6
CONTINUOUS
 62
     7
 10
-95.0
 20
-105.5616243704595
 30
0.0
 40
1.5
  0
CIRCLE
  5
362
  8
PATTERN_FILL
  6
CONTINUOUS
 62
     7
 10
-95.0
 20
-110.5616243704595
 30
0.0
 40
1.5
  0
CIRCLE
  5
363
  8
PATTERN_FILL
  6
CONTINUOUS
 62
     7
 10
-95.0
 20
-115.5616243704595
 30
0.0
 40
1.5
  0
CIRCLE
  5
364
  8
PATTERN_FILL
  6
CONTINUOUS
 62
     7
 10
-95.0
 20
-120.5616243704595
 30
0.0
 40
1.5
  0
CIRCLE
  5
365
  8
PATTERN_FILL
  6
CONTINUOUS
 62
     7
 10
-95.0
 20
-125.5616243704595
 30
0.0
 40
1.5
  0
CIRCLE
  5
366
  8
PATTERN_FILL
  6
CONTINUOUS
 62
     7
 10
-95.0
 20
-130.5616243704595
 30
0.0
 40
1.5
  0
CIRCLE
  5
367
  8
PATTERN_FILL
  6
CONTINUOUS
 62
     7
 10
-95.0
 20
-135.5616243704595
 30
0.0
 40
1.5
  0
CIRCLE
  5
368
  8
PATTERN_FILL
  6
CONTINUOUS
 62
     7
 10
-95.0
 20
-140.5616243704595
 30
0.0
 40
1.5
  0
CIRCLE
  5
369
  8
PATTERN_FILL
  6
CONTINUOUS
 62
     7
 10
-95.0
 20
-145.5616243704595
 30
0.0
 40
1.5
  0
CIRCLE
  5
36A
  8
PATTERN_FILL
  6
CONTINUOUS
 62
     7
 10
-95.0
 20
-150.5616243704595
 30
0.0
 40
1.5
  0
ARC
  5
36B
  8
PATTERN_FILL
  6
CONTINUOUS
 62
     7
 10
-95.0
 20
-155.5616243704597
 30
0.0
 40
1.4999999999998701
 50
301.25975653941799
 51
244.1638990331511
  0
CIRCLE
  5
36C
  8
PATTERN_FILL
  6
CONTINUOUS
 62
     7
 10
-90.0
 20
54.438375629540481
 30
0.0
 40
1.5
  0
CIRCLE
  5
36D
  8
PATTERN_FILL
  6
CONTINUOUS
 62
     7
 10
-90.0
 20
49.438375629540481
 30
0.0
 40
1.5
  0
CIRCLE
  5
36E
  8
PATTERN_FILL
  6
CONTINUOUS
 62
     7
 10
-90.0
 20
44.438375629540481
 30
0.0
 40
1.5
  0
CIRCLE
  5
36F
  8
PATTERN_FILL
  6
CONTINUOUS
 62
     7
 10
-90.0
 20
39.438375629540488
 30
0.0
 40
1.5
  0
CIRCLE
  5
370
  8
PATTERN_FILL
  6
CONTINUOUS
 62
     7
 10
-90.0
 20
34.438375629540488
 30
0.0
 40
1.5
  0
CIRCLE
  5
371
  8
PATTERN_FILL
  6
CONTINUOUS
 62
     7
 10
-90.0
 20
29.438375629540491
 30
0.0
 40
1.5
  0
CIRCLE
  5
372
  8
PATTERN_FILL
  6
CONTINUOUS
 62
     7
 10
-90.0
 20
24.438375629540491
 30
0.0
 40
1.5
  0
CIRCLE
  5
373
  8
PATTERN_FILL
  6
CONTINUOUS
 62
     7
 10
-90.0
 20
19.438375629540491
 30
0.0
 40
1.5
  0
CIRCLE
  5
374
  8
PATTERN_FILL
  6
CONTINUOUS
 62
     7
 10
-90.0
 20
14.43837562954049
 30
0.0
 40
1.5
  0
CIRCLE
  5
375
  8
PATTERN_FILL
  6
CONTINUOUS
 62
     7
 10
-90.0
 20
9.4383756295404897
 30
0.0
 40
1.5
  0
CIRCLE
  5
376
  8
PATTERN_FILL
  6
CONTINUOUS
 62
     7
 10
-90.0
 20
4.438375629540487
 30
0.0
 40
1.5
  0
CIRCLE
  5
377
  8
PATTERN_FILL
  6
CONTINUOUS
 62
     7
 10
-90.0
 20
-0.5616243704595121
 30
0.0
 40
1.5
  0
CIRCLE
  5
378
  8
PATTERN_FILL
  6
CONTINUOUS
 62
     7
 10
-90.0
 20
-5.5616243704595121
 30
0.0
 40
1.5
  0
CIRCLE
  5
379
  8
PATTERN_FILL
  6
CONTINUOUS
 62
     7
 10
-90.0
 20
-10.56162437045951
 30
0.0
 40
1.5
  0
CIRCLE
  5
37A
  8
PATTERN_FILL
  6
CONTINUOUS
 62
     7
 10
-90.0
 20
-15.56162437045951
 30
0.0
 40
1.5
  0
CIRCLE
  5
37B
  8
PATTERN_FILL
  6
CONTINUOUS
 62
     7
 10
-90.0
 20
-20.561624370459509
 30
0.0
 40
1.5
  0
CIRCLE
  5
37C
  8
PATTERN_FILL
  6
CONTINUOUS
 62
     7
 10
-90.0
 20
-25.561624370459509
 30
0.0
 40
1.5
  0
CIRCLE
  5
37D
  8
PATTERN_FILL
  6
CONTINUOUS
 62
     7
 10
-90.0
 20
-30.561624370459509
 30
0.0
 40
1.5
  0
CIRCLE
  5
37E
  8
PATTERN_FILL
  6
CONTINUOUS
 62
     7
 10
-90.0
 20
-35.561624370459512
 30
0.0
 40
1.5
  0
CIRCLE
  5
37F
  8
PATTERN_FILL
  6
CONTINUOUS
 62
     7
 10
-90.0
 20
-40.561624370459512
 30
0.0
 40
1.5
  0
CIRCLE
  5
380
  8
PATTERN_FILL
  6
CONTINUOUS
 62
     7
 10
-90.0
 20
-45.561624370459512
 30
0.0
 40
1.5
  0
CIRCLE
  5
381
  8
PATTERN_FILL
  6
CONTINUOUS
 62
     7
 10
-90.0
 20
-50.561624370459512
 30
0.0
 40
1.5
  0
CIRCLE
  5
382
  8
PATTERN_FILL
  6
CONTINUOUS
 62
     7
 10
-90.0
 20
-55.561624370459512
 30
0.0
 40
1.5
  0
CIRCLE
  5
383
  8
PATTERN_FILL
  6
CONTINUOUS
 62
     7
 10
-90.0
 20
-60.561624370459512
 30
0.0
 40
1.5
  0
CIRCLE
  5
384
  8
PATTERN_FILL
  6
CONTINUOUS
 62
     7
 10
-90.0
 20
-65.561624370459512
 30
0.0
 40
1.5
  0
CIRCLE
  5
385
  8
PATTERN_FILL
  6
CONTINUOUS
 62
     7
 10
-90.0
 20
-70.561624370459512
 30
0.0
 40
1.5
  0
CIRCLE
  5
386
  8
PATTERN_FILL
  6
CONTINUOUS
 62
     7
 10
-90.0
 20
-75.561624370459498
 30
0.0
 40
1.5
  0
CIRCLE
  5
387
  8
PATTERN_FILL
  6
CONTINUOUS
 62
     7
 10
-90.0
 20
-80.561624370459498
 30
0.0
 40
1.5
  0
CIRCLE
  5
388
  8
PATTERN_FILL
  6
CONTINUOUS
 62
     7
 10
-90.0
 20
-85.561624370459498
 30
0.0
 40
1.5
  0
CIRCLE
  5
389
  8
PATTERN_FILL
  6
CONTINUOUS
 62
     7
 10
-90.0
 20
-90.561624370459512
 30
0.0
 40
1.5
  0
CIRCLE
  5
38A
  8
PATTERN_FILL
  6
CONTINUOUS
 62
     7
 10
-90.0
 20
-95.561624370459512
 30
0.0
 40
1.5
  0
CIRCLE
  5
38B
  8
PATTERN_FILL
  6
CONTINUOUS
 62
     7
 10
-90.0
 20
-100.5616243704595
 30
0.0
 40
1.5
  0
CIRCLE
  5
38C
  8
PATTERN_FILL
  6
CONTINUOUS
 62
     7
 10
-90.0
 20
-105.5616243704595
 30
0.0
 40
1.5
  0
CIRCLE
  5
38D
  8
PATTERN_FILL
  6
CONTINUOUS
 62
     7
 10
-90.0
 20
-110.5616243704595
 30
0.0
 40
1.5
  0
CIRCLE
  5
38E
  8
PATTERN_FILL
  6
CONTINUOUS
 62
     7
 10
-90.0
 20
-115.5616243704595
 30
0.0
 40
1.5
  0
CIRCLE
  5
38F
  8
PATTERN_FILL
  6
CONTINUOUS
 62
     7
 10
-90.0
 20
-120.5616243704595
 30
0.0
 40
1.5
  0
CIRCLE
  5
390
  8
PATTERN_FILL
  6
CONTINUOUS
 62
     7
 10
-90.0
 20
-125.5616243704595
 30
0.0
 40
1.5
  0
CIRCLE
  5
391
  8
PATTERN_FILL
  6
CONTINUOUS
 62
     7
 10
-90.0
 20
-130.5616243704595
 30
0.0
 40
1.5
  0
CIRCLE
  5
392
  8
PATTERN_FILL
  6
CONTINUOUS
 62
     7
 10
-90.0
 20
-135.5616243704595
 30
0.0
 40
1.5
  0
CIRCLE
  5
393
  8
PATTERN_FILL
  6
CONTINUOUS
 62
     7
 10
-90.0
 20
-140.5616243704595
 30
0.0
 40
1.5
  0
CIRCLE
  5
394
  8
PATTERN_FILL
  6
CONTINUOUS
 62
     7
 10
-90.0
 20
-145.5616243704595
 30
0.0
 40
1.5
  0
CIRCLE
  5
395
  8
PATTERN_FILL
  6
CONTINUOUS
 62
     7
 10
-90.0
 20
-150.5616243704595
 30
0.0
 40
1.5
  0
ARC
  5
396
  8
PATTERN_FILL
  6
CONTINUOUS
 62
     7
 10
-90.0
 20
-155.5616243704595
 30
0.0
 40
1.4999999999999889
 50
325.64136129362822
 51
225.18175844058919
  0
CIRCLE
  5
397
  8
PATTERN_FILL
  6
CONTINUOUS
 62
     7
 10
-85.0
 20
54.438375629540481
 30
0.0
 40
1.5
  0
CIRCLE
  5
398
  8
PATTERN_FILL
  6
CONTINUOUS
 62
     7
 10
-85.0
 20
49.438375629540481
 30
0.0
 40
1.5
  0
CIRCLE
  5
399
  8
PATTERN_FILL
  6
CONTINUOUS
 62
     7
 10
-85.0
 20
44.438375629540481
 30
0.0
 40
1.5
  0
CIRCLE
  5
39A
  8
PATTERN_FILL
  6
CONTINUOUS
 62
     7
 10
-85.0
 20
39.438375629540488
 30
0.0
 40
1.5
  0
CIRCLE
  5
39B
  8
PATTERN_FILL
  6
CONTINUOUS
 62
     7
 10
-85.0
 20
34.438375629540488
 30
0.0
 40
1.5
  0
CIRCLE
  5
39C
  8
PATTERN_FILL
  6
CONTINUOUS
 62
     7
 10
-85.0
 20
29.438375629540491
 30
0.0
 40
1.5
  0
CIRCLE
  5
39D
  8
PATTERN_FILL
  6
CONTINUOUS
 62
     7
 10
-85.0
 20
24.438375629540491
 30
0.0
 40
1.5
  0
CIRCLE
  5
39E
  8
PATTERN_FILL
  6
CONTINUOUS
 62
     7
 10
-85.0
 20
19.438375629540491
 30
0.0
 40
1.5
  0
CIRCLE
  5
39F
  8
PATTERN_FILL
  6
CONTINUOUS
 62
     7
 10
-85.0
 20
14.43837562954049
 30
0.0
 40
1.5
  0
CIRCLE
  5
3A0
  8
PATTERN_FILL
  6
CONTINUOUS
 62
     7
 10
-85.0
 20
9.4383756295404897
 30
0.0
 40
1.5
  0
CIRCLE
  5
3A1
  8
PATTERN_FILL
  6
CONTINUOUS
 62
     7
 10
-85.0
 20
4.438375629540487
 30
0.0
 40
1.5
  0
CIRCLE
  5
3A2
  8
PATTERN_FILL
  6
CONTINUOUS
 62
     7
 10
-85.0
 20
-0.5616243704595121
 30
0.0
 40
1.5
  0
CIRCLE
  5
3A3
  8
PATTERN_FILL
  6
CONTINUOUS
 62
     7
 10
-85.0
 20
-5.5616243704595121
 30
0.0
 40
1.5
  0
CIRCLE
  5
3A4
  8
PATTERN_FILL
  6
CONTINUOUS
 62
     7
 10
-85.0
 20
-10.56162437045951
 30
0.0
 40
1.5
  0
CIRCLE
  5
3A5
  8
PATTERN_FILL
  6
CONTINUOUS
 62
     7
 10
-85.0
 20
-15.56162437045951
 30
0.0
 40
1.5
  0
CIRCLE
  5
3A6
  8
PATTERN_FILL
  6
CONTINUOUS
 62
     7
 10
-85.0
 20
-20.561624370459509
 30
0.0
 40
1.5
  0
CIRCLE
  5
3A7
  8
PATTERN_FILL
  6
CONTINUOUS
 62
     7
 10
-85.0
 20
-25.561624370459509
 30
0.0
 40
1.5
  0
CIRCLE
  5
3A8
  8
PATTERN_FILL
  6
CONTINUOUS
 62
     7
 10
-85.0
 20
-30.561624370459509
 30
0.0
 40
1.5
  0
CIRCLE
  5
3A9
  8
PATTERN_FILL
  6
CONTINUOUS
 62
     7
 10
-85.0
 20
-35.561624370459512
 30
0.0
 40
1.5
  0
CIRCLE
  5
3AA
  8
PATTERN_FILL
  6
CONTINUOUS
 62
     7
 10
-85.0
 20
-40.561624370459512
 30
0.0
 40
1.5
  0
CIRCLE
  5
3AB
  8
PATTERN_FILL
  6
CONTINUOUS
 62
     7
 10
-85.0
 20
-45.561624370459512
 30
0.0
 40
1.5
  0
CIRCLE
  5
3AC
  8
PATTERN_FILL
  6
CONTINUOUS
 62
     7
 10
-85.0
 20
-50.561624370459512
 30
0.0
 40
1.5
  0
CIRCLE
  5
3AD
  8
PATTERN_FILL
  6
CONTINUOUS
 62
     7
 10
-85.0
 20
-55.561624370459512
 30
0.0
 40
1.5
  0
CIRCLE
  5
3AE
  8
PATTERN_FILL
  6
CONTINUOUS
 62
     7
 10
-85.0
 20
-60.561624370459512
 30
0.0
 40
1.5
  0
CIRCLE
  5
3AF
  8
PATTERN_FILL
  6
CONTINUOUS
 62
     7
 10
-85.0
 20
-65.561624370459512
 30
0.0
 40
1.5
  0
CIRCLE
  5
3B0
  8
PATTERN_FILL
  6
CONTINUOUS
 62
     7
 10
-85.0
 20
-70.561624370459512
 30
0.0
 40
1.5
  0
CIRCLE
  5
3B1
  8
PATTERN_FILL
  6
CONTINUOUS
 62
     7
 10
-85.0
 20
-75.561624370459498
 30
0.0
 40
1.5
  0
CIRCLE
  5
3B2
  8
PATTERN_FILL
  6
CONTINUOUS
 62
     7
 10
-85.0
 20
-80.561624370459498
 30
0.0
 40
1.5
  0
CIRCLE
  5
3B3
  8
PATTERN_FILL
  6
CONTINUOUS
 62
     7
 10
-85.0
 20
-85.561624370459498
 30
0.0
 40
1.5
  0
CIRCLE
  5
3B4
  8
PATTERN_FILL
  6
CONTINUOUS
 62
     7
 10
-85.0
 20
-90.561624370459512
 30
0.0
 40
1.5
  0
CIRCLE
  5
3B5
  8
PATTERN_FILL
  6
CONTINUOUS
 62
     7
 10
-85.0
 20
-95.561624370459512
 30
0.0
 40
1.5
  0
CIRCLE
  5
3B6
  8
PATTERN_FILL
  6
CONTINUOUS
 62
     7
 10
-85.0
 20
-100.5616243704595
 30
0.0
 40
1.5
  0
CIRCLE
  5
3B7
  8
PATTERN_FILL
  6
CONTINUOUS
 62
     7
 10
-85.0
 20
-105.5616243704595
 30
0.0
 40
1.5
  0
CIRCLE
  5
3B8
  8
PATTERN_FILL
  6
CONTINUOUS
 62
     7
 10
-85.0
 20
-110.5616243704595
 30
0.0
 40
1.5
  0
CIRCLE
  5
3B9
  8
PATTERN_FILL
  6
CONTINUOUS
 62
     7
 10
-85.0
 20
-115.5616243704595
 30
0.0
 40
1.5
  0
CIRCLE
  5
3BA
  8
PATTERN_FILL
  6
CONTINUOUS
 62
     7
 10
-85.0
 20
-120.5616243704595
 30
0.0
 40
1.5
  0
CIRCLE
  5
3BB
  8
PATTERN_FILL
  6
CONTINUOUS
 62
     7
 10
-85.0
 20
-125.5616243704595
 30
0.0
 40
1.5
  0
CIRCLE
  5
3BC
  8
PATTERN_FILL
  6
CONTINUOUS
 62
     7
 10
-85.0
 20
-130.5616243704595
 30
0.0
 40
1.5
  0
CIRCLE
  5
3BD
  8
PATTERN_FILL
  6
CONTINUOUS
 62
     7
 10
-85.0
 20
-135.5616243704595
 30
0.0
 40
1.5
  0
CIRCLE
  5
3BE
  8
PATTERN_FILL
  6
CONTINUOUS
 62
     7
 10
-85.0
 20
-140.5616243704595
 30
0.0
 40
1.5
  0
CIRCLE
  5
3BF
  8
PATTERN_FILL
  6
CONTINUOUS
 62
     7
 10
-85.0
 20
-145.5616243704595
 30
0.0
 40
1.5
  0
CIRCLE
  5
3C0
  8
PATTERN_FILL
  6
CONTINUOUS
 62
     7
 10
-85.0
 20
-150.5616243704595
 30
0.0
 40
1.5
  0
ARC
  5
3C1
  8
PATTERN_FILL
  6
CONTINUOUS
 62
     7
 10
-85.000000000000014
 20
-155.5616243704595
 30
0.0
 40
1.500000000000002
 50
353.882257056387
 51
202.29258523990421
  0
ARC
  5
3C2
  8
PATTERN_FILL
  6
CONTINUOUS
 62
     7
 10
-80.0
 20
54.438375629540502
 30
0.0
 40
1.4999999999999849
 50
143.25264038464761
 51
15.065518720023389
  0
CIRCLE
  5
3C3
  8
PATTERN_FILL
  6
CONTINUOUS
 62
     7
 10
-80.0
 20
49.438375629540481
 30
0.0
 40
1.5
  0
CIRCLE
  5
3C4
  8
PATTERN_FILL
  6
CONTINUOUS
 62
     7
 10
-80.0
 20
44.438375629540481
 30
0.0
 40
1.5
  0
CIRCLE
  5
3C5
  8
PATTERN_FILL
  6
CONTINUOUS
 62
     7
 10
-80.0
 20
39.438375629540488
 30
0.0
 40
1.5
  0
CIRCLE
  5
3C6
  8
PATTERN_FILL
  6
CONTINUOUS
 62
     7
 10
-80.0
 20
34.438375629540488
 30
0.0
 40
1.5
  0
CIRCLE
  5
3C7
  8
PATTERN_FILL
  6
CONTINUOUS
 62
     7
 10
-80.0
 20
29.438375629540491
 30
0.0
 40
1.5
  0
CIRCLE
  5
3C8
  8
PATTERN_FILL
  6
CONTINUOUS
 62
     7
 10
-80.0
 20
24.438375629540491
 30
0.0
 40
1.5
  0
CIRCLE
  5
3C9
  8
PATTERN_FILL
  6
CONTINUOUS
 62
     7
 10
-80.0
 20
19.438375629540491
 30
0.0
 40
1.5
  0
CIRCLE
  5
3CA
  8
PATTERN_FILL
  6
CONTINUOUS
 62
     7
 10
-80.0
 20
14.43837562954049
 30
0.0
 40
1.5
  0
CIRCLE
  5
3CB
  8
PATTERN_FILL
  6
CONTINUOUS
 62
     7
 10
-80.0
 20
9.4383756295404897
 30
0.0
 40
1.5
  0
CIRCLE
  5
3CC
  8
PATTERN_FILL
  6
CONTINUOUS
 62
     7
 10
-80.0
 20
4.438375629540487
 30
0.0
 40
1.5
  0
CIRCLE
  5
3CD
  8
PATTERN_FILL
  6
CONTINUOUS
 62
     7
 10
-80.0
 20
-0.5616243704595121
 30
0.0
 40
1.5
  0
CIRCLE
  5
3CE
  8
PATTERN_FILL
  6
CONTINUOUS
 62
     7
 10
-80.0
 20
-5.5616243704595121
 30
0.0
 40
1.5
  0
CIRCLE
  5
3CF
  8
PATTERN_FILL
  6
CONTINUOUS
 62
     7
 10
-80.0
 20
-10.56162437045951
 30
0.0
 40
1.5
  0
CIRCLE
  5
3D0
  8
PATTERN_FILL
  6
CONTINUOUS
 62
     7
 10
-80.0
 20
-15.56162437045951
 30
0.0
 40
1.5
  0
CIRCLE
  5
3D1
  8
PATTERN_FILL
  6
CONTINUOUS
 62
     7
 10
-80.0
 20
-20.561624370459509
 30
0.0
 40
1.5
  0
CIRCLE
  5
3D2
  8
PATTERN_FILL
  6
CONTINUOUS
 62
     7
 10
-80.0
 20
-25.561624370459509
 30
0.0
 40
1.5
  0
CIRCLE
  5
3D3
  8
PATTERN_FILL
  6
CONTINUOUS
 62
     7
 10
-80.0
 20
-30.561624370459509
 30
0.0
 40
1.5
  0
CIRCLE
  5
3D4
  8
PATTERN_FILL
  6
CONTINUOUS
 62
     7
 10
-80.0
 20
-35.561624370459512
 30
0.0
 40
1.5
  0
CIRCLE
  5
3D5
  8
PATTERN_FILL
  6
CONTINUOUS
 62
     7
 10
-80.0
 20
-40.561624370459512
 30
0.0
 40
1.5
  0
CIRCLE
  5
3D6
  8
PATTERN_FILL
  6
CONTINUOUS
 62
     7
 10
-80.0
 20
-45.561624370459512
 30
0.0
 40
1.5
  0
CIRCLE
  5
3D7
  8
PATTERN_FILL
  6
CONTINUOUS
 62
     7
 10
-80.0
 20
-50.561624370459512
 30
0.0
 40
1.5
  0
CIRCLE
  5
3D8
  8
PATTERN_FILL
  6
CONTINUOUS
 62
     7
 10
-80.0
 20
-55.561624370459512
 30
0.0
 40
1.5
  0
CIRCLE
  5
3D9
  8
PATTERN_FILL
  6
CONTINUOUS
 62
     7
 10
-80.0
 20
-60.561624370459512
 30
0.0
 40
1.5
  0
CIRCLE
  5
3DA
  8
PATTERN_FILL
  6
CONTINUOUS
 62
     7
 10
-80.0
 20
-65.561624370459512
 30
0.0
 40
1.5
  0
CIRCLE
  5
3DB
  8
PATTERN_FILL
  6
CONTINUOUS
 62
     7
 10
-80.0
 20
-70.561624370459512
 30
0.0
 40
1.5
  0
CIRCLE
  5
3DC
  8
PATTERN_FILL
  6
CONTINUOUS
 62
     7
 10
-80.0
 20
-75.561624370459498
 30
0.0
 40
1.5
  0
CIRCLE
  5
3DD
  8
PATTERN_FILL
  6
CONTINUOUS
 62
     7
 10
-80.0
 20
-80.561624370459498
 30
0.0
 40
1.5
  0
CIRCLE
  5
3DE
  8
PATTERN_FILL
  6
CONTINUOUS
 62
     7
 10
-80.0
 20
-85.561624370459498
 30
0.0
 40
1.5
  0
CIRCLE
  5
3DF
  8
PATTERN_FILL
  6
CONTINUOUS
 62
     7
 10
-80.0
 20
-90.561624370459512
 30
0.0
 40
1.5
  0
CIRCLE
  5
3E0
  8
PATTERN_FILL
  6
CONTINUOUS
 62
     7
 10
-80.0
 20
-95.561624370459512
 30
0.0
 40
1.5
  0
CIRCLE
  5
3E1
  8
PATTERN_FILL
  6
CONTINUOUS
 62
     7
 10
-80.0
 20
-100.5616243704595
 30
0.0
 40
1.5
  0
CIRCLE
  5
3E2
  8
PATTERN_FILL
  6
CONTINUOUS
 62
     7
 10
-80.0
 20
-105.5616243704595
 30
0.0
 40
1.5
  0
CIRCLE
  5
3E3
  8
PATTERN_FILL
  6
CONTINUOUS
 62
     7
 10
-80.0
 20
-110.5616243704595
 30
0.0
 40
1.5
  0
CIRCLE
  5
3E4
  8
PATTERN_FILL
  6
CONTINUOUS
 62
     7
 10
-80.0
 20
-115.5616243704595
 30
0.0
 40
1.5
  0
CIRCLE
  5
3E5
  8
PATTERN_FILL
  6
CONTINUOUS
 62
     7
 10
-80.0
 20
-120.5616243704595
 30
0.0
 40
1.5
  0
CIRCLE
  5
3E6
  8
PATTERN_FILL
  6
CONTINUOUS
 62
     7
 10
-80.0
 20
-125.5616243704595
 30
0.0
 40
1.5
  0
CIRCLE
  5
3E7
  8
PATTERN_FILL
  6
CONTINUOUS
 62
     7
 10
-80.0
 20
-130.5616243704595
 30
0.0
 40
1.5
  0
CIRCLE
  5
3E8
  8
PATTERN_FILL
  6
CONTINUOUS
 62
     7
 10
-80.0
 20
-135.5616243704595
 30
0.0
 40
1.5
  0
CIRCLE
  5
3E9
  8
PATTERN_FILL
  6
CONTINUOUS
 62
     7
 10
-80.0
 20
-140.5616243704595
 30
0.0
 40
1.5
  0
CIRCLE
  5
3EA
  8
PATTERN_FILL
  6
CONTINUOUS
 62
     7
 10
-80.0
 20
-145.5616243704595
 30
0.0
 40
1.5
  0
CIRCLE
  5
3EB
  8
PATTERN_FILL
  6
CONTINUOUS
 62
     7
 10
-80.0
 20
-150.5616243704595
 30
0.0
 40
1.5
  0
ARC
  5
3EC
  8
PATTERN_FILL
  6
CONTINUOUS
 62
     7
 10
-80.0
 20
-155.5616243704595
 30
0.0
 40
1.500000000000004
 50
28.150634212019298
 51
173.30587939725069
  0
ARC
  5
3ED
  8
PATTERN_FILL
  6
CONTINUOUS
 62
     7
 10
-75.0
 20
54.438375629540481
 30
0.0
 40
1.4999999999999969
 50
181.95119041747429
 51
331.12500547944722
  0
CIRCLE
  5
3EE
  8
PATTERN_FILL
  6
CONTINUOUS
 62
     7
 10
-75.0
 20
49.438375629540481
 30
0.0
 40
1.5
  0
CIRCLE
  5
3EF
  8
PATTERN_FILL
  6
CONTINUOUS
 62
     7
 10
-75.0
 20
44.438375629540481
 30
0.0
 40
1.5
  0
CIRCLE
  5
3F0
  8
PATTERN_FILL
  6
CONTINUOUS
 62
     7
 10
-75.0
 20
39.438375629540488
 30
0.0
 40
1.5
  0
CIRCLE
  5
3F1
  8
PATTERN_FILL
  6
CONTINUOUS
 62
     7
 10
-75.0
 20
34.438375629540488
 30
0.0
 40
1.5
  0
CIRCLE
  5
3F2
  8
PATTERN_FILL
  6
CONTINUOUS
 62
     7
 10
-75.0
 20
29.438375629540491
 30
0.0
 40
1.5
  0
CIRCLE
  5
3F3
  8
PATTERN_FILL
  6
CONTINUOUS
 62
     7
 10
-75.0
 20
24.438375629540491
 30
0.0
 40
1.5
  0
CIRCLE
  5
3F4
  8
PATTERN_FILL
  6
CONTINUOUS
 62
     7
 10
-75.0
 20
19.438375629540491
 30
0.0
 40
1.5
  0
CIRCLE
  5
3F5
  8
PATTERN_FILL
  6
CONTINUOUS
 62
     7
 10
-75.0
 20
14.43837562954049
 30
0.0
 40
1.5
  0
CIRCLE
  5
3F6
  8
PATTERN_FILL
  6
CONTINUOUS
 62
     7
 10
-75.0
 20
9.4383756295404897
 30
0.0
 40
1.5
  0
CIRCLE
  5
3F7
  8
PATTERN_FILL
  6
CONTINUOUS
 62
     7
 10
-75.0
 20
4.438375629540487
 30
0.0
 40
1.5
  0
CIRCLE
  5
3F8
  8
PATTERN_FILL
  6
CONTINUOUS
 62
     7
 10
-75.0
 20
-0.5616243704595121
 30
0.0
 40
1.5
  0
CIRCLE
  5
3F9
  8
PATTERN_FILL
  6
CONTINUOUS
 62
     7
 10
-75.0
 20
-5.5616243704595121
 30
0.0
 40
1.5
  0
CIRCLE
  5
3FA
  8
PATTERN_FILL
  6
CONTINUOUS
 62
     7
 10
-75.0
 20
-10.56162437045951
 30
0.0
 40
1.5
  0
CIRCLE
  5
3FB
  8
PATTERN_FILL
  6
CONTINUOUS
 62
     7
 10
-75.0
 20
-15.56162437045951
 30
0.0
 40
1.5
  0
CIRCLE
  5
3FC
  8
PATTERN_FILL
  6
CONTINUOUS
 62
     7
 10
-75.0
 20
-20.561624370459509
 30
0.0
 40
1.5
  0
CIRCLE
  5
3FD
  8
PATTERN_FILL
  6
CONTINUOUS
 62
     7
 10
-75.0
 20
-25.561624370459509
 30
0.0
 40
1.5
  0
CIRCLE
  5
3FE
  8
PATTERN_FILL
  6
CONTINUOUS
 62
     7
 10
-75.0
 20
-30.561624370459509
 30
0.0
 40
1.5
  0
CIRCLE
  5
3FF
  8
PATTERN_FILL
  6
CONTINUOUS
 62
     7
 10
-75.0
 20
-35.561624370459512
 30
0.0
 40
1.5
  0
CIRCLE
  5
400
  8
PATTERN_FILL
  6
CONTINUOUS
 62
     7
 10
-75.0
 20
-40.561624370459512
 30
0.0
 40
1.5
  0
CIRCLE
  5
401
  8
PATTERN_FILL
  6
CONTINUOUS
 62
     7
 10
-75.0
 20
-45.561624370459512
 30
0.0
 40
1.5
  0
CIRCLE
  5
402
  8
PATTERN_FILL
  6
CONTINUOUS
 62
     7
 10
-75.0
 20
-50.561624370459512
 30
0.0
 40
1.5
  0
CIRCLE
  5
403
  8
PATTERN_FILL
  6
CONTINUOUS
 62
     7
 10
-75.0
 20
-55.561624370459512
 30
0.0
 40
1.5
  0
CIRCLE
  5
404
  8
PATTERN_FILL
  6
CONTINUOUS
 62
     7
 10
-75.0
 20
-60.561624370459512
 30
0.0
 40
1.5
  0
CIRCLE
  5
405
  8
PATTERN_FILL
  6
CONTINUOUS
 62
     7
 10
-75.0
 20
-65.561624370459512
 30
0.0
 40
1.5
  0
CIRCLE
  5
406
  8
PATTERN_FILL
  6
CONTINUOUS
 62
     7
 10
-75.0
 20
-70.561624370459512
 30
0.0
 40
1.5
  0
CIRCLE
  5
407
  8
PATTERN_FILL
  6
CONTINUOUS
 62
     7
 10
-75.0
 20
-75.561624370459498
 30
0.0
 40
1.5
  0
CIRCLE
  5
408
  8
PATTERN_FILL
  6
CONTINUOUS
 62
     7
 10
-75.0
 20
-80.561624370459498
 30
0.0
 40
1.5
  0
CIRCLE
  5
409
  8
PATTERN_FILL
  6
CONTINUOUS
 62
     7
 10
-75.0
 20
-85.561624370459498
 30
0.0
 40
1.5
  0
CIRCLE
  5
40A
  8
PATTERN_FILL
  6
CONTINUOUS
 62
     7
 10
-75.0
 20
-90.561624370459512
 30
0.0
 40
1.5
  0
CIRCLE
  5
40B
  8
PATTERN_FILL
  6
CONTINUOUS
 62
     7
 10
-75.0
 20
-95.561624370459512
 30
0.0
 40
1.5
  0
CIRCLE
  5
40C
  8
PATTERN_FILL
  6
CONTINUOUS
 62
     7
 10
-75.0
 20
-100.5616243704595
 30
0.0
 40
1.5
  0
CIRCLE
  5
40D
  8
PATTERN_FILL
  6
CONTINUOUS
 62
     7
 10
-75.0
 20
-105.5616243704595
 30
0.0
 40
1.5
  0
CIRCLE
  5
40E
  8
PATTERN_FILL
  6
CONTINUOUS
 62
     7
 10
-75.0
 20
-110.5616243704595
 30
0.0
 40
1.5
  0
CIRCLE
  5
40F
  8
PATTERN_FILL
  6
CONTINUOUS
 62
     7
 10
-75.0
 20
-115.5616243704595
 30
0.0
 40
1.5
  0
CIRCLE
  5
410
  8
PATTERN_FILL
  6
CONTINUOUS
 62
     7
 10
-75.0
 20
-120.5616243704595
 30
0.0
 40
1.5
  0
CIRCLE
  5
411
  8
PATTERN_FILL
  6
CONTINUOUS
 62
     7
 10
-75.0
 20
-125.5616243704595
 30
0.0
 40
1.5
  0
CIRCLE
  5
412
  8
PATTERN_FILL
  6
CONTINUOUS
 62
     7
 10
-75.0
 20
-130.5616243704595
 30
0.0
 40
1.5
  0
CIRCLE
  5
413
  8
PATTERN_FILL
  6
CONTINUOUS
 62
     7
 10
-75.0
 20
-135.5616243704595
 30
0.0
 40
1.5
  0
CIRCLE
  5
414
  8
PATTERN_FILL
  6
CONTINUOUS
 62
     7
 10
-75.0
 20
-140.5616243704595
 30
0.0
 40
1.5
  0
CIRCLE
  5
415
  8
PATTERN_FILL
  6
CONTINUOUS
 62
     7
 10
-75.0
 20
-145.5616243704595
 30
0.0
 40
1.5
  0
CIRCLE
  5
416
  8
PATTERN_FILL
  6
CONTINUOUS
 62
     7
 10
-75.0
 20
-150.5616243704595
 30
0.0
 40
1.5
  0
ARC
  5
417
  8
PATTERN_FILL
  6
CONTINUOUS
 62
     7
 10
-75.0
 20
-155.5616243704595
 30
0.0
 40
1.499999999999992
 50
94.401235243735243
 51
112.2463498461991
  0
CIRCLE
  5
418
  8
PATTERN_FILL
  6
CONTINUOUS
 62
     7
 10
-70.0
 20
49.438375629540481
 30
0.0
 40
1.5
  0
CIRCLE
  5
419
  8
PATTERN_FILL
  6
CONTINUOUS
 62
     7
 10
-70.0
 20
44.438375629540481
 30
0.0
 40
1.5
  0
CIRCLE
  5
41A
  8
PATTERN_FILL
  6
CONTINUOUS
 62
     7
 10
-70.0
 20
39.438375629540488
 30
0.0
 40
1.5
  0
CIRCLE
  5
41B
  8
PATTERN_FILL
  6
CONTINUOUS
 62
     7
 10
-70.0
 20
34.438375629540488
 30
0.0
 40
1.5
  0
CIRCLE
  5
41C
  8
PATTERN_FILL
  6
CONTINUOUS
 62
     7
 10
-70.0
 20
29.438375629540491
 30
0.0
 40
1.5
  0
CIRCLE
  5
41D
  8
PATTERN_FILL
  6
CONTINUOUS
 62
     7
 10
-70.0
 20
24.438375629540491
 30
0.0
 40
1.5
  0
CIRCLE
  5
41E
  8
PATTERN_FILL
  6
CONTINUOUS
 62
     7
 10
-70.0
 20
19.438375629540491
 30
0.0
 40
1.5
  0
CIRCLE
  5
41F
  8
PATTERN_FILL
  6
CONTINUOUS
 62
     7
 10
-70.0
 20
14.43837562954049
 30
0.0
 40
1.5
  0
CIRCLE
  5
420
  8
PATTERN_FILL
  6
CONTINUOUS
 62
     7
 10
-70.0
 20
9.4383756295404897
 30
0.0
 40
1.5
  0
CIRCLE
  5
421
  8
PATTERN_FILL
  6
CONTINUOUS
 62
     7
 10
-70.0
 20
4.438375629540487
 30
0.0
 40
1.5
  0
CIRCLE
  5
422
  8
PATTERN_FILL
  6
CONTINUOUS
 62
     7
 10
-70.0
 20
-0.5616243704595121
 30
0.0
 40
1.5
  0
CIRCLE
  5
423
  8
PATTERN_FILL
  6
CONTINUOUS
 62
     7
 10
-70.0
 20
-5.5616243704595121
 30
0.0
 40
1.5
  0
CIRCLE
  5
424
  8
PATTERN_FILL
  6
CONTINUOUS
 62
     7
 10
-70.0
 20
-10.56162437045951
 30
0.0
 40
1.5
  0
CIRCLE
  5
425
  8
PATTERN_FILL
  6
CONTINUOUS
 62
     7
 10
-70.0
 20
-15.56162437045951
 30
0.0
 40
1.5
  0
CIRCLE
  5
426
  8
PATTERN_FILL
  6
CONTINUOUS
 62
     7
 10
-70.0
 20
-20.561624370459509
 30
0.0
 40
1.5
  0
CIRCLE
  5
427
  8
PATTERN_FILL
  6
CONTINUOUS
 62
     7
 10
-70.0
 20
-25.561624370459509
 30
0.0
 40
1.5
  0
CIRCLE
  5
428
  8
PATTERN_FILL
  6
CONTINUOUS
 62
     7
 10
-70.0
 20
-30.561624370459509
 30
0.0
 40
1.5
  0
CIRCLE
  5
429
  8
PATTERN_FILL
  6
CONTINUOUS
 62
     7
 10
-70.0
 20
-35.561624370459512
 30
0.0
 40
1.5
  0
CIRCLE
  5
42A
  8
PATTERN_FILL
  6
CONTINUOUS
 62
     7
 10
-70.0
 20
-40.561624370459512
 30
0.0
 40
1.5
  0
CIRCLE
  5
42B
  8
PATTERN_FILL
  6
CONTINUOUS
 62
     7
 10
-70.0
 20
-45.561624370459512
 30
0.0
 40
1.5
  0
CIRCLE
  5
42C
  8
PATTERN_FILL
  6
CONTINUOUS
 62
     7
 10
-70.0
 20
-50.561624370459512
 30
0.0
 40
1.5
  0
CIRCLE
  5
42D
  8
PATTERN_FILL
  6
CONTINUOUS
 62
     7
 10
-70.0
 20
-55.561624370459512
 30
0.0
 40
1.5
  0
CIRCLE
  5
42E
  8
PATTERN_FILL
  6
CONTINUOUS
 62
     7
 10
-70.0
 20
-60.561624370459512
 30
0.0
 40
1.5
  0
CIRCLE
  5
42F
  8
PATTERN_FILL
  6
CONTINUOUS
 62
     7
 10
-70.0
 20
-65.561624370459512
 30
0.0
 40
1.5
  0
CIRCLE
  5
430
  8
PATTERN_FILL
  6
CONTINUOUS
 62
     7
 10
-70.0
 20
-70.561624370459512
 30
0.0
 40
1.5
  0
CIRCLE
  5
431
  8
PATTERN_FILL
  6
CONTINUOUS
 62
     7
 10
-70.0
 20
-75.561624370459498
 30
0.0
 40
1.5
  0
CIRCLE
  5
432
  8
PATTERN_FILL
  6
CONTINUOUS
 62
     7
 10
-70.0
 20
-80.561624370459498
 30
0.0
 40
1.5
  0
CIRCLE
  5
433
  8
PATTERN_FILL
  6
CONTINUOUS
 62
     7
 10
-70.0
 20
-85.561624370459498
 30
0.0
 40
1.5
  0
CIRCLE
  5
434
  8
PATTERN_FILL
  6
CONTINUOUS
 62
     7
 10
-70.0
 20
-90.561624370459512
 30
0.0
 40
1.5
  0
CIRCLE
  5
435
  8
PATTERN_FILL
  6
CONTINUOUS
 62
     7
 10
-70.0
 20
-95.561624370459512
 30
0.0
 40
1.5
  0
CIRCLE
  5
436
  8
PATTERN_FILL
  6
CONTINUOUS
 62
     7
 10
-70.0
 20
-100.5616243704595
 30
0.0
 40
1.5
  0
CIRCLE
  5
437
  8
PATTERN_FILL
  6
CONTINUOUS
 62
     7
 10
-70.0
 20
-105.5616243704595
 30
0.0
 40
1.5
  0
CIRCLE
  5
438
  8
PATTERN_FILL
  6
CONTINUOUS
 62
     7
 10
-70.0
 20
-110.5616243704595
 30
0.0
 40
1.5
  0
CIRCLE
  5
439
  8
PATTERN_FILL
  6
CONTINUOUS
 62
     7
 10
-70.0
 20
-115.5616243704595
 30
0.0
 40
1.5
  0
CIRCLE
  5
43A
  8
PATTERN_FILL
  6
CONTINUOUS
 62
     7
 10
-70.0
 20
-120.5616243704595
 30
0.0
 40
1.5
  0
CIRCLE
  5
43B
  8
PATTERN_FILL
  6
CONTINUOUS
 62
     7
 10
-70.0
 20
-125.5616243704595
 30
0.0
 40
1.5
  0
CIRCLE
  5
43C
  8
PATTERN_FILL
  6
CONTINUOUS
 62
     7
 10
-70.0
 20
-130.5616243704595
 30
0.0
 40
1.5
  0
CIRCLE
  5
43D
  8
PATTERN_FILL
  6
CONTINUOUS
 62
     7
 10
-70.0
 20
-135.5616243704595
 30
0.0
 40
1.5
  0
CIRCLE
  5
43E
  8
PATTERN_FILL
  6
CONTINUOUS
 62
     7
 10
-70.0
 20
-140.5616243704595
 30
0.0
 40
1.5
  0
CIRCLE
  5
43F
  8
PATTERN_FILL
  6
CONTINUOUS
 62
     7
 10
-70.0
 20
-145.5616243704595
 30
0.0
 40
1.5
  0
CIRCLE
  5
440
  8
PATTERN_FILL
  6
CONTINUOUS
 62
     7
 10
-70.0
 20
-150.5616243704595
 30
0.0
 40
1.5
  0
CIRCLE
  5
441
  8
PATTERN_FILL
  6
CONTINUOUS
 62
     7
 10
-65.0
 20
49.438375629540481
 30
0.0
 40
1.5
  0
CIRCLE
  5
442
  8
PATTERN_FILL
  6
CONTINUOUS
 62
     7
 10
-65.0
 20
44.438375629540481
 30
0.0
 40
1.5
  0
CIRCLE
  5
443
  8
PATTERN_FILL
  6
CONTINUOUS
 62
     7
 10
-65.0
 20
39.438375629540488
 30
0.0
 40
1.5
  0
CIRCLE
  5
444
  8
PATTERN_FILL
  6
CONTINUOUS
 62
     7
 10
-65.0
 20
34.438375629540488
 30
0.0
 40
1.5
  0
CIRCLE
  5
445
  8
PATTERN_FILL
  6
CONTINUOUS
 62
     7
 10
-65.0
 20
29.438375629540491
 30
0.0
 40
1.5
  0
CIRCLE
  5
446
  8
PATTERN_FILL
  6
CONTINUOUS
 62
     7
 10
-65.0
 20
24.438375629540491
 30
0.0
 40
1.5
  0
CIRCLE
  5
447
  8
PATTERN_FILL
  6
CONTINUOUS
 62
     7
 10
-65.0
 20
19.438375629540491
 30
0.0
 40
1.5
  0
CIRCLE
  5
448
  8
PATTERN_FILL
  6
CONTINUOUS
 62
     7
 10
-65.0
 20
14.43837562954049
 30
0.0
 40
1.5
  0
CIRCLE
  5
449
  8
PATTERN_FILL
  6
CONTINUOUS
 62
     7
 10
-65.0
 20
9.4383756295404897
 30
0.0
 40
1.5
  0
CIRCLE
  5
44A
  8
PATTERN_FILL
  6
CONTINUOUS
 62
     7
 10
-65.0
 20
4.438375629540487
 30
0.0
 40
1.5
  0
CIRCLE
  5
44B
  8
PATTERN_FILL
  6
CONTINUOUS
 62
     7
 10
-65.0
 20
-0.5616243704595121
 30
0.0
 40
1.5
  0
CIRCLE
  5
44C
  8
PATTERN_FILL
  6
CONTINUOUS
 62
     7
 10
-65.0
 20
-5.5616243704595121
 30
0.0
 40
1.5
  0
CIRCLE
  5
44D
  8
PATTERN_FILL
  6
CONTINUOUS
 62
     7
 10
-65.0
 20
-10.56162437045951
 30
0.0
 40
1.5
  0
CIRCLE
  5
44E
  8
PATTERN_FILL
  6
CONTINUOUS
 62
     7
 10
-65.0
 20
-15.56162437045951
 30
0.0
 40
1.5
  0
CIRCLE
  5
44F
  8
PATTERN_FILL
  6
CONTINUOUS
 62
     7
 10
-65.0
 20
-20.561624370459509
 30
0.0
 40
1.5
  0
CIRCLE
  5
450
  8
PATTERN_FILL
  6
CONTINUOUS
 62
     7
 10
-65.0
 20
-25.561624370459509
 30
0.0
 40
1.5
  0
CIRCLE
  5
451
  8
PATTERN_FILL
  6
CONTINUOUS
 62
     7
 10
-65.0
 20
-30.561624370459509
 30
0.0
 40
1.5
  0
CIRCLE
  5
452
  8
PATTERN_FILL
  6
CONTINUOUS
 62
     7
 10
-65.0
 20
-35.561624370459512
 30
0.0
 40
1.5
  0
CIRCLE
  5
453
  8
PATTERN_FILL
  6
CONTINUOUS
 62
     7
 10
-65.0
 20
-40.561624370459512
 30
0.0
 40
1.5
  0
CIRCLE
  5
454
  8
PATTERN_FILL
  6
CONTINUOUS
 62
     7
 10
-65.0
 20
-45.561624370459512
 30
0.0
 40
1.5
  0
CIRCLE
  5
455
  8
PATTERN_FILL
  6
CONTINUOUS
 62
     7
 10
-65.0
 20
-50.561624370459512
 30
0.0
 40
1.5
  0
CIRCLE
  5
456
  8
PATTERN_FILL
  6
CONTINUOUS
 62
     7
 10
-65.0
 20
-55.561624370459512
 30
0.0
 40
1.5
  0
CIRCLE
  5
457
  8
PATTERN_FILL
  6
CONTINUOUS
 62
     7
 10
-65.0
 20
-60.561624370459512
 30
0.0
 40
1.5
  0
CIRCLE
  5
458
  8
PATTERN_FILL
  6
CONTINUOUS
 62
     7
 10
-65.0
 20
-65.561624370459512
 30
0.0
 40
1.5
  0
CIRCLE
  5
459
  8
PATTERN_FILL
  6
CONTINUOUS
 62
     7
 10
-65.0
 20
-70.561624370459512
 30
0.0
 40
1.5
  0
CIRCLE
  5
45A
  8
PATTERN_FILL
  6
CONTINUOUS
 62
     7
 10
-65.0
 20
-75.561624370459498
 30
0.0
 40
1.5
  0
CIRCLE
  5
45B
  8
PATTERN_FILL
  6
CONTINUOUS
 62
     7
 10
-65.0
 20
-80.561624370459498
 30
0.0
 40
1.5
  0
CIRCLE
  5
45C
  8
PATTERN_FILL
  6
CONTINUOUS
 62
     7
 10
-65.0
 20
-85.561624370459498
 30
0.0
 40
1.5
  0
CIRCLE
  5
45D
  8
PATTERN_FILL
  6
CONTINUOUS
 62
     7
 10
-65.0
 20
-90.561624370459512
 30
0.0
 40
1.5
  0
CIRCLE
  5
45E
  8
PATTERN_FILL
  6
CONTINUOUS
 62
     7
 10
-65.0
 20
-95.561624370459512
 30
0.0
 40
1.5
  0
CIRCLE
  5
45F
  8
PATTERN_FILL
  6
CONTINUOUS
 62
     7
 10
-65.0
 20
-100.5616243704595
 30
0.0
 40
1.5
  0
CIRCLE
  5
460
  8
PATTERN_FILL
  6
CONTINUOUS
 62
     7
 10
-65.0
 20
-105.5616243704595
 30
0.0
 40
1.5
  0
CIRCLE
  5
461
  8
PATTERN_FILL
  6
CONTINUOUS
 62
     7
 10
-65.0
 20
-110.5616243704595
 30
0.0
 40
1.5
  0
CIRCLE
  5
462
  8
PATTERN_FILL
  6
CONTINUOUS
 62
     7
 10
-65.0
 20
-115.5616243704595
 30
0.0
 40
1.5
  0
CIRCLE
  5
463
  8
PATTERN_FILL
  6
CONTINUOUS
 62
     7
 10
-65.0
 20
-120.5616243704595
 30
0.0
 40
1.5
  0
CIRCLE
  5
464
  8
PATTERN_FILL
  6
CONTINUOUS
 62
     7
 10
-65.0
 20
-125.5616243704595
 30
0.0
 40
1.5
  0
CIRCLE
  5
465
  8
PATTERN_FILL
  6
CONTINUOUS
 62
     7
 10
-65.0
 20
-130.5616243704595
 30
0.0
 40
1.5
  0
CIRCLE
  5
466
  8
PATTERN_FILL
  6
CONTINUOUS
 62
     7
 10
-65.0
 20
-135.5616243704595
 30
0.0
 40
1.5
  0
CIRCLE
  5
467
  8
PATTERN_FILL
  6
CONTINUOUS
 62
     7
 10
-65.0
 20
-140.5616243704595
 30
0.0
 40
1.5
  0
CIRCLE
  5
468
  8
PATTERN_FILL
  6
CONTINUOUS
 62
     7
 10
-65.0
 20
-145.5616243704595
 30
0.0
 40
1.5
  0
ARC
  5
469
  8
PATTERN_FILL
  6
CONTINUOUS
 62
     7
 10
-64.999999999999986
 20
-150.5616243704595
 30
0.0
 40
1.499999999999988
 50
359.21760437497278
 51
219.16281829002199
  0
ARC
  5
46A
  8
PATTERN_FILL
  6
CONTINUOUS
 62
     7
 10
-60.0
 20
49.438375629540481
 30
0.0
 40
1.4999999999999989
 50
165.4559733685829
 51
330.71820614607572
  0
CIRCLE
  5
46B
  8
PATTERN_FILL
  6
CONTINUOUS
 62
     7
 10
-60.0
 20
44.438375629540481
 30
0.0
 40
1.5
  0
CIRCLE
  5
46C
  8
PATTERN_FILL
  6
CONTINUOUS
 62
     7
 10
-60.0
 20
39.438375629540488
 30
0.0
 40
1.5
  0
CIRCLE
  5
46D
  8
PATTERN_FILL
  6
CONTINUOUS
 62
     7
 10
-60.0
 20
34.438375629540488
 30
0.0
 40
1.5
  0
CIRCLE
  5
46E
  8
PATTERN_FILL
  6
CONTINUOUS
 62
     7
 10
-60.0
 20
29.438375629540491
 30
0.0
 40
1.5
  0
CIRCLE
  5
46F
  8
PATTERN_FILL
  6
CONTINUOUS
 62
     7
 10
-60.0
 20
24.438375629540491
 30
0.0
 40
1.5
  0
CIRCLE
  5
470
  8
PATTERN_FILL
  6
CONTINUOUS
 62
     7
 10
-60.0
 20
19.438375629540491
 30
0.0
 40
1.5
  0
CIRCLE
  5
471
  8
PATTERN_FILL
  6
CONTINUOUS
 62
     7
 10
-60.0
 20
14.43837562954049
 30
0.0
 40
1.5
  0
CIRCLE
  5
472
  8
PATTERN_FILL
  6
CONTINUOUS
 62
     7
 10
-60.0
 20
9.4383756295404897
 30
0.0
 40
1.5
  0
CIRCLE
  5
473
  8
PATTERN_FILL
  6
CONTINUOUS
 62
     7
 10
-60.0
 20
4.438375629540487
 30
0.0
 40
1.5
  0
CIRCLE
  5
474
  8
PATTERN_FILL
  6
CONTINUOUS
 62
     7
 10
-60.0
 20
-0.5616243704595121
 30
0.0
 40
1.5
  0
CIRCLE
  5
475
  8
PATTERN_FILL
  6
CONTINUOUS
 62
     7
 10
-60.0
 20
-5.5616243704595121
 30
0.0
 40
1.5
  0
CIRCLE
  5
476
  8
PATTERN_FILL
  6
CONTINUOUS
 62
     7
 10
-60.0
 20
-10.56162437045951
 30
0.0
 40
1.5
  0
CIRCLE
  5
477
  8
PATTERN_FILL
  6
CONTINUOUS
 62
     7
 10
-60.0
 20
-15.56162437045951
 30
0.0
 40
1.5
  0
CIRCLE
  5
478
  8
PATTERN_FILL
  6
CONTINUOUS
 62
     7
 10
-60.0
 20
-20.561624370459509
 30
0.0
 40
1.5
  0
CIRCLE
  5
479
  8
PATTERN_FILL
  6
CONTINUOUS
 62
     7
 10
-60.0
 20
-25.561624370459509
 30
0.0
 40
1.5
  0
CIRCLE
  5
47A
  8
PATTERN_FILL
  6
CONTINUOUS
 62
     7
 10
-60.0
 20
-30.561624370459509
 30
0.0
 40
1.5
  0
CIRCLE
  5
47B
  8
PATTERN_FILL
  6
CONTINUOUS
 62
     7
 10
-60.0
 20
-35.561624370459512
 30
0.0
 40
1.5
  0
CIRCLE
  5
47C
  8
PATTERN_FILL
  6
CONTINUOUS
 62
     7
 10
-60.0
 20
-40.561624370459512
 30
0.0
 40
1.5
  0
CIRCLE
  5
47D
  8
PATTERN_FILL
  6
CONTINUOUS
 62
     7
 10
-60.0
 20
-45.561624370459512
 30
0.0
 40
1.5
  0
CIRCLE
  5
47E
  8
PATTERN_FILL
  6
CONTINUOUS
 62
     7
 10
-60.0
 20
-50.561624370459512
 30
0.0
 40
1.5
  0
CIRCLE
  5
47F
  8
PATTERN_FILL
  6
CONTINUOUS
 62
     7
 10
-60.0
 20
-55.561624370459512
 30
0.0
 40
1.5
  0
CIRCLE
  5
480
  8
PATTERN_FILL
  6
CONTINUOUS
 62
     7
 10
-60.0
 20
-60.561624370459512
 30
0.0
 40
1.5
  0
CIRCLE
  5
481
  8
PATTERN_FILL
  6
CONTINUOUS
 62
     7
 10
-60.0
 20
-65.561624370459512
 30
0.0
 40
1.5
  0
CIRCLE
  5
482
  8
PATTERN_FILL
  6
CONTINUOUS
 62
     7
 10
-60.0
 20
-70.561624370459512
 30
0.0
 40
1.5
  0
CIRCLE
  5
483
  8
PATTERN_FILL
  6
CONTINUOUS
 62
     7
 10
-60.0
 20
-75.561624370459498
 30
0.0
 40
1.5
  0
CIRCLE
  5
484
  8
PATTERN_FILL
  6
CONTINUOUS
 62
     7
 10
-60.0
 20
-80.561624370459498
 30
0.0
 40
1.5
  0
CIRCLE
  5
485
  8
PATTERN_FILL
  6
CONTINUOUS
 62
     7
 10
-60.0
 20
-85.561624370459498
 30
0.0
 40
1.5
  0
CIRCLE
  5
486
  8
PATTERN_FILL
  6
CONTINUOUS
 62
     7
 10
-60.0
 20
-90.561624370459512
 30
0.0
 40
1.5
  0
CIRCLE
  5
487
  8
PATTERN_FILL
  6
CONTINUOUS
 62
     7
 10
-60.0
 20
-95.561624370459512
 30
0.0
 40
1.5
  0
CIRCLE
  5
488
  8
PATTERN_FILL
  6
CONTINUOUS
 62
     7
 10
-60.0
 20
-100.5616243704595
 30
0.0
 40
1.5
  0
CIRCLE
  5
489
  8
PATTERN_FILL
  6
CONTINUOUS
 62
     7
 10
-60.0
 20
-105.5616243704595
 30
0.0
 40
1.5
  0
CIRCLE
  5
48A
  8
PATTERN_FILL
  6
CONTINUOUS
 62
     7
 10
-60.0
 20
-110.5616243704595
 30
0.0
 40
1.5
  0
CIRCLE
  5
48B
  8
PATTERN_FILL
  6
CONTINUOUS
 62
     7
 10
-60.0
 20
-115.5616243704595
 30
0.0
 40
1.5
  0
CIRCLE
  5
48C
  8
PATTERN_FILL
  6
CONTINUOUS
 62
     7
 10
-60.0
 20
-120.5616243704595
 30
0.0
 40
1.5
  0
CIRCLE
  5
48D
  8
PATTERN_FILL
  6
CONTINUOUS
 62
     7
 10
-60.0
 20
-125.5616243704595
 30
0.0
 40
1.5
  0
CIRCLE
  5
48E
  8
PATTERN_FILL
  6
CONTINUOUS
 62
     7
 10
-60.0
 20
-130.5616243704595
 30
0.0
 40
1.5
  0
CIRCLE
  5
48F
  8
PATTERN_FILL
  6
CONTINUOUS
 62
     7
 10
-60.0
 20
-135.5616243704595
 30
0.0
 40
1.5
  0
CIRCLE
  5
490
  8
PATTERN_FILL
  6
CONTINUOUS
 62
     7
 10
-60.0
 20
-140.5616243704595
 30
0.0
 40
1.5
  0
CIRCLE
  5
491
  8
PATTERN_FILL
  6
CONTINUOUS
 62
     7
 10
-60.0
 20
-145.5616243704595
 30
0.0
 40
1.5
  0
ARC
  5
492
  8
PATTERN_FILL
  6
CONTINUOUS
 62
     7
 10
-60.0
 20
-150.5616243704595
 30
0.0
 40
1.5000000000000091
 50
76.6701358894625
 51
146.71183052439741
  0
CIRCLE
  5
493
  8
PATTERN_FILL
  6
CONTINUOUS
 62
     7
 10
-55.0
 20
44.438375629540481
 30
0.0
 40
1.5
  0
CIRCLE
  5
494
  8
PATTERN_FILL
  6
CONTINUOUS
 62
     7
 10
-55.0
 20
39.438375629540488
 30
0.0
 40
1.5
  0
CIRCLE
  5
495
  8
PATTERN_FILL
  6
CONTINUOUS
 62
     7
 10
-55.0
 20
34.438375629540488
 30
0.0
 40
1.5
  0
CIRCLE
  5
496
  8
PATTERN_FILL
  6
CONTINUOUS
 62
     7
 10
-55.0
 20
29.438375629540491
 30
0.0
 40
1.5
  0
CIRCLE
  5
497
  8
PATTERN_FILL
  6
CONTINUOUS
 62
     7
 10
-55.0
 20
24.438375629540491
 30
0.0
 40
1.5
  0
CIRCLE
  5
498
  8
PATTERN_FILL
  6
CONTINUOUS
 62
     7
 10
-55.0
 20
19.438375629540491
 30
0.0
 40
1.5
  0
CIRCLE
  5
499
  8
PATTERN_FILL
  6
CONTINUOUS
 62
     7
 10
-55.0
 20
14.43837562954049
 30
0.0
 40
1.5
  0
CIRCLE
  5
49A
  8
PATTERN_FILL
  6
CONTINUOUS
 62
     7
 10
-55.0
 20
9.4383756295404897
 30
0.0
 40
1.5
  0
CIRCLE
  5
49B
  8
PATTERN_FILL
  6
CONTINUOUS
 62
     7
 10
-55.0
 20
4.438375629540487
 30
0.0
 40
1.5
  0
CIRCLE
  5
49C
  8
PATTERN_FILL
  6
CONTINUOUS
 62
     7
 10
-55.0
 20
-0.5616243704595121
 30
0.0
 40
1.5
  0
CIRCLE
  5
49D
  8
PATTERN_FILL
  6
CONTINUOUS
 62
     7
 10
-55.0
 20
-5.5616243704595121
 30
0.0
 40
1.5
  0
CIRCLE
  5
49E
  8
PATTERN_FILL
  6
CONTINUOUS
 62
     7
 10
-55.0
 20
-10.56162437045951
 30
0.0
 40
1.5
  0
CIRCLE
  5
49F
  8
PATTERN_FILL
  6
CONTINUOUS
 62
     7
 10
-55.0
 20
-15.56162437045951
 30
0.0
 40
1.5
  0
CIRCLE
  5
4A0
  8
PATTERN_FILL
  6
CONTINUOUS
 62
     7
 10
-55.0
 20
-20.561624370459509
 30
0.0
 40
1.5
  0
CIRCLE
  5
4A1
  8
PATTERN_FILL
  6
CONTINUOUS
 62
     7
 10
-55.0
 20
-25.561624370459509
 30
0.0
 40
1.5
  0
CIRCLE
  5
4A2
  8
PATTERN_FILL
  6
CONTINUOUS
 62
     7
 10
-55.0
 20
-30.561624370459509
 30
0.0
 40
1.5
  0
CIRCLE
  5
4A3
  8
PATTERN_FILL
  6
CONTINUOUS
 62
     7
 10
-55.0
 20
-35.561624370459512
 30
0.0
 40
1.5
  0
CIRCLE
  5
4A4
  8
PATTERN_FILL
  6
CONTINUOUS
 62
     7
 10
-55.0
 20
-40.561624370459512
 30
0.0
 40
1.5
  0
CIRCLE
  5
4A5
  8
PATTERN_FILL
  6
CONTINUOUS
 62
     7
 10
-55.0
 20
-45.561624370459512
 30
0.0
 40
1.5
  0
CIRCLE
  5
4A6
  8
PATTERN_FILL
  6
CONTINUOUS
 62
     7
 10
-55.0
 20
-50.561624370459512
 30
0.0
 40
1.5
  0
CIRCLE
  5
4A7
  8
PATTERN_FILL
  6
CONTINUOUS
 62
     7
 10
-55.0
 20
-55.561624370459512
 30
0.0
 40
1.5
  0
CIRCLE
  5
4A8
  8
PATTERN_FILL
  6
CONTINUOUS
 62
     7
 10
-55.0
 20
-60.561624370459512
 30
0.0
 40
1.5
  0
CIRCLE
  5
4A9
  8
PATTERN_FILL
  6
CONTINUOUS
 62
     7
 10
-55.0
 20
-65.561624370459512
 30
0.0
 40
1.5
  0
CIRCLE
  5
4AA
  8
PATTERN_FILL
  6
CONTINUOUS
 62
     7
 10
-55.0
 20
-70.561624370459512
 30
0.0
 40
1.5
  0
CIRCLE
  5
4AB
  8
PATTERN_FILL
  6
CONTINUOUS
 62
     7
 10
-55.0
 20
-75.561624370459498
 30
0.0
 40
1.5
  0
CIRCLE
  5
4AC
  8
PATTERN_FILL
  6
CONTINUOUS
 62
     7
 10
-55.0
 20
-80.561624370459498
 30
0.0
 40
1.5
  0
CIRCLE
  5
4AD
  8
PATTERN_FILL
  6
CONTINUOUS
 62
     7
 10
-55.0
 20
-85.561624370459498
 30
0.0
 40
1.5
  0
CIRCLE
  5
4AE
  8
PATTERN_FILL
  6
CONTINUOUS
 62
     7
 10
-55.0
 20
-90.561624370459512
 30
0.0
 40
1.5
  0
CIRCLE
  5
4AF
  8
PATTERN_FILL
  6
CONTINUOUS
 62
     7
 10
-55.0
 20
-95.561624370459512
 30
0.0
 40
1.5
  0
CIRCLE
  5
4B0
  8
PATTERN_FILL
  6
CONTINUOUS
 62
     7
 10
-55.0
 20
-100.5616243704595
 30
0.0
 40
1.5
  0
CIRCLE
  5
4B1
  8
PATTERN_FILL
  6
CONTINUOUS
 62
     7
 10
-55.0
 20
-105.5616243704595
 30
0.0
 40
1.5
  0
CIRCLE
  5
4B2
  8
PATTERN_FILL
  6
CONTINUOUS
 62
     7
 10
-55.0
 20
-110.5616243704595
 30
0.0
 40
1.5
  0
CIRCLE
  5
4B3
  8
PATTERN_FILL
  6
CONTINUOUS
 62
     7
 10
-55.0
 20
-115.5616243704595
 30
0.0
 40
1.5
  0
CIRCLE
  5
4B4
  8
PATTERN_FILL
  6
CONTINUOUS
 62
     7
 10
-55.0
 20
-120.5616243704595
 30
0.0
 40
1.5
  0
CIRCLE
  5
4B5
  8
PATTERN_FILL
  6
CONTINUOUS
 62
     7
 10
-55.0
 20
-125.5616243704595
 30
0.0
 40
1.5
  0
CIRCLE
  5
4B6
  8
PATTERN_FILL
  6
CONTINUOUS
 62
     7
 10
-55.0
 20
-130.5616243704595
 30
0.0
 40
1.5
  0
CIRCLE
  5
4B7
  8
PATTERN_FILL
  6
CONTINUOUS
 62
     7
 10
-55.0
 20
-135.5616243704595
 30
0.0
 40
1.5
  0
CIRCLE
  5
4B8
  8
PATTERN_FILL
  6
CONTINUOUS
 62
     7
 10
-55.0
 20
-140.5616243704595
 30
0.0
 40
1.5
  0
ARC
  5
4B9
  8
PATTERN_FILL
  6
CONTINUOUS
 62
     7
 10
-54.999999999999929
 20
-145.56162437045961
 30
0.0
 40
1.499999999999905
 50
319.10828599571892
 51
271.32323673103338
  0
ARC
  5
4BA
  8
PATTERN_FILL
  6
CONTINUOUS
 62
     7
 10
-50.0
 20
44.438375629540481
 30
0.0
 40
1.500000000000002
 50
147.0647176987334
 51
337.1376952091415
  0
CIRCLE
  5
4BB
  8
PATTERN_FILL
  6
CONTINUOUS
 62
     7
 10
-50.0
 20
39.438375629540488
 30
0.0
 40
1.5
  0
CIRCLE
  5
4BC
  8
PATTERN_FILL
  6
CONTINUOUS
 62
     7
 10
-50.0
 20
34.438375629540488
 30
0.0
 40
1.5
  0
CIRCLE
  5
4BD
  8
PATTERN_FILL
  6
CONTINUOUS
 62
     7
 10
-50.0
 20
29.438375629540491
 30
0.0
 40
1.5
  0
CIRCLE
  5
4BE
  8
PATTERN_FILL
  6
CONTINUOUS
 62
     7
 10
-50.0
 20
24.438375629540491
 30
0.0
 40
1.5
  0
CIRCLE
  5
4BF
  8
PATTERN_FILL
  6
CONTINUOUS
 62
     7
 10
-50.0
 20
19.438375629540491
 30
0.0
 40
1.5
  0
CIRCLE
  5
4C0
  8
PATTERN_FILL
  6
CONTINUOUS
 62
     7
 10
-50.0
 20
14.43837562954049
 30
0.0
 40
1.5
  0
CIRCLE
  5
4C1
  8
PATTERN_FILL
  6
CONTINUOUS
 62
     7
 10
-50.0
 20
9.4383756295404897
 30
0.0
 40
1.5
  0
CIRCLE
  5
4C2
  8
PATTERN_FILL
  6
CONTINUOUS
 62
     7
 10
-50.0
 20
4.438375629540487
 30
0.0
 40
1.5
  0
CIRCLE
  5
4C3
  8
PATTERN_FILL
  6
CONTINUOUS
 62
     7
 10
-50.0
 20
-0.5616243704595121
 30
0.0
 40
1.5
  0
CIRCLE
  5
4C4
  8
PATTERN_FILL
  6
CONTINUOUS
 62
     7
 10
-50.0
 20
-5.5616243704595121
 30
0.0
 40
1.5
  0
CIRCLE
  5
4C5
  8
PATTERN_FILL
  6
CONTINUOUS
 62
     7
 10
-50.0
 20
-10.56162437045951
 30
0.0
 40
1.5
  0
CIRCLE
  5
4C6
  8
PATTERN_FILL
  6
CONTINUOUS
 62
     7
 10
-50.0
 20
-15.56162437045951
 30
0.0
 40
1.5
  0
CIRCLE
  5
4C7
  8
PATTERN_FILL
  6
CONTINUOUS
 62
     7
 10
-50.0
 20
-20.561624370459509
 30
0.0
 40
1.5
  0
CIRCLE
  5
4C8
  8
PATTERN_FILL
  6
CONTINUOUS
 62
     7
 10
-50.0
 20
-25.561624370459509
 30
0.0
 40
1.5
  0
CIRCLE
  5
4C9
  8
PATTERN_FILL
  6
CONTINUOUS
 62
     7
 10
-50.0
 20
-30.561624370459509
 30
0.0
 40
1.5
  0
CIRCLE
  5
4CA
  8
PATTERN_FILL
  6
CONTINUOUS
 62
     7
 10
-50.0
 20
-35.561624370459512
 30
0.0
 40
1.5
  0
CIRCLE
  5
4CB
  8
PATTERN_FILL
  6
CONTINUOUS
 62
     7
 10
-50.0
 20
-40.561624370459512
 30
0.0
 40
1.5
  0
CIRCLE
  5
4CC
  8
PATTERN_FILL
  6
CONTINUOUS
 62
     7
 10
-50.0
 20
-45.561624370459512
 30
0.0
 40
1.5
  0
CIRCLE
  5
4CD
  8
PATTERN_FILL
  6
CONTINUOUS
 62
     7
 10
-50.0
 20
-50.561624370459512
 30
0.0
 40
1.5
  0
CIRCLE
  5
4CE
  8
PATTERN_FILL
  6
CONTINUOUS
 62
     7
 10
-50.0
 20
-55.561624370459512
 30
0.0
 40
1.5
  0
CIRCLE
  5
4CF
  8
PATTERN_FILL
  6
CONTINUOUS
 62
     7
 10
-50.0
 20
-60.561624370459512
 30
0.0
 40
1.5
  0
CIRCLE
  5
4D0
  8
PATTERN_FILL
  6
CONTINUOUS
 62
     7
 10
-50.0
 20
-65.561624370459512
 30
0.0
 40
1.5
  0
CIRCLE
  5
4D1
  8
PATTERN_FILL
  6
CONTINUOUS
 62
     7
 10
-50.0
 20
-70.561624370459512
 30
0.0
 40
1.5
  0
CIRCLE
  5
4D2
  8
PATTERN_FILL
  6
CONTINUOUS
 62
     7
 10
-50.0
 20
-75.561624370459498
 30
0.0
 40
1.5
  0
CIRCLE
  5
4D3
  8
PATTERN_FILL
  6
CONTINUOUS
 62
     7
 10
-50.0
 20
-80.561624370459498
 30
0.0
 40
1.5
  0
CIRCLE
  5
4D4
  8
PATTERN_FILL
  6
CONTINUOUS
 62
     7
 10
-50.0
 20
-85.561624370459498
 30
0.0
 40
1.5
  0
CIRCLE
  5
4D5
  8
PATTERN_FILL
  6
CONTINUOUS
 62
     7
 10
-50.0
 20
-90.561624370459512
 30
0.0
 40
1.5
  0
CIRCLE
  5
4D6
  8
PATTERN_FILL
  6
CONTINUOUS
 62
     7
 10
-50.0
 20
-95.561624370459512
 30
0.0
 40
1.5
  0
CIRCLE
  5
4D7
  8
PATTERN_FILL
  6
CONTINUOUS
 62
     7
 10
-50.0
 20
-100.5616243704595
 30
0.0
 40
1.5
  0
CIRCLE
  5
4D8
  8
PATTERN_FILL
  6
CONTINUOUS
 62
     7
 10
-50.0
 20
-105.5616243704595
 30
0.0
 40
1.5
  0
CIRCLE
  5
4D9
  8
PATTERN_FILL
  6
CONTINUOUS
 62
     7
 10
-50.0
 20
-110.5616243704595
 30
0.0
 40
1.5
  0
CIRCLE
  5
4DA
  8
PATTERN_FILL
  6
CONTINUOUS
 62
     7
 10
-50.0
 20
-115.5616243704595
 30
0.0
 40
1.5
  0
CIRCLE
  5
4DB
  8
PATTERN_FILL
  6
CONTINUOUS
 62
     7
 10
-50.0
 20
-120.5616243704595
 30
0.0
 40
1.5
  0
CIRCLE
  5
4DC
  8
PATTERN_FILL
  6
CONTINUOUS
 62
     7
 10
-50.0
 20
-125.5616243704595
 30
0.0
 40
1.5
  0
CIRCLE
  5
4DD
  8
PATTERN_FILL
  6
CONTINUOUS
 62
     7
 10
-50.0
 20
-130.5616243704595
 30
0.0
 40
1.5
  0
CIRCLE
  5
4DE
  8
PATTERN_FILL
  6
CONTINUOUS
 62
     7
 10
-50.0
 20
-135.5616243704595
 30
0.0
 40
1.5
  0
CIRCLE
  5
4DF
  8
PATTERN_FILL
  6
CONTINUOUS
 62
     7
 10
-50.0
 20
-140.5616243704595
 30
0.0
 40
1.5
  0
ARC
  5
4E0
  8
PATTERN_FILL
  6
CONTINUOUS
 62
     7
 10
-50.0
 20
-145.5616243704595
 30
0.0
 40
1.499999999999996
 50
62.552634520531079
 51
172.68652598466181
  0
CIRCLE
  5
4E1
  8
PATTERN_FILL
  6
CONTINUOUS
 62
     7
 10
-45.0
 20
39.438375629540488
 30
0.0
 40
1.5
  0
CIRCLE
  5
4E2
  8
PATTERN_FILL
  6
CONTINUOUS
 62
     7
 10
-45.0
 20
34.438375629540488
 30
0.0
 40
1.5
  0
CIRCLE
  5
4E3
  8
PATTERN_FILL
  6
CONTINUOUS
 62
     7
 10
-45.0
 20
29.438375629540491
 30
0.0
 40
1.5
  0
CIRCLE
  5
4E4
  8
PATTERN_FILL
  6
CONTINUOUS
 62
     7
 10
-45.0
 20
24.438375629540491
 30
0.0
 40
1.5
  0
CIRCLE
  5
4E5
  8
PATTERN_FILL
  6
CONTINUOUS
 62
     7
 10
-45.0
 20
19.438375629540491
 30
0.0
 40
1.5
  0
CIRCLE
  5
4E6
  8
PATTERN_FILL
  6
CONTINUOUS
 62
     7
 10
-45.0
 20
14.43837562954049
 30
0.0
 40
1.5
  0
CIRCLE
  5
4E7
  8
PATTERN_FILL
  6
CONTINUOUS
 62
     7
 10
-45.0
 20
9.4383756295404897
 30
0.0
 40
1.5
  0
CIRCLE
  5
4E8
  8
PATTERN_FILL
  6
CONTINUOUS
 62
     7
 10
-45.0
 20
4.438375629540487
 30
0.0
 40
1.5
  0
CIRCLE
  5
4E9
  8
PATTERN_FILL
  6
CONTINUOUS
 62
     7
 10
-45.0
 20
-0.5616243704595121
 30
0.0
 40
1.5
  0
CIRCLE
  5
4EA
  8
PATTERN_FILL
  6
CONTINUOUS
 62
     7
 10
-45.0
 20
-5.5616243704595121
 30
0.0
 40
1.5
  0
CIRCLE
  5
4EB
  8
PATTERN_FILL
  6
CONTINUOUS
 62
     7
 10
-45.0
 20
-10.56162437045951
 30
0.0
 40
1.5
  0
CIRCLE
  5
4EC
  8
PATTERN_FILL
  6
CONTINUOUS
 62
     7
 10
-45.0
 20
-15.56162437045951
 30
0.0
 40
1.5
  0
CIRCLE
  5
4ED
  8
PATTERN_FILL
  6
CONTINUOUS
 62
     7
 10
-45.0
 20
-20.561624370459509
 30
0.0
 40
1.5
  0
CIRCLE
  5
4EE
  8
PATTERN_FILL
  6
CONTINUOUS
 62
     7
 10
-45.0
 20
-25.561624370459509
 30
0.0
 40
1.5
  0
CIRCLE
  5
4EF
  8
PATTERN_FILL
  6
CONTINUOUS
 62
     7
 10
-45.0
 20
-30.561624370459509
 30
0.0
 40
1.5
  0
CIRCLE
  5
4F0
  8
PATTERN_FILL
  6
CONTINUOUS
 62
     7
 10
-45.0
 20
-35.561624370459512
 30
0.0
 40
1.5
  0
CIRCLE
  5
4F1
  8
PATTERN_FILL
  6
CONTINUOUS
 62
     7
 10
-45.0
 20
-40.561624370459512
 30
0.0
 40
1.5
  0
CIRCLE
  5
4F2
  8
PATTERN_FILL
  6
CONTINUOUS
 62
     7
 10
-45.0
 20
-45.561624370459512
 30
0.0
 40
1.5
  0
CIRCLE
  5
4F3
  8
PATTERN_FILL
  6
CONTINUOUS
 62
     7
 10
-45.0
 20
-50.561624370459512
 30
0.0
 40
1.5
  0
CIRCLE
  5
4F4
  8
PATTERN_FILL
  6
CONTINUOUS
 62
     7
 10
-45.0
 20
-55.561624370459512
 30
0.0
 40
1.5
  0
CIRCLE
  5
4F5
  8
PATTERN_FILL
  6
CONTINUOUS
 62
     7
 10
-45.0
 20
-60.561624370459512
 30
0.0
 40
1.5
  0
CIRCLE
  5
4F6
  8
PATTERN_FILL
  6
CONTINUOUS
 62
     7
 10
-45.0
 20
-65.561624370459512
 30
0.0
 40
1.5
  0
CIRCLE
  5
4F7
  8
PATTERN_FILL
  6
CONTINUOUS
 62
     7
 10
-45.0
 20
-70.561624370459512
 30
0.0
 40
1.5
  0
CIRCLE
  5
4F8
  8
PATTERN_FILL
  6
CONTINUOUS
 62
     7
 10
-45.0
 20
-75.561624370459498
 30
0.0
 40
1.5
  0
CIRCLE
  5
4F9
  8
PATTERN_FILL
  6
CONTINUOUS
 62
     7
 10
-45.0
 20
-80.561624370459498
 30
0.0
 40
1.5
  0
CIRCLE
  5
4FA
  8
PATTERN_FILL
  6
CONTINUOUS
 62
     7
 10
-45.0
 20
-85.561624370459498
 30
0.0
 40
1.5
  0
CIRCLE
  5
4FB
  8
PATTERN_FILL
  6
CONTINUOUS
 62
     7
 10
-45.0
 20
-90.561624370459512
 30
0.0
 40
1.5
  0
CIRCLE
  5
4FC
  8
PATTERN_FILL
  6
CONTINUOUS
 62
     7
 10
-45.0
 20
-95.561624370459512
 30
0.0
 40
1.5
  0
CIRCLE
  5
4FD
  8
PATTERN_FILL
  6
CONTINUOUS
 62
     7
 10
-45.0
 20
-100.5616243704595
 30
0.0
 40
1.5
  0
CIRCLE
  5
4FE
  8
PATTERN_FILL
  6
CONTINUOUS
 62
     7
 10
-45.0
 20
-105.5616243704595
 30
0.0
 40
1.5
  0
CIRCLE
  5
4FF
  8
PATTERN_FILL
  6
CONTINUOUS
 62
     7
 10
-45.0
 20
-110.5616243704595
 30
0.0
 40
1.5
  0
CIRCLE
  5
500
  8
PATTERN_FILL
  6
CONTINUOUS
 62
     7
 10
-45.0
 20
-115.5616243704595
 30
0.0
 40
1.5
  0
CIRCLE
  5
501
  8
PATTERN_FILL
  6
CONTINUOUS
 62
     7
 10
-45.0
 20
-120.5616243704595
 30
0.0
 40
1.5
  0
CIRCLE
  5
502
  8
PATTERN_FILL
  6
CONTINUOUS
 62
     7
 10
-45.0
 20
-125.5616243704595
 30
0.0
 40
1.5
  0
CIRCLE
  5
503
  8
PATTERN_FILL
  6
CONTINUOUS
 62
     7
 10
-45.0
 20
-130.5616243704595
 30
0.0
 40
1.5
  0
CIRCLE
  5
504
  8
PATTERN_FILL
  6
CONTINUOUS
 62
     7
 10
-45.0
 20
-135.5616243704595
 30
0.0
 40
1.5
  0
ARC
  5
505
  8
PATTERN_FILL
  6
CONTINUOUS
 62
     7
 10
-44.999999999999993
 20
-140.5616243704595
 30
0.0
 40
1.499999999999992
 50
347.38757010815772
 51
255.15482951881691
  0
ARC
  5
506
  8
PATTERN_FILL
  6
CONTINUOUS
 62
     7
 10
-40.0
 20
39.438375629540488
 30
0.0
 40
1.500000000000002
 50
174.3024184254954
 51
297.98597742312478
  0
CIRCLE
  5
507
  8
PATTERN_FILL
  6
CONTINUOUS
 62
     7
 10
-40.0
 20
34.438375629540488
 30
0.0
 40
1.5
  0
CIRCLE
  5
508
  8
PATTERN_FILL
  6
CONTINUOUS
 62
     7
 10
-40.0
 20
29.438375629540491
 30
0.0
 40
1.5
  0
CIRCLE
  5
509
  8
PATTERN_FILL
  6
CONTINUOUS
 62
     7
 10
-40.0
 20
24.438375629540491
 30
0.0
 40
1.5
  0
CIRCLE
  5
50A
  8
PATTERN_FILL
  6
CONTINUOUS
 62
     7
 10
-40.0
 20
19.438375629540491
 30
0.0
 40
1.5
  0
CIRCLE
  5
50B
  8
PATTERN_FILL
  6
CONTINUOUS
 62
     7
 10
-40.0
 20
14.43837562954049
 30
0.0
 40
1.5
  0
CIRCLE
  5
50C
  8
PATTERN_FILL
  6
CONTINUOUS
 62
     7
 10
-40.0
 20
9.4383756295404897
 30
0.0
 40
1.5
  0
CIRCLE
  5
50D
  8
PATTERN_FILL
  6
CONTINUOUS
 62
     7
 10
-40.0
 20
4.438375629540487
 30
0.0
 40
1.5
  0
CIRCLE
  5
50E
  8
PATTERN_FILL
  6
CONTINUOUS
 62
     7
 10
-40.0
 20
-0.5616243704595121
 30
0.0
 40
1.5
  0
CIRCLE
  5
50F
  8
PATTERN_FILL
  6
CONTINUOUS
 62
     7
 10
-40.0
 20
-5.5616243704595121
 30
0.0
 40
1.5
  0
CIRCLE
  5
510
  8
PATTERN_FILL
  6
CONTINUOUS
 62
     7
 10
-40.0
 20
-10.56162437045951
 30
0.0
 40
1.5
  0
CIRCLE
  5
511
  8
PATTERN_FILL
  6
CONTINUOUS
 62
     7
 10
-40.0
 20
-15.56162437045951
 30
0.0
 40
1.5
  0
CIRCLE
  5
512
  8
PATTERN_FILL
  6
CONTINUOUS
 62
     7
 10
-40.0
 20
-20.561624370459509
 30
0.0
 40
1.5
  0
CIRCLE
  5
513
  8
PATTERN_FILL
  6
CONTINUOUS
 62
     7
 10
-40.0
 20
-25.561624370459509
 30
0.0
 40
1.5
  0
CIRCLE
  5
514
  8
PATTERN_FILL
  6
CONTINUOUS
 62
     7
 10
-40.0
 20
-30.561624370459509
 30
0.0
 40
1.5
  0
CIRCLE
  5
515
  8
PATTERN_FILL
  6
CONTINUOUS
 62
     7
 10
-40.0
 20
-35.561624370459512
 30
0.0
 40
1.5
  0
CIRCLE
  5
516
  8
PATTERN_FILL
  6
CONTINUOUS
 62
     7
 10
-40.0
 20
-40.561624370459512
 30
0.0
 40
1.5
  0
CIRCLE
  5
517
  8
PATTERN_FILL
  6
CONTINUOUS
 62
     7
 10
-40.0
 20
-45.561624370459512
 30
0.0
 40
1.5
  0
CIRCLE
  5
518
  8
PATTERN_FILL
  6
CONTINUOUS
 62
     7
 10
-40.0
 20
-50.561624370459512
 30
0.0
 40
1.5
  0
CIRCLE
  5
519
  8
PATTERN_FILL
  6
CONTINUOUS
 62
     7
 10
-40.0
 20
-55.561624370459512
 30
0.0
 40
1.5
  0
CIRCLE
  5
51A
  8
PATTERN_FILL
  6
CONTINUOUS
 62
     7
 10
-40.0
 20
-60.561624370459512
 30
0.0
 40
1.5
  0
CIRCLE
  5
51B
  8
PATTERN_FILL
  6
CONTINUOUS
 62
     7
 10
-40.0
 20
-65.561624370459512
 30
0.0
 40
1.5
  0
CIRCLE
  5
51C
  8
PATTERN_FILL
  6
CONTINUOUS
 62
     7
 10
-40.0
 20
-70.561624370459512
 30
0.0
 40
1.5
  0
CIRCLE
  5
51D
  8
PATTERN_FILL
  6
CONTINUOUS
 62
     7
 10
-40.0
 20
-75.561624370459498
 30
0.0
 40
1.5
  0
CIRCLE
  5
51E
  8
PATTERN_FILL
  6
CONTINUOUS
 62
     7
 10
-40.0
 20
-80.561624370459498
 30
0.0
 40
1.5
  0
CIRCLE
  5
51F
  8
PATTERN_FILL
  6
CONTINUOUS
 62
     7
 10
-40.0
 20
-85.561624370459498
 30
0.0
 40
1.5
  0
CIRCLE
  5
520
  8
PATTERN_FILL
  6
CONTINUOUS
 62
     7
 10
-40.0
 20
-90.561624370459512
 30
0.0
 40
1.5
  0
CIRCLE
  5
521
  8
PATTERN_FILL
  6
CONTINUOUS
 62
     7
 10
-40.0
 20
-95.561624370459512
 30
0.0
 40
1.5
  0
CIRCLE
  5
522
  8
PATTERN_FILL
  6
CONTINUOUS
 62
     7
 10
-40.0
 20
-100.5616243704595
 30
0.0
 40
1.5
  0
CIRCLE
  5
523
  8
PATTERN_FILL
  6
CONTINUOUS
 62
     7
 10
-40.0
 20
-105.5616243704595
 30
0.0
 40
1.5
  0
CIRCLE
  5
524
  8
PATTERN_FILL
  6
CONTINUOUS
 62
     7
 10
-40.0
 20
-110.5616243704595
 30
0.0
 40
1.5
  0
CIRCLE
  5
525
  8
PATTERN_FILL
  6
CONTINUOUS
 62
     7
 10
-40.0
 20
-115.5616243704595
 30
0.0
 40
1.5
  0
CIRCLE
  5
526
  8
PATTERN_FILL
  6
CONTINUOUS
 62
     7
 10
-40.0
 20
-120.5616243704595
 30
0.0
 40
1.5
  0
CIRCLE
  5
527
  8
PATTERN_FILL
  6
CONTINUOUS
 62
     7
 10
-40.0
 20
-125.5616243704595
 30
0.0
 40
1.5
  0
CIRCLE
  5
528
  8
PATTERN_FILL
  6
CONTINUOUS
 62
     7
 10
-40.0
 20
-130.5616243704595
 30
0.0
 40
1.5
  0
CIRCLE
  5
529
  8
PATTERN_FILL
  6
CONTINUOUS
 62
     7
 10
-40.0
 20
-135.5616243704595
 30
0.0
 40
1.5
  0
ARC
  5
52A
  8
PATTERN_FILL
  6
CONTINUOUS
 62
     7
 10
-35.0
 20
34.438375629540488
 30
0.0
 40
1.5000000000000011
 50
125.7022052422036
 51
339.12020538512797
  0
CIRCLE
  5
52B
  8
PATTERN_FILL
  6
CONTINUOUS
 62
     7
 10
-35.0
 20
29.438375629540491
 30
0.0
 40
1.5
  0
CIRCLE
  5
52C
  8
PATTERN_FILL
  6
CONTINUOUS
 62
     7
 10
-35.0
 20
24.438375629540491
 30
0.0
 40
1.5
  0
CIRCLE
  5
52D
  8
PATTERN_FILL
  6
CONTINUOUS
 62
     7
 10
-35.0
 20
19.438375629540491
 30
0.0
 40
1.5
  0
CIRCLE
  5
52E
  8
PATTERN_FILL
  6
CONTINUOUS
 62
     7
 10
-35.0
 20
14.43837562954049
 30
0.0
 40
1.5
  0
CIRCLE
  5
52F
  8
PATTERN_FILL
  6
CONTINUOUS
 62
     7
 10
-35.0
 20
9.4383756295404897
 30
0.0
 40
1.5
  0
CIRCLE
  5
530
  8
PATTERN_FILL
  6
CONTINUOUS
 62
     7
 10
-35.0
 20
4.438375629540487
 30
0.0
 40
1.5
  0
CIRCLE
  5
531
  8
PATTERN_FILL
  6
CONTINUOUS
 62
     7
 10
-35.0
 20
-0.5616243704595121
 30
0.0
 40
1.5
  0
CIRCLE
  5
532
  8
PATTERN_FILL
  6
CONTINUOUS
 62
     7
 10
-35.0
 20
-5.5616243704595121
 30
0.0
 40
1.5
  0
CIRCLE
  5
533
  8
PATTERN_FILL
  6
CONTINUOUS
 62
     7
 10
-35.0
 20
-10.56162437045951
 30
0.0
 40
1.5
  0
CIRCLE
  5
534
  8
PATTERN_FILL
  6
CONTINUOUS
 62
     7
 10
-35.0
 20
-15.56162437045951
 30
0.0
 40
1.5
  0
CIRCLE
  5
535
  8
PATTERN_FILL
  6
CONTINUOUS
 62
     7
 10
-35.0
 20
-20.561624370459509
 30
0.0
 40
1.5
  0
CIRCLE
  5
536
  8
PATTERN_FILL
  6
CONTINUOUS
 62
     7
 10
-35.0
 20
-25.561624370459509
 30
0.0
 40
1.5
  0
CIRCLE
  5
537
  8
PATTERN_FILL
  6
CONTINUOUS
 62
     7
 10
-35.0
 20
-30.561624370459509
 30
0.0
 40
1.5
  0
CIRCLE
  5
538
  8
PATTERN_FILL
  6
CONTINUOUS
 62
     7
 10
-35.0
 20
-35.561624370459512
 30
0.0
 40
1.5
  0
CIRCLE
  5
539
  8
PATTERN_FILL
  6
CONTINUOUS
 62
     7
 10
-35.0
 20
-40.561624370459512
 30
0.0
 40
1.5
  0
CIRCLE
  5
53A
  8
PATTERN_FILL
  6
CONTINUOUS
 62
     7
 10
-35.0
 20
-45.561624370459512
 30
0.0
 40
1.5
  0
CIRCLE
  5
53B
  8
PATTERN_FILL
  6
CONTINUOUS
 62
     7
 10
-35.0
 20
-50.561624370459512
 30
0.0
 40
1.5
  0
CIRCLE
  5
53C
  8
PATTERN_FILL
  6
CONTINUOUS
 62
     7
 10
-35.0
 20
-55.561624370459512
 30
0.0
 40
1.5
  0
CIRCLE
  5
53D
  8
PATTERN_FILL
  6
CONTINUOUS
 62
     7
 10
-35.0
 20
-60.561624370459512
 30
0.0
 40
1.5
  0
CIRCLE
  5
53E
  8
PATTERN_FILL
  6
CONTINUOUS
 62
     7
 10
-35.0
 20
-65.561624370459512
 30
0.0
 40
1.5
  0
CIRCLE
  5
53F
  8
PATTERN_FILL
  6
CONTINUOUS
 62
     7
 10
-35.0
 20
-70.561624370459512
 30
0.0
 40
1.5
  0
CIRCLE
  5
540
  8
PATTERN_FILL
  6
CONTINUOUS
 62
     7
 10
-35.0
 20
-75.561624370459498
 30
0.0
 40
1.5
  0
CIRCLE
  5
541
  8
PATTERN_FILL
  6
CONTINUOUS
 62
     7
 10
-35.0
 20
-80.561624370459498
 30
0.0
 40
1.5
  0
CIRCLE
  5
542
  8
PATTERN_FILL
  6
CONTINUOUS
 62
     7
 10
-35.0
 20
-85.561624370459498
 30
0.0
 40
1.5
  0
CIRCLE
  5
543
  8
PATTERN_FILL
  6
CONTINUOUS
 62
     7
 10
-35.0
 20
-90.561624370459512
 30
0.0
 40
1.5
  0
CIRCLE
  5
544
  8
PATTERN_FILL
  6
CONTINUOUS
 62
     7
 10
-35.0
 20
-95.561624370459512
 30
0.0
 40
1.5
  0
CIRCLE
  5
545
  8
PATTERN_FILL
  6
CONTINUOUS
 62
     7
 10
-35.0
 20
-100.5616243704595
 30
0.0
 40
1.5
  0
CIRCLE
  5
546
  8
PATTERN_FILL
  6
CONTINUOUS
 62
     7
 10
-35.0
 20
-105.5616243704595
 30
0.0
 40
1.5
  0
CIRCLE
  5
547
  8
PATTERN_FILL
  6
CONTINUOUS
 62
     7
 10
-35.0
 20
-110.5616243704595
 30
0.0
 40
1.5
  0
CIRCLE
  5
548
  8
PATTERN_FILL
  6
CONTINUOUS
 62
     7
 10
-35.0
 20
-115.5616243704595
 30
0.0
 40
1.5
  0
CIRCLE
  5
549
  8
PATTERN_FILL
  6
CONTINUOUS
 62
     7
 10
-35.0
 20
-120.5616243704595
 30
0.0
 40
1.5
  0
CIRCLE
  5
54A
  8
PATTERN_FILL
  6
CONTINUOUS
 62
     7
 10
-35.0
 20
-125.5616243704595
 30
0.0
 40
1.5
  0
CIRCLE
  5
54B
  8
PATTERN_FILL
  6
CONTINUOUS
 62
     7
 10
-35.0
 20
-130.5616243704595
 30
0.0
 40
1.5
  0
ARC
  5
54C
  8
PATTERN_FILL
  6
CONTINUOUS
 62
     7
 10
-35.0
 20
-135.5616243704595
 30
0.0
 40
1.5000000000000011
 50
55.116702602801091
 51
199.33018103455211
  0
ARC
  5
54D
  8
PATTERN_FILL
  6
CONTINUOUS
 62
     7
 10
-30.000000000000011
 20
29.438375629540481
 30
0.0
 40
1.50000000000001
 50
90.548338768557699
 51
6.6795467957485366
  0
CIRCLE
  5
54E
  8
PATTERN_FILL
  6
CONTINUOUS
 62
     7
 10
-30.0
 20
24.438375629540491
 30
0.0
 40
1.5
  0
CIRCLE
  5
54F
  8
PATTERN_FILL
  6
CONTINUOUS
 62
     7
 10
-30.0
 20
19.438375629540491
 30
0.0
 40
1.5
  0
CIRCLE
  5
550
  8
PATTERN_FILL
  6
CONTINUOUS
 62
     7
 10
-30.0
 20
14.43837562954049
 30
0.0
 40
1.5
  0
CIRCLE
  5
551
  8
PATTERN_FILL
  6
CONTINUOUS
 62
     7
 10
-30.0
 20
9.4383756295404897
 30
0.0
 40
1.5
  0
CIRCLE
  5
552
  8
PATTERN_FILL
  6
CONTINUOUS
 62
     7
 10
-30.0
 20
4.438375629540487
 30
0.0
 40
1.5
  0
CIRCLE
  5
553
  8
PATTERN_FILL
  6
CONTINUOUS
 62
     7
 10
-30.0
 20
-0.5616243704595121
 30
0.0
 40
1.5
  0
CIRCLE
  5
554
  8
PATTERN_FILL
  6
CONTINUOUS
 62
     7
 10
-30.0
 20
-5.5616243704595121
 30
0.0
 40
1.5
  0
CIRCLE
  5
555
  8
PATTERN_FILL
  6
CONTINUOUS
 62
     7
 10
-30.0
 20
-10.56162437045951
 30
0.0
 40
1.5
  0
CIRCLE
  5
556
  8
PATTERN_FILL
  6
CONTINUOUS
 62
     7
 10
-30.0
 20
-15.56162437045951
 30
0.0
 40
1.5
  0
CIRCLE
  5
557
  8
PATTERN_FILL
  6
CONTINUOUS
 62
     7
 10
-30.0
 20
-20.561624370459509
 30
0.0
 40
1.5
  0
CIRCLE
  5
558
  8
PATTERN_FILL
  6
CONTINUOUS
 62
     7
 10
-30.0
 20
-25.561624370459509
 30
0.0
 40
1.5
  0
CIRCLE
  5
559
  8
PATTERN_FILL
  6
CONTINUOUS
 62
     7
 10
-30.0
 20
-30.561624370459509
 30
0.0
 40
1.5
  0
CIRCLE
  5
55A
  8
PATTERN_FILL
  6
CONTINUOUS
 62
     7
 10
-30.0
 20
-35.561624370459512
 30
0.0
 40
1.5
  0
CIRCLE
  5
55B
  8
PATTERN_FILL
  6
CONTINUOUS
 62
     7
 10
-30.0
 20
-40.561624370459512
 30
0.0
 40
1.5
  0
CIRCLE
  5
55C
  8
PATTERN_FILL
  6
CONTINUOUS
 62
     7
 10
-30.0
 20
-45.561624370459512
 30
0.0
 40
1.5
  0
CIRCLE
  5
55D
  8
PATTERN_FILL
  6
CONTINUOUS
 62
     7
 10
-30.0
 20
-50.561624370459512
 30
0.0
 40
1.5
  0
CIRCLE
  5
55E
  8
PATTERN_FILL
  6
CONTINUOUS
 62
     7
 10
-30.0
 20
-55.561624370459512
 30
0.0
 40
1.5
  0
CIRCLE
  5
55F
  8
PATTERN_FILL
  6
CONTINUOUS
 62
     7
 10
-30.0
 20
-60.561624370459512
 30
0.0
 40
1.5
  0
CIRCLE
  5
560
  8
PATTERN_FILL
  6
CONTINUOUS
 62
     7
 10
-30.0
 20
-65.561624370459512
 30
0.0
 40
1.5
  0
CIRCLE
  5
561
  8
PATTERN_FILL
  6
CONTINUOUS
 62
     7
 10
-30.0
 20
-70.561624370459512
 30
0.0
 40
1.5
  0
CIRCLE
  5
562
  8
PATTERN_FILL
  6
CONTINUOUS
 62
     7
 10
-30.0
 20
-75.561624370459498
 30
0.0
 40
1.5
  0
CIRCLE
  5
563
  8
PATTERN_FILL
  6
CONTINUOUS
 62
     7
 10
-30.0
 20
-80.561624370459498
 30
0.0
 40
1.5
  0
CIRCLE
  5
564
  8
PATTERN_FILL
  6
CONTINUOUS
 62
     7
 10
-30.0
 20
-85.561624370459498
 30
0.0
 40
1.5
  0
CIRCLE
  5
565
  8
PATTERN_FILL
  6
CONTINUOUS
 62
     7
 10
-30.0
 20
-90.561624370459512
 30
0.0
 40
1.5
  0
CIRCLE
  5
566
  8
PATTERN_FILL
  6
CONTINUOUS
 62
     7
 10
-30.0
 20
-95.561624370459512
 30
0.0
 40
1.5
  0
CIRCLE
  5
567
  8
PATTERN_FILL
  6
CONTINUOUS
 62
     7
 10
-30.0
 20
-100.5616243704595
 30
0.0
 40
1.5
  0
CIRCLE
  5
568
  8
PATTERN_FILL
  6
CONTINUOUS
 62
     7
 10
-30.0
 20
-105.5616243704595
 30
0.0
 40
1.5
  0
CIRCLE
  5
569
  8
PATTERN_FILL
  6
CONTINUOUS
 62
     7
 10
-30.0
 20
-110.5616243704595
 30
0.0
 40
1.5
  0
CIRCLE
  5
56A
  8
PATTERN_FILL
  6
CONTINUOUS
 62
     7
 10
-30.0
 20
-115.5616243704595
 30
0.0
 40
1.5
  0
CIRCLE
  5
56B
  8
PATTERN_FILL
  6
CONTINUOUS
 62
     7
 10
-30.0
 20
-120.5616243704595
 30
0.0
 40
1.5
  0
CIRCLE
  5
56C
  8
PATTERN_FILL
  6
CONTINUOUS
 62
     7
 10
-30.0
 20
-125.5616243704595
 30
0.0
 40
1.5
  0
ARC
  5
56D
  8
PATTERN_FILL
  6
CONTINUOUS
 62
     7
 10
-30.0
 20
-130.5616243704595
 30
0.0
 40
1.499999999999996
 50
30.80979708008163
 51
231.16495949744609
  0
ARC
  5
56E
  8
PATTERN_FILL
  6
CONTINUOUS
 62
     7
 10
-24.999999999999989
 20
24.438375629540491
 30
0.0
 40
1.4999999999999889
 50
72.484448533522013
 51
17.0848916113511
  0
CIRCLE
  5
56F
  8
PATTERN_FILL
  6
CONTINUOUS
 62
     7
 10
-25.0
 20
19.438375629540491
 30
0.0
 40
1.5
  0
CIRCLE
  5
570
  8
PATTERN_FILL
  6
CONTINUOUS
 62
     7
 10
-25.0
 20
14.43837562954049
 30
0.0
 40
1.5
  0
CIRCLE
  5
571
  8
PATTERN_FILL
  6
CONTINUOUS
 62
     7
 10
-25.0
 20
9.4383756295404897
 30
0.0
 40
1.5
  0
CIRCLE
  5
572
  8
PATTERN_FILL
  6
CONTINUOUS
 62
     7
 10
-25.0
 20
4.438375629540487
 30
0.0
 40
1.5
  0
CIRCLE
  5
573
  8
PATTERN_FILL
  6
CONTINUOUS
 62
     7
 10
-25.0
 20
-0.5616243704595121
 30
0.0
 40
1.5
  0
CIRCLE
  5
574
  8
PATTERN_FILL
  6
CONTINUOUS
 62
     7
 10
-25.0
 20
-5.5616243704595121
 30
0.0
 40
1.5
  0
CIRCLE
  5
575
  8
PATTERN_FILL
  6
CONTINUOUS
 62
     7
 10
-25.0
 20
-10.56162437045951
 30
0.0
 40
1.5
  0
CIRCLE
  5
576
  8
PATTERN_FILL
  6
CONTINUOUS
 62
     7
 10
-25.0
 20
-15.56162437045951
 30
0.0
 40
1.5
  0
CIRCLE
  5
577
  8
PATTERN_FILL
  6
CONTINUOUS
 62
     7
 10
-25.0
 20
-20.561624370459509
 30
0.0
 40
1.5
  0
CIRCLE
  5
578
  8
PATTERN_FILL
  6
CONTINUOUS
 62
     7
 10
-25.0
 20
-25.561624370459509
 30
0.0
 40
1.5
  0
CIRCLE
  5
579
  8
PATTERN_FILL
  6
CONTINUOUS
 62
     7
 10
-25.0
 20
-30.561624370459509
 30
0.0
 40
1.5
  0
CIRCLE
  5
57A
  8
PATTERN_FILL
  6
CONTINUOUS
 62
     7
 10
-25.0
 20
-35.561624370459512
 30
0.0
 40
1.5
  0
CIRCLE
  5
57B
  8
PATTERN_FILL
  6
CONTINUOUS
 62
     7
 10
-25.0
 20
-40.561624370459512
 30
0.0
 40
1.5
  0
CIRCLE
  5
57C
  8
PATTERN_FILL
  6
CONTINUOUS
 62
     7
 10
-25.0
 20
-45.561624370459512
 30
0.0
 40
1.5
  0
CIRCLE
  5
57D
  8
PATTERN_FILL
  6
CONTINUOUS
 62
     7
 10
-25.0
 20
-50.561624370459512
 30
0.0
 40
1.5
  0
CIRCLE
  5
57E
  8
PATTERN_FILL
  6
CONTINUOUS
 62
     7
 10
-25.0
 20
-55.561624370459512
 30
0.0
 40
1.5
  0
CIRCLE
  5
57F
  8
PATTERN_FILL
  6
CONTINUOUS
 62
     7
 10
-25.0
 20
-60.561624370459512
 30
0.0
 40
1.5
  0
CIRCLE
  5
580
  8
PATTERN_FILL
  6
CONTINUOUS
 62
     7
 10
-25.0
 20
-65.561624370459512
 30
0.0
 40
1.5
  0
CIRCLE
  5
581
  8
PATTERN_FILL
  6
CONTINUOUS
 62
     7
 10
-25.0
 20
-70.561624370459512
 30
0.0
 40
1.5
  0
CIRCLE
  5
582
  8
PATTERN_FILL
  6
CONTINUOUS
 62
     7
 10
-25.0
 20
-75.561624370459498
 30
0.0
 40
1.5
  0
CIRCLE
  5
583
  8
PATTERN_FILL
  6
CONTINUOUS
 62
     7
 10
-25.0
 20
-80.561624370459498
 30
0.0
 40
1.5
  0
CIRCLE
  5
584
  8
PATTERN_FILL
  6
CONTINUOUS
 62
     7
 10
-25.0
 20
-85.561624370459498
 30
0.0
 40
1.5
  0
CIRCLE
  5
585
  8
PATTERN_FILL
  6
CONTINUOUS
 62
     7
 10
-25.0
 20
-90.561624370459512
 30
0.0
 40
1.5
  0
CIRCLE
  5
586
  8
PATTERN_FILL
  6
CONTINUOUS
 62
     7
 10
-25.0
 20
-95.561624370459512
 30
0.0
 40
1.5
  0
CIRCLE
  5
587
  8
PATTERN_FILL
  6
CONTINUOUS
 62
     7
 10
-25.0
 20
-100.5616243704595
 30
0.0
 40
1.5
  0
CIRCLE
  5
588
  8
PATTERN_FILL
  6
CONTINUOUS
 62
     7
 10
-25.0
 20
-105.5616243704595
 30
0.0
 40
1.5
  0
CIRCLE
  5
589
  8
PATTERN_FILL
  6
CONTINUOUS
 62
     7
 10
-25.0
 20
-110.5616243704595
 30
0.0
 40
1.5
  0
CIRCLE
  5
58A
  8
PATTERN_FILL
  6
CONTINUOUS
 62
     7
 10
-25.0
 20
-115.5616243704595
 30
0.0
 40
1.5
  0
CIRCLE
  5
58B
  8
PATTERN_FILL
  6
CONTINUOUS
 62
     7
 10
-25.0
 20
-120.5616243704595
 30
0.0
 40
1.5
  0
ARC
  5
58C
  8
PATTERN_FILL
  6
CONTINUOUS
 62
     7
 10
-25.0
 20
-125.5616243704595
 30
0.0
 40
1.5000000000000011
 50
24.221604928111852
 51
245.3509480781928
  0
ARC
  5
58D
  8
PATTERN_FILL
  6
CONTINUOUS
 62
     7
 10
-20.0
 20
19.438375629540491
 30
0.0
 40
1.5
 50
85.86921164062781
 51
356.04542271657431
  0
CIRCLE
  5
58E
  8
PATTERN_FILL
  6
CONTINUOUS
 62
     7
 10
-20.0
 20
14.43837562954049
 30
0.0
 40
1.5
  0
CIRCLE
  5
58F
  8
PATTERN_FILL
  6
CONTINUOUS
 62
     7
 10
-20.0
 20
9.4383756295404897
 30
0.0
 40
1.5
  0
CIRCLE
  5
590
  8
PATTERN_FILL
  6
CONTINUOUS
 62
     7
 10
-20.0
 20
4.438375629540487
 30
0.0
 40
1.5
  0
CIRCLE
  5
591
  8
PATTERN_FILL
  6
CONTINUOUS
 62
     7
 10
-20.0
 20
-0.5616243704595121
 30
0.0
 40
1.5
  0
CIRCLE
  5
592
  8
PATTERN_FILL
  6
CONTINUOUS
 62
     7
 10
-20.0
 20
-5.5616243704595121
 30
0.0
 40
1.5
  0
CIRCLE
  5
593
  8
PATTERN_FILL
  6
CONTINUOUS
 62
     7
 10
-20.0
 20
-10.56162437045951
 30
0.0
 40
1.5
  0
CIRCLE
  5
594
  8
PATTERN_FILL
  6
CONTINUOUS
 62
     7
 10
-20.0
 20
-15.56162437045951
 30
0.0
 40
1.5
  0
CIRCLE
  5
595
  8
PATTERN_FILL
  6
CONTINUOUS
 62
     7
 10
-20.0
 20
-20.561624370459509
 30
0.0
 40
1.5
  0
CIRCLE
  5
596
  8
PATTERN_FILL
  6
CONTINUOUS
 62
     7
 10
-20.0
 20
-25.561624370459509
 30
0.0
 40
1.5
  0
CIRCLE
  5
597
  8
PATTERN_FILL
  6
CONTINUOUS
 62
     7
 10
-20.0
 20
-30.561624370459509
 30
0.0
 40
1.5
  0
CIRCLE
  5
598
  8
PATTERN_FILL
  6
CONTINUOUS
 62
     7
 10
-20.0
 20
-35.561624370459512
 30
0.0
 40
1.5
  0
CIRCLE
  5
599
  8
PATTERN_FILL
  6
CONTINUOUS
 62
     7
 10
-20.0
 20
-40.561624370459512
 30
0.0
 40
1.5
  0
CIRCLE
  5
59A
  8
PATTERN_FILL
  6
CONTINUOUS
 62
     7
 10
-20.0
 20
-45.561624370459512
 30
0.0
 40
1.5
  0
CIRCLE
  5
59B
  8
PATTERN_FILL
  6
CONTINUOUS
 62
     7
 10
-20.0
 20
-50.561624370459512
 30
0.0
 40
1.5
  0
CIRCLE
  5
59C
  8
PATTERN_FILL
  6
CONTINUOUS
 62
     7
 10
-20.0
 20
-55.561624370459512
 30
0.0
 40
1.5
  0
CIRCLE
  5
59D
  8
PATTERN_FILL
  6
CONTINUOUS
 62
     7
 10
-20.0
 20
-60.561624370459512
 30
0.0
 40
1.5
  0
CIRCLE
  5
59E
  8
PATTERN_FILL
  6
CONTINUOUS
 62
     7
 10
-20.0
 20
-65.561624370459512
 30
0.0
 40
1.5
  0
CIRCLE
  5
59F
  8
PATTERN_FILL
  6
CONTINUOUS
 62
     7
 10
-20.0
 20
-70.561624370459512
 30
0.0
 40
1.5
  0
CIRCLE
  5
5A0
  8
PATTERN_FILL
  6
CONTINUOUS
 62
     7
 10
-20.0
 20
-75.561624370459498
 30
0.0
 40
1.5
  0
CIRCLE
  5
5A1
  8
PATTERN_FILL
  6
CONTINUOUS
 62
     7
 10
-20.0
 20
-80.561624370459498
 30
0.0
 40
1.5
  0
CIRCLE
  5
5A2
  8
PATTERN_FILL
  6
CONTINUOUS
 62
     7
 10
-20.0
 20
-85.561624370459498
 30
0.0
 40
1.5
  0
CIRCLE
  5
5A3
  8
PATTERN_FILL
  6
CONTINUOUS
 62
     7
 10
-20.0
 20
-90.561624370459512
 30
0.0
 40
1.5
  0
CIRCLE
  5
5A4
  8
PATTERN_FILL
  6
CONTINUOUS
 62
     7
 10
-20.0
 20
-95.561624370459512
 30
0.0
 40
1.5
  0
CIRCLE
  5
5A5
  8
PATTERN_FILL
  6
CONTINUOUS
 62
     7
 10
-20.0
 20
-100.5616243704595
 30
0.0
 40
1.5
  0
CIRCLE
  5
5A6
  8
PATTERN_FILL
  6
CONTINUOUS
 62
     7
 10
-20.0
 20
-105.5616243704595
 30
0.0
 40
1.5
  0
CIRCLE
  5
5A7
  8
PATTERN_FILL
  6
CONTINUOUS
 62
     7
 10
-20.0
 20
-110.5616243704595
 30
0.0
 40
1.5
  0
CIRCLE
  5
5A8
  8
PATTERN_FILL
  6
CONTINUOUS
 62
     7
 10
-20.0
 20
-115.5616243704595
 30
0.0
 40
1.5
  0
ARC
  5
5A9
  8
PATTERN_FILL
  6
CONTINUOUS
 62
     7
 10
-20.0
 20
-120.5616243704595
 30
0.0
 40
1.5000000000000011
 50
36.354120380331914
 51
240.81998364091979
  0
ARC
  5
5AA
  8
PATTERN_FILL
  6
CONTINUOUS
 62
     7
 10
-15.0
 20
14.43837562954049
 30
0.0
 40
1.4999999999999989
 50
114.6315042959374
 51
319.69992120995221
  0
CIRCLE
  5
5AB
  8
PATTERN_FILL
  6
CONTINUOUS
 62
     7
 10
-15.0
 20
9.4383756295404897
 30
0.0
 40
1.5
  0
CIRCLE
  5
5AC
  8
PATTERN_FILL
  6
CONTINUOUS
 62
     7
 10
-15.0
 20
4.438375629540487
 30
0.0
 40
1.5
  0
CIRCLE
  5
5AD
  8
PATTERN_FILL
  6
CONTINUOUS
 62
     7
 10
-15.0
 20
-0.5616243704595121
 30
0.0
 40
1.5
  0
CIRCLE
  5
5AE
  8
PATTERN_FILL
  6
CONTINUOUS
 62
     7
 10
-15.0
 20
-5.5616243704595121
 30
0.0
 40
1.5
  0
CIRCLE
  5
5AF
  8
PATTERN_FILL
  6
CONTINUOUS
 62
     7
 10
-15.0
 20
-10.56162437045951
 30
0.0
 40
1.5
  0
CIRCLE
  5
5B0
  8
PATTERN_FILL
  6
CONTINUOUS
 62
     7
 10
-15.0
 20
-15.56162437045951
 30
0.0
 40
1.5
  0
CIRCLE
  5
5B1
  8
PATTERN_FILL
  6
CONTINUOUS
 62
     7
 10
-15.0
 20
-20.561624370459509
 30
0.0
 40
1.5
  0
CIRCLE
  5
5B2
  8
PATTERN_FILL
  6
CONTINUOUS
 62
     7
 10
-15.0
 20
-25.561624370459509
 30
0.0
 40
1.5
  0
CIRCLE
  5
5B3
  8
PATTERN_FILL
  6
CONTINUOUS
 62
     7
 10
-15.0
 20
-30.561624370459509
 30
0.0
 40
1.5
  0
CIRCLE
  5
5B4
  8
PATTERN_FILL
  6
CONTINUOUS
 62
     7
 10
-15.0
 20
-35.561624370459512
 30
0.0
 40
1.5
  0
CIRCLE
  5
5B5
  8
PATTERN_FILL
  6
CONTINUOUS
 62
     7
 10
-15.0
 20
-40.561624370459512
 30
0.0
 40
1.5
  0
CIRCLE
  5
5B6
  8
PATTERN_FILL
  6
CONTINUOUS
 62
     7
 10
-15.0
 20
-45.561624370459512
 30
0.0
 40
1.5
  0
CIRCLE
  5
5B7
  8
PATTERN_FILL
  6
CONTINUOUS
 62
     7
 10
-15.0
 20
-50.561624370459512
 30
0.0
 40
1.5
  0
CIRCLE
  5
5B8
  8
PATTERN_FILL
  6
CONTINUOUS
 62
     7
 10
-15.0
 20
-55.561624370459512
 30
0.0
 40
1.5
  0
CIRCLE
  5
5B9
  8
PATTERN_FILL
  6
CONTINUOUS
 62
     7
 10
-15.0
 20
-60.561624370459512
 30
0.0
 40
1.5
  0
CIRCLE
  5
5BA
  8
PATTERN_FILL
  6
CONTINUOUS
 62
     7
 10
-15.0
 20
-65.561624370459512
 30
0.0
 40
1.5
  0
CIRCLE
  5
5BB
  8
PATTERN_FILL
  6
CONTINUOUS
 62
     7
 10
-15.0
 20
-70.561624370459512
 30
0.0
 40
1.5
  0
CIRCLE
  5
5BC
  8
PATTERN_FILL
  6
CONTINUOUS
 62
     7
 10
-15.0
 20
-75.561624370459498
 30
0.0
 40
1.5
  0
CIRCLE
  5
5BD
  8
PATTERN_FILL
  6
CONTINUOUS
 62
     7
 10
-15.0
 20
-80.561624370459498
 30
0.0
 40
1.5
  0
CIRCLE
  5
5BE
  8
PATTERN_FILL
  6
CONTINUOUS
 62
     7
 10
-15.0
 20
-85.561624370459498
 30
0.0
 40
1.5
  0
CIRCLE
  5
5BF
  8
PATTERN_FILL
  6
CONTINUOUS
 62
     7
 10
-15.0
 20
-90.561624370459512
 30
0.0
 40
1.5
  0
CIRCLE
  5
5C0
  8
PATTERN_FILL
  6
CONTINUOUS
 62
     7
 10
-15.0
 20
-95.561624370459512
 30
0.0
 40
1.5
  0
CIRCLE
  5
5C1
  8
PATTERN_FILL
  6
CONTINUOUS
 62
     7
 10
-15.0
 20
-100.5616243704595
 30
0.0
 40
1.5
  0
CIRCLE
  5
5C2
  8
PATTERN_FILL
  6
CONTINUOUS
 62
     7
 10
-15.0
 20
-105.5616243704595
 30
0.0
 40
1.5
  0
CIRCLE
  5
5C3
  8
PATTERN_FILL
  6
CONTINUOUS
 62
     7
 10
-15.0
 20
-110.5616243704595
 30
0.0
 40
1.5
  0
ARC
  5
5C4
  8
PATTERN_FILL
  6
CONTINUOUS
 62
     7
 10
-15.0
 20
-115.5616243704595
 30
0.0
 40
1.5
 50
66.112413294137426
 51
218.60063212652801
  0
ARC
  5
5C5
  8
PATTERN_FILL
  6
CONTINUOUS
 62
     7
 10
-10.0
 20
9.4383756295404897
 30
0.0
 40
1.4999999999999989
 50
158.56718861052329
 51
268.3164625866786
  0
CIRCLE
  5
5C6
  8
PATTERN_FILL
  6
CONTINUOUS
 62
     7
 10
-10.0
 20
4.438375629540487
 30
0.0
 40
1.5
  0
CIRCLE
  5
5C7
  8
PATTERN_FILL
  6
CONTINUOUS
 62
     7
 10
-10.0
 20
-0.5616243704595121
 30
0.0
 40
1.5
  0
CIRCLE
  5
5C8
  8
PATTERN_FILL
  6
CONTINUOUS
 62
     7
 10
-10.0
 20
-5.5616243704595121
 30
0.0
 40
1.5
  0
CIRCLE
  5
5C9
  8
PATTERN_FILL
  6
CONTINUOUS
 62
     7
 10
-10.0
 20
-10.56162437045951
 30
0.0
 40
1.5
  0
CIRCLE
  5
5CA
  8
PATTERN_FILL
  6
CONTINUOUS
 62
     7
 10
-10.0
 20
-15.56162437045951
 30
0.0
 40
1.5
  0
CIRCLE
  5
5CB
  8
PATTERN_FILL
  6
CONTINUOUS
 62
     7
 10
-10.0
 20
-20.561624370459509
 30
0.0
 40
1.5
  0
CIRCLE
  5
5CC
  8
PATTERN_FILL
  6
CONTINUOUS
 62
     7
 10
-10.0
 20
-25.561624370459509
 30
0.0
 40
1.5
  0
CIRCLE
  5
5CD
  8
PATTERN_FILL
  6
CONTINUOUS
 62
     7
 10
-10.0
 20
-30.561624370459509
 30
0.0
 40
1.5
  0
CIRCLE
  5
5CE
  8
PATTERN_FILL
  6
CONTINUOUS
 62
     7
 10
-10.0
 20
-35.561624370459512
 30
0.0
 40
1.5
  0
CIRCLE
  5
5CF
  8
PATTERN_FILL
  6
CONTINUOUS
 62
     7
 10
-10.0
 20
-40.561624370459512
 30
0.0
 40
1.5
  0
CIRCLE
  5
5D0
  8
PATTERN_FILL
  6
CONTINUOUS
 62
     7
 10
-10.0
 20
-45.561624370459512
 30
0.0
 40
1.5
  0
CIRCLE
  5
5D1
  8
PATTERN_FILL
  6
CONTINUOUS
 62
     7
 10
-10.0
 20
-50.561624370459512
 30
0.0
 40
1.5
  0
CIRCLE
  5
5D2
  8
PATTERN_FILL
  6
CONTINUOUS
 62
     7
 10
-10.0
 20
-55.561624370459512
 30
0.0
 40
1.5
  0
CIRCLE
  5
5D3
  8
PATTERN_FILL
  6
CONTINUOUS
 62
     7
 10
-10.0
 20
-60.561624370459512
 30
0.0
 40
1.5
  0
CIRCLE
  5
5D4
  8
PATTERN_FILL
  6
CONTINUOUS
 62
     7
 10
-10.0
 20
-65.561624370459512
 30
0.0
 40
1.5
  0
CIRCLE
  5
5D5
  8
PATTERN_FILL
  6
CONTINUOUS
 62
     7
 10
-10.0
 20
-70.561624370459512
 30
0.0
 40
1.5
  0
CIRCLE
  5
5D6
  8
PATTERN_FILL
  6
CONTINUOUS
 62
     7
 10
-10.0
 20
-75.561624370459498
 30
0.0
 40
1.5
  0
CIRCLE
  5
5D7
  8
PATTERN_FILL
  6
CONTINUOUS
 62
     7
 10
-10.0
 20
-80.561624370459498
 30
0.0
 40
1.5
  0
CIRCLE
  5
5D8
  8
PATTERN_FILL
  6
CONTINUOUS
 62
     7
 10
-10.0
 20
-85.561624370459498
 30
0.0
 40
1.5
  0
CIRCLE
  5
5D9
  8
PATTERN_FILL
  6
CONTINUOUS
 62
     7
 10
-10.0
 20
-90.561624370459512
 30
0.0
 40
1.5
  0
CIRCLE
  5
5DA
  8
PATTERN_FILL
  6
CONTINUOUS
 62
     7
 10
-10.0
 20
-95.561624370459512
 30
0.0
 40
1.5
  0
CIRCLE
  5
5DB
  8
PATTERN_FILL
  6
CONTINUOUS
 62
     7
 10
-10.0
 20
-100.5616243704595
 30
0.0
 40
1.5
  0
ARC
  5
5DC
  8
PATTERN_FILL
  6
CONTINUOUS
 62
     7
 10
-10.0
 20
-105.5616243704595
 30
0.0
 40
1.5
 50
3.394779353726634
 51
293.2268903383586
  0
ARC
  5
5DD
  8
PATTERN_FILL
  6
CONTINUOUS
 62
     7
 10
-10.0
 20
-110.5616243704595
 30
0.0
 40
1.5
 50
136.54850133790089
 51
155.57773137797241
  0
ARC
  5
5DE
  8
PATTERN_FILL
  6
CONTINUOUS
 62
     7
 10
-5.0
 20
-0.5616243704595121
 30
0.0
 40
1.5
 50
121.4911201190192
 51
293.49417422921209
  0
CIRCLE
  5
5DF
  8
PATTERN_FILL
  6
CONTINUOUS
 62
     7
 10
-5.0
 20
-5.5616243704595121
 30
0.0
 40
1.5
  0
CIRCLE
  5
5E0
  8
PATTERN_FILL
  6
CONTINUOUS
 62
     7
 10
-5.0
 20
-10.56162437045951
 30
0.0
 40
1.5
  0
CIRCLE
  5
5E1
  8
PATTERN_FILL
  6
CONTINUOUS
 62
     7
 10
-5.0
 20
-15.56162437045951
 30
0.0
 40
1.5
  0
CIRCLE
  5
5E2
  8
PATTERN_FILL
  6
CONTINUOUS
 62
     7
 10
-5.0
 20
-20.561624370459509
 30
0.0
 40
1.5
  0
CIRCLE
  5
5E3
  8
PATTERN_FILL
  6
CONTINUOUS
 62
     7
 10
-5.0
 20
-25.561624370459509
 30
0.0
 40
1.5
  0
CIRCLE
  5
5E4
  8
PATTERN_FILL
  6
CONTINUOUS
 62
     7
 10
-5.0
 20
-30.561624370459509
 30
0.0
 40
1.5
  0
CIRCLE
  5
5E5
  8
PATTERN_FILL
  6
CONTINUOUS
 62
     7
 10
-5.0
 20
-35.561624370459512
 30
0.0
 40
1.5
  0
CIRCLE
  5
5E6
  8
PATTERN_FILL
  6
CONTINUOUS
 62
     7
 10
-5.0
 20
-40.561624370459512
 30
0.0
 40
1.5
  0
CIRCLE
  5
5E7
  8
PATTERN_FILL
  6
CONTINUOUS
 62
     7
 10
-5.0
 20
-45.561624370459512
 30
0.0
 40
1.5
  0
CIRCLE
  5
5E8
  8
PATTERN_FILL
  6
CONTINUOUS
 62
     7
 10
-5.0
 20
-50.561624370459512
 30
0.0
 40
1.5
  0
CIRCLE
  5
5E9
  8
PATTERN_FILL
  6
CONTINUOUS
 62
     7
 10
-5.0
 20
-55.561624370459512
 30
0.0
 40
1.5
  0
CIRCLE
  5
5EA
  8
PATTERN_FILL
  6
CONTINUOUS
 62
     7
 10
-5.0
 20
-60.561624370459512
 30
0.0
 40
1.5
  0
CIRCLE
  5
5EB
  8
PATTERN_FILL
  6
CONTINUOUS
 62
     7
 10
-5.0
 20
-65.561624370459512
 30
0.0
 40
1.5
  0
CIRCLE
  5
5EC
  8
PATTERN_FILL
  6
CONTINUOUS
 62
     7
 10
-5.0
 20
-70.561624370459512
 30
0.0
 40
1.5
  0
CIRCLE
  5
5ED
  8
PATTERN_FILL
  6
CONTINUOUS
 62
     7
 10
-5.0
 20
-75.561624370459498
 30
0.0
 40
1.5
  0
CIRCLE
  5
5EE
  8
PATTERN_FILL
  6
CONTINUOUS
 62
     7
 10
-5.0
 20
-80.561624370459498
 30
0.0
 40
1.5
  0
CIRCLE
  5
5EF
  8
PATTERN_FILL
  6
CONTINUOUS
 62
     7
 10
-5.0
 20
-85.561624370459498
 30
0.0
 40
1.5
  0
CIRCLE
  5
5F0
  8
PATTERN_FILL
  6
CONTINUOUS
 62
     7
 10
-5.0
 20
-90.561624370459512
 30
0.0
 40
1.5
  0
CIRCLE
  5
5F1
  8
PATTERN_FILL
  6
CONTINUOUS
 62
     7
 10
-5.0
 20
-95.561624370459512
 30
0.0
 40
1.5
  0
ARC
  5
5F2
  8
PATTERN_FILL
  6
CONTINUOUS
 62
     7
 10
-5.0
 20
-100.5616243704595
 30
0.0
 40
1.499999999999994
 50
86.641450755487085
 51
217.31226630146691
  0
ARC
  5
5F3
  8
PATTERN_FILL
  6
CONTINUOUS
 62
     7
 10
0.0
 20
-10.56162437045951
 30
0.0
 40
1.5
 50
131.2095665853235
 51
271.83737492948723
  0
CIRCLE
  5
5F4
  8
PATTERN_FILL
  6
CONTINUOUS
 62
     7
 10
0.0
 20
-15.56162437045951
 30
0.0
 40
1.5
  0
CIRCLE
  5
5F5
  8
PATTERN_FILL
  6
CONTINUOUS
 62
     7
 10
0.0
 20
-20.561624370459509
 30
0.0
 40
1.5
  0
CIRCLE
  5
5F6
  8
PATTERN_FILL
  6
CONTINUOUS
 62
     7
 10
0.0
 20
-25.561624370459509
 30
0.0
 40
1.5
  0
CIRCLE
  5
5F7
  8
PATTERN_FILL
  6
CONTINUOUS
 62
     7
 10
0.0
 20
-30.561624370459509
 30
0.0
 40
1.5
  0
CIRCLE
  5
5F8
  8
PATTERN_FILL
  6
CONTINUOUS
 62
     7
 10
0.0
 20
-35.561624370459512
 30
0.0
 40
1.5
  0
CIRCLE
  5
5F9
  8
PATTERN_FILL
  6
CONTINUOUS
 62
     7
 10
0.0
 20
-40.561624370459512
 30
0.0
 40
1.5
  0
CIRCLE
  5
5FA
  8
PATTERN_FILL
  6
CONTINUOUS
 62
     7
 10
0.0
 20
-45.561624370459512
 30
0.0
 40
1.5
  0
CIRCLE
  5
5FB
  8
PATTERN_FILL
  6
CONTINUOUS
 62
     7
 10
0.0
 20
-50.561624370459512
 30
0.0
 40
1.5
  0
CIRCLE
  5
5FC
  8
PATTERN_FILL
  6
CONTINUOUS
 62
     7
 10
0.0
 20
-55.561624370459512
 30
0.0
 40
1.5
  0
CIRCLE
  5
5FD
  8
PATTERN_FILL
  6
CONTINUOUS
 62
     7
 10
0.0
 20
-60.561624370459512
 30
0.0
 40
1.5
  0
CIRCLE
  5
5FE
  8
PATTERN_FILL
  6
CONTINUOUS
 62
     7
 10
0.0
 20
-65.561624370459512
 30
0.0
 40
1.5
  0
CIRCLE
  5
5FF
  8
PATTERN_FILL
  6
CONTINUOUS
 62
     7
 10
0.0
 20
-70.561624370459512
 30
0.0
 40
1.5
  0
CIRCLE
  5
600
  8
PATTERN_FILL
  6
CONTINUOUS
 62
     7
 10
0.0
 20
-75.561624370459498
 30
0.0
 40
1.5
  0
CIRCLE
  5
601
  8
PATTERN_FILL
  6
CONTINUOUS
 62
     7
 10
0.0
 20
-80.561624370459498
 30
0.0
 40
1.5
  0
CIRCLE
  5
602
  8
PATTERN_FILL
  6
CONTINUOUS
 62
     7
 10
0.0
 20
-85.561624370459498
 30
0.0
 40
1.5
  0
ARC
  5
603
  8
PATTERN_FILL
  6
CONTINUOUS
 62
     7
 10
0.0
 20
-90.561624370459512
 30
0.0
 40
1.500000000000006
 50
105.7381238136425
 51
210.1053286249292
  0
ARC
  5
604
  8
PATTERN_FILL
  6
CONTINUOUS
 62
     7
 10
5.0
 20
-25.561624370459509
 30
0.0
 40
1.4999999999999989
 50
135.96226872458669
 51
250.2419864931932
  0
ARC
  5
605
  8
PATTERN_FILL
  6
CONTINUOUS
 62
     7
 10
5.0
 20
-30.561624370459509
 30
0.0
 40
1.499999999999998
 50
92.611953209865575
 51
288.36459716022262
  0
ARC
  5
606
  8
PATTERN_FILL
  6
CONTINUOUS
 62
     7
 10
5.0
 20
-35.561624370459512
 30
0.0
 40
1.5000000000000031
 50
55.702417210683862
 51
319.95667369320091
  0
CIRCLE
  5
607
  8
PATTERN_FILL
  6
CONTINUOUS
 62
     7
 10
5.0
 20
-40.561624370459512
 30
0.0
 40
1.5
  0
CIRCLE
  5
608
  8
PATTERN_FILL
  6
CONTINUOUS
 62
     7
 10
5.0
 20
-45.561624370459512
 30
0.0
 40
1.5
  0
CIRCLE
  5
609
  8
PATTERN_FILL
  6
CONTINUOUS
 62
     7
 10
5.0
 20
-50.561624370459512
 30
0.0
 40
1.5
  0
CIRCLE
  5
60A
  8
PATTERN_FILL
  6
CONTINUOUS
 62
     7
 10
5.0
 20
-55.561624370459512
 30
0.0
 40
1.5
  0
ARC
  5
60B
  8
PATTERN_FILL
  6
CONTINUOUS
 62
     7
 10
5.0
 20
-60.561624370459512
 30
0.0
 40
1.4999999999999989
 50
5.7849569389805282
 51
342.72727289567331
  0
ARC
  5
60C
  8
PATTERN_FILL
  6
CONTINUOUS
 62
     7
 10
5.0
 20
-65.561624370459512
 30
0.0
 40
1.5
 50
47.240116427940329
 51
295.89946463630929
  0
ARC
  5
60D
  8
PATTERN_FILL
  6
CONTINUOUS
 62
     7
 10
5.0
 20
-70.561624370459512
 30
0.0
 40
1.499999999999996
 50
79.10418813734114
 51
258.73633373712528
  0
ARC
  5
60E
  8
PATTERN_FILL
  6
CONTINUOUS
 62
     7
 10
5.0
 20
-75.561624370459498
 30
0.0
 40
1.499999999999998
 50
121.92153810409761
 51
210.7141242091017
  0
ARC
  5
60F
  8
PATTERN_FILL
  6
CONTINUOUS
 62
     7
 10
125.0
 20
-10.56162437045958
 30
0.0
 40
1.499999999999994
 50
345.61065491843573
 51
5.812079798571177
  0
ARC
  5
610
  8
PATTERN_FILL
  6
CONTINUOUS
 62
     7
 10
125.0
 20
-15.56162437045951
 30
0.0
 40
1.5
 50
314.97666188128107
 51
37.530178320610851
  0
ARC
  5
611
  8
PATTERN_FILL
  6
CONTINUOUS
 62
     7
 10
125.0
 20
-20.561624370459519
 30
0.0
 40
1.4999999999999909
 50
300.15271969450453
 51
53.439570854763787
  0
ARC
  5
612
  8
PATTERN_FILL
  6
CONTINUOUS
 62
     7
 10
125.0
 20
-25.561624370459509
 30
0.0
 40
1.5000000000000031
 50
289.64571390221732
 51
65.033179248445123
  0
ARC
  5
613
  8
PATTERN_FILL
  6
CONTINUOUS
 62
     7
 10
125.0
 20
-30.561624370459509
 30
0.0
 40
1.5000000000000071
 50
281.81415829443068
 51
73.952295865485922
  0
ARC
  5
614
  8
PATTERN_FILL
  6
CONTINUOUS
 62
     7
 10
125.0
 20
-35.561624370459533
 30
0.0
 40
1.4999999999999949
 50
276.09967374499701
 51
80.755104953392802
  0
ARC
  5
615
  8
PATTERN_FILL
  6
CONTINUOUS
 62
     7
 10
125.0
 20
-40.561624370459512
 30
0.0
 40
1.5000000000000071
 50
272.28994695157542
 51
85.653724111364951
  0
ARC
  5
616
  8
PATTERN_FILL
  6
CONTINUOUS
 62
     7
 10
125.0
 20
-45.561624370459519
 30
0.0
 40
1.499999999999996
 50
270.31355773843052
 51
88.719377197706706
  0
ARC
  5
617
  8
PATTERN_FILL
  6
CONTINUOUS
 62
     7
 10
125.0
 20
-50.561624370459512
 30
0.0
 40
1.5000000000000011
 50
270.15435108223483
 51
89.968022515875006
  0
ARC
  5
618
  8
PATTERN_FILL
  6
CONTINUOUS
 62
     7
 10
125.0
 20
-55.561624370459512
 30
0.0
 40
1.500000000000006
 50
271.81092162134519
 51
89.400868518167357
  0
ARC
  5
619
  8
PATTERN_FILL
  6
CONTINUOUS
 62
     7
 10
125.0
 20
-60.561624370459512
 30
0.0
 40
1.4999999999999989
 50
275.28586556106831
 51
87.015122113917727
  0
ARC
  5
61A
  8
PATTERN_FILL
  6
CONTINUOUS
 62
     7
 10
125.0
 20
-65.561624370459512
 30
0.0
 40
1.499999999999998
 50
280.60284028546971
 51
82.786929271081235
  0
ARC
  5
61B
  8
PATTERN_FILL
  6
CONTINUOUS
 62
     7
 10
125.0
 20
-70.561624370459512
 30
0.0
 40
1.5
 50
287.85494886825228
 51
76.622990718119397
  0
ARC
  5
61C
  8
PATTERN_FILL
  6
CONTINUOUS
 62
     7
 10
125.0
 20
-75.561624370459498
 30
0.0
 40
1.4999999999999849
 50
297.30662727192339
 51
68.25867495637516
  0
ARC
  5
61D
  8
PATTERN_FILL
  6
CONTINUOUS
 62
     7
 10
125.0
 20
-80.561624370459498
 30
0.0
 40
1.5000000000000011
 50
309.65515575451138
 51
56.996507063098278
  0
ARC
  5
61E
  8
PATTERN_FILL
  6
CONTINUOUS
 62
     7
 10
125.0
 20
-85.561624370459498
 30
0.0
 40
1.499999999999998
 50
327.1082612007138
 51
40.628566567720952
  0
ARC
  5
61F
  8
PATTERN_FILL
  6
CONTINUOUS
 62
     7
 10
130.0
 20
29.438375629540491
 30
0.0
 40
1.4999999999999909
 50
304.35477895912157
 51
38.303674187380238
  0
ARC
  5
620
  8
PATTERN_FILL
  6
CONTINUOUS
 62
     7
 10
130.0
 20
24.438375629540491
 30
0.0
 40
1.499999999999998
 50
273.16410109025469
 51
70.570780807733925
  0
ARC
  5
621
  8
PATTERN_FILL
  6
CONTINUOUS
 62
     7
 10
130.0
 20
19.438375629540481
 30
0.0
 40
1.499999999999992
 50
247.3276419940448
 51
97.486566249720781
  0
ARC
  5
622
  8
PATTERN_FILL
  6
CONTINUOUS
 62
     7
 10
130.0
 20
14.43837562954049
 30
0.0
 40
1.499999999999974
 50
219.6670975541646
 51
126.22915409751521
  0
CIRCLE
  5
623
  8
PATTERN_FILL
  6
CONTINUOUS
 62
     7
 10
130.0
 20
9.4383756295404897
 30
0.0
 40
1.5
  0
CIRCLE
  5
624
  8
PATTERN_FILL
  6
CONTINUOUS
 62
     7
 10
130.0
 20
4.438375629540487
 30
0.0
 40
1.5
  0
CIRCLE
  5
625
  8
PATTERN_FILL
  6
CONTINUOUS
 62
     7
 10
130.0
 20
-0.5616243704595121
 30
0.0
 40
1.5
  0
CIRCLE
  5
626
  8
PATTERN_FILL
  6
CONTINUOUS
 62
     7
 10
130.0
 20
-5.5616243704595121
 30
0.0
 40
1.5
  0
CIRCLE
  5
627
  8
PATTERN_FILL
  6
CONTINUOUS
 62
     7
 10
130.0
 20
-10.56162437045951
 30
0.0
 40
1.5
  0
CIRCLE
  5
628
  8
PATTERN_FILL
  6
CONTINUOUS
 62
     7
 10
130.0
 20
-15.56162437045951
 30
0.0
 40
1.5
  0
CIRCLE
  5
629
  8
PATTERN_FILL
  6
CONTINUOUS
 62
     7
 10
130.0
 20
-20.561624370459509
 30
0.0
 40
1.5
  0
CIRCLE
  5
62A
  8
PATTERN_FILL
  6
CONTINUOUS
 62
     7
 10
130.0
 20
-25.561624370459509
 30
0.0
 40
1.5
  0
CIRCLE
  5
62B
  8
PATTERN_FILL
  6
CONTINUOUS
 62
     7
 10
130.0
 20
-30.561624370459509
 30
0.0
 40
1.5
  0
CIRCLE
  5
62C
  8
PATTERN_FILL
  6
CONTINUOUS
 62
     7
 10
130.0
 20
-35.561624370459512
 30
0.0
 40
1.5
  0
CIRCLE
  5
62D
  8
PATTERN_FILL
  6
CONTINUOUS
 62
     7
 10
130.0
 20
-40.561624370459512
 30
0.0
 40
1.5
  0
CIRCLE
  5
62E
  8
PATTERN_FILL
  6
CONTINUOUS
 62
     7
 10
130.0
 20
-45.561624370459512
 30
0.0
 40
1.5
  0
CIRCLE
  5
62F
  8
PATTERN_FILL
  6
CONTINUOUS
 62
     7
 10
130.0
 20
-50.561624370459512
 30
0.0
 40
1.5
  0
CIRCLE
  5
630
  8
PATTERN_FILL
  6
CONTINUOUS
 62
     7
 10
130.0
 20
-55.561624370459512
 30
0.0
 40
1.5
  0
CIRCLE
  5
631
  8
PATTERN_FILL
  6
CONTINUOUS
 62
     7
 10
130.0
 20
-60.561624370459512
 30
0.0
 40
1.5
  0
CIRCLE
  5
632
  8
PATTERN_FILL
  6
CONTINUOUS
 62
     7
 10
130.0
 20
-65.561624370459512
 30
0.0
 40
1.5
  0
CIRCLE
  5
633
  8
PATTERN_FILL
  6
CONTINUOUS
 62
     7
 10
130.0
 20
-70.561624370459512
 30
0.0
 40
1.5
  0
CIRCLE
  5
634
  8
PATTERN_FILL
  6
CONTINUOUS
 62
     7
 10
130.0
 20
-75.561624370459498
 30
0.0
 40
1.5
  0
CIRCLE
  5
635
  8
PATTERN_FILL
  6
CONTINUOUS
 62
     7
 10
130.0
 20
-80.561624370459498
 30
0.0
 40
1.5
  0
CIRCLE
  5
636
  8
PATTERN_FILL
  6
CONTINUOUS
 62
     7
 10
130.0
 20
-85.561624370459498
 30
0.0
 40
1.5
  0
CIRCLE
  5
637
  8
PATTERN_FILL
  6
CONTINUOUS
 62
     7
 10
130.0
 20
-90.561624370459512
 30
0.0
 40
1.5
  0
CIRCLE
  5
638
  8
PATTERN_FILL
  6
CONTINUOUS
 62
     7
 10
130.0
 20
-95.561624370459512
 30
0.0
 40
1.5
  0
CIRCLE
  5
639
  8
PATTERN_FILL
  6
CONTINUOUS
 62
     7
 10
130.0
 20
-100.5616243704595
 30
0.0
 40
1.5
  0
CIRCLE
  5
63A
  8
PATTERN_FILL
  6
CONTINUOUS
 62
     7
 10
130.0
 20
-105.5616243704595
 30
0.0
 40
1.5
  0
CIRCLE
  5
63B
  8
PATTERN_FILL
  6
CONTINUOUS
 62
     7
 10
130.0
 20
-110.5616243704595
 30
0.0
 40
1.5
  0
ARC
  5
63C
  8
PATTERN_FILL
  6
CONTINUOUS
 62
     7
 10
130.0
 20
-115.5616243704595
 30
0.0
 40
1.500000000000012
 50
240.8256505889471
 51
133.52140576269099
  0
ARC
  5
63D
  8
PATTERN_FILL
  6
CONTINUOUS
 62
     7
 10
130.0
 20
-120.5616243704595
 30
0.0
 40
1.499999999999994
 50
268.48607522438817
 51
106.9424300200162
  0
ARC
  5
63E
  8
PATTERN_FILL
  6
CONTINUOUS
 62
     7
 10
130.0
 20
-125.5616243704595
 30
0.0
 40
1.4999999999999929
 50
295.86315554958151
 51
80.644040714968654
  0
ARC
  5
63F
  8
PATTERN_FILL
  6
CONTINUOUS
 62
     7
 10
130.0
 20
-130.5616243704595
 30
0.0
 40
1.4999999999999949
 50
331.5182437220729
 51
46.064705820534712
  0
ARC
  5
640
  8
PATTERN_FILL
  6
CONTINUOUS
 62
     7
 10
135.0
 20
54.438375629540502
 30
0.0
 40
1.500000000000014
 50
276.6882639099299
 51
60.423630677388253
  0
ARC
  5
641
  8
PATTERN_FILL
  6
CONTINUOUS
 62
     7
 10
134.99999999999989
 20
49.438375629540481
 30
0.0
 40
1.4999999999999809
 50
239.5213231735253
 51
98.659413833800556
  0
CIRCLE
  5
642
  8
PATTERN_FILL
  6
CONTINUOUS
 62
     7
 10
135.0
 20
44.438375629540481
 30
0.0
 40
1.5
  0
CIRCLE
  5
643
  8
PATTERN_FILL
  6
CONTINUOUS
 62
     7
 10
135.0
 20
39.438375629540488
 30
0.0
 40
1.5
  0
CIRCLE
  5
644
  8
PATTERN_FILL
  6
CONTINUOUS
 62
     7
 10
135.0
 20
34.438375629540488
 30
0.0
 40
1.5
  0
CIRCLE
  5
645
  8
PATTERN_FILL
  6
CONTINUOUS
 62
     7
 10
135.0
 20
29.438375629540491
 30
0.0
 40
1.5
  0
CIRCLE
  5
646
  8
PATTERN_FILL
  6
CONTINUOUS
 62
     7
 10
135.0
 20
24.438375629540491
 30
0.0
 40
1.5
  0
CIRCLE
  5
647
  8
PATTERN_FILL
  6
CONTINUOUS
 62
     7
 10
135.0
 20
19.438375629540491
 30
0.0
 40
1.5
  0
CIRCLE
  5
648
  8
PATTERN_FILL
  6
CONTINUOUS
 62
     7
 10
135.0
 20
14.43837562954049
 30
0.0
 40
1.5
  0
CIRCLE
  5
649
  8
PATTERN_FILL
  6
CONTINUOUS
 62
     7
 10
135.0
 20
9.4383756295404897
 30
0.0
 40
1.5
  0
CIRCLE
  5
64A
  8
PATTERN_FILL
  6
CONTINUOUS
 62
     7
 10
135.0
 20
4.438375629540487
 30
0.0
 40
1.5
  0
CIRCLE
  5
64B
  8
PATTERN_FILL
  6
CONTINUOUS
 62
     7
 10
135.0
 20
-0.5616243704595121
 30
0.0
 40
1.5
  0
CIRCLE
  5
64C
  8
PATTERN_FILL
  6
CONTINUOUS
 62
     7
 10
135.0
 20
-5.5616243704595121
 30
0.0
 40
1.5
  0
CIRCLE
  5
64D
  8
PATTERN_FILL
  6
CONTINUOUS
 62
     7
 10
135.0
 20
-10.56162437045951
 30
0.0
 40
1.5
  0
CIRCLE
  5
64E
  8
PATTERN_FILL
  6
CONTINUOUS
 62
     7
 10
135.0
 20
-15.56162437045951
 30
0.0
 40
1.5
  0
CIRCLE
  5
64F
  8
PATTERN_FILL
  6
CONTINUOUS
 62
     7
 10
135.0
 20
-20.561624370459509
 30
0.0
 40
1.5
  0
CIRCLE
  5
650
  8
PATTERN_FILL
  6
CONTINUOUS
 62
     7
 10
135.0
 20
-25.561624370459509
 30
0.0
 40
1.5
  0
CIRCLE
  5
651
  8
PATTERN_FILL
  6
CONTINUOUS
 62
     7
 10
135.0
 20
-30.561624370459509
 30
0.0
 40
1.5
  0
CIRCLE
  5
652
  8
PATTERN_FILL
  6
CONTINUOUS
 62
     7
 10
135.0
 20
-35.561624370459512
 30
0.0
 40
1.5
  0
CIRCLE
  5
653
  8
PATTERN_FILL
  6
CONTINUOUS
 62
     7
 10
135.0
 20
-40.561624370459512
 30
0.0
 40
1.5
  0
CIRCLE
  5
654
  8
PATTERN_FILL
  6
CONTINUOUS
 62
     7
 10
135.0
 20
-45.561624370459512
 30
0.0
 40
1.5
  0
CIRCLE
  5
655
  8
PATTERN_FILL
  6
CONTINUOUS
 62
     7
 10
135.0
 20
-50.561624370459512
 30
0.0
 40
1.5
  0
CIRCLE
  5
656
  8
PATTERN_FILL
  6
CONTINUOUS
 62
     7
 10
135.0
 20
-55.561624370459512
 30
0.0
 40
1.5
  0
CIRCLE
  5
657
  8
PATTERN_FILL
  6
CONTINUOUS
 62
     7
 10
135.0
 20
-60.561624370459512
 30
0.0
 40
1.5
  0
CIRCLE
  5
658
  8
PATTERN_FILL
  6
CONTINUOUS
 62
     7
 10
135.0
 20
-65.561624370459512
 30
0.0
 40
1.5
  0
CIRCLE
  5
659
  8
PATTERN_FILL
  6
CONTINUOUS
 62
     7
 10
135.0
 20
-70.561624370459512
 30
0.0
 40
1.5
  0
CIRCLE
  5
65A
  8
PATTERN_FILL
  6
CONTINUOUS
 62
     7
 10
135.0
 20
-75.561624370459498
 30
0.0
 40
1.5
  0
CIRCLE
  5
65B
  8
PATTERN_FILL
  6
CONTINUOUS
 62
     7
 10
135.0
 20
-80.561624370459498
 30
0.0
 40
1.5
  0
CIRCLE
  5
65C
  8
PATTERN_FILL
  6
CONTINUOUS
 62
     7
 10
135.0
 20
-85.561624370459498
 30
0.0
 40
1.5
  0
CIRCLE
  5
65D
  8
PATTERN_FILL
  6
CONTINUOUS
 62
     7
 10
135.0
 20
-90.561624370459512
 30
0.0
 40
1.5
  0
CIRCLE
  5
65E
  8
PATTERN_FILL
  6
CONTINUOUS
 62
     7
 10
135.0
 20
-95.561624370459512
 30
0.0
 40
1.5
  0
CIRCLE
  5
65F
  8
PATTERN_FILL
  6
CONTINUOUS
 62
     7
 10
135.0
 20
-100.5616243704595
 30
0.0
 40
1.5
  0
CIRCLE
  5
660
  8
PATTERN_FILL
  6
CONTINUOUS
 62
     7
 10
135.0
 20
-105.5616243704595
 30
0.0
 40
1.5
  0
CIRCLE
  5
661
  8
PATTERN_FILL
  6
CONTINUOUS
 62
     7
 10
135.0
 20
-110.5616243704595
 30
0.0
 40
1.5
  0
CIRCLE
  5
662
  8
PATTERN_FILL
  6
CONTINUOUS
 62
     7
 10
135.0
 20
-115.5616243704595
 30
0.0
 40
1.5
  0
CIRCLE
  5
663
  8
PATTERN_FILL
  6
CONTINUOUS
 62
     7
 10
135.0
 20
-120.5616243704595
 30
0.0
 40
1.5
  0
CIRCLE
  5
664
  8
PATTERN_FILL
  6
CONTINUOUS
 62
     7
 10
135.0
 20
-125.5616243704595
 30
0.0
 40
1.5
  0
CIRCLE
  5
665
  8
PATTERN_FILL
  6
CONTINUOUS
 62
     7
 10
135.0
 20
-130.5616243704595
 30
0.0
 40
1.5
  0
CIRCLE
  5
666
  8
PATTERN_FILL
  6
CONTINUOUS
 62
     7
 10
135.0
 20
-135.5616243704595
 30
0.0
 40
1.5
  0
CIRCLE
  5
667
  8
PATTERN_FILL
  6
CONTINUOUS
 62
     7
 10
135.0
 20
-140.5616243704595
 30
0.0
 40
1.5
  0
CIRCLE
  5
668
  8
PATTERN_FILL
  6
CONTINUOUS
 62
     7
 10
135.0
 20
-145.5616243704595
 30
0.0
 40
1.5
  0
ARC
  5
669
  8
PATTERN_FILL
  6
CONTINUOUS
 62
     7
 10
134.99999999999989
 20
-150.5616243704595
 30
0.0
 40
1.4999999999999829
 50
269.94051694849952
 51
112.1192030249108
  0
ARC
  5
66A
  8
PATTERN_FILL
  6
CONTINUOUS
 62
     7
 10
134.99999999999989
 20
-155.5616243704595
 30
0.0
 40
1.5000000000000091
 50
308.97625068628253
 51
74.151422531968052
  0
CIRCLE
  5
66B
  8
PATTERN_FILL
  6
CONTINUOUS
 62
     7
 10
140.0
 20
54.438375629540481
 30
0.0
 40
1.5
  0
CIRCLE
  5
66C
  8
PATTERN_FILL
  6
CONTINUOUS
 62
     7
 10
140.0
 20
49.438375629540481
 30
0.0
 40
1.5
  0
CIRCLE
  5
66D
  8
PATTERN_FILL
  6
CONTINUOUS
 62
     7
 10
140.0
 20
44.438375629540481
 30
0.0
 40
1.5
  0
CIRCLE
  5
66E
  8
PATTERN_FILL
  6
CONTINUOUS
 62
     7
 10
140.0
 20
39.438375629540488
 30
0.0
 40
1.5
  0
CIRCLE
  5
66F
  8
PATTERN_FILL
  6
CONTINUOUS
 62
     7
 10
140.0
 20
34.438375629540488
 30
0.0
 40
1.5
  0
ARC
  5
670
  8
PATTERN_FILL
  6
CONTINUOUS
 62
     7
 10
139.99999999999969
 20
29.43837562954041
 30
0.0
 40
1.5000000000002609
 50
33.135544848712101
 51
270.00000000000978
  0
ARC
  5
671
  8
PATTERN_FILL
  6
CONTINUOUS
 62
     7
 10
139.99999999999969
 20
29.43837562954041
 30
0.0
 40
1.500000000000262
 50
311.81031489578282
 51
0.7613814465375413
  0
ARC
  5
672
  8
PATTERN_FILL
  6
CONTINUOUS
 62
     7
 10
140.0
 20
24.438375629540388
 30
0.0
 40
1.500000000000099
 50
90.0
 51
270.0
  0
ARC
  5
673
  8
PATTERN_FILL
  6
CONTINUOUS
 62
     7
 10
140.0
 20
24.438375629540388
 30
0.0
 40
1.500000000000107
 50
311.81031489577492
 51
48.189685104224402
  0
CIRCLE
  5
674
  8
PATTERN_FILL
  6
CONTINUOUS
 62
     7
 10
140.0
 20
19.438375629540491
 30
0.0
 40
1.5
  0
CIRCLE
  5
675
  8
PATTERN_FILL
  6
CONTINUOUS
 62
     7
 10
140.0
 20
14.43837562954049
 30
0.0
 40
1.5
  0
CIRCLE
  5
676
  8
PATTERN_FILL
  6
CONTINUOUS
 62
     7
 10
140.0
 20
9.4383756295404897
 30
0.0
 40
1.5
  0
CIRCLE
  5
677
  8
PATTERN_FILL
  6
CONTINUOUS
 62
     7
 10
140.0
 20
4.438375629540487
 30
0.0
 40
1.5
  0
CIRCLE
  5
678
  8
PATTERN_FILL
  6
CONTINUOUS
 62
     7
 10
140.0
 20
-0.5616243704595121
 30
0.0
 40
1.5
  0
CIRCLE
  5
679
  8
PATTERN_FILL
  6
CONTINUOUS
 62
     7
 10
140.0
 20
-5.5616243704595121
 30
0.0
 40
1.5
  0
CIRCLE
  5
67A
  8
PATTERN_FILL
  6
CONTINUOUS
 62
     7
 10
140.0
 20
-10.56162437045951
 30
0.0
 40
1.5
  0
CIRCLE
  5
67B
  8
PATTERN_FILL
  6
CONTINUOUS
 62
     7
 10
140.0
 20
-15.56162437045951
 30
0.0
 40
1.5
  0
CIRCLE
  5
67C
  8
PATTERN_FILL
  6
CONTINUOUS
 62
     7
 10
140.0
 20
-20.561624370459509
 30
0.0
 40
1.5
  0
CIRCLE
  5
67D
  8
PATTERN_FILL
  6
CONTINUOUS
 62
     7
 10
140.0
 20
-25.561624370459509
 30
0.0
 40
1.5
  0
CIRCLE
  5
67E
  8
PATTERN_FILL
  6
CONTINUOUS
 62
     7
 10
140.0
 20
-30.561624370459509
 30
0.0
 40
1.5
  0
CIRCLE
  5
67F
  8
PATTERN_FILL
  6
CONTINUOUS
 62
     7
 10
140.0
 20
-35.561624370459512
 30
0.0
 40
1.5
  0
CIRCLE
  5
680
  8
PATTERN_FILL
  6
CONTINUOUS
 62
     7
 10
140.0
 20
-40.561624370459512
 30
0.0
 40
1.5
  0
ARC
  5
681
  8
PATTERN_FILL
  6
CONTINUOUS
 62
     7
 10
139.99999999999989
 20
-45.561624370459612
 30
0.0
 40
1.500000000000113
 50
89.999999999998906
 51
270.00000000000102
  0
ARC
  5
682
  8
PATTERN_FILL
  6
CONTINUOUS
 62
     7
 10
139.99999999999989
 20
-45.561624370459612
 30
0.0
 40
1.5000000000001179
 50
311.810314895776
 51
48.189685104223749
  0
ARC
  5
683
  8
PATTERN_FILL
  6
CONTINUOUS
 62
     7
 10
140.0
 20
-50.561624370459477
 30
0.0
 40
1.499999999999964
 50
90.000000000001094
 51
269.99999999999892
  0
ARC
  5
684
  8
PATTERN_FILL
  6
CONTINUOUS
 62
     7
 10
140.0
 20
-50.561624370459477
 30
0.0
 40
1.4999999999999629
 50
311.81031489577839
 51
48.18968510422161
  0
ARC
  5
685
  8
PATTERN_FILL
  6
CONTINUOUS
 62
     7
 10
140.0
 20
-55.56162437045942
 30
0.0
 40
1.499999999999907
 50
90.000000000002174
 51
269.99999999999778
  0
ARC
  5
686
  8
PATTERN_FILL
  6
CONTINUOUS
 62
     7
 10
140.0
 20
-55.56162437045942
 30
0.0
 40
1.499999999999915
 50
321.27495378953978
 51
48.189685104220921
  0
CIRCLE
  5
687
  8
PATTERN_FILL
  6
CONTINUOUS
 62
     7
 10
140.0
 20
-60.561624370459512
 30
0.0
 40
1.5
  0
CIRCLE
  5
688
  8
PATTERN_FILL
  6
CONTINUOUS
 62
     7
 10
140.0
 20
-65.561624370459512
 30
0.0
 40
1.5
  0
CIRCLE
  5
689
  8
PATTERN_FILL
  6
CONTINUOUS
 62
     7
 10
140.0
 20
-70.561624370459512
 30
0.0
 40
1.5
  0
CIRCLE
  5
68A
  8
PATTERN_FILL
  6
CONTINUOUS
 62
     7
 10
140.0
 20
-75.561624370459498
 30
0.0
 40
1.5
  0
CIRCLE
  5
68B
  8
PATTERN_FILL
  6
CONTINUOUS
 62
     7
 10
140.0
 20
-80.561624370459498
 30
0.0
 40
1.5
  0
CIRCLE
  5
68C
  8
PATTERN_FILL
  6
CONTINUOUS
 62
     7
 10
140.0
 20
-85.561624370459498
 30
0.0
 40
1.5
  0
CIRCLE
  5
68D
  8
PATTERN_FILL
  6
CONTINUOUS
 62
     7
 10
140.0
 20
-90.561624370459512
 30
0.0
 40
1.5
  0
CIRCLE
  5
68E
  8
PATTERN_FILL
  6
CONTINUOUS
 62
     7
 10
140.0
 20
-95.561624370459512
 30
0.0
 40
1.5
  0
CIRCLE
  5
68F
  8
PATTERN_FILL
  6
CONTINUOUS
 62
     7
 10
140.0
 20
-100.5616243704595
 30
0.0
 40
1.5
  0
CIRCLE
  5
690
  8
PATTERN_FILL
  6
CONTINUOUS
 62
     7
 10
140.0
 20
-105.5616243704595
 30
0.0
 40
1.5
  0
CIRCLE
  5
691
  8
PATTERN_FILL
  6
CONTINUOUS
 62
     7
 10
140.0
 20
-110.5616243704595
 30
0.0
 40
1.5
  0
CIRCLE
  5
692
  8
PATTERN_FILL
  6
CONTINUOUS
 62
     7
 10
140.0
 20
-115.5616243704595
 30
0.0
 40
1.5
  0
ARC
  5
693
  8
PATTERN_FILL
  6
CONTINUOUS
 62
     7
 10
139.99999999999989
 20
-120.5616243704594
 30
0.0
 40
1.5000000000000551
 50
340.3546592295811
 51
270.00000000000108
  0
ARC
  5
694
  8
PATTERN_FILL
  6
CONTINUOUS
 62
     7
 10
139.99999999999989
 20
-125.5616243704596
 30
0.0
 40
1.5000000000001421
 50
89.999999999998906
 51
270.00000000000102
  0
ARC
  5
695
  8
PATTERN_FILL
  6
CONTINUOUS
 62
     7
 10
139.99999999999989
 20
-125.5616243704596
 30
0.0
 40
1.500000000000139
 50
311.81031489577532
 51
48.189685104224743
  0
ARC
  5
696
  8
PATTERN_FILL
  6
CONTINUOUS
 62
     7
 10
140.00000000000031
 20
-130.5616243704593
 30
0.0
 40
1.4999999999996301
 50
90.000000000013017
 51
11.66627856432795
  0
CIRCLE
  5
697
  8
PATTERN_FILL
  6
CONTINUOUS
 62
     7
 10
140.0
 20
-135.5616243704595
 30
0.0
 40
1.5
  0
CIRCLE
  5
698
  8
PATTERN_FILL
  6
CONTINUOUS
 62
     7
 10
140.0
 20
-140.5616243704595
 30
0.0
 40
1.5
  0
CIRCLE
  5
699
  8
PATTERN_FILL
  6
CONTINUOUS
 62
     7
 10
140.0
 20
-145.5616243704595
 30
0.0
 40
1.5
  0
CIRCLE
  5
69A
  8
PATTERN_FILL
  6
CONTINUOUS
 62
     7
 10
140.0
 20
-150.5616243704595
 30
0.0
 40
1.5
  0
CIRCLE
  5
69B
  8
PATTERN_FILL
  6
CONTINUOUS
 62
     7
 10
140.0
 20
-155.5616243704595
 30
0.0
 40
1.5
  0
CIRCLE
  5
69C
  8
PATTERN_FILL
  6
CONTINUOUS
 62
     7
 10
145.0
 20
54.438375629540481
 30
0.0
 40
1.5
  0
CIRCLE
  5
69D
  8
PATTERN_FILL
  6
CONTINUOUS
 62
     7
 10
145.0
 20
49.438375629540481
 30
0.0
 40
1.5
  0
CIRCLE
  5
69E
  8
PATTERN_FILL
  6
CONTINUOUS
 62
     7
 10
145.0
 20
44.438375629540481
 30
0.0
 40
1.5
  0
CIRCLE
  5
69F
  8
PATTERN_FILL
  6
CONTINUOUS
 62
     7
 10
145.0
 20
39.438375629540488
 30
0.0
 40
1.5
  0
CIRCLE
  5
6A0
  8
PATTERN_FILL
  6
CONTINUOUS
 62
     7
 10
145.0
 20
34.438375629540488
 30
0.0
 40
1.5
  0
ARC
  5
6A1
  8
PATTERN_FILL
  6
CONTINUOUS
 62
     7
 10
145.0
 20
29.438375629540491
 30
0.0
 40
1.499999999999978
 50
179.23861855346561
 51
146.86445515128469
  0
CIRCLE
  5
6A2
  8
PATTERN_FILL
  6
CONTINUOUS
 62
     7
 10
145.0
 20
24.438375629540491
 30
0.0
 40
1.5
  0
CIRCLE
  5
6A3
  8
PATTERN_FILL
  6
CONTINUOUS
 62
     7
 10
145.0
 20
19.438375629540491
 30
0.0
 40
1.5
  0
CIRCLE
  5
6A4
  8
PATTERN_FILL
  6
CONTINUOUS
 62
     7
 10
145.0
 20
14.43837562954049
 30
0.0
 40
1.5
  0
CIRCLE
  5
6A5
  8
PATTERN_FILL
  6
CONTINUOUS
 62
     7
 10
145.0
 20
9.4383756295404897
 30
0.0
 40
1.5
  0
CIRCLE
  5
6A6
  8
PATTERN_FILL
  6
CONTINUOUS
 62
     7
 10
145.0
 20
4.438375629540487
 30
0.0
 40
1.5
  0
CIRCLE
  5
6A7
  8
PATTERN_FILL
  6
CONTINUOUS
 62
     7
 10
145.0
 20
-0.5616243704595121
 30
0.0
 40
1.5
  0
CIRCLE
  5
6A8
  8
PATTERN_FILL
  6
CONTINUOUS
 62
     7
 10
145.0
 20
-5.5616243704595121
 30
0.0
 40
1.5
  0
CIRCLE
  5
6A9
  8
PATTERN_FILL
  6
CONTINUOUS
 62
     7
 10
145.0
 20
-10.56162437045951
 30
0.0
 40
1.5
  0
CIRCLE
  5
6AA
  8
PATTERN_FILL
  6
CONTINUOUS
 62
     7
 10
145.0
 20
-15.56162437045951
 30
0.0
 40
1.5
  0
CIRCLE
  5
6AB
  8
PATTERN_FILL
  6
CONTINUOUS
 62
     7
 10
145.0
 20
-20.561624370459509
 30
0.0
 40
1.5
  0
CIRCLE
  5
6AC
  8
PATTERN_FILL
  6
CONTINUOUS
 62
     7
 10
145.0
 20
-25.561624370459509
 30
0.0
 40
1.5
  0
CIRCLE
  5
6AD
  8
PATTERN_FILL
  6
CONTINUOUS
 62
     7
 10
145.0
 20
-30.561624370459509
 30
0.0
 40
1.5
  0
CIRCLE
  5
6AE
  8
PATTERN_FILL
  6
CONTINUOUS
 62
     7
 10
145.0
 20
-35.561624370459512
 30
0.0
 40
1.5
  0
CIRCLE
  5
6AF
  8
PATTERN_FILL
  6
CONTINUOUS
 62
     7
 10
145.0
 20
-40.561624370459512
 30
0.0
 40
1.5
  0
CIRCLE
  5
6B0
  8
PATTERN_FILL
  6
CONTINUOUS
 62
     7
 10
145.0
 20
-45.561624370459512
 30
0.0
 40
1.5
  0
CIRCLE
  5
6B1
  8
PATTERN_FILL
  6
CONTINUOUS
 62
     7
 10
145.0
 20
-50.561624370459512
 30
0.0
 40
1.5
  0
ARC
  5
6B2
  8
PATTERN_FILL
  6
CONTINUOUS
 62
     7
 10
144.99999999999989
 20
-55.561624370459569
 30
0.0
 40
1.4999999999999429
 50
270.00000000000227
 51
218.725046210453
  0
CIRCLE
  5
6B3
  8
PATTERN_FILL
  6
CONTINUOUS
 62
     7
 10
145.0
 20
-60.561624370459512
 30
0.0
 40
1.5
  0
CIRCLE
  5
6B4
  8
PATTERN_FILL
  6
CONTINUOUS
 62
     7
 10
145.0
 20
-65.561624370459512
 30
0.0
 40
1.5
  0
CIRCLE
  5
6B5
  8
PATTERN_FILL
  6
CONTINUOUS
 62
     7
 10
145.0
 20
-70.561624370459512
 30
0.0
 40
1.5
  0
CIRCLE
  5
6B6
  8
PATTERN_FILL
  6
CONTINUOUS
 62
     7
 10
145.0
 20
-75.561624370459498
 30
0.0
 40
1.5
  0
CIRCLE
  5
6B7
  8
PATTERN_FILL
  6
CONTINUOUS
 62
     7
 10
145.0
 20
-80.561624370459498
 30
0.0
 40
1.5
  0
CIRCLE
  5
6B8
  8
PATTERN_FILL
  6
CONTINUOUS
 62
     7
 10
145.0
 20
-85.561624370459498
 30
0.0
 40
1.5
  0
CIRCLE
  5
6B9
  8
PATTERN_FILL
  6
CONTINUOUS
 62
     7
 10
145.0
 20
-90.561624370459512
 30
0.0
 40
1.5
  0
CIRCLE
  5
6BA
  8
PATTERN_FILL
  6
CONTINUOUS
 62
     7
 10
145.0
 20
-95.561624370459512
 30
0.0
 40
1.5
  0
CIRCLE
  5
6BB
  8
PATTERN_FILL
  6
CONTINUOUS
 62
     7
 10
145.0
 20
-100.5616243704595
 30
0.0
 40
1.5
  0
CIRCLE
  5
6BC
  8
PATTERN_FILL
  6
CONTINUOUS
 62
     7
 10
145.0
 20
-105.5616243704595
 30
0.0
 40
1.5
  0
CIRCLE
  5
6BD
  8
PATTERN_FILL
  6
CONTINUOUS
 62
     7
 10
145.0
 20
-110.5616243704595
 30
0.0
 40
1.5
  0
CIRCLE
  5
6BE
  8
PATTERN_FILL
  6
CONTINUOUS
 62
     7
 10
145.0
 20
-115.5616243704595
 30
0.0
 40
1.5
  0
ARC
  5
6BF
  8
PATTERN_FILL
  6
CONTINUOUS
 62
     7
 10
145.0000000000002
 20
-120.5616243704593
 30
0.0
 40
1.500000000000284
 50
240.4041020992679
 51
199.64534077042219
  0
CIRCLE
  5
6C0
  8
PATTERN_FILL
  6
CONTINUOUS
 62
     7
 10
145.0
 20
-125.5616243704595
 30
0.0
 40
1.5
  0
ARC
  5
6C1
  8
PATTERN_FILL
  6
CONTINUOUS
 62
     7
 10
145.00000000000011
 20
-130.56162437045961
 30
0.0
 40
1.500000000000177
 50
168.33372143566541
 51
132.6467736014867
  0
CIRCLE
  5
6C2
  8
PATTERN_FILL
  6
CONTINUOUS
 62
     7
 10
145.0
 20
-135.5616243704595
 30
0.0
 40
1.5
  0
CIRCLE
  5
6C3
  8
PATTERN_FILL
  6
CONTINUOUS
 62
     7
 10
145.0
 20
-140.5616243704595
 30
0.0
 40
1.5
  0
CIRCLE
  5
6C4
  8
PATTERN_FILL
  6
CONTINUOUS
 62
     7
 10
145.0
 20
-145.5616243704595
 30
0.0
 40
1.5
  0
CIRCLE
  5
6C5
  8
PATTERN_FILL
  6
CONTINUOUS
 62
     7
 10
145.0
 20
-150.5616243704595
 30
0.0
 40
1.5
  0
CIRCLE
  5
6C6
  8
PATTERN_FILL
  6
CONTINUOUS
 62
     7
 10
145.0
 20
-155.5616243704595
 30
0.0
 40
1.5
  0
ARC
  5
6C7
  8
PATTERN_FILL
  6
CONTINUOUS
 62
     7
 10
150.0
 20
54.438375629540481
 30
0.0
 40
1.5
 50
90.0
 51
270.0
  0
ARC
  5
6C8
  8
PATTERN_FILL
  6
CONTINUOUS
 62
     7
 10
150.0
 20
49.438375629540481
 30
0.0
 40
1.5
 50
90.0
 51
270.0
  0
ARC
  5
6C9
  8
PATTERN_FILL
  6
CONTINUOUS
 62
     7
 10
150.0
 20
44.438375629540481
 30
0.0
 40
1.5
 50
90.0
 51
270.0
  0
ARC
  5
6CA
  8
PATTERN_FILL
  6
CONTINUOUS
 62
     7
 10
150.0
 20
39.438375629540488
 30
0.0
 40
1.5
 50
90.0
 51
270.0
  0
ARC
  5
6CB
  8
PATTERN_FILL
  6
CONTINUOUS
 62
     7
 10
150.0
 20
34.438375629540488
 30
0.0
 40
1.5
 50
90.0
 51
270.0
  0
ARC
  5
6CC
  8
PATTERN_FILL
  6
CONTINUOUS
 62
     7
 10
150.0
 20
29.438375629540491
 30
0.0
 40
1.5
 50
90.0
 51
270.0
  0
ARC
  5
6CD
  8
PATTERN_FILL
  6
CONTINUOUS
 62
     7
 10
150.0
 20
24.438375629540491
 30
0.0
 40
1.5
 50
90.0
 51
270.0
  0
ARC
  5
6CE
  8
PATTERN_FILL
  6
CONTINUOUS
 62
     7
 10
150.0
 20
19.438375629540491
 30
0.0
 40
1.5
 50
90.0
 51
270.0
  0
ARC
  5
6CF
  8
PATTERN_FILL
  6
CONTINUOUS
 62
     7
 10
150.0
 20
14.43837562954049
 30
0.0
 40
1.5
 50
90.0
 51
270.0
  0
ARC
  5
6D0
  8
PATTERN_FILL
  6
CONTINUOUS
 62
     7
 10
150.0
 20
9.4383756295404897
 30
0.0
 40
1.5
 50
90.0
 51
270.0
  0
ARC
  5
6D1
  8
PATTERN_FILL
  6
CONTINUOUS
 62
     7
 10
150.0
 20
4.438375629540487
 30
0.0
 40
1.5
 50
90.0
 51
270.0
  0
ARC
  5
6D2
  8
PATTERN_FILL
  6
CONTINUOUS
 62
     7
 10
150.0
 20
-0.5616243704595121
 30
0.0
 40
1.5
 50
90.0
 51
270.0
  0
ARC
  5
6D3
  8
PATTERN_FILL
  6
CONTINUOUS
 62
     7
 10
150.0
 20
-5.5616243704595121
 30
0.0
 40
1.5
 50
90.0
 51
270.0
  0
ARC
  5
6D4
  8
PATTERN_FILL
  6
CONTINUOUS
 62
     7
 10
150.0
 20
-10.56162437045951
 30
0.0
 40
1.5
 50
90.0
 51
270.0
  0
ARC
  5
6D5
  8
PATTERN_FILL
  6
CONTINUOUS
 62
     7
 10
150.0
 20
-15.56162437045951
 30
0.0
 40
1.5
 50
90.0
 51
270.0
  0
ARC
  5
6D6
  8
PATTERN_FILL
  6
CONTINUOUS
 62
     7
 10
150.0
 20
-20.561624370459509
 30
0.0
 40
1.5
 50
90.0
 51
270.0
  0
ARC
  5
6D7
  8
PATTERN_FILL
  6
CONTINUOUS
 62
     7
 10
150.0
 20
-25.561624370459509
 30
0.0
 40
1.5
 50
90.0
 51
270.0
  0
ARC
  5
6D8
  8
PATTERN_FILL
  6
CONTINUOUS
 62
     7
 10
150.0
 20
-30.561624370459509
 30
0.0
 40
1.5
 50
90.0
 51
270.0
  0
ARC
  5
6D9
  8
PATTERN_FILL
  6
CONTINUOUS
 62
     7
 10
150.0
 20
-35.561624370459512
 30
0.0
 40
1.5
 50
90.0
 51
270.0
  0
ARC
  5
6DA
  8
PATTERN_FILL
  6
CONTINUOUS
 62
     7
 10
150.0
 20
-40.561624370459512
 30
0.0
 40
1.5
 50
90.0
 51
270.0
  0
ARC
  5
6DB
  8
PATTERN_FILL
  6
CONTINUOUS
 62
     7
 10
150.0
 20
-45.561624370459512
 30
0.0
 40
1.5
 50
90.0
 51
270.0
  0
ARC
  5
6DC
  8
PATTERN_FILL
  6
CONTINUOUS
 62
     7
 10
150.0
 20
-50.561624370459512
 30
0.0
 40
1.5
 50
90.0
 51
270.0
  0
ARC
  5
6DD
  8
PATTERN_FILL
  6
CONTINUOUS
 62
     7
 10
150.0
 20
-55.561624370459512
 30
0.0
 40
1.5
 50
90.0
 51
270.0
  0
ARC
  5
6DE
  8
PATTERN_FILL
  6
CONTINUOUS
 62
     7
 10
150.0
 20
-60.561624370459512
 30
0.0
 40
1.5
 50
90.0
 51
270.0
  0
ARC
  5
6DF
  8
PATTERN_FILL
  6
CONTINUOUS
 62
     7
 10
150.0
 20
-65.561624370459512
 30
0.0
 40
1.5
 50
90.0
 51
270.0
  0
ARC
  5
6E0
  8
PATTERN_FILL
  6
CONTINUOUS
 62
     7
 10
150.0
 20
-70.561624370459512
 30
0.0
 40
1.5
 50
90.0
 51
270.0
  0
ARC
  5
6E1
  8
PATTERN_FILL
  6
CONTINUOUS
 62
     7
 10
150.0
 20
-75.561624370459498
 30
0.0
 40
1.5
 50
90.0
 51
270.0
  0
ARC
  5
6E2
  8
PATTERN_FILL
  6
CONTINUOUS
 62
     7
 10
150.0
 20
-80.561624370459498
 30
0.0
 40
1.5
 50
90.0
 51
270.0
  0
ARC
  5
6E3
  8
PATTERN_FILL
  6
CONTINUOUS
 62
     7
 10
150.0
 20
-85.561624370459498
 30
0.0
 40
1.5
 50
90.0
 51
270.0
  0
ARC
  5
6E4
  8
PATTERN_FILL
  6
CONTINUOUS
 62
     7
 10
150.0
 20
-90.561624370459512
 30
0.0
 40
1.5
 50
90.0
 51
270.0
  0
ARC
  5
6E5
  8
PATTERN_FILL
  6
CONTINUOUS
 62
     7
 10
150.0
 20
-95.561624370459512
 30
0.0
 40
1.5
 50
90.0
 51
270.0
  0
ARC
  5
6E6
  8
PATTERN_FILL
  6
CONTINUOUS
 62
     7
 10
150.0
 20
-100.5616243704595
 30
0.0
 40
1.5
 50
90.0
 51
270.0
  0
ARC
  5
6E7
  8
PATTERN_FILL
  6
CONTINUOUS
 62
     7
 10
150.0
 20
-105.5616243704595
 30
0.0
 40
1.5
 50
90.0
 51
270.0
  0
ARC
  5
6E8
  8
PATTERN_FILL
  6
CONTINUOUS
 62
     7
 10
150.0
 20
-110.5616243704595
 30
0.0
 40
1.5
 50
90.0
 51
270.0
  0
ARC
  5
6E9
  8
PATTERN_FILL
  6
CONTINUOUS
 62
     7
 10
150.0
 20
-115.5616243704595
 30
0.0
 40
1.5
 50
90.0
 51
270.0
  0
ARC
  5
6EA
  8
PATTERN_FILL
  6
CONTINUOUS
 62
     7
 10
150.0
 20
-120.5616243704595
 30
0.0
 40
1.5
 50
90.0
 51
270.0
  0
ARC
  5
6EB
  8
PATTERN_FILL
  6
CONTINUOUS
 62
     7
 10
150.0
 20
-125.5616243704595
 30
0.0
 40
1.5
 50
90.0
 51
270.0
  0
ARC
  5
6EC
  8
PATTERN_FILL
  6
CONTINUOUS
 62
     7
 10
150.0
 20
-130.5616243704595
 30
0.0
 40
1.5
 50
90.0
 51
270.0
  0
ARC
  5
6ED
  8
PATTERN_FILL
  6
CONTINUOUS
 62
     7
 10
150.0
 20
-135.5616243704595
 30
0.0
 40
1.5
 50
90.0
 51
270.0
  0
ARC
  5
6EE
  8
PATTERN_FILL
  6
CONTINUOUS
 62
     7
 10
150.0
 20
-140.5616243704595
 30
0.0
 40
1.5
 50
90.0
 51
270.0
  0
ARC
  5
6EF
  8
PATTERN_FILL
  6
CONTINUOUS
 62
     7
 10
150.0
 20
-145.5616243704595
 30
0.0
 40
1.5
 50
90.0
 51
270.0
  0
ARC
  5
6F0
  8
PATTERN_FILL
  6
CONTINUOUS
 62
     7
 10
150.0
 20
-150.5616243704595
 30
0.0
 40
1.5
 50
90.0
 51
270.0
  0
ARC
  5
6F1
  8
PATTERN_FILL
  6
CONTINUOUS
 62
     7
 10
150.0
 20
-155.5616243704595
 30
0.0
 40
1.5
 50
90.0
 51
253.5196505605108
  0
LINE
  5
6F2
  8
PATTERN_FILL
  6
CONTINUOUS
 62
     7
 10
-171.06591980712909
 20
30.258307962554241
 30
0.0
 11
-170.9244984508918
 21
30.116886606316911
 31
0.0
  0
LINE
  5
6F3
  8
SPEC
  6
CONTINUOUS
 62
     7
 10
-247.49999999999989
 20
360.0
 30
0.0
 11
195.00000000000011
 21
360.0
 31
0.0
  0
LINE
  5
6F4
  8
SPEC
  6
CONTINUOUS
 62
     7
 10
-247.49999999999989
 20
348.75000000000011
 30
0.0
 11
195.00000000000011
 21
348.75000000000011
 31
0.0
  0
LINE
  5
6F5
  8
SPEC
  6
CONTINUOUS
 62
     7
 10
-247.49999999999989
 20
360.0
 30
0.0
 11
-247.49999999999989
 21
314.90000000000009
 31
0.0
  0
TEXT
  5
6F6
  8
SPEC
 62
     7
 10
-243.74999999999989
 20
364.17980999999997
 30
0.0
 40
7.3297851562499989
  1
仕様
 41
0.7
 11
-243.74999999999989
 21
371.50959515624999
 31
0.0
 73
     3
1001
ACADANNOTATIVE
1000
AnnotativeData
1002
{
1070
     1
1070
     0
1002
}
  0
LINE
  5
6F7
  8
SPEC
  6
CONTINUOUS
 62
     7
 10
-149.99999999999989
 20
360.0
 30
0.0
 11
-149.99999999999989
 21
314.90000000000009
 31
0.0
  0
LINE
  5
6F8
  8
SPEC
  6
CONTINUOUS
 62
     7
 10
195.00000000000011
 20
360.0
 30
0.0
 11
195.00000000000011
 21
314.90000000000009
 31
0.0
  0
TEXT
  5
6F9
  8
SPEC
 62
     7
 10
-245.10417231316791
 20
329.35060724197422
 30
0.0
 40
5.7009440104166673
  1
寸法
 41
0.7
 11
-245.10417231316791
 21
335.05155125239082
 31
0.0
 73
     3
1001
ACADANNOTATIVE
1000
AnnotativeData
1002
{
1070
     1
1070
     0
1002
}
  0
TEXT
  5
6FA
  8
SPEC
 62
     7
 10
-245.05236263947469
 20
318.30784578851882
 30
0.0
 40
5.7009440104166673
  1
質量
 41
0.7
 11
-245.05236263947469
 21
324.00878979893542
 31
0.0
 73
     3
1001
ACADANNOTATIVE
1000
AnnotativeData
1002
{
1070
     1
1070
     0
1002
}
  0
TEXT
  5
6FB
  8
SPEC
 62
     7
 10
-148.10931616498809
 20
329.03974893115128
 30
0.0
 40
5.7009440104166647
  1
\U+03C6214\U+00D725mm(除突起部)
 41
0.7
 11
-148.10931616498809
 21
334.74069294156789
 31
0.0
 73
     3
1001
ACADANNOTATIVE
1000
AnnotativeData
1002
{
1070
     1
1070
     0
1002
}
  0
TEXT
  5
6FC
  8
SPEC
 62
     7
 10
-147.40988604260849
 20
318.31432143087233
 30
0.0
 40
5.7009440104166673
  1
64g
 41
0.7
 11
-147.40988604260849
 21
324.01526544128888
 31
0.0
 73
     3
1001
ACADANNOTATIVE
1000
AnnotativeData
1002
{
1070
     1
1070
     0
1002
}
  0
LINE
  5
6FD
  8
SPEC
  6
CONTINUOUS
 62
     7
 10
-247.49999999999989
 20
337.5
 30
0.0
 11
195.00000000000011
 21
337.5
 31
0.0
  0
TEXT
  5
6FE
  8
SPEC
 62
     7
 10
-244.996116373353
 20
352.05025717442129
 30
0.0
 40
5.7009440104166647
  1
対応モデル 
 41
0.7
 11
-244.996116373353
 21
357.75120118483801
 31
0.0
 73
     3
1001
ACADANNOTATIVE
1000
AnnotativeData
1002
{
1070
     1
1070
     0
1002
}
  0
TEXT
  5
6FF
  8
SPEC
 62
     7
 10
-147.27845468540701
 20
351.8689679678314
 30
0.0
 40
5.7009440104166647
  1
Control 16C/T
 41
0.7
 11
-147.27845468540701
 21
357.56991197824811
 31
0.0
 73
     3
1001
ACADANNOTATIVE
1000
AnnotativeData
1002
{
1070
     1
1070
     0
1002
}
  0
TEXT
  5
700
  8
SPEC
 62
     7
 10
-244.8340014426287
 20
340.92380494186369
 30
0.0
 40
5.7009440104166647
  1
色
 41
0.7
 11
-244.8340014426287
 21
346.62474895228041
 31
0.0
 73
     3
1001
ACADANNOTATIVE
1000
AnnotativeData
1002
{
1070
     1
1070
     0
1002
}
  0
TEXT
  5
701
  8
SPEC
 62
     7
 10
-148.17831997595741
 20
340.9054839723733
 30
0.0
 40
5.7009440104166647
  1
白/黒(-BK)
 41
0.7
 11
-148.17831997595741
 21
346.60642798279002
 31
0.0
 73
     3
1001
ACADANNOTATIVE
1000
AnnotativeData
1002
{
1070
     1
1070
     0
1002
}
  0
LINE
  5
702
  8
SPEC
  6
CONTINUOUS
 62
     7
 10
-247.49999999999989
 20
326.2000000000001
 30
0.0
 11
195.00000000000011
 21
326.2000000000001
 31
0.0
  0
LINE
  5
703
  8
SPEC
  6
CONTINUOUS
 62
     7
 10
-247.49999999999989
 20
314.90000000000009
 30
0.0
 11
195.00000000000011
 21
314.90000000000009
 31
0.0
  0
TEXT
  5
704
  8
DIMNSIONS
 62
     7
 10
-59.999999999999979
 20
-353.19152999999989
 30
0.0
 40
7.3297851562499989
  1
(単位：mm)
 41
0.7
 11
-59.999999999999979
 21
-345.86174484374988
 31
0.0
 73
     3
1001
ACADANNOTATIVE
1000
AnnotativeData
1002
{
1070
     1
1070
     0
1002
}
  0
LINE
  5
705
  8
DIMNSIONS
  6
CONTINUOUS
 62
     7
 10
-207.0
 20
-56.0
 30
0.0
 11
-207.0
 21
-226.0
 31
0.0
  0
LINE
  5
706
  8
DIMNSIONS
  6
CONTINUOUS
 62
     7
 10
7.0
 20
-56.0
 30
0.0
 11
7.0
 21
-226.0
 31
0.0
  0
LINE
  5
707
  8
DIMNSIONS
  6
CONTINUOUS
 62
     7
 10
-207.0
 20
-220.0
 30
0.0
 11
7.0
 21
-220.0
 31
0.0
  0
LINE
  5
708
  8
DIMNSIONS
  6
CONTINUOUS
 62
     7
 10
-207.0
 20
-220.0
 30
0.0
 11
-199.49813232421869
 21
-217.98988061454929
 31
0.0
  0
LINE
  5
709
  8
DIMNSIONS
  6
CONTINUOUS
 62
     7
 10
-207.0
 20
-220.0
 30
0.0
 11
-199.49813232421869
 21
-222.01011938545071
 31
0.0
  0
LINE
  5
70A
  8
DIMNSIONS
  6
CONTINUOUS
 62
     7
 10
7.0
 20
-220.0
 30
0.0
 11
-0.5018676757812486
 21
-222.01011938545071
 31
0.0
  0
LINE
  5
70B
  8
DIMNSIONS
  6
CONTINUOUS
 62
     7
 10
7.0
 20
-220.0
 30
0.0
 11
-0.5018676757812486
 21
-217.98988061454929
 31
0.0
  0
TEXT
  5
70C
  8
DIMNSIONS
 62
     7
 10
-107.9375
 20
-217.01833333333329
 30
0.0
 40
8.1442057291666661
  1
214
 41
0.7
 11
-107.9375
 21
-208.8741276041666
 31
0.0
 73
     3
1001
ACADANNOTATIVE
1000
AnnotativeData
1002
{
1070
     1
1070
     0
1002
}
  0
LINE
  5
70D
  8
DIMNSIONS
  6
CONTINUOUS
 62
     7
 10
136.0
 20
-163.0
 30
0.0
 11
136.0
 21
-206.0
 31
0.0
  0
LINE
  5
70E
  8
DIMNSIONS
  6
CONTINUOUS
 62
     7
 10
150.0
 20
-163.0
 30
0.0
 11
150.0
 21
-206.0
 31
0.0
  0
LINE
  5
70F
  8
DIMNSIONS
  6
CONTINUOUS
 62
     7
 10
150.0
 20
-200.0
 30
0.0
 11
136.0
 21
-200.0
 31
0.0
  0
LINE
  5
710
  8
DIMNSIONS
  6
CONTINUOUS
 62
     7
 10
136.0
 20
-200.0
 30
0.0
 11
121.0
 21
-200.0
 31
0.0
  0
LINE
  5
711
  8
DIMNSIONS
  6
CONTINUOUS
 62
     7
 10
136.0
 20
-200.0
 30
0.0
 11
128.49813232421869
 21
-202.01011938545071
 31
0.0
  0
LINE
  5
712
  8
DIMNSIONS
  6
CONTINUOUS
 62
     7
 10
136.0
 20
-200.0
 30
0.0
 11
128.49813232421869
 21
-197.98988061454929
 31
0.0
  0
LINE
  5
713
  8
DIMNSIONS
  6
CONTINUOUS
 62
     7
 10
150.0
 20
-200.0
 30
0.0
 11
180.58333333333329
 21
-200.0
 31
0.0
  0
LINE
  5
714
  8
DIMNSIONS
  6
CONTINUOUS
 62
     7
 10
150.0
 20
-200.0
 30
0.0
 11
157.5018676757812
 21
-197.98988061454929
 31
0.0
  0
LINE
  5
715
  8
DIMNSIONS
  6
CONTINUOUS
 62
     7
 10
150.0
 20
-200.0
 30
0.0
 11
157.5018676757812
 21
-202.01011938545071
 31
0.0
  0
TEXT
  5
716
  8
DIMNSIONS
 62
     7
 10
159.4166666666666
 20
-197.01833333333329
 30
0.0
 40
8.1442057291666661
  1
14.0
 41
0.7
 11
159.4166666666666
 21
-188.8741276041666
 31
0.0
 73
     3
1001
ACADANNOTATIVE
1000
AnnotativeData
1002
{
1070
     1
1070
     0
1002
}
  0
LINE
  5
717
  8
DIMNSIONS
  6
CONTINUOUS
 62
     7
 10
125.0
 20
-56.000000000000149
 30
0.0
 11
125.0
 21
-226.0
 31
0.0
  0
LINE
  5
718
  8
DIMNSIONS
  6
CONTINUOUS
 62
     7
 10
150.0
 20
-169.0
 30
0.0
 11
150.0
 21
-226.0
 31
0.0
  0
LINE
  5
719
  8
DIMNSIONS
  6
CONTINUOUS
 62
     7
 10
125.0
 20
-220.0
 30
0.0
 11
150.0
 21
-220.0
 31
0.0
  0
LINE
  5
71A
  8
DIMNSIONS
  6
CONTINUOUS
 62
     7
 10
125.0
 20
-220.0
 30
0.0
 11
132.5018676757812
 21
-217.98988061454929
 31
0.0
  0
LINE
  5
71B
  8
DIMNSIONS
  6
CONTINUOUS
 62
     7
 10
125.0
 20
-220.0
 30
0.0
 11
132.5018676757812
 21
-222.01011938545071
 31
0.0
  0
LINE
  5
71C
  8
DIMNSIONS
  6
CONTINUOUS
 62
     7
 10
150.0
 20
-220.0
 30
0.0
 11
142.49813232421869
 21
-222.01011938545071
 31
0.0
  0
LINE
  5
71D
  8
DIMNSIONS
  6
CONTINUOUS
 62
     7
 10
150.0
 20
-220.0
 30
0.0
 11
142.49813232421869
 21
-217.98988061454929
 31
0.0
  0
TEXT
  5
71E
  8
DIMNSIONS
 62
     7
 10
126.9166666666666
 20
-217.01833333333329
 30
0.0
 40
8.1442057291666661
  1
25.0
 41
0.7
 11
126.9166666666666
 21
-208.8741276041666
 31
0.0
 73
     3
1001
ACADANNOTATIVE
1000
AnnotativeData
1002
{
1070
     1
1070
     0
1002
}
  0
TEXT
  5
71F
  8
DATA
 62
     7
 10
149.99999999999989
 20
-356.60732999999988
 30
0.0
 40
7.3297851562499989
  1
MTC-16WG(-BK)
 41
0.7
 11
149.99999999999989
 21
-349.27754484374992
 31
0.0
 73
     3
1001
ACADANNOTATIVE
1000
AnnotativeData
1002
{
1070
     1
1070
     0
1002
}
  0
TEXT
  5
720
  8
DATA
 62
     7
 10
-262.5
 20
-366.37116666666651
 30
0.0
 40
5.7009440104166673
  1
※仕様及び外観は予告なく変更されることがあります。
 41
0.7
 11
-262.5
 21
-360.67022265624979
 31
0.0
 73
     3
1001
ACADANNOTATIVE
1000
AnnotativeData
1002
{
1070
     1
1070
     0
1002
}
  0
TEXT
  5
721
  8
DATA
 62
     7
 10
-262.5
 20
-373.77949999999993
 30
0.0
 40
5.7009440104166673
  1
　また、同一商品でも若干の個体差があることがあります。ご了承ください。
 41
0.7
 11
-262.5
 21
-368.07855598958321
 31
0.0
 73
     3
1001
ACADANNOTATIVE
1000
AnnotativeData
1002
{
1070
     1
1070
     0
1002
}
  0
CIRCLE
  5
722
  8
DATA
  6
CONTINUOUS
 62
     7
 10
-100.0
 20
-50.0
 30
0.0
 40
107.0
  0
LINE
  5
723
  8
DATA
  6
CONTINUOUS
 62
     7
 10
136.0
 20
57.0
 30
0.0
 11
150.0
 21
57.0
 31
0.0
  0
LINE
  5
724
  8
DATA
  6
CONTINUOUS
 62
     7
 10
136.0
 20
-157.0
 30
0.0
 11
150.0
 21
-157.0
 31
0.0
  0
LINE
  5
725
  8
DATA
  6
CONTINUOUS
 62
     7
 10
150.0
 20
57.0
 30
0.0
 11
150.0
 21
-157.0
 31
0.0
  0
LINE
  5
726
  8
DATA
  6
CONTINUOUS
 62
     7
 10
136.0
 20
57.0
 30
0.0
 11
136.0
 21
-157.0
 31
0.0
  0
ARC
  5
727
  8
DATA
  6
CONTINUOUS
 62
     7
 10
650.90909090909065
 20
-49.999999999999979
 30
0.0
 40
525.90909090909065
 50
168.26079911397059
 51
191.73920088602929
  0
LINE
  5
728
  8
DATA
  6
CONTINUOUS
 62
     7
 10
140.0000000000002
 20
-42.5
 30
0.0
 11
145.0
 21
-42.5
 31
0.0
  0
LINE
  5
729
  8
DATA
  6
CONTINUOUS
 62
     7
 10
145.0000000000002
 20
-57.5
 30
0.0
 11
140.0
 21
-57.5
 31
0.0
  0
LINE
  5
72A
  8
DATA
  6
CONTINUOUS
 62
     7
 10
141.0
 20
-43.499999999999972
 30
0.0
 11
145.0
 21
-43.499999999999972
 31
0.0
  0
LINE
  5
72B
  8
DATA
  6
CONTINUOUS
 62
     7
 10
145.0
 20
-56.499999999999979
 30
0.0
 11
141.0
 21
-56.499999999999979
 31
0.0
  0
LINE
  5
72C
  8
DATA
  6
CONTINUOUS
 62
     7
 10
140.0
 20
-57.5
 30
0.0
 11
140.0
 21
-42.5
 31
0.0
  0
LINE
  5
72D
  8
DATA
  6
CONTINUOUS
 62
     7
 10
145.0
 20
-57.5
 30
0.0
 11
145.0
 21
-56.499999999999979
 31
0.0
  0
LINE
  5
72E
  8
DATA
  6
CONTINUOUS
 62
     7
 10
145.0
 20
-43.499999999999972
 30
0.0
 11
145.0
 21
-42.5
 31
0.0
  0
LINE
  5
72F
  8
DATA
  6
CONTINUOUS
 62
     7
 10
141.0
 20
-56.499999999999979
 30
0.0
 11
141.0
 21
-43.499999999999972
 31
0.0
  0
ARC
  5
730
  8
DATA
  6
CONTINUOUS
 62
     7
 10
-99.800000000000665
 20
-49.999999999999972
 30
0.0
 40
107.0000000000007
 50
356.5172709792156
 51
3.4827290207843471
  0
LINE
  5
731
  8
DATA
  6
CONTINUOUS
 62
     7
 10
7.0023876137607708
 20
-43.499999999999972
 30
0.0
 11
6.8023876137607724
 21
-43.499999999999972
 31
0.0
  0
LINE
  5
732
  8
DATA
  6
CONTINUOUS
 62
     7
 10
7.0023876137607708
 20
-56.499999999999979
 30
0.0
 11
6.8023876137607724
 21
-56.499999999999979
 31
0.0
  0
ARC
  5
733
  8
DATA
  6
CONTINUOUS
 62
     7
 10
-100.19999999999931
 20
-49.999999999999972
 30
0.0
 40
107.0000000000006
 50
176.5172709792156
 51
183.4827290207844
  0
LINE
  5
734
  8
DATA
  6
CONTINUOUS
 62
     7
 10
-207.00238761376079
 20
-56.499999999999979
 30
0.0
 11
-206.8023876137608
 21
-56.499999999999979
 31
0.0
  0
LINE
  5
735
  8
DATA
  6
CONTINUOUS
 62
     7
 10
7.0023876137607708
 20
-43.499999999999972
 30
0.0
 11
6.8023876137607724
 21
-43.499999999999972
 31
0.0
  0
LINE
  5
736
  8
DATA
  6
CONTINUOUS
 62
     7
 10
7.0023876137607708
 20
-56.499999999999979
 30
0.0
 11
6.8023876137607724
 21
-56.499999999999979
 31
0.0
  0
LINE
  5
737
  8
DATA
  6
CONTINUOUS
 62
     7
 10
-207.00238761376079
 20
-56.499999999999979
 30
0.0
 11
-206.8023876137608
 21
-56.499999999999979
 31
0.0
  0
ARC
  5
738
  8
DATA
  6
CONTINUOUS
 62
     7
 10
-99.858578643763124
 20
-50.141421356236812
 30
0.0
 40
107.0000000000007
 50
311.5172709792156
 51
318.4827290207844
  0
LINE
  5
739
  8
DATA
  6
CONTINUOUS
 62
     7
 10
-19.741692037445731
 20
-121.06591980712911
 30
0.0
 11
-19.88311339368305
 21
-120.9244984508917
 31
0.0
  0
LINE
  5
73A
  8
DATA
  6
CONTINUOUS
 62
     7
 10
-28.934080192870852
 20
-130.2583079625542
 30
0.0
 11
-29.075501549108171
 21
-130.11688660631691
 31
0.0
  0
LINE
  5
73B
  8
DATA
  6
CONTINUOUS
 62
     7
 10
-175.6604255869606
 20
25.660425586960589
 30
0.0
 11
-175.45228843309459
 21
25.86856274082659
 31
0.0
  0
ARC
  5
73C
  8
DATA
  6
CONTINUOUS
 62
     7
 10
-100.1414213562368
 20
-49.858578643763131
 30
0.0
 40
107.0000000000006
 50
131.5172709792156
 51
138.4827290207844
  0
LINE
  5
73D
  8
DATA
  6
CONTINUOUS
 62
     7
 10
-180.2583079625542
 20
21.065919807129131
 30
0.0
 11
-180.11688660631691
 21
20.924498450891821
 31
0.0
  0
LINE
  5
73E
  8
DATA
  6
CONTINUOUS
 62
     7
 10
-19.741692037445731
 20
-121.06591980712911
 30
0.0
 11
-19.88311339368305
 21
-120.9244984508917
 31
0.0
  0
LINE
  5
73F
  8
DATA
  6
CONTINUOUS
 62
     7
 10
-28.934080192870852
 20
-130.2583079625542
 30
0.0
 11
-29.075501549108171
 21
-130.11688660631691
 31
0.0
  0
LINE
  5
740
  8
DATA
  6
CONTINUOUS
 62
     7
 10
-175.6604255869606
 20
25.660425586960589
 30
0.0
 11
-175.45228843309459
 21
25.86856274082659
 31
0.0
  0
ARC
  5
741
  8
DATA
  6
CONTINUOUS
 62
     7
 10
-100.1414213562368
 20
-49.858578643763131
 30
0.0
 40
107.0000000000006
 50
131.5172709792156
 51
138.4827290207844
  0
LINE
  5
742
  8
DATA
  6
CONTINUOUS
 62
     7
 10
-180.2583079625542
 20
21.065919807129131
 30
0.0
 11
-180.11688660631691
 21
20.924498450891821
 31
0.0
  0
ARC
  5
743
  8
DATA
  6
CONTINUOUS
 62
     7
 10
-99.999999999999957
 20
-50.199999999999328
 30
0.0
 40
107.0000000000007
 50
266.5172709792156
 51
273.4827290207844
  0
LINE
  5
744
  8
DATA
  6
CONTINUOUS
 62
     7
 10
-93.499999999999943
 20
-157.0023876137607
 30
0.0
 11
-93.499999999999957
 21
-156.80238761376069
 31
0.0
  0
LINE
  5
745
  8
DATA
  6
CONTINUOUS
 62
     7
 10
-106.4999999999999
 20
-157.00238761376079
 30
0.0
 11
-106.4999999999999
 21
-156.80238761376069
 31
0.0
  0
ARC
  5
746
  8
DATA
  6
CONTINUOUS
 62
     7
 10
-99.999999999999957
 20
-49.800000000000637
 30
0.0
 40
107.0000000000006
 50
86.517270979215667
 51
93.482729020784362
  0
LINE
  5
747
  8
DATA
  6
CONTINUOUS
 62
     7
 10
-106.5
 20
57.002387613760767
 30
0.0
 11
-106.5
 21
56.802387613760757
 31
0.0
  0
LINE
  5
748
  8
DATA
  6
CONTINUOUS
 62
     7
 10
-106.4999999999999
 20
-157.00238761376079
 30
0.0
 11
-106.4999999999999
 21
-156.80238761376069
 31
0.0
  0
ARC
  5
749
  8
DATA
  6
CONTINUOUS
 62
     7
 10
-100.1414213562368
 20
-50.141421356236847
 30
0.0
 40
107.0000000000007
 50
221.5172709792156
 51
228.4827290207844
  0
LINE
  5
74A
  8
DATA
  6
CONTINUOUS
 62
     7
 10
-171.06591980712901
 20
-130.25830796255431
 30
0.0
 11
-170.92449845089169
 21
-130.11688660631691
 31
0.0
  0
LINE
  5
74B
  8
DATA
  6
CONTINUOUS
 62
     7
 10
-180.2583079625542
 20
-121.06591980712911
 30
0.0
 11
-180.11688660631691
 21
-120.9244984508918
 31
0.0
  0
ARC
  5
74C
  8
DATA
  6
CONTINUOUS
 62
     7
 10
-99.858578643763124
 20
-49.85857864376316
 30
0.0
 40
107.0000000000006
 50
41.517270979215652
 51
48.482729020784369
  0
LINE
  5
74D
  8
DATA
  6
CONTINUOUS
 62
     7
 10
-28.934080192870869
 20
30.258307962554241
 30
0.0
 11
-29.0755015491082
 21
30.116886606316928
 31
0.0
  0
LINE
  5
74E
  8
DATA
  6
CONTINUOUS
 62
     7
 10
-171.06591980712901
 20
-130.25830796255431
 30
0.0
 11
-170.92449845089169
 21
-130.11688660631691
 31
0.0
  0
LINE
  5
74F
  8
DATA
  6
CONTINUOUS
 62
     7
 10
-180.2583079625542
 20
-121.06591980712911
 30
0.0
 11
-180.11688660631691
 21
-120.9244984508918
 31
0.0
  0
POLYLINE
  5
750
  8
DATA
  6
CONTINUOUS
 62
     7
 66
     1
 10
0.0
 20
0.0
 30
0.0
 70
     1
  0
VERTEX
  5
8D2
  8
DATA
  6
CONTINUOUS
 62
     7
 10
-106.0
 20
-45.0
 30
0.0
  0
VERTEX
  5
8D3
  8
DATA
  6
CONTINUOUS
 62
     7
 10
-94.0
 20
-45.0
 30
0.0
  0
VERTEX
  5
8D4
  8
DATA
  6
CONTINUOUS
 62
     7
 10
-94.0
 20
-55.0
 30
0.0
  0
VERTEX
  5
8D5
  8
DATA
  6
CONTINUOUS
 62
     7
 10
-106.0
 20
-55.0
 30
0.0
  0
SEQEND
  5
8D6
  8
DATA
  6
CONTINUOUS
 62
     7
  0
ARC
  5
757
  8
DATA
  6
CONTINUOUS
 62
     7
 10
-99.576468877435417
 20
-51.592299189886383
 30
0.0
 40
0.1562037262610828
 50
307.64190249757939
 51
354.26701928941742
  0
LINE
  5
758
  8
DATA
  6
CONTINUOUS
 62
     7
 10
-103.5887512455861
 20
-49.130781272037112
 30
0.0
 11
-102.856465845586
 21
-47.38595007203719
 31
0.0
  0
LINE
  5
759
  8
DATA
  6
CONTINUOUS
 62
     7
 10
-103.5887512455861
 20
-49.130781272037112
 30
0.0
 11
-104.3120010455861
 21
-47.38595007203719
 31
0.0
  0
LINE
  5
75A
  8
DATA
  6
CONTINUOUS
 62
     7
 10
-98.037835245586024
 20
-52.285950072037281
 30
0.0
 11
-98.037835245586024
 21
-47.38595007203719
 31
0.0
  0
LINE
  5
75B
  8
DATA
  6
CONTINUOUS
 62
     7
 10
-97.097613445586333
 20
-47.38595007203719
 30
0.0
 11
-97.097613445586333
 21
-51.535583672037212
 31
0.0
  0
LINE
  5
75C
  8
DATA
  6
CONTINUOUS
 62
     7
 10
-102.512921945586
 20
-47.38595007203719
 30
0.0
 11
-102.512921945586
 21
-51.535583672037212
 31
0.0
  0
LINE
  5
75D
  8
DATA
  6
CONTINUOUS
 62
     7
 10
-101.608862145586
 20
-47.38595007203719
 30
0.0
 11
-101.608862145586
 21
-51.535583672037212
 31
0.0
  0
LINE
  5
75E
  8
DATA
  6
CONTINUOUS
 62
     7
 10
-101.13875124558611
 20
-47.38595007203719
 30
0.0
 11
-101.13875124558611
 21
-52.285950072037281
 31
0.0
  0
LINE
  5
75F
  8
DATA
  6
CONTINUOUS
 62
     7
 10
-100.3160559455861
 20
-47.847015572037321
 30
0.0
 11
-100.3160559455861
 21
-49.420082172037283
 31
0.0
  0
LINE
  5
760
  8
DATA
  6
CONTINUOUS
 62
     7
 10
-98.55275174558615
 20
-49.329059772037098
 30
0.0
 11
-98.55275174558615
 21
-48.181523872037239
 31
0.0
  0
LINE
  5
761
  8
DATA
  6
CONTINUOUS
 62
     7
 10
-99.421046445586143
 20
-48.063992472037278
 30
0.0
 11
-99.421046445586143
 21
-49.203110172037107
 31
0.0
  0
ARC
  5
762
  8
DATA
  6
CONTINUOUS
 62
     7
 10
-102.694339545586
 20
-51.027728072037107
 30
0.0
 40
1.263638178332388
 50
264.69085622153619
 51
323.99119915424018
  0
LINE
  5
763
  8
DATA
  6
CONTINUOUS
 62
     7
 10
-103.20000484558619
 20
-50.74904547203721
 30
0.0
 11
-103.20000484558619
 21
-51.535573872037148
 31
0.0
  0
LINE
  5
764
  8
DATA
  6
CONTINUOUS
 62
     7
 10
-103.20000484558619
 20
-50.74904547203721
 30
0.0
 11
-104.0136596455861
 21
-50.74904547203721
 31
0.0
  0
LINE
  5
765
  8
DATA
  6
CONTINUOUS
 62
     7
 10
-104.0136596455861
 20
-50.74904547203721
 30
0.0
 11
-104.0136596455861
 21
-51.535573872037148
 31
0.0
  0
ARC
  5
766
  8
DATA
  6
CONTINUOUS
 62
     7
 10
-102.8547410455862
 20
-51.546177472037137
 30
0.0
 40
0.3419851248588443
 50
269.71184879274892
 51
1.7759870056906939
  0
ARC
  5
767
  8
DATA
  6
CONTINUOUS
 62
     7
 10
-102.858185745586
 20
-51.546177472037137
 30
0.0
 40
0.3419833761553648
 50
178.2240129943236
 51
270.28815120724011
  0
ARC
  5
768
  8
DATA
  6
CONTINUOUS
 62
     7
 10
-102.928182245586
 20
-51.027728072037107
 30
0.0
 40
1.2636361261038149
 50
216.0088008457551
 51
275.30914377845698
  0
ARC
  5
769
  8
DATA
  6
CONTINUOUS
 62
     7
 10
-103.4425940455862
 20
-51.507874172037077
 30
0.0
 40
0.5717321020061991
 50
182.7769954500028
 51
207.3596066671513
  0
CIRCLE
  5
76A
  8
DATA
  6
CONTINUOUS
 62
     7
 10
-103.5390260455863
 20
-49.808828572037221
 30
0.0
 40
0.465588200000184
  0
LINE
  5
76B
  8
DATA
  6
CONTINUOUS
 62
     7
 10
-95.587835245586078
 20
-52.285945172037259
 30
0.0
 11
-98.037835245586024
 21
-52.285945172037259
 31
0.0
  0
LINE
  5
76C
  8
DATA
  6
CONTINUOUS
 62
     7
 10
-95.587835245586078
 20
-52.285945172037259
 30
0.0
 11
-95.587835245586078
 21
-50.749040572037188
 31
0.0
  0
LINE
  5
76D
  8
DATA
  6
CONTINUOUS
 62
     7
 10
-95.587835245586078
 20
-50.74904547203721
 30
0.0
 11
-96.410525645586063
 21
-50.74904547203721
 31
0.0
  0
LINE
  5
76E
  8
DATA
  6
CONTINUOUS
 62
     7
 10
-96.410525645586063
 20
-50.74904547203721
 30
0.0
 11
-96.410525645586063
 21
-51.535573872037148
 31
0.0
  0
LINE
  5
76F
  8
DATA
  6
CONTINUOUS
 62
     7
 10
-101.13875124558611
 20
-52.285945172037259
 30
0.0
 11
-99.421046445586143
 21
-52.28594027203723
 31
0.0
  0
LINE
  5
770
  8
DATA
  6
CONTINUOUS
 62
     7
 10
-100.31606084558609
 20
-51.824874772037319
 30
0.0
 11
-99.873071445586206
 21
-51.824874772037319
 31
0.0
  0
LINE
  5
771
  8
DATA
  6
CONTINUOUS
 62
     7
 10
-100.3160559455861
 20
-51.824874772037319
 30
0.0
 11
-100.3160559455861
 21
-49.890188172037249
 31
0.0
  0
LINE
  5
772
  8
DATA
  6
CONTINUOUS
 62
     7
 10
-100.31606084558609
 20
-49.890188172037249
 30
0.0
 11
-99.873071445586206
 21
-49.890188172037249
 31
0.0
  0
LINE
  5
773
  8
DATA
  6
CONTINUOUS
 62
     7
 10
-99.421046445586143
 20
-51.607902772037171
 30
0.0
 11
-99.421046445586143
 21
-50.10716017203697
 31
0.0
  0
ARC
  5
774
  8
DATA
  6
CONTINUOUS
 62
     7
 10
-102.1799277455862
 20
-51.507874172037077
 30
0.0
 40
0.5717312884540307
 50
332.64039333286291
 51
357.22300454998481
  0
ARC
  5
775
  8
DATA
  6
CONTINUOUS
 62
     7
 10
-96.752349645586236
 20
-51.546177472037137
 30
0.0
 40
0.3419851248588448
 50
269.71184879272982
 51
1.7759870056906939
  0
ARC
  5
776
  8
DATA
  6
CONTINUOUS
 62
     7
 10
-96.755789445586046
 20
-51.546177472037137
 30
0.0
 40
0.3419833761553648
 50
178.2240129943236
 51
270.28815120724011
  0
LINE
  5
777
  8
DATA
  6
CONTINUOUS
 62
     7
 10
-98.553148645586091
 20
-51.499411872037292
 30
0.0
 11
-98.553148645586091
 21
-50.197570072037358
 31
0.0
  0
LINE
  5
778
  8
DATA
  6
CONTINUOUS
 62
     7
 10
-100.31606084558609
 20
-49.420082172037283
 30
0.0
 11
-99.873071445586206
 21
-49.420082172037283
 31
0.0
  0
ARC
  5
779
  8
DATA
  6
CONTINUOUS
 62
     7
 10
-99.483335245586076
 20
-51.35574387203711
 30
0.0
 40
0.9322795917419844
 50
273.83098160910959
 51
351.1351473097842
  0
LINE
  5
77A
  8
DATA
  6
CONTINUOUS
 62
     7
 10
-102.512921945586
 20
-47.38595007203719
 30
0.0
 11
-101.608862145586
 21
-47.38595007203719
 31
0.0
  0
LINE
  5
77B
  8
DATA
  6
CONTINUOUS
 62
     7
 10
-104.3120010455861
 20
-47.38595007203719
 30
0.0
 11
-102.856465845586
 21
-47.38595007203719
 31
0.0
  0
LINE
  5
77C
  8
DATA
  6
CONTINUOUS
 62
     7
 10
-98.037835245586024
 20
-47.38595007203719
 30
0.0
 11
-97.097613445586333
 21
-47.38595007203719
 31
0.0
  0
LINE
  5
77D
  8
DATA
  6
CONTINUOUS
 62
     7
 10
-101.13875124558611
 20
-47.38595007203719
 30
0.0
 11
-99.411604082794355
 21
-47.385954037970009
 31
0.0
  0
LINE
  5
77E
  8
DATA
  6
CONTINUOUS
 62
     7
 10
-100.31606084558609
 20
-47.847020472037109
 30
0.0
 11
-99.873071445586206
 21
-47.847020472037109
 31
0.0
  0
ARC
  5
77F
  8
DATA
  6
CONTINUOUS
 62
     7
 10
-99.474039945586185
 20
-48.314725472037139
 30
0.0
 40
0.930867667126677
 50
8.2269238590088545
 51
86.154126692154179
  0
ARC
  5
780
  8
DATA
  6
CONTINUOUS
 62
     7
 10
-99.867840468910543
 20
-50.96556767134949
 30
0.0
 40
0.8593230221572699
 50
269.65121993761289
 51
282.82648280687721
  0
ARC
  5
781
  8
DATA
  6
CONTINUOUS
 62
     7
 10
-99.771324892127367
 20
-51.328872424538417
 30
0.0
 40
0.4838445728096969
 50
281.23310362265522
 51
306.8620088940321
  0
ARC
  5
782
  8
DATA
  6
CONTINUOUS
 62
     7
 10
-99.576468877435417
 20
-50.122763754188
 30
0.0
 40
0.1562037262612061
 50
5.7329807106614226
 51
52.358097502354532
  0
ARC
  5
783
  8
DATA
  6
CONTINUOUS
 62
     7
 10
-99.867840468910543
 20
-50.749495272724857
 30
0.0
 40
0.8593230221571047
 50
77.173517193122791
 51
90.348780062387164
  0
ARC
  5
784
  8
DATA
  6
CONTINUOUS
 62
     7
 10
-99.771324892127367
 20
-50.386190519535717
 30
0.0
 40
0.4838445728094604
 50
53.137991105951691
 51
78.766896377339563
  0
ARC
  5
785
  8
DATA
  6
CONTINUOUS
 62
     7
 10
-99.027311845586254
 20
-50.229620972037203
 30
0.0
 40
0.4752452003178642
 50
3.8670063598005511
 51
88.361634567870354
  0
ARC
  5
786
  8
DATA
  6
CONTINUOUS
 62
     7
 10
-99.027747945586128
 20
-49.27906017203702
 30
0.0
 40
0.4757174505744061
 50
271.68928210465032
 51
356.0782829826332
  0
ARC
  5
787
  8
DATA
  6
CONTINUOUS
 62
     7
 10
-99.576468877435417
 20
-49.187506589886311
 30
0.0
 40
0.1562037262610828
 50
307.64190249757939
 51
354.26701928941742
  0
ARC
  5
788
  8
DATA
  6
CONTINUOUS
 62
     7
 10
-99.867840468910543
 20
-48.56077507134944
 30
0.0
 40
0.8593230221572699
 50
269.65121993761289
 51
282.8264828068738
  0
ARC
  5
789
  8
DATA
  6
CONTINUOUS
 62
     7
 10
-99.771324892127367
 20
-48.92407982453836
 30
0.0
 40
0.4838445728099199
 50
281.23310362264988
 51
306.86200889404302
  0
ARC
  5
78A
  8
DATA
  6
CONTINUOUS
 62
     7
 10
-99.576468877435417
 20
-48.079596054187853
 30
0.0
 40
0.1562037262611607
 50
5.732980710495454
 51
52.358097502387537
  0
ARC
  5
78B
  8
DATA
  6
CONTINUOUS
 62
     7
 10
-99.867840468910543
 20
-48.70632757272471
 30
0.0
 40
0.8593230221568832
 50
77.173517193119451
 51
90.348780062387164
  0
ARC
  5
78C
  8
DATA
  6
CONTINUOUS
 62
     7
 10
-99.771324892127367
 20
-48.343022819535811
 30
0.0
 40
0.4838445728094604
 50
53.137991105951691
 51
78.766896377339563
  0
LINE
  5
78D
  8
DATA
  6
CONTINUOUS
 62
     7
 10
-93.499999999999986
 20
57.002387613760767
 30
0.0
 11
-93.499999999999986
 21
56.802387613760757
 31
0.0
  0
LINE
  5
78E
  8
DATA
  6
CONTINUOUS
 62
     7
 10
-19.741692037445759
 20
21.065919807129131
 30
0.0
 11
-19.918141415412499
 21
20.964046711261691
 31
0.0
  0
LINE
  5
78F
  8
DATA
  6
CONTINUOUS
 62
     7
 10
-207.00238761376079
 20
-43.499999999999972
 30
0.0
 11
-206.8023876137608
 21
-43.499999999999972
 31
0.0
  0
LINE
  5
790
  8
DATA
  6
CONTINUOUS
 62
     7
 10
124.2204630683588
 20
-45.083831611537903
 30
0.0
 11
125.02297853
 21
-45.083831611537903
 31
0.0
  0
LINE
  5
791
  8
DATA
  6
CONTINUOUS
 62
     7
 10
124.2204630683588
 20
-55.083831611537903
 30
0.0
 11
125.02297853
 21
-55.083831611537903
 31
0.0
  0
ARC
  5
792
  8
DATA
  6
CONTINUOUS
 62
     7
 10
155.46948490998531
 20
-50.083831611537903
 30
0.0
 40
31.64650637998529
 50
170.9094432860694
 51
189.0905567139306
  0
LINE
  5
793
  8
DATA
  6
CONTINUOUS
 62
     7
 10
140.0
 20
21.065919807129131
 30
0.0
 11
145.0
 21
21.065919807129131
 31
0.0
  0
LINE
  5
794
  8
DATA
  6
CONTINUOUS
 62
     7
 10
140.0
 20
30.258307962554241
 30
0.0
 11
145.0
 21
30.258307962554241
 31
0.0
  0
LINE
  5
795
  8
DATA
  6
CONTINUOUS
 62
     7
 10
140.0
 20
21.065919807129131
 30
0.0
 11
140.0
 21
30.258307962554241
 31
0.0
  0
LINE
  5
796
  8
DATA
  6
CONTINUOUS
 62
     7
 10
145.0
 20
21.065919807129131
 30
0.0
 11
145.0
 21
21.865919807129131
 31
0.0
  0
LINE
  5
797
  8
DATA
  6
CONTINUOUS
 62
     7
 10
145.0
 20
29.45830796255424
 30
0.0
 11
145.0
 21
30.258307962554241
 31
0.0
  0
LINE
  5
798
  8
DATA
  6
CONTINUOUS
 62
     7
 10
141.0
 20
21.865919807129131
 30
0.0
 11
141.0
 21
29.45830796255424
 31
0.0
  0
LINE
  5
799
  8
DATA
  6
CONTINUOUS
 62
     7
 10
141.0
 20
21.865919807129131
 30
0.0
 11
145.0
 21
21.865919807129131
 31
0.0
  0
LINE
  5
79A
  8
DATA
  6
CONTINUOUS
 62
     7
 10
141.0
 20
29.45830796255424
 30
0.0
 11
145.0
 21
29.45830796255424
 31
0.0
  0
LINE
  5
79B
  8
DATA
  6
CONTINUOUS
 62
     7
 10
140.0
 20
-121.06591980712911
 30
0.0
 11
145.0
 21
-121.06591980712911
 31
0.0
  0
LINE
  5
79C
  8
DATA
  6
CONTINUOUS
 62
     7
 10
140.0
 20
-130.2583079625542
 30
0.0
 11
145.0
 21
-130.2583079625542
 31
0.0
  0
LINE
  5
79D
  8
DATA
  6
CONTINUOUS
 62
     7
 10
140.0
 20
-121.06591980712911
 30
0.0
 11
140.0
 21
-130.2583079625542
 31
0.0
  0
LINE
  5
79E
  8
DATA
  6
CONTINUOUS
 62
     7
 10
145.0
 20
-121.06591980712911
 30
0.0
 11
145.0
 21
-121.8659198071291
 31
0.0
  0
LINE
  5
79F
  8
DATA
  6
CONTINUOUS
 62
     7
 10
145.0
 20
-129.45830796255419
 30
0.0
 11
145.0
 21
-130.2583079625542
 31
0.0
  0
LINE
  5
7A0
  8
DATA
  6
CONTINUOUS
 62
     7
 10
141.0
 20
-121.8659198071291
 30
0.0
 11
141.0
 21
-129.45830796255419
 31
0.0
  0
LINE
  5
7A1
  8
DATA
  6
CONTINUOUS
 62
     7
 10
141.0
 20
-121.8659198071291
 30
0.0
 11
145.0
 21
-121.8659198071291
 31
0.0
  0
LINE
  5
7A2
  8
DATA
  6
CONTINUOUS
 62
     7
 10
141.0
 20
-129.45830796255419
 30
0.0
 11
145.0
 21
-129.45830796255419
 31
0.0
  0
TEXT
  5
7A3
  8
DATA
 62
     7
 10
149.99999999999989
 20
-334.85732999999982
 30
0.0
 40
7.3297851562499989
  1
JBL PROFESSIONAL
 41
0.7
 11
149.99999999999989
 21
-327.52754484374981
 31
0.0
 73
     3
1001
ACADANNOTATIVE
1000
AnnotativeData
1002
{
1070
     1
1070
     0
1002
}
  0
TEXT
  5
7A4
  8
DATA
 62
     7
 10
144.74580625873941
 20
-344.42757574855528
 30
0.0
 40
4.8865234374999993
  1
アルミニウムグリル
 41
0.7
 11
144.74580625873941
 21
-339.5410523110553
 31
0.0
 73
     3
1001
ACADANNOTATIVE
1000
AnnotativeData
1002
{
1070
     1
1070
     0
1002
}
  0
ENDSEC
  0
EOF
