  0
SECTION
  2
HEADER
  9
$ACADVER
  1
AC1009
  9
$INSBASE
 10
0.0
 20
0.0
 30
0.0
  9
$EXTMIN
 10
-260.02197097989477
 20
-402.71533438645378
 30
-0.0015258207003583
  9
$EXTMAX
 10
461.56006027194661
 20
670.6281315212168
 30
0.0000000349246037
  9
$LIMMIN
 10
0.0
 20
0.0
  9
$LIMMAX
 10
0.0
 20
0.0
  9
$ORTHOMODE
 70
     0
  9
$REGENMODE
 70
     1
  9
$FILLMODE
 70
     1
  9
$QTEXTMODE
 70
     0
  9
$MIRRTEXT
 70
     1
  9
$DRAGMODE
 70
     2
  9
$LTSCALE
 40
20.32
  9
$OSMODE
 70
    37
  9
$ATTMODE
 70
     1
  9
$TEXTSIZE
 40
0.0
  9
$TRACEWID
 40
1.0
  9
$TEXTSTYLE
  7
STANDARD
  9
$CLAYER
  8
0
  9
$CELTYPE
  6
CONTINUOUS
  9
$CECOLOR
 62
   256
  9
$DIMSCALE
 40
1.0
  9
$DIMASZ
 40
0.18
  9
$DIMEXO
 40
0.0625
  9
$DIMDLI
 40
0.38
  9
$DIMRND
 40
0.0
  9
$DIMDLE
 40
0.0
  9
$DIMEXE
 40
0.18
  9
$DIMTP
 40
0.0
  9
$DIMTM
 40
0.0
  9
$DIMTXT
 40
0.18
  9
$DIMCEN
 40
0.09
  9
$DIMTSZ
 40
0.0
  9
$DIMTOL
 70
     0
  9
$DIMLIM
 70
     0
  9
$DIMTIH
 70
     1
  9
$DIMTOH
 70
     1
  9
$DIMSE1
 70
     0
  9
$DIMSE2
 70
     0
  9
$DIMTAD
 70
     0
  9
$DIMZIN
 70
     0
  9
$DIMBLK
  1

  9
$DIMASO
 70
     1
  9
$DIMSHO
 70
     1
  9
$DIMPOST
  1

  9
$DIMAPOST
  1

  9
$DIMALT
 70
     0
  9
$DIMALTD
 70
     2
  9
$DIMALTF
 40
25.399999999999999
  9
$DIMLFAC
 40
1.0
  9
$DIMTOFL
 70
     0
  9
$DIMTVP
 40
0.0
  9
$DIMTIX
 70
     0
  9
$DIMSOXD
 70
     0
  9
$DIMSAH
 70
     0
  9
$DIMBLK1
  1

  9
$DIMBLK2
  1

  9
$DIMSTYLE
  2
STANDARD
  9
$DIMCLRD
 70
     0
  9
$DIMCLRE
 70
     0
  9
$DIMCLRT
 70
     0
  9
$DIMTFAC
 40
1.0
  9
$DIMGAP
 40
0.09
  9
$LUNITS
 70
     2
  9
$LUPREC
 70
     4
  9
$SKETCHINC
 40
0.1
  9
$FILLETRAD
 40
0.0
  9
$AUNITS
 70
     0
  9
$AUPREC
 70
     0
  9
$MENU
  1
acad
  9
$ELEVATION
 40
0.0
  9
$PELEVATION
 40
0.0
  9
$THICKNESS
 40
0.0
  9
$LIMCHECK
 70
     0
  9
$BLIPMODE
 70
     0
  9
$CHAMFERA
 40
0.0
  9
$CHAMFERB
 40
0.0
  9
$SKPOLY
 70
     0
  9
$TDCREATE
 40
2452157.722222222
  9
$TDUPDATE
 40
2452157.776460764
  9
$TDINDWG
 40
0.0007202546
  9
$TDUSRTIMER
 40
0.0007202546
  9
$USRTIMER
 70
     1
  9
$ANGBASE
 50
0.0
  9
$ANGDIR
 70
     0
  9
$PDMODE
 70
     1
  9
$PDSIZE
 40
-2.0
  9
$PLINEWID
 40
0.0
  9
$COORDS
 70
     1
  9
$SPLFRAME
 70
     0
  9
$SPLINETYPE
 70
     6
  9
$SPLINESEGS
 70
     8
  9
$ATTDIA
 70
     0
  9
$ATTREQ
 70
     1
  9
$HANDLING
 70
-16383
  9
$HANDSEED
  5
1CB
  9
$SURFTAB1
 70
     6
  9
$SURFTAB2
 70
     6
  9
$SURFTYPE
 70
     6
  9
$SURFU
 70
     6
  9
$SURFV
 70
     6
  9
$UCSNAME
  2

  9
$UCSORG
 10
0.0
 20
0.0
 30
0.0
  9
$UCSXDIR
 10
1.0
 20
0.0
 30
0.0
  9
$UCSYDIR
 10
0.0
 20
1.0
 30
0.0
  9
$PUCSNAME
  2

  9
$PUCSORG
 10
0.0
 20
0.0
 30
0.0
  9
$PUCSXDIR
 10
1.0
 20
0.0
 30
0.0
  9
$PUCSYDIR
 10
0.0
 20
1.0
 30
0.0
  9
$USERI1
 70
     0
  9
$USERI2
 70
     0
  9
$USERI3
 70
     0
  9
$USERI4
 70
     0
  9
$USERI5
 70
     0
  9
$USERR1
 40
0.0
  9
$USERR2
 40
0.0
  9
$USERR3
 40
0.0
  9
$USERR4
 40
0.0
  9
$USERR5
 40
0.0
  9
$WORLDVIEW
 70
     1
  9
$SHADEDGE
 70
     3
  9
$SHADEDIF
 70
    70
  9
$TILEMODE
 70
     1
  9
$MAXACTVP
 70
    64
  9
$PLIMCHECK
 70
     0
  9
$PEXTMIN
 10
1.0000000000000000E+020
 20
1.0000000000000000E+020
 30
1.0000000000000000E+020
  9
$PEXTMAX
 10
-1.0000000000000000E+020
 20
-1.0000000000000000E+020
 30
-1.0000000000000000E+020
  9
$PLIMMIN
 10
0.0
 20
0.0
  9
$PLIMMAX
 10
12.0
 20
9.0
  9
$UNITMODE
 70
     0
  9
$VISRETAIN
 70
     1
  9
$PLINEGEN
 70
     0
  9
$PSLTSCALE
 70
     0
  0
ENDSEC
  0
SECTION
  2
TABLES
  0
TABLE
  2
VPORT
 70
     2
  0
VPORT
  2
*ACTIVE
 70
     0
 10
0.0
 20
0.0
 11
1.0
 21
1.0
 12
100.7690446460259
 22
133.95639856738151
 13
0.0
 23
0.0
 14
1.0
 24
1.0
 15
0.0
 25
0.0
 16
0.0
 26
0.0
 36
1.0
 17
0.0
 27
0.0
 37
0.0
 40
1084.6220312236881
 41
1.3315789473684201
 42
50.0
 43
0.0
 44
0.0
 50
0.0
 51
0.0
 71
     0
 72
   100
 73
     1
 74
     1
 75
     0
 76
     0
 77
     0
 78
     0
  0
ENDTAB
  0
TABLE
  2
LTYPE
 70
    11
  0
LTYPE
  2
CONTINUOUS
 70
     0
  3
Solid line
 72
    65
 73
     0
 40
0.0
  0
LTYPE
  2
STYLE_01
 70
     0
  3

 72
    65
 73
     2
 40
0.4166412353515625
 49
0.208282470703125
 49
-0.2083587646484375
  0
LTYPE
  2
STYLE_02
 70
     0
  3

 72
    65
 73
     2
 40
0.694427490234375
 49
0.4860687255859375
 49
-0.2083587646484375
  0
LTYPE
  2
STYLE_03
 70
     0
  3

 72
    65
 73
     2
 40
1.25
 49
1.0416412353515621
 49
-0.2083587646484375
  0
LTYPE
  2
STYLE_04
 70
     0
  3

 72
    65
 73
     2
 40
1.5277099609375
 49
1.319427490234375
 49
-0.208282470703125
  0
LTYPE
  2
STYLE_05
 70
     0
  3

 72
    65
 73
     2
 40
0.208282470703125
 49
0.069427490234375
 49
-0.13885498046875
  0
LTYPE
  2
STYLE_06
 70
     0
  3

 72
    65
 73
     4
 40
1.0416412353515621
 49
0.625
 49
-0.208282470703125
 49
0.069427490234375
 49
-0.1389312744140625
  0
LTYPE
  2
STYLE_07
 70
     0
  3

 72
    65
 73
     6
 40
1.875
 49
0.625
 49
-0.208282470703125
 49
0.625
 49
-0.2083587646484375
 49
0.069427490234375
 49
-0.1389312744140625
  0
LTYPE
  2
STYLE_08
 70
     0
  3

 72
    65
 73
     6
 40
1.25
 49
0.625
 49
-0.208282470703125
 49
0.069427490234375
 49
-0.1389312744140625
 49
0.069427490234375
 49
-0.1389312744140625
  0
LTYPE
  2
STYLE_09
 70
     0
  3

 72
    65
 73
     4
 40
5.0
 49
3.75
 49
-0.2777862548828125
 49
0.694427490234375
 49
-0.2777862548828125
  0
LTYPE
  2
STYLE_10
 70
     0
  3

 72
    65
 73
     6
 40
5.9375
 49
3.75
 49
-0.2777862548828125
 49
0.694427490234375
 49
-0.2777862548828125
 49
0.625
 49
-0.3125
  0
ENDTAB
  0
TABLE
  2
LAYER
 70
     5
  0
LAYER
  2
0
 70
     0
 62
     7
  6
CONTINUOUS
  0
LAYER
  2
HIBINO-BASE
 70
     0
 62
     7
  6
CONTINUOUS
  0
LAYER
  2
SPEC
 70
     0
 62
     7
  6
CONTINUOUS
  0
LAYER
  2
DIMNSIONS
 70
     0
 62
     7
  6
CONTINUOUS
  0
LAYER
  2
DATA
 70
     0
 62
     7
  6
CONTINUOUS
  0
ENDTAB
  0
TABLE
  2
STYLE
 70
     2
  0
STYLE
  2
STANDARD
 70
     0
 40
0.0
 41
1.0
 50
0.0
 71
     0
 42
0.0
  3
txt
  4
BIGFONT.SHX
  0
STYLE
  2
TXT
 70
     0
 40
18.71291999999999
 41
1.0
 50
0.0
 71
     0
 42
18.71291999999999
  3
txt.shx
  4
bigfont.shx
  0
ENDTAB
  0
TABLE
  2
VIEW
 70
     0
  0
ENDTAB
  0
TABLE
  2
UCS
 70
     0
  0
ENDTAB
  0
TABLE
  2
APPID
 70
     1
  0
APPID
  2
ACAD
 70
     0
  0
ENDTAB
  0
TABLE
  2
DIMSTYLE
 70
     1
  0
DIMSTYLE
  2
STANDARD
 70
     0
  3

  4

  5

  6

  7

 40
1.0
 41
0.18
 42
0.0625
 43
0.38
 44
0.18
 45
0.0
 46
0.0
 47
0.0
 48
0.0
140
0.18
141
0.09
142
0.0
143
25.399999999999999
144
1.0
145
0.0
146
1.0
147
0.09
 71
     0
 72
     0
 73
     1
 74
     1
 75
     0
 76
     0
 77
     0
 78
     0
170
     0
171
     2
172
     0
173
     0
174
     0
175
     0
176
     0
177
     0
178
     0
  0
ENDTAB
  0
ENDSEC
  0
SECTION
  2
BLOCKS
  0
BLOCK
  8
0
  2
$MODEL_SPACE
 70
     0
 10
0.0
 20
0.0
 30
0.0
  3
$MODEL_SPACE
  1

  0
ENDBLK
  5
1BB
  8
0
  0
BLOCK
 67
     1
  8
0
  2
$PAPER_SPACE
 70
     0
 10
0.0
 20
0.0
 30
0.0
  3
$PAPER_SPACE
  1

  0
ENDBLK
  5
1B9
 67
     1
  8
0
  0
BLOCK
  8
DIMNSIONS
  2
*U0
 70
     1
 10
0.0
 20
0.0
 30
0.0
  3
*U0
  1

  0
TEXT
  5
36
  8
DIMNSIONS
 62
     7
 10
189.4166666666666
 20
488.99999998509878
 30
0.0
 40
11.28888888888889
  1
128
  7
TXT
  0
ENDBLK
  5
37
  8
DIMNSIONS
  0
BLOCK
  8
DIMNSIONS
  2
*U1
 70
     1
 10
0.0
 20
0.0
 30
0.0
  3
*U1
  1

  0
TEXT
  5
39
  8
DIMNSIONS
 62
     7
 10
46.000000014901168
 20
352.37566666666658
 30
0.0
 40
11.28888888888889
  1
106
 50
90.0
  7
TXT
  0
ENDBLK
  5
3A
  8
DIMNSIONS
  0
BLOCK
  8
DIMNSIONS
  2
*U2
 70
     1
 10
0.0
 20
0.0
 30
0.0
  3
*U2
  1

  0
TEXT
  5
3C
  8
DIMNSIONS
 62
     7
 10
249.00000000521541
 20
263.99999998509878
 30
0.0
 40
11.28888888888889
  1
4-φ7.4
  7
TXT
  0
ENDBLK
  5
3D
  8
DIMNSIONS
  0
BLOCK
  8
DIMNSIONS
  2
*U3
 70
     1
 10
0.0
 20
0.0
 30
0.0
  3
*U3
  1

  0
TEXT
  5
3F
  8
DIMNSIONS
 62
     7
 10
71.000000014901175
 20
355.9034444444444
 30
0.0
 40
11.28888888888889
  1
87
 50
90.0
  7
TXT
  0
ENDBLK
  5
40
  8
DIMNSIONS
  0
BLOCK
  8
DIMNSIONS
  2
*U4
 70
     1
 10
0.0
 20
0.0
 30
0.0
  3
*U4
  1

  0
TEXT
  5
42
  8
DIMNSIONS
 62
     7
 10
189.4166666666666
 20
463.99999998509878
 30
0.0
 40
11.28888888888889
  1
109
  7
TXT
  0
ENDBLK
  5
43
  8
DIMNSIONS
  0
BLOCK
  8
DIMNSIONS
  2
*U5
 70
     1
 10
0.0
 20
0.0
 30
0.0
  3
*U5
  1

  0
TEXT
  5
45
  8
DIMNSIONS
 62
     7
 10
103.8333333333333
 20
463.99999998509878
 30
0.0
 40
11.28888888888889
  1
9.5
  7
TXT
  0
ENDBLK
  5
46
  8
DIMNSIONS
  0
BLOCK
  8
DIMNSIONS
  2
*U6
 70
     1
 10
0.0
 20
0.0
 30
0.0
  3
*U6
  1

  0
TEXT
  5
48
  8
DIMNSIONS
 62
     7
 10
71.000000014901175
 20
435.0
 30
0.0
 40
11.28888888888889
  1
9.5
 50
90.0
  7
TXT
  0
ENDBLK
  5
49
  8
DIMNSIONS
  0
BLOCK
  8
DATA
  2
*U7
 70
     1
 10
0.0
 20
0.0
 30
0.0
  3
*U7
  1

  0
TEXT
  5
4B
  8
DATA
 62
     7
 10
46.000000014901168
 20
-55.581533333333333
 30
0.0
 40
11.28888888888889
  1
310
 50
90.0
  7
TXT
  0
ENDBLK
  5
4C
  8
DATA
  0
BLOCK
  8
DATA
  2
*U8
 70
     1
 10
0.0
 20
0.0
 30
0.0
  3
*U8
  1

  0
TEXT
  5
4E
  8
DATA
 62
     7
 10
164.39766666666659
 20
-236.0000000149011
 30
0.0
 40
11.28888888888889
  1
178
  7
TXT
  0
ENDBLK
  5
4F
  8
DATA
  0
ENDSEC
  0
SECTION
  2
ENTITIES
  0
LINE
  5
50
  8
HIBINO-BASE
  6
CONTINUOUS
 62
     7
 10
-259.99999999999989
 20
670.59544499999993
 30
0.0
 11
459.99999999999989
 21
670.59544499999993
 31
0.0
  0
LINE
  5
51
  8
HIBINO-BASE
  6
CONTINUOUS
 62
     7
 10
459.99999999999989
 20
-369.40455500000002
 30
0.0
 11
-259.99999999999989
 21
-369.40455500000002
 31
0.0
  0
LINE
  5
52
  8
HIBINO-BASE
  6
CONTINUOUS
 62
     7
 10
-259.99999999999989
 20
-369.40455500000002
 30
0.0
 11
-259.99999999999989
 21
670.59544499999993
 31
0.0
  0
TEXT
  5
53
  8
HIBINO-BASE
 62
     7
 10
-231.2639999999999
 20
-397.65907499999969
 30
0.0
 40
14.970335999999991
  1
Hibino Corporation
 41
0.75
  0
LINE
  5
54
  8
HIBINO-BASE
  6
CONTINUOUS
 62
     7
 10
459.99999999999989
 20
670.59544499999993
 30
0.0
 11
459.99999999999989
 21
-369.40455500000002
 31
0.0
  0
LINE
  5
55
  8
HIBINO-BASE
  6
CONTINUOUS
 62
     7
 10
100.0
 20
-279.4045549999999
 30
0.0
 11
459.99999999999989
 21
-279.4045549999999
 31
0.0
  0
LINE
  5
56
  8
HIBINO-BASE
  6
CONTINUOUS
 62
     7
 10
100.0
 20
-369.40455500000002
 30
0.0
 11
100.0
 21
-279.4045549999999
 31
0.0
  0
TEXT
  5
57
  8
HIBINO-BASE
 62
     7
 10
103.59999999999989
 20
-291.51447499999989
 30
0.0
 40
7.4851840000000003
  1
NOTE
 41
0.75
  0
LINE
  5
58
  8
HIBINO-BASE
  6
CONTINUOUS
 62
     7
 10
240.0
 20
-369.40455500000002
 30
0.0
 11
240.0
 21
-279.4045549999999
 31
0.0
  0
TEXT
  5
59
  8
HIBINO-BASE
 62
     7
 10
243.59999999999991
 20
-291.51447499999989
 30
0.0
 40
7.4851840000000003
  1
TITLE
 41
0.75
  0
TEXT
  5
5A
  8
HIBINO-BASE
 62
     7
 10
300.27355999999992
 20
-397.65907499999969
 30
0.0
 40
14.970335999999991
  1
ヒビノ株式会社
 41
0.75
  0
LINE
  5
5B
  8
HIBINO-BASE
  6
CONTINUOUS
 62
     7
 10
100.0
 20
-329.4045549999999
 30
0.0
 11
459.99999999999989
 21
-329.4045549999999
 31
0.0
  0
TEXT
  5
5C
  8
HIBINO-BASE
 62
     7
 10
293.59999999999991
 20
-341.28919499999989
 30
0.0
 40
7.4851840000000003
  1
DRAWN
 41
0.75
  0
TEXT
  5
5D
  8
HIBINO-BASE
 62
     7
 10
193.59999999999991
 20
-341.28919499999989
 30
0.0
 40
7.4851840000000003
  1
DATE
 41
0.75
  0
TEXT
  5
5E
  8
HIBINO-BASE
 62
     7
 10
104.40000000000001
 20
-341.06771499999991
 30
0.0
 40
6.773343999999998
  1
図面サイズ
 41
0.75
  0
TEXT
  5
5F
  8
HIBINO-BASE
 62
     7
 10
153.59999999999991
 20
-341.28919499999989
 30
0.0
 40
7.4851840000000003
  1
SCALE
 41
0.75
  0
TEXT
  5
60
  8
HIBINO-BASE
 62
     7
 10
243.59999999999991
 20
-341.28919499999989
 30
0.0
 40
7.4851840000000003
  1
DESIGN
 41
0.75
  0
TEXT
  5
61
  8
HIBINO-BASE
 62
     7
 10
393.59999999999991
 20
-341.28919499999989
 30
0.0
 40
7.4851840000000003
  1
DRAWING NO.
 41
0.75
  0
TEXT
  5
62
  8
HIBINO-BASE
 62
     7
 10
343.59999999999991
 20
-341.28919499999989
 30
0.0
 40
7.4851840000000003
  1
CHECK
 41
0.75
  0
LINE
  5
63
  8
HIBINO-BASE
  6
CONTINUOUS
 62
     7
 10
157.49999999999989
 20
-364.40455500000002
 30
0.0
 11
172.5
 21
-349.4045549999999
 31
0.0
  0
TEXT
  5
64
  8
HIBINO-BASE
 62
     7
 10
154.99999999999989
 20
-357.84787499999987
 30
0.0
 40
9.0311039999999991
  1
1
 41
0.75
  0
LINE
  5
65
  8
HIBINO-BASE
  6
CONTINUOUS
 62
     7
 10
149.99999999999989
 20
-369.40455500000002
 30
0.0
 11
149.99999999999989
 21
-329.4045549999999
 31
0.0
  0
LINE
  5
66
  8
HIBINO-BASE
  6
CONTINUOUS
 62
     7
 10
189.99999999999989
 20
-369.40455500000002
 30
0.0
 11
189.99999999999989
 21
-329.4045549999999
 31
0.0
  0
LINE
  5
67
  8
HIBINO-BASE
  6
CONTINUOUS
 62
     7
 10
289.99999999999989
 20
-329.4045549999999
 30
0.0
 11
289.99999999999989
 21
-369.40455500000002
 31
0.0
  0
LINE
  5
68
  8
HIBINO-BASE
  6
CONTINUOUS
 62
     7
 10
390.0
 20
-329.4045549999999
 30
0.0
 11
390.0
 21
-369.40455500000002
 31
0.0
  0
LINE
  5
69
  8
HIBINO-BASE
  6
CONTINUOUS
 62
     7
 10
339.99999999999989
 20
-369.40455500000002
 30
0.0
 11
339.99999999999989
 21
-329.4045549999999
 31
0.0
  0
TEXT
  5
6A
  8
HIBINO-BASE
 62
     7
 10
115.64355999999989
 20
-361.78139499999992
 30
0.0
 40
13.54665599999999
  1
A4
 41
0.75
  0
TEXT
  5
6B
  8
HIBINO-BASE
 62
     7
 10
193.4261599999999
 20
-360.02511499999991
 30
0.0
 40
7.4851840000000003
  1
'01.09.
 41
0.75
  0
TEXT
  5
6C
  8
HIBINO-BASE
 62
     7
 10
170.0
 20
-365.34787499999999
 30
0.0
 40
9.0311039999999991
  1
4
 41
0.75
  0
LINE
  5
6D
  8
SPEC
  6
CONTINUOUS
 62
     7
 10
-229.99999999999989
 20
630.59544499999993
 30
0.0
 11
-0.0000000000000142
 21
630.59544499999993
 31
0.0
  0
LINE
  5
6E
  8
SPEC
  6
CONTINUOUS
 62
     7
 10
-230.0
 20
630.59544499999993
 30
0.0
 11
-230.0
 21
615.59633499999973
 31
0.0
  0
LINE
  5
6F
  8
SPEC
  6
CONTINUOUS
 62
     7
 10
-100.0
 20
630.59544499999993
 30
0.0
 11
-100.0
 21
615.59633499999973
 31
0.0
  0
LINE
  5
70
  8
SPEC
  6
CONTINUOUS
 62
     7
 10
-0.0000000000000142
 20
630.59544499999993
 30
0.0
 11
-0.0000000000000142
 21
615.59633499999973
 31
0.0
  0
TEXT
  5
71
  8
DIMNSIONS
 62
     7
 10
19.999999999999979
 20
-322.1045949999999
 30
0.0
 40
10.16
  1
(単位：mm)
 41
0.75
  0
LINE
  5
72
  8
DIMNSIONS
  6
CONTINUOUS
 62
     7
 10
235.9919999999999
 20
563.91799997019757
 30
0.0
 11
235.9919999999999
 21
632.99999997019768
 31
0.0
  0
LINE
  5
73
  8
DIMNSIONS
  6
CONTINUOUS
 62
     7
 10
364.00799999999998
 20
563.91799997019757
 30
0.0
 11
364.00799999999998
 21
632.99999997019768
 31
0.0
  0
LINE
  5
75
  8
DIMNSIONS
 62
     7
 10
235.9919999999999
 20
625.0
 30
0.0
 11
248.69199999999989
 21
628.40295474387528
 31
0.0
  0
LINE
  5
76
  8
DIMNSIONS
 62
     7
 10
235.9919999999999
 20
625.0
 30
0.0
 11
248.69199999999989
 21
621.59704525612472
 31
0.0
  0
LINE
  5
77
  8
DIMNSIONS
 62
     7
 10
364.00799999999998
 20
625.0
 30
0.0
 11
351.30799999999999
 21
621.59704525612472
 31
0.0
  0
LINE
  5
78
  8
DIMNSIONS
 62
     7
 10
364.00799999999998
 20
625.0
 30
0.0
 11
351.30799999999999
 21
628.40295474387528
 31
0.0
  0
LINE
  5
74
  8
DIMNSIONS
  6
CONTINUOUS
 62
     7
 10
235.9919999999999
 20
625.0
 30
0.0
 11
364.00799999999998
 21
625.0
 31
0.0
  0
INSERT
  5
79
  8
DIMNSIONS
 62
     7
  2
*U0
 10
100.0
 20
140.0
 30
0.0
  0
LINE
  5
7A
  8
DIMNSIONS
  6
CONTINUOUS
 62
     7
 10
227.99200002980231
 20
555.91800000000001
 30
0.0
 11
142.00000002980229
 21
555.91800000000001
 31
0.0
  0
LINE
  5
7B
  8
DIMNSIONS
  6
CONTINUOUS
 62
     7
 10
227.99200002980231
 20
450.0
 30
0.0
 11
142.00000002980229
 21
450.0
 31
0.0
  0
LINE
  5
7D
  8
DIMNSIONS
 62
     7
 10
150.0
 20
555.91800000000001
 30
0.0
 11
153.4029547438752
 21
543.21799999999996
 31
0.0
  0
LINE
  5
7E
  8
DIMNSIONS
 62
     7
 10
150.0
 20
555.91800000000001
 30
0.0
 11
146.59704525612469
 21
543.21799999999996
 31
0.0
  0
LINE
  5
7F
  8
DIMNSIONS
 62
     7
 10
150.0
 20
450.0
 30
0.0
 11
146.59704525612469
 21
462.69999999999987
 31
0.0
  0
LINE
  5
80
  8
DIMNSIONS
 62
     7
 10
150.0
 20
450.0
 30
0.0
 11
153.4029547438752
 21
462.69999999999987
 31
0.0
  0
LINE
  5
7C
  8
DIMNSIONS
  6
CONTINUOUS
 62
     7
 10
150.0
 20
555.91800000000001
 30
0.0
 11
150.0
 21
450.0
 31
0.0
  0
INSERT
  5
81
  8
DIMNSIONS
 62
     7
  2
*U1
 10
100.0
 20
140.0
 30
0.0
  0
LINE
  5
83
  8
DIMNSIONS
 62
     7
 10
301.4261529937819
 20
456.12932972180511
 30
0.0
 11
309.33882142650651
 21
445.62886405295859
 31
0.0
  0
LINE
  5
84
  8
DIMNSIONS
 62
     7
 10
301.4261529937819
 20
456.12932972180511
 30
0.0
 11
303.02849203382141
 21
443.07932548465539
 31
0.0
  0
LINE
  5
82
  8
DIMNSIONS
  6
CONTINUOUS
 62
     7
 10
301.4261529937819
 20
456.12932972180511
 30
0.0
 11
324.99999999999989
 21
400.0
 31
0.0
  0
LINE
  5
85
  8
DIMNSIONS
  6
CONTINUOUS
 62
     7
 10
324.99999999999989
 20
400.0
 30
0.0
 11
398.38888889410418
 21
400.0
 31
0.0
  0
INSERT
  5
86
  8
DIMNSIONS
 62
     7
  2
*U2
 10
100.0
 20
140.0
 30
0.0
  0
LINE
  5
87
  8
DIMNSIONS
  6
CONTINUOUS
 62
     7
 10
288.31700002980227
 20
546.39300000000003
 30
0.0
 11
167.00000002980229
 21
546.39300000000003
 31
0.0
  0
LINE
  5
88
  8
DIMNSIONS
  6
CONTINUOUS
 62
     7
 10
288.31700002980227
 20
459.52499999999998
 30
0.0
 11
167.00000002980229
 21
459.52499999999998
 31
0.0
  0
LINE
  5
8A
  8
DIMNSIONS
 62
     7
 10
175.0
 20
546.39300000000003
 30
0.0
 11
178.4029547438752
 21
533.69299999999987
 31
0.0
  0
LINE
  5
8B
  8
DIMNSIONS
 62
     7
 10
175.0
 20
546.39300000000003
 30
0.0
 11
171.59704525612469
 21
533.69299999999987
 31
0.0
  0
LINE
  5
8C
  8
DIMNSIONS
 62
     7
 10
175.0
 20
459.52499999999998
 30
0.0
 11
171.59704525612469
 21
472.22499999999991
 31
0.0
  0
LINE
  5
8D
  8
DIMNSIONS
 62
     7
 10
175.0
 20
459.52499999999998
 30
0.0
 11
178.4029547438752
 21
472.22499999999991
 31
0.0
  0
LINE
  5
89
  8
DIMNSIONS
  6
CONTINUOUS
 62
     7
 10
175.0
 20
546.39300000000003
 30
0.0
 11
175.0
 21
459.52499999999998
 31
0.0
  0
INSERT
  5
8E
  8
DIMNSIONS
 62
     7
  2
*U3
 10
100.0
 20
140.0
 30
0.0
  0
LINE
  5
8F
  8
DIMNSIONS
  6
CONTINUOUS
 62
     7
 10
245.517
 20
514.64199997019762
 30
0.0
 11
245.517
 21
607.99999997019768
 31
0.0
  0
LINE
  5
90
  8
DIMNSIONS
  6
CONTINUOUS
 62
     7
 10
354.48299999999989
 20
514.64199997019762
 30
0.0
 11
354.48299999999989
 21
607.99999997019768
 31
0.0
  0
LINE
  5
92
  8
DIMNSIONS
 62
     7
 10
245.517
 20
600.0
 30
0.0
 11
258.21699999999998
 21
603.40295474387528
 31
0.0
  0
LINE
  5
93
  8
DIMNSIONS
 62
     7
 10
245.517
 20
600.0
 30
0.0
 11
258.21699999999998
 21
596.59704525612472
 31
0.0
  0
LINE
  5
94
  8
DIMNSIONS
 62
     7
 10
354.48299999999989
 20
600.0
 30
0.0
 11
341.7829999999999
 21
596.59704525612472
 31
0.0
  0
LINE
  5
95
  8
DIMNSIONS
 62
     7
 10
354.48299999999989
 20
600.0
 30
0.0
 11
341.7829999999999
 21
603.40295474387528
 31
0.0
  0
LINE
  5
91
  8
DIMNSIONS
  6
CONTINUOUS
 62
     7
 10
245.517
 20
600.0
 30
0.0
 11
354.48299999999989
 21
600.0
 31
0.0
  0
INSERT
  5
96
  8
DIMNSIONS
 62
     7
  2
*U4
 10
100.0
 20
140.0
 30
0.0
  0
LINE
  5
97
  8
DIMNSIONS
  6
CONTINUOUS
 62
     7
 10
235.9919999999999
 20
563.91799997019757
 30
0.0
 11
235.9919999999999
 21
607.99999997019768
 31
0.0
  0
LINE
  5
98
  8
DIMNSIONS
  6
CONTINUOUS
 62
     7
 10
245.517
 20
514.64199997019762
 30
0.0
 11
245.517
 21
607.99999997019768
 31
0.0
  0
LINE
  5
99
  8
DIMNSIONS
  6
CONTINUOUS
 62
     7
 10
245.517
 20
600.0
 30
0.0
 11
235.9919999999999
 21
600.0
 31
0.0
  0
LINE
  5
9B
  8
DIMNSIONS
 62
     7
 10
235.9919999999999
 20
600.0
 30
0.0
 11
223.29199999999989
 21
596.59704525612472
 31
0.0
  0
LINE
  5
9C
  8
DIMNSIONS
 62
     7
 10
235.9919999999999
 20
600.0
 30
0.0
 11
223.29199999999989
 21
603.40295474387528
 31
0.0
  0
LINE
  5
9A
  8
DIMNSIONS
  6
CONTINUOUS
 62
     7
 10
235.9919999999999
 20
600.0
 30
0.0
 11
203.83333333333329
 21
600.0
 31
0.0
  0
LINE
  5
9E
  8
DIMNSIONS
 62
     7
 10
245.517
 20
600.0
 30
0.0
 11
258.21699999999998
 21
603.40295474387528
 31
0.0
  0
LINE
  5
9F
  8
DIMNSIONS
 62
     7
 10
245.517
 20
600.0
 30
0.0
 11
258.21699999999998
 21
596.59704525612472
 31
0.0
  0
LINE
  5
9D
  8
DIMNSIONS
  6
CONTINUOUS
 62
     7
 10
245.517
 20
600.0
 30
0.0
 11
265.5170000201166
 21
600.0
 31
0.0
  0
INSERT
  5
A0
  8
DIMNSIONS
 62
     7
  2
*U5
 10
100.0
 20
140.0
 30
0.0
  0
LINE
  5
A1
  8
DIMNSIONS
  6
CONTINUOUS
 62
     7
 10
227.99200002980231
 20
555.91800000000001
 30
0.0
 11
167.00000002980229
 21
555.91800000000001
 31
0.0
  0
LINE
  5
A2
  8
DIMNSIONS
  6
CONTINUOUS
 62
     7
 10
288.31700002980227
 20
546.39300000000003
 30
0.0
 11
167.00000002980229
 21
546.39300000000003
 31
0.0
  0
LINE
  5
A3
  8
DIMNSIONS
  6
CONTINUOUS
 62
     7
 10
175.0
 20
546.39300000000003
 30
0.0
 11
175.0
 21
555.91800000000001
 31
0.0
  0
LINE
  5
A5
  8
DIMNSIONS
 62
     7
 10
175.0
 20
555.91800000000001
 30
0.0
 11
171.59704525612469
 21
568.61799999999994
 31
0.0
  0
LINE
  5
A6
  8
DIMNSIONS
 62
     7
 10
175.0
 20
555.91800000000001
 30
0.0
 11
178.4029547438752
 21
568.61799999999994
 31
0.0
  0
LINE
  5
A4
  8
DIMNSIONS
  6
CONTINUOUS
 62
     7
 10
175.0
 20
555.91800000000001
 30
0.0
 11
175.0
 21
596.16666666666674
 31
0.0
  0
LINE
  5
A8
  8
DIMNSIONS
 62
     7
 10
175.0
 20
546.39300000000003
 30
0.0
 11
178.4029547438752
 21
533.69299999999987
 31
0.0
  0
LINE
  5
A9
  8
DIMNSIONS
 62
     7
 10
175.0
 20
546.39300000000003
 30
0.0
 11
171.59704525612469
 21
533.69299999999987
 31
0.0
  0
LINE
  5
A7
  8
DIMNSIONS
  6
CONTINUOUS
 62
     7
 10
175.0
 20
546.39300000000003
 30
0.0
 11
175.0
 21
526.39299997988337
 31
0.0
  0
INSERT
  5
AA
  8
DIMNSIONS
 62
     7
  2
*U6
 10
100.0
 20
140.0
 30
0.0
  0
TEXT
  5
AB
  8
DATA
 62
     7
 10
299.99999999999989
 20
-326.65899499999989
 30
0.0
 40
10.16
  1
MTC-29CM & MTC-29CM-WH
 41
0.7
  0
TEXT
  5
AC
  8
DATA
 62
     7
 10
299.99999999999989
 20
-297.65899499999989
 30
0.0
 40
10.16
  1
JBL
 41
0.75
  0
LINE
  5
AD
  8
DATA
  6
CONTINUOUS
 62
     7
 10
425.0
 20
250.0
 30
0.0
 11
175.0
 21
250.0
 31
0.0
  0
LINE
  5
AE
  8
DATA
  6
CONTINUOUS
 62
     7
 10
364.00799999999998
 20
233.744
 30
0.0
 11
235.9919999999999
 21
233.744
 31
0.0
  0
LINE
  5
AF
  8
DATA
  6
CONTINUOUS
 62
     7
 10
288.82400000000001
 20
211.90000000000001
 30
0.0
 11
311.17599999999987
 21
211.90000000000001
 31
0.0
  0
LINE
  5
B0
  8
DATA
  6
CONTINUOUS
 62
     7
 10
288.82400000000001
 20
211.90000000000001
 30
0.0
 11
288.82400000000001
 21
233.744
 31
0.0
  0
LINE
  5
B1
  8
DATA
  6
CONTINUOUS
 62
     7
 10
311.17599999999987
 20
211.90000000000001
 30
0.0
 11
311.17599999999987
 21
233.744
 31
0.0
  0
LINE
  5
B2
  8
DATA
  6
CONTINUOUS
 62
     7
 10
364.00799999999998
 20
244.5136
 30
0.0
 11
235.9919999999999
 21
244.5136
 31
0.0
  0
LINE
  5
B3
  8
DATA
  6
CONTINUOUS
 62
     7
 10
235.9919999999999
 20
250.0
 30
0.0
 11
235.9919999999999
 21
233.744
 31
0.0
  0
LINE
  5
B4
  8
DATA
  6
CONTINUOUS
 62
     7
 10
364.00799999999998
 20
250.0
 30
0.0
 11
364.00799999999998
 21
233.744
 31
0.0
  0
ARC
  5
B5
  8
DATA
  6
CONTINUOUS
 62
     7
 10
257.51047619047631
 20
202.1552518095238
 30
0.0
 40
35.915189492436063
 50
29.322841269994949
 51
61.586596453391621
  0
ARC
  5
B6
  8
DATA
  6
CONTINUOUS
 62
     7
 10
342.48952380952369
 20
202.1552518095238
 30
0.0
 40
35.915189492435992
 50
118.41340354660829
 51
150.677158730005
  0
LINE
  5
B7
  8
DATA
  6
CONTINUOUS
 62
     7
 10
297.45800000000003
 20
219.744
 30
0.0
 11
302.53800000000001
 21
219.744
 31
0.0
  0
LINE
  5
B8
  8
DATA
  6
CONTINUOUS
 62
     7
 10
297.45800000000003
 20
219.744
 30
0.0
 11
297.45800000000003
 21
233.744
 31
0.0
  0
LINE
  5
B9
  8
DATA
  6
CONTINUOUS
 62
     7
 10
302.53800000000001
 20
219.744
 30
0.0
 11
302.53800000000001
 21
233.744
 31
0.0
  0
LINE
  5
BA
  8
DATA
  6
CONTINUOUS
 62
     7
 10
289.25
 20
198.90000000000001
 30
0.0
 11
310.74999999999989
 21
198.90000000000001
 31
0.0
  0
LINE
  5
BB
  8
DATA
  6
CONTINUOUS
 62
     7
 10
289.25
 20
208.90000000000001
 30
0.0
 11
310.74999999999989
 21
208.90000000000001
 31
0.0
  0
LINE
  5
BC
  8
DATA
  6
CONTINUOUS
 62
     7
 10
289.25
 20
198.90000000000001
 30
0.0
 11
289.25
 21
211.90000000000001
 31
0.0
  0
LINE
  5
BD
  8
DATA
  6
CONTINUOUS
 62
     7
 10
300.0
 20
208.90000000000001
 30
0.0
 11
300.0
 21
198.90000000000001
 31
0.0
  0
LINE
  5
BE
  8
DATA
  6
CONTINUOUS
 62
     7
 10
290.69022690931718
 20
208.90000000000001
 30
0.0
 11
290.69022690931718
 21
198.90000000000001
 31
0.0
  0
LINE
  5
BF
  8
DATA
  6
CONTINUOUS
 62
     7
 10
309.30977309068271
 20
208.90000000000001
 30
0.0
 11
309.30977309068271
 21
198.90000000000001
 31
0.0
  0
LINE
  5
C0
  8
DATA
  6
CONTINUOUS
 62
     7
 10
310.74999999999989
 20
198.90000000000001
 30
0.0
 11
310.74999999999989
 21
211.90000000000001
 31
0.0
  0
LINE
  5
C1
  8
DATA
  6
CONTINUOUS
 62
     7
 10
235.9919999999999
 20
-150.0
 30
0.0
 11
364.00799999999998
 21
-150.0
 31
0.0
  0
LINE
  5
C2
  8
DATA
  6
CONTINUOUS
 62
     7
 10
235.9919999999999
 20
-255.91800000000001
 30
0.0
 11
235.9919999999999
 21
-209.05500000000001
 31
0.0
  0
LINE
  5
C3
  8
DATA
  6
CONTINUOUS
 62
     7
 10
235.9919999999999
 20
-196.863
 30
0.0
 11
235.9919999999999
 21
-150.0
 31
0.0
  0
LINE
  5
C4
  8
DATA
  6
CONTINUOUS
 62
     7
 10
364.00799999999998
 20
-255.91800000000001
 30
0.0
 11
235.9919999999999
 21
-255.91800000000001
 31
0.0
  0
LINE
  5
C5
  8
DATA
  6
CONTINUOUS
 62
     7
 10
364.00799999999998
 20
-150.0
 30
0.0
 11
364.00799999999998
 21
-255.91800000000001
 31
0.0
  0
CIRCLE
  5
C6
  8
DATA
  6
CONTINUOUS
 62
     7
 10
354.48299999999989
 20
-202.959
 30
0.0
 40
3.6829999999999918
  0
CIRCLE
  5
C7
  8
DATA
  6
CONTINUOUS
 62
     7
 10
300.0
 20
-159.52499999999989
 30
0.0
 40
3.6829999999999918
  0
CIRCLE
  5
C8
  8
DATA
  6
CONTINUOUS
 62
     7
 10
300.0
 20
-246.393
 30
0.0
 40
3.6829999999999918
  0
ARC
  5
C9
  8
DATA
  6
CONTINUOUS
 62
     7
 10
300.0
 20
-202.959
 30
0.0
 40
11.17500000000005
 50
13.1324904765419
 51
76.862244638342887
  0
ARC
  5
CA
  8
DATA
  6
CONTINUOUS
 62
     7
 10
300.0
 20
-159.49999999999989
 30
0.0
 40
8.5
 50
180.0
 51
0.0
  0
LINE
  5
CB
  8
DATA
  6
CONTINUOUS
 62
     7
 10
308.49999999999989
 20
-159.49999999999989
 30
0.0
 11
308.49999999999989
 21
-150.0
 31
0.0
  0
LINE
  5
CC
  8
DATA
  6
CONTINUOUS
 62
     7
 10
291.5
 20
-159.49999999999989
 30
0.0
 11
291.5
 21
-150.0
 31
0.0
  0
ARC
  5
CD
  8
DATA
  6
CONTINUOUS
 62
     7
 10
300.0
 20
-246.41800000000001
 30
0.0
 40
8.5
 50
0.0
 51
180.0
  0
LINE
  5
CE
  8
DATA
  6
CONTINUOUS
 62
     7
 10
308.49999999999989
 20
-246.41800000000001
 30
0.0
 11
308.49999999999989
 21
-255.91800000000001
 31
0.0
  0
LINE
  5
CF
  8
DATA
  6
CONTINUOUS
 62
     7
 10
291.5
 20
-246.41800000000001
 30
0.0
 11
291.5
 21
-255.91800000000001
 31
0.0
  0
ARC
  5
D0
  8
DATA
  6
CONTINUOUS
 62
     7
 10
354.50799999999998
 20
-202.959
 30
0.0
 40
8.5
 50
90.0
 51
270.0
  0
LINE
  5
D1
  8
DATA
  6
CONTINUOUS
 62
     7
 10
354.50799999999998
 20
-194.459
 30
0.0
 11
364.00799999999998
 21
-194.459
 31
0.0
  0
LINE
  5
D2
  8
DATA
  6
CONTINUOUS
 62
     7
 10
354.50799999999998
 20
-211.459
 30
0.0
 11
364.00799999999998
 21
-211.459
 31
0.0
  0
ARC
  5
D3
  8
DATA
  6
CONTINUOUS
 62
     7
 10
245.4919999999999
 20
-202.959
 30
0.0
 40
8.5
 50
270.0
 51
315.00075124372688
  0
ARC
  5
D4
  8
DATA
  6
CONTINUOUS
 62
     7
 10
245.4919999999999
 20
-202.959
 30
0.0
 40
8.5000000000000586
 50
44.99924875627314
 51
90.0
  0
LINE
  5
D5
  8
DATA
  6
CONTINUOUS
 62
     7
 10
245.4919999999999
 20
-194.459
 30
0.0
 11
235.9919999999999
 21
-194.459
 31
0.0
  0
LINE
  5
D6
  8
DATA
  6
CONTINUOUS
 62
     7
 10
245.4919999999999
 20
-211.459
 30
0.0
 11
235.9919999999999
 21
-211.459
 31
0.0
  0
LINE
  5
D7
  8
DATA
  6
CONTINUOUS
 62
     7
 10
322.86200000000002
 20
-200.41999999999999
 30
0.0
 11
310.8827434041238
 21
-200.41999999999999
 31
0.0
  0
LINE
  5
D8
  8
DATA
  6
CONTINUOUS
 62
     7
 10
322.86200000000002
 20
-205.5
 30
0.0
 11
310.88227660004998
 21
-205.5
 31
0.0
  0
LINE
  5
D9
  8
DATA
  6
CONTINUOUS
 62
     7
 10
297.45999999999998
 20
-180.09999999999999
 30
0.0
 11
297.45999999999998
 21
-192.0764899494645
 31
0.0
  0
LINE
  5
DA
  8
DATA
  6
CONTINUOUS
 62
     7
 10
297.45999999999998
 20
-213.84151005053539
 30
0.0
 11
297.45999999999998
 21
-225.8179999999999
 31
0.0
  0
LINE
  5
DB
  8
DATA
  6
CONTINUOUS
 62
     7
 10
302.53999999999991
 20
-180.09999999999999
 30
0.0
 11
302.53999999999991
 21
-192.0764899494645
 31
0.0
  0
LINE
  5
DC
  8
DATA
  6
CONTINUOUS
 62
     7
 10
302.53999999999991
 20
-213.84151005053539
 30
0.0
 11
302.53999999999991
 21
-225.8179999999999
 31
0.0
  0
ARC
  5
DD
  8
DATA
  6
CONTINUOUS
 62
     7
 10
300.0
 20
-180.09999999999999
 30
0.0
 40
2.5399999999999632
 50
0.0
 51
180.0
  0
ARC
  5
DE
  8
DATA
  6
CONTINUOUS
 62
     7
 10
300.0
 20
-225.8179999999999
 30
0.0
 40
2.5399999999999632
 50
180.0
 51
0.0
  0
ARC
  5
DF
  8
DATA
  6
CONTINUOUS
 62
     7
 10
322.86200000000002
 20
-202.96000000000001
 30
0.0
 40
2.5399999999999632
 50
270.0
 51
90.0
  0
ARC
  5
E0
  8
DATA
  6
CONTINUOUS
 62
     7
 10
300.0
 20
-202.959
 30
0.0
 40
11.17500000000007
 50
103.1377553616571
 51
146.94093208800939
  0
ARC
  5
E1
  8
DATA
  6
CONTINUOUS
 62
     7
 10
300.0
 20
-202.959
 30
0.0
 40
11.17499999999996
 50
283.13775536165718
 51
346.86750952345801
  0
ARC
  5
E2
  8
DATA
  6
CONTINUOUS
 62
     7
 10
300.0
 20
-202.959
 30
0.0
 40
11.174999999999869
 50
213.0590679119895
 51
256.86224463834259
  0
LINE
  5
E3
  8
DATA
  6
CONTINUOUS
 62
     7
 10
309.30977309068271
 20
-197.584
 30
0.0
 11
300.0
 21
-192.209
 31
0.0
  0
LINE
  5
E4
  8
DATA
  6
CONTINUOUS
 62
     7
 10
309.30977309068271
 20
-208.334
 30
0.0
 11
309.30977309068271
 21
-197.584
 31
0.0
  0
LINE
  5
E5
  8
DATA
  6
CONTINUOUS
 62
     7
 10
300.0
 20
-213.709
 30
0.0
 11
309.30977309068271
 21
-208.334
 31
0.0
  0
LINE
  5
E6
  8
DATA
  6
CONTINUOUS
 62
     7
 10
291.93903554157441
 20
-209.05500000000001
 30
0.0
 11
300.0
 21
-213.709
 31
0.0
  0
LINE
  5
E7
  8
DATA
  6
CONTINUOUS
 62
     7
 10
300.0
 20
-192.209
 30
0.0
 11
291.93903554157441
 21
-196.86299999999989
 31
0.0
  0
LINE
  5
E8
  8
DATA
  6
CONTINUOUS
 62
     7
 10
235.9919999999999
 20
555.91800000000001
 30
0.0
 11
364.00799999999998
 21
555.91800000000001
 31
0.0
  0
LINE
  5
E9
  8
DATA
  6
CONTINUOUS
 62
     7
 10
235.9919999999999
 20
450.0
 30
0.0
 11
235.9919999999999
 21
555.91800000000001
 31
0.0
  0
LINE
  5
EA
  8
DATA
  6
CONTINUOUS
 62
     7
 10
364.00799999999998
 20
450.0
 30
0.0
 11
235.9919999999999
 21
450.0
 31
0.0
  0
LINE
  5
EB
  8
DATA
  6
CONTINUOUS
 62
     7
 10
364.00799999999998
 20
555.91800000000001
 30
0.0
 11
364.00799999999998
 21
450.0
 31
0.0
  0
CIRCLE
  5
EC
  8
DATA
  6
CONTINUOUS
 62
     7
 10
354.48299999999989
 20
502.95899999999989
 30
0.0
 40
3.6829999999999918
  0
CIRCLE
  5
ED
  8
DATA
  6
CONTINUOUS
 62
     7
 10
300.0
 20
546.39300000000003
 30
0.0
 40
3.6829999999999918
  0
CIRCLE
  5
EE
  8
DATA
  6
CONTINUOUS
 62
     7
 10
245.517
 20
502.95899999999989
 30
0.0
 40
3.6829999999999918
  0
CIRCLE
  5
EF
  8
DATA
  6
CONTINUOUS
 62
     7
 10
300.0
 20
459.52499999999998
 30
0.0
 40
3.6829999999999918
  0
LINE
  5
F0
  8
DATA
  6
CONTINUOUS
 62
     7
 10
311.98851012428139
 20
546.39300000000003
 30
0.0
 11
311.98851012428139
 21
553.37800000000004
 31
0.0
  0
LINE
  5
F1
  8
DATA
  6
CONTINUOUS
 62
     7
 10
288.0114679148939
 20
546.39350172127661
 30
0.0
 11
288.0114679148939
 21
553.37800000000004
 31
0.0
  0
ARC
  5
F2
  8
DATA
  6
CONTINUOUS
 62
     7
 10
300.0
 20
546.91800000000001
 30
0.0
 40
12.00000000000003
 50
182.50509286724139
 51
263.93442257200758
  0
ARC
  5
F3
  8
DATA
  6
CONTINUOUS
 62
     7
 10
300.0
 20
546.91800000000001
 30
0.0
 40
11.99999999999997
 50
276.08478388698779
 51
357.49250929641278
  0
LINE
  5
F4
  8
DATA
  6
CONTINUOUS
 62
     7
 10
311.98851012428139
 20
459.52499999999998
 30
0.0
 11
311.98851012428139
 21
450.0
 31
0.0
  0
LINE
  5
F5
  8
DATA
  6
CONTINUOUS
 62
     7
 10
288.0114679148939
 20
459.52449827872329
 30
0.0
 11
288.0114679148939
 21
452.54000000000002
 31
0.0
  0
ARC
  5
F6
  8
DATA
  6
CONTINUOUS
 62
     7
 10
300.0
 20
459.0
 30
0.0
 40
11.99999999999994
 50
2.5074907035871319
 51
83.915216113012065
  0
ARC
  5
F7
  8
DATA
  6
CONTINUOUS
 62
     7
 10
300.0
 20
459.0
 30
0.0
 40
11.99999999999998
 50
96.065577427992281
 51
177.4949071327585
  0
ARC
  5
F8
  8
DATA
  6
CONTINUOUS
 62
     7
 10
355.50799999999998
 20
502.95899999999989
 30
0.0
 40
12.0
 50
90.0
 51
173.92962102148229
  0
ARC
  5
F9
  8
DATA
  6
CONTINUOUS
 62
     7
 10
355.50799999999998
 20
502.95899999999989
 30
0.0
 40
11.999999999999989
 50
186.07998220798061
 51
270.0
  0
LINE
  5
FA
  8
DATA
  6
CONTINUOUS
 62
     7
 10
361.46800000000002
 20
514.95899999999995
 30
0.0
 11
355.50799999999998
 21
514.95899999999995
 31
0.0
  0
LINE
  5
FB
  8
DATA
  6
CONTINUOUS
 62
     7
 10
361.46800000000002
 20
490.95899999999989
 30
0.0
 11
355.50799999999998
 21
490.95899999999989
 31
0.0
  0
ARC
  5
FC
  8
DATA
  6
CONTINUOUS
 62
     7
 10
244.4919999999999
 20
502.95899999999989
 30
0.0
 40
12.0
 50
270.0
 51
353.92001779201928
  0
ARC
  5
FD
  8
DATA
  6
CONTINUOUS
 62
     7
 10
244.4919999999999
 20
502.95899999999989
 30
0.0
 40
11.999999999999931
 50
6.0703789785177387
 51
90.0
  0
LINE
  5
FE
  8
DATA
  6
CONTINUOUS
 62
     7
 10
238.5319999999999
 20
514.95899999999995
 30
0.0
 11
244.4919999999999
 21
514.95899999999995
 31
0.0
  0
LINE
  5
FF
  8
DATA
  6
CONTINUOUS
 62
     7
 10
238.5319999999999
 20
490.95899999999989
 30
0.0
 11
244.4919999999999
 21
490.95899999999989
 31
0.0
  0
ARC
  5
100
  8
DATA
  6
CONTINUOUS
 62
     7
 10
300.0
 20
502.95899999999989
 30
0.0
 40
16.000000000000021
 50
44.680606998067553
 51
85.440173692335676
  0
ARC
  5
101
  8
DATA
  6
CONTINUOUS
 62
     7
 10
300.0
 20
502.95899999999989
 30
0.0
 40
16.0
 50
94.545457025177896
 51
135.15663310544701
  0
ARC
  5
102
  8
DATA
  6
CONTINUOUS
 62
     7
 10
300.0
 20
502.95899999999989
 30
0.0
 40
16.000000000000021
 50
144.1381905774378
 51
175.4509506810947
  0
ARC
  5
103
  8
DATA
  6
CONTINUOUS
 62
     7
 10
300.0
 20
502.95899999999989
 30
0.0
 40
15.99999999999995
 50
184.55623396013411
 51
215.8698873537316
  0
ARC
  5
104
  8
DATA
  6
CONTINUOUS
 62
     7
 10
300.0
 20
502.95899999999989
 30
0.0
 40
16.000000000000021
 50
224.826302137422
 51
265.45454297482212
  0
ARC
  5
105
  8
DATA
  6
CONTINUOUS
 62
     7
 10
300.0
 20
502.95899999999989
 30
0.0
 40
16.0
 50
274.55982630766431
 51
315.30561154530449
  0
ARC
  5
106
  8
DATA
  6
CONTINUOUS
 62
     7
 10
300.0
 20
502.95899999999989
 30
0.0
 40
15.99999999999989
 50
324.28716901729541
 51
355.44376603986592
  0
ARC
  5
107
  8
DATA
  6
CONTINUOUS
 62
     7
 10
300.0
 20
502.95899999999989
 30
0.0
 40
15.99999999999987
 50
4.5490493189053129
 51
35.724192214375762
  0
LINE
  5
108
  8
DATA
  6
CONTINUOUS
 62
     7
 10
309.30977309068271
 20
497.58399999999989
 30
0.0
 11
309.30977309068271
 21
508.33399999999989
 31
0.0
  0
LINE
  5
109
  8
DATA
  6
CONTINUOUS
 62
     7
 10
300.0
 20
492.20899999999989
 30
0.0
 11
309.30977309068271
 21
497.58399999999989
 31
0.0
  0
LINE
  5
10A
  8
DATA
  6
CONTINUOUS
 62
     7
 10
290.69022690931718
 20
497.58399999999989
 30
0.0
 11
300.0
 21
492.20899999999989
 31
0.0
  0
LINE
  5
10B
  8
DATA
  6
CONTINUOUS
 62
     7
 10
290.69022690931718
 20
508.33399999999989
 30
0.0
 11
290.69022690931718
 21
497.58399999999989
 31
0.0
  0
LINE
  5
10C
  8
DATA
  6
CONTINUOUS
 62
     7
 10
300.0
 20
513.70899999999995
 30
0.0
 11
290.69022690931718
 21
508.33399999999989
 31
0.0
  0
LINE
  5
10D
  8
DATA
  6
CONTINUOUS
 62
     7
 10
309.30977309068271
 20
508.33399999999989
 30
0.0
 11
300.0
 21
513.70899999999995
 31
0.0
  0
LINE
  5
10E
  8
DATA
  6
CONTINUOUS
 62
     7
 10
315.94959682876009
 20
504.22799999999989
 30
0.0
 11
343.57528702264239
 21
504.22799999999989
 31
0.0
  0
LINE
  5
10F
  8
DATA
  6
CONTINUOUS
 62
     7
 10
315.94943757629079
 20
501.68799999999987
 30
0.0
 11
343.57549988476848
 21
501.68799999999987
 31
0.0
  0
LINE
  5
110
  8
DATA
  6
CONTINUOUS
 62
     7
 10
284.05040317123962
 20
504.22799999999989
 30
0.0
 11
256.4247129773575
 21
504.22799999999989
 31
0.0
  0
LINE
  5
111
  8
DATA
  6
CONTINUOUS
 62
     7
 10
284.0505624237091
 20
501.68799999999987
 30
0.0
 11
256.42450011523141
 21
501.68799999999987
 31
0.0
  0
LINE
  5
112
  8
DATA
  6
CONTINUOUS
 62
     7
 10
298.73200000000003
 20
518.90867636035284
 30
0.0
 11
298.73200000000003
 21
534.98518071870683
 31
0.0
  0
LINE
  5
113
  8
DATA
  6
CONTINUOUS
 62
     7
 10
301.27199999999988
 20
518.90835785541219
 30
0.0
 11
301.27199999999988
 21
534.98560644296367
 31
0.0
  0
LINE
  5
114
  8
DATA
  6
CONTINUOUS
 62
     7
 10
298.73200000000003
 20
487.00932363964699
 30
0.0
 11
298.73200000000003
 21
470.93281928129312
 31
0.0
  0
LINE
  5
115
  8
DATA
  6
CONTINUOUS
 62
     7
 10
301.27199999999988
 20
487.00964214458781
 30
0.0
 11
301.27199999999988
 21
470.93239355703611
 31
0.0
  0
LINE
  5
116
  8
DATA
  6
CONTINUOUS
 62
     7
 10
361.46800000000002
 20
553.37800000000004
 30
0.0
 11
361.46800000000002
 21
514.95899999999995
 31
0.0
  0
LINE
  5
117
  8
DATA
  6
CONTINUOUS
 62
     7
 10
361.46800000000002
 20
490.95899999999989
 30
0.0
 11
361.46800000000002
 21
452.54000000000002
 31
0.0
  0
LINE
  5
118
  8
DATA
  6
CONTINUOUS
 62
     7
 10
238.5319999999999
 20
452.48683575463298
 30
0.0
 11
238.5319999999999
 21
490.95899999999989
 31
0.0
  0
LINE
  5
119
  8
DATA
  6
CONTINUOUS
 62
     7
 10
238.5319999999999
 20
514.95899999999995
 30
0.0
 11
238.5319999999999
 21
553.43236368034638
 31
0.0
  0
LINE
  5
11A
  8
DATA
  6
CONTINUOUS
 62
     7
 10
242.47173183007359
 20
553.37800000000004
 30
0.0
 11
288.0114679148939
 21
553.37800000000004
 31
0.0
  0
LINE
  5
11B
  8
DATA
  6
CONTINUOUS
 62
     7
 10
311.98851012428139
 20
553.37800000000004
 30
0.0
 11
357.60302119945362
 21
553.37800000000004
 31
0.0
  0
LINE
  5
11C
  8
DATA
  6
CONTINUOUS
 62
     7
 10
357.59242131740251
 20
452.54000000000002
 30
0.0
 11
311.98851012428139
 21
452.54000000000002
 31
0.0
  0
LINE
  5
11D
  8
DATA
  6
CONTINUOUS
 62
     7
 10
288.0114679148939
 20
452.54000000000002
 30
0.0
 11
242.45972285781059
 21
452.54000000000002
 31
0.0
  0
LINE
  5
11E
  8
DATA
  6
CONTINUOUS
 62
     7
 10
361.46800000000002
 20
553.37800000000004
 30
0.0
 11
312.98939301903528
 21
512.30114477499887
 31
0.0
  0
LINE
  5
11F
  8
DATA
  6
CONTINUOUS
 62
     7
 10
288.65204490915198
 20
491.67964207252493
 30
0.0
 11
242.45972285781059
 21
452.54000000000002
 31
0.0
  0
LINE
  5
120
  8
DATA
  6
CONTINUOUS
 62
     7
 10
242.47173183007359
 20
553.37800000000004
 30
0.0
 11
288.65540481350098
 21
514.24173725894855
 31
0.0
  0
LINE
  5
121
  8
DATA
  6
CONTINUOUS
 62
     7
 10
312.99124522594911
 20
493.61943108707629
 30
0.0
 11
361.46800000000002
 21
452.54000000000002
 31
0.0
  0
LINE
  5
122
  8
DATA
  6
CONTINUOUS
 62
     7
 10
357.60302119945362
 20
553.37800000000004
 30
0.0
 11
311.37660019805747
 21
514.20946523187183
 31
0.0
  0
LINE
  5
123
  8
DATA
  6
CONTINUOUS
 62
     7
 10
287.03440471613101
 20
493.5838552579217
 30
0.0
 11
238.5319999999999
 21
452.48683575463298
 31
0.0
  0
LINE
  5
124
  8
DATA
  6
CONTINUOUS
 62
     7
 10
238.5319999999999
 20
553.43236368034638
 30
0.0
 11
287.03308307619182
 21
512.33231667506516
 31
0.0
  0
LINE
  5
125
  8
DATA
  6
CONTINUOUS
 62
     7
 10
311.37389377439962
 20
491.70579865955148
 30
0.0
 11
357.59242131740251
 21
452.54000000000002
 31
0.0
  0
CIRCLE
  5
126
  8
DATA
  6
CONTINUOUS
 62
     7
 10
300.0
 20
502.95899999999989
 30
0.0
 40
6.0960000000000027
  0
ARC
  5
127
  8
DATA
  6
CONTINUOUS
 62
     7
 10
300.0
 20
-202.959
 30
0.0
 40
6.0960000000000027
 50
270.0
 51
90.0
  0
CIRCLE
  5
128
  8
DATA
  6
CONTINUOUS
 62
     7
 10
206.2739999999998
 20
-202.959
 30
0.0
 40
20.320000000000039
  0
LINE
  5
129
  8
DATA
  6
CONTINUOUS
 62
     7
 10
300.0
 20
-196.863
 30
0.0
 11
225.65804457279231
 21
-196.863
 31
0.0
  0
LINE
  5
12A
  8
DATA
  6
CONTINUOUS
 62
     7
 10
300.0
 20
-209.05500000000001
 30
0.0
 11
225.65804457279231
 21
-209.05500000000001
 31
0.0
  0
LINE
  5
12B
  8
DATA
  6
CONTINUOUS
 62
     7
 10
-175.0
 20
250.0
 30
0.0
 11
75.0
 21
250.0
 31
0.0
  0
LINE
  5
12C
  8
DATA
  6
CONTINUOUS
 62
     7
 10
2.9589999999999459
 20
244.5136
 30
0.0
 11
-102.959
 21
244.5136
 31
0.0
  0
LINE
  5
12D
  8
DATA
  6
CONTINUOUS
 62
     7
 10
-102.959
 20
250.0
 30
0.0
 11
-102.959
 21
233.744
 31
0.0
  0
LINE
  5
12E
  8
DATA
  6
CONTINUOUS
 62
     7
 10
-102.959
 20
233.744
 30
0.0
 11
2.9589999999999459
 21
233.744
 31
0.0
  0
LINE
  5
12F
  8
DATA
  6
CONTINUOUS
 62
     7
 10
2.9589999999999459
 20
250.0
 30
0.0
 11
2.9589999999999459
 21
233.744
 31
0.0
  0
LINE
  5
130
  8
DATA
  6
CONTINUOUS
 62
     7
 10
291.5
 20
243.5
 30
0.0
 11
291.5
 21
233.744
 31
0.0
  0
LINE
  5
131
  8
DATA
  6
CONTINUOUS
 62
     7
 10
308.49999999999989
 20
243.5
 30
0.0
 11
308.49999999999989
 21
233.744
 31
0.0
  0
LINE
  5
132
  8
DATA
  6
CONTINUOUS
 62
     7
 10
291.5
 20
243.5
 30
0.0
 11
308.49999999999989
 21
243.5
 31
0.0
  0
LINE
  5
133
  8
DATA
  6
CONTINUOUS
 62
     7
 10
-61.176000000000059
 20
211.90000000000001
 30
0.0
 11
-38.824000000000083
 21
211.90000000000001
 31
0.0
  0
LINE
  5
134
  8
DATA
  6
CONTINUOUS
 62
     7
 10
-61.176000000000059
 20
211.90000000000001
 30
0.0
 11
-61.176000000000059
 21
233.744
 31
0.0
  0
LINE
  5
135
  8
DATA
  6
CONTINUOUS
 62
     7
 10
-38.824000000000083
 20
211.90000000000001
 30
0.0
 11
-38.824000000000083
 21
233.744
 31
0.0
  0
ARC
  5
136
  8
DATA
  6
CONTINUOUS
 62
     7
 10
-92.489523809523817
 20
202.1552518095238
 30
0.0
 40
35.915189492436063
 50
29.322841269994949
 51
61.586596453391458
  0
ARC
  5
137
  8
DATA
  6
CONTINUOUS
 62
     7
 10
-7.51047619047631
 20
202.1552518095238
 30
0.0
 40
35.915189492436049
 50
118.41340354660851
 51
150.677158730005
  0
LINE
  5
138
  8
DATA
  6
CONTINUOUS
 62
     7
 10
-52.542000000000037
 20
219.744
 30
0.0
 11
-47.462000000000003
 21
219.744
 31
0.0
  0
LINE
  5
139
  8
DATA
  6
CONTINUOUS
 62
     7
 10
-52.542000000000037
 20
219.744
 30
0.0
 11
-52.542000000000037
 21
233.744
 31
0.0
  0
LINE
  5
13A
  8
DATA
  6
CONTINUOUS
 62
     7
 10
-47.462000000000003
 20
219.744
 30
0.0
 11
-47.462000000000003
 21
233.744
 31
0.0
  0
LINE
  5
13B
  8
DATA
  6
CONTINUOUS
 62
     7
 10
-60.750000000000007
 20
198.90000000000001
 30
0.0
 11
-39.250000000000007
 21
198.90000000000001
 31
0.0
  0
LINE
  5
13C
  8
DATA
  6
CONTINUOUS
 62
     7
 10
-60.750000000000007
 20
208.90000000000001
 30
0.0
 11
-39.250000000000007
 21
208.90000000000001
 31
0.0
  0
LINE
  5
13D
  8
DATA
  6
CONTINUOUS
 62
     7
 10
-60.750000000000007
 20
198.90000000000001
 30
0.0
 11
-60.750000000000007
 21
211.90000000000001
 31
0.0
  0
LINE
  5
13E
  8
DATA
  6
CONTINUOUS
 62
     7
 10
-50.000000000000007
 20
208.90000000000001
 30
0.0
 11
-50.000000000000007
 21
198.90000000000001
 31
0.0
  0
LINE
  5
13F
  8
DATA
  6
CONTINUOUS
 62
     7
 10
-59.309773090682718
 20
208.90000000000001
 30
0.0
 11
-59.309773090682718
 21
198.90000000000001
 31
0.0
  0
LINE
  5
140
  8
DATA
  6
CONTINUOUS
 62
     7
 10
-40.690226909317303
 20
208.90000000000001
 30
0.0
 11
-40.690226909317303
 21
198.90000000000001
 31
0.0
  0
LINE
  5
141
  8
DATA
  6
CONTINUOUS
 62
     7
 10
-39.250000000000007
 20
198.90000000000001
 30
0.0
 11
-39.250000000000007
 21
211.90000000000001
 31
0.0
  0
LINE
  5
142
  8
DATA
  6
CONTINUOUS
 62
     7
 10
-58.500000000000007
 20
243.5
 30
0.0
 11
-58.500000000000007
 21
233.744
 31
0.0
  0
LINE
  5
143
  8
DATA
  6
CONTINUOUS
 62
     7
 10
-41.500000000000007
 20
243.5
 30
0.0
 11
-41.500000000000007
 21
233.744
 31
0.0
  0
LINE
  5
144
  8
DATA
  6
CONTINUOUS
 62
     7
 10
-58.500000000000007
 20
243.5
 30
0.0
 11
-41.500000000000007
 21
243.5
 31
0.0
  0
LINE
  5
145
  8
DATA
  6
CONTINUOUS
 62
     7
 10
-56.096000000000018
 20
-20.29235542720766
 30
0.0
 11
-56.096000000000018
 21
198.90000000000001
 31
0.0
  0
LINE
  5
146
  8
DATA
  6
CONTINUOUS
 62
     7
 10
-43.904000000000011
 20
-20.29235542720766
 30
0.0
 11
-43.904000000000011
 21
198.90000000000001
 31
0.0
  0
LINE
  5
147
  8
DATA
  6
CONTINUOUS
 62
     7
 10
293.90399999999988
 20
198.90000000000001
 30
0.0
 11
293.90399999999988
 21
26.168088800000131
 31
0.0
  0
LINE
  5
148
  8
DATA
  6
CONTINUOUS
 62
     7
 10
306.096
 20
198.90000000000001
 30
0.0
 11
306.096
 21
26.168088800000131
 31
0.0
  0
LINE
  5
149
  8
DATA
  6
CONTINUOUS
 62
     7
 10
226.10907502812799
 20
-35.263668575073552
 30
0.0
 11
292.88799999999992
 21
3.2911617336304171
 31
0.0
  0
LINE
  5
14A
  8
DATA
  6
CONTINUOUS
 62
     7
 10
220.01307502812821
 20
-24.705086852133942
 30
0.0
 11
286.79199999999992
 21
13.84974345657025
 31
0.0
  0
CIRCLE
  5
14B
  8
DATA
  6
CONTINUOUS
 62
     7
 10
206.2739999999998
 20
-39.676399999999937
 30
0.0
 40
20.320000000000039
  0
ARC
  5
14C
  8
DATA
  6
CONTINUOUS
 62
     7
 10
279.68000000000001
 20
26.168088800000131
 30
0.0
 40
14.22399999999995
 50
299.99999999999937
 51
0.0
  0
ARC
  5
14D
  8
DATA
  6
CONTINUOUS
 62
     7
 10
279.68000000000001
 20
26.168088800000131
 30
0.0
 40
26.415999999999912
 50
299.99999999999972
 51
0.0
  0
CIRCLE
  5
14E
  8
DATA
  6
CONTINUOUS
 62
     7
 10
-50.000000000000007
 20
-39.676399999999937
 30
0.0
 40
20.320000000000039
  0
LINE
  5
14F
  8
DATA
  6
CONTINUOUS
 62
     7
 10
-229.9999999999998
 20
615.59633499999973
 30
0.0
 11
-0.0000000000000142
 21
615.59633499999973
 31
0.0
  0
TEXT
  5
150
  8
DATA
 62
     7
 10
-226.39999999999981
 20
617.36513499999978
 30
0.0
 40
7.902207999999999
  1
重量
 41
0.75
  0
TEXT
  5
151
  8
DATA
 62
     7
 10
-96.399999999999878
 20
617.36513499999978
 30
0.0
 40
7.902207999999999
  1
約0.6kg
 41
0.75
  0
TEXT
  5
152
  8
DATA
 62
     7
 10
-92.333333333333357
 20
-194.55555555555549
 30
0.0
 40
11.28888888888889
  1
天井　取付図
 41
0.75
  0
POLYLINE
  5
153
  8
DATA
  6
CONTINUOUS
 62
     7
 66
     1
 10
0.0
 20
0.0
 30
0.0
 70
     1
  0
VERTEX
  5
1C2
  8
DATA
  6
CONTINUOUS
 62
     7
 10
-100.0
 20
-175.0
 30
0.0
  0
VERTEX
  5
1C3
  8
DATA
  6
CONTINUOUS
 62
     7
 10
0.0
 20
-175.0
 30
0.0
  0
VERTEX
  5
1C4
  8
DATA
  6
CONTINUOUS
 62
     7
 10
0.0
 20
-200.0
 30
0.0
  0
VERTEX
  5
1C5
  8
DATA
  6
CONTINUOUS
 62
     7
 10
-100.0
 20
-200.0
 30
0.0
  0
SEQEND
  5
1C6
  8
DATA
  6
CONTINUOUS
 62
     7
  0
TEXT
  5
159
  8
DATA
 62
     7
 10
-64.1865715983363
 20
292.9067142008318
 30
0.0
 40
11.34925727866904
  1
天井
 41
0.75
  0
LINE
  5
15A
  8
DATA
  6
CONTINUOUS
 62
     7
 10
167.00000002980229
 20
250.0
 30
0.0
 11
142.00000002980229
 21
250.0
 31
0.0
  0
LINE
  5
15B
  8
DATA
  6
CONTINUOUS
 62
     7
 10
198.27400002980221
 20
-59.996399999999987
 30
0.0
 11
142.00000002980229
 21
-59.996399999999987
 31
0.0
  0
LINE
  5
15D
  8
DATA
 62
     7
 10
150.0
 20
250.0
 30
0.0
 11
153.4029547438752
 21
237.30000000000001
 31
0.0
  0
LINE
  5
15E
  8
DATA
 62
     7
 10
150.0
 20
250.0
 30
0.0
 11
146.59704525612469
 21
237.30000000000001
 31
0.0
  0
LINE
  5
15F
  8
DATA
 62
     7
 10
150.0
 20
-59.996399999999987
 30
0.0
 11
146.59704525612469
 21
-47.296399999999998
 31
0.0
  0
LINE
  5
160
  8
DATA
 62
     7
 10
150.0
 20
-59.996399999999987
 30
0.0
 11
153.4029547438752
 21
-47.296399999999998
 31
0.0
  0
LINE
  5
15C
  8
DATA
  6
CONTINUOUS
 62
     7
 10
150.0
 20
250.0
 30
0.0
 11
150.0
 21
-59.996399999999987
 31
0.0
  0
INSERT
  5
161
  8
DATA
 62
     7
  2
*U7
 10
100.0
 20
140.0
 30
0.0
  0
LINE
  5
162
  8
DATA
  6
CONTINUOUS
 62
     7
 10
185.95399999999981
 20
-47.676399970197622
 30
0.0
 11
185.95399999999981
 21
-107.99999997019761
 31
0.0
  0
LINE
  5
163
  8
DATA
  6
CONTINUOUS
 62
     7
 10
364.00799999999998
 20
225.74400002980229
 30
0.0
 11
364.00799999999998
 21
-107.99999997019761
 31
0.0
  0
LINE
  5
165
  8
DATA
 62
     7
 10
185.95399999999981
 20
-100.0
 30
0.0
 11
198.6539999999998
 21
-96.597045256124744
 31
0.0
  0
LINE
  5
166
  8
DATA
 62
     7
 10
185.95399999999981
 20
-100.0
 30
0.0
 11
198.6539999999998
 21
-103.4029547438752
 31
0.0
  0
LINE
  5
167
  8
DATA
 62
     7
 10
364.00799999999998
 20
-100.0
 30
0.0
 11
351.30799999999999
 21
-103.4029547438752
 31
0.0
  0
LINE
  5
168
  8
DATA
 62
     7
 10
364.00799999999998
 20
-100.0
 30
0.0
 11
351.30799999999999
 21
-96.597045256124744
 31
0.0
  0
LINE
  5
164
  8
DATA
  6
CONTINUOUS
 62
     7
 10
185.95399999999981
 20
-100.0
 30
0.0
 11
364.00799999999998
 21
-100.0
 31
0.0
  0
INSERT
  5
169
  8
DATA
 62
     7
  2
*U8
 10
100.0
 20
140.0
 30
0.0
  0
LINE
  5
16A
  8
DATA
  6
CONTINUOUS
 62
     7
 10
75.0
 20
250.0
 30
0.0
 11
0.0
 21
350.0
 31
0.0
  0
LINE
  5
16B
  8
DATA
  6
CONTINUOUS
 62
     7
 10
25.0
 20
250.0
 30
0.0
 11
-50.000000000000007
 21
350.0
 31
0.0
  0
LINE
  5
16C
  8
DATA
  6
CONTINUOUS
 62
     7
 10
-25.0
 20
250.0
 30
0.0
 11
-53.124999999999332
 21
287.5
 31
0.0
  0
LINE
  5
16D
  8
DATA
  6
CONTINUOUS
 62
     7
 10
-71.875000000000668
 20
312.5
 30
0.0
 11
-100.0
 21
350.0
 31
0.0
  0
LINE
  5
16E
  8
DATA
  6
CONTINUOUS
 62
     7
 10
-75.000000000000014
 20
250.0
 30
0.0
 11
-150.0
 21
350.0
 31
0.0
  0
LINE
  5
16F
  8
DATA
  6
CONTINUOUS
 62
     7
 10
-125.0
 20
250.0
 30
0.0
 11
-175.0
 21
316.66666666666657
 31
0.0
  0
TEXT
  5
170
  8
DATA
 62
     7
 10
285.81342840166371
 20
292.9067142008318
 30
0.0
 40
11.34925727866904
  1
天井
 41
0.75
  0
LINE
  5
171
  8
DATA
  6
CONTINUOUS
 62
     7
 10
425.0
 20
250.0
 30
0.0
 11
350.0
 21
350.0
 31
0.0
  0
LINE
  5
172
  8
DATA
  6
CONTINUOUS
 62
     7
 10
375.0
 20
250.0
 30
0.0
 11
300.0
 21
350.0
 31
0.0
  0
LINE
  5
173
  8
DATA
  6
CONTINUOUS
 62
     7
 10
325.0
 20
250.0
 30
0.0
 11
296.87500000000063
 21
287.5
 31
0.0
  0
LINE
  5
174
  8
DATA
  6
CONTINUOUS
 62
     7
 10
281.30054561568738
 20
312.5
 30
0.0
 11
250.0
 21
350.0
 31
0.0
  0
LINE
  5
175
  8
DATA
  6
CONTINUOUS
 62
     7
 10
275.0
 20
250.0
 30
0.0
 11
200.0
 21
350.0
 31
0.0
  0
LINE
  5
176
  8
DATA
  6
CONTINUOUS
 62
     7
 10
225.0
 20
250.0
 30
0.0
 11
175.0
 21
316.66666666666657
 31
0.0
  0
LINE
  5
177
  8
DATA
  6
CONTINUOUS
 62
     7
 10
425.0
 20
316.66666666666742
 30
0.0
 11
400.0
 21
350.0
 31
0.0
  0
LINE
  5
178
  8
DATA
  6
CONTINUOUS
 62
     7
 10
75.0
 20
316.66666666666617
 30
0.0
 11
50.0
 21
350.0
 31
0.0
  0
CIRCLE
  5
179
  8
DATA
  6
CONTINUOUS
 62
     7
 10
206.2739999999998
 20
502.95899999999989
 30
0.0
 40
20.320000000000039
  0
LINE
  5
17A
  8
DATA
  6
CONTINUOUS
 62
     7
 10
225.84731460579309
 20
508.4168159865136
 30
0.0
 11
235.9919999999999
 21
508.4168159865136
 31
0.0
  0
LINE
  5
17B
  8
DATA
  6
CONTINUOUS
 62
     7
 10
225.44567613101421
 20
496.22481598651359
 30
0.0
 11
235.9919999999999
 21
496.22481598651359
 31
0.0
  0
ENDSEC
  0
EOF
