  0
SECTION
  2
HEADER
  9
$ACADVER
  1
AC1009
  9
$INSBASE
 10
0.0
 20
0.0
 30
0.0
  9
$EXTMIN
 10
-575.04119558730315
 20
-869.20752730711945
 30
-0.0015258207003583
  9
$EXTMAX
 10
775.04120187373019
 20
1138.017960677714
 30
0.0000000349246037
  9
$LIMMIN
 10
0.0
 20
0.0
  9
$LIMMAX
 10
0.0
 20
0.0
  9
$ORTHOMODE
 70
     0
  9
$REGENMODE
 70
     1
  9
$FILLMODE
 70
     1
  9
$QTEXTMODE
 70
     0
  9
$MIRRTEXT
 70
     1
  9
$DRAGMODE
 70
     2
  9
$LTSCALE
 40
38.100000000000001
  9
$OSMODE
 70
   167
  9
$ATTMODE
 70
     1
  9
$TEXTSIZE
 40
0.0
  9
$TRACEWID
 40
1.0
  9
$TEXTSTYLE
  7
STANDARD
  9
$CLAYER
  8
DATA
  9
$CELTYPE
  6
CONTINUOUS
  9
$CECOLOR
 62
   256
  9
$DIMSCALE
 40
1.0
  9
$DIMASZ
 40
0.18
  9
$DIMEXO
 40
0.0625
  9
$DIMDLI
 40
0.38
  9
$DIMRND
 40
0.0
  9
$DIMDLE
 40
0.0
  9
$DIMEXE
 40
0.18
  9
$DIMTP
 40
0.0
  9
$DIMTM
 40
0.0
  9
$DIMTXT
 40
0.18
  9
$DIMCEN
 40
0.09
  9
$DIMTSZ
 40
0.0
  9
$DIMTOL
 70
     0
  9
$DIMLIM
 70
     0
  9
$DIMTIH
 70
     1
  9
$DIMTOH
 70
     1
  9
$DIMSE1
 70
     0
  9
$DIMSE2
 70
     0
  9
$DIMTAD
 70
     0
  9
$DIMZIN
 70
     0
  9
$DIMBLK
  1

  9
$DIMASO
 70
     1
  9
$DIMSHO
 70
     1
  9
$DIMPOST
  1

  9
$DIMAPOST
  1

  9
$DIMALT
 70
     0
  9
$DIMALTD
 70
     2
  9
$DIMALTF
 40
25.399999999999999
  9
$DIMLFAC
 40
1.0
  9
$DIMTOFL
 70
     0
  9
$DIMTVP
 40
0.0
  9
$DIMTIX
 70
     0
  9
$DIMSOXD
 70
     0
  9
$DIMSAH
 70
     0
  9
$DIMBLK1
  1

  9
$DIMBLK2
  1

  9
$DIMSTYLE
  2
STANDARD
  9
$DIMCLRD
 70
     0
  9
$DIMCLRE
 70
     0
  9
$DIMCLRT
 70
     0
  9
$DIMTFAC
 40
1.0
  9
$DIMGAP
 40
0.09
  9
$LUNITS
 70
     2
  9
$LUPREC
 70
     4
  9
$SKETCHINC
 40
0.1
  9
$FILLETRAD
 40
0.0
  9
$AUNITS
 70
     0
  9
$AUPREC
 70
     0
  9
$MENU
  1
acad
  9
$ELEVATION
 40
0.0
  9
$PELEVATION
 40
0.0
  9
$THICKNESS
 40
0.0
  9
$LIMCHECK
 70
     0
  9
$BLIPMODE
 70
     0
  9
$CHAMFERA
 40
0.0
  9
$CHAMFERB
 40
0.0
  9
$SKPOLY
 70
     0
  9
$TDCREATE
 40
2453181.4823611109
  9
$TDUPDATE
 40
2453181.4829181139
  9
$TDINDWG
 40
0.0004568171
  9
$TDUSRTIMER
 40
0.0004553704
  9
$USRTIMER
 70
     1
  9
$ANGBASE
 50
0.0
  9
$ANGDIR
 70
     0
  9
$PDMODE
 70
     1
  9
$PDSIZE
 40
-2.0
  9
$PLINEWID
 40
0.0
  9
$COORDS
 70
     0
  9
$SPLFRAME
 70
     0
  9
$SPLINETYPE
 70
     6
  9
$SPLINESEGS
 70
     8
  9
$ATTDIA
 70
     0
  9
$ATTREQ
 70
     1
  9
$HANDLING
 70
     1
  9
$HANDSEED
  5
888
  9
$SURFTAB1
 70
     6
  9
$SURFTAB2
 70
     6
  9
$SURFTYPE
 70
     6
  9
$SURFU
 70
     6
  9
$SURFV
 70
     6
  9
$UCSNAME
  2

  9
$UCSORG
 10
0.0
 20
0.0
 30
0.0
  9
$UCSXDIR
 10
1.0
 20
0.0
 30
0.0
  9
$UCSYDIR
 10
0.0
 20
1.0
 30
0.0
  9
$PUCSNAME
  2

  9
$PUCSORG
 10
0.0
 20
0.0
 30
0.0
  9
$PUCSXDIR
 10
1.0
 20
0.0
 30
0.0
  9
$PUCSYDIR
 10
0.0
 20
1.0
 30
0.0
  9
$USERI1
 70
     0
  9
$USERI2
 70
     0
  9
$USERI3
 70
     0
  9
$USERI4
 70
     0
  9
$USERI5
 70
     0
  9
$USERR1
 40
0.0
  9
$USERR2
 40
0.0
  9
$USERR3
 40
0.0
  9
$USERR4
 40
0.0
  9
$USERR5
 40
0.0
  9
$WORLDVIEW
 70
     1
  9
$SHADEDGE
 70
     3
  9
$SHADEDIF
 70
    70
  9
$TILEMODE
 70
     1
  9
$MAXACTVP
 70
    16
  9
$PLIMCHECK
 70
     0
  9
$PEXTMIN
 10
1.0000000000000000E+020
 20
1.0000000000000000E+020
 30
1.0000000000000000E+020
  9
$PEXTMAX
 10
-1.0000000000000000E+020
 20
-1.0000000000000000E+020
 30
-1.0000000000000000E+020
  9
$PLIMMIN
 10
0.0
 20
0.0
  9
$PLIMMAX
 10
12.0
 20
9.0
  9
$UNITMODE
 70
     0
  9
$VISRETAIN
 70
     0
  9
$PLINEGEN
 70
     1
  9
$PSLTSCALE
 70
     0
  0
ENDSEC
  0
SECTION
  2
TABLES
  0
TABLE
  2
VPORT
 70
     2
  0
VPORT
  2
*ACTIVE
 70
     0
 10
0.0
 20
0.0
 11
1.0
 21
1.0
 12
100.00000314321341
 22
134.40521668529749
 13
0.0
 23
0.0
 14
1.0
 24
1.0
 15
0.0
 25
0.0
 16
0.0
 26
0.0
 36
1.0
 17
0.0
 27
0.0
 37
0.0
 40
2023.1769488165021
 41
1.5994694960212199
 42
50.0
 43
0.0
 44
0.0
 50
0.0
 51
0.0
 71
     0
 72
   100
 73
     1
 74
     1
 75
     0
 76
     0
 77
     0
 78
     0
  0
ENDTAB
  0
TABLE
  2
LTYPE
 70
    11
  0
LTYPE
  2
CONTINUOUS
 70
     0
  3
Solid line
 72
    65
 73
     0
 40
0.0
  0
ENDTAB
  0
TABLE
  2
LAYER
 70
     6
  0
LAYER
  2
0
 70
     0
 62
     7
  6
CONTINUOUS
  0
LAYER
  2
DATA
 70
     0
 62
     7
  6
CONTINUOUS
  0
LAYER
  2
DEFPOINTS
 70
     0
 62
     7
  6
CONTINUOUS
  0
LAYER
  2
HIBINO-BASE
 70
     0
 62
     7
  6
CONTINUOUS
  0
LAYER
  2
SPEC
 70
     0
 62
     7
  6
CONTINUOUS
  0
LAYER
  2
DIMNSIONS
 70
     0
 62
     7
  6
CONTINUOUS
  0
ENDTAB
  0
TABLE
  2
STYLE
 70
     2
  0
STYLE
  2
STANDARD
 70
     0
 40
0.0
 41
1.0
 50
0.0
 71
     0
 42
0.0
  3
txt
  4
BIGFONT.SHX
  0
ENDTAB
  0
TABLE
  2
VIEW
 70
     0
  0
ENDTAB
  0
TABLE
  2
UCS
 70
     0
  0
ENDTAB
  0
TABLE
  2
APPID
 70
     1
  0
APPID
  2
ACAD
 70
     0
  0
ENDTAB
  0
TABLE
  2
DIMSTYLE
 70
     1
  0
DIMSTYLE
  2
STANDARD
 70
     0
  3

  4

  5

  6

  7

 40
1.0
 41
0.18
 42
0.0625
 43
0.38
 44
0.18
 45
0.0
 46
0.0
 47
0.0
 48
0.0
140
0.18
141
0.09
142
0.0
143
25.399999999999999
144
1.0
145
0.0
146
1.0
147
0.09
 71
     0
 72
     0
 73
     1
 74
     1
 75
     0
 76
     0
 77
     0
 78
     0
170
     0
171
     2
172
     0
173
     0
174
     0
175
     0
176
     0
177
     0
178
     0
  0
ENDTAB
  0
ENDSEC
  0
SECTION
  2
BLOCKS
  0
BLOCK
  8
0
  2
$MODEL_SPACE
 70
     0
 10
0.0
 20
0.0
 30
0.0
  3
$MODEL_SPACE
  1

  0
ENDBLK
  5
4EA
  8
0
  0
BLOCK
 67
     1
  8
0
  2
$PAPER_SPACE
 70
     0
 10
0.0
 20
0.0
 30
0.0
  3
$PAPER_SPACE
  1

  0
ENDBLK
  5
4E6
 67
     1
  8
0
  0
ENDSEC
  0
SECTION
  2
ENTITIES
  0
LINE
  5
2D
  8
HIBINO-BASE
 62
     7
 10
-574.99999999999989
 20
1137.9568300000001
 30
0.0
 11
775.0
 21
1137.9568300000001
 31
0.0
  0
LINE
  5
2E
  8
HIBINO-BASE
 62
     7
 10
775.0
 20
-812.04316999999969
 30
0.0
 11
-574.99999999999989
 21
-812.04316999999969
 31
0.0
  0
LINE
  5
2F
  8
HIBINO-BASE
 62
     7
 10
-574.99999999999989
 20
-812.04316999999969
 30
0.0
 11
-574.99999999999989
 21
1137.9568300000001
 31
0.0
  0
TEXT
  5
30
  8
HIBINO-BASE
 62
     7
 10
-521.11999999999978
 20
-860.10825779999971
 30
0.0
 40
27.000335195312491
  1
Hibino Corporation
 41
0.8
 11
-521.11999999999978
 21
-833.10792260468736
 31
0.0
 73
     3
  0
LINE
  5
31
  8
HIBINO-BASE
 62
     7
 10
775.0
 20
1137.9568300000001
 30
0.0
 11
775.0
 21
-812.04316999999969
 31
0.0
  0
LINE
  5
32
  8
HIBINO-BASE
 62
     7
 10
100.0
 20
-643.2931699999998
 30
0.0
 11
775.0
 21
-643.2931699999998
 31
0.0
  0
LINE
  5
33
  8
HIBINO-BASE
 62
     7
 10
100.0
 20
-812.04316999999969
 30
0.0
 11
100.0
 21
-643.2931699999998
 31
0.0
  0
TEXT
  5
34
  8
HIBINO-BASE
 62
     7
 10
106.75
 20
-663.54319399999974
 30
0.0
 40
13.500194531249999
  1
NOTE
 41
0.8
 11
106.75
 21
-650.04299946874983
 31
0.0
 73
     3
  0
LINE
  5
35
  8
HIBINO-BASE
 62
     7
 10
362.5
 20
-812.04316999999969
 30
0.0
 11
362.5
 21
-643.2931699999998
 31
0.0
  0
TEXT
  5
36
  8
HIBINO-BASE
 62
     7
 10
369.25
 20
-663.54319399999974
 30
0.0
 40
13.500194531249999
  1
TITLE
 41
0.8
 11
369.25
 21
-650.04299946874983
 31
0.0
 73
     3
  0
TEXT
  5
37
  8
HIBINO-BASE
 62
     7
 10
475.51292999999998
 20
-860.10825779999971
 30
0.0
 40
27.000335195312491
  1
ヒビノ株式会社
 41
0.8
 11
475.51292999999998
 21
-833.10792260468736
 31
0.0
 73
     3
  0
LINE
  5
38
  8
HIBINO-BASE
 62
     7
 10
100.0
 20
-737.0431699999998
 30
0.0
 11
775.0
 21
-737.0431699999998
 31
0.0
  0
TEXT
  5
39
  8
HIBINO-BASE
 62
     7
 10
463.0
 20
-756.87079400000016
 30
0.0
 40
13.500194531249999
  1
DRAWN
 41
0.8
 11
463.0
 21
-743.37059946875013
 31
0.0
 73
     3
  0
TEXT
  5
3A
  8
HIBINO-BASE
 62
     7
 10
275.49999999999989
 20
-756.87079400000016
 30
0.0
 40
13.500194531249999
  1
DATE
 41
0.8
 11
275.49999999999989
 21
-743.37059946875013
 31
0.0
 73
     3
  0
TEXT
  5
3B
  8
HIBINO-BASE
 62
     7
 10
108.25
 20
-756.6890957999999
 30
0.0
 40
12.216331679687499
  1
図面サイズ
 41
0.8
 11
108.25
 21
-744.47276412031226
 31
0.0
 73
     3
  0
TEXT
  5
3C
  8
HIBINO-BASE
 62
     7
 10
200.5
 20
-756.87079400000016
 30
0.0
 40
13.500194531249999
  1
SCALE
 41
0.8
 11
200.5
 21
-743.37059946875013
 31
0.0
 73
     3
  0
TEXT
  5
3D
  8
HIBINO-BASE
 62
     7
 10
369.25
 20
-756.87079400000016
 30
0.0
 40
13.500194531249999
  1
DESIGN
 41
0.8
 11
369.25
 21
-743.37059946875013
 31
0.0
 73
     3
  0
TEXT
  5
3E
  8
HIBINO-BASE
 62
     7
 10
650.49999999999989
 20
-756.87079400000016
 30
0.0
 40
13.500194531249999
  1
DRAWING NO.
 41
0.8
 11
650.49999999999989
 21
-743.37059946875013
 31
0.0
 73
     3
  0
TEXT
  5
3F
  8
HIBINO-BASE
 62
     7
 10
556.74999999999989
 20
-756.87079400000016
 30
0.0
 40
13.500194531249999
  1
CHECK
 41
0.8
 11
556.74999999999989
 21
-743.37059946875013
 31
0.0
 73
     3
  0
LINE
  5
40
  8
HIBINO-BASE
 62
     7
 10
207.8125
 20
-802.66816999999969
 30
0.0
 11
235.9375
 21
-774.5431699999998
 31
0.0
  0
TEXT
  5
41
  8
HIBINO-BASE
 62
     7
 10
203.125
 20
-787.41106899999966
 30
0.0
 40
16.288398632812498
  1
1
 41
0.8
 11
203.125
 21
-771.12267036718731
 31
0.0
 73
     3
  0
LINE
  5
42
  8
HIBINO-BASE
 62
     7
 10
193.75
 20
-812.04316999999969
 30
0.0
 11
193.75
 21
-737.0431699999998
 31
0.0
  0
LINE
  5
43
  8
HIBINO-BASE
 62
     7
 10
268.75
 20
-812.04316999999969
 30
0.0
 11
268.75
 21
-737.0431699999998
 31
0.0
  0
LINE
  5
44
  8
HIBINO-BASE
 62
     7
 10
456.25
 20
-737.0431699999998
 30
0.0
 11
456.25
 21
-812.04316999999969
 31
0.0
  0
LINE
  5
45
  8
HIBINO-BASE
 62
     7
 10
643.75
 20
-737.0431699999998
 30
0.0
 11
643.75
 21
-812.04316999999969
 31
0.0
  0
LINE
  5
46
  8
HIBINO-BASE
 62
     7
 10
549.99999999999989
 20
-812.04316999999969
 30
0.0
 11
549.99999999999989
 21
-737.0431699999998
 31
0.0
  0
TEXT
  5
47
  8
HIBINO-BASE
 62
     7
 10
129.33167999999989
 20
-793.30475280000007
 30
0.0
 40
24.432601796875002
  1
A4
 41
0.8
 11
129.33167999999989
 21
-768.87215100312505
 31
0.0
 73
     3
  0
TEXT
  5
48
  8
HIBINO-BASE
 62
     7
 10
275.17405000000002
 20
-792.00064399999985
 30
0.0
 40
13.500194531249999
  1
'01.09.
 41
0.8
 11
275.17405000000002
 21
-778.50044946874982
 31
0.0
 73
     3
  0
TEXT
  5
49
  8
HIBINO-BASE
 62
     7
 10
231.25
 20
-801.47356899999977
 30
0.0
 40
16.288398632812498
  1
7.5
 41
0.8
 11
231.25
 21
-785.18517036718731
 31
0.0
 73
     3
  0
LINE
  5
4A
  8
SPEC
 62
     7
 10
-518.75
 20
1062.9568300000001
 30
0.0
 11
150.0
 21
1062.9568300000001
 31
0.0
  0
LINE
  5
4B
  8
SPEC
 62
     7
 10
-518.75
 20
1034.8318300000001
 30
0.0
 11
150.0
 21
1034.8318300000001
 31
0.0
  0
TEXT
  5
4C
  8
SPEC
 62
     7
 10
-509.375
 20
1073.406359999999
 30
0.0
 40
18.324462890625
  1
仕様
 41
0.8
 11
-509.375
 21
1091.7308228906249
 31
0.0
 73
     3
  0
TEXT
  5
4D
  8
SPEC
 62
     7
 10
-512.0
 20
1040.7412420000001
 30
0.0
 40
14.252334375
  1
寸法
 41
0.8
 11
-512.0
 21
1054.993576375
 31
0.0
 73
     3
  0
TEXT
  5
4E
  8
SPEC
 62
     7
 10
-268.25
 20
1040.7412420000001
 30
0.0
 40
14.252334375
  1
533.1(W)×245(H)×89.5(D)mm
 41
0.8
 11
-268.25
 21
1054.993576375
 31
0.0
 73
     3
  0
LINE
  5
4F
  8
SPEC
 62
     7
 10
-518.75
 20
1062.9568300000001
 30
0.0
 11
-518.75
 21
1006.70183
 31
0.0
  0
LINE
  5
50
  8
SPEC
 62
     7
 10
-275.0
 20
1062.9568300000001
 30
0.0
 11
-275.0
 21
1006.70183
 31
0.0
  0
LINE
  5
51
  8
SPEC
 62
     7
 10
150.0
 20
1062.9568300000001
 30
0.0
 11
150.0
 21
1006.70183
 31
0.0
  0
LINE
  5
52
  8
SPEC
 62
     7
 10
-518.75
 20
1006.70183
 30
0.0
 11
150.0
 21
1006.70183
 31
0.0
  0
TEXT
  5
53
  8
SPEC
 62
     7
 10
-512.0
 20
1012.6112419999999
 30
0.0
 40
14.252334375
  1
重量
 41
0.8
 11
-512.0
 21
1026.8635763750001
 31
0.0
 73
     3
  0
TEXT
  5
54
  8
SPEC
 62
     7
 10
-268.25
 20
1012.6112419999999
 30
0.0
 40
14.252334375
  1
約2.1Kg
 41
0.8
 11
-268.25
 21
1026.8635763750001
 31
0.0
 73
     3
  0
TEXT
  5
55
  8
DIMNSIONS
 62
     7
 10
-50.000000000000021
 20
-720.02199999999982
 30
0.0
 40
18.324462890625
  1
(単位：mm)
 41
0.8
 11
-50.000000000000021
 21
-701.69753710937482
 31
0.0
 73
     3
  0
LINE
  5
56
  8
DIMNSIONS
 62
     7
 10
-69.927000000000007
 20
325.81300005587917
 30
0.0
 11
-69.927000000000007
 21
235.0000000558793
 31
0.0
  0
LINE
  5
57
  8
DIMNSIONS
 62
     7
 10
-196.92699999999999
 20
325.81300005587917
 30
0.0
 11
-196.92699999999999
 21
235.0000000558793
 31
0.0
  0
LINE
  5
58
  8
DIMNSIONS
 62
     7
 10
-69.927000000000007
 20
250.0
 30
0.0
 11
-196.92699999999999
 21
250.0
 31
0.0
  0
LINE
  5
59
  8
DIMNSIONS
 62
     7
 10
-69.927000000000007
 20
250.0
 30
0.0
 11
-93.739500000000007
 21
243.6194598552338
 31
0.0
  0
LINE
  5
5A
  8
DIMNSIONS
 62
     7
 10
-69.927000000000007
 20
250.0
 30
0.0
 11
-93.739500000000007
 21
256.38054014476609
 31
0.0
  0
LINE
  5
5B
  8
DIMNSIONS
 62
     7
 10
-196.92699999999999
 20
250.0
 30
0.0
 11
-173.11449999999991
 21
256.38054014476609
 31
0.0
  0
LINE
  5
5C
  8
DIMNSIONS
 62
     7
 10
-196.92699999999999
 20
250.0
 30
0.0
 11
-173.11449999999991
 21
243.6194598552338
 31
0.0
  0
TEXT
  5
5D
  8
DIMNSIONS
 62
     7
 10
-153.2707626163164
 20
261.20416899999992
 30
0.0
 40
20.360527148437509
  1
127
 41
0.8
 11
-153.2707626163164
 21
281.56469614843741
 31
0.0
 73
     3
  0
LINE
  5
5E
  8
DIMNSIONS
 62
     7
 10
18.972999999999999
 20
302.44500005587918
 30
0.0
 11
18.972999999999999
 21
185.0000000558793
 31
0.0
  0
LINE
  5
5F
  8
DIMNSIONS
 62
     7
 10
-285.827
 20
302.44500005587918
 30
0.0
 11
-285.827
 21
185.0000000558793
 31
0.0
  0
LINE
  5
60
  8
DIMNSIONS
 62
     7
 10
18.972999999999999
 20
200.0
 30
0.0
 11
-285.827
 21
200.0
 31
0.0
  0
LINE
  5
61
  8
DIMNSIONS
 62
     7
 10
18.972999999999999
 20
200.0
 30
0.0
 11
-4.839500000000001
 21
193.6194598552338
 31
0.0
  0
LINE
  5
62
  8
DIMNSIONS
 62
     7
 10
18.972999999999999
 20
200.0
 30
0.0
 11
-4.839500000000001
 21
206.38054014476609
 31
0.0
  0
LINE
  5
63
  8
DIMNSIONS
 62
     7
 10
-285.827
 20
200.0
 30
0.0
 11
-262.01449999999988
 21
206.38054014476609
 31
0.0
  0
LINE
  5
64
  8
DIMNSIONS
 62
     7
 10
-285.827
 20
200.0
 30
0.0
 11
-262.01449999999988
 21
193.6194598552338
 31
0.0
  0
TEXT
  5
65
  8
DIMNSIONS
 62
     7
 10
-166.49993685277289
 20
211.20416899999989
 30
0.0
 40
20.360527148437509
  1
304.8
 41
0.8
 11
-166.49993685277289
 21
231.56469614843741
 31
0.0
 73
     3
  0
LINE
  5
66
  8
DIMNSIONS
 62
     7
 10
-336.6269999999999
 20
302.44500005587918
 30
0.0
 11
-336.6269999999999
 21
135.0000000558793
 31
0.0
  0
LINE
  5
67
  8
DIMNSIONS
 62
     7
 10
69.772999999999996
 20
302.44500005587918
 30
0.0
 11
69.772999999999996
 21
135.0000000558793
 31
0.0
  0
LINE
  5
68
  8
DIMNSIONS
 62
     7
 10
-336.6269999999999
 20
150.0
 30
0.0
 11
69.772999999999996
 21
150.0
 31
0.0
  0
LINE
  5
69
  8
DIMNSIONS
 62
     7
 10
-336.6269999999999
 20
150.0
 30
0.0
 11
-312.8144999999999
 21
156.38054014476609
 31
0.0
  0
LINE
  5
6A
  8
DIMNSIONS
 62
     7
 10
-336.6269999999999
 20
150.0
 30
0.0
 11
-312.8144999999999
 21
143.6194598552338
 31
0.0
  0
LINE
  5
6B
  8
DIMNSIONS
 62
     7
 10
69.772999999999996
 20
150.0
 30
0.0
 11
45.960499999999989
 21
143.6194598552338
 31
0.0
  0
LINE
  5
6C
  8
DIMNSIONS
 62
     7
 10
69.772999999999996
 20
150.0
 30
0.0
 11
45.960499999999989
 21
156.38054014476609
 31
0.0
  0
TEXT
  5
6D
  8
DIMNSIONS
 62
     7
 10
-166.49993685277289
 20
161.20416899999989
 30
0.0
 40
20.360527148437509
  1
406.4
 41
0.8
 11
-166.49993685277289
 21
181.56469614843741
 31
0.0
 73
     3
  0
LINE
  5
6E
  8
DIMNSIONS
 62
     7
 10
144.64999994412059
 20
389.5
 30
0.0
 11
264.99999994412059
 21
389.5
 31
0.0
  0
LINE
  5
6F
  8
DIMNSIONS
 62
     7
 10
144.64999994412059
 20
300.0
 30
0.0
 11
264.99999994412059
 21
300.0
 31
0.0
  0
LINE
  5
70
  8
DIMNSIONS
 62
     7
 10
250.0
 20
389.5
 30
0.0
 11
250.0
 21
300.0
 31
0.0
  0
LINE
  5
71
  8
DIMNSIONS
 62
     7
 10
250.0
 20
389.5
 30
0.0
 11
256.38054014476597
 21
365.6875
 31
0.0
  0
LINE
  5
72
  8
DIMNSIONS
 62
     7
 10
250.0
 20
389.5
 30
0.0
 11
243.6194598552338
 21
365.6875
 31
0.0
  0
LINE
  5
73
  8
DIMNSIONS
 62
     7
 10
250.0
 20
300.0
 30
0.0
 11
243.6194598552338
 21
323.8125
 31
0.0
  0
LINE
  5
74
  8
DIMNSIONS
 62
     7
 10
250.0
 20
300.0
 30
0.0
 11
256.38054014476609
 21
323.8125
 31
0.0
  0
TEXT
  5
75
  8
DIMNSIONS
 62
     7
 10
238.79583099999999
 20
318.29165152708691
 30
0.0
 40
20.360527148437509
  1
89.5
 50
90.0
 41
0.8
 11
218.43530385156251
 21
318.29165152708691
 31
0.0
 73
     3
  0
LINE
  5
76
  8
DIMNSIONS
 62
     7
 10
385.0000000558793
 20
-67.69999999999996
 30
0.0
 11
335.0000000558793
 21
-67.69999999999996
 31
0.0
  0
LINE
  5
77
  8
DIMNSIONS
 62
     7
 10
385.0000000558793
 20
-54.999999999999972
 30
0.0
 11
335.0000000558793
 21
-54.999999999999972
 31
0.0
  0
LINE
  5
78
  8
DIMNSIONS
 62
     7
 10
350.0
 20
-54.999999999999972
 30
0.0
 11
350.0
 21
-67.69999999999996
 31
0.0
  0
LINE
  5
79
  8
DIMNSIONS
 62
     7
 10
350.0
 20
-67.69999999999996
 30
0.0
 11
350.0
 21
-105.2000000377185
 31
0.0
  0
LINE
  5
7A
  8
DIMNSIONS
 62
     7
 10
350.0
 20
-67.69999999999996
 30
0.0
 11
356.38054014476609
 21
-91.512499999999946
 31
0.0
  0
LINE
  5
7B
  8
DIMNSIONS
 62
     7
 10
350.0
 20
-67.69999999999996
 30
0.0
 11
343.61945985523391
 21
-91.512499999999946
 31
0.0
  0
LINE
  5
7C
  8
DIMNSIONS
 62
     7
 10
350.0
 20
-54.999999999999972
 30
0.0
 11
350.0
 21
27.9166969458262
 31
0.0
  0
LINE
  5
7D
  8
DIMNSIONS
 62
     7
 10
350.0
 20
-54.999999999999972
 30
0.0
 11
343.61945985523391
 21
-31.187499999999972
 31
0.0
  0
LINE
  5
7E
  8
DIMNSIONS
 62
     7
 10
350.0
 20
-54.999999999999972
 30
0.0
 11
356.38054014476609
 21
-31.187499999999972
 31
0.0
  0
TEXT
  5
7F
  8
DIMNSIONS
 62
     7
 10
338.79583100000002
 20
-25.000000000000028
 30
0.0
 40
20.360527148437509
  1
12.7
 50
90.0
 41
0.8
 11
318.43530385156248
 21
-25.000000000000028
 31
0.0
 73
     3
  0
LINE
  5
80
  8
DIMNSIONS
 62
     7
 10
400.0
 20
-40.000000055879319
 30
0.0
 11
400.0
 21
14.99999994412064
 31
0.0
  0
LINE
  5
81
  8
DIMNSIONS
 62
     7
 10
489.5
 20
-40.000000055879319
 30
0.0
 11
489.5
 21
14.99999994412064
 31
0.0
  0
LINE
  5
82
  8
DIMNSIONS
 62
     7
 10
400.0
 20
0.0
 30
0.0
 11
489.5
 21
0.0
 31
0.0
  0
LINE
  5
83
  8
DIMNSIONS
 62
     7
 10
400.0
 20
0.0
 30
0.0
 11
423.8125
 21
6.3805401447661154
 31
0.0
  0
LINE
  5
84
  8
DIMNSIONS
 62
     7
 10
400.0
 20
0.0
 30
0.0
 11
423.8125
 21
-6.3805401447661154
 31
0.0
  0
LINE
  5
85
  8
DIMNSIONS
 62
     7
 10
489.5
 20
0.0
 30
0.0
 11
465.6875
 21
-6.3805401447661154
 31
0.0
  0
LINE
  5
86
  8
DIMNSIONS
 62
     7
 10
489.5
 20
0.0
 30
0.0
 11
465.6875
 21
6.3805401447661154
 31
0.0
  0
TEXT
  5
87
  8
DIMNSIONS
 62
     7
 10
418.2916515270868
 20
11.204168999999981
 30
0.0
 40
20.360527148437509
  1
89.5
 41
0.8
 11
418.2916515270868
 21
31.564696148437491
 31
0.0
 73
     3
  0
LINE
  5
88
  8
DIMNSIONS
 62
     7
 10
504.49999994412047
 20
-54.999999999999972
 30
0.0
 11
564.99999994412053
 21
-54.999999999999972
 31
0.0
  0
LINE
  5
89
  8
DIMNSIONS
 62
     7
 10
464.82999994412052
 20
-210.44999999999999
 30
0.0
 11
564.99999994412053
 21
-210.44999999999999
 31
0.0
  0
LINE
  5
8A
  8
DIMNSIONS
 62
     7
 10
549.99999999999989
 20
-54.999999999999972
 30
0.0
 11
549.99999999999989
 21
-210.44999999999999
 31
0.0
  0
LINE
  5
8B
  8
DIMNSIONS
 62
     7
 10
549.99999999999989
 20
-54.999999999999972
 30
0.0
 11
556.38054014476586
 21
-78.812499999999972
 31
0.0
  0
LINE
  5
8C
  8
DIMNSIONS
 62
     7
 10
549.99999999999989
 20
-54.999999999999972
 30
0.0
 11
543.61945985523369
 21
-78.812499999999972
 31
0.0
  0
LINE
  5
8D
  8
DIMNSIONS
 62
     7
 10
549.99999999999989
 20
-210.44999999999999
 30
0.0
 11
543.61945985523369
 21
-186.6374999999999
 31
0.0
  0
LINE
  5
8E
  8
DIMNSIONS
 62
     7
 10
549.99999999999989
 20
-210.44999999999999
 30
0.0
 11
556.38054014476586
 21
-186.6374999999999
 31
0.0
  0
TEXT
  5
8F
  8
DIMNSIONS
 62
     7
 10
538.79583099999991
 20
-165.79793685277289
 30
0.0
 40
20.360527148437509
  1
155.5
 50
90.0
 41
0.8
 11
518.43530385156225
 21
-165.79793685277289
 31
0.0
 73
     3
  0
LINE
  5
90
  8
DIMNSIONS
 62
     7
 10
504.49999994412047
 20
-54.999999999999972
 30
0.0
 11
614.99999994412065
 21
-54.999999999999972
 31
0.0
  0
LINE
  5
91
  8
DIMNSIONS
 62
     7
 10
464.82999994412052
 20
-261.24999999999989
 30
0.0
 11
614.99999994412065
 21
-261.24999999999989
 31
0.0
  0
LINE
  5
92
  8
DIMNSIONS
 62
     7
 10
599.99999999999989
 20
-54.999999999999972
 30
0.0
 11
599.99999999999989
 21
-261.24999999999989
 31
0.0
  0
LINE
  5
93
  8
DIMNSIONS
 62
     7
 10
599.99999999999989
 20
-54.999999999999972
 30
0.0
 11
606.38054014476586
 21
-78.812499999999972
 31
0.0
  0
LINE
  5
94
  8
DIMNSIONS
 62
     7
 10
599.99999999999989
 20
-54.999999999999972
 30
0.0
 11
593.61945985523369
 21
-78.812499999999972
 31
0.0
  0
LINE
  5
95
  8
DIMNSIONS
 62
     7
 10
599.99999999999989
 20
-261.24999999999989
 30
0.0
 11
593.61945985523369
 21
-237.4375
 31
0.0
  0
LINE
  5
96
  8
DIMNSIONS
 62
     7
 10
599.99999999999989
 20
-261.24999999999989
 30
0.0
 11
606.38054014476586
 21
-237.4375
 31
0.0
  0
TEXT
  5
97
  8
DIMNSIONS
 62
     7
 10
588.79583099999991
 20
-191.1979368527729
 30
0.0
 40
20.360527148437509
  1
206.3
 50
90.0
 41
0.8
 11
568.43530385156225
 21
-191.1979368527729
 31
0.0
 73
     3
  0
LINE
  5
98
  8
DIMNSIONS
 62
     7
 10
-196.27342039460521
 20
348.6323707576355
 30
0.0
 11
-175.0
 21
475.0
 31
0.0
  0
LINE
  5
99
  8
DIMNSIONS
 62
     7
 10
-196.27342039460521
 20
348.6323707576355
 30
0.0
 11
-198.42202856688269
 21
373.19107454490802
 31
0.0
  0
LINE
  5
9A
  8
DIMNSIONS
 62
     7
 10
-196.27342039460521
 20
348.6323707576355
 30
0.0
 11
-185.85481776094011
 21
370.97513620756928
 31
0.0
  0
LINE
  5
9B
  8
DIMNSIONS
 62
     7
 10
-175.0
 20
475.0
 30
0.0
 11
-129.99999999022111
 21
475.0
 31
0.0
  0
TEXT
  5
9C
  8
DIMNSIONS
 62
     7
 10
-129.99999999022111
 20
465.47499399999998
 30
0.0
 40
20.360527148437509
  1
2-φ7.9
 41
0.8
 11
-129.99999999022111
 21
485.83552114843752
 31
0.0
 73
     3
  0
LINE
  5
9D
  8
DIMNSIONS
 62
     7
 10
-132.34668071254811
 20
351.0074284044689
 30
0.0
 11
-119.5721674371389
 21
425.0
 31
0.0
  0
LINE
  5
9E
  8
DIMNSIONS
 62
     7
 10
-132.34668071254811
 20
351.0074284044689
 30
0.0
 11
-134.4952888848257
 21
375.5661321917413
 31
0.0
  0
LINE
  5
9F
  8
DIMNSIONS
 62
     7
 10
-132.34668071254811
 20
351.0074284044689
 30
0.0
 11
-121.9280780788831
 21
373.35019385440262
 31
0.0
  0
LINE
  5
A0
  8
DIMNSIONS
 62
     7
 10
-119.5721674371389
 20
425.0
 30
0.0
 11
-74.572167427360029
 21
425.0
 31
0.0
  0
TEXT
  5
A1
  8
DIMNSIONS
 62
     7
 10
-74.572167427360014
 20
415.47499399999998
 30
0.0
 40
20.360527148437509
  1
φ12.7
 41
0.8
 11
-74.572167427360014
 21
435.83552114843752
 31
0.0
 73
     3
  0
LINE
  5
A2
  8
DIMNSIONS
 62
     7
 10
103.8229999441206
 20
366.97499999999991
 30
0.0
 11
189.99999994412059
 21
366.97499999999991
 31
0.0
  0
LINE
  5
A3
  8
DIMNSIONS
 62
     7
 10
103.8229999441206
 20
322.52499999999998
 30
0.0
 11
189.99999994412059
 21
322.52499999999998
 31
0.0
  0
LINE
  5
A4
  8
DIMNSIONS
 62
     7
 10
175.0
 20
322.52499999999998
 30
0.0
 11
175.0
 21
366.97499999999991
 31
0.0
  0
LINE
  5
A5
  8
DIMNSIONS
 62
     7
 10
175.0
 20
366.97499999999991
 30
0.0
 11
175.0
 21
404.47500003771847
 31
0.0
  0
LINE
  5
A6
  8
DIMNSIONS
 62
     7
 10
175.0
 20
366.97499999999991
 30
0.0
 11
168.6194598552338
 21
390.78749999999991
 31
0.0
  0
LINE
  5
A7
  8
DIMNSIONS
 62
     7
 10
175.0
 20
366.97499999999991
 30
0.0
 11
181.38054014476609
 21
390.78749999999991
 31
0.0
  0
LINE
  5
A8
  8
DIMNSIONS
 62
     7
 10
175.0
 20
322.52499999999998
 30
0.0
 11
175.0
 21
233.38330305417369
 31
0.0
  0
LINE
  5
A9
  8
DIMNSIONS
 62
     7
 10
175.0
 20
322.52499999999998
 30
0.0
 11
181.38054014476609
 21
298.71249999999998
 31
0.0
  0
LINE
  5
AA
  8
DIMNSIONS
 62
     7
 10
175.0
 20
322.52499999999998
 30
0.0
 11
168.6194598552338
 21
298.71249999999998
 31
0.0
  0
TEXT
  5
AB
  8
DIMNSIONS
 62
     7
 10
163.79583099999991
 20
233.38330305417369
 30
0.0
 40
20.360527148437509
  1
44.5
 50
90.0
 41
0.8
 11
143.4353038515624
 21
233.38330305417369
 31
0.0
 73
     3
  0
TEXT
  5
AC
  8
DIMNSIONS
 62
     7
 10
400.0
 20
-408.87500379999972
 30
0.0
 40
20.3605117578125
  1
4-φ10.2×35.6長穴
 41
0.8
 11
400.0
 21
-388.51449204218733
 31
0.0
 73
     3
  0
LINE
  5
AD
  8
DIMNSIONS
 62
     7
 10
441.69762051940972
 20
-278.01071169950808
 30
0.0
 11
350.0
 21
-400.0
 31
0.0
  0
LINE
  5
AE
  8
DIMNSIONS
 62
     7
 10
441.69762051940972
 20
-278.01071169950808
 30
0.0
 11
432.46262621349399
 21
-300.86812469745428
 31
0.0
  0
LINE
  5
AF
  8
DIMNSIONS
 62
     7
 10
441.69762051940972
 20
-278.01071169950808
 30
0.0
 11
422.27117434770889
 21
-293.18831486756432
 31
0.0
  0
LINE
  5
B0
  8
DIMNSIONS
 62
     7
 10
350.0
 20
-400.0
 30
0.0
 11
375.0
 21
-400.0
 31
0.0
  0
LINE
  5
B1
  8
DIMNSIONS
 62
     7
 10
-321.93602243514601
 20
372.0035774677163
 30
0.0
 11
-300.0
 21
525.0
 31
0.0
  0
LINE
  5
B2
  8
DIMNSIONS
 62
     7
 10
-321.93602243514601
 20
372.0035774677163
 30
0.0
 11
-324.51291184406023
 21
396.52104246235223
 31
0.0
  0
LINE
  5
B3
  8
DIMNSIONS
 62
     7
 10
-321.93602243514601
 20
372.0035774677163
 30
0.0
 11
-311.9089416286908
 21
394.5247696939237
 31
0.0
  0
LINE
  5
B4
  8
DIMNSIONS
 62
     7
 10
-300.0
 20
525.0
 30
0.0
 11
-275.0
 21
525.0
 31
0.0
  0
LINE
  5
B5
  8
DIMNSIONS
 62
     7
 10
-414.9999999441207
 20
-300.0
 30
0.0
 11
-514.99999994412053
 21
-300.0
 31
0.0
  0
LINE
  5
B6
  8
DIMNSIONS
 62
     7
 10
-414.9999999441207
 20
-55.001999999999953
 30
0.0
 11
-514.99999994412053
 21
-55.001999999999953
 31
0.0
  0
LINE
  5
B7
  8
DIMNSIONS
 62
     7
 10
-499.99999999999989
 20
-300.0
 30
0.0
 11
-499.99999999999989
 21
-55.001999999999953
 31
0.0
  0
LINE
  5
B8
  8
DIMNSIONS
 62
     7
 10
-499.99999999999989
 20
-300.0
 30
0.0
 11
-506.38054014476597
 21
-276.18749999999989
 31
0.0
  0
LINE
  5
B9
  8
DIMNSIONS
 62
     7
 10
-499.99999999999989
 20
-300.0
 30
0.0
 11
-493.6194598552338
 21
-276.18749999999989
 31
0.0
  0
LINE
  5
BA
  8
DIMNSIONS
 62
     7
 10
-499.99999999999989
 20
-55.001999999999953
 30
0.0
 11
-493.6194598552338
 21
-78.814499999999953
 31
0.0
  0
LINE
  5
BB
  8
DIMNSIONS
 62
     7
 10
-499.99999999999989
 20
-55.001999999999953
 30
0.0
 11
-506.38054014476597
 21
-78.814499999999953
 31
0.0
  0
TEXT
  5
BC
  8
DIMNSIONS
 62
     7
 10
-511.2041666387268
 20
-197.34475
 30
0.0
 40
20.360514322916671
  1
245
 50
90.0
 41
0.8
 11
-531.56468096164349
 21
-197.34475
 31
0.0
 73
     3
  0
LINE
  5
BD
  8
DIMNSIONS
 62
     7
 10
-408.64999994412062
 20
-67.699999999999989
 30
0.0
 11
-464.99999994412042
 21
-67.699999999999989
 31
0.0
  0
LINE
  5
BE
  8
DIMNSIONS
 62
     7
 10
-414.9999999441207
 20
-55.001999999999953
 30
0.0
 11
-464.99999994412042
 21
-55.001999999999953
 31
0.0
  0
LINE
  5
BF
  8
DIMNSIONS
 62
     7
 10
-449.99999999999989
 20
-55.001999999999953
 30
0.0
 11
-449.99999999999989
 21
-67.699999999999989
 31
0.0
  0
LINE
  5
C0
  8
DIMNSIONS
 62
     7
 10
-449.99999999999989
 20
-67.699999999999989
 30
0.0
 11
-449.99999999999989
 21
-105.2000000377185
 31
0.0
  0
LINE
  5
C1
  8
DIMNSIONS
 62
     7
 10
-449.99999999999989
 20
-67.699999999999989
 30
0.0
 11
-443.6194598552338
 21
-91.512500000000003
 31
0.0
  0
LINE
  5
C2
  8
DIMNSIONS
 62
     7
 10
-449.99999999999989
 20
-67.699999999999989
 30
0.0
 11
-456.38054014476597
 21
-91.512500000000003
 31
0.0
  0
LINE
  5
C3
  8
DIMNSIONS
 62
     7
 10
-449.99999999999989
 20
-55.001999999999953
 30
0.0
 11
-449.99999999999989
 21
27.916666666666671
 31
0.0
  0
LINE
  5
C4
  8
DIMNSIONS
 62
     7
 10
-449.99999999999989
 20
-55.001999999999953
 30
0.0
 11
-456.38054014476597
 21
-31.189499999999949
 31
0.0
  0
LINE
  5
C5
  8
DIMNSIONS
 62
     7
 10
-449.99999999999989
 20
-55.001999999999953
 30
0.0
 11
-443.6194598552338
 21
-31.189499999999949
 31
0.0
  0
TEXT
  5
C6
  8
DIMNSIONS
 62
     7
 10
-461.20416663872692
 20
-24.999999999999972
 30
0.0
 40
20.360514322916671
  1
12.7
 50
90.0
 41
0.8
 11
-481.5646809616436
 21
-24.999999999999972
 31
0.0
 73
     3
  0
LINE
  5
C7
  8
DIMNSIONS
 62
     7
 10
129.65000000000001
 20
-314.99999994412059
 30
0.0
 11
129.65000000000001
 21
-414.99999994412042
 31
0.0
  0
LINE
  5
C8
  8
DIMNSIONS
 62
     7
 10
-396.5
 20
-314.99999994412059
 30
0.0
 11
-396.5
 21
-414.99999994412042
 31
0.0
  0
LINE
  5
C9
  8
DIMNSIONS
 62
     7
 10
129.65000000000001
 20
-400.0
 30
0.0
 11
-396.5
 21
-400.0
 31
0.0
  0
LINE
  5
CA
  8
DIMNSIONS
 62
     7
 10
129.65000000000001
 20
-400.0
 30
0.0
 11
105.83750000000001
 21
-406.38054014476597
 31
0.0
  0
LINE
  5
CB
  8
DIMNSIONS
 62
     7
 10
129.65000000000001
 20
-400.0
 30
0.0
 11
105.83750000000001
 21
-393.61945985523391
 31
0.0
  0
LINE
  5
CC
  8
DIMNSIONS
 62
     7
 10
-396.5
 20
-400.0
 30
0.0
 11
-372.6875
 21
-393.61945985523391
 31
0.0
  0
LINE
  5
CD
  8
DIMNSIONS
 62
     7
 10
-396.5
 20
-400.0
 30
0.0
 11
-372.6875
 21
-406.38054014476597
 31
0.0
  0
TEXT
  5
CE
  8
DIMNSIONS
 62
     7
 10
-166.49791666666661
 20
-388.79583336127291
 30
0.0
 40
20.360514322916671
  1
526.2
 41
0.8
 11
-166.49791666666661
 21
-368.43531903835623
 31
0.0
 73
     3
  0
LINE
  5
CF
  8
DIMNSIONS
 62
     7
 10
133.14599999999999
 20
-314.99999994412059
 30
0.0
 11
133.14599999999999
 21
-514.99999994412053
 31
0.0
  0
LINE
  5
D0
  8
DIMNSIONS
 62
     7
 10
-400.0
 20
-314.99999994412059
 30
0.0
 11
-400.0
 21
-514.99999994412053
 31
0.0
  0
LINE
  5
D1
  8
DIMNSIONS
 62
     7
 10
133.14599999999999
 20
-499.99999999999989
 30
0.0
 11
-400.0
 21
-499.99999999999989
 31
0.0
  0
LINE
  5
D2
  8
DIMNSIONS
 62
     7
 10
133.14599999999999
 20
-499.99999999999989
 30
0.0
 11
109.3335
 21
-506.38054014476597
 31
0.0
  0
LINE
  5
D3
  8
DIMNSIONS
 62
     7
 10
133.14599999999999
 20
-499.99999999999989
 30
0.0
 11
109.3335
 21
-493.6194598552338
 31
0.0
  0
LINE
  5
D4
  8
DIMNSIONS
 62
     7
 10
-400.0
 20
-499.99999999999989
 30
0.0
 11
-376.1875
 21
-493.6194598552338
 31
0.0
  0
LINE
  5
D5
  8
DIMNSIONS
 62
     7
 10
-400.0
 20
-499.99999999999989
 30
0.0
 11
-376.1875
 21
-506.38054014476597
 31
0.0
  0
TEXT
  5
D6
  8
DIMNSIONS
 62
     7
 10
-166.49991666666659
 20
-488.7958333612728
 30
0.0
 40
20.360514322916671
  1
533.1
 41
0.8
 11
-166.49991666666659
 21
-468.43531903835623
 31
0.0
 73
     3
  0
TEXT
  5
D7
  8
DIMNSIONS
 62
     7
 10
-264.99999999999989
 20
515.47500119999995
 30
0.0
 40
20.3605117578125
  1
8-φ10.2×35.6長穴
 41
0.8
 11
-264.99999999999989
 21
535.83551295781228
 31
0.0
 73
     3
  0
TEXT
  5
D8
  8
DATA
 62
     7
 10
475.0
 20
-728.5614999999998
 30
0.0
 40
18.324462890625
  1
MTC-29UB
 41
0.8
 11
475.0
 21
-710.2370371093748
 31
0.0
 73
     3
  0
TEXT
  5
D9
  8
DATA
 62
     7
 10
475.0
 20
-674.18649999999968
 30
0.0
 40
18.324462890625
  1
JBL
 41
0.8
 11
475.0
 21
-655.8620371093748
 31
0.0
 73
     3
  0
TEXT
  5
DA
  8
DATA
 62
     7
 10
456.25
 20
-700.26367579999999
 30
0.0
 40
12.216331679687499
  1
CONTROL 29AV用U-Bracket
 41
0.8
 11
456.25
 21
-688.04734412031235
 31
0.0
 73
     3
  0
LINE
  5
DB
  8
DATA
 62
     7
 10
-400.0
 20
-55.001999999999953
 30
0.0
 11
133.14599999999999
 21
-55.001999999999953
 31
0.0
  0
LINE
  5
DC
  8
DATA
 62
     7
 10
-400.0
 20
-300.0
 30
0.0
 11
-400.0
 21
-55.001999999999953
 31
0.0
  0
LINE
  5
DD
  8
DATA
 62
     7
 10
133.14599999999999
 20
-55.001999999999953
 30
0.0
 11
133.14599999999999
 21
-300.0
 31
0.0
  0
LINE
  5
DE
  8
DATA
 62
     7
 10
-393.64999999999998
 20
-67.699999999999989
 30
0.0
 11
126.8
 21
-67.699999999999989
 31
0.0
  0
LINE
  5
DF
  8
DATA
 62
     7
 10
126.8
 20
-58.5
 30
0.0
 11
-393.64999999999998
 21
-58.5
 31
0.0
  0
LINE
  5
E0
  8
DATA
 62
     7
 10
129.65000000000001
 20
-300.0
 30
0.0
 11
129.65000000000001
 21
-58.5
 31
0.0
  0
LINE
  5
E1
  8
DATA
 62
     7
 10
-396.5
 20
-300.0
 30
0.0
 11
-396.5
 21
-58.5
 31
0.0
  0
LINE
  5
E2
  8
DATA
 62
     7
 10
133.14599999999999
 20
-300.0
 30
0.0
 11
129.65000000000001
 21
-300.0
 31
0.0
  0
LINE
  5
E3
  8
DATA
 62
     7
 10
-396.5
 20
-300.0
 30
0.0
 11
-400.0
 21
-300.0
 31
0.0
  0
LINE
  5
E4
  8
DATA
 62
     7
 10
126.79600000000001
 20
-67.701999999999913
 30
0.0
 11
126.79600000000001
 21
-58.5
 31
0.0
  0
LINE
  5
E5
  8
DATA
 62
     7
 10
129.65000000000001
 20
-58.5
 30
0.0
 11
126.79600000000001
 21
-58.5
 31
0.0
  0
LINE
  5
E6
  8
DATA
 62
     7
 10
-393.64999999999998
 20
-67.699999999999989
 30
0.0
 11
-393.64999999999998
 21
-58.5
 31
0.0
  0
LINE
  5
E7
  8
DATA
 62
     7
 10
-393.64999999999998
 20
-58.5
 30
0.0
 11
-396.5
 21
-58.5
 31
0.0
  0
LINE
  5
E8
  8
DATA
 62
     7
 10
-400.0
 20
306.25
 30
0.0
 11
-400.0
 21
383.25
 31
0.0
  0
CIRCLE
  5
E9
  8
DATA
 62
     7
 10
-133.42699999999999
 20
344.74999999999989
 30
0.0
 40
6.3499999999999934
  0
CIRCLE
  5
EA
  8
DATA
 62
     7
 10
-69.927000000000007
 20
344.74999999999989
 30
0.0
 40
3.9370000000000109
  0
CIRCLE
  5
EB
  8
DATA
 62
     7
 10
-196.92699999999999
 20
344.74999999999989
 30
0.0
 40
3.9370000000000109
  0
LINE
  5
EC
  8
DATA
 62
     7
 10
55.80299999999999
 20
372.05500000000001
 30
0.0
 11
83.742999999999981
 21
372.05500000000001
 31
0.0
  0
LINE
  5
ED
  8
DATA
 62
     7
 10
83.742999999999981
 20
361.89499999999992
 30
0.0
 11
55.80299999999999
 21
361.89499999999992
 31
0.0
  0
ARC
  5
EE
  8
DATA
 62
     7
 10
55.80299999999999
 20
366.97499999999991
 30
0.0
 40
5.0799999999999841
 50
90.0
 51
270.0
  0
ARC
  5
EF
  8
DATA
 62
     7
 10
83.742999999999981
 20
366.97499999999991
 30
0.0
 40
5.0800000000000116
 50
270.0
 51
90.0
  0
LINE
  5
F0
  8
DATA
 62
     7
 10
5.0030000000000001
 20
327.6049999999999
 30
0.0
 11
32.942999999999998
 21
327.6049999999999
 31
0.0
  0
LINE
  5
F1
  8
DATA
 62
     7
 10
32.942999999999998
 20
317.44499999999988
 30
0.0
 11
5.0030000000000001
 21
317.44499999999988
 31
0.0
  0
ARC
  5
F2
  8
DATA
 62
     7
 10
5.0030000000000001
 20
322.52499999999998
 30
0.0
 40
5.0799999999999841
 50
90.0
 51
270.0
  0
ARC
  5
F3
  8
DATA
 62
     7
 10
32.942999999999998
 20
322.52499999999998
 30
0.0
 40
5.0800000000000116
 50
270.0
 51
90.0
  0
LINE
  5
F4
  8
DATA
 62
     7
 10
5.0030000000000001
 20
372.05500000000001
 30
0.0
 11
32.942999999999998
 21
372.05500000000001
 31
0.0
  0
LINE
  5
F5
  8
DATA
 62
     7
 10
32.942999999999998
 20
361.89499999999992
 30
0.0
 11
5.0030000000000001
 21
361.89499999999992
 31
0.0
  0
ARC
  5
F6
  8
DATA
 62
     7
 10
5.0030000000000001
 20
366.97499999999991
 30
0.0
 40
5.0799999999999841
 50
90.0
 51
270.0
  0
ARC
  5
F7
  8
DATA
 62
     7
 10
32.942999999999998
 20
366.97499999999991
 30
0.0
 40
5.0800000000000116
 50
270.0
 51
90.0
  0
LINE
  5
F8
  8
DATA
 62
     7
 10
55.80299999999999
 20
327.6049999999999
 30
0.0
 11
83.742999999999981
 21
327.6049999999999
 31
0.0
  0
LINE
  5
F9
  8
DATA
 62
     7
 10
83.742999999999981
 20
317.44499999999988
 30
0.0
 11
55.80299999999999
 21
317.44499999999988
 31
0.0
  0
ARC
  5
FA
  8
DATA
 62
     7
 10
55.80299999999999
 20
322.52499999999998
 30
0.0
 40
5.0799999999999841
 50
90.0
 51
270.0
  0
ARC
  5
FB
  8
DATA
 62
     7
 10
83.742999999999981
 20
322.52499999999998
 30
0.0
 40
5.0800000000000116
 50
270.0
 51
90.0
  0
LINE
  5
FC
  8
DATA
 62
     7
 10
-322.65699999999998
 20
372.05500000000001
 30
0.0
 11
-350.59699999999998
 21
372.05500000000001
 31
0.0
  0
LINE
  5
FD
  8
DATA
 62
     7
 10
-350.59699999999998
 20
361.89499999999992
 30
0.0
 11
-322.65699999999998
 21
361.89499999999992
 31
0.0
  0
ARC
  5
FE
  8
DATA
 62
     7
 10
-322.65699999999998
 20
366.97499999999991
 30
0.0
 40
5.0800000000000116
 50
270.0
 51
90.0
  0
ARC
  5
FF
  8
DATA
 62
     7
 10
-350.59699999999998
 20
366.97499999999991
 30
0.0
 40
5.0799999999999841
 50
90.0
 51
270.0
  0
LINE
  5
100
  8
DATA
 62
     7
 10
-271.85700000000003
 20
327.6049999999999
 30
0.0
 11
-299.79700000000003
 21
327.6049999999999
 31
0.0
  0
LINE
  5
101
  8
DATA
 62
     7
 10
-299.79700000000003
 20
317.44499999999988
 30
0.0
 11
-271.85700000000003
 21
317.44499999999988
 31
0.0
  0
ARC
  5
102
  8
DATA
 62
     7
 10
-271.85700000000003
 20
322.52499999999998
 30
0.0
 40
5.0800000000000116
 50
270.0
 51
90.0
  0
ARC
  5
103
  8
DATA
 62
     7
 10
-299.79700000000003
 20
322.52499999999998
 30
0.0
 40
5.0799999999999841
 50
90.0
 51
270.0
  0
LINE
  5
104
  8
DATA
 62
     7
 10
-271.85700000000003
 20
372.05500000000001
 30
0.0
 11
-299.79700000000003
 21
372.05500000000001
 31
0.0
  0
LINE
  5
105
  8
DATA
 62
     7
 10
-299.79700000000003
 20
361.89499999999992
 30
0.0
 11
-271.85700000000003
 21
361.89499999999992
 31
0.0
  0
ARC
  5
106
  8
DATA
 62
     7
 10
-271.85700000000003
 20
366.97499999999991
 30
0.0
 40
5.0800000000000116
 50
270.0
 51
90.0
  0
ARC
  5
107
  8
DATA
 62
     7
 10
-299.79700000000003
 20
366.97499999999991
 30
0.0
 40
5.0799999999999841
 50
90.0
 51
270.0
  0
LINE
  5
108
  8
DATA
 62
     7
 10
-322.65699999999998
 20
327.6049999999999
 30
0.0
 11
-350.59699999999998
 21
327.6049999999999
 31
0.0
  0
LINE
  5
109
  8
DATA
 62
     7
 10
-350.59699999999998
 20
317.44499999999988
 30
0.0
 11
-322.65699999999998
 21
317.44499999999988
 31
0.0
  0
ARC
  5
10A
  8
DATA
 62
     7
 10
-322.65699999999998
 20
322.52499999999998
 30
0.0
 40
5.0800000000000116
 50
270.0
 51
90.0
  0
ARC
  5
10B
  8
DATA
 62
     7
 10
-350.59699999999998
 20
322.52499999999998
 30
0.0
 40
5.0799999999999841
 50
90.0
 51
270.0
  0
LINE
  5
10C
  8
DATA
 62
     7
 10
400.0
 20
-54.999999999999972
 30
0.0
 11
489.5
 21
-54.999999999999972
 31
0.0
  0
LINE
  5
10D
  8
DATA
 62
     7
 10
489.5
 20
-54.999999999999972
 30
0.0
 11
489.5
 21
-67.69999999999996
 31
0.0
  0
LINE
  5
10E
  8
DATA
 62
     7
 10
439.66999999999979
 20
-223.14999999999989
 30
0.0
 11
439.66999999999979
 21
-197.75
 31
0.0
  0
LINE
  5
10F
  8
DATA
 62
     7
 10
449.82999999999993
 20
-197.75
 30
0.0
 11
449.82999999999993
 21
-223.14999999999989
 31
0.0
  0
ARC
  5
110
  8
DATA
 62
     7
 10
444.74999999999989
 20
-197.75
 30
0.0
 40
5.0799999999999841
 50
0.0
 51
180.0
  0
ARC
  5
111
  8
DATA
 62
     7
 10
444.74999999999989
 20
-223.14999999999989
 30
0.0
 40
5.08000000000004
 50
180.0
 51
0.0
  0
LINE
  5
112
  8
DATA
 62
     7
 10
439.66999999999979
 20
-273.94999999999999
 30
0.0
 11
439.66999999999979
 21
-248.55000000000001
 31
0.0
  0
LINE
  5
113
  8
DATA
 62
     7
 10
449.82999999999993
 20
-248.55000000000001
 30
0.0
 11
449.82999999999993
 21
-273.94999999999999
 31
0.0
  0
ARC
  5
114
  8
DATA
 62
     7
 10
444.74999999999989
 20
-248.55000000000001
 30
0.0
 40
5.0799999999999841
 50
0.0
 51
180.0
  0
ARC
  5
115
  8
DATA
 62
     7
 10
444.74999999999989
 20
-273.94999999999999
 30
0.0
 40
5.08000000000004
 50
180.0
 51
0.0
  0
LINE
  5
116
  8
DATA
 62
     7
 10
483.25
 20
-58.5
 30
0.0
 11
483.25
 21
-261.49999999999989
 31
0.0
  0
LINE
  5
117
  8
DATA
 62
     7
 10
406.25
 20
-58.5
 30
0.0
 11
406.25
 21
-261.49999999999989
 31
0.0
  0
LINE
  5
118
  8
DATA
 62
     7
 10
486.0
 20
-58.5
 30
0.0
 11
486.0
 21
-67.69999999999996
 31
0.0
  0
LINE
  5
119
  8
DATA
 62
     7
 10
489.5
 20
-67.69999999999996
 30
0.0
 11
486.0
 21
-67.69999999999996
 31
0.0
  0
ARC
  5
11A
  8
DATA
 62
     7
 10
444.74999999999989
 20
-261.49999999999989
 30
0.0
 40
38.5
 50
180.0
 51
0.0
  0
LINE
  5
11B
  8
DATA
 62
     7
 10
483.25
 20
-58.5
 30
0.0
 11
486.0
 21
-58.5
 31
0.0
  0
LINE
  5
11C
  8
DATA
 62
     7
 10
483.25
 20
-58.5
 30
0.0
 11
476.59896247811599
 21
-58.5
 31
0.0
  0
LINE
  5
11D
  8
DATA
 62
     7
 10
472.75665942561398
 20
-58.5
 30
0.0
 11
472.73082370176593
 21
-58.5
 31
0.0
  0
LINE
  5
11E
  8
DATA
 62
     7
 10
457.4032542945701
 20
-58.5
 30
0.0
 11
432.06484941098307
 21
-58.5
 31
0.0
  0
LINE
  5
11F
  8
DATA
 62
     7
 10
428.2579276849562
 20
-58.5
 30
0.0
 11
428.20284530585133
 21
-58.5
 31
0.0
  0
LINE
  5
120
  8
DATA
 62
     7
 10
416.7610751131711
 20
-58.5
 30
0.0
 11
416.71123093678028
 21
-58.5
 31
0.0
  0
LINE
  5
121
  8
DATA
 62
     7
 10
412.94480539078359
 20
-58.5
 30
0.0
 11
406.25
 21
-58.5
 31
0.0
  0
LINE
  5
122
  8
DATA
 62
     7
 10
-396.5
 20
383.25
 30
0.0
 11
-396.5
 21
376.5890656262485
 31
0.0
  0
LINE
  5
123
  8
DATA
 62
     7
 10
-396.5
 20
372.75999523183219
 30
0.0
 11
-396.5
 21
372.75197285735328
 31
0.0
  0
LINE
  5
124
  8
DATA
 62
     7
 10
-396.5
 20
361.24589237871982
 30
0.0
 11
-396.5
 21
361.23946676007017
 31
0.0
  0
LINE
  5
125
  8
DATA
 62
     7
 10
-396.5
 20
357.39121810956601
 30
0.0
 11
-396.5
 21
332.08651761979979
 31
0.0
  0
LINE
  5
126
  8
DATA
 62
     7
 10
-396.5
 20
328.25742785174549
 30
0.0
 11
-396.5
 21
328.23707039563618
 31
0.0
  0
LINE
  5
127
  8
DATA
 62
     7
 10
-396.5
 20
316.74746744291423
 30
0.0
 11
-396.5
 21
316.73743166724938
 31
0.0
  0
LINE
  5
128
  8
DATA
 62
     7
 10
-396.5
 20
312.90178115736381
 30
0.0
 11
-396.5
 21
306.25
 31
0.0
  0
LINE
  5
129
  8
DATA
 62
     7
 10
-396.5
 20
389.5
 30
0.0
 11
129.65000000000001
 21
389.5
 31
0.0
  0
LINE
  5
12A
  8
DATA
 62
     7
 10
-396.5
 20
383.25
 30
0.0
 11
-396.5
 21
389.5
 31
0.0
  0
LINE
  5
12B
  8
DATA
 62
     7
 10
-396.5
 20
383.25
 30
0.0
 11
-400.0
 21
383.25
 31
0.0
  0
LINE
  5
12C
  8
DATA
 62
     7
 10
-396.5
 20
386.0
 30
0.0
 11
129.65000000000001
 21
386.0
 31
0.0
  0
LINE
  5
12D
  8
DATA
 62
     7
 10
129.65000000000001
 20
300.0
 30
0.0
 11
-396.5
 21
300.0
 31
0.0
  0
LINE
  5
12E
  8
DATA
 62
     7
 10
-396.5
 20
300.0
 30
0.0
 11
-396.5
 21
306.25
 31
0.0
  0
LINE
  5
12F
  8
DATA
 62
     7
 10
-400.0
 20
306.25
 30
0.0
 11
-396.5
 21
306.25
 31
0.0
  0
LINE
  5
130
  8
DATA
 62
     7
 10
-396.5
 20
303.5
 30
0.0
 11
126.8
 21
303.5
 31
0.0
  0
LINE
  5
131
  8
DATA
 62
     7
 10
400.0
 20
-54.999999999999972
 30
0.0
 11
400.0
 21
-67.69999999999996
 31
0.0
  0
LINE
  5
132
  8
DATA
 62
     7
 10
403.5
 20
-58.5
 30
0.0
 11
403.5
 21
-67.69999999999996
 31
0.0
  0
LINE
  5
133
  8
DATA
 62
     7
 10
400.0
 20
-67.69999999999996
 30
0.0
 11
403.5
 21
-67.69999999999996
 31
0.0
  0
LINE
  5
134
  8
DATA
 62
     7
 10
403.5
 20
-58.5
 30
0.0
 11
406.25
 21
-58.5
 31
0.0
  0
POLYLINE
  5
135
  8
DATA
 62
     7
 66
     1
 10
0.0
 20
0.0
 30
0.0
 70
   128
  0
VERTEX
  5
508
  8
DATA
 62
     7
 10
-400.0
 20
357.00032708641652
 30
0.0
  0
VERTEX
  5
509
  8
DATA
 62
     7
 10
-399.9874645310698
 20
357.00025042553762
 30
0.0
  0
VERTEX
  5
50A
  8
DATA
 62
     7
 10
-399.97492577554419
 20
357.00018398610922
 30
0.0
  0
VERTEX
  5
50B
  8
DATA
 62
     7
 10
-399.96238373342322
 20
357.00012776813139
 30
0.0
  0
VERTEX
  5
50C
  8
DATA
 62
     7
 10
-399.9498384047069
 20
357.00008177160407
 30
0.0
  0
VERTEX
  5
50D
  8
DATA
 62
     7
 10
-399.93728978939521
 20
357.00004599652732
 30
0.0
  0
VERTEX
  5
50E
  8
DATA
 62
     7
 10
-399.92473788748811
 20
357.0000204429009
 30
0.0
  0
VERTEX
  5
50F
  8
DATA
 62
     7
 10
-399.91218269898559
 20
357.00000511072523
 30
0.0
  0
VERTEX
  5
510
  8
DATA
 62
     7
 10
-399.89962422388771
 20
356.99999999999989
 30
0.0
  0
VERTEX
  5
511
  8
DATA
 62
     7
 10
-399.89962422388771
 20
356.99999999999989
 30
0.0
  0
VERTEX
  5
512
  8
DATA
 62
     7
 10
-399.102507593756
 20
357.02093353065862
 30
0.0
  0
VERTEX
  5
513
  8
DATA
 62
     7
 10
-398.31885285794772
 20
357.08373412263472
 30
0.0
  0
VERTEX
  5
514
  8
DATA
 62
     7
 10
-397.54866001646258
 20
357.18840177592801
 30
0.0
  0
VERTEX
  5
515
  8
DATA
 62
     7
 10
-396.79192906930092
 20
357.33493649053878
 30
0.0
  0
VERTEX
  5
516
  8
DATA
 62
     7
 10
-396.04866001646258
 20
357.52333826646691
 30
0.0
  0
VERTEX
  5
517
  8
DATA
 62
     7
 10
-395.31885285794772
 20
357.7536071037124
 30
0.0
  0
VERTEX
  5
518
  8
DATA
 62
     7
 10
-394.602507593756
 20
358.02574300227542
 30
0.0
  0
VERTEX
  5
519
  8
DATA
 62
     7
 10
-393.89962422388771
 20
358.33974596215558
 30
0.0
  0
VERTEX
  5
51A
  8
DATA
 62
     7
 10
-393.89962422388771
 20
358.33974596215558
 30
0.0
  0
VERTEX
  5
51B
  8
DATA
 62
     7
 10
-393.2218610908098
 20
358.69000686071848
 30
0.0
  0
VERTEX
  5
51C
  8
DATA
 62
     7
 10
-392.58087653698942
 20
359.07091657532919
 30
0.0
  0
VERTEX
  5
51D
  8
DATA
 62
     7
 10
-391.97667056242648
 20
359.48247510598787
 30
0.0
  0
VERTEX
  5
51E
  8
DATA
 62
     7
 10
-391.40924316712108
 20
359.92468245269453
 30
0.0
  0
VERTEX
  5
51F
  8
DATA
 62
     7
 10
-390.87859435107322
 20
360.39753861544892
 30
0.0
  0
VERTEX
  5
520
  8
DATA
 62
     7
 10
-390.3847241142829
 20
360.90104359425141
 30
0.0
  0
VERTEX
  5
521
  8
DATA
 62
     7
 10
-389.92763245674979
 20
361.43519738910169
 30
0.0
  0
VERTEX
  5
522
  8
DATA
 62
     7
 10
-389.50731937847451
 20
362.0
 30
0.0
  0
VERTEX
  5
523
  8
DATA
 62
     7
 10
-389.50731937847451
 20
362.0
 30
0.0
  0
VERTEX
  5
524
  8
DATA
 62
     7
 10
-389.13051582661819
 20
362.58573614155682
 30
0.0
  0
VERTEX
  5
525
  8
DATA
 62
     7
 10
-388.80395274834279
 20
363.1826905283832
 30
0.0
  0
VERTEX
  5
526
  8
DATA
 62
     7
 10
-388.5276301436482
 20
363.79086316047909
 30
0.0
  0
VERTEX
  5
527
  8
DATA
 62
     7
 10
-388.3015480125344
 20
364.41025403784431
 30
0.0
  0
VERTEX
  5
528
  8
DATA
 62
     7
 10
-388.12570635500151
 20
365.04086316047898
 30
0.0
  0
VERTEX
  5
529
  8
DATA
 62
     7
 10
-388.00010517104943
 20
365.6826905283832
 30
0.0
  0
VERTEX
  5
52A
  8
DATA
 62
     7
 10
-387.92474446067808
 20
366.33573614155682
 30
0.0
  0
VERTEX
  5
52B
  8
DATA
 62
     7
 10
-387.89962422388771
 20
367.0
 30
0.0
  0
VERTEX
  5
52C
  8
DATA
 62
     7
 10
-387.89962422388771
 20
367.0
 30
0.0
  0
VERTEX
  5
52D
  8
DATA
 62
     7
 10
-387.92474446067808
 20
367.66426385844312
 30
0.0
  0
VERTEX
  5
52E
  8
DATA
 62
     7
 10
-388.00010517104943
 20
368.31730947161668
 30
0.0
  0
VERTEX
  5
52F
  8
DATA
 62
     7
 10
-388.12570635500151
 20
368.95913683952091
 30
0.0
  0
VERTEX
  5
530
  8
DATA
 62
     7
 10
-388.3015480125344
 20
369.58974596215558
 30
0.0
  0
VERTEX
  5
531
  8
DATA
 62
     7
 10
-388.5276301436482
 20
370.20913683952091
 30
0.0
  0
VERTEX
  5
532
  8
DATA
 62
     7
 10
-388.80395274834279
 20
370.81730947161668
 30
0.0
  0
VERTEX
  5
533
  8
DATA
 62
     7
 10
-389.13051582661819
 20
371.41426385844312
 30
0.0
  0
VERTEX
  5
534
  8
DATA
 62
     7
 10
-389.50731937847451
 20
372.0
 30
0.0
  0
VERTEX
  5
535
  8
DATA
 62
     7
 10
-389.50731937847451
 20
372.0
 30
0.0
  0
VERTEX
  5
536
  8
DATA
 62
     7
 10
-389.92763245674979
 20
372.56480261089808
 30
0.0
  0
VERTEX
  5
537
  8
DATA
 62
     7
 10
-390.3847241142829
 20
373.09895640574848
 30
0.0
  0
VERTEX
  5
538
  8
DATA
 62
     7
 10
-390.87859435107322
 20
373.60246138455091
 30
0.0
  0
VERTEX
  5
539
  8
DATA
 62
     7
 10
-391.40924316712108
 20
374.07531754730547
 30
0.0
  0
VERTEX
  5
53A
  8
DATA
 62
     7
 10
-391.97667056242648
 20
374.51752489401201
 30
0.0
  0
VERTEX
  5
53B
  8
DATA
 62
     7
 10
-392.58087653698942
 20
374.92908342467069
 30
0.0
  0
VERTEX
  5
53C
  8
DATA
 62
     7
 10
-393.2218610908098
 20
375.30999313928152
 30
0.0
  0
VERTEX
  5
53D
  8
DATA
 62
     7
 10
-393.89962422388771
 20
375.66025403784431
 30
0.0
  0
VERTEX
  5
53E
  8
DATA
 62
     7
 10
-393.89962422388771
 20
375.66025403784431
 30
0.0
  0
VERTEX
  5
53F
  8
DATA
 62
     7
 10
-394.602507593756
 20
375.97425699772452
 30
0.0
  0
VERTEX
  5
540
  8
DATA
 62
     7
 10
-395.31885285794772
 20
376.24639289628738
 30
0.0
  0
VERTEX
  5
541
  8
DATA
 62
     7
 10
-396.04866001646258
 20
376.47666173353292
 30
0.0
  0
VERTEX
  5
542
  8
DATA
 62
     7
 10
-396.79192906930092
 20
376.66506350946099
 30
0.0
  0
VERTEX
  5
543
  8
DATA
 62
     7
 10
-397.54866001646258
 20
376.81159822407182
 30
0.0
  0
VERTEX
  5
544
  8
DATA
 62
     7
 10
-398.31885285794772
 20
376.91626587736522
 30
0.0
  0
VERTEX
  5
545
  8
DATA
 62
     7
 10
-399.102507593756
 20
376.97906646934132
 30
0.0
  0
VERTEX
  5
546
  8
DATA
 62
     7
 10
-399.89962422388771
 20
377.0
 30
0.0
  0
VERTEX
  5
547
  8
DATA
 62
     7
 10
-399.89962422388771
 20
377.0
 30
0.0
  0
VERTEX
  5
548
  8
DATA
 62
     7
 10
-399.91218269898559
 20
376.99999488927477
 30
0.0
  0
VERTEX
  5
549
  8
DATA
 62
     7
 10
-399.92473788748811
 20
376.99997955709892
 30
0.0
  0
VERTEX
  5
54A
  8
DATA
 62
     7
 10
-399.93728978939521
 20
376.99995400347262
 30
0.0
  0
VERTEX
  5
54B
  8
DATA
 62
     7
 10
-399.9498384047069
 20
376.99991822839593
 30
0.0
  0
VERTEX
  5
54C
  8
DATA
 62
     7
 10
-399.96238373342322
 20
376.99987223186849
 30
0.0
  0
VERTEX
  5
54D
  8
DATA
 62
     7
 10
-399.97492577554419
 20
376.99981601389061
 30
0.0
  0
VERTEX
  5
54E
  8
DATA
 62
     7
 10
-399.9874645310698
 20
376.99974957446233
 30
0.0
  0
VERTEX
  5
54F
  8
DATA
 62
     7
 10
-400.0
 20
376.99967291358342
 30
0.0
  0
VERTEX
  5
550
  8
DATA
 62
     7
 10
-400.0
 20
376.99967291358342
 30
0.0
  0
SEQEND
  5
551
  8
DATA
 62
     7
  0
POLYLINE
  5
180
  8
DATA
 62
     7
 66
     1
 10
0.0
 20
0.0
 30
0.0
 70
   128
  0
VERTEX
  5
552
  8
DATA
 62
     7
 10
-400.0
 20
361.00019625184967
 30
0.0
  0
VERTEX
  5
553
  8
DATA
 62
     7
 10
-399.98746453106969
 20
361.00015025532258
 30
0.0
  0
VERTEX
  5
554
  8
DATA
 62
     7
 10
-399.97492577554402
 20
361.00011039166571
 30
0.0
  0
VERTEX
  5
555
  8
DATA
 62
     7
 10
-399.96238373342283
 20
361.0000766608789
 30
0.0
  0
VERTEX
  5
556
  8
DATA
 62
     7
 10
-399.94983840470661
 20
361.00004906296232
 30
0.0
  0
VERTEX
  5
557
  8
DATA
 62
     7
 10
-399.93728978939492
 20
361.00002759791641
 30
0.0
  0
VERTEX
  5
558
  8
DATA
 62
     7
 10
-399.92473788748782
 20
361.00001226574062
 30
0.0
  0
VERTEX
  5
559
  8
DATA
 62
     7
 10
-399.91218269898548
 20
361.00000306643511
 30
0.0
  0
VERTEX
  5
55A
  8
DATA
 62
     7
 10
-399.89962422388771
 20
361.0
 30
0.0
  0
VERTEX
  5
55B
  8
DATA
 62
     7
 10
-399.89962422388771
 20
361.0
 30
0.0
  0
VERTEX
  5
55C
  8
DATA
 62
     7
 10
-399.102507593756
 20
361.01256011839507
 30
0.0
  0
VERTEX
  5
55D
  8
DATA
 62
     7
 10
-398.31885285794772
 20
361.0502404735808
 30
0.0
  0
VERTEX
  5
55E
  8
DATA
 62
     7
 10
-397.54866001646258
 20
361.11304106555679
 30
0.0
  0
VERTEX
  5
55F
  8
DATA
 62
     7
 10
-396.79192906930092
 20
361.20096189432331
 30
0.0
  0
VERTEX
  5
560
  8
DATA
 62
     7
 10
-396.04866001646258
 20
361.31400295988021
 30
0.0
  0
VERTEX
  5
561
  8
DATA
 62
     7
 10
-395.31885285794772
 20
361.45216426222743
 30
0.0
  0
VERTEX
  5
562
  8
DATA
 62
     7
 10
-394.602507593756
 20
361.61544580136518
 30
0.0
  0
VERTEX
  5
563
  8
DATA
 62
     7
 10
-393.89962422388771
 20
361.8038475772932
 30
0.0
  0
VERTEX
  5
564
  8
DATA
 62
     7
 10
-393.89962422388771
 20
361.8038475772932
 30
0.0
  0
VERTEX
  5
565
  8
DATA
 62
     7
 10
-393.2218610908098
 20
362.01400411643112
 30
0.0
  0
VERTEX
  5
566
  8
DATA
 62
     7
 10
-392.58087653698942
 20
362.2425499451976
 30
0.0
  0
VERTEX
  5
567
  8
DATA
 62
     7
 10
-391.97667056242648
 20
362.48948506359278
 30
0.0
  0
VERTEX
  5
568
  8
DATA
 62
     7
 10
-391.40924316712108
 20
362.75480947161668
 30
0.0
  0
VERTEX
  5
569
  8
DATA
 62
     7
 10
-390.87859435107322
 20
363.03852316926941
 30
0.0
  0
VERTEX
  5
56A
  8
DATA
 62
     7
 10
-390.3847241142829
 20
363.34062615655091
 30
0.0
  0
VERTEX
  5
56B
  8
DATA
 62
     7
 10
-389.92763245674979
 20
363.6611184334609
 30
0.0
  0
VERTEX
  5
56C
  8
DATA
 62
     7
 10
-389.50731937847451
 20
364.0
 30
0.0
  0
VERTEX
  5
56D
  8
DATA
 62
     7
 10
-389.50731937847451
 20
364.0
 30
0.0
  0
VERTEX
  5
56E
  8
DATA
 62
     7
 10
-389.13051582661819
 20
364.351441684934
 30
0.0
  0
VERTEX
  5
56F
  8
DATA
 62
     7
 10
-388.80395274834279
 20
364.70961431703
 30
0.0
  0
VERTEX
  5
570
  8
DATA
 62
     7
 10
-388.5276301436482
 20
365.07451789628738
 30
0.0
  0
VERTEX
  5
571
  8
DATA
 62
     7
 10
-388.3015480125344
 20
365.44615242270652
 30
0.0
  0
VERTEX
  5
572
  8
DATA
 62
     7
 10
-388.12570635500151
 20
365.82451789628738
 30
0.0
  0
VERTEX
  5
573
  8
DATA
 62
     7
 10
-388.00010517104943
 20
366.20961431703
 30
0.0
  0
VERTEX
  5
574
  8
DATA
 62
     7
 10
-387.92474446067808
 20
366.601441684934
 30
0.0
  0
VERTEX
  5
575
  8
DATA
 62
     7
 10
-387.89962422388771
 20
367.0
 30
0.0
  0
VERTEX
  5
576
  8
DATA
 62
     7
 10
-387.89962422388771
 20
367.0
 30
0.0
  0
VERTEX
  5
577
  8
DATA
 62
     7
 10
-387.92474446067808
 20
367.39855831506583
 30
0.0
  0
VERTEX
  5
578
  8
DATA
 62
     7
 10
-388.00010517104943
 20
367.79038568297
 30
0.0
  0
VERTEX
  5
579
  8
DATA
 62
     7
 10
-388.12570635500151
 20
368.17548210371251
 30
0.0
  0
VERTEX
  5
57A
  8
DATA
 62
     7
 10
-388.3015480125344
 20
368.55384757729331
 30
0.0
  0
VERTEX
  5
57B
  8
DATA
 62
     7
 10
-388.5276301436482
 20
368.9254821037124
 30
0.0
  0
VERTEX
  5
57C
  8
DATA
 62
     7
 10
-388.80395274834279
 20
369.29038568297
 30
0.0
  0
VERTEX
  5
57D
  8
DATA
 62
     7
 10
-389.13051582661819
 20
369.64855831506583
 30
0.0
  0
VERTEX
  5
57E
  8
DATA
 62
     7
 10
-389.50731937847451
 20
370.0
 30
0.0
  0
VERTEX
  5
57F
  8
DATA
 62
     7
 10
-389.50731937847451
 20
370.0
 30
0.0
  0
VERTEX
  5
580
  8
DATA
 62
     7
 10
-389.92763245674979
 20
370.33888156653887
 30
0.0
  0
VERTEX
  5
581
  8
DATA
 62
     7
 10
-390.3847241142829
 20
370.65937384344909
 30
0.0
  0
VERTEX
  5
582
  8
DATA
 62
     7
 10
-390.87859435107322
 20
370.96147683073048
 30
0.0
  0
VERTEX
  5
583
  8
DATA
 62
     7
 10
-391.40924316712108
 20
371.2451905283832
 30
0.0
  0
VERTEX
  5
584
  8
DATA
 62
     7
 10
-391.97667056242648
 20
371.51051493640722
 30
0.0
  0
VERTEX
  5
585
  8
DATA
 62
     7
 10
-392.58087653698942
 20
371.7574500548024
 30
0.0
  0
VERTEX
  5
586
  8
DATA
 62
     7
 10
-393.2218610908098
 20
371.98599588356888
 30
0.0
  0
VERTEX
  5
587
  8
DATA
 62
     7
 10
-393.89962422388771
 20
372.19615242270652
 30
0.0
  0
VERTEX
  5
588
  8
DATA
 62
     7
 10
-393.89962422388771
 20
372.19615242270652
 30
0.0
  0
VERTEX
  5
589
  8
DATA
 62
     7
 10
-394.602507593756
 20
372.3845541986347
 30
0.0
  0
VERTEX
  5
58A
  8
DATA
 62
     7
 10
-395.31885285794772
 20
372.5478357377724
 30
0.0
  0
VERTEX
  5
58B
  8
DATA
 62
     7
 10
-396.04866001646258
 20
372.68599704011967
 30
0.0
  0
VERTEX
  5
58C
  8
DATA
 62
     7
 10
-396.79192906930092
 20
372.79903810567657
 30
0.0
  0
VERTEX
  5
58D
  8
DATA
 62
     7
 10
-397.54866001646258
 20
372.8869589344431
 30
0.0
  0
VERTEX
  5
58E
  8
DATA
 62
     7
 10
-398.31885285794772
 20
372.9497595264192
 30
0.0
  0
VERTEX
  5
58F
  8
DATA
 62
     7
 10
-399.102507593756
 20
372.9874398816047
 30
0.0
  0
VERTEX
  5
590
  8
DATA
 62
     7
 10
-399.89962422388771
 20
373.0
 30
0.0
  0
VERTEX
  5
591
  8
DATA
 62
     7
 10
-399.89962422388771
 20
373.0
 30
0.0
  0
VERTEX
  5
592
  8
DATA
 62
     7
 10
-399.91218269898712
 20
372.99999693356477
 30
0.0
  0
VERTEX
  5
593
  8
DATA
 62
     7
 10
-399.92473788749061
 20
372.99998773425932
 30
0.0
  0
VERTEX
  5
594
  8
DATA
 62
     7
 10
-399.93728978939828
 20
372.99997240208359
 30
0.0
  0
VERTEX
  5
595
  8
DATA
 62
     7
 10
-399.94983840471008
 20
372.99995093703751
 30
0.0
  0
VERTEX
  5
596
  8
DATA
 62
     7
 10
-399.96238373342629
 20
372.9999233391211
 30
0.0
  0
VERTEX
  5
597
  8
DATA
 62
     7
 10
-399.97492577554658
 20
372.9998896083344
 30
0.0
  0
VERTEX
  5
598
  8
DATA
 62
     7
 10
-399.98746453107123
 20
372.99984974467742
 30
0.0
  0
VERTEX
  5
599
  8
DATA
 62
     7
 10
-400.0
 20
372.9998037481501
 30
0.0
  0
VERTEX
  5
59A
  8
DATA
 62
     7
 10
-400.0
 20
372.9998037481501
 30
0.0
  0
SEQEND
  5
59B
  8
DATA
 62
     7
  0
POLYLINE
  5
1CB
  8
DATA
 62
     7
 66
     1
 10
0.0
 20
0.0
 30
0.0
 70
   128
  0
VERTEX
  5
59C
  8
DATA
 62
     7
 10
-400.0
 20
312.50032708641652
 30
0.0
  0
VERTEX
  5
59D
  8
DATA
 62
     7
 10
-399.9874645310698
 20
312.50025042553762
 30
0.0
  0
VERTEX
  5
59E
  8
DATA
 62
     7
 10
-399.97492577554419
 20
312.50018398610922
 30
0.0
  0
VERTEX
  5
59F
  8
DATA
 62
     7
 10
-399.96238373342322
 20
312.50012776813139
 30
0.0
  0
VERTEX
  5
5A0
  8
DATA
 62
     7
 10
-399.9498384047069
 20
312.50008177160407
 30
0.0
  0
VERTEX
  5
5A1
  8
DATA
 62
     7
 10
-399.93728978939521
 20
312.50004599652721
 30
0.0
  0
VERTEX
  5
5A2
  8
DATA
 62
     7
 10
-399.92473788748811
 20
312.5000204429009
 30
0.0
  0
VERTEX
  5
5A3
  8
DATA
 62
     7
 10
-399.91218269898559
 20
312.50000511072523
 30
0.0
  0
VERTEX
  5
5A4
  8
DATA
 62
     7
 10
-399.89962422388771
 20
312.5
 30
0.0
  0
VERTEX
  5
5A5
  8
DATA
 62
     7
 10
-399.89962422388771
 20
312.5
 30
0.0
  0
VERTEX
  5
5A6
  8
DATA
 62
     7
 10
-399.102507593756
 20
312.52093353065862
 30
0.0
  0
VERTEX
  5
5A7
  8
DATA
 62
     7
 10
-398.31885285794772
 20
312.58373412263472
 30
0.0
  0
VERTEX
  5
5A8
  8
DATA
 62
     7
 10
-397.54866001646258
 20
312.68840177592813
 30
0.0
  0
VERTEX
  5
5A9
  8
DATA
 62
     7
 10
-396.79192906930092
 20
312.83493649053889
 30
0.0
  0
VERTEX
  5
5AA
  8
DATA
 62
     7
 10
-396.04866001646258
 20
313.02333826646702
 30
0.0
  0
VERTEX
  5
5AB
  8
DATA
 62
     7
 10
-395.31885285794772
 20
313.25360710371251
 30
0.0
  0
VERTEX
  5
5AC
  8
DATA
 62
     7
 10
-394.602507593756
 20
313.52574300227542
 30
0.0
  0
VERTEX
  5
5AD
  8
DATA
 62
     7
 10
-393.89962422388771
 20
313.83974596215558
 30
0.0
  0
VERTEX
  5
5AE
  8
DATA
 62
     7
 10
-393.89962422388771
 20
313.83974596215558
 30
0.0
  0
VERTEX
  5
5AF
  8
DATA
 62
     7
 10
-393.2218610908098
 20
314.19000686071843
 30
0.0
  0
VERTEX
  5
5B0
  8
DATA
 62
     7
 10
-392.58087653698942
 20
314.57091657532919
 30
0.0
  0
VERTEX
  5
5B1
  8
DATA
 62
     7
 10
-391.97667056242648
 20
314.98247510598787
 30
0.0
  0
VERTEX
  5
5B2
  8
DATA
 62
     7
 10
-391.40924316712108
 20
315.42468245269453
 30
0.0
  0
VERTEX
  5
5B3
  8
DATA
 62
     7
 10
-390.87859435107322
 20
315.89753861544898
 30
0.0
  0
VERTEX
  5
5B4
  8
DATA
 62
     7
 10
-390.3847241142829
 20
316.40104359425129
 30
0.0
  0
VERTEX
  5
5B5
  8
DATA
 62
     7
 10
-389.92763245674979
 20
316.93519738910169
 30
0.0
  0
VERTEX
  5
5B6
  8
DATA
 62
     7
 10
-389.50731937847451
 20
317.49999999999989
 30
0.0
  0
VERTEX
  5
5B7
  8
DATA
 62
     7
 10
-389.50731937847451
 20
317.49999999999989
 30
0.0
  0
VERTEX
  5
5B8
  8
DATA
 62
     7
 10
-389.13051582661819
 20
318.08573614155682
 30
0.0
  0
VERTEX
  5
5B9
  8
DATA
 62
     7
 10
-388.80395274834279
 20
318.6826905283832
 30
0.0
  0
VERTEX
  5
5BA
  8
DATA
 62
     7
 10
-388.5276301436482
 20
319.29086316047898
 30
0.0
  0
VERTEX
  5
5BB
  8
DATA
 62
     7
 10
-388.3015480125344
 20
319.91025403784431
 30
0.0
  0
VERTEX
  5
5BC
  8
DATA
 62
     7
 10
-388.12570635500151
 20
320.54086316047898
 30
0.0
  0
VERTEX
  5
5BD
  8
DATA
 62
     7
 10
-388.00010517104943
 20
321.1826905283832
 30
0.0
  0
VERTEX
  5
5BE
  8
DATA
 62
     7
 10
-387.92474446067808
 20
321.83573614155682
 30
0.0
  0
VERTEX
  5
5BF
  8
DATA
 62
     7
 10
-387.89962422388771
 20
322.5
 30
0.0
  0
VERTEX
  5
5C0
  8
DATA
 62
     7
 10
-387.89962422388771
 20
322.5
 30
0.0
  0
VERTEX
  5
5C1
  8
DATA
 62
     7
 10
-387.92474446067808
 20
323.16426385844312
 30
0.0
  0
VERTEX
  5
5C2
  8
DATA
 62
     7
 10
-388.00010517104943
 20
323.81730947161668
 30
0.0
  0
VERTEX
  5
5C3
  8
DATA
 62
     7
 10
-388.12570635500151
 20
324.4591368395208
 30
0.0
  0
VERTEX
  5
5C4
  8
DATA
 62
     7
 10
-388.3015480125344
 20
325.08974596215558
 30
0.0
  0
VERTEX
  5
5C5
  8
DATA
 62
     7
 10
-388.5276301436482
 20
325.7091368395208
 30
0.0
  0
VERTEX
  5
5C6
  8
DATA
 62
     7
 10
-388.80395274834279
 20
326.31730947161668
 30
0.0
  0
VERTEX
  5
5C7
  8
DATA
 62
     7
 10
-389.13051582661819
 20
326.91426385844312
 30
0.0
  0
VERTEX
  5
5C8
  8
DATA
 62
     7
 10
-389.50731937847451
 20
327.49999999999989
 30
0.0
  0
VERTEX
  5
5C9
  8
DATA
 62
     7
 10
-389.50731937847451
 20
327.49999999999989
 30
0.0
  0
VERTEX
  5
5CA
  8
DATA
 62
     7
 10
-389.92763245674979
 20
328.06480261089808
 30
0.0
  0
VERTEX
  5
5CB
  8
DATA
 62
     7
 10
-390.3847241142829
 20
328.59895640574848
 30
0.0
  0
VERTEX
  5
5CC
  8
DATA
 62
     7
 10
-390.87859435107322
 20
329.10246138455079
 30
0.0
  0
VERTEX
  5
5CD
  8
DATA
 62
     7
 10
-391.40924316712108
 20
329.57531754730547
 30
0.0
  0
VERTEX
  5
5CE
  8
DATA
 62
     7
 10
-391.97667056242648
 20
330.01752489401201
 30
0.0
  0
VERTEX
  5
5CF
  8
DATA
 62
     7
 10
-392.58087653698942
 20
330.42908342467069
 30
0.0
  0
VERTEX
  5
5D0
  8
DATA
 62
     7
 10
-393.2218610908098
 20
330.8099931392814
 30
0.0
  0
VERTEX
  5
5D1
  8
DATA
 62
     7
 10
-393.89962422388771
 20
331.16025403784431
 30
0.0
  0
VERTEX
  5
5D2
  8
DATA
 62
     7
 10
-393.89962422388771
 20
331.16025403784431
 30
0.0
  0
VERTEX
  5
5D3
  8
DATA
 62
     7
 10
-394.602507593756
 20
331.47425699772452
 30
0.0
  0
VERTEX
  5
5D4
  8
DATA
 62
     7
 10
-395.31885285794772
 20
331.74639289628738
 30
0.0
  0
VERTEX
  5
5D5
  8
DATA
 62
     7
 10
-396.04866001646258
 20
331.97666173353292
 30
0.0
  0
VERTEX
  5
5D6
  8
DATA
 62
     7
 10
-396.79192906930092
 20
332.16506350946111
 30
0.0
  0
VERTEX
  5
5D7
  8
DATA
 62
     7
 10
-397.54866001646258
 20
332.31159822407182
 30
0.0
  0
VERTEX
  5
5D8
  8
DATA
 62
     7
 10
-398.31885285794772
 20
332.41626587736522
 30
0.0
  0
VERTEX
  5
5D9
  8
DATA
 62
     7
 10
-399.102507593756
 20
332.47906646934132
 30
0.0
  0
VERTEX
  5
5DA
  8
DATA
 62
     7
 10
-399.89962422388771
 20
332.49999999999989
 30
0.0
  0
VERTEX
  5
5DB
  8
DATA
 62
     7
 10
-399.89962422388771
 20
332.49999999999989
 30
0.0
  0
VERTEX
  5
5DC
  8
DATA
 62
     7
 10
-399.91218269898559
 20
332.49999488927477
 30
0.0
  0
VERTEX
  5
5DD
  8
DATA
 62
     7
 10
-399.92473788748811
 20
332.49997955709892
 30
0.0
  0
VERTEX
  5
5DE
  8
DATA
 62
     7
 10
-399.93728978939521
 20
332.49995400347262
 30
0.0
  0
VERTEX
  5
5DF
  8
DATA
 62
     7
 10
-399.9498384047069
 20
332.49991822839581
 30
0.0
  0
VERTEX
  5
5E0
  8
DATA
 62
     7
 10
-399.96238373342322
 20
332.49987223186849
 30
0.0
  0
VERTEX
  5
5E1
  8
DATA
 62
     7
 10
-399.97492577554419
 20
332.49981601389072
 30
0.0
  0
VERTEX
  5
5E2
  8
DATA
 62
     7
 10
-399.9874645310698
 20
332.49974957446221
 30
0.0
  0
VERTEX
  5
5E3
  8
DATA
 62
     7
 10
-400.0
 20
332.49967291358331
 30
0.0
  0
VERTEX
  5
5E4
  8
DATA
 62
     7
 10
-400.0
 20
332.49967291358331
 30
0.0
  0
SEQEND
  5
5E5
  8
DATA
 62
     7
  0
POLYLINE
  5
216
  8
DATA
 62
     7
 66
     1
 10
0.0
 20
0.0
 30
0.0
 70
   128
  0
VERTEX
  5
5E6
  8
DATA
 62
     7
 10
-400.0
 20
316.50019625184979
 30
0.0
  0
VERTEX
  5
5E7
  8
DATA
 62
     7
 10
-399.98746453106969
 20
316.50015025532258
 30
0.0
  0
VERTEX
  5
5E8
  8
DATA
 62
     7
 10
-399.97492577554402
 20
316.5001103916656
 30
0.0
  0
VERTEX
  5
5E9
  8
DATA
 62
     7
 10
-399.96238373342283
 20
316.50007666087879
 30
0.0
  0
VERTEX
  5
5EA
  8
DATA
 62
     7
 10
-399.94983840470661
 20
316.50004906296238
 30
0.0
  0
VERTEX
  5
5EB
  8
DATA
 62
     7
 10
-399.93728978939492
 20
316.50002759791641
 30
0.0
  0
VERTEX
  5
5EC
  8
DATA
 62
     7
 10
-399.92473788748782
 20
316.50001226574062
 30
0.0
  0
VERTEX
  5
5ED
  8
DATA
 62
     7
 10
-399.91218269898548
 20
316.50000306643511
 30
0.0
  0
VERTEX
  5
5EE
  8
DATA
 62
     7
 10
-399.89962422388771
 20
316.5
 30
0.0
  0
VERTEX
  5
5EF
  8
DATA
 62
     7
 10
-399.89962422388771
 20
316.5
 30
0.0
  0
VERTEX
  5
5F0
  8
DATA
 62
     7
 10
-399.102507593756
 20
316.51256011839519
 30
0.0
  0
VERTEX
  5
5F1
  8
DATA
 62
     7
 10
-398.31885285794772
 20
316.5502404735808
 30
0.0
  0
VERTEX
  5
5F2
  8
DATA
 62
     7
 10
-397.54866001646258
 20
316.61304106555679
 30
0.0
  0
VERTEX
  5
5F3
  8
DATA
 62
     7
 10
-396.79192906930092
 20
316.70096189432331
 30
0.0
  0
VERTEX
  5
5F4
  8
DATA
 62
     7
 10
-396.04866001646258
 20
316.81400295988021
 30
0.0
  0
VERTEX
  5
5F5
  8
DATA
 62
     7
 10
-395.31885285794772
 20
316.95216426222748
 30
0.0
  0
VERTEX
  5
5F6
  8
DATA
 62
     7
 10
-394.602507593756
 20
317.11544580136518
 30
0.0
  0
VERTEX
  5
5F7
  8
DATA
 62
     7
 10
-393.89962422388771
 20
317.30384757729331
 30
0.0
  0
VERTEX
  5
5F8
  8
DATA
 62
     7
 10
-393.89962422388771
 20
317.30384757729331
 30
0.0
  0
VERTEX
  5
5F9
  8
DATA
 62
     7
 10
-393.2218610908098
 20
317.51400411643101
 30
0.0
  0
VERTEX
  5
5FA
  8
DATA
 62
     7
 10
-392.58087653698942
 20
317.74254994519748
 30
0.0
  0
VERTEX
  5
5FB
  8
DATA
 62
     7
 10
-391.97667056242648
 20
317.98948506359278
 30
0.0
  0
VERTEX
  5
5FC
  8
DATA
 62
     7
 10
-391.40924316712108
 20
318.25480947161668
 30
0.0
  0
VERTEX
  5
5FD
  8
DATA
 62
     7
 10
-390.87859435107322
 20
318.5385231692693
 30
0.0
  0
VERTEX
  5
5FE
  8
DATA
 62
     7
 10
-390.3847241142829
 20
318.8406261565508
 30
0.0
  0
VERTEX
  5
5FF
  8
DATA
 62
     7
 10
-389.92763245674979
 20
319.16111843346101
 30
0.0
  0
VERTEX
  5
600
  8
DATA
 62
     7
 10
-389.50731937847451
 20
319.49999999999989
 30
0.0
  0
VERTEX
  5
601
  8
DATA
 62
     7
 10
-389.50731937847451
 20
319.49999999999989
 30
0.0
  0
VERTEX
  5
602
  8
DATA
 62
     7
 10
-389.13051582661819
 20
319.85144168493412
 30
0.0
  0
VERTEX
  5
603
  8
DATA
 62
     7
 10
-388.80395274834279
 20
320.20961431703
 30
0.0
  0
VERTEX
  5
604
  8
DATA
 62
     7
 10
-388.5276301436482
 20
320.57451789628738
 30
0.0
  0
VERTEX
  5
605
  8
DATA
 62
     7
 10
-388.3015480125344
 20
320.94615242270658
 30
0.0
  0
VERTEX
  5
606
  8
DATA
 62
     7
 10
-388.12570635500151
 20
321.32451789628738
 30
0.0
  0
VERTEX
  5
607
  8
DATA
 62
     7
 10
-388.00010517104943
 20
321.70961431702989
 30
0.0
  0
VERTEX
  5
608
  8
DATA
 62
     7
 10
-387.92474446067808
 20
322.10144168493412
 30
0.0
  0
VERTEX
  5
609
  8
DATA
 62
     7
 10
-387.89962422388771
 20
322.5
 30
0.0
  0
VERTEX
  5
60A
  8
DATA
 62
     7
 10
-387.89962422388771
 20
322.5
 30
0.0
  0
VERTEX
  5
60B
  8
DATA
 62
     7
 10
-387.92474446067808
 20
322.89855831506583
 30
0.0
  0
VERTEX
  5
60C
  8
DATA
 62
     7
 10
-388.00010517104943
 20
323.29038568296988
 30
0.0
  0
VERTEX
  5
60D
  8
DATA
 62
     7
 10
-388.12570635500151
 20
323.67548210371251
 30
0.0
  0
VERTEX
  5
60E
  8
DATA
 62
     7
 10
-388.3015480125344
 20
324.0538475772932
 30
0.0
  0
VERTEX
  5
60F
  8
DATA
 62
     7
 10
-388.5276301436482
 20
324.42548210371251
 30
0.0
  0
VERTEX
  5
610
  8
DATA
 62
     7
 10
-388.80395274834279
 20
324.79038568297
 30
0.0
  0
VERTEX
  5
611
  8
DATA
 62
     7
 10
-389.13051582661819
 20
325.14855831506583
 30
0.0
  0
VERTEX
  5
612
  8
DATA
 62
     7
 10
-389.50731937847451
 20
325.49999999999989
 30
0.0
  0
VERTEX
  5
613
  8
DATA
 62
     7
 10
-389.50731937847451
 20
325.49999999999989
 30
0.0
  0
VERTEX
  5
614
  8
DATA
 62
     7
 10
-389.92763245674979
 20
325.83888156653887
 30
0.0
  0
VERTEX
  5
615
  8
DATA
 62
     7
 10
-390.3847241142829
 20
326.15937384344898
 30
0.0
  0
VERTEX
  5
616
  8
DATA
 62
     7
 10
-390.87859435107322
 20
326.46147683073048
 30
0.0
  0
VERTEX
  5
617
  8
DATA
 62
     7
 10
-391.40924316712108
 20
326.7451905283832
 30
0.0
  0
VERTEX
  5
618
  8
DATA
 62
     7
 10
-391.97667056242648
 20
327.01051493640722
 30
0.0
  0
VERTEX
  5
619
  8
DATA
 62
     7
 10
-392.58087653698942
 20
327.2574500548024
 30
0.0
  0
VERTEX
  5
61A
  8
DATA
 62
     7
 10
-393.2218610908098
 20
327.48599588356888
 30
0.0
  0
VERTEX
  5
61B
  8
DATA
 62
     7
 10
-393.89962422388771
 20
327.69615242270658
 30
0.0
  0
VERTEX
  5
61C
  8
DATA
 62
     7
 10
-393.89962422388771
 20
327.69615242270658
 30
0.0
  0
VERTEX
  5
61D
  8
DATA
 62
     7
 10
-394.602507593756
 20
327.8845541986347
 30
0.0
  0
VERTEX
  5
61E
  8
DATA
 62
     7
 10
-395.31885285794772
 20
328.04783573777229
 30
0.0
  0
VERTEX
  5
61F
  8
DATA
 62
     7
 10
-396.04866001646258
 20
328.18599704011967
 30
0.0
  0
VERTEX
  5
620
  8
DATA
 62
     7
 10
-396.79192906930092
 20
328.29903810567657
 30
0.0
  0
VERTEX
  5
621
  8
DATA
 62
     7
 10
-397.54866001646258
 20
328.38695893444321
 30
0.0
  0
VERTEX
  5
622
  8
DATA
 62
     7
 10
-398.31885285794772
 20
328.4497595264192
 30
0.0
  0
VERTEX
  5
623
  8
DATA
 62
     7
 10
-399.102507593756
 20
328.4874398816047
 30
0.0
  0
VERTEX
  5
624
  8
DATA
 62
     7
 10
-399.89962422388771
 20
328.5
 30
0.0
  0
VERTEX
  5
625
  8
DATA
 62
     7
 10
-399.89962422388771
 20
328.5
 30
0.0
  0
VERTEX
  5
626
  8
DATA
 62
     7
 10
-399.91218269898712
 20
328.49999693356477
 30
0.0
  0
VERTEX
  5
627
  8
DATA
 62
     7
 10
-399.92473788749061
 20
328.49998773425932
 30
0.0
  0
VERTEX
  5
628
  8
DATA
 62
     7
 10
-399.93728978939828
 20
328.49997240208347
 30
0.0
  0
VERTEX
  5
629
  8
DATA
 62
     7
 10
-399.94983840471008
 20
328.49995093703751
 30
0.0
  0
VERTEX
  5
62A
  8
DATA
 62
     7
 10
-399.96238373342629
 20
328.49992333912121
 30
0.0
  0
VERTEX
  5
62B
  8
DATA
 62
     7
 10
-399.97492577554658
 20
328.4998896083344
 30
0.0
  0
VERTEX
  5
62C
  8
DATA
 62
     7
 10
-399.98746453107123
 20
328.49984974467742
 30
0.0
  0
VERTEX
  5
62D
  8
DATA
 62
     7
 10
-400.0
 20
328.49980374814999
 30
0.0
  0
VERTEX
  5
62E
  8
DATA
 62
     7
 10
-400.0
 20
328.49980374814999
 30
0.0
  0
SEQEND
  5
62F
  8
DATA
 62
     7
  0
LINE
  5
261
  8
DATA
 62
     7
 10
133.15000000000001
 20
306.25
 30
0.0
 11
133.15000000000001
 21
383.25
 31
0.0
  0
LINE
  5
262
  8
DATA
 62
     7
 10
129.65000000000001
 20
383.25
 30
0.0
 11
129.65000000000001
 21
376.5890656262485
 31
0.0
  0
LINE
  5
263
  8
DATA
 62
     7
 10
129.65000000000001
 20
372.75999523183219
 30
0.0
 11
129.65000000000001
 21
372.75197285735328
 31
0.0
  0
LINE
  5
264
  8
DATA
 62
     7
 10
129.65000000000001
 20
361.24589237871982
 30
0.0
 11
129.65000000000001
 21
361.23946676007017
 31
0.0
  0
LINE
  5
265
  8
DATA
 62
     7
 10
129.65000000000001
 20
357.39121810956601
 30
0.0
 11
129.65000000000001
 21
332.08651761979979
 31
0.0
  0
LINE
  5
266
  8
DATA
 62
     7
 10
129.65000000000001
 20
328.25742785174549
 30
0.0
 11
129.65000000000001
 21
328.23707039563618
 31
0.0
  0
LINE
  5
267
  8
DATA
 62
     7
 10
129.65000000000001
 20
316.74746744291423
 30
0.0
 11
129.65000000000001
 21
316.73743166724938
 31
0.0
  0
LINE
  5
268
  8
DATA
 62
     7
 10
129.65000000000001
 20
312.90178115736381
 30
0.0
 11
129.65000000000001
 21
306.25
 31
0.0
  0
LINE
  5
269
  8
DATA
 62
     7
 10
129.65000000000001
 20
383.25
 30
0.0
 11
129.65000000000001
 21
389.5
 31
0.0
  0
LINE
  5
26A
  8
DATA
 62
     7
 10
129.65000000000001
 20
383.25
 30
0.0
 11
133.15000000000001
 21
383.25
 31
0.0
  0
LINE
  5
26B
  8
DATA
 62
     7
 10
129.65000000000001
 20
300.0
 30
0.0
 11
129.65000000000001
 21
306.25
 31
0.0
  0
LINE
  5
26C
  8
DATA
 62
     7
 10
133.15000000000001
 20
306.25
 30
0.0
 11
129.65000000000001
 21
306.25
 31
0.0
  0
POLYLINE
  5
26D
  8
DATA
 62
     7
 66
     1
 10
0.0
 20
0.0
 30
0.0
 70
   128
  0
VERTEX
  5
630
  8
DATA
 62
     7
 10
133.15000000000001
 20
357.00032708641652
 30
0.0
  0
VERTEX
  5
631
  8
DATA
 62
     7
 10
133.13746453106981
 20
357.00025042553762
 30
0.0
  0
VERTEX
  5
632
  8
DATA
 62
     7
 10
133.1249257755442
 20
357.00018398610922
 30
0.0
  0
VERTEX
  5
633
  8
DATA
 62
     7
 10
133.1123837334232
 20
357.00012776813139
 30
0.0
  0
VERTEX
  5
634
  8
DATA
 62
     7
 10
133.0998384047069
 20
357.00008177160407
 30
0.0
  0
VERTEX
  5
635
  8
DATA
 62
     7
 10
133.08728978939519
 20
357.00004599652732
 30
0.0
  0
VERTEX
  5
636
  8
DATA
 62
     7
 10
133.07473788748811
 20
357.0000204429009
 30
0.0
  0
VERTEX
  5
637
  8
DATA
 62
     7
 10
133.06218269898559
 20
357.00000511072523
 30
0.0
  0
VERTEX
  5
638
  8
DATA
 62
     7
 10
133.0496242238878
 20
356.99999999999989
 30
0.0
  0
VERTEX
  5
639
  8
DATA
 62
     7
 10
133.0496242238878
 20
356.99999999999989
 30
0.0
  0
VERTEX
  5
63A
  8
DATA
 62
     7
 10
132.25250759375609
 20
357.02093353065862
 30
0.0
  0
VERTEX
  5
63B
  8
DATA
 62
     7
 10
131.46885285794781
 20
357.08373412263472
 30
0.0
  0
VERTEX
  5
63C
  8
DATA
 62
     7
 10
130.6986600164627
 20
357.18840177592801
 30
0.0
  0
VERTEX
  5
63D
  8
DATA
 62
     7
 10
129.94192906930101
 20
357.33493649053878
 30
0.0
  0
VERTEX
  5
63E
  8
DATA
 62
     7
 10
129.1986600164627
 20
357.52333826646691
 30
0.0
  0
VERTEX
  5
63F
  8
DATA
 62
     7
 10
128.46885285794781
 20
357.7536071037124
 30
0.0
  0
VERTEX
  5
640
  8
DATA
 62
     7
 10
127.75250759375599
 20
358.02574300227542
 30
0.0
  0
VERTEX
  5
641
  8
DATA
 62
     7
 10
127.0496242238878
 20
358.33974596215558
 30
0.0
  0
VERTEX
  5
642
  8
DATA
 62
     7
 10
127.0496242238878
 20
358.33974596215558
 30
0.0
  0
VERTEX
  5
643
  8
DATA
 62
     7
 10
126.3718610908099
 20
358.69000686071848
 30
0.0
  0
VERTEX
  5
644
  8
DATA
 62
     7
 10
125.7308765369895
 20
359.07091657532919
 30
0.0
  0
VERTEX
  5
645
  8
DATA
 62
     7
 10
125.1266705624266
 20
359.48247510598787
 30
0.0
  0
VERTEX
  5
646
  8
DATA
 62
     7
 10
124.5592431671212
 20
359.92468245269453
 30
0.0
  0
VERTEX
  5
647
  8
DATA
 62
     7
 10
124.0285943510732
 20
360.39753861544892
 30
0.0
  0
VERTEX
  5
648
  8
DATA
 62
     7
 10
123.53472411428289
 20
360.90104359425141
 30
0.0
  0
VERTEX
  5
649
  8
DATA
 62
     7
 10
123.0776324567499
 20
361.43519738910169
 30
0.0
  0
VERTEX
  5
64A
  8
DATA
 62
     7
 10
122.6573193784745
 20
362.0
 30
0.0
  0
VERTEX
  5
64B
  8
DATA
 62
     7
 10
122.6573193784745
 20
362.0
 30
0.0
  0
VERTEX
  5
64C
  8
DATA
 62
     7
 10
122.2805158266182
 20
362.58573614155682
 30
0.0
  0
VERTEX
  5
64D
  8
DATA
 62
     7
 10
121.9539527483428
 20
363.1826905283832
 30
0.0
  0
VERTEX
  5
64E
  8
DATA
 62
     7
 10
121.6776301436482
 20
363.79086316047909
 30
0.0
  0
VERTEX
  5
64F
  8
DATA
 62
     7
 10
121.4515480125345
 20
364.41025403784431
 30
0.0
  0
VERTEX
  5
650
  8
DATA
 62
     7
 10
121.2757063550015
 20
365.04086316047898
 30
0.0
  0
VERTEX
  5
651
  8
DATA
 62
     7
 10
121.1501051710494
 20
365.6826905283832
 30
0.0
  0
VERTEX
  5
652
  8
DATA
 62
     7
 10
121.0747444606782
 20
366.33573614155682
 30
0.0
  0
VERTEX
  5
653
  8
DATA
 62
     7
 10
121.0496242238878
 20
367.0
 30
0.0
  0
VERTEX
  5
654
  8
DATA
 62
     7
 10
121.0496242238878
 20
367.0
 30
0.0
  0
VERTEX
  5
655
  8
DATA
 62
     7
 10
121.0747444606782
 20
367.66426385844312
 30
0.0
  0
VERTEX
  5
656
  8
DATA
 62
     7
 10
121.1501051710494
 20
368.31730947161668
 30
0.0
  0
VERTEX
  5
657
  8
DATA
 62
     7
 10
121.2757063550015
 20
368.95913683952091
 30
0.0
  0
VERTEX
  5
658
  8
DATA
 62
     7
 10
121.4515480125345
 20
369.58974596215558
 30
0.0
  0
VERTEX
  5
659
  8
DATA
 62
     7
 10
121.6776301436482
 20
370.20913683952091
 30
0.0
  0
VERTEX
  5
65A
  8
DATA
 62
     7
 10
121.9539527483428
 20
370.81730947161668
 30
0.0
  0
VERTEX
  5
65B
  8
DATA
 62
     7
 10
122.2805158266182
 20
371.41426385844312
 30
0.0
  0
VERTEX
  5
65C
  8
DATA
 62
     7
 10
122.6573193784745
 20
372.0
 30
0.0
  0
VERTEX
  5
65D
  8
DATA
 62
     7
 10
122.6573193784745
 20
372.0
 30
0.0
  0
VERTEX
  5
65E
  8
DATA
 62
     7
 10
123.0776324567499
 20
372.56480261089808
 30
0.0
  0
VERTEX
  5
65F
  8
DATA
 62
     7
 10
123.53472411428289
 20
373.09895640574848
 30
0.0
  0
VERTEX
  5
660
  8
DATA
 62
     7
 10
124.0285943510732
 20
373.60246138455091
 30
0.0
  0
VERTEX
  5
661
  8
DATA
 62
     7
 10
124.5592431671212
 20
374.07531754730547
 30
0.0
  0
VERTEX
  5
662
  8
DATA
 62
     7
 10
125.1266705624266
 20
374.51752489401201
 30
0.0
  0
VERTEX
  5
663
  8
DATA
 62
     7
 10
125.7308765369895
 20
374.92908342467069
 30
0.0
  0
VERTEX
  5
664
  8
DATA
 62
     7
 10
126.3718610908099
 20
375.30999313928152
 30
0.0
  0
VERTEX
  5
665
  8
DATA
 62
     7
 10
127.0496242238878
 20
375.66025403784431
 30
0.0
  0
VERTEX
  5
666
  8
DATA
 62
     7
 10
127.0496242238878
 20
375.66025403784431
 30
0.0
  0
VERTEX
  5
667
  8
DATA
 62
     7
 10
127.75250759375599
 20
375.97425699772452
 30
0.0
  0
VERTEX
  5
668
  8
DATA
 62
     7
 10
128.46885285794781
 20
376.24639289628738
 30
0.0
  0
VERTEX
  5
669
  8
DATA
 62
     7
 10
129.1986600164627
 20
376.47666173353292
 30
0.0
  0
VERTEX
  5
66A
  8
DATA
 62
     7
 10
129.94192906930101
 20
376.66506350946099
 30
0.0
  0
VERTEX
  5
66B
  8
DATA
 62
     7
 10
130.6986600164627
 20
376.81159822407182
 30
0.0
  0
VERTEX
  5
66C
  8
DATA
 62
     7
 10
131.46885285794781
 20
376.91626587736522
 30
0.0
  0
VERTEX
  5
66D
  8
DATA
 62
     7
 10
132.25250759375609
 20
376.97906646934132
 30
0.0
  0
VERTEX
  5
66E
  8
DATA
 62
     7
 10
133.0496242238878
 20
377.0
 30
0.0
  0
VERTEX
  5
66F
  8
DATA
 62
     7
 10
133.0496242238878
 20
377.0
 30
0.0
  0
VERTEX
  5
670
  8
DATA
 62
     7
 10
133.06218269898559
 20
376.99999488927477
 30
0.0
  0
VERTEX
  5
671
  8
DATA
 62
     7
 10
133.07473788748811
 20
376.99997955709892
 30
0.0
  0
VERTEX
  5
672
  8
DATA
 62
     7
 10
133.08728978939519
 20
376.99995400347262
 30
0.0
  0
VERTEX
  5
673
  8
DATA
 62
     7
 10
133.0998384047069
 20
376.99991822839593
 30
0.0
  0
VERTEX
  5
674
  8
DATA
 62
     7
 10
133.1123837334232
 20
376.99987223186849
 30
0.0
  0
VERTEX
  5
675
  8
DATA
 62
     7
 10
133.1249257755442
 20
376.99981601389061
 30
0.0
  0
VERTEX
  5
676
  8
DATA
 62
     7
 10
133.13746453106981
 20
376.99974957446233
 30
0.0
  0
VERTEX
  5
677
  8
DATA
 62
     7
 10
133.15000000000001
 20
376.99967291358342
 30
0.0
  0
VERTEX
  5
678
  8
DATA
 62
     7
 10
133.15000000000001
 20
376.99967291358342
 30
0.0
  0
SEQEND
  5
679
  8
DATA
 62
     7
  0
POLYLINE
  5
2B8
  8
DATA
 62
     7
 66
     1
 10
0.0
 20
0.0
 30
0.0
 70
   128
  0
VERTEX
  5
67A
  8
DATA
 62
     7
 10
133.15000000000001
 20
361.00019625184967
 30
0.0
  0
VERTEX
  5
67B
  8
DATA
 62
     7
 10
133.1374645310697
 20
361.00015025532258
 30
0.0
  0
VERTEX
  5
67C
  8
DATA
 62
     7
 10
133.124925775544
 20
361.00011039166571
 30
0.0
  0
VERTEX
  5
67D
  8
DATA
 62
     7
 10
133.112383733423
 20
361.0000766608789
 30
0.0
  0
VERTEX
  5
67E
  8
DATA
 62
     7
 10
133.09983840470659
 20
361.00004906296232
 30
0.0
  0
VERTEX
  5
67F
  8
DATA
 62
     7
 10
133.0872897893949
 20
361.00002759791641
 30
0.0
  0
VERTEX
  5
680
  8
DATA
 62
     7
 10
133.0747378874878
 20
361.00001226574062
 30
0.0
  0
VERTEX
  5
681
  8
DATA
 62
     7
 10
133.06218269898551
 20
361.00000306643511
 30
0.0
  0
VERTEX
  5
682
  8
DATA
 62
     7
 10
133.0496242238878
 20
361.0
 30
0.0
  0
VERTEX
  5
683
  8
DATA
 62
     7
 10
133.0496242238878
 20
361.0
 30
0.0
  0
VERTEX
  5
684
  8
DATA
 62
     7
 10
132.25250759375609
 20
361.01256011839507
 30
0.0
  0
VERTEX
  5
685
  8
DATA
 62
     7
 10
131.46885285794781
 20
361.0502404735808
 30
0.0
  0
VERTEX
  5
686
  8
DATA
 62
     7
 10
130.6986600164627
 20
361.11304106555679
 30
0.0
  0
VERTEX
  5
687
  8
DATA
 62
     7
 10
129.94192906930101
 20
361.20096189432331
 30
0.0
  0
VERTEX
  5
688
  8
DATA
 62
     7
 10
129.1986600164627
 20
361.31400295988021
 30
0.0
  0
VERTEX
  5
689
  8
DATA
 62
     7
 10
128.46885285794781
 20
361.45216426222743
 30
0.0
  0
VERTEX
  5
68A
  8
DATA
 62
     7
 10
127.75250759375599
 20
361.61544580136518
 30
0.0
  0
VERTEX
  5
68B
  8
DATA
 62
     7
 10
127.0496242238878
 20
361.8038475772932
 30
0.0
  0
VERTEX
  5
68C
  8
DATA
 62
     7
 10
127.0496242238878
 20
361.8038475772932
 30
0.0
  0
VERTEX
  5
68D
  8
DATA
 62
     7
 10
126.3718610908099
 20
362.01400411643112
 30
0.0
  0
VERTEX
  5
68E
  8
DATA
 62
     7
 10
125.7308765369895
 20
362.2425499451976
 30
0.0
  0
VERTEX
  5
68F
  8
DATA
 62
     7
 10
125.1266705624266
 20
362.48948506359278
 30
0.0
  0
VERTEX
  5
690
  8
DATA
 62
     7
 10
124.5592431671212
 20
362.75480947161668
 30
0.0
  0
VERTEX
  5
691
  8
DATA
 62
     7
 10
124.0285943510732
 20
363.03852316926941
 30
0.0
  0
VERTEX
  5
692
  8
DATA
 62
     7
 10
123.53472411428289
 20
363.34062615655091
 30
0.0
  0
VERTEX
  5
693
  8
DATA
 62
     7
 10
123.0776324567499
 20
363.6611184334609
 30
0.0
  0
VERTEX
  5
694
  8
DATA
 62
     7
 10
122.6573193784745
 20
364.0
 30
0.0
  0
VERTEX
  5
695
  8
DATA
 62
     7
 10
122.6573193784745
 20
364.0
 30
0.0
  0
VERTEX
  5
696
  8
DATA
 62
     7
 10
122.2805158266182
 20
364.351441684934
 30
0.0
  0
VERTEX
  5
697
  8
DATA
 62
     7
 10
121.9539527483428
 20
364.70961431703
 30
0.0
  0
VERTEX
  5
698
  8
DATA
 62
     7
 10
121.6776301436482
 20
365.07451789628738
 30
0.0
  0
VERTEX
  5
699
  8
DATA
 62
     7
 10
121.4515480125345
 20
365.44615242270652
 30
0.0
  0
VERTEX
  5
69A
  8
DATA
 62
     7
 10
121.2757063550015
 20
365.82451789628738
 30
0.0
  0
VERTEX
  5
69B
  8
DATA
 62
     7
 10
121.1501051710494
 20
366.20961431703
 30
0.0
  0
VERTEX
  5
69C
  8
DATA
 62
     7
 10
121.0747444606782
 20
366.601441684934
 30
0.0
  0
VERTEX
  5
69D
  8
DATA
 62
     7
 10
121.0496242238878
 20
367.0
 30
0.0
  0
VERTEX
  5
69E
  8
DATA
 62
     7
 10
121.0496242238878
 20
367.0
 30
0.0
  0
VERTEX
  5
69F
  8
DATA
 62
     7
 10
121.0747444606782
 20
367.39855831506583
 30
0.0
  0
VERTEX
  5
6A0
  8
DATA
 62
     7
 10
121.1501051710494
 20
367.79038568297
 30
0.0
  0
VERTEX
  5
6A1
  8
DATA
 62
     7
 10
121.2757063550015
 20
368.17548210371251
 30
0.0
  0
VERTEX
  5
6A2
  8
DATA
 62
     7
 10
121.4515480125345
 20
368.55384757729331
 30
0.0
  0
VERTEX
  5
6A3
  8
DATA
 62
     7
 10
121.6776301436482
 20
368.9254821037124
 30
0.0
  0
VERTEX
  5
6A4
  8
DATA
 62
     7
 10
121.9539527483428
 20
369.29038568297
 30
0.0
  0
VERTEX
  5
6A5
  8
DATA
 62
     7
 10
122.2805158266182
 20
369.64855831506583
 30
0.0
  0
VERTEX
  5
6A6
  8
DATA
 62
     7
 10
122.6573193784745
 20
370.0
 30
0.0
  0
VERTEX
  5
6A7
  8
DATA
 62
     7
 10
122.6573193784745
 20
370.0
 30
0.0
  0
VERTEX
  5
6A8
  8
DATA
 62
     7
 10
123.0776324567499
 20
370.33888156653887
 30
0.0
  0
VERTEX
  5
6A9
  8
DATA
 62
     7
 10
123.53472411428289
 20
370.65937384344909
 30
0.0
  0
VERTEX
  5
6AA
  8
DATA
 62
     7
 10
124.0285943510732
 20
370.96147683073048
 30
0.0
  0
VERTEX
  5
6AB
  8
DATA
 62
     7
 10
124.5592431671212
 20
371.2451905283832
 30
0.0
  0
VERTEX
  5
6AC
  8
DATA
 62
     7
 10
125.1266705624266
 20
371.51051493640722
 30
0.0
  0
VERTEX
  5
6AD
  8
DATA
 62
     7
 10
125.7308765369895
 20
371.7574500548024
 30
0.0
  0
VERTEX
  5
6AE
  8
DATA
 62
     7
 10
126.3718610908099
 20
371.98599588356888
 30
0.0
  0
VERTEX
  5
6AF
  8
DATA
 62
     7
 10
127.0496242238878
 20
372.19615242270652
 30
0.0
  0
VERTEX
  5
6B0
  8
DATA
 62
     7
 10
127.0496242238878
 20
372.19615242270652
 30
0.0
  0
VERTEX
  5
6B1
  8
DATA
 62
     7
 10
127.75250759375599
 20
372.3845541986347
 30
0.0
  0
VERTEX
  5
6B2
  8
DATA
 62
     7
 10
128.46885285794781
 20
372.5478357377724
 30
0.0
  0
VERTEX
  5
6B3
  8
DATA
 62
     7
 10
129.1986600164627
 20
372.68599704011967
 30
0.0
  0
VERTEX
  5
6B4
  8
DATA
 62
     7
 10
129.94192906930101
 20
372.79903810567657
 30
0.0
  0
VERTEX
  5
6B5
  8
DATA
 62
     7
 10
130.6986600164627
 20
372.8869589344431
 30
0.0
  0
VERTEX
  5
6B6
  8
DATA
 62
     7
 10
131.46885285794781
 20
372.9497595264192
 30
0.0
  0
VERTEX
  5
6B7
  8
DATA
 62
     7
 10
132.25250759375609
 20
372.9874398816047
 30
0.0
  0
VERTEX
  5
6B8
  8
DATA
 62
     7
 10
133.0496242238878
 20
373.0
 30
0.0
  0
VERTEX
  5
6B9
  8
DATA
 62
     7
 10
133.0496242238878
 20
373.0
 30
0.0
  0
VERTEX
  5
6BA
  8
DATA
 62
     7
 10
133.0621826989871
 20
372.99999693356477
 30
0.0
  0
VERTEX
  5
6BB
  8
DATA
 62
     7
 10
133.07473788749061
 20
372.99998773425932
 30
0.0
  0
VERTEX
  5
6BC
  8
DATA
 62
     7
 10
133.08728978939831
 20
372.99997240208359
 30
0.0
  0
VERTEX
  5
6BD
  8
DATA
 62
     7
 10
133.09983840471031
 20
372.99995093703751
 30
0.0
  0
VERTEX
  5
6BE
  8
DATA
 62
     7
 10
133.11238373342641
 20
372.9999233391211
 30
0.0
  0
VERTEX
  5
6BF
  8
DATA
 62
     7
 10
133.1249257755467
 20
372.9998896083344
 30
0.0
  0
VERTEX
  5
6C0
  8
DATA
 62
     7
 10
133.13746453107129
 20
372.99984974467742
 30
0.0
  0
VERTEX
  5
6C1
  8
DATA
 62
     7
 10
133.15000000000001
 20
372.9998037481501
 30
0.0
  0
VERTEX
  5
6C2
  8
DATA
 62
     7
 10
133.15000000000001
 20
372.9998037481501
 30
0.0
  0
SEQEND
  5
6C3
  8
DATA
 62
     7
  0
POLYLINE
  5
303
  8
DATA
 62
     7
 66
     1
 10
0.0
 20
0.0
 30
0.0
 70
   128
  0
VERTEX
  5
6C4
  8
DATA
 62
     7
 10
133.15000000000001
 20
312.50032708641652
 30
0.0
  0
VERTEX
  5
6C5
  8
DATA
 62
     7
 10
133.13746453106981
 20
312.50025042553762
 30
0.0
  0
VERTEX
  5
6C6
  8
DATA
 62
     7
 10
133.1249257755442
 20
312.50018398610922
 30
0.0
  0
VERTEX
  5
6C7
  8
DATA
 62
     7
 10
133.1123837334232
 20
312.50012776813139
 30
0.0
  0
VERTEX
  5
6C8
  8
DATA
 62
     7
 10
133.0998384047069
 20
312.50008177160407
 30
0.0
  0
VERTEX
  5
6C9
  8
DATA
 62
     7
 10
133.08728978939519
 20
312.50004599652721
 30
0.0
  0
VERTEX
  5
6CA
  8
DATA
 62
     7
 10
133.07473788748811
 20
312.5000204429009
 30
0.0
  0
VERTEX
  5
6CB
  8
DATA
 62
     7
 10
133.06218269898559
 20
312.50000511072523
 30
0.0
  0
VERTEX
  5
6CC
  8
DATA
 62
     7
 10
133.0496242238878
 20
312.5
 30
0.0
  0
VERTEX
  5
6CD
  8
DATA
 62
     7
 10
133.0496242238878
 20
312.5
 30
0.0
  0
VERTEX
  5
6CE
  8
DATA
 62
     7
 10
132.25250759375609
 20
312.52093353065862
 30
0.0
  0
VERTEX
  5
6CF
  8
DATA
 62
     7
 10
131.46885285794781
 20
312.58373412263472
 30
0.0
  0
VERTEX
  5
6D0
  8
DATA
 62
     7
 10
130.6986600164627
 20
312.68840177592813
 30
0.0
  0
VERTEX
  5
6D1
  8
DATA
 62
     7
 10
129.94192906930101
 20
312.83493649053889
 30
0.0
  0
VERTEX
  5
6D2
  8
DATA
 62
     7
 10
129.1986600164627
 20
313.02333826646702
 30
0.0
  0
VERTEX
  5
6D3
  8
DATA
 62
     7
 10
128.46885285794781
 20
313.25360710371251
 30
0.0
  0
VERTEX
  5
6D4
  8
DATA
 62
     7
 10
127.75250759375599
 20
313.52574300227542
 30
0.0
  0
VERTEX
  5
6D5
  8
DATA
 62
     7
 10
127.0496242238878
 20
313.83974596215558
 30
0.0
  0
VERTEX
  5
6D6
  8
DATA
 62
     7
 10
127.0496242238878
 20
313.83974596215558
 30
0.0
  0
VERTEX
  5
6D7
  8
DATA
 62
     7
 10
126.3718610908099
 20
314.19000686071843
 30
0.0
  0
VERTEX
  5
6D8
  8
DATA
 62
     7
 10
125.7308765369895
 20
314.57091657532919
 30
0.0
  0
VERTEX
  5
6D9
  8
DATA
 62
     7
 10
125.1266705624266
 20
314.98247510598787
 30
0.0
  0
VERTEX
  5
6DA
  8
DATA
 62
     7
 10
124.5592431671212
 20
315.42468245269453
 30
0.0
  0
VERTEX
  5
6DB
  8
DATA
 62
     7
 10
124.0285943510732
 20
315.89753861544898
 30
0.0
  0
VERTEX
  5
6DC
  8
DATA
 62
     7
 10
123.53472411428289
 20
316.40104359425129
 30
0.0
  0
VERTEX
  5
6DD
  8
DATA
 62
     7
 10
123.0776324567499
 20
316.93519738910169
 30
0.0
  0
VERTEX
  5
6DE
  8
DATA
 62
     7
 10
122.6573193784745
 20
317.49999999999989
 30
0.0
  0
VERTEX
  5
6DF
  8
DATA
 62
     7
 10
122.6573193784745
 20
317.49999999999989
 30
0.0
  0
VERTEX
  5
6E0
  8
DATA
 62
     7
 10
122.2805158266182
 20
318.08573614155682
 30
0.0
  0
VERTEX
  5
6E1
  8
DATA
 62
     7
 10
121.9539527483428
 20
318.6826905283832
 30
0.0
  0
VERTEX
  5
6E2
  8
DATA
 62
     7
 10
121.6776301436482
 20
319.29086316047898
 30
0.0
  0
VERTEX
  5
6E3
  8
DATA
 62
     7
 10
121.4515480125345
 20
319.91025403784431
 30
0.0
  0
VERTEX
  5
6E4
  8
DATA
 62
     7
 10
121.2757063550015
 20
320.54086316047898
 30
0.0
  0
VERTEX
  5
6E5
  8
DATA
 62
     7
 10
121.1501051710494
 20
321.1826905283832
 30
0.0
  0
VERTEX
  5
6E6
  8
DATA
 62
     7
 10
121.0747444606782
 20
321.83573614155682
 30
0.0
  0
VERTEX
  5
6E7
  8
DATA
 62
     7
 10
121.0496242238878
 20
322.5
 30
0.0
  0
VERTEX
  5
6E8
  8
DATA
 62
     7
 10
121.0496242238878
 20
322.5
 30
0.0
  0
VERTEX
  5
6E9
  8
DATA
 62
     7
 10
121.0747444606782
 20
323.16426385844312
 30
0.0
  0
VERTEX
  5
6EA
  8
DATA
 62
     7
 10
121.1501051710494
 20
323.81730947161668
 30
0.0
  0
VERTEX
  5
6EB
  8
DATA
 62
     7
 10
121.2757063550015
 20
324.4591368395208
 30
0.0
  0
VERTEX
  5
6EC
  8
DATA
 62
     7
 10
121.4515480125345
 20
325.08974596215558
 30
0.0
  0
VERTEX
  5
6ED
  8
DATA
 62
     7
 10
121.6776301436482
 20
325.7091368395208
 30
0.0
  0
VERTEX
  5
6EE
  8
DATA
 62
     7
 10
121.9539527483428
 20
326.31730947161668
 30
0.0
  0
VERTEX
  5
6EF
  8
DATA
 62
     7
 10
122.2805158266182
 20
326.91426385844312
 30
0.0
  0
VERTEX
  5
6F0
  8
DATA
 62
     7
 10
122.6573193784745
 20
327.49999999999989
 30
0.0
  0
VERTEX
  5
6F1
  8
DATA
 62
     7
 10
122.6573193784745
 20
327.49999999999989
 30
0.0
  0
VERTEX
  5
6F2
  8
DATA
 62
     7
 10
123.0776324567499
 20
328.06480261089808
 30
0.0
  0
VERTEX
  5
6F3
  8
DATA
 62
     7
 10
123.53472411428289
 20
328.59895640574848
 30
0.0
  0
VERTEX
  5
6F4
  8
DATA
 62
     7
 10
124.0285943510732
 20
329.10246138455079
 30
0.0
  0
VERTEX
  5
6F5
  8
DATA
 62
     7
 10
124.5592431671212
 20
329.57531754730547
 30
0.0
  0
VERTEX
  5
6F6
  8
DATA
 62
     7
 10
125.1266705624266
 20
330.01752489401201
 30
0.0
  0
VERTEX
  5
6F7
  8
DATA
 62
     7
 10
125.7308765369895
 20
330.42908342467069
 30
0.0
  0
VERTEX
  5
6F8
  8
DATA
 62
     7
 10
126.3718610908099
 20
330.8099931392814
 30
0.0
  0
VERTEX
  5
6F9
  8
DATA
 62
     7
 10
127.0496242238878
 20
331.16025403784431
 30
0.0
  0
VERTEX
  5
6FA
  8
DATA
 62
     7
 10
127.0496242238878
 20
331.16025403784431
 30
0.0
  0
VERTEX
  5
6FB
  8
DATA
 62
     7
 10
127.75250759375599
 20
331.47425699772452
 30
0.0
  0
VERTEX
  5
6FC
  8
DATA
 62
     7
 10
128.46885285794781
 20
331.74639289628738
 30
0.0
  0
VERTEX
  5
6FD
  8
DATA
 62
     7
 10
129.1986600164627
 20
331.97666173353292
 30
0.0
  0
VERTEX
  5
6FE
  8
DATA
 62
     7
 10
129.94192906930101
 20
332.16506350946111
 30
0.0
  0
VERTEX
  5
6FF
  8
DATA
 62
     7
 10
130.6986600164627
 20
332.31159822407182
 30
0.0
  0
VERTEX
  5
700
  8
DATA
 62
     7
 10
131.46885285794781
 20
332.41626587736522
 30
0.0
  0
VERTEX
  5
701
  8
DATA
 62
     7
 10
132.25250759375609
 20
332.47906646934132
 30
0.0
  0
VERTEX
  5
702
  8
DATA
 62
     7
 10
133.0496242238878
 20
332.49999999999989
 30
0.0
  0
VERTEX
  5
703
  8
DATA
 62
     7
 10
133.0496242238878
 20
332.49999999999989
 30
0.0
  0
VERTEX
  5
704
  8
DATA
 62
     7
 10
133.06218269898559
 20
332.49999488927477
 30
0.0
  0
VERTEX
  5
705
  8
DATA
 62
     7
 10
133.07473788748811
 20
332.49997955709892
 30
0.0
  0
VERTEX
  5
706
  8
DATA
 62
     7
 10
133.08728978939519
 20
332.49995400347262
 30
0.0
  0
VERTEX
  5
707
  8
DATA
 62
     7
 10
133.0998384047069
 20
332.49991822839581
 30
0.0
  0
VERTEX
  5
708
  8
DATA
 62
     7
 10
133.1123837334232
 20
332.49987223186849
 30
0.0
  0
VERTEX
  5
709
  8
DATA
 62
     7
 10
133.1249257755442
 20
332.49981601389072
 30
0.0
  0
VERTEX
  5
70A
  8
DATA
 62
     7
 10
133.13746453106981
 20
332.49974957446221
 30
0.0
  0
VERTEX
  5
70B
  8
DATA
 62
     7
 10
133.15000000000001
 20
332.49967291358331
 30
0.0
  0
VERTEX
  5
70C
  8
DATA
 62
     7
 10
133.15000000000001
 20
332.49967291358331
 30
0.0
  0
SEQEND
  5
70D
  8
DATA
 62
     7
  0
POLYLINE
  5
34E
  8
DATA
 62
     7
 66
     1
 10
0.0
 20
0.0
 30
0.0
 70
   128
  0
VERTEX
  5
70E
  8
DATA
 62
     7
 10
133.15000000000001
 20
316.50019625184979
 30
0.0
  0
VERTEX
  5
70F
  8
DATA
 62
     7
 10
133.1374645310697
 20
316.50015025532258
 30
0.0
  0
VERTEX
  5
710
  8
DATA
 62
     7
 10
133.124925775544
 20
316.5001103916656
 30
0.0
  0
VERTEX
  5
711
  8
DATA
 62
     7
 10
133.112383733423
 20
316.50007666087879
 30
0.0
  0
VERTEX
  5
712
  8
DATA
 62
     7
 10
133.09983840470659
 20
316.50004906296238
 30
0.0
  0
VERTEX
  5
713
  8
DATA
 62
     7
 10
133.0872897893949
 20
316.50002759791641
 30
0.0
  0
VERTEX
  5
714
  8
DATA
 62
     7
 10
133.0747378874878
 20
316.50001226574062
 30
0.0
  0
VERTEX
  5
715
  8
DATA
 62
     7
 10
133.06218269898551
 20
316.50000306643511
 30
0.0
  0
VERTEX
  5
716
  8
DATA
 62
     7
 10
133.0496242238878
 20
316.5
 30
0.0
  0
VERTEX
  5
717
  8
DATA
 62
     7
 10
133.0496242238878
 20
316.5
 30
0.0
  0
VERTEX
  5
718
  8
DATA
 62
     7
 10
132.25250759375609
 20
316.51256011839519
 30
0.0
  0
VERTEX
  5
719
  8
DATA
 62
     7
 10
131.46885285794781
 20
316.5502404735808
 30
0.0
  0
VERTEX
  5
71A
  8
DATA
 62
     7
 10
130.6986600164627
 20
316.61304106555679
 30
0.0
  0
VERTEX
  5
71B
  8
DATA
 62
     7
 10
129.94192906930101
 20
316.70096189432331
 30
0.0
  0
VERTEX
  5
71C
  8
DATA
 62
     7
 10
129.1986600164627
 20
316.81400295988021
 30
0.0
  0
VERTEX
  5
71D
  8
DATA
 62
     7
 10
128.46885285794781
 20
316.95216426222748
 30
0.0
  0
VERTEX
  5
71E
  8
DATA
 62
     7
 10
127.75250759375599
 20
317.11544580136518
 30
0.0
  0
VERTEX
  5
71F
  8
DATA
 62
     7
 10
127.0496242238878
 20
317.30384757729331
 30
0.0
  0
VERTEX
  5
720
  8
DATA
 62
     7
 10
127.0496242238878
 20
317.30384757729331
 30
0.0
  0
VERTEX
  5
721
  8
DATA
 62
     7
 10
126.3718610908099
 20
317.51400411643101
 30
0.0
  0
VERTEX
  5
722
  8
DATA
 62
     7
 10
125.7308765369895
 20
317.74254994519748
 30
0.0
  0
VERTEX
  5
723
  8
DATA
 62
     7
 10
125.1266705624266
 20
317.98948506359278
 30
0.0
  0
VERTEX
  5
724
  8
DATA
 62
     7
 10
124.5592431671212
 20
318.25480947161668
 30
0.0
  0
VERTEX
  5
725
  8
DATA
 62
     7
 10
124.0285943510732
 20
318.5385231692693
 30
0.0
  0
VERTEX
  5
726
  8
DATA
 62
     7
 10
123.53472411428289
 20
318.8406261565508
 30
0.0
  0
VERTEX
  5
727
  8
DATA
 62
     7
 10
123.0776324567499
 20
319.16111843346101
 30
0.0
  0
VERTEX
  5
728
  8
DATA
 62
     7
 10
122.6573193784745
 20
319.49999999999989
 30
0.0
  0
VERTEX
  5
729
  8
DATA
 62
     7
 10
122.6573193784745
 20
319.49999999999989
 30
0.0
  0
VERTEX
  5
72A
  8
DATA
 62
     7
 10
122.2805158266182
 20
319.85144168493412
 30
0.0
  0
VERTEX
  5
72B
  8
DATA
 62
     7
 10
121.9539527483428
 20
320.20961431703
 30
0.0
  0
VERTEX
  5
72C
  8
DATA
 62
     7
 10
121.6776301436482
 20
320.57451789628738
 30
0.0
  0
VERTEX
  5
72D
  8
DATA
 62
     7
 10
121.4515480125345
 20
320.94615242270658
 30
0.0
  0
VERTEX
  5
72E
  8
DATA
 62
     7
 10
121.2757063550015
 20
321.32451789628738
 30
0.0
  0
VERTEX
  5
72F
  8
DATA
 62
     7
 10
121.1501051710494
 20
321.70961431702989
 30
0.0
  0
VERTEX
  5
730
  8
DATA
 62
     7
 10
121.0747444606782
 20
322.10144168493412
 30
0.0
  0
VERTEX
  5
731
  8
DATA
 62
     7
 10
121.0496242238878
 20
322.5
 30
0.0
  0
VERTEX
  5
732
  8
DATA
 62
     7
 10
121.0496242238878
 20
322.5
 30
0.0
  0
VERTEX
  5
733
  8
DATA
 62
     7
 10
121.0747444606782
 20
322.89855831506583
 30
0.0
  0
VERTEX
  5
734
  8
DATA
 62
     7
 10
121.1501051710494
 20
323.29038568296988
 30
0.0
  0
VERTEX
  5
735
  8
DATA
 62
     7
 10
121.2757063550015
 20
323.67548210371251
 30
0.0
  0
VERTEX
  5
736
  8
DATA
 62
     7
 10
121.4515480125345
 20
324.0538475772932
 30
0.0
  0
VERTEX
  5
737
  8
DATA
 62
     7
 10
121.6776301436482
 20
324.42548210371251
 30
0.0
  0
VERTEX
  5
738
  8
DATA
 62
     7
 10
121.9539527483428
 20
324.79038568297
 30
0.0
  0
VERTEX
  5
739
  8
DATA
 62
     7
 10
122.2805158266182
 20
325.14855831506583
 30
0.0
  0
VERTEX
  5
73A
  8
DATA
 62
     7
 10
122.6573193784745
 20
325.49999999999989
 30
0.0
  0
VERTEX
  5
73B
  8
DATA
 62
     7
 10
122.6573193784745
 20
325.49999999999989
 30
0.0
  0
VERTEX
  5
73C
  8
DATA
 62
     7
 10
123.0776324567499
 20
325.83888156653887
 30
0.0
  0
VERTEX
  5
73D
  8
DATA
 62
     7
 10
123.53472411428289
 20
326.15937384344898
 30
0.0
  0
VERTEX
  5
73E
  8
DATA
 62
     7
 10
124.0285943510732
 20
326.46147683073048
 30
0.0
  0
VERTEX
  5
73F
  8
DATA
 62
     7
 10
124.5592431671212
 20
326.7451905283832
 30
0.0
  0
VERTEX
  5
740
  8
DATA
 62
     7
 10
125.1266705624266
 20
327.01051493640722
 30
0.0
  0
VERTEX
  5
741
  8
DATA
 62
     7
 10
125.7308765369895
 20
327.2574500548024
 30
0.0
  0
VERTEX
  5
742
  8
DATA
 62
     7
 10
126.3718610908099
 20
327.48599588356888
 30
0.0
  0
VERTEX
  5
743
  8
DATA
 62
     7
 10
127.0496242238878
 20
327.69615242270658
 30
0.0
  0
VERTEX
  5
744
  8
DATA
 62
     7
 10
127.0496242238878
 20
327.69615242270658
 30
0.0
  0
VERTEX
  5
745
  8
DATA
 62
     7
 10
127.75250759375599
 20
327.8845541986347
 30
0.0
  0
VERTEX
  5
746
  8
DATA
 62
     7
 10
128.46885285794781
 20
328.04783573777229
 30
0.0
  0
VERTEX
  5
747
  8
DATA
 62
     7
 10
129.1986600164627
 20
328.18599704011967
 30
0.0
  0
VERTEX
  5
748
  8
DATA
 62
     7
 10
129.94192906930101
 20
328.29903810567657
 30
0.0
  0
VERTEX
  5
749
  8
DATA
 62
     7
 10
130.6986600164627
 20
328.38695893444321
 30
0.0
  0
VERTEX
  5
74A
  8
DATA
 62
     7
 10
131.46885285794781
 20
328.4497595264192
 30
0.0
  0
VERTEX
  5
74B
  8
DATA
 62
     7
 10
132.25250759375609
 20
328.4874398816047
 30
0.0
  0
VERTEX
  5
74C
  8
DATA
 62
     7
 10
133.0496242238878
 20
328.5
 30
0.0
  0
VERTEX
  5
74D
  8
DATA
 62
     7
 10
133.0496242238878
 20
328.5
 30
0.0
  0
VERTEX
  5
74E
  8
DATA
 62
     7
 10
133.0621826989871
 20
328.49999693356477
 30
0.0
  0
VERTEX
  5
74F
  8
DATA
 62
     7
 10
133.07473788749061
 20
328.49998773425932
 30
0.0
  0
VERTEX
  5
750
  8
DATA
 62
     7
 10
133.08728978939831
 20
328.49997240208347
 30
0.0
  0
VERTEX
  5
751
  8
DATA
 62
     7
 10
133.09983840471031
 20
328.49995093703751
 30
0.0
  0
VERTEX
  5
752
  8
DATA
 62
     7
 10
133.11238373342641
 20
328.49992333912121
 30
0.0
  0
VERTEX
  5
753
  8
DATA
 62
     7
 10
133.1249257755467
 20
328.4998896083344
 30
0.0
  0
VERTEX
  5
754
  8
DATA
 62
     7
 10
133.13746453107129
 20
328.49984974467742
 30
0.0
  0
VERTEX
  5
755
  8
DATA
 62
     7
 10
133.15000000000001
 20
328.49980374814999
 30
0.0
  0
VERTEX
  5
756
  8
DATA
 62
     7
 10
133.15000000000001
 20
328.49980374814999
 30
0.0
  0
SEQEND
  5
757
  8
DATA
 62
     7
  0
POLYLINE
  5
399
  8
DATA
 62
     7
 66
     1
 10
0.0
 20
0.0
 30
0.0
 70
   128
  0
VERTEX
  5
758
  8
DATA
 62
     7
 10
432.49967291358331
 20
-54.999999999999972
 30
0.0
  0
VERTEX
  5
759
  8
DATA
 62
     7
 10
432.49974957446221
 20
-55.012535468930203
 30
0.0
  0
VERTEX
  5
75A
  8
DATA
 62
     7
 10
432.4998160138905
 20
-55.025074224455821
 30
0.0
  0
VERTEX
  5
75B
  8
DATA
 62
     7
 10
432.49987223186838
 20
-55.037616266576769
 30
0.0
  0
VERTEX
  5
75C
  8
DATA
 62
     7
 10
432.49991822839581
 20
-55.050161595293133
 30
0.0
  0
VERTEX
  5
75D
  8
DATA
 62
     7
 10
432.49995400347251
 20
-55.062710210604841
 30
0.0
  0
VERTEX
  5
75E
  8
DATA
 62
     7
 10
432.49997955709881
 20
-55.07526211251195
 30
0.0
  0
VERTEX
  5
75F
  8
DATA
 62
     7
 10
432.49999488927472
 20
-55.087817301014397
 30
0.0
  0
VERTEX
  5
760
  8
DATA
 62
     7
 10
432.5
 20
-55.100375776112259
 30
0.0
  0
VERTEX
  5
761
  8
DATA
 62
     7
 10
432.5
 20
-55.100375776112259
 30
0.0
  0
VERTEX
  5
762
  8
DATA
 62
     7
 10
432.47906646934121
 20
-55.897492406243927
 30
0.0
  0
VERTEX
  5
763
  8
DATA
 62
     7
 10
432.41626587736511
 20
-56.681147142052311
 30
0.0
  0
VERTEX
  5
764
  8
DATA
 62
     7
 10
432.3115982240717
 20
-57.451339983537288
 30
0.0
  0
VERTEX
  5
765
  8
DATA
 62
     7
 10
432.16506350946082
 20
-58.208070930698987
 30
0.0
  0
VERTEX
  5
766
  8
DATA
 62
     7
 10
431.97666173353292
 20
-58.951339983537288
 30
0.0
  0
VERTEX
  5
767
  8
DATA
 62
     7
 10
431.74639289628732
 20
-59.681147142052311
 30
0.0
  0
VERTEX
  5
768
  8
DATA
 62
     7
 10
431.47425699772452
 20
-60.397492406243927
 30
0.0
  0
VERTEX
  5
769
  8
DATA
 62
     7
 10
431.16025403784431
 20
-61.100375776112259
 30
0.0
  0
VERTEX
  5
76A
  8
DATA
 62
     7
 10
431.16025403784431
 20
-61.100375776112259
 30
0.0
  0
VERTEX
  5
76B
  8
DATA
 62
     7
 10
430.8099931392814
 20
-61.778138909190147
 30
0.0
  0
VERTEX
  5
76C
  8
DATA
 62
     7
 10
430.42908342467058
 20
-62.419123463010521
 30
0.0
  0
VERTEX
  5
76D
  8
DATA
 62
     7
 10
430.01752489401201
 20
-63.02332943757343
 30
0.0
  0
VERTEX
  5
76E
  8
DATA
 62
     7
 10
429.57531754730547
 20
-63.590756832878839
 30
0.0
  0
VERTEX
  5
76F
  8
DATA
 62
     7
 10
429.10246138455079
 20
-64.121405648926725
 30
0.0
  0
VERTEX
  5
770
  8
DATA
 62
     7
 10
428.59895640574848
 20
-64.615275885717139
 30
0.0
  0
VERTEX
  5
771
  8
DATA
 62
     7
 10
428.06480261089803
 20
-65.07236754325011
 30
0.0
  0
VERTEX
  5
772
  8
DATA
 62
     7
 10
427.5
 20
-65.492680621525523
 30
0.0
  0
VERTEX
  5
773
  8
DATA
 62
     7
 10
427.5
 20
-65.492680621525523
 30
0.0
  0
VERTEX
  5
774
  8
DATA
 62
     7
 10
426.91426385844312
 20
-65.869484173381764
 30
0.0
  0
VERTEX
  5
775
  8
DATA
 62
     7
 10
426.31730947161668
 20
-66.196047251657205
 30
0.0
  0
VERTEX
  5
776
  8
DATA
 62
     7
 10
425.7091368395208
 20
-66.472369856351804
 30
0.0
  0
VERTEX
  5
777
  8
DATA
 62
     7
 10
425.08974596215558
 20
-66.698451987465589
 30
0.0
  0
VERTEX
  5
778
  8
DATA
 62
     7
 10
424.4591368395208
 20
-66.874293644998474
 30
0.0
  0
VERTEX
  5
779
  8
DATA
 62
     7
 10
423.81730947161668
 20
-66.999894828950573
 30
0.0
  0
VERTEX
  5
77A
  8
DATA
 62
     7
 10
423.16426385844312
 20
-67.075255539321844
 30
0.0
  0
VERTEX
  5
77B
  8
DATA
 62
     7
 10
422.49999999999989
 20
-67.100375776112259
 30
0.0
  0
VERTEX
  5
77C
  8
DATA
 62
     7
 10
422.49999999999989
 20
-67.100375776112259
 30
0.0
  0
VERTEX
  5
77D
  8
DATA
 62
     7
 10
421.83573614155671
 20
-67.075255539321844
 30
0.0
  0
VERTEX
  5
77E
  8
DATA
 62
     7
 10
421.1826905283832
 20
-66.999894828950573
 30
0.0
  0
VERTEX
  5
77F
  8
DATA
 62
     7
 10
420.54086316047898
 20
-66.874293644998474
 30
0.0
  0
VERTEX
  5
780
  8
DATA
 62
     7
 10
419.91025403784431
 20
-66.698451987465589
 30
0.0
  0
VERTEX
  5
781
  8
DATA
 62
     7
 10
419.29086316047898
 20
-66.472369856351804
 30
0.0
  0
VERTEX
  5
782
  8
DATA
 62
     7
 10
418.68269052838309
 20
-66.196047251657205
 30
0.0
  0
VERTEX
  5
783
  8
DATA
 62
     7
 10
418.08573614155671
 20
-65.869484173381764
 30
0.0
  0
VERTEX
  5
784
  8
DATA
 62
     7
 10
417.49999999999989
 20
-65.492680621525523
 30
0.0
  0
VERTEX
  5
785
  8
DATA
 62
     7
 10
417.49999999999989
 20
-65.492680621525523
 30
0.0
  0
VERTEX
  5
786
  8
DATA
 62
     7
 10
416.93519738910157
 20
-65.07236754325011
 30
0.0
  0
VERTEX
  5
787
  8
DATA
 62
     7
 10
416.40104359425141
 20
-64.615275885717139
 30
0.0
  0
VERTEX
  5
788
  8
DATA
 62
     7
 10
415.89753861544892
 20
-64.121405648926725
 30
0.0
  0
VERTEX
  5
789
  8
DATA
 62
     7
 10
415.42468245269453
 20
-63.590756832878839
 30
0.0
  0
VERTEX
  5
78A
  8
DATA
 62
     7
 10
414.98247510598787
 20
-63.02332943757343
 30
0.0
  0
VERTEX
  5
78B
  8
DATA
 62
     7
 10
414.57091657532919
 20
-62.419123463010521
 30
0.0
  0
VERTEX
  5
78C
  8
DATA
 62
     7
 10
414.19000686071831
 20
-61.778138909190147
 30
0.0
  0
VERTEX
  5
78D
  8
DATA
 62
     7
 10
413.83974596215558
 20
-61.100375776112259
 30
0.0
  0
VERTEX
  5
78E
  8
DATA
 62
     7
 10
413.83974596215558
 20
-61.100375776112259
 30
0.0
  0
VERTEX
  5
78F
  8
DATA
 62
     7
 10
413.52574300227531
 20
-60.397492406243927
 30
0.0
  0
VERTEX
  5
790
  8
DATA
 62
     7
 10
413.2536071037124
 20
-59.681147142052311
 30
0.0
  0
VERTEX
  5
791
  8
DATA
 62
     7
 10
413.02333826646708
 20
-58.951339983537288
 30
0.0
  0
VERTEX
  5
792
  8
DATA
 62
     7
 10
412.83493649053878
 20
-58.208070930698987
 30
0.0
  0
VERTEX
  5
793
  8
DATA
 62
     7
 10
412.6884017759279
 20
-57.451339983537288
 30
0.0
  0
VERTEX
  5
794
  8
DATA
 62
     7
 10
412.58373412263472
 20
-56.681147142052311
 30
0.0
  0
VERTEX
  5
795
  8
DATA
 62
     7
 10
412.52093353065851
 20
-55.897492406243927
 30
0.0
  0
VERTEX
  5
796
  8
DATA
 62
     7
 10
412.5
 20
-55.100375776112259
 30
0.0
  0
VERTEX
  5
797
  8
DATA
 62
     7
 10
412.5
 20
-55.100375776112259
 30
0.0
  0
VERTEX
  5
798
  8
DATA
 62
     7
 10
412.50000511072511
 20
-55.087817301014397
 30
0.0
  0
VERTEX
  5
799
  8
DATA
 62
     7
 10
412.50002044290079
 20
-55.07526211251195
 30
0.0
  0
VERTEX
  5
79A
  8
DATA
 62
     7
 10
412.50004599652721
 20
-55.062710210604841
 30
0.0
  0
VERTEX
  5
79B
  8
DATA
 62
     7
 10
412.50008177160402
 20
-55.050161595293133
 30
0.0
  0
VERTEX
  5
79C
  8
DATA
 62
     7
 10
412.50012776813128
 20
-55.037616266576769
 30
0.0
  0
VERTEX
  5
79D
  8
DATA
 62
     7
 10
412.50018398610911
 20
-55.025074224455821
 30
0.0
  0
VERTEX
  5
79E
  8
DATA
 62
     7
 10
412.50025042553767
 20
-55.012535468930203
 30
0.0
  0
VERTEX
  5
79F
  8
DATA
 62
     7
 10
412.50032708641641
 20
-54.999999999999972
 30
0.0
  0
VERTEX
  5
7A0
  8
DATA
 62
     7
 10
412.50032708641641
 20
-54.999999999999972
 30
0.0
  0
SEQEND
  5
7A1
  8
DATA
 62
     7
  0
POLYLINE
  5
3E4
  8
DATA
 62
     7
 66
     1
 10
0.0
 20
0.0
 30
0.0
 70
   128
  0
VERTEX
  5
7A2
  8
DATA
 62
     7
 10
428.49980374814999
 20
-54.999999999999972
 30
0.0
  0
VERTEX
  5
7A3
  8
DATA
 62
     7
 10
428.49984974467731
 20
-55.012535468930338
 30
0.0
  0
VERTEX
  5
7A4
  8
DATA
 62
     7
 10
428.49988960833429
 20
-55.025074224456027
 30
0.0
  0
VERTEX
  5
7A5
  8
DATA
 62
     7
 10
428.4999233391211
 20
-55.037616266577061
 30
0.0
  0
VERTEX
  5
7A6
  8
DATA
 62
     7
 10
428.49995093703751
 20
-55.050161595293417
 30
0.0
  0
VERTEX
  5
7A7
  8
DATA
 62
     7
 10
428.49997240208359
 20
-55.062710210605132
 30
0.0
  0
VERTEX
  5
7A8
  8
DATA
 62
     7
 10
428.49998773425921
 20
-55.075262112512171
 30
0.0
  0
VERTEX
  5
7A9
  8
DATA
 62
     7
 10
428.49999693356477
 20
-55.087817301014539
 30
0.0
  0
VERTEX
  5
7AA
  8
DATA
 62
     7
 10
428.5
 20
-55.100375776112259
 30
0.0
  0
VERTEX
  5
7AB
  8
DATA
 62
     7
 10
428.5
 20
-55.100375776112259
 30
0.0
  0
VERTEX
  5
7AC
  8
DATA
 62
     7
 10
428.4874398816047
 20
-55.897492406243927
 30
0.0
  0
VERTEX
  5
7AD
  8
DATA
 62
     7
 10
428.44975952641909
 20
-56.681147142052311
 30
0.0
  0
VERTEX
  5
7AE
  8
DATA
 62
     7
 10
428.38695893444321
 20
-57.451339983537288
 30
0.0
  0
VERTEX
  5
7AF
  8
DATA
 62
     7
 10
428.29903810567652
 20
-58.208070930698987
 30
0.0
  0
VERTEX
  5
7B0
  8
DATA
 62
     7
 10
428.18599704011967
 20
-58.951339983537288
 30
0.0
  0
VERTEX
  5
7B1
  8
DATA
 62
     7
 10
428.04783573777229
 20
-59.681147142052311
 30
0.0
  0
VERTEX
  5
7B2
  8
DATA
 62
     7
 10
427.88455419863459
 20
-60.397492406243927
 30
0.0
  0
VERTEX
  5
7B3
  8
DATA
 62
     7
 10
427.69615242270652
 20
-61.100375776112259
 30
0.0
  0
VERTEX
  5
7B4
  8
DATA
 62
     7
 10
427.69615242270652
 20
-61.100375776112259
 30
0.0
  0
VERTEX
  5
7B5
  8
DATA
 62
     7
 10
427.48599588356888
 20
-61.778138909190147
 30
0.0
  0
VERTEX
  5
7B6
  8
DATA
 62
     7
 10
427.2574500548024
 20
-62.419123463010521
 30
0.0
  0
VERTEX
  5
7B7
  8
DATA
 62
     7
 10
427.01051493640711
 20
-63.02332943757343
 30
0.0
  0
VERTEX
  5
7B8
  8
DATA
 62
     7
 10
426.7451905283832
 20
-63.590756832878839
 30
0.0
  0
VERTEX
  5
7B9
  8
DATA
 62
     7
 10
426.46147683073048
 20
-64.121405648926725
 30
0.0
  0
VERTEX
  5
7BA
  8
DATA
 62
     7
 10
426.15937384344898
 20
-64.615275885717139
 30
0.0
  0
VERTEX
  5
7BB
  8
DATA
 62
     7
 10
425.83888156653882
 20
-65.07236754325011
 30
0.0
  0
VERTEX
  5
7BC
  8
DATA
 62
     7
 10
425.49999999999989
 20
-65.492680621525523
 30
0.0
  0
VERTEX
  5
7BD
  8
DATA
 62
     7
 10
425.49999999999989
 20
-65.492680621525523
 30
0.0
  0
VERTEX
  5
7BE
  8
DATA
 62
     7
 10
425.14855831506583
 20
-65.869484173381764
 30
0.0
  0
VERTEX
  5
7BF
  8
DATA
 62
     7
 10
424.79038568296988
 20
-66.196047251657205
 30
0.0
  0
VERTEX
  5
7C0
  8
DATA
 62
     7
 10
424.4254821037124
 20
-66.472369856351804
 30
0.0
  0
VERTEX
  5
7C1
  8
DATA
 62
     7
 10
424.0538475772932
 20
-66.698451987465589
 30
0.0
  0
VERTEX
  5
7C2
  8
DATA
 62
     7
 10
423.6754821037124
 20
-66.874293644998474
 30
0.0
  0
VERTEX
  5
7C3
  8
DATA
 62
     7
 10
423.29038568296988
 20
-66.999894828950573
 30
0.0
  0
VERTEX
  5
7C4
  8
DATA
 62
     7
 10
422.89855831506583
 20
-67.075255539321844
 30
0.0
  0
VERTEX
  5
7C5
  8
DATA
 62
     7
 10
422.49999999999989
 20
-67.100375776112259
 30
0.0
  0
VERTEX
  5
7C6
  8
DATA
 62
     7
 10
422.49999999999989
 20
-67.100375776112259
 30
0.0
  0
VERTEX
  5
7C7
  8
DATA
 62
     7
 10
422.10144168493412
 20
-67.075255539321844
 30
0.0
  0
VERTEX
  5
7C8
  8
DATA
 62
     7
 10
421.70961431703
 20
-66.999894828950573
 30
0.0
  0
VERTEX
  5
7C9
  8
DATA
 62
     7
 10
421.32451789628732
 20
-66.874293644998474
 30
0.0
  0
VERTEX
  5
7CA
  8
DATA
 62
     7
 10
420.94615242270652
 20
-66.698451987465589
 30
0.0
  0
VERTEX
  5
7CB
  8
DATA
 62
     7
 10
420.57451789628738
 20
-66.472369856351804
 30
0.0
  0
VERTEX
  5
7CC
  8
DATA
 62
     7
 10
420.20961431702989
 20
-66.196047251657205
 30
0.0
  0
VERTEX
  5
7CD
  8
DATA
 62
     7
 10
419.851441684934
 20
-65.869484173381764
 30
0.0
  0
VERTEX
  5
7CE
  8
DATA
 62
     7
 10
419.5
 20
-65.492680621525523
 30
0.0
  0
VERTEX
  5
7CF
  8
DATA
 62
     7
 10
419.5
 20
-65.492680621525523
 30
0.0
  0
VERTEX
  5
7D0
  8
DATA
 62
     7
 10
419.16111843346079
 20
-65.07236754325011
 30
0.0
  0
VERTEX
  5
7D1
  8
DATA
 62
     7
 10
418.8406261565508
 20
-64.615275885717139
 30
0.0
  0
VERTEX
  5
7D2
  8
DATA
 62
     7
 10
418.53852316926941
 20
-64.121405648926725
 30
0.0
  0
VERTEX
  5
7D3
  8
DATA
 62
     7
 10
418.25480947161668
 20
-63.590756832878839
 30
0.0
  0
VERTEX
  5
7D4
  8
DATA
 62
     7
 10
417.98948506359272
 20
-63.02332943757343
 30
0.0
  0
VERTEX
  5
7D5
  8
DATA
 62
     7
 10
417.7425499451976
 20
-62.419123463010521
 30
0.0
  0
VERTEX
  5
7D6
  8
DATA
 62
     7
 10
417.51400411643101
 20
-61.778138909190147
 30
0.0
  0
VERTEX
  5
7D7
  8
DATA
 62
     7
 10
417.3038475772932
 20
-61.100375776112259
 30
0.0
  0
VERTEX
  5
7D8
  8
DATA
 62
     7
 10
417.3038475772932
 20
-61.100375776112259
 30
0.0
  0
VERTEX
  5
7D9
  8
DATA
 62
     7
 10
417.11544580136513
 20
-60.397492406243927
 30
0.0
  0
VERTEX
  5
7DA
  8
DATA
 62
     7
 10
416.95216426222743
 20
-59.681147142052311
 30
0.0
  0
VERTEX
  5
7DB
  8
DATA
 62
     7
 10
416.8140029598801
 20
-58.951339983537288
 30
0.0
  0
VERTEX
  5
7DC
  8
DATA
 62
     7
 10
416.7009618943232
 20
-58.208070930698987
 30
0.0
  0
VERTEX
  5
7DD
  8
DATA
 62
     7
 10
416.61304106555679
 20
-57.451339983537288
 30
0.0
  0
VERTEX
  5
7DE
  8
DATA
 62
     7
 10
416.5502404735808
 20
-56.681147142052311
 30
0.0
  0
VERTEX
  5
7DF
  8
DATA
 62
     7
 10
416.51256011839507
 20
-55.897492406243927
 30
0.0
  0
VERTEX
  5
7E0
  8
DATA
 62
     7
 10
416.5
 20
-55.100375776112259
 30
0.0
  0
VERTEX
  5
7E1
  8
DATA
 62
     7
 10
416.5
 20
-55.100375776112259
 30
0.0
  0
VERTEX
  5
7E2
  8
DATA
 62
     7
 10
416.50000306643511
 20
-55.087817301012961
 30
0.0
  0
VERTEX
  5
7E3
  8
DATA
 62
     7
 10
416.50001226574062
 20
-55.075262112509449
 30
0.0
  0
VERTEX
  5
7E4
  8
DATA
 62
     7
 10
416.50002759791641
 20
-55.062710210601722
 30
0.0
  0
VERTEX
  5
7E5
  8
DATA
 62
     7
 10
416.50004906296232
 20
-55.050161595289779
 30
0.0
  0
VERTEX
  5
7E6
  8
DATA
 62
     7
 10
416.50007666087879
 20
-55.03761626657365
 30
0.0
  0
VERTEX
  5
7E7
  8
DATA
 62
     7
 10
416.50011039166549
 20
-55.025074224453292
 30
0.0
  0
VERTEX
  5
7E8
  8
DATA
 62
     7
 10
416.50015025532241
 20
-55.012535468928739
 30
0.0
  0
VERTEX
  5
7E9
  8
DATA
 62
     7
 10
416.50019625184967
 20
-54.999999999999972
 30
0.0
  0
VERTEX
  5
7EA
  8
DATA
 62
     7
 10
416.50019625184967
 20
-54.999999999999972
 30
0.0
  0
SEQEND
  5
7EB
  8
DATA
 62
     7
  0
POLYLINE
  5
42F
  8
DATA
 62
     7
 66
     1
 10
0.0
 20
0.0
 30
0.0
 70
   128
  0
VERTEX
  5
7EC
  8
DATA
 62
     7
 10
476.99967291358331
 20
-54.999999999999972
 30
0.0
  0
VERTEX
  5
7ED
  8
DATA
 62
     7
 10
476.99974957446233
 20
-55.012535468930203
 30
0.0
  0
VERTEX
  5
7EE
  8
DATA
 62
     7
 10
476.9998160138905
 20
-55.025074224455821
 30
0.0
  0
VERTEX
  5
7EF
  8
DATA
 62
     7
 10
476.99987223186849
 20
-55.037616266576769
 30
0.0
  0
VERTEX
  5
7F0
  8
DATA
 62
     7
 10
476.99991822839581
 20
-55.050161595293133
 30
0.0
  0
VERTEX
  5
7F1
  8
DATA
 62
     7
 10
476.99995400347251
 20
-55.062710210604841
 30
0.0
  0
VERTEX
  5
7F2
  8
DATA
 62
     7
 10
476.99997955709881
 20
-55.07526211251195
 30
0.0
  0
VERTEX
  5
7F3
  8
DATA
 62
     7
 10
476.99999488927472
 20
-55.087817301014397
 30
0.0
  0
VERTEX
  5
7F4
  8
DATA
 62
     7
 10
477.0
 20
-55.100375776112259
 30
0.0
  0
VERTEX
  5
7F5
  8
DATA
 62
     7
 10
477.0
 20
-55.100375776112259
 30
0.0
  0
VERTEX
  5
7F6
  8
DATA
 62
     7
 10
476.97906646934109
 20
-55.897492406243927
 30
0.0
  0
VERTEX
  5
7F7
  8
DATA
 62
     7
 10
476.91626587736511
 20
-56.681147142052311
 30
0.0
  0
VERTEX
  5
7F8
  8
DATA
 62
     7
 10
476.8115982240717
 20
-57.451339983537288
 30
0.0
  0
VERTEX
  5
7F9
  8
DATA
 62
     7
 10
476.66506350946088
 20
-58.208070930698987
 30
0.0
  0
VERTEX
  5
7FA
  8
DATA
 62
     7
 10
476.47666173353281
 20
-58.951339983537288
 30
0.0
  0
VERTEX
  5
7FB
  8
DATA
 62
     7
 10
476.24639289628738
 20
-59.681147142052311
 30
0.0
  0
VERTEX
  5
7FC
  8
DATA
 62
     7
 10
475.97425699772452
 20
-60.397492406243927
 30
0.0
  0
VERTEX
  5
7FD
  8
DATA
 62
     7
 10
475.66025403784431
 20
-61.100375776112259
 30
0.0
  0
VERTEX
  5
7FE
  8
DATA
 62
     7
 10
475.66025403784431
 20
-61.100375776112259
 30
0.0
  0
VERTEX
  5
7FF
  8
DATA
 62
     7
 10
475.30999313928152
 20
-61.778138909190147
 30
0.0
  0
VERTEX
  5
800
  8
DATA
 62
     7
 10
474.92908342467058
 20
-62.419123463010521
 30
0.0
  0
VERTEX
  5
801
  8
DATA
 62
     7
 10
474.51752489401201
 20
-63.02332943757343
 30
0.0
  0
VERTEX
  5
802
  8
DATA
 62
     7
 10
474.07531754730542
 20
-63.590756832878839
 30
0.0
  0
VERTEX
  5
803
  8
DATA
 62
     7
 10
473.60246138455079
 20
-64.121405648926725
 30
0.0
  0
VERTEX
  5
804
  8
DATA
 62
     7
 10
473.09895640574848
 20
-64.615275885717139
 30
0.0
  0
VERTEX
  5
805
  8
DATA
 62
     7
 10
472.56480261089808
 20
-65.07236754325011
 30
0.0
  0
VERTEX
  5
806
  8
DATA
 62
     7
 10
472.0
 20
-65.492680621525523
 30
0.0
  0
VERTEX
  5
807
  8
DATA
 62
     7
 10
472.0
 20
-65.492680621525523
 30
0.0
  0
VERTEX
  5
808
  8
DATA
 62
     7
 10
471.41426385844312
 20
-65.869484173381764
 30
0.0
  0
VERTEX
  5
809
  8
DATA
 62
     7
 10
470.81730947161668
 20
-66.196047251657205
 30
0.0
  0
VERTEX
  5
80A
  8
DATA
 62
     7
 10
470.2091368395208
 20
-66.472369856351804
 30
0.0
  0
VERTEX
  5
80B
  8
DATA
 62
     7
 10
469.58974596215558
 20
-66.698451987465589
 30
0.0
  0
VERTEX
  5
80C
  8
DATA
 62
     7
 10
468.9591368395208
 20
-66.874293644998474
 30
0.0
  0
VERTEX
  5
80D
  8
DATA
 62
     7
 10
468.31730947161668
 20
-66.999894828950573
 30
0.0
  0
VERTEX
  5
80E
  8
DATA
 62
     7
 10
467.66426385844312
 20
-67.075255539321844
 30
0.0
  0
VERTEX
  5
80F
  8
DATA
 62
     7
 10
467.0
 20
-67.100375776112259
 30
0.0
  0
VERTEX
  5
810
  8
DATA
 62
     7
 10
467.0
 20
-67.100375776112259
 30
0.0
  0
VERTEX
  5
811
  8
DATA
 62
     7
 10
466.33573614155682
 20
-67.075255539321844
 30
0.0
  0
VERTEX
  5
812
  8
DATA
 62
     7
 10
465.6826905283832
 20
-66.999894828950573
 30
0.0
  0
VERTEX
  5
813
  8
DATA
 62
     7
 10
465.04086316047898
 20
-66.874293644998474
 30
0.0
  0
VERTEX
  5
814
  8
DATA
 62
     7
 10
464.41025403784431
 20
-66.698451987465589
 30
0.0
  0
VERTEX
  5
815
  8
DATA
 62
     7
 10
463.79086316047898
 20
-66.472369856351804
 30
0.0
  0
VERTEX
  5
816
  8
DATA
 62
     7
 10
463.1826905283832
 20
-66.196047251657205
 30
0.0
  0
VERTEX
  5
817
  8
DATA
 62
     7
 10
462.58573614155671
 20
-65.869484173381764
 30
0.0
  0
VERTEX
  5
818
  8
DATA
 62
     7
 10
462.0
 20
-65.492680621525523
 30
0.0
  0
VERTEX
  5
819
  8
DATA
 62
     7
 10
462.0
 20
-65.492680621525523
 30
0.0
  0
VERTEX
  5
81A
  8
DATA
 62
     7
 10
461.43519738910157
 20
-65.07236754325011
 30
0.0
  0
VERTEX
  5
81B
  8
DATA
 62
     7
 10
460.90104359425141
 20
-64.615275885717139
 30
0.0
  0
VERTEX
  5
81C
  8
DATA
 62
     7
 10
460.39753861544881
 20
-64.121405648926725
 30
0.0
  0
VERTEX
  5
81D
  8
DATA
 62
     7
 10
459.92468245269441
 20
-63.590756832878839
 30
0.0
  0
VERTEX
  5
81E
  8
DATA
 62
     7
 10
459.48247510598787
 20
-63.02332943757343
 30
0.0
  0
VERTEX
  5
81F
  8
DATA
 62
     7
 10
459.07091657532919
 20
-62.419123463010521
 30
0.0
  0
VERTEX
  5
820
  8
DATA
 62
     7
 10
458.69000686071831
 20
-61.778138909190147
 30
0.0
  0
VERTEX
  5
821
  8
DATA
 62
     7
 10
458.33974596215558
 20
-61.100375776112259
 30
0.0
  0
VERTEX
  5
822
  8
DATA
 62
     7
 10
458.33974596215558
 20
-61.100375776112259
 30
0.0
  0
VERTEX
  5
823
  8
DATA
 62
     7
 10
458.02574300227531
 20
-60.397492406243927
 30
0.0
  0
VERTEX
  5
824
  8
DATA
 62
     7
 10
457.7536071037124
 20
-59.681147142052311
 30
0.0
  0
VERTEX
  5
825
  8
DATA
 62
     7
 10
457.52333826646702
 20
-58.951339983537288
 30
0.0
  0
VERTEX
  5
826
  8
DATA
 62
     7
 10
457.33493649053878
 20
-58.208070930698987
 30
0.0
  0
VERTEX
  5
827
  8
DATA
 62
     7
 10
457.18840177592801
 20
-57.451339983537288
 30
0.0
  0
VERTEX
  5
828
  8
DATA
 62
     7
 10
457.08373412263472
 20
-56.681147142052311
 30
0.0
  0
VERTEX
  5
829
  8
DATA
 62
     7
 10
457.02093353065862
 20
-55.897492406243927
 30
0.0
  0
VERTEX
  5
82A
  8
DATA
 62
     7
 10
457.0
 20
-55.100375776112259
 30
0.0
  0
VERTEX
  5
82B
  8
DATA
 62
     7
 10
457.0
 20
-55.100375776112259
 30
0.0
  0
VERTEX
  5
82C
  8
DATA
 62
     7
 10
457.00000511072523
 20
-55.087817301014397
 30
0.0
  0
VERTEX
  5
82D
  8
DATA
 62
     7
 10
457.0000204429009
 20
-55.07526211251195
 30
0.0
  0
VERTEX
  5
82E
  8
DATA
 62
     7
 10
457.00004599652721
 20
-55.062710210604841
 30
0.0
  0
VERTEX
  5
82F
  8
DATA
 62
     7
 10
457.00008177160402
 20
-55.050161595293133
 30
0.0
  0
VERTEX
  5
830
  8
DATA
 62
     7
 10
457.00012776813128
 20
-55.037616266576769
 30
0.0
  0
VERTEX
  5
831
  8
DATA
 62
     7
 10
457.00018398610922
 20
-55.025074224455821
 30
0.0
  0
VERTEX
  5
832
  8
DATA
 62
     7
 10
457.00025042553767
 20
-55.012535468930203
 30
0.0
  0
VERTEX
  5
833
  8
DATA
 62
     7
 10
457.00032708641641
 20
-54.999999999999972
 30
0.0
  0
VERTEX
  5
834
  8
DATA
 62
     7
 10
457.00032708641641
 20
-54.999999999999972
 30
0.0
  0
SEQEND
  5
835
  8
DATA
 62
     7
  0
POLYLINE
  5
47A
  8
DATA
 62
     7
 66
     1
 10
0.0
 20
0.0
 30
0.0
 70
   128
  0
VERTEX
  5
836
  8
DATA
 62
     7
 10
472.99980374814999
 20
-54.999999999999972
 30
0.0
  0
VERTEX
  5
837
  8
DATA
 62
     7
 10
472.99984974467731
 20
-55.012535468930338
 30
0.0
  0
VERTEX
  5
838
  8
DATA
 62
     7
 10
472.99988960833429
 20
-55.025074224456027
 30
0.0
  0
VERTEX
  5
839
  8
DATA
 62
     7
 10
472.99992333912098
 20
-55.037616266577061
 30
0.0
  0
VERTEX
  5
83A
  8
DATA
 62
     7
 10
472.99995093703751
 20
-55.050161595293417
 30
0.0
  0
VERTEX
  5
83B
  8
DATA
 62
     7
 10
472.99997240208347
 20
-55.062710210605132
 30
0.0
  0
VERTEX
  5
83C
  8
DATA
 62
     7
 10
472.99998773425921
 20
-55.075262112512171
 30
0.0
  0
VERTEX
  5
83D
  8
DATA
 62
     7
 10
472.99999693356477
 20
-55.087817301014539
 30
0.0
  0
VERTEX
  5
83E
  8
DATA
 62
     7
 10
473.0
 20
-55.100375776112259
 30
0.0
  0
VERTEX
  5
83F
  8
DATA
 62
     7
 10
473.0
 20
-55.100375776112259
 30
0.0
  0
VERTEX
  5
840
  8
DATA
 62
     7
 10
472.9874398816047
 20
-55.897492406243927
 30
0.0
  0
VERTEX
  5
841
  8
DATA
 62
     7
 10
472.9497595264192
 20
-56.681147142052311
 30
0.0
  0
VERTEX
  5
842
  8
DATA
 62
     7
 10
472.8869589344431
 20
-57.451339983537288
 30
0.0
  0
VERTEX
  5
843
  8
DATA
 62
     7
 10
472.79903810567652
 20
-58.208070930698987
 30
0.0
  0
VERTEX
  5
844
  8
DATA
 62
     7
 10
472.68599704011967
 20
-58.951339983537288
 30
0.0
  0
VERTEX
  5
845
  8
DATA
 62
     7
 10
472.54783573777229
 20
-59.681147142052311
 30
0.0
  0
VERTEX
  5
846
  8
DATA
 62
     7
 10
472.3845541986347
 20
-60.397492406243927
 30
0.0
  0
VERTEX
  5
847
  8
DATA
 62
     7
 10
472.19615242270652
 20
-61.100375776112259
 30
0.0
  0
VERTEX
  5
848
  8
DATA
 62
     7
 10
472.19615242270652
 20
-61.100375776112259
 30
0.0
  0
VERTEX
  5
849
  8
DATA
 62
     7
 10
471.98599588356882
 20
-61.778138909190147
 30
0.0
  0
VERTEX
  5
84A
  8
DATA
 62
     7
 10
471.7574500548024
 20
-62.419123463010521
 30
0.0
  0
VERTEX
  5
84B
  8
DATA
 62
     7
 10
471.51051493640711
 20
-63.02332943757343
 30
0.0
  0
VERTEX
  5
84C
  8
DATA
 62
     7
 10
471.2451905283832
 20
-63.590756832878839
 30
0.0
  0
VERTEX
  5
84D
  8
DATA
 62
     7
 10
470.96147683073048
 20
-64.121405648926725
 30
0.0
  0
VERTEX
  5
84E
  8
DATA
 62
     7
 10
470.65937384344909
 20
-64.615275885717139
 30
0.0
  0
VERTEX
  5
84F
  8
DATA
 62
     7
 10
470.33888156653882
 20
-65.07236754325011
 30
0.0
  0
VERTEX
  5
850
  8
DATA
 62
     7
 10
470.0
 20
-65.492680621525523
 30
0.0
  0
VERTEX
  5
851
  8
DATA
 62
     7
 10
470.0
 20
-65.492680621525523
 30
0.0
  0
VERTEX
  5
852
  8
DATA
 62
     7
 10
469.64855831506571
 20
-65.869484173381764
 30
0.0
  0
VERTEX
  5
853
  8
DATA
 62
     7
 10
469.29038568296988
 20
-66.196047251657205
 30
0.0
  0
VERTEX
  5
854
  8
DATA
 62
     7
 10
468.9254821037124
 20
-66.472369856351804
 30
0.0
  0
VERTEX
  5
855
  8
DATA
 62
     7
 10
468.5538475772932
 20
-66.698451987465589
 30
0.0
  0
VERTEX
  5
856
  8
DATA
 62
     7
 10
468.1754821037124
 20
-66.874293644998474
 30
0.0
  0
VERTEX
  5
857
  8
DATA
 62
     7
 10
467.79038568297
 20
-66.999894828950573
 30
0.0
  0
VERTEX
  5
858
  8
DATA
 62
     7
 10
467.39855831506571
 20
-67.075255539321844
 30
0.0
  0
VERTEX
  5
859
  8
DATA
 62
     7
 10
467.0
 20
-67.100375776112259
 30
0.0
  0
VERTEX
  5
85A
  8
DATA
 62
     7
 10
467.0
 20
-67.100375776112259
 30
0.0
  0
VERTEX
  5
85B
  8
DATA
 62
     7
 10
466.601441684934
 20
-67.075255539321844
 30
0.0
  0
VERTEX
  5
85C
  8
DATA
 62
     7
 10
466.20961431703
 20
-66.999894828950573
 30
0.0
  0
VERTEX
  5
85D
  8
DATA
 62
     7
 10
465.82451789628732
 20
-66.874293644998474
 30
0.0
  0
VERTEX
  5
85E
  8
DATA
 62
     7
 10
465.44615242270652
 20
-66.698451987465589
 30
0.0
  0
VERTEX
  5
85F
  8
DATA
 62
     7
 10
465.07451789628732
 20
-66.472369856351804
 30
0.0
  0
VERTEX
  5
860
  8
DATA
 62
     7
 10
464.70961431702989
 20
-66.196047251657205
 30
0.0
  0
VERTEX
  5
861
  8
DATA
 62
     7
 10
464.351441684934
 20
-65.869484173381764
 30
0.0
  0
VERTEX
  5
862
  8
DATA
 62
     7
 10
464.0
 20
-65.492680621525523
 30
0.0
  0
VERTEX
  5
863
  8
DATA
 62
     7
 10
464.0
 20
-65.492680621525523
 30
0.0
  0
VERTEX
  5
864
  8
DATA
 62
     7
 10
463.6611184334609
 20
-65.07236754325011
 30
0.0
  0
VERTEX
  5
865
  8
DATA
 62
     7
 10
463.3406261565508
 20
-64.615275885717139
 30
0.0
  0
VERTEX
  5
866
  8
DATA
 62
     7
 10
463.0385231692693
 20
-64.121405648926725
 30
0.0
  0
VERTEX
  5
867
  8
DATA
 62
     7
 10
462.75480947161668
 20
-63.590756832878839
 30
0.0
  0
VERTEX
  5
868
  8
DATA
 62
     7
 10
462.48948506359278
 20
-63.02332943757343
 30
0.0
  0
VERTEX
  5
869
  8
DATA
 62
     7
 10
462.2425499451976
 20
-62.419123463010521
 30
0.0
  0
VERTEX
  5
86A
  8
DATA
 62
     7
 10
462.01400411643112
 20
-61.778138909190147
 30
0.0
  0
VERTEX
  5
86B
  8
DATA
 62
     7
 10
461.8038475772932
 20
-61.100375776112259
 30
0.0
  0
VERTEX
  5
86C
  8
DATA
 62
     7
 10
461.8038475772932
 20
-61.100375776112259
 30
0.0
  0
VERTEX
  5
86D
  8
DATA
 62
     7
 10
461.61544580136513
 20
-60.397492406243927
 30
0.0
  0
VERTEX
  5
86E
  8
DATA
 62
     7
 10
461.45216426222743
 20
-59.681147142052311
 30
0.0
  0
VERTEX
  5
86F
  8
DATA
 62
     7
 10
461.31400295988021
 20
-58.951339983537288
 30
0.0
  0
VERTEX
  5
870
  8
DATA
 62
     7
 10
461.2009618943232
 20
-58.208070930698987
 30
0.0
  0
VERTEX
  5
871
  8
DATA
 62
     7
 10
461.11304106555679
 20
-57.451339983537288
 30
0.0
  0
VERTEX
  5
872
  8
DATA
 62
     7
 10
461.05024047358069
 20
-56.681147142052311
 30
0.0
  0
VERTEX
  5
873
  8
DATA
 62
     7
 10
461.01256011839507
 20
-55.897492406243927
 30
0.0
  0
VERTEX
  5
874
  8
DATA
 62
     7
 10
461.0
 20
-55.100375776112259
 30
0.0
  0
VERTEX
  5
875
  8
DATA
 62
     7
 10
461.0
 20
-55.100375776112259
 30
0.0
  0
VERTEX
  5
876
  8
DATA
 62
     7
 10
461.00000306643511
 20
-55.087817301012961
 30
0.0
  0
VERTEX
  5
877
  8
DATA
 62
     7
 10
461.00001226574051
 20
-55.075262112509449
 30
0.0
  0
VERTEX
  5
878
  8
DATA
 62
     7
 10
461.0000275979163
 20
-55.062710210601722
 30
0.0
  0
VERTEX
  5
879
  8
DATA
 62
     7
 10
461.00004906296232
 20
-55.050161595289779
 30
0.0
  0
VERTEX
  5
87A
  8
DATA
 62
     7
 10
461.00007666087879
 20
-55.03761626657365
 30
0.0
  0
VERTEX
  5
87B
  8
DATA
 62
     7
 10
461.00011039166549
 20
-55.025074224453292
 30
0.0
  0
VERTEX
  5
87C
  8
DATA
 62
     7
 10
461.00015025532241
 20
-55.012535468928739
 30
0.0
  0
VERTEX
  5
87D
  8
DATA
 62
     7
 10
461.00019625184967
 20
-54.999999999999972
 30
0.0
  0
VERTEX
  5
87E
  8
DATA
 62
     7
 10
461.00019625184967
 20
-54.999999999999972
 30
0.0
  0
SEQEND
  5
87F
  8
DATA
 62
     7
  0
ENDSEC
  0
EOF
