  0
SECTION
  2
HEADER
  9
$ACADVER
  1
AC1009
  9
$INSBASE
 10
0.0
 20
0.0
 30
0.0
  9
$EXTMIN
 10
-575.04119558730315
 20
-869.20755479666639
 30
-0.0015258207003583
  9
$EXTMAX
 10
775.04120187373019
 20
1138.0179281775629
 30
0.0000000349246037
  9
$LIMMIN
 10
0.0
 20
0.0
  9
$LIMMAX
 10
0.0
 20
0.0
  9
$ORTHOMODE
 70
     0
  9
$REGENMODE
 70
     1
  9
$FILLMODE
 70
     1
  9
$QTEXTMODE
 70
     0
  9
$MIRRTEXT
 70
     1
  9
$DRAGMODE
 70
     2
  9
$LTSCALE
 40
38.100000000000001
  9
$OSMODE
 70
   167
  9
$ATTMODE
 70
     1
  9
$TEXTSIZE
 40
0.0
  9
$TRACEWID
 40
1.0
  9
$TEXTSTYLE
  7
STANDARD
  9
$CLAYER
  8
DATA
  9
$CELTYPE
  6
CONTINUOUS
  9
$CECOLOR
 62
   256
  9
$DIMSCALE
 40
1.0
  9
$DIMASZ
 40
0.18
  9
$DIMEXO
 40
0.0625
  9
$DIMDLI
 40
0.38
  9
$DIMRND
 40
0.0
  9
$DIMDLE
 40
0.0
  9
$DIMEXE
 40
0.18
  9
$DIMTP
 40
0.0
  9
$DIMTM
 40
0.0
  9
$DIMTXT
 40
0.18
  9
$DIMCEN
 40
0.09
  9
$DIMTSZ
 40
0.0
  9
$DIMTOL
 70
     0
  9
$DIMLIM
 70
     0
  9
$DIMTIH
 70
     1
  9
$DIMTOH
 70
     1
  9
$DIMSE1
 70
     0
  9
$DIMSE2
 70
     0
  9
$DIMTAD
 70
     0
  9
$DIMZIN
 70
     0
  9
$DIMBLK
  1

  9
$DIMASO
 70
     1
  9
$DIMSHO
 70
     1
  9
$DIMPOST
  1

  9
$DIMAPOST
  1

  9
$DIMALT
 70
     0
  9
$DIMALTD
 70
     2
  9
$DIMALTF
 40
25.399999999999999
  9
$DIMLFAC
 40
1.0
  9
$DIMTOFL
 70
     0
  9
$DIMTVP
 40
0.0
  9
$DIMTIX
 70
     0
  9
$DIMSOXD
 70
     0
  9
$DIMSAH
 70
     0
  9
$DIMBLK1
  1

  9
$DIMBLK2
  1

  9
$DIMSTYLE
  2
STANDARD
  9
$DIMCLRD
 70
     0
  9
$DIMCLRE
 70
     0
  9
$DIMCLRT
 70
     0
  9
$DIMTFAC
 40
1.0
  9
$DIMGAP
 40
0.09
  9
$LUNITS
 70
     2
  9
$LUPREC
 70
     4
  9
$SKETCHINC
 40
0.1
  9
$FILLETRAD
 40
0.0
  9
$AUNITS
 70
     0
  9
$AUPREC
 70
     0
  9
$MENU
  1
acad
  9
$ELEVATION
 40
0.0
  9
$PELEVATION
 40
0.0
  9
$THICKNESS
 40
0.0
  9
$LIMCHECK
 70
     0
  9
$BLIPMODE
 70
     0
  9
$CHAMFERA
 40
0.0
  9
$CHAMFERB
 40
0.0
  9
$SKPOLY
 70
     0
  9
$TDCREATE
 40
2453181.5192939821
  9
$TDUPDATE
 40
2453181.5202048961
  9
$TDINDWG
 40
0.0003428819
  9
$TDUSRTIMER
 40
0.00034125
  9
$USRTIMER
 70
     1
  9
$ANGBASE
 50
0.0
  9
$ANGDIR
 70
     0
  9
$PDMODE
 70
     1
  9
$PDSIZE
 40
-2.0
  9
$PLINEWID
 40
0.0
  9
$COORDS
 70
     0
  9
$SPLFRAME
 70
     0
  9
$SPLINETYPE
 70
     6
  9
$SPLINESEGS
 70
     8
  9
$ATTDIA
 70
     0
  9
$ATTREQ
 70
     1
  9
$HANDLING
 70
     1
  9
$HANDSEED
  5
8B6
  9
$SURFTAB1
 70
     6
  9
$SURFTAB2
 70
     6
  9
$SURFTYPE
 70
     6
  9
$SURFU
 70
     6
  9
$SURFV
 70
     6
  9
$UCSNAME
  2

  9
$UCSORG
 10
0.0
 20
0.0
 30
0.0
  9
$UCSXDIR
 10
1.0
 20
0.0
 30
0.0
  9
$UCSYDIR
 10
0.0
 20
1.0
 30
0.0
  9
$PUCSNAME
  2

  9
$PUCSORG
 10
0.0
 20
0.0
 30
0.0
  9
$PUCSXDIR
 10
1.0
 20
0.0
 30
0.0
  9
$PUCSYDIR
 10
0.0
 20
1.0
 30
0.0
  9
$USERI1
 70
     0
  9
$USERI2
 70
     0
  9
$USERI3
 70
     0
  9
$USERI4
 70
     0
  9
$USERI5
 70
     0
  9
$USERR1
 40
0.0
  9
$USERR2
 40
0.0
  9
$USERR3
 40
0.0
  9
$USERR4
 40
0.0
  9
$USERR5
 40
0.0
  9
$WORLDVIEW
 70
     1
  9
$SHADEDGE
 70
     3
  9
$SHADEDIF
 70
    70
  9
$TILEMODE
 70
     1
  9
$MAXACTVP
 70
    16
  9
$PLIMCHECK
 70
     0
  9
$PEXTMIN
 10
1.0000000000000000E+020
 20
1.0000000000000000E+020
 30
1.0000000000000000E+020
  9
$PEXTMAX
 10
-1.0000000000000000E+020
 20
-1.0000000000000000E+020
 30
-1.0000000000000000E+020
  9
$PLIMMIN
 10
0.0
 20
0.0
  9
$PLIMMAX
 10
12.0
 20
9.0
  9
$UNITMODE
 70
     0
  9
$VISRETAIN
 70
     0
  9
$PLINEGEN
 70
     1
  9
$PSLTSCALE
 70
     0
  0
ENDSEC
  0
SECTION
  2
TABLES
  0
TABLE
  2
VPORT
 70
     2
  0
VPORT
  2
*ACTIVE
 70
     0
 10
0.0
 20
0.0
 11
1.0
 21
1.0
 12
100.00000314321331
 22
134.40518669044849
 13
0.0
 23
0.0
 14
1.0
 24
1.0
 15
0.0
 25
0.0
 16
0.0
 26
0.0
 36
1.0
 17
0.0
 27
0.0
 37
0.0
 40
2023.176943766078
 41
1.5994694960212199
 42
50.0
 43
0.0
 44
0.0
 50
0.0
 51
0.0
 71
     0
 72
   100
 73
     1
 74
     1
 75
     0
 76
     0
 77
     0
 78
     0
  0
ENDTAB
  0
TABLE
  2
LTYPE
 70
    11
  0
LTYPE
  2
CONTINUOUS
 70
     0
  3
Solid line
 72
    65
 73
     0
 40
0.0
  0
ENDTAB
  0
TABLE
  2
LAYER
 70
     6
  0
LAYER
  2
0
 70
     0
 62
     7
  6
CONTINUOUS
  0
LAYER
  2
DATA
 70
     0
 62
     7
  6
CONTINUOUS
  0
LAYER
  2
DEFPOINTS
 70
     0
 62
     7
  6
CONTINUOUS
  0
LAYER
  2
HIBINO-BASE
 70
     0
 62
     7
  6
CONTINUOUS
  0
LAYER
  2
SPEC
 70
     0
 62
     7
  6
CONTINUOUS
  0
LAYER
  2
DIMNSIONS
 70
     0
 62
     7
  6
CONTINUOUS
  0
ENDTAB
  0
TABLE
  2
STYLE
 70
     2
  0
STYLE
  2
STANDARD
 70
     0
 40
0.0
 41
1.0
 50
0.0
 71
     0
 42
0.0
  3
txt
  4
BIGFONT.SHX
  0
ENDTAB
  0
TABLE
  2
VIEW
 70
     0
  0
ENDTAB
  0
TABLE
  2
UCS
 70
     0
  0
ENDTAB
  0
TABLE
  2
APPID
 70
     1
  0
APPID
  2
ACAD
 70
     0
  0
ENDTAB
  0
TABLE
  2
DIMSTYLE
 70
     1
  0
DIMSTYLE
  2
STANDARD
 70
     0
  3

  4

  5

  6

  7

 40
1.0
 41
0.18
 42
0.0625
 43
0.38
 44
0.18
 45
0.0
 46
0.0
 47
0.0
 48
0.0
140
0.18
141
0.09
142
0.0
143
25.399999999999999
144
1.0
145
0.0
146
1.0
147
0.09
 71
     0
 72
     0
 73
     1
 74
     1
 75
     0
 76
     0
 77
     0
 78
     0
170
     0
171
     2
172
     0
173
     0
174
     0
175
     0
176
     0
177
     0
178
     0
  0
ENDTAB
  0
ENDSEC
  0
SECTION
  2
BLOCKS
  0
BLOCK
  8
0
  2
$MODEL_SPACE
 70
     0
 10
0.0
 20
0.0
 30
0.0
  3
$MODEL_SPACE
  1

  0
ENDBLK
  5
518
  8
0
  0
BLOCK
 67
     1
  8
0
  2
$PAPER_SPACE
 70
     0
 10
0.0
 20
0.0
 30
0.0
  3
$PAPER_SPACE
  1

  0
ENDBLK
  5
514
 67
     1
  8
0
  0
ENDSEC
  0
SECTION
  2
ENTITIES
  0
LINE
  5
2D
  8
HIBINO-BASE
 62
     7
 10
-574.99999999999989
 20
1137.9567975
 30
0.0
 11
775.0
 21
1137.9567975
 31
0.0
  0
LINE
  5
2E
  8
HIBINO-BASE
 62
     7
 10
775.0
 20
-812.04320250000012
 30
0.0
 11
-574.99999999999989
 21
-812.04320250000012
 31
0.0
  0
LINE
  5
2F
  8
HIBINO-BASE
 62
     7
 10
-574.99999999999989
 20
-812.04320250000012
 30
0.0
 11
-574.99999999999989
 21
1137.9567975
 31
0.0
  0
TEXT
  5
30
  8
HIBINO-BASE
 62
     7
 10
-521.11999999999978
 20
-860.10828599999979
 30
0.0
 40
27.00033134765625
  1
Hibino Corporation
 41
0.8
 11
-521.11999999999978
 21
-833.10795465234355
 31
0.0
 73
     3
  0
LINE
  5
31
  8
HIBINO-BASE
 62
     7
 10
775.0
 20
1137.9567975
 30
0.0
 11
775.0
 21
-812.04320250000012
 31
0.0
  0
LINE
  5
32
  8
HIBINO-BASE
 62
     7
 10
100.0
 20
-643.29320250000001
 30
0.0
 11
775.0
 21
-643.29320250000001
 31
0.0
  0
LINE
  5
33
  8
HIBINO-BASE
 62
     7
 10
100.0
 20
-812.04320250000012
 30
0.0
 11
100.0
 21
-643.29320250000001
 31
0.0
  0
TEXT
  5
34
  8
HIBINO-BASE
 62
     7
 10
106.75
 20
-662.10840250000001
 30
0.0
 40
12.21630859375
  1
NOTE
 41
0.8
 11
106.75
 21
-649.89209390625001
 31
0.0
 73
     3
  0
LINE
  5
35
  8
HIBINO-BASE
 62
     7
 10
362.5
 20
-812.04320250000012
 30
0.0
 11
362.5
 21
-643.29320250000001
 31
0.0
  0
TEXT
  5
36
  8
HIBINO-BASE
 62
     7
 10
369.25
 20
-662.10840250000001
 30
0.0
 40
12.21630859375
  1
TITLE
 41
0.8
 11
369.25
 21
-649.89209390625001
 31
0.0
 73
     3
  0
TEXT
  5
37
  8
HIBINO-BASE
 62
     7
 10
475.512925
 20
-860.10828599999979
 30
0.0
 40
27.00033134765625
  1
ヒビノ株式会社
 41
0.8
 11
475.512925
 21
-833.10795465234355
 31
0.0
 73
     3
  0
LINE
  5
38
  8
HIBINO-BASE
 62
     7
 10
100.0
 20
-737.04320250000001
 30
0.0
 11
775.0
 21
-737.04320250000001
 31
0.0
  0
TEXT
  5
39
  8
HIBINO-BASE
 62
     7
 10
463.0
 20
-755.4360025000002
 30
0.0
 40
12.21630859375
  1
DRAWN
 41
0.8
 11
463.0
 21
-743.21969390625009
 31
0.0
 73
     3
  0
TEXT
  5
3A
  8
HIBINO-BASE
 62
     7
 10
275.5
 20
-755.4360025000002
 30
0.0
 40
12.21630859375
  1
DATE
 41
0.8
 11
275.5
 21
-743.21969390625009
 31
0.0
 73
     3
  0
TEXT
  5
3B
  8
HIBINO-BASE
 62
     7
 10
200.5
 20
-755.4360025000002
 30
0.0
 40
12.21630859375
  1
SCALE
 41
0.8
 11
200.5
 21
-743.21969390625009
 31
0.0
 73
     3
  0
TEXT
  5
3C
  8
HIBINO-BASE
 62
     7
 10
369.25
 20
-755.4360025000002
 30
0.0
 40
12.21630859375
  1
DESIGN
 41
0.8
 11
369.25
 21
-743.21969390625009
 31
0.0
 73
     3
  0
TEXT
  5
3D
  8
HIBINO-BASE
 62
     7
 10
650.49999999999989
 20
-755.4360025000002
 30
0.0
 40
12.21630859375
  1
DRAWING NO.
 41
0.8
 11
650.49999999999989
 21
-743.21969390625009
 31
0.0
 73
     3
  0
TEXT
  5
3E
  8
HIBINO-BASE
 62
     7
 10
556.74999999999989
 20
-755.4360025000002
 30
0.0
 40
12.21630859375
  1
CHECK
 41
0.8
 11
556.74999999999989
 21
-743.21969390625009
 31
0.0
 73
     3
  0
LINE
  5
3F
  8
HIBINO-BASE
 62
     7
 10
207.8125
 20
-802.66820250000012
 30
0.0
 11
235.9375
 21
-774.54320250000001
 31
0.0
  0
TEXT
  5
40
  8
HIBINO-BASE
 62
     7
 10
203.125
 20
-782.86027749999982
 30
0.0
 40
12.21630859375
  1
1
 41
0.8
 11
203.125
 21
-770.64396890624982
 31
0.0
 73
     3
  0
LINE
  5
41
  8
HIBINO-BASE
 62
     7
 10
193.75
 20
-812.04320250000012
 30
0.0
 11
193.75
 21
-737.04320250000001
 31
0.0
  0
LINE
  5
42
  8
HIBINO-BASE
 62
     7
 10
268.75
 20
-812.04320250000012
 30
0.0
 11
268.75
 21
-737.04320250000001
 31
0.0
  0
LINE
  5
43
  8
HIBINO-BASE
 62
     7
 10
456.25
 20
-737.04320250000001
 30
0.0
 11
456.25
 21
-812.04320250000012
 31
0.0
  0
LINE
  5
44
  8
HIBINO-BASE
 62
     7
 10
643.75
 20
-737.04320250000001
 30
0.0
 11
643.75
 21
-812.04320250000012
 31
0.0
  0
LINE
  5
45
  8
HIBINO-BASE
 62
     7
 10
549.99999999999989
 20
-812.04320250000012
 30
0.0
 11
549.99999999999989
 21
-737.04320250000001
 31
0.0
  0
TEXT
  5
46
  8
HIBINO-BASE
 62
     7
 10
275.17405000000002
 20
-790.56585250000012
 30
0.0
 40
12.21630859375
  1
'04.06.
 41
0.8
 11
275.17405000000002
 21
-778.34954390625012
 31
0.0
 73
     3
  0
TEXT
  5
47
  8
HIBINO-BASE
 62
     7
 10
231.25
 20
-796.92277749999982
 30
0.0
 40
12.21630859375
  1
7.5
 41
0.8
 11
231.25
 21
-784.70646890624982
 31
0.0
 73
     3
  0
TEXT
  5
48
  8
HIBINO-BASE
 62
     7
 10
467.54357508275967
 20
-790.56585250000012
 30
0.0
 40
12.21630859375
  1
N.Sasaki
 41
0.8
 11
467.54357508275967
 21
-778.34954390625012
 31
0.0
 73
     3
  0
TEXT
  5
49
  8
HIBINO-BASE
 62
     7
 10
129.12500000000011
 20
-797.22320249999984
 30
0.0
 40
24.4326171875
  1
A4
 41
0.8
 11
129.12500000000011
 21
-772.79058531249984
 31
0.0
 73
     3
  0
TEXT
  5
4A
  8
HIBINO-BASE
 62
     7
 10
107.1874999999999
 20
-756.6891149999999
 30
0.0
 40
12.21630859375
  1
PAPER SIZE
 41
0.8
 11
107.1874999999999
 21
-744.47280640624979
 31
0.0
 73
     3
  0
LINE
  5
4B
  8
SPEC
 62
     7
 10
-518.74999999999989
 20
1062.9567975
 30
0.0
 11
150.0
 21
1062.9567975
 31
0.0
  0
LINE
  5
4C
  8
SPEC
 62
     7
 10
-518.74999999999989
 20
1034.8317975
 30
0.0
 11
150.0
 21
1034.8317975
 31
0.0
  0
LINE
  5
4D
  8
SPEC
 62
     7
 10
-518.74999999999989
 20
1062.9567975
 30
0.0
 11
-518.74999999999989
 21
1034.8317975
 31
0.0
  0
TEXT
  5
4E
  8
SPEC
 62
     7
 10
-509.37499999999989
 20
1073.4063225
 30
0.0
 40
18.324462890625
  1
仕様
 41
0.8
 11
-509.37499999999989
 21
1091.730785390625
 31
0.0
 73
     3
  0
LINE
  5
4F
  8
SPEC
 62
     7
 10
-275.0
 20
1062.9567975
 30
0.0
 11
-275.0
 21
1034.8317975
 31
0.0
  0
LINE
  5
50
  8
SPEC
 62
     7
 10
150.0
 20
1062.9567975
 30
0.0
 11
150.0
 21
1034.8317975
 31
0.0
  0
TEXT
  5
51
  8
SPEC
 62
     7
 10
-512.0
 20
1040.7412095
 30
0.0
 40
14.252334375
  1
寸法
 41
0.8
 11
-512.0
 21
1054.9935438749999
 31
0.0
 73
     3
  0
TEXT
  5
52
  8
SPEC
 62
     7
 10
-268.25
 20
1040.7412095
 30
0.0
 40
14.252334375
  1
603(W)×295.1(H)×89.5(D)mm
 41
0.8
 11
-268.25
 21
1054.9935438749999
 31
0.0
 73
     3
  0
LINE
  5
53
  8
DIMNSIONS
 62
     7
 10
93.597999999999942
 20
15.0
 30
0.0
 11
93.597999999999942
 21
65.0
 31
0.0
  0
LINE
  5
54
  8
DIMNSIONS
 62
     7
 10
-490.60199999999992
 20
15.0
 30
0.0
 11
-490.60199999999992
 21
65.0
 31
0.0
  0
LINE
  5
55
  8
DIMNSIONS
 62
     7
 10
93.597999999999942
 20
50.0
 30
0.0
 11
-490.60199999999992
 21
50.0
 31
0.0
  0
LINE
  5
56
  8
DIMNSIONS
 62
     7
 10
93.597999999999942
 20
50.0
 30
0.0
 11
74.843330810546803
 21
44.974701536373168
 31
0.0
  0
LINE
  5
57
  8
DIMNSIONS
 62
     7
 10
93.597999999999942
 20
50.0
 30
0.0
 11
74.843330810546803
 21
55.025298463626832
 31
0.0
  0
LINE
  5
58
  8
DIMNSIONS
 62
     7
 10
-490.60199999999992
 20
50.0
 30
0.0
 11
-471.84733081054679
 21
55.025298463626832
 31
0.0
  0
LINE
  5
59
  8
DIMNSIONS
 62
     7
 10
-490.60199999999992
 20
50.0
 30
0.0
 11
-471.84733081054679
 21
44.974701536373168
 31
0.0
  0
TEXT
  5
5A
  8
DIMNSIONS
 62
     7
 10
-231.57491666666661
 20
57.454166666666673
 30
0.0
 40
20.360514322916671
  1
584.2
 41
0.8
 11
-231.57491666666661
 21
77.814680989583337
 31
0.0
 73
     3
  0
TEXT
  5
5B
  8
DIMNSIONS
 62
     7
 10
-50.000000000000021
 20
-720.02202750000004
 30
0.0
 40
18.324462890625
  1
(単位：mm)
 41
0.8
 11
-50.000000000000021
 21
-701.69756460937504
 31
0.0
 73
     3
  0
LINE
  5
5C
  8
DIMNSIONS
 62
     7
 10
-262.00200000000001
 20
336.613
 30
0.0
 11
-262.00200000000001
 21
235.0
 31
0.0
  0
LINE
  5
5D
  8
DIMNSIONS
 62
     7
 10
-135.0019999999999
 20
336.613
 30
0.0
 11
-135.0019999999999
 21
235.0
 31
0.0
  0
LINE
  5
5E
  8
DIMNSIONS
 62
     7
 10
-262.00200000000001
 20
250.0
 30
0.0
 11
-135.0019999999999
 21
250.0
 31
0.0
  0
LINE
  5
5F
  8
DIMNSIONS
 62
     7
 10
-262.00200000000001
 20
250.0
 30
0.0
 11
-243.2473308105468
 21
255.0252984636268
 31
0.0
  0
LINE
  5
60
  8
DIMNSIONS
 62
     7
 10
-262.00200000000001
 20
250.0
 30
0.0
 11
-243.2473308105468
 21
244.9747015363732
 31
0.0
  0
LINE
  5
61
  8
DIMNSIONS
 62
     7
 10
-135.0019999999999
 20
250.0
 30
0.0
 11
-153.75666918945299
 21
244.9747015363732
 31
0.0
  0
LINE
  5
62
  8
DIMNSIONS
 62
     7
 10
-135.0019999999999
 20
250.0
 30
0.0
 11
-153.75666918945299
 21
255.0252984636268
 31
0.0
  0
TEXT
  5
63
  8
DIMNSIONS
 62
     7
 10
-218.3457499999999
 20
257.45416666666671
 30
0.0
 40
20.360514322916671
  1
127
 41
0.8
 11
-218.3457499999999
 21
277.81468098958328
 31
0.0
 73
     3
  0
LINE
  5
64
  8
DIMNSIONS
 62
     7
 10
-350.9020000000001
 20
313.245
 30
0.0
 11
-350.9020000000001
 21
185.0
 31
0.0
  0
LINE
  5
65
  8
DIMNSIONS
 62
     7
 10
-46.102000000000103
 20
313.245
 30
0.0
 11
-46.102000000000103
 21
185.0
 31
0.0
  0
LINE
  5
66
  8
DIMNSIONS
 62
     7
 10
-350.9020000000001
 20
200.0
 30
0.0
 11
-46.102000000000103
 21
200.0
 31
0.0
  0
LINE
  5
67
  8
DIMNSIONS
 62
     7
 10
-350.9020000000001
 20
200.0
 30
0.0
 11
-332.14733081054692
 21
205.0252984636268
 31
0.0
  0
LINE
  5
68
  8
DIMNSIONS
 62
     7
 10
-350.9020000000001
 20
200.0
 30
0.0
 11
-332.14733081054692
 21
194.97470153637309
 31
0.0
  0
LINE
  5
69
  8
DIMNSIONS
 62
     7
 10
-46.102000000000103
 20
200.0
 30
0.0
 11
-64.856669189453214
 21
194.97470153637309
 31
0.0
  0
LINE
  5
6A
  8
DIMNSIONS
 62
     7
 10
-46.102000000000103
 20
200.0
 30
0.0
 11
-64.856669189453214
 21
205.0252984636268
 31
0.0
  0
TEXT
  5
6B
  8
DIMNSIONS
 62
     7
 10
-231.5749166666667
 20
207.45416666666671
 30
0.0
 40
20.360514322916671
  1
304.8
 41
0.8
 11
-231.5749166666667
 21
227.81468098958331
 31
0.0
 73
     3
  0
LINE
  5
6C
  8
DIMNSIONS
 62
     7
 10
4.697999999999964
 20
313.245
 30
0.0
 11
4.697999999999964
 21
135.0
 31
0.0
  0
LINE
  5
6D
  8
DIMNSIONS
 62
     7
 10
-401.702
 20
313.245
 30
0.0
 11
-401.702
 21
135.0
 31
0.0
  0
LINE
  5
6E
  8
DIMNSIONS
 62
     7
 10
4.697999999999964
 20
150.0
 30
0.0
 11
-401.702
 21
150.0
 31
0.0
  0
LINE
  5
6F
  8
DIMNSIONS
 62
     7
 10
4.697999999999964
 20
150.0
 30
0.0
 11
-14.05666918945316
 21
144.97470153637309
 31
0.0
  0
LINE
  5
70
  8
DIMNSIONS
 62
     7
 10
4.697999999999964
 20
150.0
 30
0.0
 11
-14.05666918945316
 21
155.0252984636268
 31
0.0
  0
LINE
  5
71
  8
DIMNSIONS
 62
     7
 10
-401.702
 20
150.0
 30
0.0
 11
-382.94733081054687
 21
155.0252984636268
 31
0.0
  0
LINE
  5
72
  8
DIMNSIONS
 62
     7
 10
-401.702
 20
150.0
 30
0.0
 11
-382.94733081054687
 21
144.97470153637309
 31
0.0
  0
TEXT
  5
73
  8
DIMNSIONS
 62
     7
 10
-231.57491666666661
 20
157.45416666666671
 30
0.0
 40
20.360514322916671
  1
406.4
 41
0.8
 11
-231.57491666666661
 21
177.81468098958331
 31
0.0
 73
     3
  0
LINE
  5
74
  8
DIMNSIONS
 62
     7
 10
-452.50200000000001
 20
335.47000000000008
 30
0.0
 11
-452.50200000000001
 21
85.0
 31
0.0
  0
LINE
  5
75
  8
DIMNSIONS
 62
     7
 10
55.498000000000019
 20
335.47000000000008
 30
0.0
 11
55.498000000000019
 21
85.0
 31
0.0
  0
LINE
  5
76
  8
DIMNSIONS
 62
     7
 10
-452.50200000000001
 20
100.0
 30
0.0
 11
55.498000000000019
 21
100.0
 31
0.0
  0
LINE
  5
77
  8
DIMNSIONS
 62
     7
 10
-452.50200000000001
 20
100.0
 30
0.0
 11
-433.74733081054671
 21
105.0252984636268
 31
0.0
  0
LINE
  5
78
  8
DIMNSIONS
 62
     7
 10
-452.50200000000001
 20
100.0
 30
0.0
 11
-433.74733081054671
 21
94.974701536373161
 31
0.0
  0
LINE
  5
79
  8
DIMNSIONS
 62
     7
 10
55.498000000000019
 20
100.0
 30
0.0
 11
36.743330810546908
 21
94.974701536373161
 31
0.0
  0
LINE
  5
7A
  8
DIMNSIONS
 62
     7
 10
55.498000000000019
 20
100.0
 30
0.0
 11
36.743330810546908
 21
105.0252984636268
 31
0.0
  0
TEXT
  5
7B
  8
DIMNSIONS
 62
     7
 10
-218.3457499999999
 20
107.45416666666659
 30
0.0
 40
20.360514322916671
  1
508
 41
0.8
 11
-218.3457499999999
 21
127.81468098958329
 31
0.0
 73
     3
  0
LINE
  5
7C
  8
DIMNSIONS
 62
     7
 10
117.99600000000009
 20
377.77499999999998
 30
0.0
 11
165.0
 21
377.77499999999998
 31
0.0
  0
LINE
  5
7D
  8
DIMNSIONS
 62
     7
 10
117.99600000000009
 20
333.32499999999999
 30
0.0
 11
165.0
 21
333.32499999999999
 31
0.0
  0
LINE
  5
7E
  8
DIMNSIONS
 62
     7
 10
150.0
 20
377.77499999999998
 30
0.0
 11
150.0
 21
452.91666666666657
 31
0.0
  0
LINE
  5
7F
  8
DIMNSIONS
 62
     7
 10
150.0
 20
377.77499999999998
 30
0.0
 11
150.0
 21
333.32499999999999
 31
0.0
  0
LINE
  5
80
  8
DIMNSIONS
 62
     7
 10
150.0
 20
377.77499999999998
 30
0.0
 11
155.0252984636268
 21
359.0203308105468
 31
0.0
  0
LINE
  5
81
  8
DIMNSIONS
 62
     7
 10
150.0
 20
377.77499999999998
 30
0.0
 11
144.97470153637309
 21
359.0203308105468
 31
0.0
  0
LINE
  5
82
  8
DIMNSIONS
 62
     7
 10
150.0
 20
333.32499999999999
 30
0.0
 11
144.97470153637309
 21
352.07966918945311
 31
0.0
  0
LINE
  5
83
  8
DIMNSIONS
 62
     7
 10
150.0
 20
333.32499999999999
 30
0.0
 11
155.0252984636268
 21
352.07966918945311
 31
0.0
  0
TEXT
  5
84
  8
DIMNSIONS
 62
     7
 10
142.54583333333329
 20
400.0
 30
0.0
 40
20.360514322916671
  1
44.5
 50
90.0
 41
0.8
 11
122.18531901041661
 21
400.0
 31
0.0
 73
     3
  0
LINE
  5
85
  8
DIMNSIONS
 62
     7
 10
-496.952
 20
-310.14800000000002
 30
0.0
 11
-496.952
 21
-365.0
 31
0.0
  0
LINE
  5
86
  8
DIMNSIONS
 62
     7
 10
99.948000000000107
 20
-310.14800000000002
 30
0.0
 11
99.948000000000107
 21
-365.0
 31
0.0
  0
LINE
  5
87
  8
DIMNSIONS
 62
     7
 10
-496.952
 20
-350.0
 30
0.0
 11
99.948000000000107
 21
-350.0
 31
0.0
  0
LINE
  5
88
  8
DIMNSIONS
 62
     7
 10
-496.952
 20
-350.0
 30
0.0
 11
-478.19733081054682
 21
-344.97470153637317
 31
0.0
  0
LINE
  5
89
  8
DIMNSIONS
 62
     7
 10
-496.952
 20
-350.0
 30
0.0
 11
-478.19733081054682
 21
-355.02529846362683
 31
0.0
  0
LINE
  5
8A
  8
DIMNSIONS
 62
     7
 10
99.948000000000107
 20
-350.0
 30
0.0
 11
81.193330810546939
 21
-355.02529846362683
 31
0.0
  0
LINE
  5
8B
  8
DIMNSIONS
 62
     7
 10
99.948000000000107
 20
-350.0
 30
0.0
 11
81.193330810546939
 21
-344.97470153637317
 31
0.0
  0
TEXT
  5
8C
  8
DIMNSIONS
 62
     7
 10
-231.57491666666661
 20
-342.54583333333341
 30
0.0
 40
20.360514322916671
  1
596.9
 41
0.8
 11
-231.57491666666661
 21
-322.18531901041661
 31
0.0
 73
     3
  0
LINE
  5
8D
  8
DIMNSIONS
 62
     7
 10
-500.0
 20
-310.14800000000002
 30
0.0
 11
-500.0
 21
-415.0
 31
0.0
  0
LINE
  5
8E
  8
DIMNSIONS
 62
     7
 10
102.99600000000009
 20
-310.14800000000002
 30
0.0
 11
102.99600000000009
 21
-415.0
 31
0.0
  0
LINE
  5
8F
  8
DIMNSIONS
 62
     7
 10
-500.0
 20
-400.0
 30
0.0
 11
102.99600000000009
 21
-400.0
 31
0.0
  0
LINE
  5
90
  8
DIMNSIONS
 62
     7
 10
-500.0
 20
-400.0
 30
0.0
 11
-481.24533081054682
 21
-394.97470153637317
 31
0.0
  0
LINE
  5
91
  8
DIMNSIONS
 62
     7
 10
-500.0
 20
-400.0
 30
0.0
 11
-481.24533081054682
 21
-405.02529846362683
 31
0.0
  0
LINE
  5
92
  8
DIMNSIONS
 62
     7
 10
102.99600000000009
 20
-400.0
 30
0.0
 11
84.241330810546941
 21
-405.02529846362683
 31
0.0
  0
LINE
  5
93
  8
DIMNSIONS
 62
     7
 10
102.99600000000009
 20
-400.0
 30
0.0
 11
84.241330810546941
 21
-394.97470153637312
 31
0.0
  0
TEXT
  5
94
  8
DIMNSIONS
 62
     7
 10
-218.3457499999999
 20
-392.54583333333341
 30
0.0
 40
20.360514322916671
  1
603
 41
0.8
 11
-218.3457499999999
 21
-372.18531901041672
 31
0.0
 73
     3
  0
LINE
  5
95
  8
DIMNSIONS
 62
     7
 10
117.99600000000009
 20
-295.14800000000002
 30
0.0
 11
165.0
 21
-295.14800000000002
 31
0.0
  0
LINE
  5
96
  8
DIMNSIONS
 62
     7
 10
112.9160000000001
 20
-3.0480000000000009
 30
0.0
 11
165.0
 21
-3.0480000000000009
 31
0.0
  0
LINE
  5
97
  8
DIMNSIONS
 62
     7
 10
150.0
 20
-295.14800000000002
 30
0.0
 11
150.0
 21
-3.0480000000000009
 31
0.0
  0
LINE
  5
98
  8
DIMNSIONS
 62
     7
 10
150.0
 20
-295.14800000000002
 30
0.0
 11
144.97470153637309
 21
-276.39333081054679
 31
0.0
  0
LINE
  5
99
  8
DIMNSIONS
 62
     7
 10
150.0
 20
-295.14800000000002
 30
0.0
 11
155.0252984636268
 21
-276.39333081054679
 31
0.0
  0
LINE
  5
9A
  8
DIMNSIONS
 62
     7
 10
150.0
 20
-3.0480000000000009
 30
0.0
 11
155.0252984636268
 21
-21.80266918945313
 31
0.0
  0
LINE
  5
9B
  8
DIMNSIONS
 62
     7
 10
150.0
 20
-3.0480000000000009
 30
0.0
 11
144.97470153637309
 21
-21.80266918945313
 31
0.0
  0
TEXT
  5
9C
  8
DIMNSIONS
 62
     7
 10
142.54583333333329
 20
-182.17091666666661
 30
0.0
 40
20.360514322916671
  1
292.1
 50
90.0
 41
0.8
 11
122.18531901041661
 21
-182.17091666666661
 31
0.0
 73
     3
  0
LINE
  5
9D
  8
DIMNSIONS
 62
     7
 10
112.9160000000001
 20
0.0
 30
0.0
 11
215.0
 21
0.0
 31
0.0
  0
LINE
  5
9E
  8
DIMNSIONS
 62
     7
 10
117.99600000000009
 20
-295.14800000000002
 30
0.0
 11
215.0
 21
-295.14800000000002
 31
0.0
  0
LINE
  5
9F
  8
DIMNSIONS
 62
     7
 10
200.0
 20
0.0
 30
0.0
 11
200.0
 21
-295.14800000000002
 31
0.0
  0
LINE
  5
A0
  8
DIMNSIONS
 62
     7
 10
200.0
 20
0.0
 30
0.0
 11
205.0252984636268
 21
-18.754669189453121
 31
0.0
  0
LINE
  5
A1
  8
DIMNSIONS
 62
     7
 10
200.0
 20
0.0
 30
0.0
 11
194.97470153637309
 21
-18.754669189453121
 31
0.0
  0
LINE
  5
A2
  8
DIMNSIONS
 62
     7
 10
200.0
 20
-295.14800000000002
 30
0.0
 11
194.97470153637309
 21
-276.39333081054679
 31
0.0
  0
LINE
  5
A3
  8
DIMNSIONS
 62
     7
 10
200.0
 20
-295.14800000000002
 30
0.0
 11
205.0252984636268
 21
-276.39333081054679
 31
0.0
  0
TEXT
  5
A4
  8
DIMNSIONS
 62
     7
 10
192.54583333333329
 20
-180.64691666666661
 30
0.0
 40
20.360514322916671
  1
295.1
 50
90.0
 41
0.8
 11
172.18531901041661
 21
-180.64691666666661
 31
0.0
 73
     3
  0
LINE
  5
A5
  8
DIMNSIONS
 62
     7
 10
400.0
 20
9.9199999999999875
 30
0.0
 11
400.0
 21
165.0
 31
0.0
  0
LINE
  5
A6
  8
DIMNSIONS
 62
     7
 10
488.90000000000009
 20
9.9199999999999875
 30
0.0
 11
488.90000000000009
 21
165.0
 31
0.0
  0
LINE
  5
A7
  8
DIMNSIONS
 62
     7
 10
400.0
 20
150.0
 30
0.0
 11
488.90000000000009
 21
150.0
 31
0.0
  0
LINE
  5
A8
  8
DIMNSIONS
 62
     7
 10
400.0
 20
150.0
 30
0.0
 11
418.75466918945312
 21
155.0252984636268
 31
0.0
  0
LINE
  5
A9
  8
DIMNSIONS
 62
     7
 10
400.0
 20
150.0
 30
0.0
 11
418.75466918945312
 21
144.97470153637309
 31
0.0
  0
LINE
  5
AA
  8
DIMNSIONS
 62
     7
 10
488.90000000000009
 20
150.0
 30
0.0
 11
470.14533081054691
 21
144.97470153637309
 31
0.0
  0
LINE
  5
AB
  8
DIMNSIONS
 62
     7
 10
488.90000000000009
 20
150.0
 30
0.0
 11
470.14533081054691
 21
155.0252984636268
 31
0.0
  0
TEXT
  5
AC
  8
DIMNSIONS
 62
     7
 10
417.99166666666667
 20
157.45416666666671
 30
0.0
 40
20.360514322916671
  1
88.9
 41
0.8
 11
417.99166666666667
 21
177.81468098958331
 31
0.0
 73
     3
  0
LINE
  5
AD
  8
DIMNSIONS
 62
     7
 10
422.22500000000002
 20
15.0
 30
0.0
 11
422.22500000000002
 21
65.0
 31
0.0
  0
LINE
  5
AE
  8
DIMNSIONS
 62
     7
 10
466.67500000000001
 20
15.0
 30
0.0
 11
466.67500000000001
 21
65.0
 31
0.0
  0
LINE
  5
AF
  8
DIMNSIONS
 62
     7
 10
422.22500000000002
 20
50.0
 30
0.0
 11
466.67500000000001
 21
50.0
 31
0.0
  0
LINE
  5
B0
  8
DIMNSIONS
 62
     7
 10
422.22500000000002
 20
50.0
 30
0.0
 11
440.97966918945309
 21
55.025298463626832
 31
0.0
  0
LINE
  5
B1
  8
DIMNSIONS
 62
     7
 10
422.22500000000002
 20
50.0
 30
0.0
 11
440.97966918945309
 21
44.974701536373168
 31
0.0
  0
LINE
  5
B2
  8
DIMNSIONS
 62
     7
 10
466.67500000000001
 20
50.0
 30
0.0
 11
447.92033081054672
 21
44.974701536373168
 31
0.0
  0
LINE
  5
B3
  8
DIMNSIONS
 62
     7
 10
466.67500000000001
 20
50.0
 30
0.0
 11
447.92033081054672
 21
55.025298463626832
 31
0.0
  0
TEXT
  5
B4
  8
DIMNSIONS
 62
     7
 10
417.99166666666662
 20
68.704166666666652
 30
0.0
 40
20.360514322916671
  1
44.5
 41
0.8
 11
417.99166666666662
 21
89.064680989583323
 31
0.0
 73
     3
  0
LINE
  5
B5
  8
DIMNSIONS
 62
     7
 10
406.34999999999991
 20
15.0
 30
0.0
 11
406.34999999999991
 21
115.0
 31
0.0
  0
LINE
  5
B6
  8
DIMNSIONS
 62
     7
 10
482.5499999999999
 20
15.0
 30
0.0
 11
482.5499999999999
 21
115.0
 31
0.0
  0
LINE
  5
B7
  8
DIMNSIONS
 62
     7
 10
406.34999999999991
 20
100.0
 30
0.0
 11
482.5499999999999
 21
100.0
 31
0.0
  0
LINE
  5
B8
  8
DIMNSIONS
 62
     7
 10
406.34999999999991
 20
100.0
 30
0.0
 11
425.10466918945292
 21
105.0252984636268
 31
0.0
  0
LINE
  5
B9
  8
DIMNSIONS
 62
     7
 10
406.34999999999991
 20
100.0
 30
0.0
 11
425.10466918945292
 21
94.974701536373161
 31
0.0
  0
LINE
  5
BA
  8
DIMNSIONS
 62
     7
 10
482.5499999999999
 20
100.0
 30
0.0
 11
463.79533081054672
 21
94.974701536373161
 31
0.0
  0
LINE
  5
BB
  8
DIMNSIONS
 62
     7
 10
482.5499999999999
 20
100.0
 30
0.0
 11
463.79533081054672
 21
105.0252984636268
 31
0.0
  0
TEXT
  5
BC
  8
DIMNSIONS
 62
     7
 10
417.9916666666665
 20
107.45416666666659
 30
0.0
 40
20.360514322916671
  1
76.2
 41
0.8
 11
417.9916666666665
 21
127.81468098958329
 31
0.0
 73
     3
  0
LINE
  5
BD
  8
DIMNSIONS
 62
     7
 10
498.81999999999999
 20
0.0
 30
0.0
 11
565.0
 21
0.0
 31
0.0
  0
LINE
  5
BE
  8
DIMNSIONS
 62
     7
 10
462.62499999999989
 20
-101.59999999999989
 30
0.0
 11
565.0
 21
-101.59999999999989
 31
0.0
  0
LINE
  5
BF
  8
DIMNSIONS
 62
     7
 10
550.0
 20
0.0
 30
0.0
 11
550.0
 21
-101.59999999999989
 31
0.0
  0
LINE
  5
C0
  8
DIMNSIONS
 62
     7
 10
550.0
 20
0.0
 30
0.0
 11
555.02529846362677
 21
-18.754669189453121
 31
0.0
  0
LINE
  5
C1
  8
DIMNSIONS
 62
     7
 10
550.0
 20
0.0
 30
0.0
 11
544.97470153637312
 21
-18.754669189453121
 31
0.0
  0
LINE
  5
C2
  8
DIMNSIONS
 62
     7
 10
550.0
 20
-101.59999999999989
 30
0.0
 11
544.97470153637312
 21
-82.845330810546841
 31
0.0
  0
LINE
  5
C3
  8
DIMNSIONS
 62
     7
 10
550.0
 20
-101.59999999999989
 30
0.0
 11
555.02529846362677
 21
-82.845330810546841
 31
0.0
  0
TEXT
  5
C4
  8
DIMNSIONS
 62
     7
 10
542.54583333333323
 20
-83.87291666666664
 30
0.0
 40
20.360514322916671
  1
101.6
 50
90.0
 41
0.8
 11
522.18531901041661
 21
-83.87291666666664
 31
0.0
 73
     3
  0
LINE
  5
C5
  8
DIMNSIONS
 62
     7
 10
498.81999999999999
 20
0.0
 30
0.0
 11
615.0
 21
0.0
 31
0.0
  0
LINE
  5
C6
  8
DIMNSIONS
 62
     7
 10
464.52999999999992
 20
-152.39999999999989
 30
0.0
 11
615.0
 21
-152.39999999999989
 31
0.0
  0
LINE
  5
C7
  8
DIMNSIONS
 62
     7
 10
600.0
 20
0.0
 30
0.0
 11
600.0
 21
-152.39999999999989
 31
0.0
  0
LINE
  5
C8
  8
DIMNSIONS
 62
     7
 10
600.0
 20
0.0
 30
0.0
 11
605.02529846362677
 21
-18.754669189453121
 31
0.0
  0
LINE
  5
C9
  8
DIMNSIONS
 62
     7
 10
600.0
 20
0.0
 30
0.0
 11
594.97470153637312
 21
-18.754669189453121
 31
0.0
  0
LINE
  5
CA
  8
DIMNSIONS
 62
     7
 10
600.0
 20
-152.39999999999989
 30
0.0
 11
594.97470153637312
 21
-133.6453308105468
 31
0.0
  0
LINE
  5
CB
  8
DIMNSIONS
 62
     7
 10
600.0
 20
-152.39999999999989
 30
0.0
 11
605.02529846362677
 21
-133.6453308105468
 31
0.0
  0
TEXT
  5
CC
  8
DIMNSIONS
 62
     7
 10
592.54583333333323
 20
-109.2729166666666
 30
0.0
 40
20.360514322916671
  1
152.4
 50
90.0
 41
0.8
 11
572.18531901041661
 21
-109.2729166666666
 31
0.0
 73
     3
  0
LINE
  5
CD
  8
DIMNSIONS
 62
     7
 10
498.81999999999999
 20
0.0
 30
0.0
 11
665.0
 21
0.0
 31
0.0
  0
LINE
  5
CE
  8
DIMNSIONS
 62
     7
 10
464.52999999999992
 20
-203.19999999999999
 30
0.0
 11
665.0
 21
-203.19999999999999
 31
0.0
  0
LINE
  5
CF
  8
DIMNSIONS
 62
     7
 10
650.0
 20
0.0
 30
0.0
 11
650.0
 21
-203.19999999999999
 31
0.0
  0
LINE
  5
D0
  8
DIMNSIONS
 62
     7
 10
650.0
 20
0.0
 30
0.0
 11
655.02529846362677
 21
-18.754669189453121
 31
0.0
  0
LINE
  5
D1
  8
DIMNSIONS
 62
     7
 10
650.0
 20
0.0
 30
0.0
 11
644.97470153637323
 21
-18.754669189453121
 31
0.0
  0
LINE
  5
D2
  8
DIMNSIONS
 62
     7
 10
650.0
 20
-203.19999999999999
 30
0.0
 11
644.97470153637323
 21
-184.44533081054681
 31
0.0
  0
LINE
  5
D3
  8
DIMNSIONS
 62
     7
 10
650.0
 20
-203.19999999999999
 30
0.0
 11
655.02529846362677
 21
-184.44533081054681
 31
0.0
  0
TEXT
  5
D4
  8
DIMNSIONS
 62
     7
 10
642.54583333333335
 20
-134.67291666666659
 30
0.0
 40
20.360514322916671
  1
203.2
 50
90.0
 41
0.8
 11
622.18531901041672
 21
-134.67291666666659
 31
0.0
 73
     3
  0
LINE
  5
D5
  8
DIMNSIONS
 62
     7
 10
498.81999999999999
 20
0.0
 30
0.0
 11
715.0
 21
0.0
 31
0.0
  0
LINE
  5
D6
  8
DIMNSIONS
 62
     7
 10
464.52999999999992
 20
-254.0
 30
0.0
 11
715.0
 21
-254.0
 31
0.0
  0
LINE
  5
D7
  8
DIMNSIONS
 62
     7
 10
700.0
 20
0.0
 30
0.0
 11
700.0
 21
-254.0
 31
0.0
  0
LINE
  5
D8
  8
DIMNSIONS
 62
     7
 10
700.0
 20
0.0
 30
0.0
 11
705.02529846362665
 21
-18.754669189453121
 31
0.0
  0
LINE
  5
D9
  8
DIMNSIONS
 62
     7
 10
700.0
 20
0.0
 30
0.0
 11
694.97470153637335
 21
-18.754669189453121
 31
0.0
  0
LINE
  5
DA
  8
DIMNSIONS
 62
     7
 10
700.0
 20
-254.0
 30
0.0
 11
694.97470153637335
 21
-235.2453308105469
 31
0.0
  0
LINE
  5
DB
  8
DIMNSIONS
 62
     7
 10
700.0
 20
-254.0
 30
0.0
 11
705.02529846362665
 21
-235.2453308105469
 31
0.0
  0
TEXT
  5
DC
  8
DIMNSIONS
 62
     7
 10
692.54583333333335
 20
-146.84375
 30
0.0
 40
20.360514322916671
  1
254
 50
90.0
 41
0.8
 11
672.18531901041672
 21
-146.84375
 31
0.0
 73
     3
  0
LINE
  5
DD
  8
DIMNSIONS
 62
     7
 10
447.95431455188799
 20
-270.37779547029822
 30
0.0
 11
500.0
 21
-325.0
 31
0.0
  0
LINE
  5
DE
  8
DIMNSIONS
 62
     7
 10
447.95431455188799
 20
-270.37779547029822
 30
0.0
 11
464.42023881572419
 21
-280.66684689362972
 31
0.0
  0
LINE
  5
DF
  8
DIMNSIONS
 62
     7
 10
447.95431455188799
 20
-270.37779547029822
 30
0.0
 11
457.069697549495
 21
-287.52133751566589
 31
0.0
  0
LINE
  5
E0
  8
DIMNSIONS
 62
     7
 10
500.0
 20
-325.0
 30
0.0
 11
753.125
 21
-325.0
 31
0.0
  0
TEXT
  5
E1
  8
DIMNSIONS
 62
     7
 10
515.0
 20
-317.54583333333341
 30
0.0
 40
20.360514322916671
  1
6-φ10.2×35.6長穴
 41
0.8
 11
515.0
 21
-297.18531901041661
 31
0.0
 73
     3
  0
LINE
  5
E2
  8
DIMNSIONS
 62
     7
 10
20.483385403696111
 20
382.51955222713877
 30
0.0
 11
75.000000000000014
 21
525.0
 31
0.0
  0
LINE
  5
E3
  8
DIMNSIONS
 62
     7
 10
20.483385403696111
 20
382.51955222713877
 30
0.0
 11
22.512937462572381
 21
401.82945019410539
 31
0.0
  0
LINE
  5
E4
  8
DIMNSIONS
 62
     7
 10
20.483385403696111
 20
382.51955222713877
 30
0.0
 11
31.895978028469301
 21
398.2276383815792
 31
0.0
  0
LINE
  5
E5
  8
DIMNSIONS
 62
     7
 10
75.000000000000014
 20
525.0
 30
0.0
 11
328.125
 21
525.0
 31
0.0
  0
TEXT
  5
E6
  8
DIMNSIONS
 62
     7
 10
90.000000000000014
 20
532.45416666666665
 30
0.0
 40
20.360514322916671
  1
8-φ10.2×38.1長穴
 41
0.8
 11
90.000000000000014
 21
552.81468098958339
 31
0.0
 73
     3
  0
LINE
  5
E7
  8
DIMNSIONS
 62
     7
 10
446.26416196468648
 20
-98.994344350104598
 30
0.0
 11
550.0
 21
49.999999999999972
 31
0.0
  0
LINE
  5
E8
  8
DIMNSIONS
 62
     7
 10
446.26416196468648
 20
-98.994344350104598
 30
0.0
 11
452.9049147736734
 21
-80.749025959232824
 31
0.0
  0
LINE
  5
E9
  8
DIMNSIONS
 62
     7
 10
446.26416196468648
 20
-98.994344350104598
 30
0.0
 11
461.13788179295801
 21
-86.513811527967761
 31
0.0
  0
LINE
  5
EA
  8
DIMNSIONS
 62
     7
 10
550.0
 20
49.999999999999972
 30
0.0
 11
657.60416666666674
 21
49.999999999999972
 31
0.0
  0
TEXT
  5
EB
  8
DIMNSIONS
 62
     7
 10
565.0
 20
57.45416666666663
 30
0.0
 40
20.360514322916671
  1
2-φ6.4
 41
0.8
 11
565.0
 21
77.814680989583309
 31
0.0
 73
     3
  0
LINE
  5
EC
  8
DIMNSIONS
 62
     7
 10
-196.4807563723536
 20
361.56972376424687
 30
0.0
 11
-150.0
 21
500.0
 31
0.0
  0
LINE
  5
ED
  8
DIMNSIONS
 62
     7
 10
-196.4807563723536
 20
361.56972376424687
 30
0.0
 11
-195.12634638217881
 21
380.93868900849452
 31
0.0
  0
LINE
  5
EE
  8
DIMNSIONS
 62
     7
 10
-196.4807563723536
 20
361.56972376424687
 30
0.0
 11
-185.62332029159899
 21
377.66653471569572
 31
0.0
  0
LINE
  5
EF
  8
DIMNSIONS
 62
     7
 10
-150.0
 20
500.0
 30
0.0
 11
-55.625000000000021
 21
500.0
 31
0.0
  0
TEXT
  5
F0
  8
DIMNSIONS
 62
     7
 10
-135.0
 20
507.45416666666671
 30
0.0
 40
20.360514322916671
  1
φ12.7
 41
0.8
 11
-135.0
 21
527.81468098958339
 31
0.0
 73
     3
  0
LINE
  5
F1
  8
DIMNSIONS
 62
     7
 10
-133.63391816399371
 20
359.24165560284513
 30
0.0
 11
-100.0
 21
450.0
 31
0.0
  0
LINE
  5
F2
  8
DIMNSIONS
 62
     7
 10
-133.63391816399371
 20
359.24165560284513
 30
0.0
 11
-131.60436610511749
 21
378.55155356981192
 31
0.0
  0
LINE
  5
F3
  8
DIMNSIONS
 62
     7
 10
-133.63391816399371
 20
359.24165560284513
 30
0.0
 11
-122.2213255392206
 21
374.94974175728572
 31
0.0
  0
LINE
  5
F4
  8
DIMNSIONS
 62
     7
 10
-100.0
 20
450.0
 30
0.0
 11
7.6041666666666696
 21
450.0
 31
0.0
  0
TEXT
  5
F5
  8
DIMNSIONS
 62
     7
 10
-85.000000000000014
 20
457.45416666666659
 30
0.0
 40
20.360514322916671
  1
2-φ7.9
 41
0.8
 11
-85.000000000000014
 21
477.81468098958328
 31
0.0
 73
     3
  0
LINE
  5
F6
  8
DIMNSIONS
 62
     7
 10
57.271509519115931
 20
360.310363850128
 30
0.0
 11
100.0000000000003
 21
475.0000000000008
 31
0.0
  0
LINE
  5
F7
  8
DIMNSIONS
 62
     7
 10
57.271509519115931
 20
360.310363850128
 30
0.0
 11
59.301061577992179
 21
379.62026181709462
 31
0.0
  0
LINE
  5
F8
  8
DIMNSIONS
 62
     7
 10
57.271509519115931
 20
360.310363850128
 30
0.0
 11
68.684102143889106
 21
376.01845000456842
 31
0.0
  0
LINE
  5
F9
  8
DIMNSIONS
 62
     7
 10
100.0000000000003
 20
475.0000000000008
 30
0.0
 11
220.83333333333371
 21
475.0000000000008
 31
0.0
  0
TEXT
  5
FA
  8
DIMNSIONS
 62
     7
 10
115.0000000000003
 20
482.4541666666675
 30
0.0
 40
20.360514322916671
  1
2-φ10.2
 41
0.8
 11
115.0000000000003
 21
502.81468098958419
 31
0.0
 73
     3
  0
TEXT
  5
FB
  8
DATA
 62
     7
 10
475.0
 20
-728.56152750000001
 30
0.0
 40
18.324462890625
  1
MTC-30UB
 41
0.8
 11
475.0
 21
-710.23706460937501
 31
0.0
 73
     3
  0
TEXT
  5
FC
  8
DATA
 62
     7
 10
475.0
 20
-674.18652750000001
 30
0.0
 40
18.324462890625
  1
JBL
 41
0.8
 11
475.0
 21
-655.86206460937501
 31
0.0
 73
     3
  0
TEXT
  5
FD
  8
DATA
 62
     7
 10
-499.99999999999989
 20
-780.25820249999981
 30
0.0
 40
12.21630859375
  1
仕様および外観は予告なく変更されることがありますので、ご了承ください。
 41
0.8
 11
-499.99999999999989
 21
-768.04189390624981
 31
0.0
 73
     3
  0
LINE
  5
FE
  8
DATA
 62
     7
 10
-500.0
 20
317.4500000000001
 30
0.0
 11
-500.0
 21
393.64999999999998
 31
0.0
  0
LINE
  5
FF
  8
DATA
 62
     7
 10
93.597999999999942
 20
311.10000000000002
 30
0.0
 11
-490.60199999999992
 21
311.10000000000002
 31
0.0
  0
LINE
  5
100
  8
DATA
 62
     7
 10
-490.60199999999992
 20
400.0
 30
0.0
 11
93.597999999999942
 21
400.0
 31
0.0
  0
CIRCLE
  5
101
  8
DATA
 62
     7
 10
-135.0019999999999
 20
355.55000000000001
 30
0.0
 40
3.9369999999998968
  0
CIRCLE
  5
102
  8
DATA
 62
     7
 10
-198.5019999999999
 20
355.55000000000001
 30
0.0
 40
6.3499999999999091
  0
CIRCLE
  5
103
  8
DATA
 62
     7
 10
-262.00200000000001
 20
355.55000000000001
 30
0.0
 40
3.9369999999998968
  0
LINE
  5
104
  8
DATA
 62
     7
 10
-387.73200000000003
 20
372.69499999999999
 30
0.0
 11
-415.67199999999991
 21
372.69499999999999
 31
0.0
  0
LINE
  5
105
  8
DATA
 62
     7
 10
-415.67199999999991
 20
382.85500000000002
 30
0.0
 11
-387.73200000000003
 21
382.85500000000002
 31
0.0
  0
ARC
  5
106
  8
DATA
 62
     7
 10
-415.67199999999991
 20
377.77499999999998
 30
0.0
 40
5.0799999999999841
 50
90.0
 51
270.0
  0
ARC
  5
107
  8
DATA
 62
     7
 10
-387.73200000000003
 20
377.77499999999998
 30
0.0
 40
5.0799999999999841
 50
270.0
 51
90.0
  0
LINE
  5
108
  8
DATA
 62
     7
 10
-387.73200000000003
 20
328.245
 30
0.0
 11
-415.67199999999991
 21
328.245
 31
0.0
  0
LINE
  5
109
  8
DATA
 62
     7
 10
-415.67199999999991
 20
338.40500000000009
 30
0.0
 11
-387.73200000000003
 21
338.40500000000009
 31
0.0
  0
ARC
  5
10A
  8
DATA
 62
     7
 10
-415.67199999999991
 20
333.3250000000001
 30
0.0
 40
5.08000000000004
 50
90.0
 51
270.0
  0
ARC
  5
10B
  8
DATA
 62
     7
 10
-387.73200000000003
 20
333.3250000000001
 30
0.0
 40
5.08000000000004
 50
270.0
 51
90.0
  0
LINE
  5
10C
  8
DATA
 62
     7
 10
-336.93200000000002
 20
372.69499999999999
 30
0.0
 11
-364.87200000000013
 21
372.69499999999999
 31
0.0
  0
LINE
  5
10D
  8
DATA
 62
     7
 10
-364.87200000000013
 20
382.85500000000002
 30
0.0
 11
-336.93200000000002
 21
382.85500000000002
 31
0.0
  0
ARC
  5
10E
  8
DATA
 62
     7
 10
-364.87200000000013
 20
377.77499999999998
 30
0.0
 40
5.08000000000004
 50
90.0
 51
270.0
  0
ARC
  5
10F
  8
DATA
 62
     7
 10
-336.93200000000002
 20
377.77499999999998
 30
0.0
 40
5.0799999999999841
 50
270.0
 51
90.0
  0
LINE
  5
110
  8
DATA
 62
     7
 10
-336.93200000000002
 20
328.245
 30
0.0
 11
-364.87200000000013
 21
328.245
 31
0.0
  0
LINE
  5
111
  8
DATA
 62
     7
 10
-364.87200000000013
 20
338.40500000000009
 30
0.0
 11
-336.93200000000002
 21
338.40500000000009
 31
0.0
  0
ARC
  5
112
  8
DATA
 62
     7
 10
-364.87200000000013
 20
333.3250000000001
 30
0.0
 40
5.0799999999999841
 50
90.0
 51
270.0
  0
ARC
  5
113
  8
DATA
 62
     7
 10
-336.93200000000002
 20
333.3250000000001
 30
0.0
 40
5.08000000000004
 50
270.0
 51
90.0
  0
LINE
  5
114
  8
DATA
 62
     7
 10
-32.132000000000083
 20
372.69499999999999
 30
0.0
 11
-60.072000000000131
 21
372.69499999999999
 31
0.0
  0
LINE
  5
115
  8
DATA
 62
     7
 10
-60.072000000000131
 20
382.85500000000002
 30
0.0
 11
-32.132000000000083
 21
382.85500000000002
 31
0.0
  0
ARC
  5
116
  8
DATA
 62
     7
 10
-60.072000000000131
 20
377.77499999999998
 30
0.0
 40
5.0799999999999841
 50
90.0
 51
270.0
  0
ARC
  5
117
  8
DATA
 62
     7
 10
-32.132000000000083
 20
377.77499999999998
 30
0.0
 40
5.0799999999999841
 50
270.0
 51
90.0
  0
LINE
  5
118
  8
DATA
 62
     7
 10
-32.132000000000083
 20
328.245
 30
0.0
 11
-60.072000000000131
 21
328.245
 31
0.0
  0
LINE
  5
119
  8
DATA
 62
     7
 10
-60.072000000000131
 20
338.40500000000009
 30
0.0
 11
-32.132000000000083
 21
338.40500000000009
 31
0.0
  0
ARC
  5
11A
  8
DATA
 62
     7
 10
-60.072000000000131
 20
333.3250000000001
 30
0.0
 40
5.08000000000004
 50
90.0
 51
270.0
  0
ARC
  5
11B
  8
DATA
 62
     7
 10
-32.132000000000083
 20
333.3250000000001
 30
0.0
 40
5.08000000000004
 50
270.0
 51
90.0
  0
LINE
  5
11C
  8
DATA
 62
     7
 10
18.667999999999878
 20
372.69499999999999
 30
0.0
 11
-9.2719999999999487
 21
372.69499999999999
 31
0.0
  0
LINE
  5
11D
  8
DATA
 62
     7
 10
-9.2719999999999487
 20
382.85500000000002
 30
0.0
 11
18.667999999999878
 21
382.85500000000002
 31
0.0
  0
ARC
  5
11E
  8
DATA
 62
     7
 10
-9.2719999999999487
 20
377.77499999999998
 30
0.0
 40
5.0799999999999841
 50
90.0
 51
270.0
  0
ARC
  5
11F
  8
DATA
 62
     7
 10
18.667999999999878
 20
377.77499999999998
 30
0.0
 40
5.0799999999999841
 50
270.0
 51
90.0
  0
LINE
  5
120
  8
DATA
 62
     7
 10
18.667999999999878
 20
328.245
 30
0.0
 11
-9.2719999999999487
 21
328.245
 31
0.0
  0
LINE
  5
121
  8
DATA
 62
     7
 10
-9.2719999999999487
 20
338.40500000000009
 30
0.0
 11
18.667999999999878
 21
338.40500000000009
 31
0.0
  0
ARC
  5
122
  8
DATA
 62
     7
 10
-9.2719999999999487
 20
333.3250000000001
 30
0.0
 40
5.08000000000004
 50
90.0
 51
270.0
  0
ARC
  5
123
  8
DATA
 62
     7
 10
18.667999999999878
 20
333.3250000000001
 30
0.0
 40
5.08000000000004
 50
270.0
 51
90.0
  0
CIRCLE
  5
124
  8
DATA
 62
     7
 10
-452.50200000000001
 20
355.55000000000001
 30
0.0
 40
5.0799999999999272
  0
CIRCLE
  5
125
  8
DATA
 62
     7
 10
55.498000000000019
 20
355.55000000000001
 30
0.0
 40
5.0799999999999272
  0
LINE
  5
126
  8
DATA
 62
     7
 10
-500.0
 20
-295.14800000000002
 30
0.0
 11
-500.0
 21
-5.0800000000000116
 31
0.0
  0
LINE
  5
127
  8
DATA
 62
     7
 10
102.99600000000009
 20
-5.0800000000000116
 30
0.0
 11
102.99600000000009
 21
-295.14800000000002
 31
0.0
  0
LINE
  5
128
  8
DATA
 62
     7
 10
-494.92000000000007
 20
0.0
 30
0.0
 11
97.916000000000054
 21
0.0
 31
0.0
  0
LINE
  5
129
  8
DATA
 62
     7
 10
-490.60199999999992
 20
-12.69999999999999
 30
0.0
 11
93.597999999999942
 21
-12.69999999999999
 31
0.0
  0
LINE
  5
12A
  8
DATA
 62
     7
 10
406.34999999999991
 20
-257.048
 30
0.0
 11
406.34999999999991
 21
0.0
 31
0.0
  0
LINE
  5
12B
  8
DATA
 62
     7
 10
482.5499999999999
 20
0.0
 30
0.0
 11
482.5499999999999
 21
-257.048
 31
0.0
  0
LINE
  5
12C
  8
DATA
 62
     7
 10
405.07999999999993
 20
0.0
 30
0.0
 11
483.81999999999999
 21
0.0
 31
0.0
  0
LINE
  5
12D
  8
DATA
 62
     7
 10
102.99600000000009
 20
-295.14800000000002
 30
0.0
 11
99.948000000000107
 21
-295.14800000000002
 31
0.0
  0
LINE
  5
12E
  8
DATA
 62
     7
 10
99.948000000000107
 20
-5.0800000000000116
 30
0.0
 11
99.948000000000107
 21
-295.14800000000002
 31
0.0
  0
LINE
  5
12F
  8
DATA
 62
     7
 10
-496.952
 20
-295.14800000000002
 30
0.0
 11
-500.0
 21
-295.14800000000002
 31
0.0
  0
LINE
  5
130
  8
DATA
 62
     7
 10
-496.952
 20
-295.14800000000002
 30
0.0
 11
-496.952
 21
-5.0800000000000116
 31
0.0
  0
LINE
  5
131
  8
DATA
 62
     7
 10
439.36999999999989
 20
-215.90000000000001
 30
0.0
 11
439.36999999999989
 21
-190.5
 31
0.0
  0
LINE
  5
132
  8
DATA
 62
     7
 10
449.52999999999992
 20
-190.5
 30
0.0
 11
449.52999999999992
 21
-215.90000000000001
 31
0.0
  0
ARC
  5
133
  8
DATA
 62
     7
 10
444.4500000000001
 20
-190.5
 30
0.0
 40
5.0799999999999272
 50
0.0
 51
180.0
  0
ARC
  5
134
  8
DATA
 62
     7
 10
444.4500000000001
 20
-215.90000000000001
 30
0.0
 40
5.0800000000001537
 50
180.0
 51
0.0
  0
LINE
  5
135
  8
DATA
 62
     7
 10
439.36999999999989
 20
-266.7000000000001
 30
0.0
 11
439.36999999999989
 21
-241.30000000000001
 31
0.0
  0
LINE
  5
136
  8
DATA
 62
     7
 10
449.52999999999992
 20
-241.30000000000001
 30
0.0
 11
449.52999999999992
 21
-266.7000000000001
 31
0.0
  0
ARC
  5
137
  8
DATA
 62
     7
 10
444.4500000000001
 20
-241.30000000000001
 30
0.0
 40
5.0799999999999272
 50
0.0
 51
180.0
  0
ARC
  5
138
  8
DATA
 62
     7
 10
444.4500000000001
 20
-266.7000000000001
 30
0.0
 40
5.0800000000001537
 50
180.0
 51
0.0
  0
CIRCLE
  5
139
  8
DATA
 62
     7
 10
444.4500000000001
 20
-101.59999999999989
 30
0.0
 40
3.1749999999999541
  0
LINE
  5
13A
  8
DATA
 62
     7
 10
439.36999999999989
 20
-165.09999999999991
 30
0.0
 11
439.36999999999989
 21
-139.69999999999999
 31
0.0
  0
LINE
  5
13B
  8
DATA
 62
     7
 10
449.52999999999992
 20
-139.69999999999999
 30
0.0
 11
449.52999999999992
 21
-165.09999999999991
 31
0.0
  0
ARC
  5
13C
  8
DATA
 62
     7
 10
444.4500000000001
 20
-139.69999999999999
 30
0.0
 40
5.0799999999999272
 50
0.0
 51
180.0
  0
ARC
  5
13D
  8
DATA
 62
     7
 10
444.4500000000001
 20
-165.09999999999991
 30
0.0
 40
5.0800000000001537
 50
180.0
 51
0.0
  0
LINE
  5
13E
  8
DATA
 62
     7
 10
400.0
 20
-12.69999999999999
 30
0.0
 11
403.04799999999989
 21
-12.69999999999999
 31
0.0
  0
LINE
  5
13F
  8
DATA
 62
     7
 10
485.85200000000009
 20
-12.69999999999999
 30
0.0
 11
488.90000000000009
 21
-12.69999999999999
 31
0.0
  0
LINE
  5
140
  8
DATA
 62
     7
 10
400.0
 20
-5.0800000000000116
 30
0.0
 11
400.0
 21
-12.69999999999999
 31
0.0
  0
LINE
  5
141
  8
DATA
 62
     7
 10
488.90000000000009
 20
-5.0800000000000116
 30
0.0
 11
488.90000000000009
 21
-12.69999999999999
 31
0.0
  0
ARC
  5
142
  8
DATA
 62
     7
 10
444.4500000000001
 20
-257.048
 30
0.0
 40
38.100000000000144
 50
180.0
 51
0.0
  0
LINE
  5
143
  8
DATA
 62
     7
 10
-490.60199999999992
 20
-12.69999999999999
 30
0.0
 11
-490.60199999999992
 21
0.0
 31
0.0
  0
LINE
  5
144
  8
DATA
 62
     7
 10
93.597999999999942
 20
-12.69999999999999
 30
0.0
 11
93.597999999999942
 21
0.0
 31
0.0
  0
LINE
  5
145
  8
DATA
 62
     7
 10
427.98292768495622
 20
-3.5
 30
0.0
 11
427.92784530585129
 21
-3.5
 31
0.0
  0
LINE
  5
146
  8
DATA
 62
     7
 10
416.48607511317113
 20
-3.5
 30
0.0
 11
416.43623093678019
 21
-3.5
 31
0.0
  0
POLYLINE
  5
147
  8
DATA
 62
     7
 66
     1
 10
0.0
 20
0.0
 30
0.0
 70
   128
  0
VERTEX
  5
536
  8
DATA
 62
     7
 10
432.22467291358339
 20
0.0
 30
0.0
  0
VERTEX
  5
537
  8
DATA
 62
     7
 10
432.22474957446229
 20
-0.0125354689302242
 30
0.0
  0
VERTEX
  5
538
  8
DATA
 62
     7
 10
432.2248160138904
 20
-0.0250742244558353
 30
0.0
  0
VERTEX
  5
539
  8
DATA
 62
     7
 10
432.22487223186829
 20
-0.0376162665768334
 30
0.0
  0
VERTEX
  5
53A
  8
DATA
 62
     7
 10
432.22491822839572
 20
-0.0501615952931616
 30
0.0
  0
VERTEX
  5
53B
  8
DATA
 62
     7
 10
432.22495400347248
 20
-0.0627102106049051
 30
0.0
  0
VERTEX
  5
53C
  8
DATA
 62
     7
 10
432.22497955709878
 20
-0.0752621125119788
 30
0.0
  0
VERTEX
  5
53D
  8
DATA
 62
     7
 10
432.22499488927451
 20
-0.0878173010144394
 30
0.0
  0
VERTEX
  5
53E
  8
DATA
 62
     7
 10
432.22499999999991
 20
-0.100375776112287
 30
0.0
  0
VERTEX
  5
53F
  8
DATA
 62
     7
 10
432.22499999999991
 20
-0.100375776112287
 30
0.0
  0
VERTEX
  5
540
  8
DATA
 62
     7
 10
432.20406646934123
 20
-0.8974924062439981
 30
0.0
  0
VERTEX
  5
541
  8
DATA
 62
     7
 10
432.14126587736519
 20
-1.6811471420523381
 30
0.0
  0
VERTEX
  5
542
  8
DATA
 62
     7
 10
432.03659822407161
 20
-2.4513399835373662
 30
0.0
  0
VERTEX
  5
543
  8
DATA
 62
     7
 10
431.8900635094609
 20
-3.208070930699022
 30
0.0
  0
VERTEX
  5
544
  8
DATA
 62
     7
 10
431.70166173353289
 20
-3.9513399835373662
 30
0.0
  0
VERTEX
  5
545
  8
DATA
 62
     7
 10
431.47139289628728
 20
-4.6811471420523381
 30
0.0
  0
VERTEX
  5
546
  8
DATA
 62
     7
 10
431.19925699772449
 20
-5.3974924062439982
 30
0.0
  0
VERTEX
  5
547
  8
DATA
 62
     7
 10
430.88525403784428
 20
-6.1003757761122861
 30
0.0
  0
VERTEX
  5
548
  8
DATA
 62
     7
 10
430.88525403784428
 20
-6.1003757761122861
 30
0.0
  0
VERTEX
  5
549
  8
DATA
 62
     7
 10
430.53499313928143
 20
-6.7781389091901749
 30
0.0
  0
VERTEX
  5
54A
  8
DATA
 62
     7
 10
430.15408342467072
 20
-7.4191234630105773
 30
0.0
  0
VERTEX
  5
54B
  8
DATA
 62
     7
 10
429.74252489401192
 20
-8.0233294375734658
 30
0.0
  0
VERTEX
  5
54C
  8
DATA
 62
     7
 10
429.30031754730538
 20
-8.590756832878867
 30
0.0
  0
VERTEX
  5
54D
  8
DATA
 62
     7
 10
428.82746138455087
 20
-9.1214056489267819
 30
0.0
  0
VERTEX
  5
54E
  8
DATA
 62
     7
 10
428.3239564057485
 20
-9.6152758857172103
 30
0.0
  0
VERTEX
  5
54F
  8
DATA
 62
     7
 10
427.78980261089822
 20
-10.07236754325012
 30
0.0
  0
VERTEX
  5
550
  8
DATA
 62
     7
 10
427.2249999999998
 20
-10.492680621525549
 30
0.0
  0
VERTEX
  5
551
  8
DATA
 62
     7
 10
427.2249999999998
 20
-10.492680621525549
 30
0.0
  0
VERTEX
  5
552
  8
DATA
 62
     7
 10
426.63926385844292
 20
-10.86948417338181
 30
0.0
  0
VERTEX
  5
553
  8
DATA
 62
     7
 10
426.04230947161648
 20
-11.19604725165726
 30
0.0
  0
VERTEX
  5
554
  8
DATA
 62
     7
 10
425.4341368395207
 20
-11.472369856351859
 30
0.0
  0
VERTEX
  5
555
  8
DATA
 62
     7
 10
424.81474596215543
 20
-11.69845198746561
 30
0.0
  0
VERTEX
  5
556
  8
DATA
 62
     7
 10
424.18413683952082
 20
-11.874293644998509
 30
0.0
  0
VERTEX
  5
557
  8
DATA
 62
     7
 10
423.54230947161659
 20
-11.99989482895063
 30
0.0
  0
VERTEX
  5
558
  8
DATA
 62
     7
 10
422.8892638584428
 20
-12.07525553932186
 30
0.0
  0
VERTEX
  5
559
  8
DATA
 62
     7
 10
422.2249999999998
 20
-12.100375776112291
 30
0.0
  0
VERTEX
  5
55A
  8
DATA
 62
     7
 10
422.2249999999998
 20
-12.100375776112291
 30
0.0
  0
VERTEX
  5
55B
  8
DATA
 62
     7
 10
421.56073614155679
 20
-12.07525553932186
 30
0.0
  0
VERTEX
  5
55C
  8
DATA
 62
     7
 10
420.90769052838311
 20
-11.99989482895063
 30
0.0
  0
VERTEX
  5
55D
  8
DATA
 62
     7
 10
420.26586316047911
 20
-11.874293644998509
 30
0.0
  0
VERTEX
  5
55E
  8
DATA
 62
     7
 10
419.63525403784428
 20
-11.69845198746561
 30
0.0
  0
VERTEX
  5
55F
  8
DATA
 62
     7
 10
419.015863160479
 20
-11.472369856351859
 30
0.0
  0
VERTEX
  5
560
  8
DATA
 62
     7
 10
418.40769052838323
 20
-11.19604725165726
 30
0.0
  0
VERTEX
  5
561
  8
DATA
 62
     7
 10
417.81073614155679
 20
-10.86948417338181
 30
0.0
  0
VERTEX
  5
562
  8
DATA
 62
     7
 10
417.22499999999991
 20
-10.492680621525549
 30
0.0
  0
VERTEX
  5
563
  8
DATA
 62
     7
 10
417.22499999999991
 20
-10.492680621525549
 30
0.0
  0
VERTEX
  5
564
  8
DATA
 62
     7
 10
416.66019738910171
 20
-10.07236754325012
 30
0.0
  0
VERTEX
  5
565
  8
DATA
 62
     7
 10
416.1260435942512
 20
-9.6152758857172103
 30
0.0
  0
VERTEX
  5
566
  8
DATA
 62
     7
 10
415.62253861544872
 20
-9.1214056489267819
 30
0.0
  0
VERTEX
  5
567
  8
DATA
 62
     7
 10
415.14968245269432
 20
-8.590756832878867
 30
0.0
  0
VERTEX
  5
568
  8
DATA
 62
     7
 10
414.70747510598778
 20
-8.0233294375734658
 30
0.0
  0
VERTEX
  5
569
  8
DATA
 62
     7
 10
414.2959165753291
 20
-7.4191234630105773
 30
0.0
  0
VERTEX
  5
56A
  8
DATA
 62
     7
 10
413.91500686071828
 20
-6.7781389091901749
 30
0.0
  0
VERTEX
  5
56B
  8
DATA
 62
     7
 10
413.56474596215543
 20
-6.1003757761122861
 30
0.0
  0
VERTEX
  5
56C
  8
DATA
 62
     7
 10
413.56474596215543
 20
-6.1003757761122861
 30
0.0
  0
VERTEX
  5
56D
  8
DATA
 62
     7
 10
413.25074300227521
 20
-5.3974924062439982
 30
0.0
  0
VERTEX
  5
56E
  8
DATA
 62
     7
 10
412.97860710371231
 20
-4.6811471420523381
 30
0.0
  0
VERTEX
  5
56F
  8
DATA
 62
     7
 10
412.74833826646687
 20
-3.9513399835373662
 30
0.0
  0
VERTEX
  5
570
  8
DATA
 62
     7
 10
412.55993649053869
 20
-3.208070930699022
 30
0.0
  0
VERTEX
  5
571
  8
DATA
 62
     7
 10
412.41340177592798
 20
-2.4513399835373662
 30
0.0
  0
VERTEX
  5
572
  8
DATA
 62
     7
 10
412.30873412263452
 20
-1.6811471420523381
 30
0.0
  0
VERTEX
  5
573
  8
DATA
 62
     7
 10
412.24593353065859
 20
-0.8974924062439981
 30
0.0
  0
VERTEX
  5
574
  8
DATA
 62
     7
 10
412.22499999999991
 20
-0.100375776112287
 30
0.0
  0
VERTEX
  5
575
  8
DATA
 62
     7
 10
412.22499999999991
 20
-0.100375776112287
 30
0.0
  0
VERTEX
  5
576
  8
DATA
 62
     7
 10
412.22500511072508
 20
-0.0878173010144394
 30
0.0
  0
VERTEX
  5
577
  8
DATA
 62
     7
 10
412.22502044290093
 20
-0.0752621125119788
 30
0.0
  0
VERTEX
  5
578
  8
DATA
 62
     7
 10
412.22504599652717
 20
-0.0627102106049051
 30
0.0
  0
VERTEX
  5
579
  8
DATA
 62
     7
 10
412.2250817716041
 20
-0.0501615952931616
 30
0.0
  0
VERTEX
  5
57A
  8
DATA
 62
     7
 10
412.2251277681313
 20
-0.0376162665768334
 30
0.0
  0
VERTEX
  5
57B
  8
DATA
 62
     7
 10
412.2251839861093
 20
-0.0250742244558353
 30
0.0
  0
VERTEX
  5
57C
  8
DATA
 62
     7
 10
412.22525042553758
 20
-0.0125354689302242
 30
0.0
  0
VERTEX
  5
57D
  8
DATA
 62
     7
 10
412.22532708641683
 20
0.0
 30
0.0
  0
VERTEX
  5
57E
  8
DATA
 62
     7
 10
412.22532708641683
 20
0.0
 30
0.0
  0
SEQEND
  5
57F
  8
DATA
 62
     7
  0
POLYLINE
  5
192
  8
DATA
 62
     7
 66
     1
 10
0.0
 20
0.0
 30
0.0
 70
   128
  0
VERTEX
  5
580
  8
DATA
 62
     7
 10
428.22480374815001
 20
0.0
 30
0.0
  0
VERTEX
  5
581
  8
DATA
 62
     7
 10
428.22484974467721
 20
-0.0125354689303379
 30
0.0
  0
VERTEX
  5
582
  8
DATA
 62
     7
 10
428.22488960833431
 20
-0.0250742244560342
 30
0.0
  0
VERTEX
  5
583
  8
DATA
 62
     7
 10
428.22492333912089
 20
-0.0376162665770607
 30
0.0
  0
VERTEX
  5
584
  8
DATA
 62
     7
 10
428.22495093703742
 20
-0.0501615952934458
 30
0.0
  0
VERTEX
  5
585
  8
DATA
 62
     7
 10
428.22497240208338
 20
-0.0627102106051325
 30
0.0
  0
VERTEX
  5
586
  8
DATA
 62
     7
 10
428.22498773425917
 20
-0.0752621125121777
 30
0.0
  0
VERTEX
  5
587
  8
DATA
 62
     7
 10
428.2249969335648
 20
-0.0878173010145531
 30
0.0
  0
VERTEX
  5
588
  8
DATA
 62
     7
 10
428.22499999999991
 20
-0.100375776112287
 30
0.0
  0
VERTEX
  5
589
  8
DATA
 62
     7
 10
428.22499999999991
 20
-0.100375776112287
 30
0.0
  0
VERTEX
  5
58A
  8
DATA
 62
     7
 10
428.21243988160478
 20
-0.8974924062439981
 30
0.0
  0
VERTEX
  5
58B
  8
DATA
 62
     7
 10
428.17475952641911
 20
-1.6811471420523381
 30
0.0
  0
VERTEX
  5
58C
  8
DATA
 62
     7
 10
428.11195893444312
 20
-2.4513399835373662
 30
0.0
  0
VERTEX
  5
58D
  8
DATA
 62
     7
 10
428.0240381056766
 20
-3.208070930699022
 30
0.0
  0
VERTEX
  5
58E
  8
DATA
 62
     7
 10
427.91099704011958
 20
-3.9513399835373662
 30
0.0
  0
VERTEX
  5
58F
  8
DATA
 62
     7
 10
427.77283573777231
 20
-4.6811471420523381
 30
0.0
  0
VERTEX
  5
590
  8
DATA
 62
     7
 10
427.60955419863478
 20
-5.3974924062439982
 30
0.0
  0
VERTEX
  5
591
  8
DATA
 62
     7
 10
427.4211524227066
 20
-6.1003757761122861
 30
0.0
  0
VERTEX
  5
592
  8
DATA
 62
     7
 10
427.4211524227066
 20
-6.1003757761122861
 30
0.0
  0
VERTEX
  5
593
  8
DATA
 62
     7
 10
427.2109958835689
 20
-6.7781389091901749
 30
0.0
  0
VERTEX
  5
594
  8
DATA
 62
     7
 10
426.98245005480248
 20
-7.4191234630105773
 30
0.0
  0
VERTEX
  5
595
  8
DATA
 62
     7
 10
426.7355149364073
 20
-8.0233294375734658
 30
0.0
  0
VERTEX
  5
596
  8
DATA
 62
     7
 10
426.4701905283834
 20
-8.590756832878867
 30
0.0
  0
VERTEX
  5
597
  8
DATA
 62
     7
 10
426.1864768307305
 20
-9.1214056489267819
 30
0.0
  0
VERTEX
  5
598
  8
DATA
 62
     7
 10
425.88437384344911
 20
-9.6152758857172103
 30
0.0
  0
VERTEX
  5
599
  8
DATA
 62
     7
 10
425.56388156653878
 20
-10.07236754325012
 30
0.0
  0
VERTEX
  5
59A
  8
DATA
 62
     7
 10
425.22499999999991
 20
-10.492680621525549
 30
0.0
  0
VERTEX
  5
59B
  8
DATA
 62
     7
 10
425.22499999999991
 20
-10.492680621525549
 30
0.0
  0
VERTEX
  5
59C
  8
DATA
 62
     7
 10
424.87355831506579
 20
-10.86948417338181
 30
0.0
  0
VERTEX
  5
59D
  8
DATA
 62
     7
 10
424.51538568296991
 20
-11.19604725165726
 30
0.0
  0
VERTEX
  5
59E
  8
DATA
 62
     7
 10
424.15048210371242
 20
-11.472369856351859
 30
0.0
  0
VERTEX
  5
59F
  8
DATA
 62
     7
 10
423.77884757729339
 20
-11.69845198746561
 30
0.0
  0
VERTEX
  5
5A0
  8
DATA
 62
     7
 10
423.40048210371248
 20
-11.874293644998509
 30
0.0
  0
VERTEX
  5
5A1
  8
DATA
 62
     7
 10
423.01538568297002
 20
-11.99989482895063
 30
0.0
  0
VERTEX
  5
5A2
  8
DATA
 62
     7
 10
422.62355831506579
 20
-12.07525553932186
 30
0.0
  0
VERTEX
  5
5A3
  8
DATA
 62
     7
 10
422.2249999999998
 20
-12.100375776112291
 30
0.0
  0
VERTEX
  5
5A4
  8
DATA
 62
     7
 10
422.2249999999998
 20
-12.100375776112291
 30
0.0
  0
VERTEX
  5
5A5
  8
DATA
 62
     7
 10
421.82644168493408
 20
-12.07525553932186
 30
0.0
  0
VERTEX
  5
5A6
  8
DATA
 62
     7
 10
421.43461431703003
 20
-11.99989482895063
 30
0.0
  0
VERTEX
  5
5A7
  8
DATA
 62
     7
 10
421.04951789628751
 20
-11.874293644998509
 30
0.0
  0
VERTEX
  5
5A8
  8
DATA
 62
     7
 10
420.67115242270648
 20
-11.69845198746561
 30
0.0
  0
VERTEX
  5
5A9
  8
DATA
 62
     7
 10
420.29951789628751
 20
-11.472369856351859
 30
0.0
  0
VERTEX
  5
5AA
  8
DATA
 62
     7
 10
419.93461431703003
 20
-11.19604725165726
 30
0.0
  0
VERTEX
  5
5AB
  8
DATA
 62
     7
 10
419.57644168493408
 20
-10.86948417338181
 30
0.0
  0
VERTEX
  5
5AC
  8
DATA
 62
     7
 10
419.22499999999991
 20
-10.492680621525549
 30
0.0
  0
VERTEX
  5
5AD
  8
DATA
 62
     7
 10
419.22499999999991
 20
-10.492680621525549
 30
0.0
  0
VERTEX
  5
5AE
  8
DATA
 62
     7
 10
418.88611843346092
 20
-10.07236754325012
 30
0.0
  0
VERTEX
  5
5AF
  8
DATA
 62
     7
 10
418.56562615655082
 20
-9.6152758857172103
 30
0.0
  0
VERTEX
  5
5B0
  8
DATA
 62
     7
 10
418.26352316926938
 20
-9.1214056489267819
 30
0.0
  0
VERTEX
  5
5B1
  8
DATA
 62
     7
 10
417.97980947161682
 20
-8.590756832878867
 30
0.0
  0
VERTEX
  5
5B2
  8
DATA
 62
     7
 10
417.7144850635928
 20
-8.0233294375734658
 30
0.0
  0
VERTEX
  5
5B3
  8
DATA
 62
     7
 10
417.46754994519762
 20
-7.4191234630105773
 30
0.0
  0
VERTEX
  5
5B4
  8
DATA
 62
     7
 10
417.2390041164312
 20
-6.7781389091901749
 30
0.0
  0
VERTEX
  5
5B5
  8
DATA
 62
     7
 10
417.02884757729339
 20
-6.1003757761122861
 30
0.0
  0
VERTEX
  5
5B6
  8
DATA
 62
     7
 10
417.02884757729339
 20
-6.1003757761122861
 30
0.0
  0
VERTEX
  5
5B7
  8
DATA
 62
     7
 10
416.84044580136521
 20
-5.3974924062439982
 30
0.0
  0
VERTEX
  5
5B8
  8
DATA
 62
     7
 10
416.67716426222739
 20
-4.6811471420523381
 30
0.0
  0
VERTEX
  5
5B9
  8
DATA
 62
     7
 10
416.53900295988012
 20
-3.9513399835373662
 30
0.0
  0
VERTEX
  5
5BA
  8
DATA
 62
     7
 10
416.42596189432328
 20
-3.208070930699022
 30
0.0
  0
VERTEX
  5
5BB
  8
DATA
 62
     7
 10
416.33804106555681
 20
-2.4513399835373662
 30
0.0
  0
VERTEX
  5
5BC
  8
DATA
 62
     7
 10
416.27524047358071
 20
-1.6811471420523381
 30
0.0
  0
VERTEX
  5
5BD
  8
DATA
 62
     7
 10
416.23756011839509
 20
-0.8974924062439981
 30
0.0
  0
VERTEX
  5
5BE
  8
DATA
 62
     7
 10
416.22499999999991
 20
-0.100375776112287
 30
0.0
  0
VERTEX
  5
5BF
  8
DATA
 62
     7
 10
416.22499999999991
 20
-0.100375776112287
 30
0.0
  0
VERTEX
  5
5C0
  8
DATA
 62
     7
 10
416.22500306643508
 20
-0.0878173010129615
 30
0.0
  0
VERTEX
  5
5C1
  8
DATA
 62
     7
 10
416.22501226574047
 20
-0.0752621125094493
 30
0.0
  0
VERTEX
  5
5C2
  8
DATA
 62
     7
 10
416.22502759791632
 20
-0.0627102106017219
 30
0.0
  0
VERTEX
  5
5C3
  8
DATA
 62
     7
 10
416.22504906296228
 20
-0.0501615952898078
 30
0.0
  0
VERTEX
  5
5C4
  8
DATA
 62
     7
 10
416.22507666087881
 20
-0.0376162665736501
 30
0.0
  0
VERTEX
  5
5C5
  8
DATA
 62
     7
 10
416.22511039166551
 20
-0.0250742244533058
 30
0.0
  0
VERTEX
  5
5C6
  8
DATA
 62
     7
 10
416.22515025532249
 20
-0.0125354689287462
 30
0.0
  0
VERTEX
  5
5C7
  8
DATA
 62
     7
 10
416.22519625184981
 20
0.0
 30
0.0
  0
VERTEX
  5
5C8
  8
DATA
 62
     7
 10
416.22519625184981
 20
0.0
 30
0.0
  0
SEQEND
  5
5C9
  8
DATA
 62
     7
  0
LINE
  5
1DD
  8
DATA
 62
     7
 10
472.4329276849561
 20
-3.5
 30
0.0
 11
472.37784530585139
 21
-3.5
 31
0.0
  0
LINE
  5
1DE
  8
DATA
 62
     7
 10
460.93607511317123
 20
-3.5
 30
0.0
 11
460.88623093678041
 21
-3.5
 31
0.0
  0
POLYLINE
  5
1DF
  8
DATA
 62
     7
 66
     1
 10
0.0
 20
0.0
 30
0.0
 70
   128
  0
VERTEX
  5
5CA
  8
DATA
 62
     7
 10
476.67467291358332
 20
0.0
 30
0.0
  0
VERTEX
  5
5CB
  8
DATA
 62
     7
 10
476.67474957446223
 20
-0.0125354689302242
 30
0.0
  0
VERTEX
  5
5CC
  8
DATA
 62
     7
 10
476.67481601389062
 20
-0.0250742244558353
 30
0.0
  0
VERTEX
  5
5CD
  8
DATA
 62
     7
 10
476.67487223186851
 20
-0.0376162665768334
 30
0.0
  0
VERTEX
  5
5CE
  8
DATA
 62
     7
 10
476.67491822839582
 20
-0.0501615952931616
 30
0.0
  0
VERTEX
  5
5CF
  8
DATA
 62
     7
 10
476.67495400347258
 20
-0.0627102106049051
 30
0.0
  0
VERTEX
  5
5D0
  8
DATA
 62
     7
 10
476.67497955709882
 20
-0.0752621125119788
 30
0.0
  0
VERTEX
  5
5D1
  8
DATA
 62
     7
 10
476.67499488927461
 20
-0.0878173010144394
 30
0.0
  0
VERTEX
  5
5D2
  8
DATA
 62
     7
 10
476.67500000000001
 20
-0.100375776112287
 30
0.0
  0
VERTEX
  5
5D3
  8
DATA
 62
     7
 10
476.67500000000001
 20
-0.100375776112287
 30
0.0
  0
VERTEX
  5
5D4
  8
DATA
 62
     7
 10
476.65406646934127
 20
-0.8974924062439981
 30
0.0
  0
VERTEX
  5
5D5
  8
DATA
 62
     7
 10
476.59126587736512
 20
-1.6811471420523381
 30
0.0
  0
VERTEX
  5
5D6
  8
DATA
 62
     7
 10
476.48659822407183
 20
-2.4513399835373662
 30
0.0
  0
VERTEX
  5
5D7
  8
DATA
 62
     7
 10
476.340063509461
 20
-3.208070930699022
 30
0.0
  0
VERTEX
  5
5D8
  8
DATA
 62
     7
 10
476.15166173353282
 20
-3.9513399835373662
 30
0.0
  0
VERTEX
  5
5D9
  8
DATA
 62
     7
 10
475.92139289628727
 20
-4.6811471420523381
 30
0.0
  0
VERTEX
  5
5DA
  8
DATA
 62
     7
 10
475.64925699772448
 20
-5.3974924062439982
 30
0.0
  0
VERTEX
  5
5DB
  8
DATA
 62
     7
 10
475.33525403784432
 20
-6.1003757761122861
 30
0.0
  0
VERTEX
  5
5DC
  8
DATA
 62
     7
 10
475.33525403784432
 20
-6.1003757761122861
 30
0.0
  0
VERTEX
  5
5DD
  8
DATA
 62
     7
 10
474.98499313928141
 20
-6.7781389091901749
 30
0.0
  0
VERTEX
  5
5DE
  8
DATA
 62
     7
 10
474.6040834246707
 20
-7.4191234630105773
 30
0.0
  0
VERTEX
  5
5DF
  8
DATA
 62
     7
 10
474.19252489401208
 20
-8.0233294375734658
 30
0.0
  0
VERTEX
  5
5E0
  8
DATA
 62
     7
 10
473.75031754730549
 20
-8.590756832878867
 30
0.0
  0
VERTEX
  5
5E1
  8
DATA
 62
     7
 10
473.27746138455092
 20
-9.1214056489267819
 30
0.0
  0
VERTEX
  5
5E2
  8
DATA
 62
     7
 10
472.77395640574849
 20
-9.6152758857172103
 30
0.0
  0
VERTEX
  5
5E3
  8
DATA
 62
     7
 10
472.23980261089821
 20
-10.07236754325012
 30
0.0
  0
VERTEX
  5
5E4
  8
DATA
 62
     7
 10
471.67500000000001
 20
-10.492680621525549
 30
0.0
  0
VERTEX
  5
5E5
  8
DATA
 62
     7
 10
471.67500000000001
 20
-10.492680621525549
 30
0.0
  0
VERTEX
  5
5E6
  8
DATA
 62
     7
 10
471.08926385844308
 20
-10.86948417338181
 30
0.0
  0
VERTEX
  5
5E7
  8
DATA
 62
     7
 10
470.49230947161681
 20
-11.19604725165726
 30
0.0
  0
VERTEX
  5
5E8
  8
DATA
 62
     7
 10
469.88413683952081
 20
-11.472369856351859
 30
0.0
  0
VERTEX
  5
5E9
  8
DATA
 62
     7
 10
469.26474596215559
 20
-11.69845198746561
 30
0.0
  0
VERTEX
  5
5EA
  8
DATA
 62
     7
 10
468.63413683952092
 20
-11.874293644998509
 30
0.0
  0
VERTEX
  5
5EB
  8
DATA
 62
     7
 10
467.99230947161669
 20
-11.99989482895063
 30
0.0
  0
VERTEX
  5
5EC
  8
DATA
 62
     7
 10
467.33926385844308
 20
-12.07525553932186
 30
0.0
  0
VERTEX
  5
5ED
  8
DATA
 62
     7
 10
466.67500000000001
 20
-12.100375776112291
 30
0.0
  0
VERTEX
  5
5EE
  8
DATA
 62
     7
 10
466.67500000000001
 20
-12.100375776112291
 30
0.0
  0
VERTEX
  5
5EF
  8
DATA
 62
     7
 10
466.01073614155678
 20
-12.07525553932186
 30
0.0
  0
VERTEX
  5
5F0
  8
DATA
 62
     7
 10
465.35769052838322
 20
-11.99989482895063
 30
0.0
  0
VERTEX
  5
5F1
  8
DATA
 62
     7
 10
464.71586316047899
 20
-11.874293644998509
 30
0.0
  0
VERTEX
  5
5F2
  8
DATA
 62
     7
 10
464.08525403784432
 20
-11.69845198746561
 30
0.0
  0
VERTEX
  5
5F3
  8
DATA
 62
     7
 10
463.4658631604791
 20
-11.472369856351859
 30
0.0
  0
VERTEX
  5
5F4
  8
DATA
 62
     7
 10
462.85769052838322
 20
-11.19604725165726
 30
0.0
  0
VERTEX
  5
5F5
  8
DATA
 62
     7
 10
462.26073614155678
 20
-10.86948417338181
 30
0.0
  0
VERTEX
  5
5F6
  8
DATA
 62
     7
 10
461.67500000000001
 20
-10.492680621525549
 30
0.0
  0
VERTEX
  5
5F7
  8
DATA
 62
     7
 10
461.67500000000001
 20
-10.492680621525549
 30
0.0
  0
VERTEX
  5
5F8
  8
DATA
 62
     7
 10
461.1101973891017
 20
-10.07236754325012
 30
0.0
  0
VERTEX
  5
5F9
  8
DATA
 62
     7
 10
460.57604359425142
 20
-9.6152758857172103
 30
0.0
  0
VERTEX
  5
5FA
  8
DATA
 62
     7
 10
460.07253861544899
 20
-9.1214056489267819
 30
0.0
  0
VERTEX
  5
5FB
  8
DATA
 62
     7
 10
459.59968245269448
 20
-8.590756832878867
 30
0.0
  0
VERTEX
  5
5FC
  8
DATA
 62
     7
 10
459.157475105988
 20
-8.0233294375734658
 30
0.0
  0
VERTEX
  5
5FD
  8
DATA
 62
     7
 10
458.74591657532932
 20
-7.4191234630105773
 30
0.0
  0
VERTEX
  5
5FE
  8
DATA
 62
     7
 10
458.36500686071849
 20
-6.7781389091901749
 30
0.0
  0
VERTEX
  5
5FF
  8
DATA
 62
     7
 10
458.0147459621557
 20
-6.1003757761122861
 30
0.0
  0
VERTEX
  5
600
  8
DATA
 62
     7
 10
458.0147459621557
 20
-6.1003757761122861
 30
0.0
  0
VERTEX
  5
601
  8
DATA
 62
     7
 10
457.70074300227549
 20
-5.3974924062439982
 30
0.0
  0
VERTEX
  5
602
  8
DATA
 62
     7
 10
457.42860710371252
 20
-4.6811471420523381
 30
0.0
  0
VERTEX
  5
603
  8
DATA
 62
     7
 10
457.19833826646709
 20
-3.9513399835373662
 30
0.0
  0
VERTEX
  5
604
  8
DATA
 62
     7
 10
457.00993649053879
 20
-3.208070930699022
 30
0.0
  0
VERTEX
  5
605
  8
DATA
 62
     7
 10
456.86340177592803
 20
-2.4513399835373662
 30
0.0
  0
VERTEX
  5
606
  8
DATA
 62
     7
 10
456.75873412263468
 20
-1.6811471420523381
 30
0.0
  0
VERTEX
  5
607
  8
DATA
 62
     7
 10
456.69593353065852
 20
-0.8974924062439981
 30
0.0
  0
VERTEX
  5
608
  8
DATA
 62
     7
 10
456.6749999999999
 20
-0.100375776112287
 30
0.0
  0
VERTEX
  5
609
  8
DATA
 62
     7
 10
456.6749999999999
 20
-0.100375776112287
 30
0.0
  0
VERTEX
  5
60A
  8
DATA
 62
     7
 10
456.67500511072518
 20
-0.0878173010144394
 30
0.0
  0
VERTEX
  5
60B
  8
DATA
 62
     7
 10
456.67502044290092
 20
-0.0752621125119788
 30
0.0
  0
VERTEX
  5
60C
  8
DATA
 62
     7
 10
456.67504599652722
 20
-0.0627102106049051
 30
0.0
  0
VERTEX
  5
60D
  8
DATA
 62
     7
 10
456.67508177160403
 20
-0.0501615952931616
 30
0.0
  0
VERTEX
  5
60E
  8
DATA
 62
     7
 10
456.6751277681314
 20
-0.0376162665768334
 30
0.0
  0
VERTEX
  5
60F
  8
DATA
 62
     7
 10
456.67518398610912
 20
-0.0250742244558353
 30
0.0
  0
VERTEX
  5
610
  8
DATA
 62
     7
 10
456.67525042553763
 20
-0.0125354689302242
 30
0.0
  0
VERTEX
  5
611
  8
DATA
 62
     7
 10
456.67532708641647
 20
0.0
 30
0.0
  0
VERTEX
  5
612
  8
DATA
 62
     7
 10
456.67532708641647
 20
0.0
 30
0.0
  0
SEQEND
  5
613
  8
DATA
 62
     7
  0
POLYLINE
  5
22A
  8
DATA
 62
     7
 66
     1
 10
0.0
 20
0.0
 30
0.0
 70
   128
  0
VERTEX
  5
614
  8
DATA
 62
     7
 10
472.67480374815023
 20
0.0
 30
0.0
  0
VERTEX
  5
615
  8
DATA
 62
     7
 10
472.6748497446776
 20
-0.0125354689303379
 30
0.0
  0
VERTEX
  5
616
  8
DATA
 62
     7
 10
472.67488960833452
 20
-0.0250742244560342
 30
0.0
  0
VERTEX
  5
617
  8
DATA
 62
     7
 10
472.67492333912122
 20
-0.0376162665770607
 30
0.0
  0
VERTEX
  5
618
  8
DATA
 62
     7
 10
472.67495093703752
 20
-0.0501615952934458
 30
0.0
  0
VERTEX
  5
619
  8
DATA
 62
     7
 10
472.6749724020836
 20
-0.0627102106051325
 30
0.0
  0
VERTEX
  5
61A
  8
DATA
 62
     7
 10
472.67498773425928
 20
-0.0752621125121777
 30
0.0
  0
VERTEX
  5
61B
  8
DATA
 62
     7
 10
472.67499693356478
 20
-0.0878173010145531
 30
0.0
  0
VERTEX
  5
61C
  8
DATA
 62
     7
 10
472.67500000000001
 20
-0.100375776112287
 30
0.0
  0
VERTEX
  5
61D
  8
DATA
 62
     7
 10
472.67500000000001
 20
-0.100375776112287
 30
0.0
  0
VERTEX
  5
61E
  8
DATA
 62
     7
 10
472.66243988160483
 20
-0.8974924062439981
 30
0.0
  0
VERTEX
  5
61F
  8
DATA
 62
     7
 10
472.6247595264191
 20
-1.6811471420523381
 30
0.0
  0
VERTEX
  5
620
  8
DATA
 62
     7
 10
472.56195893444311
 20
-2.4513399835373662
 30
0.0
  0
VERTEX
  5
621
  8
DATA
 62
     7
 10
472.47403810567658
 20
-3.208070930699022
 30
0.0
  0
VERTEX
  5
622
  8
DATA
 62
     7
 10
472.36099704011968
 20
-3.9513399835373662
 30
0.0
  0
VERTEX
  5
623
  8
DATA
 62
     7
 10
472.22283573777253
 20
-4.6811471420523381
 30
0.0
  0
VERTEX
  5
624
  8
DATA
 62
     7
 10
472.05955419863471
 20
-5.3974924062439982
 30
0.0
  0
VERTEX
  5
625
  8
DATA
 62
     7
 10
471.87115242270659
 20
-6.1003757761122861
 30
0.0
  0
VERTEX
  5
626
  8
DATA
 62
     7
 10
471.87115242270659
 20
-6.1003757761122861
 30
0.0
  0
VERTEX
  5
627
  8
DATA
 62
     7
 10
471.66099588356889
 20
-6.7781389091901749
 30
0.0
  0
VERTEX
  5
628
  8
DATA
 62
     7
 10
471.43245005480242
 20
-7.4191234630105773
 30
0.0
  0
VERTEX
  5
629
  8
DATA
 62
     7
 10
471.18551493640717
 20
-8.0233294375734658
 30
0.0
  0
VERTEX
  5
62A
  8
DATA
 62
     7
 10
470.92019052838322
 20
-8.590756832878867
 30
0.0
  0
VERTEX
  5
62B
  8
DATA
 62
     7
 10
470.6364768307306
 20
-9.1214056489267819
 30
0.0
  0
VERTEX
  5
62C
  8
DATA
 62
     7
 10
470.33437384344899
 20
-9.6152758857172103
 30
0.0
  0
VERTEX
  5
62D
  8
DATA
 62
     7
 10
470.01388156653883
 20
-10.07236754325012
 30
0.0
  0
VERTEX
  5
62E
  8
DATA
 62
     7
 10
469.67500000000001
 20
-10.492680621525549
 30
0.0
  0
VERTEX
  5
62F
  8
DATA
 62
     7
 10
469.67500000000001
 20
-10.492680621525549
 30
0.0
  0
VERTEX
  5
630
  8
DATA
 62
     7
 10
469.32355831506578
 20
-10.86948417338181
 30
0.0
  0
VERTEX
  5
631
  8
DATA
 62
     7
 10
468.9653856829699
 20
-11.19604725165726
 30
0.0
  0
VERTEX
  5
632
  8
DATA
 62
     7
 10
468.60048210371252
 20
-11.472369856351859
 30
0.0
  0
VERTEX
  5
633
  8
DATA
 62
     7
 10
468.22884757729321
 20
-11.69845198746561
 30
0.0
  0
VERTEX
  5
634
  8
DATA
 62
     7
 10
467.85048210371241
 20
-11.874293644998509
 30
0.0
  0
VERTEX
  5
635
  8
DATA
 62
     7
 10
467.4653856829699
 20
-11.99989482895063
 30
0.0
  0
VERTEX
  5
636
  8
DATA
 62
     7
 10
467.07355831506578
 20
-12.07525553932186
 30
0.0
  0
VERTEX
  5
637
  8
DATA
 62
     7
 10
466.67500000000001
 20
-12.100375776112291
 30
0.0
  0
VERTEX
  5
638
  8
DATA
 62
     7
 10
466.67500000000001
 20
-12.100375776112291
 30
0.0
  0
VERTEX
  5
639
  8
DATA
 62
     7
 10
466.27644168493401
 20
-12.07525553932186
 30
0.0
  0
VERTEX
  5
63A
  8
DATA
 62
     7
 10
465.8846143170299
 20
-11.99989482895063
 30
0.0
  0
VERTEX
  5
63B
  8
DATA
 62
     7
 10
465.49951789628739
 20
-11.874293644998509
 30
0.0
  0
VERTEX
  5
63C
  8
DATA
 62
     7
 10
465.12115242270647
 20
-11.69845198746561
 30
0.0
  0
VERTEX
  5
63D
  8
DATA
 62
     7
 10
464.74951789628739
 20
-11.472369856351859
 30
0.0
  0
VERTEX
  5
63E
  8
DATA
 62
     7
 10
464.3846143170299
 20
-11.19604725165726
 30
0.0
  0
VERTEX
  5
63F
  8
DATA
 62
     7
 10
464.02644168493401
 20
-10.86948417338181
 30
0.0
  0
VERTEX
  5
640
  8
DATA
 62
     7
 10
463.67500000000001
 20
-10.492680621525549
 30
0.0
  0
VERTEX
  5
641
  8
DATA
 62
     7
 10
463.67500000000001
 20
-10.492680621525549
 30
0.0
  0
VERTEX
  5
642
  8
DATA
 62
     7
 10
463.33611843346091
 20
-10.07236754325012
 30
0.0
  0
VERTEX
  5
643
  8
DATA
 62
     7
 10
463.01562615655092
 20
-9.6152758857172103
 30
0.0
  0
VERTEX
  5
644
  8
DATA
 62
     7
 10
462.71352316926942
 20
-9.1214056489267819
 30
0.0
  0
VERTEX
  5
645
  8
DATA
 62
     7
 10
462.42980947161669
 20
-8.590756832878867
 30
0.0
  0
VERTEX
  5
646
  8
DATA
 62
     7
 10
462.16448506359279
 20
-8.0233294375734658
 30
0.0
  0
VERTEX
  5
647
  8
DATA
 62
     7
 10
461.91754994519761
 20
-7.4191234630105773
 30
0.0
  0
VERTEX
  5
648
  8
DATA
 62
     7
 10
461.68900411643108
 20
-6.7781389091901749
 30
0.0
  0
VERTEX
  5
649
  8
DATA
 62
     7
 10
461.47884757729338
 20
-6.1003757761122861
 30
0.0
  0
VERTEX
  5
64A
  8
DATA
 62
     7
 10
461.47884757729338
 20
-6.1003757761122861
 30
0.0
  0
VERTEX
  5
64B
  8
DATA
 62
     7
 10
461.29044580136531
 20
-5.3974924062439982
 30
0.0
  0
VERTEX
  5
64C
  8
DATA
 62
     7
 10
461.12716426222761
 20
-4.6811471420523381
 30
0.0
  0
VERTEX
  5
64D
  8
DATA
 62
     7
 10
460.98900295988022
 20
-3.9513399835373662
 30
0.0
  0
VERTEX
  5
64E
  8
DATA
 62
     7
 10
460.87596189432321
 20
-3.208070930699022
 30
0.0
  0
VERTEX
  5
64F
  8
DATA
 62
     7
 10
460.7880410655568
 20
-2.4513399835373662
 30
0.0
  0
VERTEX
  5
650
  8
DATA
 62
     7
 10
460.7252404735807
 20
-1.6811471420523381
 30
0.0
  0
VERTEX
  5
651
  8
DATA
 62
     7
 10
460.68756011839508
 20
-0.8974924062439981
 30
0.0
  0
VERTEX
  5
652
  8
DATA
 62
     7
 10
460.6749999999999
 20
-0.100375776112287
 30
0.0
  0
VERTEX
  5
653
  8
DATA
 62
     7
 10
460.6749999999999
 20
-0.100375776112287
 30
0.0
  0
VERTEX
  5
654
  8
DATA
 62
     7
 10
460.67500306643501
 20
-0.0878173010129615
 30
0.0
  0
VERTEX
  5
655
  8
DATA
 62
     7
 10
460.67501226574052
 20
-0.0752621125094493
 30
0.0
  0
VERTEX
  5
656
  8
DATA
 62
     7
 10
460.67502759791643
 20
-0.0627102106017219
 30
0.0
  0
VERTEX
  5
657
  8
DATA
 62
     7
 10
460.67504906296227
 20
-0.0501615952898078
 30
0.0
  0
VERTEX
  5
658
  8
DATA
 62
     7
 10
460.67507666087891
 20
-0.0376162665736501
 30
0.0
  0
VERTEX
  5
659
  8
DATA
 62
     7
 10
460.67511039166561
 20
-0.0250742244533058
 30
0.0
  0
VERTEX
  5
65A
  8
DATA
 62
     7
 10
460.67515025532248
 20
-0.0125354689287462
 30
0.0
  0
VERTEX
  5
65B
  8
DATA
 62
     7
 10
460.67519625184991
 20
0.0
 30
0.0
  0
VERTEX
  5
65C
  8
DATA
 62
     7
 10
460.67519625184991
 20
0.0
 30
0.0
  0
SEQEND
  5
65D
  8
DATA
 62
     7
  0
LINE
  5
275
  8
DATA
 62
     7
 10
-500.0
 20
317.4500000000001
 30
0.0
 11
-490.60199999999992
 21
317.4500000000001
 31
0.0
  0
LINE
  5
276
  8
DATA
 62
     7
 10
-500.0
 20
393.64999999999998
 30
0.0
 11
-490.60199999999992
 21
393.64999999999998
 31
0.0
  0
LINE
  5
277
  8
DATA
 62
     7
 10
-490.60199999999992
 20
311.10000000000002
 30
0.0
 11
-490.60199999999992
 21
317.4500000000001
 31
0.0
  0
LINE
  5
278
  8
DATA
 62
     7
 10
-490.60199999999992
 20
393.64999999999998
 30
0.0
 11
-490.60199999999992
 21
400.0
 31
0.0
  0
LINE
  5
279
  8
DATA
 62
     7
 10
-490.60199999999992
 20
396.952
 30
0.0
 11
93.597999999999942
 21
396.952
 31
0.0
  0
LINE
  5
27A
  8
DATA
 62
     7
 10
93.597999999999942
 20
314.14800000000002
 30
0.0
 11
-490.60199999999992
 21
314.14800000000002
 31
0.0
  0
LINE
  5
27B
  8
DATA
 62
     7
 10
-496.952
 20
317.4500000000001
 30
0.0
 11
-496.952
 21
393.64999999999998
 31
0.0
  0
LINE
  5
27C
  8
DATA
 62
     7
 10
-496.49999999999989
 20
372.01707231504372
 30
0.0
 11
-496.49999999999989
 21
372.07215469414848
 31
0.0
  0
LINE
  5
27D
  8
DATA
 62
     7
 10
-496.49999999999989
 20
383.51392488682882
 30
0.0
 11
-496.49999999999989
 21
383.56376906321958
 31
0.0
  0
POLYLINE
  5
27E
  8
DATA
 62
     7
 66
     1
 10
0.0
 20
0.0
 30
0.0
 70
   128
  0
VERTEX
  5
65E
  8
DATA
 62
     7
 10
-500.0
 20
367.77532708641661
 30
0.0
  0
VERTEX
  5
65F
  8
DATA
 62
     7
 10
-499.9874645310698
 20
367.77525042553771
 30
0.0
  0
VERTEX
  5
660
  8
DATA
 62
     7
 10
-499.97492577554419
 20
367.7751839861092
 30
0.0
  0
VERTEX
  5
661
  8
DATA
 62
     7
 10
-499.96238373342311
 20
367.77512776813143
 30
0.0
  0
VERTEX
  5
662
  8
DATA
 62
     7
 10
-499.94983840470678
 20
367.77508177160422
 30
0.0
  0
VERTEX
  5
663
  8
DATA
 62
     7
 10
-499.93728978939509
 20
367.77504599652741
 30
0.0
  0
VERTEX
  5
664
  8
DATA
 62
     7
 10
-499.92473788748799
 20
367.77502044290111
 30
0.0
  0
VERTEX
  5
665
  8
DATA
 62
     7
 10
-499.91218269898548
 20
367.77500511072532
 30
0.0
  0
VERTEX
  5
666
  8
DATA
 62
     7
 10
-499.8996242238876
 20
367.77499999999998
 30
0.0
  0
VERTEX
  5
667
  8
DATA
 62
     7
 10
-499.8996242238876
 20
367.77499999999998
 30
0.0
  0
VERTEX
  5
668
  8
DATA
 62
     7
 10
-499.10250759375589
 20
367.79593353065871
 30
0.0
  0
VERTEX
  5
669
  8
DATA
 62
     7
 10
-498.3188528579476
 20
367.85873412263481
 30
0.0
  0
VERTEX
  5
66A
  8
DATA
 62
     7
 10
-497.54866001646258
 20
367.96340177592822
 30
0.0
  0
VERTEX
  5
66B
  8
DATA
 62
     7
 10
-496.79192906930092
 20
368.10993649053893
 30
0.0
  0
VERTEX
  5
66C
  8
DATA
 62
     7
 10
-496.04866001646258
 20
368.29833826646711
 30
0.0
  0
VERTEX
  5
66D
  8
DATA
 62
     7
 10
-495.3188528579476
 20
368.5286071037126
 30
0.0
  0
VERTEX
  5
66E
  8
DATA
 62
     7
 10
-494.60250759375589
 20
368.8007430022754
 30
0.0
  0
VERTEX
  5
66F
  8
DATA
 62
     7
 10
-493.89962422388771
 20
369.11474596215561
 30
0.0
  0
VERTEX
  5
670
  8
DATA
 62
     7
 10
-493.89962422388771
 20
369.11474596215561
 30
0.0
  0
VERTEX
  5
671
  8
DATA
 62
     7
 10
-493.2218610908098
 20
369.46500686071852
 30
0.0
  0
VERTEX
  5
672
  8
DATA
 62
     7
 10
-492.58087653698942
 20
369.84591657532923
 30
0.0
  0
VERTEX
  5
673
  8
DATA
 62
     7
 10
-491.97667056242648
 20
370.25747510598791
 30
0.0
  0
VERTEX
  5
674
  8
DATA
 62
     7
 10
-491.40924316712102
 20
370.6996824526945
 30
0.0
  0
VERTEX
  5
675
  8
DATA
 62
     7
 10
-490.8785943510731
 20
371.1725386154489
 30
0.0
  0
VERTEX
  5
676
  8
DATA
 62
     7
 10
-490.38472411428279
 20
371.67604359425138
 30
0.0
  0
VERTEX
  5
677
  8
DATA
 62
     7
 10
-489.92763245674968
 20
372.21019738910172
 30
0.0
  0
VERTEX
  5
678
  8
DATA
 62
     7
 10
-489.50731937847451
 20
372.77499999999998
 30
0.0
  0
VERTEX
  5
679
  8
DATA
 62
     7
 10
-489.50731937847451
 20
372.77499999999998
 30
0.0
  0
VERTEX
  5
67A
  8
DATA
 62
     7
 10
-489.13051582661819
 20
373.36073614155691
 30
0.0
  0
VERTEX
  5
67B
  8
DATA
 62
     7
 10
-488.80395274834268
 20
373.95769052838341
 30
0.0
  0
VERTEX
  5
67C
  8
DATA
 62
     7
 10
-488.5276301436482
 20
374.56586316047913
 30
0.0
  0
VERTEX
  5
67D
  8
DATA
 62
     7
 10
-488.3015480125344
 20
375.1852540378444
 30
0.0
  0
VERTEX
  5
67E
  8
DATA
 62
     7
 10
-488.12570635500128
 20
375.81586316047913
 30
0.0
  0
VERTEX
  5
67F
  8
DATA
 62
     7
 10
-488.00010517104943
 20
376.45769052838341
 30
0.0
  0
VERTEX
  5
680
  8
DATA
 62
     7
 10
-487.92474446067808
 20
377.11073614155691
 30
0.0
  0
VERTEX
  5
681
  8
DATA
 62
     7
 10
-487.8996242238876
 20
377.77499999999998
 30
0.0
  0
VERTEX
  5
682
  8
DATA
 62
     7
 10
-487.8996242238876
 20
377.77499999999998
 30
0.0
  0
VERTEX
  5
683
  8
DATA
 62
     7
 10
-487.92474446067808
 20
378.4392638584431
 30
0.0
  0
VERTEX
  5
684
  8
DATA
 62
     7
 10
-488.00010517104943
 20
379.09230947161677
 30
0.0
  0
VERTEX
  5
685
  8
DATA
 62
     7
 10
-488.12570635500128
 20
379.73413683952089
 30
0.0
  0
VERTEX
  5
686
  8
DATA
 62
     7
 10
-488.3015480125344
 20
380.36474596215561
 30
0.0
  0
VERTEX
  5
687
  8
DATA
 62
     7
 10
-488.5276301436482
 20
380.98413683952089
 30
0.0
  0
VERTEX
  5
688
  8
DATA
 62
     7
 10
-488.80395274834268
 20
381.59230947161677
 30
0.0
  0
VERTEX
  5
689
  8
DATA
 62
     7
 10
-489.13051582661819
 20
382.1892638584431
 30
0.0
  0
VERTEX
  5
68A
  8
DATA
 62
     7
 10
-489.50731937847451
 20
382.77499999999998
 30
0.0
  0
VERTEX
  5
68B
  8
DATA
 62
     7
 10
-489.50731937847451
 20
382.77499999999998
 30
0.0
  0
VERTEX
  5
68C
  8
DATA
 62
     7
 10
-489.92763245674968
 20
383.33980261089829
 30
0.0
  0
VERTEX
  5
68D
  8
DATA
 62
     7
 10
-490.38472411428279
 20
383.87395640574857
 30
0.0
  0
VERTEX
  5
68E
  8
DATA
 62
     7
 10
-490.8785943510731
 20
384.377461384551
 30
0.0
  0
VERTEX
  5
68F
  8
DATA
 62
     7
 10
-491.40924316712102
 20
384.85031754730551
 30
0.0
  0
VERTEX
  5
690
  8
DATA
 62
     7
 10
-491.97667056242648
 20
385.29252489401199
 30
0.0
  0
VERTEX
  5
691
  8
DATA
 62
     7
 10
-492.58087653698942
 20
385.70408342467073
 30
0.0
  0
VERTEX
  5
692
  8
DATA
 62
     7
 10
-493.2218610908098
 20
386.08499313928138
 30
0.0
  0
VERTEX
  5
693
  8
DATA
 62
     7
 10
-493.89962422388771
 20
386.4352540378444
 30
0.0
  0
VERTEX
  5
694
  8
DATA
 62
     7
 10
-493.89962422388771
 20
386.4352540378444
 30
0.0
  0
VERTEX
  5
695
  8
DATA
 62
     7
 10
-494.60250759375589
 20
386.74925699772461
 30
0.0
  0
VERTEX
  5
696
  8
DATA
 62
     7
 10
-495.3188528579476
 20
387.02139289628752
 30
0.0
  0
VERTEX
  5
697
  8
DATA
 62
     7
 10
-496.04866001646258
 20
387.25166173353301
 30
0.0
  0
VERTEX
  5
698
  8
DATA
 62
     7
 10
-496.79192906930092
 20
387.44006350946108
 30
0.0
  0
VERTEX
  5
699
  8
DATA
 62
     7
 10
-497.54866001646258
 20
387.58659822407191
 30
0.0
  0
VERTEX
  5
69A
  8
DATA
 62
     7
 10
-498.3188528579476
 20
387.6912658773652
 30
0.0
  0
VERTEX
  5
69B
  8
DATA
 62
     7
 10
-499.10250759375589
 20
387.7540664693413
 30
0.0
  0
VERTEX
  5
69C
  8
DATA
 62
     7
 10
-499.8996242238876
 20
387.77499999999998
 30
0.0
  0
VERTEX
  5
69D
  8
DATA
 62
     7
 10
-499.8996242238876
 20
387.77499999999998
 30
0.0
  0
VERTEX
  5
69E
  8
DATA
 62
     7
 10
-499.91218269898548
 20
387.77499488927481
 30
0.0
  0
VERTEX
  5
69F
  8
DATA
 62
     7
 10
-499.92473788748799
 20
387.7749795570989
 30
0.0
  0
VERTEX
  5
6A0
  8
DATA
 62
     7
 10
-499.93728978939509
 20
387.77495400347283
 30
0.0
  0
VERTEX
  5
6A1
  8
DATA
 62
     7
 10
-499.94983840470678
 20
387.7749182283959
 30
0.0
  0
VERTEX
  5
6A2
  8
DATA
 62
     7
 10
-499.96238373342311
 20
387.77487223186853
 30
0.0
  0
VERTEX
  5
6A3
  8
DATA
 62
     7
 10
-499.97492577554419
 20
387.7748160138907
 30
0.0
  0
VERTEX
  5
6A4
  8
DATA
 62
     7
 10
-499.9874645310698
 20
387.77474957446231
 30
0.0
  0
VERTEX
  5
6A5
  8
DATA
 62
     7
 10
-500.0
 20
387.7746729135834
 30
0.0
  0
VERTEX
  5
6A6
  8
DATA
 62
     7
 10
-500.0
 20
387.7746729135834
 30
0.0
  0
SEQEND
  5
6A7
  8
DATA
 62
     7
  0
POLYLINE
  5
2C9
  8
DATA
 62
     7
 66
     1
 10
0.0
 20
0.0
 30
0.0
 70
   128
  0
VERTEX
  5
6A8
  8
DATA
 62
     7
 10
-500.0
 20
371.77519625184982
 30
0.0
  0
VERTEX
  5
6A9
  8
DATA
 62
     7
 10
-499.98746453106958
 20
371.7751502553225
 30
0.0
  0
VERTEX
  5
6AA
  8
DATA
 62
     7
 10
-499.97492577554402
 20
371.77511039166558
 30
0.0
  0
VERTEX
  5
6AB
  8
DATA
 62
     7
 10
-499.96238373342283
 20
371.77507666087888
 30
0.0
  0
VERTEX
  5
6AC
  8
DATA
 62
     7
 10
-499.9498384047065
 20
371.77504906296252
 30
0.0
  0
VERTEX
  5
6AD
  8
DATA
 62
     7
 10
-499.93728978939492
 20
371.77502759791651
 30
0.0
  0
VERTEX
  5
6AE
  8
DATA
 62
     7
 10
-499.92473788748771
 20
371.77501226574071
 30
0.0
  0
VERTEX
  5
6AF
  8
DATA
 62
     7
 10
-499.91218269898548
 20
371.7750030664352
 30
0.0
  0
VERTEX
  5
6B0
  8
DATA
 62
     7
 10
-499.8996242238876
 20
371.77499999999998
 30
0.0
  0
VERTEX
  5
6B1
  8
DATA
 62
     7
 10
-499.8996242238876
 20
371.77499999999998
 30
0.0
  0
VERTEX
  5
6B2
  8
DATA
 62
     7
 10
-499.10250759375589
 20
371.78756011839522
 30
0.0
  0
VERTEX
  5
6B3
  8
DATA
 62
     7
 10
-498.3188528579476
 20
371.82524047358078
 30
0.0
  0
VERTEX
  5
6B4
  8
DATA
 62
     7
 10
-497.54866001646258
 20
371.88804106555688
 30
0.0
  0
VERTEX
  5
6B5
  8
DATA
 62
     7
 10
-496.79192906930092
 20
371.97596189432329
 30
0.0
  0
VERTEX
  5
6B6
  8
DATA
 62
     7
 10
-496.04866001646258
 20
372.08900295988019
 30
0.0
  0
VERTEX
  5
6B7
  8
DATA
 62
     7
 10
-495.3188528579476
 20
372.22716426222757
 30
0.0
  0
VERTEX
  5
6B8
  8
DATA
 62
     7
 10
-494.60250759375589
 20
372.39044580136527
 30
0.0
  0
VERTEX
  5
6B9
  8
DATA
 62
     7
 10
-493.89962422388771
 20
372.5788475772934
 30
0.0
  0
VERTEX
  5
6BA
  8
DATA
 62
     7
 10
-493.89962422388771
 20
372.5788475772934
 30
0.0
  0
VERTEX
  5
6BB
  8
DATA
 62
     7
 10
-493.2218610908098
 20
372.7890041164311
 30
0.0
  0
VERTEX
  5
6BC
  8
DATA
 62
     7
 10
-492.58087653698942
 20
373.01754994519757
 30
0.0
  0
VERTEX
  5
6BD
  8
DATA
 62
     7
 10
-491.97667056242648
 20
373.26448506359282
 30
0.0
  0
VERTEX
  5
6BE
  8
DATA
 62
     7
 10
-491.40924316712102
 20
373.52980947161677
 30
0.0
  0
VERTEX
  5
6BF
  8
DATA
 62
     7
 10
-490.8785943510731
 20
373.81352316926939
 30
0.0
  0
VERTEX
  5
6C0
  8
DATA
 62
     7
 10
-490.38472411428279
 20
374.11562615655089
 30
0.0
  0
VERTEX
  5
6C1
  8
DATA
 62
     7
 10
-489.92763245674968
 20
374.43611843346122
 30
0.0
  0
VERTEX
  5
6C2
  8
DATA
 62
     7
 10
-489.50731937847451
 20
374.77499999999998
 30
0.0
  0
VERTEX
  5
6C3
  8
DATA
 62
     7
 10
-489.50731937847451
 20
374.77499999999998
 30
0.0
  0
VERTEX
  5
6C4
  8
DATA
 62
     7
 10
-489.13051582661819
 20
375.12644168493421
 30
0.0
  0
VERTEX
  5
6C5
  8
DATA
 62
     7
 10
-488.80395274834268
 20
375.48461431703009
 30
0.0
  0
VERTEX
  5
6C6
  8
DATA
 62
     7
 10
-488.5276301436482
 20
375.84951789628752
 30
0.0
  0
VERTEX
  5
6C7
  8
DATA
 62
     7
 10
-488.3015480125344
 20
376.22115242270661
 30
0.0
  0
VERTEX
  5
6C8
  8
DATA
 62
     7
 10
-488.12570635500128
 20
376.59951789628752
 30
0.0
  0
VERTEX
  5
6C9
  8
DATA
 62
     7
 10
-488.00010517104943
 20
376.98461431702998
 30
0.0
  0
VERTEX
  5
6CA
  8
DATA
 62
     7
 10
-487.92474446067808
 20
377.37644168493421
 30
0.0
  0
VERTEX
  5
6CB
  8
DATA
 62
     7
 10
-487.8996242238876
 20
377.77499999999998
 30
0.0
  0
VERTEX
  5
6CC
  8
DATA
 62
     7
 10
-487.8996242238876
 20
377.77499999999998
 30
0.0
  0
VERTEX
  5
6CD
  8
DATA
 62
     7
 10
-487.92474446067808
 20
378.17355831506592
 30
0.0
  0
VERTEX
  5
6CE
  8
DATA
 62
     7
 10
-488.00010517104943
 20
378.56538568296997
 30
0.0
  0
VERTEX
  5
6CF
  8
DATA
 62
     7
 10
-488.12570635500128
 20
378.9504821037126
 30
0.0
  0
VERTEX
  5
6D0
  8
DATA
 62
     7
 10
-488.3015480125344
 20
379.3288475772934
 30
0.0
  0
VERTEX
  5
6D1
  8
DATA
 62
     7
 10
-488.5276301436482
 20
379.7004821037126
 30
0.0
  0
VERTEX
  5
6D2
  8
DATA
 62
     7
 10
-488.80395274834268
 20
380.06538568296997
 30
0.0
  0
VERTEX
  5
6D3
  8
DATA
 62
     7
 10
-489.13051582661819
 20
380.42355831506592
 30
0.0
  0
VERTEX
  5
6D4
  8
DATA
 62
     7
 10
-489.50731937847451
 20
380.77499999999998
 30
0.0
  0
VERTEX
  5
6D5
  8
DATA
 62
     7
 10
-489.50731937847451
 20
380.77499999999998
 30
0.0
  0
VERTEX
  5
6D6
  8
DATA
 62
     7
 10
-489.92763245674968
 20
381.11388156653891
 30
0.0
  0
VERTEX
  5
6D7
  8
DATA
 62
     7
 10
-490.38472411428279
 20
381.43437384344918
 30
0.0
  0
VERTEX
  5
6D8
  8
DATA
 62
     7
 10
-490.8785943510731
 20
381.73647683073062
 30
0.0
  0
VERTEX
  5
6D9
  8
DATA
 62
     7
 10
-491.40924316712102
 20
382.02019052838341
 30
0.0
  0
VERTEX
  5
6DA
  8
DATA
 62
     7
 10
-491.97667056242648
 20
382.28551493640731
 30
0.0
  0
VERTEX
  5
6DB
  8
DATA
 62
     7
 10
-492.58087653698942
 20
382.5324500548025
 30
0.0
  0
VERTEX
  5
6DC
  8
DATA
 62
     7
 10
-493.2218610908098
 20
382.76099588356902
 30
0.0
  0
VERTEX
  5
6DD
  8
DATA
 62
     7
 10
-493.89962422388771
 20
382.97115242270661
 30
0.0
  0
VERTEX
  5
6DE
  8
DATA
 62
     7
 10
-493.89962422388771
 20
382.97115242270661
 30
0.0
  0
VERTEX
  5
6DF
  8
DATA
 62
     7
 10
-494.60250759375589
 20
383.15955419863479
 30
0.0
  0
VERTEX
  5
6E0
  8
DATA
 62
     7
 10
-495.3188528579476
 20
383.32283573777261
 30
0.0
  0
VERTEX
  5
6E1
  8
DATA
 62
     7
 10
-496.04866001646258
 20
383.46099704011971
 30
0.0
  0
VERTEX
  5
6E2
  8
DATA
 62
     7
 10
-496.79192906930092
 20
383.57403810567672
 30
0.0
  0
VERTEX
  5
6E3
  8
DATA
 62
     7
 10
-497.54866001646258
 20
383.66195893444319
 30
0.0
  0
VERTEX
  5
6E4
  8
DATA
 62
     7
 10
-498.3188528579476
 20
383.72475952641918
 30
0.0
  0
VERTEX
  5
6E5
  8
DATA
 62
     7
 10
-499.10250759375589
 20
383.76243988160479
 30
0.0
  0
VERTEX
  5
6E6
  8
DATA
 62
     7
 10
-499.8996242238876
 20
383.77499999999998
 30
0.0
  0
VERTEX
  5
6E7
  8
DATA
 62
     7
 10
-499.8996242238876
 20
383.77499999999998
 30
0.0
  0
VERTEX
  5
6E8
  8
DATA
 62
     7
 10
-499.91218269898701
 20
383.77499693356492
 30
0.0
  0
VERTEX
  5
6E9
  8
DATA
 62
     7
 10
-499.92473788749049
 20
383.77498773425941
 30
0.0
  0
VERTEX
  5
6EA
  8
DATA
 62
     7
 10
-499.93728978939828
 20
383.77497240208362
 30
0.0
  0
VERTEX
  5
6EB
  8
DATA
 62
     7
 10
-499.94983840471031
 20
383.77495093703772
 30
0.0
  0
VERTEX
  5
6EC
  8
DATA
 62
     7
 10
-499.96238373342629
 20
383.77492333912107
 30
0.0
  0
VERTEX
  5
6ED
  8
DATA
 62
     7
 10
-499.97492577554681
 20
383.77488960833438
 30
0.0
  0
VERTEX
  5
6EE
  8
DATA
 62
     7
 10
-499.98746453107123
 20
383.77484974467728
 30
0.0
  0
VERTEX
  5
6EF
  8
DATA
 62
     7
 10
-500.0
 20
383.77480374815002
 30
0.0
  0
VERTEX
  5
6F0
  8
DATA
 62
     7
 10
-500.0
 20
383.77480374815002
 30
0.0
  0
SEQEND
  5
6F1
  8
DATA
 62
     7
  0
LINE
  5
314
  8
DATA
 62
     7
 10
-496.49999999999989
 20
327.56707231504367
 30
0.0
 11
-496.49999999999989
 21
327.62215469414849
 31
0.0
  0
LINE
  5
315
  8
DATA
 62
     7
 10
-496.49999999999989
 20
339.06392488682877
 30
0.0
 11
-496.49999999999989
 21
339.11376906321959
 31
0.0
  0
POLYLINE
  5
316
  8
DATA
 62
     7
 66
     1
 10
0.0
 20
0.0
 30
0.0
 70
   128
  0
VERTEX
  5
6F2
  8
DATA
 62
     7
 10
-500.0
 20
323.32532708641662
 30
0.0
  0
VERTEX
  5
6F3
  8
DATA
 62
     7
 10
-499.9874645310698
 20
323.32525042553772
 30
0.0
  0
VERTEX
  5
6F4
  8
DATA
 62
     7
 10
-499.97492577554419
 20
323.32518398610921
 30
0.0
  0
VERTEX
  5
6F5
  8
DATA
 62
     7
 10
-499.96238373342311
 20
323.32512776813138
 30
0.0
  0
VERTEX
  5
6F6
  8
DATA
 62
     7
 10
-499.94983840470678
 20
323.32508177160412
 30
0.0
  0
VERTEX
  5
6F7
  8
DATA
 62
     7
 10
-499.93728978939509
 20
323.32504599652719
 30
0.0
  0
VERTEX
  5
6F8
  8
DATA
 62
     7
 10
-499.92473788748799
 20
323.32502044290101
 30
0.0
  0
VERTEX
  5
6F9
  8
DATA
 62
     7
 10
-499.91218269898548
 20
323.32500511072521
 30
0.0
  0
VERTEX
  5
6FA
  8
DATA
 62
     7
 10
-499.8996242238876
 20
323.32499999999999
 30
0.0
  0
VERTEX
  5
6FB
  8
DATA
 62
     7
 10
-499.8996242238876
 20
323.32499999999999
 30
0.0
  0
VERTEX
  5
6FC
  8
DATA
 62
     7
 10
-499.10250759375589
 20
323.34593353065873
 30
0.0
  0
VERTEX
  5
6FD
  8
DATA
 62
     7
 10
-498.3188528579476
 20
323.40873412263471
 30
0.0
  0
VERTEX
  5
6FE
  8
DATA
 62
     7
 10
-497.54866001646258
 20
323.51340177592812
 30
0.0
  0
VERTEX
  5
6FF
  8
DATA
 62
     7
 10
-496.79192906930092
 20
323.65993649053888
 30
0.0
  0
VERTEX
  5
700
  8
DATA
 62
     7
 10
-496.04866001646258
 20
323.84833826646701
 30
0.0
  0
VERTEX
  5
701
  8
DATA
 62
     7
 10
-495.3188528579476
 20
324.0786071037125
 30
0.0
  0
VERTEX
  5
702
  8
DATA
 62
     7
 10
-494.60250759375589
 20
324.35074300227541
 30
0.0
  0
VERTEX
  5
703
  8
DATA
 62
     7
 10
-493.89962422388771
 20
324.66474596215562
 30
0.0
  0
VERTEX
  5
704
  8
DATA
 62
     7
 10
-493.89962422388771
 20
324.66474596215562
 30
0.0
  0
VERTEX
  5
705
  8
DATA
 62
     7
 10
-493.2218610908098
 20
325.01500686071847
 30
0.0
  0
VERTEX
  5
706
  8
DATA
 62
     7
 10
-492.58087653698942
 20
325.39591657532918
 30
0.0
  0
VERTEX
  5
707
  8
DATA
 62
     7
 10
-491.97667056242648
 20
325.80747510598792
 30
0.0
  0
VERTEX
  5
708
  8
DATA
 62
     7
 10
-491.40924316712102
 20
326.24968245269451
 30
0.0
  0
VERTEX
  5
709
  8
DATA
 62
     7
 10
-490.8785943510731
 20
326.72253861544908
 30
0.0
  0
VERTEX
  5
70A
  8
DATA
 62
     7
 10
-490.38472411428279
 20
327.22604359425151
 30
0.0
  0
VERTEX
  5
70B
  8
DATA
 62
     7
 10
-489.92763245674968
 20
327.76019738910168
 30
0.0
  0
VERTEX
  5
70C
  8
DATA
 62
     7
 10
-489.50731937847451
 20
328.32499999999999
 30
0.0
  0
VERTEX
  5
70D
  8
DATA
 62
     7
 10
-489.50731937847451
 20
328.32499999999999
 30
0.0
  0
VERTEX
  5
70E
  8
DATA
 62
     7
 10
-489.13051582661819
 20
328.91073614155692
 30
0.0
  0
VERTEX
  5
70F
  8
DATA
 62
     7
 10
-488.80395274834268
 20
329.50769052838331
 30
0.0
  0
VERTEX
  5
710
  8
DATA
 62
     7
 10
-488.5276301436482
 20
330.11586316047919
 30
0.0
  0
VERTEX
  5
711
  8
DATA
 62
     7
 10
-488.3015480125344
 20
330.73525403784441
 30
0.0
  0
VERTEX
  5
712
  8
DATA
 62
     7
 10
-488.12570635500128
 20
331.36586316047919
 30
0.0
  0
VERTEX
  5
713
  8
DATA
 62
     7
 10
-488.00010517104943
 20
332.00769052838331
 30
0.0
  0
VERTEX
  5
714
  8
DATA
 62
     7
 10
-487.92474446067808
 20
332.66073614155692
 30
0.0
  0
VERTEX
  5
715
  8
DATA
 62
     7
 10
-487.8996242238876
 20
333.32499999999999
 30
0.0
  0
VERTEX
  5
716
  8
DATA
 62
     7
 10
-487.8996242238876
 20
333.32499999999999
 30
0.0
  0
VERTEX
  5
717
  8
DATA
 62
     7
 10
-487.92474446067808
 20
333.989263858443
 30
0.0
  0
VERTEX
  5
718
  8
DATA
 62
     7
 10
-488.00010517104943
 20
334.64230947161673
 30
0.0
  0
VERTEX
  5
719
  8
DATA
 62
     7
 10
-488.12570635500128
 20
335.28413683952078
 30
0.0
  0
VERTEX
  5
71A
  8
DATA
 62
     7
 10
-488.3015480125344
 20
335.91474596215562
 30
0.0
  0
VERTEX
  5
71B
  8
DATA
 62
     7
 10
-488.5276301436482
 20
336.53413683952078
 30
0.0
  0
VERTEX
  5
71C
  8
DATA
 62
     7
 10
-488.80395274834268
 20
337.14230947161673
 30
0.0
  0
VERTEX
  5
71D
  8
DATA
 62
     7
 10
-489.13051582661819
 20
337.73926385844311
 30
0.0
  0
VERTEX
  5
71E
  8
DATA
 62
     7
 10
-489.50731937847451
 20
338.32499999999999
 30
0.0
  0
VERTEX
  5
71F
  8
DATA
 62
     7
 10
-489.50731937847451
 20
338.32499999999999
 30
0.0
  0
VERTEX
  5
720
  8
DATA
 62
     7
 10
-489.92763245674968
 20
338.8898026108983
 30
0.0
  0
VERTEX
  5
721
  8
DATA
 62
     7
 10
-490.38472411428279
 20
339.42395640574853
 30
0.0
  0
VERTEX
  5
722
  8
DATA
 62
     7
 10
-490.8785943510731
 20
339.92746138455101
 30
0.0
  0
VERTEX
  5
723
  8
DATA
 62
     7
 10
-491.40924316712102
 20
340.40031754730552
 30
0.0
  0
VERTEX
  5
724
  8
DATA
 62
     7
 10
-491.97667056242648
 20
340.84252489401212
 30
0.0
  0
VERTEX
  5
725
  8
DATA
 62
     7
 10
-492.58087653698942
 20
341.2540834246708
 30
0.0
  0
VERTEX
  5
726
  8
DATA
 62
     7
 10
-493.2218610908098
 20
341.63499313928151
 30
0.0
  0
VERTEX
  5
727
  8
DATA
 62
     7
 10
-493.89962422388771
 20
341.98525403784441
 30
0.0
  0
VERTEX
  5
728
  8
DATA
 62
     7
 10
-493.89962422388771
 20
341.98525403784441
 30
0.0
  0
VERTEX
  5
729
  8
DATA
 62
     7
 10
-494.60250759375589
 20
342.29925699772463
 30
0.0
  0
VERTEX
  5
72A
  8
DATA
 62
     7
 10
-495.3188528579476
 20
342.57139289628742
 30
0.0
  0
VERTEX
  5
72B
  8
DATA
 62
     7
 10
-496.04866001646258
 20
342.80166173353302
 30
0.0
  0
VERTEX
  5
72C
  8
DATA
 62
     7
 10
-496.79192906930092
 20
342.99006350946109
 30
0.0
  0
VERTEX
  5
72D
  8
DATA
 62
     7
 10
-497.54866001646258
 20
343.1365982240718
 30
0.0
  0
VERTEX
  5
72E
  8
DATA
 62
     7
 10
-498.3188528579476
 20
343.24126587736532
 30
0.0
  0
VERTEX
  5
72F
  8
DATA
 62
     7
 10
-499.10250759375589
 20
343.30406646934119
 30
0.0
  0
VERTEX
  5
730
  8
DATA
 62
     7
 10
-499.8996242238876
 20
343.32499999999999
 30
0.0
  0
VERTEX
  5
731
  8
DATA
 62
     7
 10
-499.8996242238876
 20
343.32499999999999
 30
0.0
  0
VERTEX
  5
732
  8
DATA
 62
     7
 10
-499.91218269898548
 20
343.32499488927482
 30
0.0
  0
VERTEX
  5
733
  8
DATA
 62
     7
 10
-499.92473788748799
 20
343.32497955709891
 30
0.0
  0
VERTEX
  5
734
  8
DATA
 62
     7
 10
-499.93728978939509
 20
343.32495400347273
 30
0.0
  0
VERTEX
  5
735
  8
DATA
 62
     7
 10
-499.94983840470678
 20
343.3249182283958
 30
0.0
  0
VERTEX
  5
736
  8
DATA
 62
     7
 10
-499.96238373342311
 20
343.3248722318686
 30
0.0
  0
VERTEX
  5
737
  8
DATA
 62
     7
 10
-499.97492577554419
 20
343.3248160138906
 30
0.0
  0
VERTEX
  5
738
  8
DATA
 62
     7
 10
-499.9874645310698
 20
343.32474957446232
 30
0.0
  0
VERTEX
  5
739
  8
DATA
 62
     7
 10
-500.0
 20
343.3246729135833
 30
0.0
  0
VERTEX
  5
73A
  8
DATA
 62
     7
 10
-500.0
 20
343.3246729135833
 30
0.0
  0
SEQEND
  5
73B
  8
DATA
 62
     7
  0
POLYLINE
  5
361
  8
DATA
 62
     7
 66
     1
 10
0.0
 20
0.0
 30
0.0
 70
   128
  0
VERTEX
  5
73C
  8
DATA
 62
     7
 10
-500.0
 20
327.32519625184989
 30
0.0
  0
VERTEX
  5
73D
  8
DATA
 62
     7
 10
-499.98746453106958
 20
327.32515025532263
 30
0.0
  0
VERTEX
  5
73E
  8
DATA
 62
     7
 10
-499.97492577554402
 20
327.32511039166559
 30
0.0
  0
VERTEX
  5
73F
  8
DATA
 62
     7
 10
-499.96238373342283
 20
327.32507666087878
 30
0.0
  0
VERTEX
  5
740
  8
DATA
 62
     7
 10
-499.9498384047065
 20
327.32504906296248
 30
0.0
  0
VERTEX
  5
741
  8
DATA
 62
     7
 10
-499.93728978939492
 20
327.32502759791629
 30
0.0
  0
VERTEX
  5
742
  8
DATA
 62
     7
 10
-499.92473788748771
 20
327.32501226574061
 30
0.0
  0
VERTEX
  5
743
  8
DATA
 62
     7
 10
-499.91218269898548
 20
327.32500306643522
 30
0.0
  0
VERTEX
  5
744
  8
DATA
 62
     7
 10
-499.8996242238876
 20
327.32499999999999
 30
0.0
  0
VERTEX
  5
745
  8
DATA
 62
     7
 10
-499.8996242238876
 20
327.32499999999999
 30
0.0
  0
VERTEX
  5
746
  8
DATA
 62
     7
 10
-499.10250759375589
 20
327.33756011839517
 30
0.0
  0
VERTEX
  5
747
  8
DATA
 62
     7
 10
-498.3188528579476
 20
327.37524047358079
 30
0.0
  0
VERTEX
  5
748
  8
DATA
 62
     7
 10
-497.54866001646258
 20
327.43804106555677
 30
0.0
  0
VERTEX
  5
749
  8
DATA
 62
     7
 10
-496.79192906930092
 20
327.52596189432342
 30
0.0
  0
VERTEX
  5
74A
  8
DATA
 62
     7
 10
-496.04866001646258
 20
327.6390029598802
 30
0.0
  0
VERTEX
  5
74B
  8
DATA
 62
     7
 10
-495.3188528579476
 20
327.77716426222747
 30
0.0
  0
VERTEX
  5
74C
  8
DATA
 62
     7
 10
-494.60250759375589
 20
327.94044580136517
 30
0.0
  0
VERTEX
  5
74D
  8
DATA
 62
     7
 10
-493.89962422388771
 20
328.1288475772933
 30
0.0
  0
VERTEX
  5
74E
  8
DATA
 62
     7
 10
-493.89962422388771
 20
328.1288475772933
 30
0.0
  0
VERTEX
  5
74F
  8
DATA
 62
     7
 10
-493.2218610908098
 20
328.339004116431
 30
0.0
  0
VERTEX
  5
750
  8
DATA
 62
     7
 10
-492.58087653698942
 20
328.56754994519758
 30
0.0
  0
VERTEX
  5
751
  8
DATA
 62
     7
 10
-491.97667056242648
 20
328.81448506359283
 30
0.0
  0
VERTEX
  5
752
  8
DATA
 62
     7
 10
-491.40924316712102
 20
329.07980947161673
 30
0.0
  0
VERTEX
  5
753
  8
DATA
 62
     7
 10
-490.8785943510731
 20
329.3635231692694
 30
0.0
  0
VERTEX
  5
754
  8
DATA
 62
     7
 10
-490.38472411428279
 20
329.66562615655079
 30
0.0
  0
VERTEX
  5
755
  8
DATA
 62
     7
 10
-489.92763245674968
 20
329.98611843346112
 30
0.0
  0
VERTEX
  5
756
  8
DATA
 62
     7
 10
-489.50731937847451
 20
330.32499999999999
 30
0.0
  0
VERTEX
  5
757
  8
DATA
 62
     7
 10
-489.50731937847451
 20
330.32499999999999
 30
0.0
  0
VERTEX
  5
758
  8
DATA
 62
     7
 10
-489.13051582661819
 20
330.67644168493422
 30
0.0
  0
VERTEX
  5
759
  8
DATA
 62
     7
 10
-488.80395274834268
 20
331.03461431702999
 30
0.0
  0
VERTEX
  5
75A
  8
DATA
 62
     7
 10
-488.5276301436482
 20
331.39951789628742
 30
0.0
  0
VERTEX
  5
75B
  8
DATA
 62
     7
 10
-488.3015480125344
 20
331.77115242270662
 30
0.0
  0
VERTEX
  5
75C
  8
DATA
 62
     7
 10
-488.12570635500128
 20
332.14951789628742
 30
0.0
  0
VERTEX
  5
75D
  8
DATA
 62
     7
 10
-488.00010517104943
 20
332.53461431702999
 30
0.0
  0
VERTEX
  5
75E
  8
DATA
 62
     7
 10
-487.92474446067808
 20
332.92644168493422
 30
0.0
  0
VERTEX
  5
75F
  8
DATA
 62
     7
 10
-487.8996242238876
 20
333.32499999999999
 30
0.0
  0
VERTEX
  5
760
  8
DATA
 62
     7
 10
-487.8996242238876
 20
333.32499999999999
 30
0.0
  0
VERTEX
  5
761
  8
DATA
 62
     7
 10
-487.92474446067808
 20
333.72355831506582
 30
0.0
  0
VERTEX
  5
762
  8
DATA
 62
     7
 10
-488.00010517104943
 20
334.11538568296999
 30
0.0
  0
VERTEX
  5
763
  8
DATA
 62
     7
 10
-488.12570635500128
 20
334.50048210371261
 30
0.0
  0
VERTEX
  5
764
  8
DATA
 62
     7
 10
-488.3015480125344
 20
334.87884757729341
 30
0.0
  0
VERTEX
  5
765
  8
DATA
 62
     7
 10
-488.5276301436482
 20
335.2504821037125
 30
0.0
  0
VERTEX
  5
766
  8
DATA
 62
     7
 10
-488.80395274834268
 20
335.61538568296999
 30
0.0
  0
VERTEX
  5
767
  8
DATA
 62
     7
 10
-489.13051582661819
 20
335.97355831506582
 30
0.0
  0
VERTEX
  5
768
  8
DATA
 62
     7
 10
-489.50731937847451
 20
336.32499999999999
 30
0.0
  0
VERTEX
  5
769
  8
DATA
 62
     7
 10
-489.50731937847451
 20
336.32499999999999
 30
0.0
  0
VERTEX
  5
76A
  8
DATA
 62
     7
 10
-489.92763245674968
 20
336.66388156653892
 30
0.0
  0
VERTEX
  5
76B
  8
DATA
 62
     7
 10
-490.38472411428279
 20
336.98437384344919
 30
0.0
  0
VERTEX
  5
76C
  8
DATA
 62
     7
 10
-490.8785943510731
 20
337.28647683073058
 30
0.0
  0
VERTEX
  5
76D
  8
DATA
 62
     7
 10
-491.40924316712102
 20
337.57019052838331
 30
0.0
  0
VERTEX
  5
76E
  8
DATA
 62
     7
 10
-491.97667056242648
 20
337.83551493640721
 30
0.0
  0
VERTEX
  5
76F
  8
DATA
 62
     7
 10
-492.58087653698942
 20
338.08245005480239
 30
0.0
  0
VERTEX
  5
770
  8
DATA
 62
     7
 10
-493.2218610908098
 20
338.31099588356892
 30
0.0
  0
VERTEX
  5
771
  8
DATA
 62
     7
 10
-493.89962422388771
 20
338.52115242270662
 30
0.0
  0
VERTEX
  5
772
  8
DATA
 62
     7
 10
-493.89962422388771
 20
338.52115242270662
 30
0.0
  0
VERTEX
  5
773
  8
DATA
 62
     7
 10
-494.60250759375589
 20
338.70955419863481
 30
0.0
  0
VERTEX
  5
774
  8
DATA
 62
     7
 10
-495.3188528579476
 20
338.8728357377725
 30
0.0
  0
VERTEX
  5
775
  8
DATA
 62
     7
 10
-496.04866001646258
 20
339.01099704011972
 30
0.0
  0
VERTEX
  5
776
  8
DATA
 62
     7
 10
-496.79192906930092
 20
339.12403810567662
 30
0.0
  0
VERTEX
  5
777
  8
DATA
 62
     7
 10
-497.54866001646258
 20
339.2119589344432
 30
0.0
  0
VERTEX
  5
778
  8
DATA
 62
     7
 10
-498.3188528579476
 20
339.27475952641919
 30
0.0
  0
VERTEX
  5
779
  8
DATA
 62
     7
 10
-499.10250759375589
 20
339.31243988160469
 30
0.0
  0
VERTEX
  5
77A
  8
DATA
 62
     7
 10
-499.8996242238876
 20
339.32499999999999
 30
0.0
  0
VERTEX
  5
77B
  8
DATA
 62
     7
 10
-499.8996242238876
 20
339.32499999999999
 30
0.0
  0
VERTEX
  5
77C
  8
DATA
 62
     7
 10
-499.91218269898701
 20
339.32499693356482
 30
0.0
  0
VERTEX
  5
77D
  8
DATA
 62
     7
 10
-499.92473788749049
 20
339.32498773425942
 30
0.0
  0
VERTEX
  5
77E
  8
DATA
 62
     7
 10
-499.93728978939828
 20
339.32497240208369
 30
0.0
  0
VERTEX
  5
77F
  8
DATA
 62
     7
 10
-499.94983840471031
 20
339.3249509370375
 30
0.0
  0
VERTEX
  5
780
  8
DATA
 62
     7
 10
-499.96238373342629
 20
339.3249233391212
 30
0.0
  0
VERTEX
  5
781
  8
DATA
 62
     7
 10
-499.97492577554681
 20
339.32488960833439
 30
0.0
  0
VERTEX
  5
782
  8
DATA
 62
     7
 10
-499.98746453107123
 20
339.32484974467741
 30
0.0
  0
VERTEX
  5
783
  8
DATA
 62
     7
 10
-500.0
 20
339.32480374815009
 30
0.0
  0
VERTEX
  5
784
  8
DATA
 62
     7
 10
-500.0
 20
339.32480374815009
 30
0.0
  0
SEQEND
  5
785
  8
DATA
 62
     7
  0
LINE
  5
3AC
  8
DATA
 62
     7
 10
102.99600000000009
 20
317.4500000000001
 30
0.0
 11
102.99600000000009
 21
393.64999999999998
 31
0.0
  0
LINE
  5
3AD
  8
DATA
 62
     7
 10
102.99600000000009
 20
317.4500000000001
 30
0.0
 11
93.597999999999942
 21
317.4500000000001
 31
0.0
  0
LINE
  5
3AE
  8
DATA
 62
     7
 10
102.99600000000009
 20
393.64999999999998
 30
0.0
 11
93.597999999999942
 21
393.64999999999998
 31
0.0
  0
LINE
  5
3AF
  8
DATA
 62
     7
 10
93.597999999999942
 20
311.10000000000002
 30
0.0
 11
93.597999999999942
 21
317.4500000000001
 31
0.0
  0
LINE
  5
3B0
  8
DATA
 62
     7
 10
93.597999999999942
 20
393.64999999999998
 30
0.0
 11
93.597999999999942
 21
400.0
 31
0.0
  0
LINE
  5
3B1
  8
DATA
 62
     7
 10
99.951999999999984
 20
317.4500000000001
 30
0.0
 11
99.951999999999984
 21
393.64999999999998
 31
0.0
  0
LINE
  5
3B2
  8
DATA
 62
     7
 10
99.496000000000095
 20
372.01707231504372
 30
0.0
 11
99.496000000000095
 21
372.07215469414848
 31
0.0
  0
LINE
  5
3B3
  8
DATA
 62
     7
 10
99.496000000000095
 20
383.51392488682882
 30
0.0
 11
99.496000000000095
 21
383.56376906321958
 31
0.0
  0
POLYLINE
  5
3B4
  8
DATA
 62
     7
 66
     1
 10
0.0
 20
0.0
 30
0.0
 70
   128
  0
VERTEX
  5
786
  8
DATA
 62
     7
 10
102.99600000000009
 20
367.77532708641661
 30
0.0
  0
VERTEX
  5
787
  8
DATA
 62
     7
 10
102.9834645310698
 20
367.77525042553771
 30
0.0
  0
VERTEX
  5
788
  8
DATA
 62
     7
 10
102.9709257755442
 20
367.7751839861092
 30
0.0
  0
VERTEX
  5
789
  8
DATA
 62
     7
 10
102.9583837334232
 20
367.77512776813143
 30
0.0
  0
VERTEX
  5
78A
  8
DATA
 62
     7
 10
102.9458384047069
 20
367.77508177160422
 30
0.0
  0
VERTEX
  5
78B
  8
DATA
 62
     7
 10
102.9332897893952
 20
367.77504599652741
 30
0.0
  0
VERTEX
  5
78C
  8
DATA
 62
     7
 10
102.9207378874881
 20
367.77502044290111
 30
0.0
  0
VERTEX
  5
78D
  8
DATA
 62
     7
 10
102.9081826989856
 20
367.77500511072532
 30
0.0
  0
VERTEX
  5
78E
  8
DATA
 62
     7
 10
102.89562422388779
 20
367.77499999999998
 30
0.0
  0
VERTEX
  5
78F
  8
DATA
 62
     7
 10
102.89562422388779
 20
367.77499999999998
 30
0.0
  0
VERTEX
  5
790
  8
DATA
 62
     7
 10
102.0985075937561
 20
367.79593353065871
 30
0.0
  0
VERTEX
  5
791
  8
DATA
 62
     7
 10
101.3148528579477
 20
367.85873412263481
 30
0.0
  0
VERTEX
  5
792
  8
DATA
 62
     7
 10
100.5446600164627
 20
367.96340177592822
 30
0.0
  0
VERTEX
  5
793
  8
DATA
 62
     7
 10
99.787929069301057
 20
368.10993649053893
 30
0.0
  0
VERTEX
  5
794
  8
DATA
 62
     7
 10
99.044660016462728
 20
368.29833826646711
 30
0.0
  0
VERTEX
  5
795
  8
DATA
 62
     7
 10
98.314852857947727
 20
368.5286071037126
 30
0.0
  0
VERTEX
  5
796
  8
DATA
 62
     7
 10
97.598507593756096
 20
368.8007430022754
 30
0.0
  0
VERTEX
  5
797
  8
DATA
 62
     7
 10
96.895624223887822
 20
369.11474596215561
 30
0.0
  0
VERTEX
  5
798
  8
DATA
 62
     7
 10
96.895624223887822
 20
369.11474596215561
 30
0.0
  0
VERTEX
  5
799
  8
DATA
 62
     7
 10
96.217861090809905
 20
369.46500686071852
 30
0.0
  0
VERTEX
  5
79A
  8
DATA
 62
     7
 10
95.576876536989502
 20
369.84591657532923
 30
0.0
  0
VERTEX
  5
79B
  8
DATA
 62
     7
 10
94.972670562426586
 20
370.25747510598791
 30
0.0
  0
VERTEX
  5
79C
  8
DATA
 62
     7
 10
94.405243167121156
 20
370.6996824526945
 30
0.0
  0
VERTEX
  5
79D
  8
DATA
 62
     7
 10
93.874594351073213
 20
371.1725386154489
 30
0.0
  0
VERTEX
  5
79E
  8
DATA
 62
     7
 10
93.380724114282756
 20
371.67604359425138
 30
0.0
  0
VERTEX
  5
79F
  8
DATA
 62
     7
 10
92.923632456749786
 20
372.21019738910172
 30
0.0
  0
VERTEX
  5
7A0
  8
DATA
 62
     7
 10
92.503319378474288
 20
372.77499999999998
 30
0.0
  0
VERTEX
  5
7A1
  8
DATA
 62
     7
 10
92.503319378474288
 20
372.77499999999998
 30
0.0
  0
VERTEX
  5
7A2
  8
DATA
 62
     7
 10
92.126515826618103
 20
373.36073614155691
 30
0.0
  0
VERTEX
  5
7A3
  8
DATA
 62
     7
 10
91.799952748342704
 20
373.95769052838341
 30
0.0
  0
VERTEX
  5
7A4
  8
DATA
 62
     7
 10
91.523630143648134
 20
374.56586316047913
 30
0.0
  0
VERTEX
  5
7A5
  8
DATA
 62
     7
 10
91.297548012534435
 20
375.1852540378444
 30
0.0
  0
VERTEX
  5
7A6
  8
DATA
 62
     7
 10
91.121706355001507
 20
375.81586316047913
 30
0.0
  0
VERTEX
  5
7A7
  8
DATA
 62
     7
 10
90.996105171049436
 20
376.45769052838341
 30
0.0
  0
VERTEX
  5
7A8
  8
DATA
 62
     7
 10
90.920744460678193
 20
377.11073614155691
 30
0.0
  0
VERTEX
  5
7A9
  8
DATA
 62
     7
 10
90.895624223887793
 20
377.77499999999998
 30
0.0
  0
VERTEX
  5
7AA
  8
DATA
 62
     7
 10
90.895624223887793
 20
377.77499999999998
 30
0.0
  0
VERTEX
  5
7AB
  8
DATA
 62
     7
 10
90.920744460678193
 20
378.4392638584431
 30
0.0
  0
VERTEX
  5
7AC
  8
DATA
 62
     7
 10
90.996105171049436
 20
379.09230947161677
 30
0.0
  0
VERTEX
  5
7AD
  8
DATA
 62
     7
 10
91.121706355001507
 20
379.73413683952089
 30
0.0
  0
VERTEX
  5
7AE
  8
DATA
 62
     7
 10
91.297548012534435
 20
380.36474596215561
 30
0.0
  0
VERTEX
  5
7AF
  8
DATA
 62
     7
 10
91.523630143648134
 20
380.98413683952089
 30
0.0
  0
VERTEX
  5
7B0
  8
DATA
 62
     7
 10
91.799952748342704
 20
381.59230947161677
 30
0.0
  0
VERTEX
  5
7B1
  8
DATA
 62
     7
 10
92.126515826618103
 20
382.1892638584431
 30
0.0
  0
VERTEX
  5
7B2
  8
DATA
 62
     7
 10
92.503319378474288
 20
382.77499999999998
 30
0.0
  0
VERTEX
  5
7B3
  8
DATA
 62
     7
 10
92.503319378474288
 20
382.77499999999998
 30
0.0
  0
VERTEX
  5
7B4
  8
DATA
 62
     7
 10
92.923632456749786
 20
383.33980261089829
 30
0.0
  0
VERTEX
  5
7B5
  8
DATA
 62
     7
 10
93.380724114282756
 20
383.87395640574857
 30
0.0
  0
VERTEX
  5
7B6
  8
DATA
 62
     7
 10
93.874594351073213
 20
384.377461384551
 30
0.0
  0
VERTEX
  5
7B7
  8
DATA
 62
     7
 10
94.405243167121156
 20
384.85031754730551
 30
0.0
  0
VERTEX
  5
7B8
  8
DATA
 62
     7
 10
94.972670562426586
 20
385.29252489401199
 30
0.0
  0
VERTEX
  5
7B9
  8
DATA
 62
     7
 10
95.576876536989502
 20
385.70408342467073
 30
0.0
  0
VERTEX
  5
7BA
  8
DATA
 62
     7
 10
96.217861090809905
 20
386.08499313928138
 30
0.0
  0
VERTEX
  5
7BB
  8
DATA
 62
     7
 10
96.895624223887822
 20
386.4352540378444
 30
0.0
  0
VERTEX
  5
7BC
  8
DATA
 62
     7
 10
96.895624223887822
 20
386.4352540378444
 30
0.0
  0
VERTEX
  5
7BD
  8
DATA
 62
     7
 10
97.598507593756096
 20
386.74925699772461
 30
0.0
  0
VERTEX
  5
7BE
  8
DATA
 62
     7
 10
98.314852857947727
 20
387.02139289628752
 30
0.0
  0
VERTEX
  5
7BF
  8
DATA
 62
     7
 10
99.044660016462728
 20
387.25166173353301
 30
0.0
  0
VERTEX
  5
7C0
  8
DATA
 62
     7
 10
99.787929069301057
 20
387.44006350946108
 30
0.0
  0
VERTEX
  5
7C1
  8
DATA
 62
     7
 10
100.5446600164627
 20
387.58659822407191
 30
0.0
  0
VERTEX
  5
7C2
  8
DATA
 62
     7
 10
101.3148528579477
 20
387.6912658773652
 30
0.0
  0
VERTEX
  5
7C3
  8
DATA
 62
     7
 10
102.0985075937561
 20
387.7540664693413
 30
0.0
  0
VERTEX
  5
7C4
  8
DATA
 62
     7
 10
102.89562422388779
 20
387.77499999999998
 30
0.0
  0
VERTEX
  5
7C5
  8
DATA
 62
     7
 10
102.89562422388779
 20
387.77499999999998
 30
0.0
  0
VERTEX
  5
7C6
  8
DATA
 62
     7
 10
102.9081826989856
 20
387.77499488927481
 30
0.0
  0
VERTEX
  5
7C7
  8
DATA
 62
     7
 10
102.9207378874881
 20
387.7749795570989
 30
0.0
  0
VERTEX
  5
7C8
  8
DATA
 62
     7
 10
102.9332897893952
 20
387.77495400347283
 30
0.0
  0
VERTEX
  5
7C9
  8
DATA
 62
     7
 10
102.9458384047069
 20
387.7749182283959
 30
0.0
  0
VERTEX
  5
7CA
  8
DATA
 62
     7
 10
102.9583837334232
 20
387.77487223186853
 30
0.0
  0
VERTEX
  5
7CB
  8
DATA
 62
     7
 10
102.9709257755442
 20
387.7748160138907
 30
0.0
  0
VERTEX
  5
7CC
  8
DATA
 62
     7
 10
102.9834645310698
 20
387.77474957446231
 30
0.0
  0
VERTEX
  5
7CD
  8
DATA
 62
     7
 10
102.99600000000009
 20
387.7746729135834
 30
0.0
  0
VERTEX
  5
7CE
  8
DATA
 62
     7
 10
102.99600000000009
 20
387.7746729135834
 30
0.0
  0
SEQEND
  5
7CF
  8
DATA
 62
     7
  0
POLYLINE
  5
3FF
  8
DATA
 62
     7
 66
     1
 10
0.0
 20
0.0
 30
0.0
 70
   128
  0
VERTEX
  5
7D0
  8
DATA
 62
     7
 10
102.99600000000009
 20
371.77519625184982
 30
0.0
  0
VERTEX
  5
7D1
  8
DATA
 62
     7
 10
102.9834645310697
 20
371.7751502553225
 30
0.0
  0
VERTEX
  5
7D2
  8
DATA
 62
     7
 10
102.970925775544
 20
371.77511039166558
 30
0.0
  0
VERTEX
  5
7D3
  8
DATA
 62
     7
 10
102.95838373342291
 20
371.77507666087888
 30
0.0
  0
VERTEX
  5
7D4
  8
DATA
 62
     7
 10
102.94583840470651
 20
371.77504906296252
 30
0.0
  0
VERTEX
  5
7D5
  8
DATA
 62
     7
 10
102.93328978939491
 20
371.77502759791651
 30
0.0
  0
VERTEX
  5
7D6
  8
DATA
 62
     7
 10
102.9207378874878
 20
371.77501226574071
 30
0.0
  0
VERTEX
  5
7D7
  8
DATA
 62
     7
 10
102.9081826989855
 20
371.7750030664352
 30
0.0
  0
VERTEX
  5
7D8
  8
DATA
 62
     7
 10
102.89562422388779
 20
371.77499999999998
 30
0.0
  0
VERTEX
  5
7D9
  8
DATA
 62
     7
 10
102.89562422388779
 20
371.77499999999998
 30
0.0
  0
VERTEX
  5
7DA
  8
DATA
 62
     7
 10
102.0985075937561
 20
371.78756011839522
 30
0.0
  0
VERTEX
  5
7DB
  8
DATA
 62
     7
 10
101.3148528579477
 20
371.82524047358078
 30
0.0
  0
VERTEX
  5
7DC
  8
DATA
 62
     7
 10
100.5446600164627
 20
371.88804106555688
 30
0.0
  0
VERTEX
  5
7DD
  8
DATA
 62
     7
 10
99.787929069301057
 20
371.97596189432329
 30
0.0
  0
VERTEX
  5
7DE
  8
DATA
 62
     7
 10
99.044660016462728
 20
372.08900295988019
 30
0.0
  0
VERTEX
  5
7DF
  8
DATA
 62
     7
 10
98.314852857947727
 20
372.22716426222757
 30
0.0
  0
VERTEX
  5
7E0
  8
DATA
 62
     7
 10
97.598507593756096
 20
372.39044580136527
 30
0.0
  0
VERTEX
  5
7E1
  8
DATA
 62
     7
 10
96.895624223887822
 20
372.5788475772934
 30
0.0
  0
VERTEX
  5
7E2
  8
DATA
 62
     7
 10
96.895624223887822
 20
372.5788475772934
 30
0.0
  0
VERTEX
  5
7E3
  8
DATA
 62
     7
 10
96.217861090809905
 20
372.7890041164311
 30
0.0
  0
VERTEX
  5
7E4
  8
DATA
 62
     7
 10
95.576876536989502
 20
373.01754994519757
 30
0.0
  0
VERTEX
  5
7E5
  8
DATA
 62
     7
 10
94.972670562426586
 20
373.26448506359282
 30
0.0
  0
VERTEX
  5
7E6
  8
DATA
 62
     7
 10
94.405243167121156
 20
373.52980947161677
 30
0.0
  0
VERTEX
  5
7E7
  8
DATA
 62
     7
 10
93.874594351073213
 20
373.81352316926939
 30
0.0
  0
VERTEX
  5
7E8
  8
DATA
 62
     7
 10
93.380724114282756
 20
374.11562615655089
 30
0.0
  0
VERTEX
  5
7E9
  8
DATA
 62
     7
 10
92.923632456749786
 20
374.43611843346122
 30
0.0
  0
VERTEX
  5
7EA
  8
DATA
 62
     7
 10
92.503319378474288
 20
374.77499999999998
 30
0.0
  0
VERTEX
  5
7EB
  8
DATA
 62
     7
 10
92.503319378474288
 20
374.77499999999998
 30
0.0
  0
VERTEX
  5
7EC
  8
DATA
 62
     7
 10
92.126515826618103
 20
375.12644168493421
 30
0.0
  0
VERTEX
  5
7ED
  8
DATA
 62
     7
 10
91.799952748342704
 20
375.48461431703009
 30
0.0
  0
VERTEX
  5
7EE
  8
DATA
 62
     7
 10
91.523630143648134
 20
375.84951789628752
 30
0.0
  0
VERTEX
  5
7EF
  8
DATA
 62
     7
 10
91.297548012534435
 20
376.22115242270661
 30
0.0
  0
VERTEX
  5
7F0
  8
DATA
 62
     7
 10
91.121706355001507
 20
376.59951789628752
 30
0.0
  0
VERTEX
  5
7F1
  8
DATA
 62
     7
 10
90.996105171049436
 20
376.98461431702998
 30
0.0
  0
VERTEX
  5
7F2
  8
DATA
 62
     7
 10
90.920744460678193
 20
377.37644168493421
 30
0.0
  0
VERTEX
  5
7F3
  8
DATA
 62
     7
 10
90.895624223887793
 20
377.77499999999998
 30
0.0
  0
VERTEX
  5
7F4
  8
DATA
 62
     7
 10
90.895624223887793
 20
377.77499999999998
 30
0.0
  0
VERTEX
  5
7F5
  8
DATA
 62
     7
 10
90.920744460678193
 20
378.17355831506592
 30
0.0
  0
VERTEX
  5
7F6
  8
DATA
 62
     7
 10
90.996105171049436
 20
378.56538568296997
 30
0.0
  0
VERTEX
  5
7F7
  8
DATA
 62
     7
 10
91.121706355001507
 20
378.9504821037126
 30
0.0
  0
VERTEX
  5
7F8
  8
DATA
 62
     7
 10
91.297548012534435
 20
379.3288475772934
 30
0.0
  0
VERTEX
  5
7F9
  8
DATA
 62
     7
 10
91.523630143648134
 20
379.7004821037126
 30
0.0
  0
VERTEX
  5
7FA
  8
DATA
 62
     7
 10
91.799952748342704
 20
380.06538568296997
 30
0.0
  0
VERTEX
  5
7FB
  8
DATA
 62
     7
 10
92.126515826618103
 20
380.42355831506592
 30
0.0
  0
VERTEX
  5
7FC
  8
DATA
 62
     7
 10
92.503319378474288
 20
380.77499999999998
 30
0.0
  0
VERTEX
  5
7FD
  8
DATA
 62
     7
 10
92.503319378474288
 20
380.77499999999998
 30
0.0
  0
VERTEX
  5
7FE
  8
DATA
 62
     7
 10
92.923632456749786
 20
381.11388156653891
 30
0.0
  0
VERTEX
  5
7FF
  8
DATA
 62
     7
 10
93.380724114282756
 20
381.43437384344918
 30
0.0
  0
VERTEX
  5
800
  8
DATA
 62
     7
 10
93.874594351073213
 20
381.73647683073062
 30
0.0
  0
VERTEX
  5
801
  8
DATA
 62
     7
 10
94.405243167121156
 20
382.02019052838341
 30
0.0
  0
VERTEX
  5
802
  8
DATA
 62
     7
 10
94.972670562426586
 20
382.28551493640731
 30
0.0
  0
VERTEX
  5
803
  8
DATA
 62
     7
 10
95.576876536989502
 20
382.5324500548025
 30
0.0
  0
VERTEX
  5
804
  8
DATA
 62
     7
 10
96.217861090809905
 20
382.76099588356902
 30
0.0
  0
VERTEX
  5
805
  8
DATA
 62
     7
 10
96.895624223887822
 20
382.97115242270661
 30
0.0
  0
VERTEX
  5
806
  8
DATA
 62
     7
 10
96.895624223887822
 20
382.97115242270661
 30
0.0
  0
VERTEX
  5
807
  8
DATA
 62
     7
 10
97.598507593756096
 20
383.15955419863479
 30
0.0
  0
VERTEX
  5
808
  8
DATA
 62
     7
 10
98.314852857947727
 20
383.32283573777261
 30
0.0
  0
VERTEX
  5
809
  8
DATA
 62
     7
 10
99.044660016462728
 20
383.46099704011971
 30
0.0
  0
VERTEX
  5
80A
  8
DATA
 62
     7
 10
99.787929069301057
 20
383.57403810567672
 30
0.0
  0
VERTEX
  5
80B
  8
DATA
 62
     7
 10
100.5446600164627
 20
383.66195893444319
 30
0.0
  0
VERTEX
  5
80C
  8
DATA
 62
     7
 10
101.3148528579477
 20
383.72475952641918
 30
0.0
  0
VERTEX
  5
80D
  8
DATA
 62
     7
 10
102.0985075937561
 20
383.76243988160479
 30
0.0
  0
VERTEX
  5
80E
  8
DATA
 62
     7
 10
102.89562422388779
 20
383.77499999999998
 30
0.0
  0
VERTEX
  5
80F
  8
DATA
 62
     7
 10
102.89562422388779
 20
383.77499999999998
 30
0.0
  0
VERTEX
  5
810
  8
DATA
 62
     7
 10
102.9081826989871
 20
383.77499693356492
 30
0.0
  0
VERTEX
  5
811
  8
DATA
 62
     7
 10
102.9207378874905
 20
383.77498773425941
 30
0.0
  0
VERTEX
  5
812
  8
DATA
 62
     7
 10
102.9332897893983
 20
383.77497240208362
 30
0.0
  0
VERTEX
  5
813
  8
DATA
 62
     7
 10
102.9458384047102
 20
383.77495093703772
 30
0.0
  0
VERTEX
  5
814
  8
DATA
 62
     7
 10
102.9583837334263
 20
383.77492333912107
 30
0.0
  0
VERTEX
  5
815
  8
DATA
 62
     7
 10
102.9709257755467
 20
383.77488960833438
 30
0.0
  0
VERTEX
  5
816
  8
DATA
 62
     7
 10
102.98346453107131
 20
383.77484974467728
 30
0.0
  0
VERTEX
  5
817
  8
DATA
 62
     7
 10
102.99600000000009
 20
383.77480374815002
 30
0.0
  0
VERTEX
  5
818
  8
DATA
 62
     7
 10
102.99600000000009
 20
383.77480374815002
 30
0.0
  0
SEQEND
  5
819
  8
DATA
 62
     7
  0
LINE
  5
44A
  8
DATA
 62
     7
 10
99.496000000000095
 20
327.56707231504367
 30
0.0
 11
99.496000000000095
 21
327.62215469414849
 31
0.0
  0
LINE
  5
44B
  8
DATA
 62
     7
 10
99.496000000000095
 20
339.06392488682877
 30
0.0
 11
99.496000000000095
 21
339.11376906321959
 31
0.0
  0
POLYLINE
  5
44C
  8
DATA
 62
     7
 66
     1
 10
0.0
 20
0.0
 30
0.0
 70
   128
  0
VERTEX
  5
81A
  8
DATA
 62
     7
 10
102.99600000000009
 20
323.32532708641662
 30
0.0
  0
VERTEX
  5
81B
  8
DATA
 62
     7
 10
102.9834645310698
 20
323.32525042553772
 30
0.0
  0
VERTEX
  5
81C
  8
DATA
 62
     7
 10
102.9709257755442
 20
323.32518398610921
 30
0.0
  0
VERTEX
  5
81D
  8
DATA
 62
     7
 10
102.9583837334232
 20
323.32512776813138
 30
0.0
  0
VERTEX
  5
81E
  8
DATA
 62
     7
 10
102.9458384047069
 20
323.32508177160412
 30
0.0
  0
VERTEX
  5
81F
  8
DATA
 62
     7
 10
102.9332897893952
 20
323.32504599652719
 30
0.0
  0
VERTEX
  5
820
  8
DATA
 62
     7
 10
102.9207378874881
 20
323.32502044290101
 30
0.0
  0
VERTEX
  5
821
  8
DATA
 62
     7
 10
102.9081826989856
 20
323.32500511072521
 30
0.0
  0
VERTEX
  5
822
  8
DATA
 62
     7
 10
102.89562422388779
 20
323.32499999999999
 30
0.0
  0
VERTEX
  5
823
  8
DATA
 62
     7
 10
102.89562422388779
 20
323.32499999999999
 30
0.0
  0
VERTEX
  5
824
  8
DATA
 62
     7
 10
102.0985075937561
 20
323.34593353065873
 30
0.0
  0
VERTEX
  5
825
  8
DATA
 62
     7
 10
101.3148528579477
 20
323.40873412263471
 30
0.0
  0
VERTEX
  5
826
  8
DATA
 62
     7
 10
100.5446600164627
 20
323.51340177592812
 30
0.0
  0
VERTEX
  5
827
  8
DATA
 62
     7
 10
99.787929069301057
 20
323.65993649053888
 30
0.0
  0
VERTEX
  5
828
  8
DATA
 62
     7
 10
99.044660016462728
 20
323.84833826646701
 30
0.0
  0
VERTEX
  5
829
  8
DATA
 62
     7
 10
98.314852857947727
 20
324.0786071037125
 30
0.0
  0
VERTEX
  5
82A
  8
DATA
 62
     7
 10
97.598507593756096
 20
324.35074300227541
 30
0.0
  0
VERTEX
  5
82B
  8
DATA
 62
     7
 10
96.895624223887822
 20
324.66474596215562
 30
0.0
  0
VERTEX
  5
82C
  8
DATA
 62
     7
 10
96.895624223887822
 20
324.66474596215562
 30
0.0
  0
VERTEX
  5
82D
  8
DATA
 62
     7
 10
96.217861090809905
 20
325.01500686071847
 30
0.0
  0
VERTEX
  5
82E
  8
DATA
 62
     7
 10
95.576876536989502
 20
325.39591657532918
 30
0.0
  0
VERTEX
  5
82F
  8
DATA
 62
     7
 10
94.972670562426586
 20
325.80747510598792
 30
0.0
  0
VERTEX
  5
830
  8
DATA
 62
     7
 10
94.405243167121156
 20
326.24968245269451
 30
0.0
  0
VERTEX
  5
831
  8
DATA
 62
     7
 10
93.874594351073213
 20
326.72253861544908
 30
0.0
  0
VERTEX
  5
832
  8
DATA
 62
     7
 10
93.380724114282756
 20
327.22604359425151
 30
0.0
  0
VERTEX
  5
833
  8
DATA
 62
     7
 10
92.923632456749786
 20
327.76019738910168
 30
0.0
  0
VERTEX
  5
834
  8
DATA
 62
     7
 10
92.503319378474288
 20
328.32499999999999
 30
0.0
  0
VERTEX
  5
835
  8
DATA
 62
     7
 10
92.503319378474288
 20
328.32499999999999
 30
0.0
  0
VERTEX
  5
836
  8
DATA
 62
     7
 10
92.126515826618103
 20
328.91073614155692
 30
0.0
  0
VERTEX
  5
837
  8
DATA
 62
     7
 10
91.799952748342704
 20
329.50769052838331
 30
0.0
  0
VERTEX
  5
838
  8
DATA
 62
     7
 10
91.523630143648134
 20
330.11586316047919
 30
0.0
  0
VERTEX
  5
839
  8
DATA
 62
     7
 10
91.297548012534435
 20
330.73525403784441
 30
0.0
  0
VERTEX
  5
83A
  8
DATA
 62
     7
 10
91.121706355001507
 20
331.36586316047919
 30
0.0
  0
VERTEX
  5
83B
  8
DATA
 62
     7
 10
90.996105171049436
 20
332.00769052838331
 30
0.0
  0
VERTEX
  5
83C
  8
DATA
 62
     7
 10
90.920744460678193
 20
332.66073614155692
 30
0.0
  0
VERTEX
  5
83D
  8
DATA
 62
     7
 10
90.895624223887793
 20
333.32499999999999
 30
0.0
  0
VERTEX
  5
83E
  8
DATA
 62
     7
 10
90.895624223887793
 20
333.32499999999999
 30
0.0
  0
VERTEX
  5
83F
  8
DATA
 62
     7
 10
90.920744460678193
 20
333.989263858443
 30
0.0
  0
VERTEX
  5
840
  8
DATA
 62
     7
 10
90.996105171049436
 20
334.64230947161673
 30
0.0
  0
VERTEX
  5
841
  8
DATA
 62
     7
 10
91.121706355001507
 20
335.28413683952078
 30
0.0
  0
VERTEX
  5
842
  8
DATA
 62
     7
 10
91.297548012534435
 20
335.91474596215562
 30
0.0
  0
VERTEX
  5
843
  8
DATA
 62
     7
 10
91.523630143648134
 20
336.53413683952078
 30
0.0
  0
VERTEX
  5
844
  8
DATA
 62
     7
 10
91.799952748342704
 20
337.14230947161673
 30
0.0
  0
VERTEX
  5
845
  8
DATA
 62
     7
 10
92.126515826618103
 20
337.73926385844311
 30
0.0
  0
VERTEX
  5
846
  8
DATA
 62
     7
 10
92.503319378474288
 20
338.32499999999999
 30
0.0
  0
VERTEX
  5
847
  8
DATA
 62
     7
 10
92.503319378474288
 20
338.32499999999999
 30
0.0
  0
VERTEX
  5
848
  8
DATA
 62
     7
 10
92.923632456749786
 20
338.8898026108983
 30
0.0
  0
VERTEX
  5
849
  8
DATA
 62
     7
 10
93.380724114282756
 20
339.42395640574853
 30
0.0
  0
VERTEX
  5
84A
  8
DATA
 62
     7
 10
93.874594351073213
 20
339.92746138455101
 30
0.0
  0
VERTEX
  5
84B
  8
DATA
 62
     7
 10
94.405243167121156
 20
340.40031754730552
 30
0.0
  0
VERTEX
  5
84C
  8
DATA
 62
     7
 10
94.972670562426586
 20
340.84252489401212
 30
0.0
  0
VERTEX
  5
84D
  8
DATA
 62
     7
 10
95.576876536989502
 20
341.2540834246708
 30
0.0
  0
VERTEX
  5
84E
  8
DATA
 62
     7
 10
96.217861090809905
 20
341.63499313928151
 30
0.0
  0
VERTEX
  5
84F
  8
DATA
 62
     7
 10
96.895624223887822
 20
341.98525403784441
 30
0.0
  0
VERTEX
  5
850
  8
DATA
 62
     7
 10
96.895624223887822
 20
341.98525403784441
 30
0.0
  0
VERTEX
  5
851
  8
DATA
 62
     7
 10
97.598507593756096
 20
342.29925699772463
 30
0.0
  0
VERTEX
  5
852
  8
DATA
 62
     7
 10
98.314852857947727
 20
342.57139289628742
 30
0.0
  0
VERTEX
  5
853
  8
DATA
 62
     7
 10
99.044660016462728
 20
342.80166173353302
 30
0.0
  0
VERTEX
  5
854
  8
DATA
 62
     7
 10
99.787929069301057
 20
342.99006350946109
 30
0.0
  0
VERTEX
  5
855
  8
DATA
 62
     7
 10
100.5446600164627
 20
343.1365982240718
 30
0.0
  0
VERTEX
  5
856
  8
DATA
 62
     7
 10
101.3148528579477
 20
343.24126587736532
 30
0.0
  0
VERTEX
  5
857
  8
DATA
 62
     7
 10
102.0985075937561
 20
343.30406646934119
 30
0.0
  0
VERTEX
  5
858
  8
DATA
 62
     7
 10
102.89562422388779
 20
343.32499999999999
 30
0.0
  0
VERTEX
  5
859
  8
DATA
 62
     7
 10
102.89562422388779
 20
343.32499999999999
 30
0.0
  0
VERTEX
  5
85A
  8
DATA
 62
     7
 10
102.9081826989856
 20
343.32499488927482
 30
0.0
  0
VERTEX
  5
85B
  8
DATA
 62
     7
 10
102.9207378874881
 20
343.32497955709891
 30
0.0
  0
VERTEX
  5
85C
  8
DATA
 62
     7
 10
102.9332897893952
 20
343.32495400347273
 30
0.0
  0
VERTEX
  5
85D
  8
DATA
 62
     7
 10
102.9458384047069
 20
343.3249182283958
 30
0.0
  0
VERTEX
  5
85E
  8
DATA
 62
     7
 10
102.9583837334232
 20
343.3248722318686
 30
0.0
  0
VERTEX
  5
85F
  8
DATA
 62
     7
 10
102.9709257755442
 20
343.3248160138906
 30
0.0
  0
VERTEX
  5
860
  8
DATA
 62
     7
 10
102.9834645310698
 20
343.32474957446232
 30
0.0
  0
VERTEX
  5
861
  8
DATA
 62
     7
 10
102.99600000000009
 20
343.3246729135833
 30
0.0
  0
VERTEX
  5
862
  8
DATA
 62
     7
 10
102.99600000000009
 20
343.3246729135833
 30
0.0
  0
SEQEND
  5
863
  8
DATA
 62
     7
  0
POLYLINE
  5
497
  8
DATA
 62
     7
 66
     1
 10
0.0
 20
0.0
 30
0.0
 70
   128
  0
VERTEX
  5
864
  8
DATA
 62
     7
 10
102.99600000000009
 20
327.32519625184989
 30
0.0
  0
VERTEX
  5
865
  8
DATA
 62
     7
 10
102.9834645310697
 20
327.32515025532263
 30
0.0
  0
VERTEX
  5
866
  8
DATA
 62
     7
 10
102.970925775544
 20
327.32511039166559
 30
0.0
  0
VERTEX
  5
867
  8
DATA
 62
     7
 10
102.95838373342291
 20
327.32507666087878
 30
0.0
  0
VERTEX
  5
868
  8
DATA
 62
     7
 10
102.94583840470651
 20
327.32504906296248
 30
0.0
  0
VERTEX
  5
869
  8
DATA
 62
     7
 10
102.93328978939491
 20
327.32502759791629
 30
0.0
  0
VERTEX
  5
86A
  8
DATA
 62
     7
 10
102.9207378874878
 20
327.32501226574061
 30
0.0
  0
VERTEX
  5
86B
  8
DATA
 62
     7
 10
102.9081826989855
 20
327.32500306643522
 30
0.0
  0
VERTEX
  5
86C
  8
DATA
 62
     7
 10
102.89562422388779
 20
327.32499999999999
 30
0.0
  0
VERTEX
  5
86D
  8
DATA
 62
     7
 10
102.89562422388779
 20
327.32499999999999
 30
0.0
  0
VERTEX
  5
86E
  8
DATA
 62
     7
 10
102.0985075937561
 20
327.33756011839517
 30
0.0
  0
VERTEX
  5
86F
  8
DATA
 62
     7
 10
101.3148528579477
 20
327.37524047358079
 30
0.0
  0
VERTEX
  5
870
  8
DATA
 62
     7
 10
100.5446600164627
 20
327.43804106555677
 30
0.0
  0
VERTEX
  5
871
  8
DATA
 62
     7
 10
99.787929069301057
 20
327.52596189432342
 30
0.0
  0
VERTEX
  5
872
  8
DATA
 62
     7
 10
99.044660016462728
 20
327.6390029598802
 30
0.0
  0
VERTEX
  5
873
  8
DATA
 62
     7
 10
98.314852857947727
 20
327.77716426222747
 30
0.0
  0
VERTEX
  5
874
  8
DATA
 62
     7
 10
97.598507593756096
 20
327.94044580136517
 30
0.0
  0
VERTEX
  5
875
  8
DATA
 62
     7
 10
96.895624223887822
 20
328.1288475772933
 30
0.0
  0
VERTEX
  5
876
  8
DATA
 62
     7
 10
96.895624223887822
 20
328.1288475772933
 30
0.0
  0
VERTEX
  5
877
  8
DATA
 62
     7
 10
96.217861090809905
 20
328.339004116431
 30
0.0
  0
VERTEX
  5
878
  8
DATA
 62
     7
 10
95.576876536989502
 20
328.56754994519758
 30
0.0
  0
VERTEX
  5
879
  8
DATA
 62
     7
 10
94.972670562426586
 20
328.81448506359283
 30
0.0
  0
VERTEX
  5
87A
  8
DATA
 62
     7
 10
94.405243167121156
 20
329.07980947161673
 30
0.0
  0
VERTEX
  5
87B
  8
DATA
 62
     7
 10
93.874594351073213
 20
329.3635231692694
 30
0.0
  0
VERTEX
  5
87C
  8
DATA
 62
     7
 10
93.380724114282756
 20
329.66562615655079
 30
0.0
  0
VERTEX
  5
87D
  8
DATA
 62
     7
 10
92.923632456749786
 20
329.98611843346112
 30
0.0
  0
VERTEX
  5
87E
  8
DATA
 62
     7
 10
92.503319378474288
 20
330.32499999999999
 30
0.0
  0
VERTEX
  5
87F
  8
DATA
 62
     7
 10
92.503319378474288
 20
330.32499999999999
 30
0.0
  0
VERTEX
  5
880
  8
DATA
 62
     7
 10
92.126515826618103
 20
330.67644168493422
 30
0.0
  0
VERTEX
  5
881
  8
DATA
 62
     7
 10
91.799952748342704
 20
331.03461431702999
 30
0.0
  0
VERTEX
  5
882
  8
DATA
 62
     7
 10
91.523630143648134
 20
331.39951789628742
 30
0.0
  0
VERTEX
  5
883
  8
DATA
 62
     7
 10
91.297548012534435
 20
331.77115242270662
 30
0.0
  0
VERTEX
  5
884
  8
DATA
 62
     7
 10
91.121706355001507
 20
332.14951789628742
 30
0.0
  0
VERTEX
  5
885
  8
DATA
 62
     7
 10
90.996105171049436
 20
332.53461431702999
 30
0.0
  0
VERTEX
  5
886
  8
DATA
 62
     7
 10
90.920744460678193
 20
332.92644168493422
 30
0.0
  0
VERTEX
  5
887
  8
DATA
 62
     7
 10
90.895624223887793
 20
333.32499999999999
 30
0.0
  0
VERTEX
  5
888
  8
DATA
 62
     7
 10
90.895624223887793
 20
333.32499999999999
 30
0.0
  0
VERTEX
  5
889
  8
DATA
 62
     7
 10
90.920744460678193
 20
333.72355831506582
 30
0.0
  0
VERTEX
  5
88A
  8
DATA
 62
     7
 10
90.996105171049436
 20
334.11538568296999
 30
0.0
  0
VERTEX
  5
88B
  8
DATA
 62
     7
 10
91.121706355001507
 20
334.50048210371261
 30
0.0
  0
VERTEX
  5
88C
  8
DATA
 62
     7
 10
91.297548012534435
 20
334.87884757729341
 30
0.0
  0
VERTEX
  5
88D
  8
DATA
 62
     7
 10
91.523630143648134
 20
335.2504821037125
 30
0.0
  0
VERTEX
  5
88E
  8
DATA
 62
     7
 10
91.799952748342704
 20
335.61538568296999
 30
0.0
  0
VERTEX
  5
88F
  8
DATA
 62
     7
 10
92.126515826618103
 20
335.97355831506582
 30
0.0
  0
VERTEX
  5
890
  8
DATA
 62
     7
 10
92.503319378474288
 20
336.32499999999999
 30
0.0
  0
VERTEX
  5
891
  8
DATA
 62
     7
 10
92.503319378474288
 20
336.32499999999999
 30
0.0
  0
VERTEX
  5
892
  8
DATA
 62
     7
 10
92.923632456749786
 20
336.66388156653892
 30
0.0
  0
VERTEX
  5
893
  8
DATA
 62
     7
 10
93.380724114282756
 20
336.98437384344919
 30
0.0
  0
VERTEX
  5
894
  8
DATA
 62
     7
 10
93.874594351073213
 20
337.28647683073058
 30
0.0
  0
VERTEX
  5
895
  8
DATA
 62
     7
 10
94.405243167121156
 20
337.57019052838331
 30
0.0
  0
VERTEX
  5
896
  8
DATA
 62
     7
 10
94.972670562426586
 20
337.83551493640721
 30
0.0
  0
VERTEX
  5
897
  8
DATA
 62
     7
 10
95.576876536989502
 20
338.08245005480239
 30
0.0
  0
VERTEX
  5
898
  8
DATA
 62
     7
 10
96.217861090809905
 20
338.31099588356892
 30
0.0
  0
VERTEX
  5
899
  8
DATA
 62
     7
 10
96.895624223887822
 20
338.52115242270662
 30
0.0
  0
VERTEX
  5
89A
  8
DATA
 62
     7
 10
96.895624223887822
 20
338.52115242270662
 30
0.0
  0
VERTEX
  5
89B
  8
DATA
 62
     7
 10
97.598507593756096
 20
338.70955419863481
 30
0.0
  0
VERTEX
  5
89C
  8
DATA
 62
     7
 10
98.314852857947727
 20
338.8728357377725
 30
0.0
  0
VERTEX
  5
89D
  8
DATA
 62
     7
 10
99.044660016462728
 20
339.01099704011972
 30
0.0
  0
VERTEX
  5
89E
  8
DATA
 62
     7
 10
99.787929069301057
 20
339.12403810567662
 30
0.0
  0
VERTEX
  5
89F
  8
DATA
 62
     7
 10
100.5446600164627
 20
339.2119589344432
 30
0.0
  0
VERTEX
  5
8A0
  8
DATA
 62
     7
 10
101.3148528579477
 20
339.27475952641919
 30
0.0
  0
VERTEX
  5
8A1
  8
DATA
 62
     7
 10
102.0985075937561
 20
339.31243988160469
 30
0.0
  0
VERTEX
  5
8A2
  8
DATA
 62
     7
 10
102.89562422388779
 20
339.32499999999999
 30
0.0
  0
VERTEX
  5
8A3
  8
DATA
 62
     7
 10
102.89562422388779
 20
339.32499999999999
 30
0.0
  0
VERTEX
  5
8A4
  8
DATA
 62
     7
 10
102.9081826989871
 20
339.32499693356482
 30
0.0
  0
VERTEX
  5
8A5
  8
DATA
 62
     7
 10
102.9207378874905
 20
339.32498773425942
 30
0.0
  0
VERTEX
  5
8A6
  8
DATA
 62
     7
 10
102.9332897893983
 20
339.32497240208369
 30
0.0
  0
VERTEX
  5
8A7
  8
DATA
 62
     7
 10
102.9458384047102
 20
339.3249509370375
 30
0.0
  0
VERTEX
  5
8A8
  8
DATA
 62
     7
 10
102.9583837334263
 20
339.3249233391212
 30
0.0
  0
VERTEX
  5
8A9
  8
DATA
 62
     7
 10
102.9709257755467
 20
339.32488960833439
 30
0.0
  0
VERTEX
  5
8AA
  8
DATA
 62
     7
 10
102.98346453107131
 20
339.32484974467741
 30
0.0
  0
VERTEX
  5
8AB
  8
DATA
 62
     7
 10
102.99600000000009
 20
339.32480374815009
 30
0.0
  0
VERTEX
  5
8AC
  8
DATA
 62
     7
 10
102.99600000000009
 20
339.32480374815009
 30
0.0
  0
SEQEND
  5
8AD
  8
DATA
 62
     7
  0
LINE
  5
4E2
  8
DATA
 62
     7
 10
-490.60199999999992
 20
-3.0480000000000009
 30
0.0
 11
93.597999999999942
 21
-3.0480000000000009
 31
0.0
  0
LINE
  5
4E3
  8
DATA
 62
     7
 10
-494.92000000000007
 20
-3.0480000000000009
 30
0.0
 11
-490.60199999999992
 21
-3.0480000000000009
 31
0.0
  0
LINE
  5
4E4
  8
DATA
 62
     7
 10
93.597999999999942
 20
-3.0480000000000009
 30
0.0
 11
97.916000000000054
 21
-3.0480000000000009
 31
0.0
  0
LINE
  5
4E5
  8
DATA
 62
     7
 10
406.34999999999991
 20
-3.0480000000000009
 30
0.0
 11
482.5499999999999
 21
-3.0480000000000009
 31
0.0
  0
LINE
  5
4E6
  8
DATA
 62
     7
 10
403.04799999999989
 20
-12.69999999999999
 30
0.0
 11
403.04799999999989
 21
-5.0800000000000116
 31
0.0
  0
LINE
  5
4E7
  8
DATA
 62
     7
 10
485.85200000000009
 20
-12.69999999999999
 30
0.0
 11
485.85200000000009
 21
-5.0800000000000116
 31
0.0
  0
LINE
  5
4E8
  8
DATA
 62
     7
 10
405.07999999999993
 20
-3.0480000000000009
 30
0.0
 11
406.34999999999991
 21
-3.0480000000000009
 31
0.0
  0
LINE
  5
4E9
  8
DATA
 62
     7
 10
482.5499999999999
 20
-3.0480000000000009
 30
0.0
 11
483.81999999999999
 21
-3.0480000000000009
 31
0.0
  0
ARC
  5
4EA
  8
DATA
 62
     7
 10
483.82000000000011
 20
-5.0800000000000116
 30
0.0
 40
5.0799999999999272
 50
0.0
 51
90.000000000000668
  0
ARC
  5
4EB
  8
DATA
 62
     7
 10
483.82000000000011
 20
-5.0800000000000116
 30
0.0
 40
2.031999999999925
 50
0.0
 51
90.000000000001606
  0
ARC
  5
4EC
  8
DATA
 62
     7
 10
405.07999999999993
 20
-5.08000000000004
 30
0.0
 40
2.0320000000000391
 50
90.0
 51
179.9999999999992
  0
ARC
  5
4ED
  8
DATA
 62
     7
 10
97.916000000000039
 20
-5.0800000000000116
 30
0.0
 40
2.0320000000000391
 50
0.0
 51
89.999999999999204
  0
ARC
  5
4EE
  8
DATA
 62
     7
 10
-494.92000000000007
 20
-5.08000000000004
 30
0.0
 40
2.0320000000000391
 50
90.0
 51
179.9999999999992
  0
ARC
  5
4EF
  8
DATA
 62
     7
 10
97.916000000000039
 20
-5.0800000000000116
 30
0.0
 40
5.08000000000004
 50
0.0
 51
89.999999999999687
  0
ARC
  5
4F0
  8
DATA
 62
     7
 10
-494.92000000000007
 20
-5.08000000000004
 30
0.0
 40
5.08000000000004
 50
90.0
 51
179.99999999999969
  0
ARC
  5
4F1
  8
DATA
 62
     7
 10
405.07999999999993
 20
-5.08000000000004
 30
0.0
 40
5.08000000000004
 50
90.0
 51
179.99999999999969
  0
TEXT
  5
4F2
  8
DATA
 62
     7
 10
456.25
 20
-700.26369000000011
 30
0.0
 40
12.21630859375
  1
CONTROL 30用U-Bracket
 41
0.8
 11
456.25
 21
-688.04738140625011
 31
0.0
 73
     3
  0
ENDSEC
  0
EOF
