  0
SECTION
  2
HEADER
  9
$ACADVER
  1
AC1015
  9
$ACADMAINTVER
 70
    20
  9
$DWGCODEPAGE
  3
ANSI_932
  9
$INSBASE
 10
0.0
 20
0.0
 30
0.0
  9
$EXTMIN
 10
-1350.082391174606
 20
-2014.883294593333
 30
-0.0015258207003583
  9
$EXTMAX
 10
1350.082403747461
 20
1999.567671355127
 30
0.0000000349246037
  9
$LIMMIN
 10
0.0
 20
0.0
  9
$LIMMAX
 10
0.0
 20
0.0
  9
$ORTHOMODE
 70
     0
  9
$REGENMODE
 70
     1
  9
$FILLMODE
 70
     1
  9
$QTEXTMODE
 70
     0
  9
$MIRRTEXT
 70
     1
  9
$LTSCALE
 40
76.2
  9
$ATTMODE
 70
     1
  9
$TEXTSIZE
 40
0.0
  9
$TRACEWID
 40
1.0
  9
$TEXTSTYLE
  7
STANDARD
  9
$CLAYER
  8
DATA
  9
$CELTYPE
  6
ByLayer
  9
$CECOLOR
 62
   256
  9
$CELTSCALE
 40
1.0
  9
$DISPSILH
 70
     0
  9
$DIMSCALE
 40
1.0
  9
$DIMASZ
 40
0.18
  9
$DIMEXO
 40
0.0625
  9
$DIMDLI
 40
0.38
  9
$DIMRND
 40
0.0
  9
$DIMDLE
 40
0.0
  9
$DIMEXE
 40
0.18
  9
$DIMTP
 40
0.0
  9
$DIMTM
 40
0.0
  9
$DIMTXT
 40
0.18
  9
$DIMCEN
 40
0.09
  9
$DIMTSZ
 40
0.0
  9
$DIMTOL
 70
     0
  9
$DIMLIM
 70
     0
  9
$DIMTIH
 70
     1
  9
$DIMTOH
 70
     1
  9
$DIMSE1
 70
     0
  9
$DIMSE2
 70
     0
  9
$DIMTAD
 70
     0
  9
$DIMZIN
 70
     0
  9
$DIMBLK
  1

  9
$DIMASO
 70
     1
  9
$DIMSHO
 70
     1
  9
$DIMPOST
  1

  9
$DIMAPOST
  1

  9
$DIMALT
 70
     0
  9
$DIMALTD
 70
     2
  9
$DIMALTF
 40
25.4
  9
$DIMLFAC
 40
1.0
  9
$DIMTOFL
 70
     0
  9
$DIMTVP
 40
0.0
  9
$DIMTIX
 70
     0
  9
$DIMSOXD
 70
     0
  9
$DIMSAH
 70
     0
  9
$DIMBLK1
  1

  9
$DIMBLK2
  1

  9
$DIMSTYLE
  2
STANDARD
  9
$DIMCLRD
 70
     0
  9
$DIMCLRE
 70
     0
  9
$DIMCLRT
 70
     0
  9
$DIMTFAC
 40
1.0
  9
$DIMGAP
 40
0.09
  9
$DIMJUST
 70
     0
  9
$DIMSD1
 70
     0
  9
$DIMSD2
 70
     0
  9
$DIMTOLJ
 70
     1
  9
$DIMTZIN
 70
     0
  9
$DIMALTZ
 70
     0
  9
$DIMALTTZ
 70
     0
  9
$DIMUPT
 70
     0
  9
$DIMDEC
 70
     4
  9
$DIMTDEC
 70
     4
  9
$DIMALTU
 70
     2
  9
$DIMALTTD
 70
     2
  9
$DIMTXSTY
  7
STANDARD
  9
$DIMAUNIT
 70
     0
  9
$DIMADEC
 70
     0
  9
$DIMALTRND
 40
0.0
  9
$DIMAZIN
 70
     0
  9
$DIMDSEP
 70
    46
  9
$DIMATFIT
 70
     3
  9
$DIMFRAC
 70
     0
  9
$DIMLDRBLK
  1

  9
$DIMLUNIT
 70
     2
  9
$DIMLWD
 70
    -2
  9
$DIMLWE
 70
    -2
  9
$DIMTMOVE
 70
     0
  9
$LUNITS
 70
     2
  9
$LUPREC
 70
     2
  9
$SKETCHINC
 40
0.1
  9
$FILLETRAD
 40
0.0
  9
$AUNITS
 70
     0
  9
$AUPREC
 70
     0
  9
$MENU
  1
acad
  9
$ELEVATION
 40
0.0
  9
$PELEVATION
 40
0.0
  9
$THICKNESS
 40
0.0
  9
$LIMCHECK
 70
     0
  9
$CHAMFERA
 40
0.0
  9
$CHAMFERB
 40
0.0
  9
$CHAMFERC
 40
0.0
  9
$CHAMFERD
 40
0.0
  9
$SKPOLY
 70
     0
  9
$TDCREATE
 40
2458458.427071759
  9
$TDUCREATE
 40
2458458.052071760
  9
$TDUPDATE
 40
2458458.428263889
  9
$TDUUPDATE
 40
2458458.053263889
  9
$TDINDWG
 40
0.0004398148
  9
$TDUSRTIMER
 40
0.0004398148
  9
$USRTIMER
 70
     1
  9
$ANGBASE
 50
0.0
  9
$ANGDIR
 70
     0
  9
$PDMODE
 70
     1
  9
$PDSIZE
 40
-2.0
  9
$PLINEWID
 40
0.0
  9
$SPLFRAME
 70
     0
  9
$SPLINETYPE
 70
     6
  9
$SPLINESEGS
 70
     8
  9
$HANDSEED
  5
482
  9
$SURFTAB1
 70
     6
  9
$SURFTAB2
 70
     6
  9
$SURFTYPE
 70
     6
  9
$SURFU
 70
     6
  9
$SURFV
 70
     6
  9
$UCSBASE
  2

  9
$UCSNAME
  2

  9
$UCSORG
 10
0.0
 20
0.0
 30
0.0
  9
$UCSXDIR
 10
1.0
 20
0.0
 30
0.0
  9
$UCSYDIR
 10
0.0
 20
1.0
 30
0.0
  9
$UCSORTHOREF
  2

  9
$UCSORTHOVIEW
 70
     0
  9
$UCSORGTOP
 10
0.0
 20
0.0
 30
0.0
  9
$UCSORGBOTTOM
 10
0.0
 20
0.0
 30
0.0
  9
$UCSORGLEFT
 10
0.0
 20
0.0
 30
0.0
  9
$UCSORGRIGHT
 10
0.0
 20
0.0
 30
0.0
  9
$UCSORGFRONT
 10
0.0
 20
0.0
 30
0.0
  9
$UCSORGBACK
 10
0.0
 20
0.0
 30
0.0
  9
$PUCSBASE
  2

  9
$PUCSNAME
  2

  9
$PUCSORG
 10
0.0
 20
0.0
 30
0.0
  9
$PUCSXDIR
 10
1.0
 20
0.0
 30
0.0
  9
$PUCSYDIR
 10
0.0
 20
1.0
 30
0.0
  9
$PUCSORTHOREF
  2

  9
$PUCSORTHOVIEW
 70
     0
  9
$PUCSORGTOP
 10
0.0
 20
0.0
 30
0.0
  9
$PUCSORGBOTTOM
 10
0.0
 20
0.0
 30
0.0
  9
$PUCSORGLEFT
 10
0.0
 20
0.0
 30
0.0
  9
$PUCSORGRIGHT
 10
0.0
 20
0.0
 30
0.0
  9
$PUCSORGFRONT
 10
0.0
 20
0.0
 30
0.0
  9
$PUCSORGBACK
 10
0.0
 20
0.0
 30
0.0
  9
$USERI1
 70
     0
  9
$USERI2
 70
     0
  9
$USERI3
 70
     0
  9
$USERI4
 70
     0
  9
$USERI5
 70
     0
  9
$USERR1
 40
0.0
  9
$USERR2
 40
0.0
  9
$USERR3
 40
0.0
  9
$USERR4
 40
0.0
  9
$USERR5
 40
0.0
  9
$WORLDVIEW
 70
     1
  9
$SHADEDGE
 70
     3
  9
$SHADEDIF
 70
    70
  9
$TILEMODE
 70
     1
  9
$MAXACTVP
 70
    64
  9
$PINSBASE
 10
0.0
 20
0.0
 30
0.0
  9
$PLIMCHECK
 70
     0
  9
$PEXTMIN
 10
1.000000000000000E+20
 20
1.000000000000000E+20
 30
1.000000000000000E+20
  9
$PEXTMAX
 10
-1.000000000000000E+20
 20
-1.000000000000000E+20
 30
-1.000000000000000E+20
  9
$PLIMMIN
 10
0.0
 20
0.0
  9
$PLIMMAX
 10
12.0
 20
9.0
  9
$UNITMODE
 70
     0
  9
$VISRETAIN
 70
     0
  9
$PLINEGEN
 70
     1
  9
$PSLTSCALE
 70
     0
  9
$TREEDEPTH
 70
  3020
  9
$CMLSTYLE
  2
Standard
  9
$CMLJUST
 70
     0
  9
$CMLSCALE
 40
1.0
  9
$PROXYGRAPHICS
 70
     1
  9
$MEASUREMENT
 70
     0
  9
$CELWEIGHT
370
    -1
  9
$ENDCAPS
280
     0
  9
$JOINSTYLE
280
     0
  9
$LWDISPLAY
290
     0
  9
$INSUNITS
 70
     4
  9
$HYPERLINKBASE
  1

  9
$STYLESHEET
  1

  9
$XEDIT
290
     1
  9
$CEPSNTYPE
380
     0
  9
$PSTYLEMODE
290
     1
  9
$FINGERPRINTGUID
  2
{888E7D79-6674-484F-BCE8-41B863254EC1}
  9
$VERSIONGUID
  2
{AB8156DC-EE28-D94E-B7C8-F2AE2C5BC438}
  9
$EXTNAMES
290
     1
  9
$PSVPSCALE
 40
0.0
  9
$OLESTARTUP
290
     0
  0
ENDSEC
  0
SECTION
  2
CLASSES
  0
CLASS
  1
ACDBDICTIONARYWDFLT
  2
AcDbDictionaryWithDefault
  3
ObjectDBX Classes
 90
        0
280
     0
281
     0
  0
CLASS
  1
MATERIAL
  2
AcDbMaterial
  3
ObjectDBX Classes
 90
     1153
280
     0
281
     0
  0
CLASS
  1
VISUALSTYLE
  2
AcDbVisualStyle
  3
ObjectDBX Classes
 90
     4095
280
     0
281
     0
  0
CLASS
  1
SCALE
  2
AcDbScale
  3
ObjectDBX Classes
 90
     1153
280
     0
281
     0
  0
CLASS
  1
TABLESTYLE
  2
AcDbTableStyle
  3
ObjectDBX Classes
 90
     4095
280
     0
281
     0
  0
CLASS
  1
MLEADERSTYLE
  2
AcDbMLeaderStyle
  3
ACDB_MLEADERSTYLE_CLASS
 90
     4095
280
     0
281
     0
  0
CLASS
  1
ACDBSECTIONVIEWSTYLE
  2
AcDbSectionViewStyle
  3
ObjectDBX Classes
 90
     1025
280
     0
281
     0
  0
CLASS
  1
ACDBDETAILVIEWSTYLE
  2
AcDbDetailViewStyle
  3
ObjectDBX Classes
 90
     1025
280
     0
281
     0
  0
CLASS
  1
DICTIONARYVAR
  2
AcDbDictionaryVar
  3
ObjectDBX Classes
 90
        0
280
     0
281
     0
  0
CLASS
  1
CELLSTYLEMAP
  2
AcDbCellStyleMap
  3
ObjectDBX Classes
 90
     1152
280
     0
281
     0
  0
CLASS
  1
ACDBPLACEHOLDER
  2
AcDbPlaceHolder
  3
ObjectDBX Classes
 90
        0
280
     0
281
     0
  0
CLASS
  1
LAYOUT
  2
AcDbLayout
  3
ObjectDBX Classes
 90
        0
280
     0
281
     0
  0
ENDSEC
  0
SECTION
  2
TABLES
  0
TABLE
  2
VPORT
  5
3AC
330
0
100
AcDbSymbolTable
 70
     1
  0
VPORT
  5
418
330
3AC
100
AcDbSymbolTableRecord
100
AcDbViewportTableRecord
  2
*ACTIVE
 70
     0
 10
0.0
 20
0.0
 11
1.0
 21
1.0
 12
0.0000062864278334
 22
-7.657811619102631
 13
0.0
 23
0.0
 14
1.0
 24
1.0
 15
0.0
 25
0.0
 16
0.0
 26
0.0
 36
1.0
 17
0.0
 27
0.0
 37
0.0
 40
4036.447957542698
 41
2.321755027422303
 42
50.0
 43
0.0
 44
0.0
 50
0.0
 51
0.0
 71
     0
 72
  2000
 73
     1
 74
     1
 75
     0
 76
     0
 77
     0
 78
     0
281
     0
 65
     1
110
0.0
120
0.0
130
0.0
111
1.0
121
0.0
131
0.0
112
0.0
122
1.0
132
0.0
 79
     0
146
0.0
1001
ACAD_NAV_VCDISPLAY
1070
     3
  0
ENDTAB
  0
TABLE
  2
LTYPE
  5
3A9
330
0
100
AcDbSymbolTable
 70
    11
  0
LTYPE
  5
3FE
330
3A9
100
AcDbSymbolTableRecord
100
AcDbLinetypeTableRecord
  2
ByBlock
 70
     0
  3

 72
    65
 73
     0
 40
0.0
  0
LTYPE
  5
3FF
330
3A9
100
AcDbSymbolTableRecord
100
AcDbLinetypeTableRecord
  2
ByLayer
 70
     0
  3

 72
    65
 73
     0
 40
0.0
  0
LTYPE
  5
400
330
3A9
100
AcDbSymbolTableRecord
100
AcDbLinetypeTableRecord
  2
CONTINUOUS
 70
     0
  3
Solid line
 72
    65
 73
     0
 40
0.0
  0
ENDTAB
  0
TABLE
  2
LAYER
  5
3A6
330
0
100
AcDbSymbolTable
 70
     5
  0
LAYER
  5
3F8
102
{ACAD_XDICTIONARY
360
42C
102
}
330
3A6
100
AcDbSymbolTableRecord
100
AcDbLayerTableRecord
  2
0
 70
     0
 62
     7
  6
CONTINUOUS
370
    -3
390
3B3
  0
LAYER
  5
417
102
{ACAD_XDICTIONARY
360
42E
102
}
330
3A6
100
AcDbSymbolTableRecord
100
AcDbLayerTableRecord
  2
DATA
 70
     0
 62
     7
  6
CONTINUOUS
370
    -3
390
3B3
  0
LAYER
  5
423
102
{ACAD_XDICTIONARY
360
430
102
}
330
3A6
100
AcDbSymbolTableRecord
100
AcDbLayerTableRecord
  2
HIBINO-BASE
 70
     0
 62
     7
  6
CONTINUOUS
370
    -3
390
3B3
  0
LAYER
  5
424
102
{ACAD_XDICTIONARY
360
432
102
}
330
3A6
100
AcDbSymbolTableRecord
100
AcDbLayerTableRecord
  2
SPEC
 70
     0
 62
     7
  6
CONTINUOUS
370
    -3
390
3B3
  0
LAYER
  5
425
102
{ACAD_XDICTIONARY
360
434
102
}
330
3A6
100
AcDbSymbolTableRecord
100
AcDbLayerTableRecord
  2
DIMNSIONS
 70
     0
 62
     7
  6
CONTINUOUS
370
    -3
390
3B3
  0
ENDTAB
  0
TABLE
  2
STYLE
  5
3A7
330
0
100
AcDbSymbolTable
 70
     3
  0
STYLE
  5
3F9
330
3A7
100
AcDbSymbolTableRecord
100
AcDbTextStyleTableRecord
  2
STANDARD
 70
     0
 40
0.0
 41
1.0
 50
0.0
 71
     0
 42
0.0
  3
txt
  4
BIGFONT.SHX
  0
ENDTAB
  0
TABLE
  2
VIEW
  5
3AA
330
0
100
AcDbSymbolTable
 70
     0
  0
ENDTAB
  0
TABLE
  2
UCS
  5
3AB
330
0
100
AcDbSymbolTable
 70
     0
  0
ENDTAB
  0
TABLE
  2
APPID
  5
3AD
330
0
100
AcDbSymbolTable
 70
     4
  0
APPID
  5
3FA
330
3AD
100
AcDbSymbolTableRecord
100
AcDbRegAppTableRecord
  2
ACAD
 70
     0
  0
APPID
  5
401
330
3AD
100
AcDbSymbolTableRecord
100
AcDbRegAppTableRecord
  2
AcadAnnotative
 70
     0
  0
APPID
  5
440
330
3AD
100
AcDbSymbolTableRecord
100
AcDbRegAppTableRecord
  2
ACAD_NAV_VCDISPLAY
 70
     0
  0
APPID
  5
479
330
3AD
100
AcDbSymbolTableRecord
100
AcDbRegAppTableRecord
  2
ACAD_MLEADERVER
 70
     0
  0
ENDTAB
  0
TABLE
  2
DIMSTYLE
  5
3AE
330
0
100
AcDbSymbolTable
 70
     2
100
AcDbDimStyleTable
 71
     0
  0
DIMSTYLE
105
3FB
330
3AE
100
AcDbSymbolTableRecord
100
AcDbDimStyleTableRecord
  2
STANDARD
 70
     0
279
     2
340
3F9
  0
ENDTAB
  0
TABLE
  2
BLOCK_RECORD
  5
3A5
330
0
100
AcDbSymbolTable
 70
     0
  0
BLOCK_RECORD
  5
413
330
3A5
100
AcDbSymbolTableRecord
100
AcDbBlockTableRecord
  2
*Model_Space
340
416
  0
BLOCK_RECORD
  5
40F
330
3A5
100
AcDbSymbolTableRecord
100
AcDbBlockTableRecord
  2
*Paper_Space
340
412
  0
ENDTAB
  0
ENDSEC
  0
SECTION
  2
BLOCKS
  0
BLOCK
  5
414
330
413
100
AcDbEntity
  8
0
100
AcDbBlockBegin
  2
*Model_Space
 70
     0
 10
0.0
 20
0.0
 30
0.0
  3
*Model_Space
  1

  0
ENDBLK
  5
415
330
413
100
AcDbEntity
  8
0
100
AcDbBlockEnd
  0
BLOCK
  5
410
330
40F
100
AcDbEntity
 67
     1
  8
0
100
AcDbBlockBegin
  2
*Paper_Space
 70
     0
 10
0.0
 20
0.0
 30
0.0
  3
*Paper_Space
  1

  0
ENDBLK
  5
411
330
40F
100
AcDbEntity
 67
     1
  8
0
100
AcDbBlockEnd
  0
ENDSEC
  0
SECTION
  2
ENTITIES
  0
LINE
  5
2C
330
413
100
AcDbEntity
  8
HIBINO-BASE
  6
Continuous
 62
     7
100
AcDbLine
 10
-1350.0
 20
1999.44541
 30
0.0
 11
1350.0
 21
1999.44541
 31
0.0
  0
LINE
  5
2D
330
413
100
AcDbEntity
  8
HIBINO-BASE
  6
Continuous
 62
     7
100
AcDbLine
 10
1350.0
 20
-1900.55459
 30
0.0
 11
-1350.0
 21
-1900.55459
 31
0.0
  0
LINE
  5
2E
330
413
100
AcDbEntity
  8
HIBINO-BASE
  6
Continuous
 62
     7
100
AcDbLine
 10
-1350.0
 20
-1900.55459
 30
0.0
 11
-1350.0
 21
1999.44541
 31
0.0
  0
LINE
  5
2F
330
413
100
AcDbEntity
  8
HIBINO-BASE
  6
Continuous
 62
     7
100
AcDbLine
 10
1350.0
 20
1999.44541
 30
0.0
 11
1350.0
 21
-1900.55459
 31
0.0
  0
LINE
  5
30
330
413
100
AcDbEntity
  8
HIBINO-BASE
  6
Continuous
 62
     7
100
AcDbLine
 10
0.0000000000002132
 20
-1563.05459
 30
0.0
 11
1350.0
 21
-1563.05459
 31
0.0
  0
LINE
  5
31
330
413
100
AcDbEntity
  8
HIBINO-BASE
  6
Continuous
 62
     7
100
AcDbLine
 10
0.0000000000002132
 20
-1900.55459
 30
0.0
 11
0.0000000000002132
 21
-1563.05459
 31
0.0
  0
TEXT
  5
32
330
413
100
AcDbEntity
  8
HIBINO-BASE
 62
     7
100
AcDbText
 10
13.5000000000003
 20
-1600.684989999999
 30
0.0
 40
24.4326171875
  1
NOTE
 41
0.7
 11
13.5000000000003
 21
-1576.252372812499
 31
0.0
100
AcDbText
 73
     3
  0
LINE
  5
33
330
413
100
AcDbEntity
  8
HIBINO-BASE
  6
Continuous
 62
     7
100
AcDbLine
 10
525.0
 20
-1900.55459
 30
0.0
 11
525.0
 21
-1563.05459
 31
0.0
  0
TEXT
  5
34
330
413
100
AcDbEntity
  8
HIBINO-BASE
 62
     7
100
AcDbText
 10
538.4999999999998
 20
-1600.684989999999
 30
0.0
 40
24.4326171875
  1
TITLE
 41
0.7
 11
538.4999999999998
 21
-1576.252372812499
 31
0.0
100
AcDbText
 73
     3
  0
LINE
  5
35
330
413
100
AcDbEntity
  8
HIBINO-BASE
  6
Continuous
 62
     7
100
AcDbLine
 10
0.0000000000002132
 20
-1750.55459
 30
0.0
 11
1350.0
 21
-1750.55459
 31
0.0
  0
TEXT
  5
36
330
413
100
AcDbEntity
  8
HIBINO-BASE
 62
     7
100
AcDbText
 10
726.0
 20
-1787.34019
 30
0.0
 40
24.4326171875
  1
DRAWN
 41
0.7
 11
726.0
 21
-1762.9075728125
 31
0.0
100
AcDbText
 73
     3
  0
TEXT
  5
37
330
413
100
AcDbEntity
  8
HIBINO-BASE
 62
     7
100
AcDbText
 10
350.9999999999998
 20
-1787.34019
 30
0.0
 40
24.4326171875
  1
DATE
 41
0.7
 11
350.9999999999998
 21
-1762.9075728125
 31
0.0
100
AcDbText
 73
     3
  0
TEXT
  5
38
330
413
100
AcDbEntity
  8
HIBINO-BASE
 62
     7
100
AcDbText
 10
200.9999999999999
 20
-1787.34019
 30
0.0
 40
24.4326171875
  1
SCALE
 41
0.7
 11
200.9999999999999
 21
-1762.9075728125
 31
0.0
100
AcDbText
 73
     3
  0
TEXT
  5
39
330
413
100
AcDbEntity
  8
HIBINO-BASE
 62
     7
100
AcDbText
 10
538.4999999999998
 20
-1787.34019
 30
0.0
 40
24.4326171875
  1
DESIGN
 41
0.7
 11
538.4999999999998
 21
-1762.9075728125
 31
0.0
100
AcDbText
 73
     3
  0
TEXT
  5
3A
330
413
100
AcDbEntity
  8
HIBINO-BASE
 62
     7
100
AcDbText
 10
1100.999999999999
 20
-1787.34019
 30
0.0
 40
24.4326171875
  1
DRAWING NO.
 41
0.7
 11
1100.999999999999
 21
-1762.9075728125
 31
0.0
100
AcDbText
 73
     3
  0
TEXT
  5
3B
330
413
100
AcDbEntity
  8
HIBINO-BASE
 62
     7
100
AcDbText
 10
913.4999999999999
 20
-1787.34019
 30
0.0
 40
24.4326171875
  1
CHECK
 41
0.7
 11
913.4999999999999
 21
-1762.9075728125
 31
0.0
100
AcDbText
 73
     3
  0
LINE
  5
3C
330
413
100
AcDbEntity
  8
HIBINO-BASE
  6
Continuous
 62
     7
100
AcDbLine
 10
215.6250000000003
 20
-1881.80459
 30
0.0
 11
271.8750000000003
 21
-1825.55459
 31
0.0
  0
TEXT
  5
3D
330
413
100
AcDbEntity
  8
HIBINO-BASE
 62
     7
100
AcDbText
 10
206.2500000000003
 20
-1842.18874
 30
0.0
 40
24.4326171875
  1
1
 41
0.7
 11
206.2500000000003
 21
-1817.7561228125
 31
0.0
100
AcDbText
 73
     3
  0
LINE
  5
3E
330
413
100
AcDbEntity
  8
HIBINO-BASE
  6
Continuous
 62
     7
100
AcDbLine
 10
187.5000000000002
 20
-1900.55459
 30
0.0
 11
187.5000000000002
 21
-1750.55459
 31
0.0
  0
LINE
  5
3F
330
413
100
AcDbEntity
  8
HIBINO-BASE
  6
Continuous
 62
     7
100
AcDbLine
 10
337.4999999999997
 20
-1900.55459
 30
0.0
 11
337.4999999999997
 21
-1750.55459
 31
0.0
  0
LINE
  5
40
330
413
100
AcDbEntity
  8
HIBINO-BASE
  6
Continuous
 62
     7
100
AcDbLine
 10
712.4999999999996
 20
-1750.55459
 30
0.0
 11
712.4999999999996
 21
-1900.55459
 31
0.0
  0
LINE
  5
41
330
413
100
AcDbEntity
  8
HIBINO-BASE
  6
Continuous
 62
     7
100
AcDbLine
 10
1087.5
 20
-1750.55459
 30
0.0
 11
1087.5
 21
-1900.55459
 31
0.0
  0
LINE
  5
42
330
413
100
AcDbEntity
  8
HIBINO-BASE
  6
Continuous
 62
     7
100
AcDbLine
 10
899.9999999999996
 20
-1900.55459
 30
0.0
 11
899.9999999999996
 21
-1750.55459
 31
0.0
  0
TEXT
  5
43
330
413
100
AcDbEntity
  8
HIBINO-BASE
 62
     7
100
AcDbText
 10
350.3481000000002
 20
-1857.59989
 30
0.0
 40
24.4326171875
  1
'18.12.
 41
0.7
 11
350.3481000000002
 21
-1833.1672728125
 31
0.0
100
AcDbText
 73
     3
  0
TEXT
  5
44
330
413
100
AcDbEntity
  8
HIBINO-BASE
 62
     7
100
AcDbText
 10
262.5000000000003
 20
-1870.31374
 30
0.0
 40
24.4326171875
  1
15
 41
0.7
 11
262.5000000000003
 21
-1845.8811228125
 31
0.0
100
AcDbText
 73
     3
  0
TEXT
  5
45
330
413
100
AcDbEntity
  8
HIBINO-BASE
 62
     7
100
AcDbText
 10
735.0871501655194
 20
-1857.59989
 30
0.0
 40
24.4326171875
  1
N.Sasaki
 41
0.7
 11
735.0871501655194
 21
-1833.1672728125
 31
0.0
100
AcDbText
 73
     3
  0
TEXT
  5
46
330
413
100
AcDbEntity
  8
HIBINO-BASE
 62
     7
100
AcDbText
 10
58.25000000000053
 20
-1870.91459
 30
0.0
 40
48.86523437499999
  1
A4
 41
0.7
 11
58.25000000000053
 21
-1822.049355625
 31
0.0
100
AcDbText
 73
     3
  0
TEXT
  5
47
330
413
100
AcDbEntity
  8
HIBINO-BASE
 62
     7
100
AcDbText
 10
14.37499999999993
 20
-1789.846415
 30
0.0
 40
24.4326171875
  1
PAPER SIZE
 41
0.7
 11
14.37499999999993
 21
-1765.4137978125
 31
0.0
100
AcDbText
 73
     3
  0
TEXT
  5
48
330
413
100
AcDbEntity
  8
HIBINO-BASE
 62
     7
100
AcDbText
 10
-1242.24
 20
-1996.684757
 30
0.0
 40
54.00066269531249
  1
Hibino Corporation
 41
0.7
 11
-1242.24
 21
-1942.684094304688
 31
0.0
100
AcDbText
 73
     3
  0
TEXT
  5
49
330
413
100
AcDbEntity
  8
HIBINO-BASE
 62
     7
100
AcDbText
 10
751.02585
 20
-1996.684757
 30
0.0
 40
54.00066269531249
  1
ヒビノ株式会社
 41
0.7
 11
751.02585
 21
-1942.684094304688
 31
0.0
100
AcDbText
 73
     3
  0
LINE
  5
4A
330
413
100
AcDbEntity
  8
SPEC
  6
Continuous
 62
     7
100
AcDbLine
 10
-1237.5
 20
1849.44541
 30
0.0
 11
975.0000000000001
 21
1849.44541
 31
0.0
  0
LINE
  5
4B
330
413
100
AcDbEntity
  8
SPEC
  6
Continuous
 62
     7
100
AcDbLine
 10
-1237.5
 20
1793.195409999999
 30
0.0
 11
975.0000000000001
 21
1793.195409999999
 31
0.0
  0
LINE
  5
4C
330
413
100
AcDbEntity
  8
SPEC
  6
Continuous
 62
     7
100
AcDbLine
 10
-1237.5
 20
1849.44541
 30
0.0
 11
-1237.5
 21
1118.19541
 31
0.0
  0
TEXT
  5
4D
330
413
100
AcDbEntity
  8
SPEC
 62
     7
100
AcDbText
 10
-1218.75
 20
1870.344459999999
 30
0.0
 40
36.64892578125
  1
仕様
 41
0.7
 11
-1218.75
 21
1906.993385781249
 31
0.0
100
AcDbText
 73
     3
  0
LINE
  5
4E
330
413
100
AcDbEntity
  8
SPEC
  6
Continuous
 62
     7
100
AcDbLine
 10
-749.9999999999996
 20
1849.44541
 30
0.0
 11
-749.9999999999996
 21
1118.19541
 31
0.0
  0
LINE
  5
4F
330
413
100
AcDbEntity
  8
SPEC
  6
Continuous
 62
     7
100
AcDbLine
 10
975.0000000000001
 20
1849.44541
 30
0.0
 11
975.0000000000001
 21
1118.19541
 31
0.0
  0
TEXT
  5
50
330
413
100
AcDbEntity
  8
SPEC
 62
     7
100
AcDbText
 10
-1224.0
 20
1186.264176666666
 30
0.0
 40
28.50472005208334
  1
寸法(W×H×D)
 41
0.7
 11
-1224.0
 21
1214.768896718749
 31
0.0
100
AcDbText
 73
     3
  0
TEXT
  5
51
330
413
100
AcDbEntity
  8
SPEC
 62
     7
100
AcDbText
 10
-1224.0
 20
1130.014176666666
 30
0.0
 40
28.50472005208334
  1
質量
 41
0.7
 11
-1224.0
 21
1158.518896718749
 31
0.0
100
AcDbText
 73
     3
  0
TEXT
  5
52
330
413
100
AcDbEntity
  8
SPEC
 62
     7
100
AcDbText
 10
-736.4999999999996
 20
1186.264176666666
 30
0.0
 40
28.50472005208334
  1
429×650×457mm(除突起部)
 41
0.7
 11
-736.4999999999996
 21
1214.768896718749
 31
0.0
100
AcDbText
 73
     3
  0
TEXT
  5
53
330
413
100
AcDbEntity
  8
SPEC
 62
     7
100
AcDbText
 10
-736.4999999999996
 20
1130.014176666666
 30
0.0
 40
28.50472005208334
  1
21kg
 41
0.7
 11
-736.4999999999996
 21
1158.518896718749
 31
0.0
100
AcDbText
 73
     3
  0
LINE
  5
54
330
413
100
AcDbEntity
  8
SPEC
  6
Continuous
 62
     7
100
AcDbLine
 10
-1237.5
 20
1736.945409999999
 30
0.0
 11
975.0000000000001
 21
1736.945409999999
 31
0.0
  0
LINE
  5
55
330
413
100
AcDbEntity
  8
SPEC
  6
Continuous
 62
     7
100
AcDbLine
 10
-1237.5
 20
1680.695409999999
 30
0.0
 11
975.0000000000001
 21
1680.695409999999
 31
0.0
  0
LINE
  5
56
330
413
100
AcDbEntity
  8
SPEC
  6
Continuous
 62
     7
100
AcDbLine
 10
-1237.5
 20
1624.445409999999
 30
0.0
 11
975.0000000000001
 21
1624.445409999999
 31
0.0
  0
LINE
  5
57
330
413
100
AcDbEntity
  8
SPEC
  6
Continuous
 62
     7
100
AcDbLine
 10
-1237.5
 20
1568.195409999999
 30
0.0
 11
975.0000000000001
 21
1568.195409999999
 31
0.0
  0
LINE
  5
58
330
413
100
AcDbEntity
  8
SPEC
  6
Continuous
 62
     7
100
AcDbLine
 10
-1237.5
 20
1343.19541
 30
0.0
 11
975.0000000000001
 21
1343.19541
 31
0.0
  0
LINE
  5
59
330
413
100
AcDbEntity
  8
SPEC
  6
Continuous
 62
     7
100
AcDbLine
 10
-1237.5
 20
1286.945409999999
 30
0.0
 11
975.0000000000001
 21
1286.945409999999
 31
0.0
  0
LINE
  5
5A
330
413
100
AcDbEntity
  8
SPEC
  6
Continuous
 62
     7
100
AcDbLine
 10
-1237.5
 20
1230.69541
 30
0.0
 11
975.0000000000001
 21
1230.69541
 31
0.0
  0
LINE
  5
5B
330
413
100
AcDbEntity
  8
SPEC
  6
Continuous
 62
     7
100
AcDbLine
 10
-1237.5
 20
1174.445409999999
 30
0.0
 11
975.0000000000001
 21
1174.445409999999
 31
0.0
  0
LINE
  5
5C
330
413
100
AcDbEntity
  8
SPEC
  6
Continuous
 62
     7
100
AcDbLine
 10
-1237.5
 20
1118.19541
 30
0.0
 11
975.0000000000001
 21
1118.19541
 31
0.0
  0
TEXT
  5
5D
330
413
100
AcDbEntity
  8
SPEC
 62
     7
100
AcDbText
 10
-1224.0
 20
1805.014176666666
 30
0.0
 40
28.50472005208333
  1
周波数レンジ(-10dB)
 41
0.7
 11
-1224.0
 21
1833.518896718749
 31
0.0
100
AcDbText
 73
     3
  0
TEXT
  5
5E
330
413
100
AcDbEntity
  8
SPEC
 62
     7
100
AcDbText
 10
-1224.0
 20
1692.514176666666
 30
0.0
 40
28.50472005208333
  1
最大音圧レベル
 41
0.7
 11
-1224.0
 21
1721.018896718749
 31
0.0
100
AcDbText
 73
     3
  0
TEXT
  5
5F
330
413
100
AcDbEntity
  8
SPEC
 62
     7
100
AcDbText
 10
-1224.0
 20
1748.764176666666
 30
0.0
 40
28.50472005208333
  1
指向角度(水平×垂直)
 41
0.7
 11
-1224.0
 21
1777.268896718749
 31
0.0
100
AcDbText
 73
     3
  0
TEXT
  5
60
330
413
100
AcDbEntity
  8
SPEC
 62
     7
100
AcDbText
 10
-1224.0
 20
1636.264176666666
 30
0.0
 40
28.50472005208333
  1
感度(1W、1m)
 41
0.7
 11
-1224.0
 21
1664.768896718749
 31
0.0
100
AcDbText
 73
     3
  0
TEXT
  5
61
330
413
100
AcDbEntity
  8
SPEC
 62
     7
100
AcDbText
 10
-1224.0
 20
1580.014176666666
 30
0.0
 40
28.50472005208333
  1
公称インピーダンス
 41
0.7
 11
-1224.0
 21
1608.518896718749
 31
0.0
100
AcDbText
 73
     3
  0
TEXT
  5
62
330
413
100
AcDbEntity
  8
SPEC
 62
     7
100
AcDbText
 10
-1224.0
 20
1523.764176666666
 30
0.0
 40
28.50472005208333
  1
許容入力
 41
0.7
 11
-1224.0
 21
1552.268896718749
 31
0.0
100
AcDbText
 73
     3
  0
TEXT
  5
63
330
413
100
AcDbEntity
  8
SPEC
 62
     7
100
AcDbText
 10
-1224.0
 20
1467.514176666666
 30
0.0
 40
28.50472005208333
  1
ドライバー構成
 41
0.7
 11
-1224.0
 21
1496.018896718749
 31
0.0
100
AcDbText
 73
     3
  0
TEXT
  5
64
330
413
100
AcDbEntity
  8
SPEC
 62
     7
100
AcDbText
 10
-1224.0
 20
1355.014176666666
 30
0.0
 40
28.50472005208333
  1
クロスオーバー周波数
 41
0.7
 11
-1224.0
 21
1383.518896718749
 31
0.0
100
AcDbText
 73
     3
  0
TEXT
  5
65
330
413
100
AcDbEntity
  8
SPEC
 62
     7
100
AcDbText
 10
-1224.0
 20
1298.764176666666
 30
0.0
 40
28.50472005208333
  1
入力端子
 41
0.7
 11
-1224.0
 21
1327.26889671875
 31
0.0
100
AcDbText
 73
     3
  0
TEXT
  5
66
330
413
100
AcDbEntity
  8
SPEC
 62
     7
100
AcDbText
 10
-1224.0
 20
1242.514176666666
 30
0.0
 40
28.50472005208333
  1
エンクロージャー
 41
0.7
 11
-1224.0
 21
1271.018896718749
 31
0.0
100
AcDbText
 73
     3
  0
TEXT
  5
67
330
413
100
AcDbEntity
  8
SPEC
 62
     7
100
AcDbText
 10
-736.4999999999996
 20
1805.014176666666
 30
0.0
 40
28.50472005208333
  1
55Hz～19kHz
 41
0.7
 11
-736.4999999999996
 21
1833.518896718749
 31
0.0
100
AcDbText
 73
     3
  0
TEXT
  5
68
330
413
100
AcDbEntity
  8
SPEC
 62
     7
100
AcDbText
 10
-736.4999999999996
 20
1692.514176666666
 30
0.0
 40
28.50472005208333
  1
128dB SPL(ピーク)
 41
0.7
 11
-736.4999999999996
 21
1721.018896718749
 31
0.0
100
AcDbText
 73
     3
  0
TEXT
  5
69
330
413
100
AcDbEntity
  8
SPEC
 62
     7
100
AcDbText
 10
-736.4999999999996
 20
1748.764176666666
 30
0.0
 40
28.50472005208333
  1
90°×50°
 41
0.7
 11
-736.4999999999996
 21
1777.268896718749
 31
0.0
100
AcDbText
 73
     3
  0
TEXT
  5
6A
330
413
100
AcDbEntity
  8
SPEC
 62
     7
100
AcDbText
 10
-736.4999999999996
 20
1636.264176666666
 30
0.0
 40
28.50472005208333
  1
98dB SPL
 41
0.7
 11
-736.4999999999996
 21
1664.768896718749
 31
0.0
100
AcDbText
 73
     3
  0
TEXT
  5
6B
330
413
100
AcDbEntity
  8
SPEC
 62
     7
100
AcDbText
 10
-736.4999999999996
 20
1580.014176666666
 30
0.0
 40
28.50472005208333
  1
8Ω
 41
0.7
 11
-736.4999999999996
 21
1608.518896718749
 31
0.0
100
AcDbText
 73
     3
  0
TEXT
  5
6C
330
413
100
AcDbEntity
  8
SPEC
 62
     7
100
AcDbText
 10
-736.4999999999996
 20
1523.764176666666
 30
0.0
 40
28.50472005208333
  1
300W(連続)、1,200W(ピーク)
 41
0.7
 11
-736.4999999999996
 21
1552.268896718749
 31
0.0
100
AcDbText
 73
     3
  0
TEXT
  5
6D
330
413
100
AcDbEntity
  8
SPEC
 62
     7
100
AcDbText
 10
-911.5
 20
1411.264176666666
 30
0.0
 40
28.50472005208333
  1
HF
 41
0.7
 11
-911.5
 21
1439.768896718749
 31
0.0
100
AcDbText
 73
     3
  0
TEXT
  5
6E
330
413
100
AcDbEntity
  8
SPEC
 62
     7
100
AcDbText
 10
-736.4999999999996
 20
1355.014176666666
 30
0.0
 40
28.50472005208333
  1
2.2kHz
 41
0.7
 11
-736.4999999999996
 21
1383.518896718749
 31
0.0
100
AcDbText
 73
     3
  0
TEXT
  5
6F
330
413
100
AcDbEntity
  8
SPEC
 62
     7
100
AcDbText
 10
-736.4999999999996
 20
1298.764176666666
 30
0.0
 40
28.50472005208333
  1
2Pスピコンと標準フォーンジャック(2P)対応の複合型端子×2
 41
0.7
 11
-736.4999999999996
 21
1327.26889671875
 31
0.0
100
AcDbText
 73
     3
  0
TEXT
  5
70
330
413
100
AcDbEntity
  8
SPEC
 62
     7
100
AcDbText
 10
-736.4999999999996
 20
1242.514176666666
 30
0.0
 40
28.50472005208333
  1
18mmカバ/ポプラ合板、白、Duraflex仕上げ
 41
0.7
 11
-736.4999999999996
 21
1271.018896718749
 31
0.0
100
AcDbText
 73
     3
  0
LINE
  5
71
330
413
100
AcDbEntity
  8
SPEC
  6
Continuous
 62
     7
100
AcDbLine
 10
-1237.5
 20
1511.94541
 30
0.0
 11
975.0000000000001
 21
1511.94541
 31
0.0
  0
LINE
  5
72
330
413
100
AcDbEntity
  8
SPEC
  6
Continuous
 62
     7
100
AcDbLine
 10
-925.0
 20
1455.695409999999
 30
0.0
 11
975.0000000000001
 21
1455.695409999999
 31
0.0
  0
LINE
  5
73
330
413
100
AcDbEntity
  8
SPEC
  6
Continuous
 62
     7
100
AcDbLine
 10
-1237.5
 20
1399.44541
 30
0.0
 11
975.0000000000001
 21
1399.44541
 31
0.0
  0
LINE
  5
74
330
413
100
AcDbEntity
  8
SPEC
  6
Continuous
 62
     7
100
AcDbLine
 10
-925.0
 20
1511.94541
 30
0.0
 11
-925.0
 21
1399.44541
 31
0.0
  0
TEXT
  5
75
330
413
100
AcDbEntity
  8
SPEC
 62
     7
100
AcDbText
 10
-911.5
 20
1467.514176666666
 30
0.0
 40
28.50472005208333
  1
LF
 41
0.7
 11
-911.5
 21
1496.018896718749
 31
0.0
100
AcDbText
 73
     3
  0
TEXT
  5
76
330
413
100
AcDbEntity
  8
SPEC
 62
     7
100
AcDbText
 10
-736.4999999999996
 20
1411.264176666666
 30
0.0
 40
28.50472005208333
  1
2414H-C(1インチ(25mm))
 41
0.7
 11
-736.4999999999996
 21
1439.768896718749
 31
0.0
100
AcDbText
 73
     3
  0
TEXT
  5
77
330
413
100
AcDbEntity
  8
SPEC
 62
     7
100
AcDbText
 10
-736.4999999999996
 20
1467.514176666666
 30
0.0
 40
28.50472005208333
  1
M115-8A(15インチ(381mm))
 41
0.7
 11
-736.4999999999996
 21
1496.018896718749
 31
0.0
100
AcDbText
 73
     3
  0
TEXT
  5
78
330
413
100
AcDbEntity
  8
DIMNSIONS
 62
     7
100
AcDbText
 10
-299.9999999999999
 20
-1716.512239999999
 30
0.0
 40
36.64892578125
  1
(単位：mm)
 41
0.7
 11
-299.9999999999999
 21
-1679.863314218749
 31
0.0
100
AcDbText
 73
     3
  0
LINE
  5
79
330
413
100
AcDbEntity
  8
DIMNSIONS
  6
Continuous
 62
     7
100
AcDbLine
 10
-840.0000000001151
 20
-956.4999999999999
 30
0.0
 11
-660.0
 21
-956.4999999999999
 31
0.0
  0
LINE
  5
7A
330
413
100
AcDbEntity
  8
DIMNSIONS
  6
Continuous
 62
     7
100
AcDbLine
 10
-730.000000000115
 20
-1000.0
 30
0.0
 11
-660.0
 21
-1000.0
 31
0.0
  0
LINE
  5
7B
330
413
100
AcDbEntity
  8
DIMNSIONS
  6
Continuous
 62
     7
100
AcDbLine
 10
-675.0
 20
-1000.0
 30
0.0
 11
-675.0
 21
-956.4999999999999
 31
0.0
  0
LINE
  5
7C
330
413
100
AcDbEntity
  8
DIMNSIONS
  6
Continuous
 62
     7
100
AcDbLine
 10
-675.0
 20
-956.4999999999999
 30
0.0
 11
-675.0
 21
-904.0
 31
0.0
  0
LINE
  5
7D
330
413
100
AcDbEntity
  8
DIMNSIONS
  6
Continuous
 62
     7
100
AcDbLine
 10
-675.0
 20
-956.4999999999999
 30
0.0
 11
-683.0379851433089
 21
-926.5018310546876
 31
0.0
  0
LINE
  5
7E
330
413
100
AcDbEntity
  8
DIMNSIONS
  6
Continuous
 62
     7
100
AcDbLine
 10
-675.0
 20
-956.4999999999999
 30
0.0
 11
-666.962014856691
 21
-926.5018310546876
 31
0.0
  0
LINE
  5
7F
330
413
100
AcDbEntity
  8
DIMNSIONS
  6
Continuous
 62
     7
100
AcDbLine
 10
-675.0
 20
-1000.0
 30
0.0
 11
-675.0
 21
-1130.833333333333
 31
0.0
  0
LINE
  5
80
330
413
100
AcDbEntity
  8
DIMNSIONS
  6
Continuous
 62
     7
100
AcDbLine
 10
-675.0
 20
-1000.0
 30
0.0
 11
-666.962014856691
 21
-1029.998168945312
 31
0.0
  0
LINE
  5
81
330
413
100
AcDbEntity
  8
DIMNSIONS
  6
Continuous
 62
     7
100
AcDbLine
 10
-675.0
 20
-1000.0
 30
0.0
 11
-683.0379851433089
 21
-1029.998168945312
 31
0.0
  0
TEXT
  5
82
330
413
100
AcDbEntity
  8
DIMNSIONS
 62
     7
100
AcDbText
 10
-689.9083333333331
 20
-1130.833333333333
 30
0.0
 40
40.72102864583334
  1
43.5
 50
90.0
 41
0.7
 11
-730.6293619791666
 21
-1130.833333333333
 31
0.0
100
AcDbText
 73
     3
  0
LINE
  5
83
330
413
100
AcDbEntity
  8
DIMNSIONS
  6
Continuous
 62
     7
100
AcDbLine
 10
-840.0000000001151
 20
-956.4999999999999
 30
0.0
 11
-660.0
 21
-956.4999999999999
 31
0.0
  0
LINE
  5
84
330
413
100
AcDbEntity
  8
DIMNSIONS
  6
Continuous
 62
     7
100
AcDbLine
 10
-840.0000000001151
 20
-393.5000000000002
 30
0.0
 11
-660.0
 21
-393.5000000000002
 31
0.0
  0
LINE
  5
85
330
413
100
AcDbEntity
  8
DIMNSIONS
  6
Continuous
 62
     7
100
AcDbLine
 10
-675.0
 20
-956.4999999999999
 30
0.0
 11
-675.0
 21
-393.5000000000002
 31
0.0
  0
LINE
  5
86
330
413
100
AcDbEntity
  8
DIMNSIONS
  6
Continuous
 62
     7
100
AcDbLine
 10
-675.0
 20
-956.4999999999999
 30
0.0
 11
-683.0379851433089
 21
-926.5018310546876
 31
0.0
  0
LINE
  5
87
330
413
100
AcDbEntity
  8
DIMNSIONS
  6
Continuous
 62
     7
100
AcDbLine
 10
-675.0
 20
-956.4999999999999
 30
0.0
 11
-666.962014856691
 21
-926.5018310546876
 31
0.0
  0
LINE
  5
88
330
413
100
AcDbEntity
  8
DIMNSIONS
  6
Continuous
 62
     7
100
AcDbLine
 10
-675.0
 20
-393.5000000000002
 30
0.0
 11
-666.962014856691
 21
-423.4981689453126
 31
0.0
  0
LINE
  5
89
330
413
100
AcDbEntity
  8
DIMNSIONS
  6
Continuous
 62
     7
100
AcDbLine
 10
-675.0
 20
-393.5000000000002
 30
0.0
 11
-683.0379851433089
 21
-423.4981689453126
 31
0.0
  0
TEXT
  5
8A
330
413
100
AcDbEntity
  8
DIMNSIONS
 62
     7
100
AcDbText
 10
-689.9083333333335
 20
-714.6875000000001
 30
0.0
 40
40.72102864583334
  1
563
 50
90.0
 41
0.7
 11
-730.6293619791668
 21
-714.6875000000001
 31
0.0
100
AcDbText
 73
     3
  0
LINE
  5
8B
330
413
100
AcDbEntity
  8
DIMNSIONS
  6
Continuous
 62
     7
100
AcDbLine
 10
-862.5794341464583
 20
-966.6946926829595
 30
0.0
 11
-900.0
 21
-1050.0
 31
0.0
  0
LINE
  5
8C
330
413
100
AcDbEntity
  8
DIMNSIONS
  6
Continuous
 62
     7
100
AcDbLine
 10
-862.5794341464583
 20
-966.6946926829595
 30
0.0
 11
-867.4377238654273
 21
-997.3687267548275
 31
0.0
  0
LINE
  5
8D
330
413
100
AcDbEntity
  8
DIMNSIONS
  6
Continuous
 62
     7
100
AcDbLine
 10
-862.5794341464583
 20
-966.6946926829595
 30
0.0
 11
-882.1238534979642
 21
-990.8300405662624
 31
0.0
  0
LINE
  5
8E
330
413
100
AcDbEntity
  8
DIMNSIONS
  6
Continuous
 62
     7
100
AcDbLine
 10
-900.0
 20
-1050.0
 30
0.0
 11
-930.0
 21
-1050.0
 31
0.0
  0
TEXT
  5
8F
330
413
100
AcDbEntity
  8
DIMNSIONS
 62
     7
100
AcDbText
 10
-1062.291666666666
 20
-1069.05
 30
0.0
 40
40.72102864583334
  1
2-M10
 41
0.7
 11
-1062.291666666666
 21
-1028.328971354167
 31
0.0
100
AcDbText
 73
     3
  0
LINE
  5
90
330
413
100
AcDbEntity
  8
DIMNSIONS
  6
Continuous
 62
     7
100
AcDbLine
 10
-1200.0
 20
-337.0000000000003
 30
0.0
 11
-1200.0
 21
-285.0000000000001
 31
0.0
  0
LINE
  5
91
330
413
100
AcDbEntity
  8
DIMNSIONS
  6
Continuous
 62
     7
100
AcDbLine
 10
-858.0000000001151
 20
-375.5000000000002
 30
0.0
 11
-858.0000000001151
 21
-285.0000000000001
 31
0.0
  0
LINE
  5
92
330
413
100
AcDbEntity
  8
DIMNSIONS
  6
Continuous
 62
     7
100
AcDbLine
 10
-1200.0
 20
-300.0
 30
0.0
 11
-858.0000000001151
 21
-300.0
 31
0.0
  0
LINE
  5
93
330
413
100
AcDbEntity
  8
DIMNSIONS
  6
Continuous
 62
     7
100
AcDbLine
 10
-1200.0
 20
-300.0
 30
0.0
 11
-1170.001831054687
 21
-291.9620148566913
 31
0.0
  0
LINE
  5
94
330
413
100
AcDbEntity
  8
DIMNSIONS
  6
Continuous
 62
     7
100
AcDbLine
 10
-1200.0
 20
-300.0
 30
0.0
 11
-1170.001831054687
 21
-308.037985143309
 31
0.0
  0
LINE
  5
95
330
413
100
AcDbEntity
  8
DIMNSIONS
  6
Continuous
 62
     7
100
AcDbLine
 10
-858.0000000001151
 20
-300.0
 30
0.0
 11
-887.9981689454275
 21
-308.0379851433091
 31
0.0
  0
LINE
  5
96
330
413
100
AcDbEntity
  8
DIMNSIONS
  6
Continuous
 62
     7
100
AcDbLine
 10
-858.0000000001151
 20
-300.0
 30
0.0
 11
-887.9981689454275
 21
-291.9620148566913
 31
0.0
  0
TEXT
  5
97
330
413
100
AcDbEntity
  8
DIMNSIONS
 62
     7
100
AcDbText
 10
-1068.687500000057
 20
-285.0916666666667
 30
0.0
 40
40.72102864583334
  1
342
 41
0.7
 11
-1068.687500000057
 21
-244.3706380208334
 31
0.0
100
AcDbText
 73
     3
  0
LINE
  5
98
330
413
100
AcDbEntity
  8
DIMNSIONS
  6
Continuous
 62
     7
100
AcDbLine
 10
-514.5
 20
-1013.0
 30
0.0
 11
-514.5
 21
-1115.0
 31
0.0
  0
LINE
  5
99
330
413
100
AcDbEntity
  8
DIMNSIONS
  6
Continuous
 62
     7
100
AcDbLine
 10
-85.5
 20
-1013.0
 30
0.0
 11
-85.5
 21
-1115.0
 31
0.0
  0
LINE
  5
9A
330
413
100
AcDbEntity
  8
DIMNSIONS
  6
Continuous
 62
     7
100
AcDbLine
 10
-514.5
 20
-1100.0
 30
0.0
 11
-85.5
 21
-1100.0
 31
0.0
  0
LINE
  5
9B
330
413
100
AcDbEntity
  8
DIMNSIONS
  6
Continuous
 62
     7
100
AcDbLine
 10
-514.5
 20
-1100.0
 30
0.0
 11
-484.5018310546874
 21
-1091.962014856691
 31
0.0
  0
LINE
  5
9C
330
413
100
AcDbEntity
  8
DIMNSIONS
  6
Continuous
 62
     7
100
AcDbLine
 10
-514.5
 20
-1100.0
 30
0.0
 11
-484.5018310546874
 21
-1108.037985143309
 31
0.0
  0
LINE
  5
9D
330
413
100
AcDbEntity
  8
DIMNSIONS
  6
Continuous
 62
     7
100
AcDbLine
 10
-85.5
 20
-1100.0
 30
0.0
 11
-115.4981689453125
 21
-1108.037985143309
 31
0.0
  0
LINE
  5
9E
330
413
100
AcDbEntity
  8
DIMNSIONS
  6
Continuous
 62
     7
100
AcDbLine
 10
-85.5
 20
-1100.0
 30
0.0
 11
-115.4981689453125
 21
-1091.962014856691
 31
0.0
  0
TEXT
  5
9F
330
413
100
AcDbEntity
  8
DIMNSIONS
 62
     7
100
AcDbText
 10
-339.6875126163165
 20
-1085.091664127632
 30
0.0
 40
40.72104260201945
  1
429
 41
0.7
 11
-339.6875126163165
 21
-1044.370621525613
 31
0.0
100
AcDbText
 73
     3
  0
LINE
  5
A0
330
413
100
AcDbEntity
  8
DIMNSIONS
  6
Continuous
 62
     7
100
AcDbLine
 10
-527.5
 20
-1000.0
 30
0.0
 11
-590.0
 21
-1000.0
 31
0.0
  0
LINE
  5
A1
330
413
100
AcDbEntity
  8
DIMNSIONS
  6
Continuous
 62
     7
100
AcDbLine
 10
-527.5
 20
-350.0000000000002
 30
0.0
 11
-590.0
 21
-350.0000000000002
 31
0.0
  0
LINE
  5
A2
330
413
100
AcDbEntity
  8
DIMNSIONS
  6
Continuous
 62
     7
100
AcDbLine
 10
-575.0
 20
-1000.0
 30
0.0
 11
-575.0
 21
-350.0000000000002
 31
0.0
  0
LINE
  5
A3
330
413
100
AcDbEntity
  8
DIMNSIONS
  6
Continuous
 62
     7
100
AcDbLine
 10
-575.0
 20
-1000.0
 30
0.0
 11
-583.0379851433089
 21
-970.0018310546877
 31
0.0
  0
LINE
  5
A4
330
413
100
AcDbEntity
  8
DIMNSIONS
  6
Continuous
 62
     7
100
AcDbLine
 10
-575.0
 20
-1000.0
 30
0.0
 11
-566.962014856691
 21
-970.0018310546877
 31
0.0
  0
LINE
  5
A5
330
413
100
AcDbEntity
  8
DIMNSIONS
  6
Continuous
 62
     7
100
AcDbLine
 10
-575.0
 20
-350.0000000000002
 30
0.0
 11
-566.962014856691
 21
-379.9981689453127
 31
0.0
  0
LINE
  5
A6
330
413
100
AcDbEntity
  8
DIMNSIONS
  6
Continuous
 62
     7
100
AcDbLine
 10
-575.0
 20
-350.0000000000002
 30
0.0
 11
-583.0379851433089
 21
-379.9981689453127
 31
0.0
  0
TEXT
  5
A7
330
413
100
AcDbEntity
  8
DIMNSIONS
 62
     7
100
AcDbText
 10
-589.9083358723674
 20
-714.6875126163166
 30
0.0
 40
40.72104260201945
  1
650
 50
90.0
 41
0.7
 11
-630.629378474387
 21
-714.6875126163166
 31
0.0
100
AcDbText
 73
     3
  0
LINE
  5
A8
330
413
100
AcDbEntity
  8
DIMNSIONS
  6
Continuous
 62
     7
100
AcDbLine
 10
-318.0000000000014
 20
-200.0
 30
0.0
 11
-590.0
 21
-200.0
 31
0.0
  0
LINE
  5
A9
330
413
100
AcDbEntity
  8
DIMNSIONS
  6
Continuous
 62
     7
100
AcDbLine
 10
-279.4807621135333
 20
257.0000000000001
 30
0.0
 11
-590.0
 21
257.0000000000001
 31
0.0
  0
LINE
  5
AA
330
413
100
AcDbEntity
  8
DIMNSIONS
  6
Continuous
 62
     7
100
AcDbLine
 10
-575.0
 20
-200.0
 30
0.0
 11
-575.0
 21
257.0000000000001
 31
0.0
  0
LINE
  5
AB
330
413
100
AcDbEntity
  8
DIMNSIONS
  6
Continuous
 62
     7
100
AcDbLine
 10
-575.0
 20
-200.0
 30
0.0
 11
-583.0379851433089
 21
-170.0018310546875
 31
0.0
  0
LINE
  5
AC
330
413
100
AcDbEntity
  8
DIMNSIONS
  6
Continuous
 62
     7
100
AcDbLine
 10
-575.0
 20
-200.0
 30
0.0
 11
-566.962014856691
 21
-170.0018310546875
 31
0.0
  0
LINE
  5
AD
330
413
100
AcDbEntity
  8
DIMNSIONS
  6
Continuous
 62
     7
100
AcDbLine
 10
-575.0
 20
257.0000000000001
 30
0.0
 11
-566.962014856691
 21
227.0018310546876
 31
0.0
  0
LINE
  5
AE
330
413
100
AcDbEntity
  8
DIMNSIONS
  6
Continuous
 62
     7
100
AcDbLine
 10
-575.0
 20
257.0000000000001
 30
0.0
 11
-583.0379851433089
 21
227.0018310546876
 31
0.0
  0
TEXT
  5
AF
330
413
100
AcDbEntity
  8
DIMNSIONS
 62
     7
100
AcDbText
 10
-589.9083358723674
 20
-11.18751261631642
 30
0.0
 40
40.72104260201945
  1
457
 50
90.0
 41
0.7
 11
-630.629378474387
 21
-11.18751261631642
 31
0.0
100
AcDbText
 73
     3
  0
LINE
  5
B0
330
413
100
AcDbEntity
  8
DIMNSIONS
  6
Continuous
 62
     7
100
AcDbLine
 10
-472.5
 20
-102.9999999999999
 30
0.0
 11
-472.5
 21
-290.0
 31
0.0
  0
LINE
  5
B1
330
413
100
AcDbEntity
  8
DIMNSIONS
  6
Continuous
 62
     7
100
AcDbLine
 10
-127.5
 20
-102.9999999999999
 30
0.0
 11
-127.5
 21
-290.0
 31
0.0
  0
LINE
  5
B2
330
413
100
AcDbEntity
  8
DIMNSIONS
  6
Continuous
 62
     7
100
AcDbLine
 10
-472.5
 20
-275.0
 30
0.0
 11
-127.5
 21
-275.0
 31
0.0
  0
LINE
  5
B3
330
413
100
AcDbEntity
  8
DIMNSIONS
  6
Continuous
 62
     7
100
AcDbLine
 10
-472.5
 20
-275.0
 30
0.0
 11
-442.5018310546875
 21
-266.9620148566912
 31
0.0
  0
LINE
  5
B4
330
413
100
AcDbEntity
  8
DIMNSIONS
  6
Continuous
 62
     7
100
AcDbLine
 10
-472.5
 20
-275.0
 30
0.0
 11
-442.5018310546875
 21
-283.0379851433089
 31
0.0
  0
LINE
  5
B5
330
413
100
AcDbEntity
  8
DIMNSIONS
  6
Continuous
 62
     7
100
AcDbLine
 10
-127.5
 20
-275.0
 30
0.0
 11
-157.4981689453125
 21
-283.0379851433089
 31
0.0
  0
LINE
  5
B6
330
413
100
AcDbEntity
  8
DIMNSIONS
  6
Continuous
 62
     7
100
AcDbLine
 10
-127.5
 20
-275.0
 30
0.0
 11
-157.4981689453125
 21
-266.9620148566912
 31
0.0
  0
TEXT
  5
B7
330
413
100
AcDbEntity
  8
DIMNSIONS
 62
     7
100
AcDbText
 10
-339.6875151395797
 20
-260.0916637964542
 30
0.0
 40
40.72104442239182
  1
345
 41
0.7
 11
-339.6875151395797
 21
-219.3706193740624
 31
0.0
100
AcDbText
 73
     3
  0
LINE
  5
B8
330
413
100
AcDbEntity
  8
DIMNSIONS
  6
Continuous
 62
     7
100
AcDbLine
 10
-303.5
 20
209.0000000000001
 30
0.0
 11
-303.5
 21
315.0
 31
0.0
  0
LINE
  5
B9
330
413
100
AcDbEntity
  8
DIMNSIONS
  6
Continuous
 62
     7
100
AcDbLine
 10
-85.5
 20
268.0000000000001
 30
0.0
 11
-85.5
 21
315.0
 31
0.0
  0
LINE
  5
BA
330
413
100
AcDbEntity
  8
DIMNSIONS
  6
Continuous
 62
     7
100
AcDbLine
 10
-303.5
 20
300.0
 30
0.0
 11
-85.5
 21
300.0
 31
0.0
  0
LINE
  5
BB
330
413
100
AcDbEntity
  8
DIMNSIONS
  6
Continuous
 62
     7
100
AcDbLine
 10
-303.5
 20
300.0
 30
0.0
 11
-273.5018310546875
 21
308.0379851433089
 31
0.0
  0
LINE
  5
BC
330
413
100
AcDbEntity
  8
DIMNSIONS
  6
Continuous
 62
     7
100
AcDbLine
 10
-303.5
 20
300.0
 30
0.0
 11
-273.5018310546875
 21
291.9620148566912
 31
0.0
  0
LINE
  5
BD
330
413
100
AcDbEntity
  8
DIMNSIONS
  6
Continuous
 62
     7
100
AcDbLine
 10
-85.5
 20
300.0
 30
0.0
 11
-115.4981689453125
 21
291.9620148566912
 31
0.0
  0
LINE
  5
BE
330
413
100
AcDbEntity
  8
DIMNSIONS
  6
Continuous
 62
     7
100
AcDbLine
 10
-85.5
 20
300.0
 30
0.0
 11
-115.4981689453125
 21
308.0379851433089
 31
0.0
  0
TEXT
  5
BF
330
413
100
AcDbEntity
  8
DIMNSIONS
 62
     7
100
AcDbText
 10
-234.1875151395798
 20
314.9083362035458
 30
0.0
 40
40.72104442239182
  1
218
 41
0.7
 11
-234.1875151395798
 21
355.6293806259376
 31
0.0
100
AcDbText
 73
     3
  0
LINE
  5
C0
330
413
100
AcDbEntity
  8
DIMNSIONS
  6
Continuous
 62
     7
100
AcDbLine
 10
-285.5
 20
191.0000000000001
 30
0.0
 11
15.0
 21
191.0000000000001
 31
0.0
  0
LINE
  5
C1
330
413
100
AcDbEntity
  8
DIMNSIONS
  6
Continuous
 62
     7
100
AcDbLine
 10
-72.5
 20
257.0000000000001
 30
0.0
 11
15.0
 21
257.0000000000001
 31
0.0
  0
LINE
  5
C2
330
413
100
AcDbEntity
  8
DIMNSIONS
  6
Continuous
 62
     7
100
AcDbLine
 10
0.0
 20
257.0000000000001
 30
0.0
 11
0.0
 21
191.0000000000001
 31
0.0
  0
LINE
  5
C3
330
413
100
AcDbEntity
  8
DIMNSIONS
  6
Continuous
 62
     7
100
AcDbLine
 10
0.0
 20
191.0000000000001
 30
0.0
 11
0.0
 21
138.5000000000001
 31
0.0
  0
LINE
  5
C4
330
413
100
AcDbEntity
  8
DIMNSIONS
  6
Continuous
 62
     7
100
AcDbLine
 10
0.0
 20
191.0000000000001
 30
0.0
 11
8.037985143308867
 21
161.0018310546876
 31
0.0
  0
LINE
  5
C5
330
413
100
AcDbEntity
  8
DIMNSIONS
  6
Continuous
 62
     7
100
AcDbLine
 10
0.0
 20
191.0000000000001
 30
0.0
 11
-8.037985143308869
 21
161.0018310546876
 31
0.0
  0
LINE
  5
C6
330
413
100
AcDbEntity
  8
DIMNSIONS
  6
Continuous
 62
     7
100
AcDbLine
 10
0.0
 20
257.0000000000001
 30
0.0
 11
0.0
 21
380.8333333333335
 31
0.0
  0
LINE
  5
C7
330
413
100
AcDbEntity
  8
DIMNSIONS
  6
Continuous
 62
     7
100
AcDbLine
 10
0.0
 20
257.0000000000001
 30
0.0
 11
-8.037985143308869
 21
286.9981689453126
 31
0.0
  0
LINE
  5
C8
330
413
100
AcDbEntity
  8
DIMNSIONS
  6
Continuous
 62
     7
100
AcDbLine
 10
0.0
 20
257.0000000000001
 30
0.0
 11
8.037985143308867
 21
286.9981689453126
 31
0.0
  0
TEXT
  5
C9
330
413
100
AcDbEntity
  8
DIMNSIONS
 62
     7
100
AcDbText
 10
-14.90833333333334
 20
275.0000000000002
 30
0.0
 40
40.72102864583334
  1
66.0
 50
90.0
 41
0.7
 11
-55.62936197916668
 21
275.0000000000002
 31
0.0
100
AcDbText
 73
     3
  0
LINE
  5
CA
330
413
100
AcDbEntity
  8
DIMNSIONS
  6
Continuous
 62
     7
100
AcDbLine
 10
-72.5
 20
257.0000000000001
 30
0.0
 11
65.0
 21
257.0000000000001
 31
0.0
  0
LINE
  5
CB
330
413
100
AcDbEntity
  8
DIMNSIONS
  6
Continuous
 62
     7
100
AcDbLine
 10
-109.5
 20
-84.99999999999992
 30
0.0
 11
65.0
 21
-84.99999999999992
 31
0.0
  0
LINE
  5
CC
330
413
100
AcDbEntity
  8
DIMNSIONS
  6
Continuous
 62
     7
100
AcDbLine
 10
50.0
 20
257.0000000000001
 30
0.0
 11
50.0
 21
-84.99999999999992
 31
0.0
  0
LINE
  5
CD
330
413
100
AcDbEntity
  8
DIMNSIONS
  6
Continuous
 62
     7
100
AcDbLine
 10
50.0
 20
257.0000000000001
 30
0.0
 11
58.03798514330886
 21
227.0018310546876
 31
0.0
  0
LINE
  5
CE
330
413
100
AcDbEntity
  8
DIMNSIONS
  6
Continuous
 62
     7
100
AcDbLine
 10
50.0
 20
257.0000000000001
 30
0.0
 11
41.96201485669113
 21
227.0018310546876
 31
0.0
  0
LINE
  5
CF
330
413
100
AcDbEntity
  8
DIMNSIONS
  6
Continuous
 62
     7
100
AcDbLine
 10
50.0
 20
-84.99999999999992
 30
0.0
 11
41.96201485669113
 21
-55.00183105468743
 31
0.0
  0
LINE
  5
D0
330
413
100
AcDbEntity
  8
DIMNSIONS
  6
Continuous
 62
     7
100
AcDbLine
 10
50.0
 20
-84.99999999999992
 30
0.0
 11
58.03798514330886
 21
-55.00183105468743
 31
0.0
  0
TEXT
  5
D1
330
413
100
AcDbEntity
  8
DIMNSIONS
 62
     7
100
AcDbText
 10
35.09166666666667
 20
46.31250000000008
 30
0.0
 40
40.72102864583334
  1
342
 50
90.0
 41
0.7
 11
-5.629361979166673
 21
46.31250000000009
 31
0.0
100
AcDbText
 73
     3
  0
LINE
  5
D2
330
413
100
AcDbEntity
  8
DIMNSIONS
  6
Continuous
 62
     7
100
AcDbLine
 10
-122.8586927009866
 20
-95.16667313117221
 30
0.0
 11
-75.0
 21
-200.0
 31
0.0
  0
LINE
  5
D3
330
413
100
AcDbEntity
  8
DIMNSIONS
  6
Continuous
 62
     7
100
AcDbLine
 10
-122.8586927009866
 20
-95.16667313117221
 30
0.0
 11
-102.896030158449
 21
-118.9572479339872
 31
0.0
  0
LINE
  5
D4
330
413
100
AcDbEntity
  8
DIMNSIONS
  6
Continuous
 62
     7
100
AcDbLine
 10
-122.8586927009866
 20
-95.16667313117221
 30
0.0
 11
-117.4658072133805
 21
-125.7512465523127
 31
0.0
  0
LINE
  5
D5
330
413
100
AcDbEntity
  8
DIMNSIONS
  6
Continuous
 62
     7
100
AcDbLine
 10
-75.0
 20
-200.0
 30
0.0
 11
-45.0
 21
-200.0
 31
0.0
  0
TEXT
  5
D6
330
413
100
AcDbEntity
  8
DIMNSIONS
 62
     7
100
AcDbText
 10
-45.0
 20
-219.05
 30
0.0
 40
40.72102864583334
  1
6-M10
 41
0.7
 11
-45.0
 21
-178.3289713541666
 31
0.0
100
AcDbText
 73
     3
  0
LINE
  5
D7
330
413
100
AcDbEntity
  8
DIMNSIONS
  6
Continuous
 62
     7
100
AcDbLine
 10
-290.0358983848629
 20
257.0000000000001
 30
0.0
 11
-505.24130712169
 21
257.0000000000001
 31
0.0
  0
ARC
  5
D8
330
413
100
AcDbEntity
  8
DIMNSIONS
  6
Continuous
 62
     7
100
AcDbCircle
 10
-262.0358983848623
 20
257.0000000000001
 30
0.0
 40
228.2054087368277
100
AcDbArc
 50
180.0
 51
210.0
  0
LINE
  5
D9
330
413
100
AcDbEntity
  8
DIMNSIONS
  6
Continuous
 62
     7
100
AcDbLine
 10
-459.6675796319664
 20
142.8972956315862
 30
0.0
 11
-481.62776343397
 21
164.8574794335898
 31
0.0
  0
LINE
  5
DA
330
413
100
AcDbEntity
  8
DIMNSIONS
  6
Continuous
 62
     7
100
AcDbLine
 10
-459.6675796319664
 20
142.8972956315862
 30
0.0
 11
-467.7055647752752
 21
172.8954645768987
 31
0.0
  0
LINE
  5
DB
330
413
100
AcDbEntity
  8
DIMNSIONS
  6
Continuous
 62
     7
100
AcDbLine
 10
-490.24130712169
 20
257.0000000000001
 30
0.0
 11
-482.2033219783811
 21
227.0018310546876
 31
0.0
  0
LINE
  5
DC
330
413
100
AcDbEntity
  8
DIMNSIONS
  6
Continuous
 62
     7
100
AcDbLine
 10
-490.24130712169
 20
257.0000000000001
 30
0.0
 11
-498.2792922649988
 21
227.0018310546876
 31
0.0
  0
TEXT
  5
DD
330
413
100
AcDbEntity
  8
DIMNSIONS
 62
     7
100
AcDbText
 10
-491.7333672502685
 20
161.3781510778338
 30
0.0
 40
40.72102864583334
  1
30°
 50
100.3221127739949
 41
0.7
 11
-531.7953650421673
 21
154.0816788551302
 31
0.0
100
AcDbText
 73
     3
  0
LINE
  5
DE
330
413
100
AcDbEntity
  8
DIMNSIONS
  6
Continuous
 62
     7
100
AcDbLine
 10
133.0
 20
-393.5000000000002
 30
0.0
 11
567.4999999999999
 21
-393.5000000000002
 31
0.0
  0
LINE
  5
DF
330
413
100
AcDbEntity
  8
DIMNSIONS
  6
Continuous
 62
     7
100
AcDbLine
 10
133.1269999999999
 20
-956.4999999999999
 30
0.0
 11
567.4999999999999
 21
-956.4999999999999
 31
0.0
  0
LINE
  5
E0
330
413
100
AcDbEntity
  8
DIMNSIONS
  6
Continuous
 62
     7
100
AcDbLine
 10
552.5
 20
-393.5000000000002
 30
0.0
 11
552.5
 21
-956.4999999999999
 31
0.0
  0
LINE
  5
E1
330
413
100
AcDbEntity
  8
DIMNSIONS
  6
Continuous
 62
     7
100
AcDbLine
 10
552.5
 20
-393.5000000000002
 30
0.0
 11
560.5379851433089
 21
-423.4981689453126
 31
0.0
  0
LINE
  5
E2
330
413
100
AcDbEntity
  8
DIMNSIONS
  6
Continuous
 62
     7
100
AcDbLine
 10
552.5
 20
-393.5000000000002
 30
0.0
 11
544.4620148566911
 21
-423.4981689453126
 31
0.0
  0
LINE
  5
E3
330
413
100
AcDbEntity
  8
DIMNSIONS
  6
Continuous
 62
     7
100
AcDbLine
 10
552.5
 20
-956.4999999999999
 30
0.0
 11
544.4620148566911
 21
-926.5018310546876
 31
0.0
  0
LINE
  5
E4
330
413
100
AcDbEntity
  8
DIMNSIONS
  6
Continuous
 62
     7
100
AcDbLine
 10
552.5
 20
-956.4999999999999
 30
0.0
 11
560.5379851433089
 21
-926.5018310546876
 31
0.0
  0
TEXT
  5
E5
330
413
100
AcDbEntity
  8
DIMNSIONS
 62
     7
100
AcDbText
 10
537.5916641276326
 20
-714.6875126163166
 30
0.0
 40
40.72104260201945
  1
563
 50
90.0
 41
0.7
 11
496.8706215256131
 21
-714.6875126163166
 31
0.0
100
AcDbText
 73
     3
  0
LINE
  5
E6
330
413
100
AcDbEntity
  8
DIMNSIONS
  6
Continuous
 62
     7
100
AcDbLine
 10
123.3634802439306
 20
-965.5968598526994
 30
0.0
 11
150.0
 21
-1050.0
 31
0.0
  0
LINE
  5
E7
330
413
100
AcDbEntity
  8
DIMNSIONS
  6
Continuous
 62
     7
100
AcDbLine
 10
123.3634802439306
 20
-965.5968598526994
 30
0.0
 11
140.2780023965905
 21
-991.6429398952461
 31
0.0
  0
LINE
  5
E8
330
413
100
AcDbEntity
  8
DIMNSIONS
  6
Continuous
 62
     7
100
AcDbLine
 10
123.3634802439306
 20
-965.5968598526994
 30
0.0
 11
124.9888460997354
 21
-996.6106879148776
 31
0.0
  0
LINE
  5
E9
330
413
100
AcDbEntity
  8
DIMNSIONS
  6
Continuous
 62
     7
100
AcDbLine
 10
150.0
 20
-1050.0
 30
0.0
 11
180.0
 21
-1050.0
 31
0.0
  0
TEXT
  5
EA
330
413
100
AcDbEntity
  8
DIMNSIONS
 62
     7
100
AcDbText
 10
179.9999999999999
 20
-1069.050007380546
 30
0.0
 40
40.72104442239182
  1
2-M10
 41
0.7
 11
179.9999999999999
 21
-1028.328962958154
 31
0.0
100
AcDbText
 73
     3
  0
LINE
  5
EB
330
413
100
AcDbEntity
  8
DIMNSIONS
  6
Continuous
 62
     7
100
AcDbLine
 10
133.0
 20
-956.4999999999999
 30
0.0
 11
567.4999999999999
 21
-956.4999999999999
 31
0.0
  0
LINE
  5
EC
330
413
100
AcDbEntity
  8
DIMNSIONS
  6
Continuous
 62
     7
100
AcDbLine
 10
472.4999999986648
 20
-1000.0
 30
0.0
 11
567.4999999999999
 21
-1000.0
 31
0.0
  0
LINE
  5
ED
330
413
100
AcDbEntity
  8
DIMNSIONS
  6
Continuous
 62
     7
100
AcDbLine
 10
552.5
 20
-1000.0
 30
0.0
 11
552.5
 21
-956.4999999999999
 31
0.0
  0
LINE
  5
EE
330
413
100
AcDbEntity
  8
DIMNSIONS
  6
Continuous
 62
     7
100
AcDbLine
 10
552.5
 20
-956.4999999999999
 30
0.0
 11
552.5
 21
-904.0
 31
0.0
  0
LINE
  5
EF
330
413
100
AcDbEntity
  8
DIMNSIONS
  6
Continuous
 62
     7
100
AcDbLine
 10
552.5
 20
-956.4999999999999
 30
0.0
 11
544.4620148566911
 21
-926.5018310546876
 31
0.0
  0
LINE
  5
F0
330
413
100
AcDbEntity
  8
DIMNSIONS
  6
Continuous
 62
     7
100
AcDbLine
 10
552.5
 20
-956.4999999999999
 30
0.0
 11
560.5379851433089
 21
-926.5018310546876
 31
0.0
  0
LINE
  5
F1
330
413
100
AcDbEntity
  8
DIMNSIONS
  6
Continuous
 62
     7
100
AcDbLine
 10
552.5
 20
-1000.0
 30
0.0
 11
552.5
 21
-1130.833333333333
 31
0.0
  0
LINE
  5
F2
330
413
100
AcDbEntity
  8
DIMNSIONS
  6
Continuous
 62
     7
100
AcDbLine
 10
552.5
 20
-1000.0
 30
0.0
 11
560.5379851433089
 21
-1029.998168945312
 31
0.0
  0
LINE
  5
F3
330
413
100
AcDbEntity
  8
DIMNSIONS
  6
Continuous
 62
     7
100
AcDbLine
 10
552.5
 20
-1000.0
 30
0.0
 11
544.4620148566911
 21
-1029.998168945312
 31
0.0
  0
TEXT
  5
F4
330
413
100
AcDbEntity
  8
DIMNSIONS
 62
     7
100
AcDbText
 10
537.5916666666666
 20
-1130.833333333333
 30
0.0
 40
40.72102864583334
  1
43.5
 50
90.0
 41
0.7
 11
496.8706380208332
 21
-1130.833333333333
 31
0.0
100
AcDbText
 73
     3
  0
LINE
  5
F5
330
413
100
AcDbEntity
  8
DIMNSIONS
  6
Continuous
 62
     7
100
AcDbLine
 10
459.4999999986648
 20
-337.0000000000003
 30
0.0
 11
459.4999999986648
 21
-285.0000000000001
 31
0.0
  0
LINE
  5
F6
330
413
100
AcDbEntity
  8
DIMNSIONS
  6
Continuous
 62
     7
100
AcDbLine
 10
117.4999999986648
 20
-375.5000000000002
 30
0.0
 11
117.4999999986648
 21
-285.0000000000001
 31
0.0
  0
LINE
  5
F7
330
413
100
AcDbEntity
  8
DIMNSIONS
  6
Continuous
 62
     7
100
AcDbLine
 10
459.4999999986648
 20
-300.0
 30
0.0
 11
117.4999999986648
 21
-300.0
 31
0.0
  0
LINE
  5
F8
330
413
100
AcDbEntity
  8
DIMNSIONS
  6
Continuous
 62
     7
100
AcDbLine
 10
459.4999999986648
 20
-300.0
 30
0.0
 11
429.5018310533524
 21
-308.0379851433091
 31
0.0
  0
LINE
  5
F9
330
413
100
AcDbEntity
  8
DIMNSIONS
  6
Continuous
 62
     7
100
AcDbLine
 10
459.4999999986648
 20
-300.0
 30
0.0
 11
429.5018310533524
 21
-291.9620148566913
 31
0.0
  0
LINE
  5
FA
330
413
100
AcDbEntity
  8
DIMNSIONS
  6
Continuous
 62
     7
100
AcDbLine
 10
117.4999999986648
 20
-300.0
 30
0.0
 11
147.4981689439773
 21
-291.9620148566913
 31
0.0
  0
LINE
  5
FB
330
413
100
AcDbEntity
  8
DIMNSIONS
  6
Continuous
 62
     7
100
AcDbLine
 10
117.4999999986648
 20
-300.0
 30
0.0
 11
147.4981689439773
 21
-308.037985143309
 31
0.0
  0
TEXT
  5
FC
330
413
100
AcDbEntity
  8
DIMNSIONS
 62
     7
100
AcDbText
 10
248.8124999986649
 20
-285.0916666666667
 30
0.0
 40
40.72102864583334
  1
342
 41
0.7
 11
248.8124999986649
 21
-244.3706380208334
 31
0.0
100
AcDbText
 73
     3
  0
LINE
  5
FD
330
413
100
AcDbEntity
  8
DIMNSIONS
  6
Continuous
 62
     7
100
AcDbLine
 10
869.5183861457609
 20
-967.4376724715184
 30
0.0
 11
850.0
 21
-1050.0
 31
0.0
  0
LINE
  5
FE
330
413
100
AcDbEntity
  8
DIMNSIONS
  6
Continuous
 62
     7
100
AcDbLine
 10
869.5183861457609
 20
-967.4376724715184
 30
0.0
 11
870.602238517956
 21
-998.4751435229885
 31
0.0
  0
LINE
  5
FF
330
413
100
AcDbEntity
  8
DIMNSIONS
  6
Continuous
 62
     7
100
AcDbLine
 10
869.5183861457609
 20
-967.4376724715184
 30
0.0
 11
854.9382943082989
 21
-994.8588370574132
 31
0.0
  0
LINE
  5
100
330
413
100
AcDbEntity
  8
DIMNSIONS
  6
Continuous
 62
     7
100
AcDbLine
 10
850.0
 20
-1050.0
 30
0.0
 11
820.0
 21
-1050.0
 31
0.0
  0
TEXT
  5
101
330
413
100
AcDbEntity
  8
DIMNSIONS
 62
     7
100
AcDbText
 10
687.7083333333332
 20
-1069.05
 30
0.0
 40
40.72102864583334
  1
2-M10
 41
0.7
 11
687.7083333333332
 21
-1028.328971354167
 31
0.0
100
AcDbText
 73
     3
  0
LINE
  5
102
330
413
100
AcDbEntity
  8
DIMNSIONS
  6
Continuous
 62
     7
100
AcDbLine
 10
892.6816049471081
 20
-956.4999999999999
 30
0.0
 11
1165.0
 21
-956.4999999999999
 31
0.0
  0
LINE
  5
103
330
413
100
AcDbEntity
  8
DIMNSIONS
  6
Continuous
 62
     7
100
AcDbLine
 10
1077.501476353994
 20
-1000.0
 30
0.0
 11
1165.0
 21
-1000.0
 31
0.0
  0
LINE
  5
104
330
413
100
AcDbEntity
  8
DIMNSIONS
  6
Continuous
 62
     7
100
AcDbLine
 10
1150.0
 20
-1000.0
 30
0.0
 11
1150.0
 21
-956.4999999999999
 31
0.0
  0
LINE
  5
105
330
413
100
AcDbEntity
  8
DIMNSIONS
  6
Continuous
 62
     7
100
AcDbLine
 10
1150.0
 20
-956.4999999999999
 30
0.0
 11
1150.0
 21
-904.0
 31
0.0
  0
LINE
  5
106
330
413
100
AcDbEntity
  8
DIMNSIONS
  6
Continuous
 62
     7
100
AcDbLine
 10
1150.0
 20
-956.4999999999999
 30
0.0
 11
1141.962014856691
 21
-926.5018310546876
 31
0.0
  0
LINE
  5
107
330
413
100
AcDbEntity
  8
DIMNSIONS
  6
Continuous
 62
     7
100
AcDbLine
 10
1150.0
 20
-956.4999999999999
 30
0.0
 11
1158.037985143309
 21
-926.5018310546876
 31
0.0
  0
LINE
  5
108
330
413
100
AcDbEntity
  8
DIMNSIONS
  6
Continuous
 62
     7
100
AcDbLine
 10
1150.0
 20
-1000.0
 30
0.0
 11
1150.0
 21
-1130.833333333333
 31
0.0
  0
LINE
  5
109
330
413
100
AcDbEntity
  8
DIMNSIONS
  6
Continuous
 62
     7
100
AcDbLine
 10
1150.0
 20
-1000.0
 30
0.0
 11
1158.037985143309
 21
-1029.998168945312
 31
0.0
  0
LINE
  5
10A
330
413
100
AcDbEntity
  8
DIMNSIONS
  6
Continuous
 62
     7
100
AcDbLine
 10
1150.0
 20
-1000.0
 30
0.0
 11
1141.962014856691
 21
-1029.998168945312
 31
0.0
  0
TEXT
  5
10B
330
413
100
AcDbEntity
  8
DIMNSIONS
 62
     7
100
AcDbText
 10
1135.091666666666
 20
-1130.833333333333
 30
0.0
 40
40.72102864583334
  1
43.5
 50
90.0
 41
0.7
 11
1094.370638020833
 21
-1130.833333333333
 31
0.0
100
AcDbText
 73
     3
  0
LINE
  5
10C
330
413
100
AcDbEntity
  8
DIMNSIONS
  6
Continuous
 62
     7
100
AcDbLine
 10
892.6816049471081
 20
-956.4999999999999
 30
0.0
 11
1165.0
 21
-956.4999999999999
 31
0.0
  0
LINE
  5
10D
330
413
100
AcDbEntity
  8
DIMNSIONS
  6
Continuous
 62
     7
100
AcDbLine
 10
892.6816049471081
 20
-393.5000000000002
 30
0.0
 11
1165.0
 21
-393.5000000000002
 31
0.0
  0
LINE
  5
10E
330
413
100
AcDbEntity
  8
DIMNSIONS
  6
Continuous
 62
     7
100
AcDbLine
 10
1150.0
 20
-956.4999999999999
 30
0.0
 11
1150.0
 21
-393.5000000000002
 31
0.0
  0
LINE
  5
10F
330
413
100
AcDbEntity
  8
DIMNSIONS
  6
Continuous
 62
     7
100
AcDbLine
 10
1150.0
 20
-956.4999999999999
 30
0.0
 11
1141.962014856691
 21
-926.5018310546876
 31
0.0
  0
LINE
  5
110
330
413
100
AcDbEntity
  8
DIMNSIONS
  6
Continuous
 62
     7
100
AcDbLine
 10
1150.0
 20
-956.4999999999999
 30
0.0
 11
1158.037985143309
 21
-926.5018310546876
 31
0.0
  0
LINE
  5
111
330
413
100
AcDbEntity
  8
DIMNSIONS
  6
Continuous
 62
     7
100
AcDbLine
 10
1150.0
 20
-393.5000000000002
 30
0.0
 11
1158.037985143309
 21
-423.4981689453126
 31
0.0
  0
LINE
  5
112
330
413
100
AcDbEntity
  8
DIMNSIONS
  6
Continuous
 62
     7
100
AcDbLine
 10
1150.0
 20
-393.5000000000002
 30
0.0
 11
1141.962014856691
 21
-423.4981689453126
 31
0.0
  0
TEXT
  5
113
330
413
100
AcDbEntity
  8
DIMNSIONS
 62
     7
100
AcDbText
 10
1135.091666666666
 20
-714.6875000000001
 30
0.0
 40
40.72102864583334
  1
563
 50
90.0
 41
0.7
 11
1094.370638020833
 21
-714.6875000000001
 31
0.0
100
AcDbText
 73
     3
  0
TEXT
  5
114
330
413
100
AcDbEntity
  8
DATA
 62
     7
100
AcDbText
 10
-1312.5
 20
-1782.410423333333
 30
0.0
 40
28.50472005208334
  1
※仕様及び外観は予告なく変更されることがあります。
 41
0.7
 11
-1312.5
 21
-1753.90570328125
 31
0.0
100
AcDbText
 73
     3
  0
TEXT
  5
115
330
413
100
AcDbEntity
  8
DATA
 62
     7
100
AcDbText
 10
-1312.5
 20
-1819.45209
 30
0.0
 40
28.50472005208334
  1
　また、同一商品でも若干の個体差があることがあります。ご了承ください。
 41
0.7
 11
-1312.5
 21
-1790.947369947917
 31
0.0
100
AcDbText
 73
     3
  0
TEXT
  5
116
330
413
100
AcDbEntity
  8
DATA
 62
     7
100
AcDbText
 10
749.9999999999996
 20
-1624.841239999999
 30
0.0
 40
36.64892578125
  1
JBL PROFESSIONAL
 41
0.7
 11
749.9999999999996
 21
-1588.192314218749
 31
0.0
100
AcDbText
 73
     3
  0
TEXT
  5
117
330
413
100
AcDbEntity
  8
DATA
 62
     7
100
AcDbText
 10
749.9999999999996
 20
-1733.591239999999
 30
0.0
 40
36.64892578125
  1
PRX415M-WH
 41
0.7
 11
749.9999999999996
 21
-1696.942314218749
 31
0.0
100
AcDbText
 73
     3
  0
TEXT
  5
118
330
413
100
AcDbEntity
  8
DATA
 62
     7
100
AcDbText
 10
712.4999999999996
 20
-1678.900565
 30
0.0
 40
28.50472005208333
  1
2-Wayフルレンジ・スピーカー
 41
0.7
 11
712.4999999999996
 21
-1650.395844947917
 31
0.0
100
AcDbText
 73
     3
  0
TEXT
  5
119
330
413
100
AcDbEntity
  8
DATA
 62
     7
100
AcDbText
 10
885.0309624565971
 20
-281.7102752415315
 30
0.0
 40
40.72102864583334
  1
背面端子拡大図
 41
0.7
 72
     1
 11
1000.0
 21
-261.3497609186148
 31
0.0
100
AcDbText
 73
     2
  0
LINE
  5
11A
330
413
100
AcDbEntity
  8
DATA
  6
Continuous
 62
     7
100
AcDbLine
 10
812.5
 20
-300.0
 30
0.0
 11
1187.5
 21
-300.0
 31
0.0
  0
LINE
  5
11B
330
413
100
AcDbEntity
  8
DATA
  6
Continuous
 62
     7
100
AcDbLine
 10
-147.5179487154332
 20
-191.795082388127
 30
0.0
 11
-92.99499999999985
 21
-160.3162432702593
 31
0.0
  0
ARC
  5
11C
330
413
100
AcDbEntity
  8
DATA
  6
Continuous
 62
     7
100
AcDbCircle
 10
-300.0
 20
904.2904699620015
 30
0.0
 40
1104.290469962001
100
AcDbArc
 50
265.8872007245555
 51
274.1127992754446
  0
ARC
  5
11D
330
413
100
AcDbEntity
  8
DATA
  6
Continuous
 62
     7
100
AcDbCircle
 10
-100.4949999999998
 20
-147.3258622134927
 30
0.0
 40
15.0
100
AcDbArc
 50
300.0
 51
0.0
  0
ARC
  5
11E
330
413
100
AcDbEntity
  8
DATA
  6
Continuous
 62
     7
100
AcDbCircle
 10
-160.0179487154337
 20
-170.1444472935154
 30
0.0
 40
25.00000000000077
100
AcDbArc
 50
275.4368925274582
 51
300.0000000000003
  0
LINE
  5
11F
330
413
100
AcDbEntity
  8
DATA
  6
Continuous
 62
     7
100
AcDbLine
 10
-514.5049999999996
 20
-147.3258622134927
 30
0.0
 11
-514.5
 21
102.5795289339389
 31
0.0
  0
LINE
  5
120
330
413
100
AcDbEntity
  8
DATA
  6
Continuous
 62
     7
100
AcDbLine
 10
-85.5
 20
-147.7131282719071
 30
0.0
 11
-85.5
 21
252.0000000000001
 31
0.0
  0
LINE
  5
121
330
413
100
AcDbEntity
  8
DATA
  6
Continuous
 62
     7
100
AcDbLine
 10
-258.0166604983956
 20
257.0000000000001
 30
0.0
 11
-90.5
 21
257.0000000000001
 31
0.0
  0
LINE
  5
122
330
413
100
AcDbEntity
  8
DATA
  6
Continuous
 62
     7
100
AcDbLine
 10
-507.0
 20
115.5699099907055
 30
0.0
 11
-265.5166604983956
 21
254.9903810567668
 31
0.0
  0
ARC
  5
123
330
413
100
AcDbEntity
  8
DATA
  6
Continuous
 62
     7
100
AcDbCircle
 10
-499.5
 20
102.5795289339388
 30
0.0
 40
15.0
100
AcDbArc
 50
120.0
 51
179.9999999999998
  0
ARC
  5
124
330
413
100
AcDbEntity
  8
DATA
  6
Continuous
 62
     7
100
AcDbCircle
 10
-258.0166604983956
 20
242.0000000000001
 30
0.0
 40
15.0
100
AcDbArc
 50
90.0
 51
119.9999999999998
  0
LINE
  5
125
330
413
100
AcDbEntity
  8
DATA
  6
Continuous
 62
     7
100
AcDbLine
 10
-220.8000000000001
 20
-197.1562160146272
 30
0.0
 11
-157.6492154102979
 21
-195.0319763498355
 31
0.0
  0
LINE
  5
126
330
413
100
AcDbEntity
  8
DATA
  6
Continuous
 62
     7
100
AcDbLine
 10
-452.4820512845668
 20
-191.795082388127
 30
0.0
 11
-507.0049999999997
 21
-160.3162432702593
 31
0.0
  0
ARC
  5
127
330
413
100
AcDbEntity
  8
DATA
  6
Continuous
 62
     7
100
AcDbCircle
 10
-499.5049999999997
 20
-147.3258622134927
 30
0.0
 40
15.0
100
AcDbArc
 50
180.0
 51
240.0
  0
ARC
  5
128
330
413
100
AcDbEntity
  8
DATA
  6
Continuous
 62
     7
100
AcDbCircle
 10
-439.9820512845657
 20
-170.1444472935154
 30
0.0
 40
25.00000000000098
100
AcDbArc
 50
239.9999999999989
 51
264.5631074725417
  0
LINE
  5
129
330
413
100
AcDbEntity
  8
DATA
  6
Continuous
 62
     7
100
AcDbLine
 10
-379.1999999999999
 20
-197.1562160146272
 30
0.0
 11
-442.3507845897016
 21
-195.0319763498355
 31
0.0
  0
CIRCLE
  5
12A
330
413
100
AcDbEntity
  8
DATA
  6
Continuous
 62
     7
100
AcDbCircle
 10
-127.5
 20
-84.99999999999992
 30
0.0
 40
11.17600000000038
  0
LINE
  5
12B
330
413
100
AcDbEntity
  8
DATA
  6
Continuous
 62
     7
100
AcDbLine
 10
-125.7220000000002
 20
-82.20600000000006
 30
0.0
 11
-123.9439999999999
 21
-84.99999999999992
 31
0.0
  0
LINE
  5
12C
330
413
100
AcDbEntity
  8
DATA
  6
Continuous
 62
     7
100
AcDbLine
 10
-129.0239999999998
 20
-87.79399999999981
 30
0.0
 11
-130.8019999999997
 21
-84.99999999999992
 31
0.0
  0
LINE
  5
12D
330
413
100
AcDbEntity
  8
DATA
  6
Continuous
 62
     7
100
AcDbLine
 10
-129.0239999999998
 20
-82.20600000000006
 30
0.0
 11
-125.7220000000002
 21
-82.20600000000006
 31
0.0
  0
LINE
  5
12E
330
413
100
AcDbEntity
  8
DATA
  6
Continuous
 62
     7
100
AcDbLine
 10
-125.7220000000002
 20
-87.79399999999981
 30
0.0
 11
-129.0239999999998
 21
-87.79399999999981
 31
0.0
  0
LINE
  5
12F
330
413
100
AcDbEntity
  8
DATA
  6
Continuous
 62
     7
100
AcDbLine
 10
-130.8019999999997
 20
-84.99999999999992
 30
0.0
 11
-129.0239999999998
 21
-82.20600000000006
 31
0.0
  0
LINE
  5
130
330
413
100
AcDbEntity
  8
DATA
  6
Continuous
 62
     7
100
AcDbLine
 10
-123.9439999999999
 20
-84.99999999999992
 30
0.0
 11
-125.7220000000002
 21
-87.79399999999981
 31
0.0
  0
CIRCLE
  5
131
330
413
100
AcDbEntity
  8
DATA
  6
Continuous
 62
     7
100
AcDbCircle
 10
-472.5
 20
-84.99999999999992
 30
0.0
 40
11.17600000000038
  0
LINE
  5
132
330
413
100
AcDbEntity
  8
DATA
  6
Continuous
 62
     7
100
AcDbLine
 10
-474.2779999999997
 20
-82.20600000000006
 30
0.0
 11
-476.0559999999999
 21
-84.99999999999992
 31
0.0
  0
LINE
  5
133
330
413
100
AcDbEntity
  8
DATA
  6
Continuous
 62
     7
100
AcDbLine
 10
-470.9760000000001
 20
-87.79399999999981
 30
0.0
 11
-469.1980000000003
 21
-84.99999999999992
 31
0.0
  0
LINE
  5
134
330
413
100
AcDbEntity
  8
DATA
  6
Continuous
 62
     7
100
AcDbLine
 10
-470.9760000000001
 20
-82.20600000000006
 30
0.0
 11
-474.2779999999997
 21
-82.20600000000006
 31
0.0
  0
LINE
  5
135
330
413
100
AcDbEntity
  8
DATA
  6
Continuous
 62
     7
100
AcDbLine
 10
-474.2779999999997
 20
-87.79399999999981
 30
0.0
 11
-470.9760000000001
 21
-87.79399999999981
 31
0.0
  0
LINE
  5
136
330
413
100
AcDbEntity
  8
DATA
  6
Continuous
 62
     7
100
AcDbLine
 10
-469.1980000000003
 20
-84.99999999999992
 30
0.0
 11
-470.9760000000001
 21
-82.20600000000006
 31
0.0
  0
LINE
  5
137
330
413
100
AcDbEntity
  8
DATA
  6
Continuous
 62
     7
100
AcDbLine
 10
-476.0559999999999
 20
-84.99999999999992
 30
0.0
 11
-474.2779999999997
 21
-87.79399999999981
 31
0.0
  0
CIRCLE
  5
138
330
413
100
AcDbEntity
  8
DATA
  6
Continuous
 62
     7
100
AcDbCircle
 10
-303.5
 20
191.0000000000001
 30
0.0
 40
11.17600000000038
  0
LINE
  5
139
330
413
100
AcDbEntity
  8
DATA
  6
Continuous
 62
     7
100
AcDbLine
 10
-301.7220000000002
 20
193.794
 30
0.0
 11
-299.944
 21
191.0000000000001
 31
0.0
  0
LINE
  5
13A
330
413
100
AcDbEntity
  8
DATA
  6
Continuous
 62
     7
100
AcDbLine
 10
-305.0239999999999
 20
188.2060000000002
 30
0.0
 11
-306.8019999999997
 21
191.0000000000001
 31
0.0
  0
LINE
  5
13B
330
413
100
AcDbEntity
  8
DATA
  6
Continuous
 62
     7
100
AcDbLine
 10
-305.0239999999999
 20
193.794
 30
0.0
 11
-301.7220000000002
 21
193.794
 31
0.0
  0
LINE
  5
13C
330
413
100
AcDbEntity
  8
DATA
  6
Continuous
 62
     7
100
AcDbLine
 10
-301.7220000000002
 20
188.2060000000002
 30
0.0
 11
-305.0239999999999
 21
188.2060000000002
 31
0.0
  0
LINE
  5
13D
330
413
100
AcDbEntity
  8
DATA
  6
Continuous
 62
     7
100
AcDbLine
 10
-306.8019999999997
 20
191.0000000000001
 30
0.0
 11
-305.0239999999999
 21
193.794
 31
0.0
  0
LINE
  5
13E
330
413
100
AcDbEntity
  8
DATA
  6
Continuous
 62
     7
100
AcDbLine
 10
-299.944
 20
191.0000000000001
 30
0.0
 11
-301.7220000000002
 21
188.2060000000002
 31
0.0
  0
ARC
  5
13F
330
413
100
AcDbEntity
  8
DATA
  6
Continuous
 62
     7
100
AcDbCircle
 10
-90.5
 20
252.0000000000001
 30
0.0
 40
5.0
100
AcDbArc
 50
0.0
 51
90.0
  0
LINE
  5
140
330
413
100
AcDbEntity
  8
DATA
  6
Continuous
 62
     7
100
AcDbLine
 10
-352.5
 20
70.10952380952403
 30
0.0
 11
-352.5
 21
37.00105002583075
 31
0.0
  0
LINE
  5
141
330
413
100
AcDbEntity
  8
DATA
  6
Continuous
 62
     7
100
AcDbLine
 10
-342.5
 20
27.00105002583075
 30
0.0
 11
-257.5
 21
27.00105002583075
 31
0.0
  0
LINE
  5
142
330
413
100
AcDbEntity
  8
DATA
  6
Continuous
 62
     7
100
AcDbLine
 10
-247.5
 20
37.00105002583075
 30
0.0
 11
-247.5
 21
70.10952380952403
 31
0.0
  0
LINE
  5
143
330
413
100
AcDbEntity
  8
DATA
  6
Continuous
 62
     7
100
AcDbLine
 10
-303.5599532759197
 20
95.64487734928992
 30
0.0
 11
-346.0599532759197
 21
79.45440115881376
 31
0.0
  0
LINE
  5
144
330
413
100
AcDbEntity
  8
DATA
  6
Continuous
 62
     7
100
AcDbLine
 10
-296.4400467240802
 20
95.64487734928992
 30
0.0
 11
-253.9400467240803
 21
79.45440115881376
 31
0.0
  0
ARC
  5
145
330
413
100
AcDbEntity
  8
DATA
  6
Continuous
 62
     7
100
AcDbCircle
 10
-342.5
 20
70.10952380952415
 30
0.0
 40
9.999999999999886
100
AcDbArc
 50
110.8544580395776
 51
180.0000000000006
  0
ARC
  5
146
330
413
100
AcDbEntity
  8
DATA
  6
Continuous
 62
     7
100
AcDbCircle
 10
-342.5
 20
37.00105002583075
 30
0.0
 40
10.0
100
AcDbArc
 50
180.0
 51
270.0
  0
ARC
  5
147
330
413
100
AcDbEntity
  8
DATA
  6
Continuous
 62
     7
100
AcDbCircle
 10
-257.5
 20
37.00105002583075
 30
0.0
 40
10.0
100
AcDbArc
 50
270.0
 51
0.0
  0
ARC
  5
148
330
413
100
AcDbEntity
  8
DATA
  6
Continuous
 62
     7
100
AcDbCircle
 10
-257.5
 20
70.10952380952403
 30
0.0
 40
10.0
100
AcDbArc
 50
0.0
 51
69.14554196042257
  0
ARC
  5
149
330
413
100
AcDbEntity
  8
DATA
  6
Continuous
 62
     7
100
AcDbCircle
 10
-300.0
 20
86.3000000000002
 30
0.0
 40
9.999999999999992
100
AcDbArc
 50
69.14554196042257
 51
110.8544580395774
  0
LINE
  5
14A
330
413
100
AcDbEntity
  8
DATA
  6
Continuous
 62
     7
100
AcDbLine
 10
-90.5
 20
-1000.0
 30
0.0
 11
-509.4999999999999
 21
-1000.0
 31
0.0
  0
LINE
  5
14B
330
413
100
AcDbEntity
  8
DATA
  6
Continuous
 62
     7
100
AcDbLine
 10
-509.4999999999999
 20
-350.0000000000002
 30
0.0
 11
-90.5
 21
-350.0000000000002
 31
0.0
  0
CIRCLE
  5
14C
330
413
100
AcDbEntity
  8
DATA
  6
Continuous
 62
     7
100
AcDbCircle
 10
-414.5
 20
-381.5000000000002
 30
0.0
 40
5.5
  0
CIRCLE
  5
14D
330
413
100
AcDbEntity
  8
DATA
  6
Continuous
 62
     7
100
AcDbCircle
 10
-414.5
 20
-381.5000000000002
 30
0.0
 40
3.5
  0
LWPOLYLINE
  5
14E
330
413
100
AcDbEntity
  8
DATA
  6
Continuous
 62
     7
100
AcDbPolyline
 90
        6
 70
     1
 43
0.0
 10
-416.4918584287041
 20
-380.3500000000003
 10
-416.4918584287041
 20
-382.6500000000003
 10
-414.5
 20
-383.8000000000001
 10
-412.5081415712957
 20
-382.6500000000002
 10
-412.5081415712957
 20
-380.3500000000003
 10
-414.5
 20
-379.2000000000002
  0
CIRCLE
  5
157
330
413
100
AcDbEntity
  8
DATA
  6
Continuous
 62
     7
100
AcDbCircle
 10
-414.5
 20
-968.5
 30
0.0
 40
5.5
  0
CIRCLE
  5
158
330
413
100
AcDbEntity
  8
DATA
  6
Continuous
 62
     7
100
AcDbCircle
 10
-414.5
 20
-968.5
 30
0.0
 40
3.5
  0
LWPOLYLINE
  5
159
330
413
100
AcDbEntity
  8
DATA
  6
Continuous
 62
     7
100
AcDbPolyline
 90
        6
 70
     1
 43
0.0
 10
-416.4918584287041
 20
-969.6500000000002
 10
-416.4918584287041
 20
-967.35
 10
-414.5
 20
-966.2000000000002
 10
-412.5081415712957
 20
-967.3500000000002
 10
-412.5081415712957
 20
-969.6500000000002
 10
-414.5
 20
-970.8
  0
LINE
  5
162
330
413
100
AcDbEntity
  8
DATA
  6
Continuous
 62
     7
100
AcDbLine
 10
-514.5
 20
-981.4999999999999
 30
0.0
 11
-85.5
 21
-981.4999999999999
 31
0.0
  0
LINE
  5
163
330
413
100
AcDbEntity
  8
DATA
  6
Continuous
 62
     7
100
AcDbLine
 10
-324.0
 20
-942.5
 30
0.0
 11
-324.0
 21
-877.5000000000002
 31
0.0
  0
LINE
  5
164
330
413
100
AcDbEntity
  8
DATA
  6
Continuous
 62
     7
100
AcDbLine
 10
-283.5
 20
-950.0
 30
0.0
 11
-316.5
 21
-950.0
 31
0.0
  0
LINE
  5
165
330
413
100
AcDbEntity
  8
DATA
  6
Continuous
 62
     7
100
AcDbLine
 10
-276.0
 20
-877.5000000000002
 30
0.0
 11
-276.0
 21
-942.5
 31
0.0
  0
LINE
  5
166
330
413
100
AcDbEntity
  8
DATA
  6
Continuous
 62
     7
100
AcDbLine
 10
-316.5
 20
-870.0000000000001
 30
0.0
 11
-283.5
 21
-870.0000000000001
 31
0.0
  0
LWPOLYLINE
  5
167
330
413
100
AcDbEntity
  8
DATA
  6
Continuous
 62
     7
100
AcDbPolyline
 90
        4
 70
     1
 43
0.0
 10
-316.0
 20
-880.0
 10
-284.0
 20
-880.0
 10
-284.0
 20
-940.0
 10
-316.0
 20
-940.0
  0
ARC
  5
16E
330
413
100
AcDbEntity
  8
DATA
  6
Continuous
 62
     7
100
AcDbCircle
 10
-316.5
 20
-877.5000000000002
 30
0.0
 40
7.5
100
AcDbArc
 50
90.0
 51
180.0
  0
ARC
  5
16F
330
413
100
AcDbEntity
  8
DATA
  6
Continuous
 62
     7
100
AcDbCircle
 10
-316.5
 20
-942.5
 30
0.0
 40
7.5
100
AcDbArc
 50
180.0
 51
270.0
  0
ARC
  5
170
330
413
100
AcDbEntity
  8
DATA
  6
Continuous
 62
     7
100
AcDbCircle
 10
-283.5
 20
-942.5
 30
0.0
 40
7.5
100
AcDbArc
 50
270.0
 51
0.0
  0
ARC
  5
171
330
413
100
AcDbEntity
  8
DATA
  6
Continuous
 62
     7
100
AcDbCircle
 10
-283.5
 20
-877.5000000000002
 30
0.0
 40
7.5
100
AcDbArc
 50
0.0
 51
90.0
  0
LINE
  5
172
330
413
100
AcDbEntity
  8
DATA
  6
Continuous
 62
     7
100
AcDbLine
 10
-284.0
 20
-911.0000000000001
 30
0.0
 11
-316.0
 21
-911.0000000000001
 31
0.0
  0
LINE
  5
173
330
413
100
AcDbEntity
  8
DATA
  6
Continuous
 62
     7
100
AcDbLine
 10
-284.0
 20
-906.5000000000001
 30
0.0
 11
-316.0
 21
-906.5000000000001
 31
0.0
  0
ARC
  5
174
330
413
100
AcDbEntity
  8
DATA
  6
Continuous
 62
     7
100
AcDbCircle
 10
-299.519218636427
 20
-896.8288559547945
 30
0.0
 40
0.318783114818655
100
AcDbArc
 50
307.6419024976263
 51
354.267019289435
  0
LINE
  5
175
330
413
100
AcDbEntity
  8
DATA
  6
Continuous
 62
     7
100
AcDbLine
 10
-307.7075500000001
 20
-891.8053500000002
 30
0.0
 11
-306.2130900000002
 21
-888.2444700000002
 31
0.0
  0
LINE
  5
176
330
413
100
AcDbEntity
  8
DATA
  6
Continuous
 62
     7
100
AcDbLine
 10
-307.7075500000001
 20
-891.8053500000002
 30
0.0
 11
-309.1835700000001
 21
-888.2444700000002
 31
0.0
  0
LINE
  5
177
330
413
100
AcDbEntity
  8
DATA
  6
Continuous
 62
     7
100
AcDbLine
 10
-296.3791500000002
 20
-898.2444700000002
 30
0.0
 11
-296.3791500000002
 21
-888.2444700000002
 31
0.0
  0
LINE
  5
178
330
413
100
AcDbEntity
  8
DATA
  6
Continuous
 62
     7
100
AcDbLine
 10
-294.4603299999999
 20
-888.2444700000002
 30
0.0
 11
-294.4603299999999
 21
-896.7131100000001
 31
0.0
  0
LINE
  5
179
330
413
100
AcDbEntity
  8
DATA
  6
Continuous
 62
     7
100
AcDbLine
 10
-305.5119799999997
 20
-888.2444700000002
 30
0.0
 11
-305.5119799999997
 21
-896.7131100000001
 31
0.0
  0
LINE
  5
17A
330
413
100
AcDbEntity
  8
DATA
  6
Continuous
 62
     7
100
AcDbLine
 10
-303.66696
 20
-888.2444700000002
 30
0.0
 11
-303.66696
 21
-896.7131100000001
 31
0.0
  0
LINE
  5
17B
330
413
100
AcDbEntity
  8
DATA
  6
Continuous
 62
     7
100
AcDbLine
 10
-302.7075500000001
 20
-888.2444700000002
 30
0.0
 11
-302.7075500000001
 21
-898.2444700000002
 31
0.0
  0
LINE
  5
17C
330
413
100
AcDbEntity
  8
DATA
  6
Continuous
 62
     7
100
AcDbLine
 10
-301.0285800000001
 20
-889.18542
 30
0.0
 11
-301.0285800000001
 21
-892.3957600000003
 31
0.0
  0
LINE
  5
17D
330
413
100
AcDbEntity
  8
DATA
  6
Continuous
 62
     7
100
AcDbLine
 10
-297.4299999999999
 20
-892.2100000000002
 30
0.0
 11
-297.4299999999999
 21
-889.8680900000005
 31
0.0
  0
LINE
  5
17E
330
413
100
AcDbEntity
  8
DATA
  6
Continuous
 62
     7
100
AcDbLine
 10
-299.2020299999999
 20
-889.6282300000001
 30
0.0
 11
-299.2020299999999
 21
-891.95296
 31
0.0
  0
ARC
  5
17F
330
413
100
AcDbEntity
  8
DATA
  6
Continuous
 62
     7
100
AcDbCircle
 10
-305.88222
 20
-895.6766700000002
 30
0.0
 40
2.578853425167925
100
AcDbArc
 50
264.6908562215338
 51
323.9911991542467
  0
LINE
  5
180
330
413
100
AcDbEntity
  8
DATA
  6
Continuous
 62
     7
100
AcDbLine
 10
-306.91419
 20
-895.1079300000001
 30
0.0
 11
-306.91419
 21
-896.7130900000002
 31
0.0
  0
LINE
  5
181
330
413
100
AcDbEntity
  8
DATA
  6
Continuous
 62
     7
100
AcDbLine
 10
-306.91419
 20
-895.1079300000001
 30
0.0
 11
-308.5747099999999
 21
-895.1079300000001
 31
0.0
  0
LINE
  5
182
330
413
100
AcDbEntity
  8
DATA
  6
Continuous
 62
     7
100
AcDbLine
 10
-308.5747099999999
 20
-895.1079300000001
 30
0.0
 11
-308.5747099999999
 21
-896.7130900000002
 31
0.0
  0
ARC
  5
183
330
413
100
AcDbEntity
  8
DATA
  6
Continuous
 62
     7
100
AcDbCircle
 10
-306.20957
 20
-896.7347300000001
 30
0.0
 40
0.6979288262424
100
AcDbArc
 50
269.7118487927503
 51
1.775987005682168
  0
ARC
  5
184
330
413
100
AcDbEntity
  8
DATA
  6
Continuous
 62
     7
100
AcDbCircle
 10
-306.2166000000002
 20
-896.7347300000001
 30
0.0
 40
0.6979252574593204
100
AcDbArc
 50
178.2240129943351
 51
270.2881512072524
  0
ARC
  5
185
330
413
100
AcDbEntity
  8
DATA
  6
Continuous
 62
     7
100
AcDbCircle
 10
-306.3594499999999
 20
-895.6766700000002
 30
0.0
 40
2.578849236946564
100
AcDbArc
 50
216.0088008457576
 51
275.3091437784592
  0
ARC
  5
186
330
413
100
AcDbEntity
  8
DATA
  6
Continuous
 62
     7
100
AcDbCircle
 10
-307.40927
 20
-896.6565600000004
 30
0.0
 40
1.166800208176197
100
AcDbArc
 50
182.7769954499857
 51
207.3596066671416
  0
CIRCLE
  5
187
330
413
100
AcDbEntity
  8
DATA
  6
Continuous
 62
     7
100
AcDbCircle
 10
-307.6060699999998
 20
-893.18912
 30
0.0
 40
0.9501799999998183
  0
LINE
  5
188
330
413
100
AcDbEntity
  8
DATA
  6
Continuous
 62
     7
100
AcDbLine
 10
-291.3791500000002
 20
-898.2444600000004
 30
0.0
 11
-296.3791500000002
 21
-898.2444600000004
 31
0.0
  0
LINE
  5
189
330
413
100
AcDbEntity
  8
DATA
  6
Continuous
 62
     7
100
AcDbLine
 10
-291.3791500000002
 20
-898.2444600000004
 30
0.0
 11
-291.3791500000002
 21
-895.1079200000002
 31
0.0
  0
LINE
  5
18A
330
413
100
AcDbEntity
  8
DATA
  6
Continuous
 62
     7
100
AcDbLine
 10
-291.3791500000002
 20
-895.1079300000001
 30
0.0
 11
-293.0581099999999
 21
-895.1079300000001
 31
0.0
  0
LINE
  5
18B
330
413
100
AcDbEntity
  8
DATA
  6
Continuous
 62
     7
100
AcDbLine
 10
-293.0581099999999
 20
-895.1079300000001
 30
0.0
 11
-293.0581099999999
 21
-896.7130900000002
 31
0.0
  0
LINE
  5
18C
330
413
100
AcDbEntity
  8
DATA
  6
Continuous
 62
     7
100
AcDbLine
 10
-302.7075500000001
 20
-898.2444600000004
 30
0.0
 11
-299.2020299999999
 21
-898.2444500000001
 31
0.0
  0
LINE
  5
18D
330
413
100
AcDbEntity
  8
DATA
  6
Continuous
 62
     7
100
AcDbLine
 10
-301.0285899999999
 20
-897.3035000000001
 30
0.0
 11
-300.1245300000001
 21
-897.3035000000001
 31
0.0
  0
LINE
  5
18E
330
413
100
AcDbEntity
  8
DATA
  6
Continuous
 62
     7
100
AcDbLine
 10
-301.0285800000001
 20
-897.3035000000001
 30
0.0
 11
-301.0285800000001
 21
-893.3551599999999
 31
0.0
  0
LINE
  5
18F
330
413
100
AcDbEntity
  8
DATA
  6
Continuous
 62
     7
100
AcDbLine
 10
-301.0285899999999
 20
-893.3551599999999
 30
0.0
 11
-300.1245300000001
 21
-893.3551599999999
 31
0.0
  0
LINE
  5
190
330
413
100
AcDbEntity
  8
DATA
  6
Continuous
 62
     7
100
AcDbLine
 10
-299.2020299999999
 20
-896.8607000000003
 30
0.0
 11
-299.2020299999999
 21
-893.7979600000003
 31
0.0
  0
ARC
  5
191
330
413
100
AcDbEntity
  8
DATA
  6
Continuous
 62
     7
100
AcDbCircle
 10
-304.8323999999997
 20
-896.6565600000004
 30
0.0
 40
1.166798547864746
100
AcDbArc
 50
332.6403933328595
 51
357.2230045500047
  0
ARC
  5
192
330
413
100
AcDbEntity
  8
DATA
  6
Continuous
 62
     7
100
AcDbCircle
 10
-293.7557099999999
 20
-896.7347300000001
 30
0.0
 40
0.6979288262424
100
AcDbArc
 50
269.7118487927503
 51
1.775987005682168
  0
ARC
  5
193
330
413
100
AcDbEntity
  8
DATA
  6
Continuous
 62
     7
100
AcDbCircle
 10
-293.7627299999999
 20
-896.7347300000001
 30
0.0
 40
0.6979252574597751
100
AcDbArc
 50
178.2240129943362
 51
270.2881512072524
  0
LINE
  5
194
330
413
100
AcDbEntity
  8
DATA
  6
Continuous
 62
     7
100
AcDbLine
 10
-297.4308099999998
 20
-896.63929
 30
0.0
 11
-297.4308099999998
 21
-893.9824700000002
 31
0.0
  0
LINE
  5
195
330
413
100
AcDbEntity
  8
DATA
  6
Continuous
 62
     7
100
AcDbLine
 10
-301.0285899999999
 20
-892.3957600000003
 30
0.0
 11
-300.1245300000001
 21
-892.3957600000003
 31
0.0
  0
ARC
  5
196
330
413
100
AcDbEntity
  8
DATA
  6
Continuous
 62
     7
100
AcDbCircle
 10
-299.3291500000001
 20
-896.3460900000001
 30
0.0
 40
1.902611411718034
100
AcDbArc
 50
273.8309816091184
 51
351.1351473098033
  0
LINE
  5
197
330
413
100
AcDbEntity
  8
DATA
  6
Continuous
 62
     7
100
AcDbLine
 10
-305.5119799999997
 20
-888.2444700000002
 30
0.0
 11
-303.66696
 21
-888.2444700000002
 31
0.0
  0
LINE
  5
198
330
413
100
AcDbEntity
  8
DATA
  6
Continuous
 62
     7
100
AcDbLine
 10
-309.1835700000001
 20
-888.2444700000002
 30
0.0
 11
-306.2130900000002
 21
-888.2444700000002
 31
0.0
  0
LINE
  5
199
330
413
100
AcDbEntity
  8
DATA
  6
Continuous
 62
     7
100
AcDbLine
 10
-296.3791500000002
 20
-888.2444700000002
 30
0.0
 11
-294.4603299999999
 21
-888.2444700000002
 31
0.0
  0
LINE
  5
19A
330
413
100
AcDbEntity
  8
DATA
  6
Continuous
 62
     7
100
AcDbLine
 10
-302.7075500000001
 20
-888.2444700000002
 30
0.0
 11
-299.1827598718533
 21
-888.2444780937406
 31
0.0
  0
LINE
  5
19B
330
413
100
AcDbEntity
  8
DATA
  6
Continuous
 62
     7
100
AcDbLine
 10
-301.0285899999999
 20
-889.1854300000002
 30
0.0
 11
-300.1245300000001
 21
-889.1854300000002
 31
0.0
  0
ARC
  5
19C
330
413
100
AcDbEntity
  8
DATA
  6
Continuous
 62
     7
100
AcDbCircle
 10
-299.3101799999999
 20
-890.1399300000003
 30
0.0
 40
1.899729932911609
100
AcDbArc
 50
8.226923859011861
 51
86.15412669215196
  0
ARC
  5
19D
330
413
100
AcDbEntity
  8
DATA
  6
Continuous
 62
     7
100
AcDbCircle
 10
-300.113854537397
 20
-895.5498120394132
 30
0.0
 40
1.753720453381833
100
AcDbArc
 50
269.6512199376213
 51
282.826482806879
  0
ARC
  5
19E
330
413
100
AcDbEntity
  8
DATA
  6
Continuous
 62
     7
100
AcDbCircle
 10
-299.9168839725335
 20
-896.2912503112276
 30
0.0
 40
0.9874379036931284
100
AcDbArc
 50
281.2331036226709
 51
306.8620088940753
  0
ARC
  5
19F
330
413
100
AcDbEntity
  8
DATA
  6
Continuous
 62
     7
100
AcDbCircle
 10
-299.519218636427
 20
-893.8298040452059
 30
0.0
 40
0.3187831148187342
100
AcDbArc
 50
5.732980710565161
 51
52.35809750237381
  0
ARC
  5
1A0
330
413
100
AcDbEntity
  8
DATA
  6
Continuous
 62
     7
100
AcDbCircle
 10
-300.113854537397
 20
-895.1088479605873
 30
0.0
 40
1.753720453381902
100
AcDbArc
 50
77.17351719312104
 51
90.34878006237859
  0
ARC
  5
1A1
330
413
100
AcDbEntity
  8
DATA
  6
Continuous
 62
     7
100
AcDbCircle
 10
-299.9168839725335
 20
-894.3674096887731
 30
0.0
 40
0.987437903693392
100
AcDbArc
 50
53.13799110592463
 51
78.76689637732906
  0
ARC
  5
1A2
330
413
100
AcDbEntity
  8
DATA
  6
Continuous
 62
     7
100
AcDbCircle
 10
-298.3984900000001
 20
-894.0478799999999
 30
0.0
 40
0.9698881639139374
100
AcDbArc
 50
3.867006359803582
 51
88.36163456789027
  0
ARC
  5
1A3
330
413
100
AcDbEntity
  8
DATA
  6
Continuous
 62
     7
100
AcDbCircle
 10
-298.3993799999998
 20
-892.1079600000002
 30
0.0
 40
0.9708519399474296
100
AcDbArc
 50
271.6892821046246
 51
356.0782829826503
  0
ARC
  5
1A4
330
413
100
AcDbEntity
  8
DATA
  6
Continuous
 62
     7
100
AcDbCircle
 10
-299.519218636427
 20
-891.9211159547943
 30
0.0
 40
0.318783114818655
100
AcDbArc
 50
307.6419024976263
 51
354.267019289435
  0
ARC
  5
1A5
330
413
100
AcDbEntity
  8
DATA
  6
Continuous
 62
     7
100
AcDbCircle
 10
-300.113854537397
 20
-890.6420720394132
 30
0.0
 40
1.753720453381833
100
AcDbArc
 50
269.6512199376213
 51
282.826482806879
  0
ARC
  5
1A6
330
413
100
AcDbEntity
  8
DATA
  6
Continuous
 62
     7
100
AcDbCircle
 10
-299.9168839725335
 20
-891.3835103112276
 30
0.0
 40
0.9874379036933515
100
AcDbArc
 50
281.2331036226684
 51
306.8620088940753
  0
ARC
  5
1A7
330
413
100
AcDbEntity
  8
DATA
  6
Continuous
 62
     7
100
AcDbCircle
 10
-299.519218636427
 20
-889.6600740452061
 30
0.0
 40
0.3187831148187569
100
AcDbArc
 50
5.732980710605824
 51
52.35809750239876
  0
ARC
  5
1A8
330
413
100
AcDbEntity
  8
DATA
  6
Continuous
 62
     7
100
AcDbCircle
 10
-300.113854537397
 20
-890.9391179605872
 30
0.0
 40
1.753720453381902
100
AcDbArc
 50
77.17351719312104
 51
90.34878006237869
  0
ARC
  5
1A9
330
413
100
AcDbEntity
  8
DATA
  6
Continuous
 62
     7
100
AcDbCircle
 10
-299.9168839725335
 20
-890.197679688773
 30
0.0
 40
0.987437903693392
100
AcDbArc
 50
53.13799110592463
 51
78.76689637732906
  0
TEXT
  5
1AA
330
413
100
AcDbEntity
  8
DATA
 62
     7
100
AcDbText
 10
-311.44677734375
 20
-910.1928710937501
 30
0.0
 40
2.8857421875
  1
PROFESSIONAL
 41
0.7
 72
     1
 11
-300.0
 21
-908.7500000000002
 31
0.0
100
AcDbText
 73
     2
  0
TEXT
  5
1AB
330
413
100
AcDbEntity
  8
DATA
 62
     7
100
AcDbText
 10
-307.6012586805555
 20
-924.2804361979167
 30
0.0
 40
8.144205729166666
  1
PRX
 41
0.7
 72
     1
 11
-300.0
 21
-920.2083333333334
 31
0.0
100
AcDbText
 73
     2
  0
TEXT
  5
1AC
330
413
100
AcDbEntity
  8
DATA
 62
     7
100
AcDbText
 10
-306.6511013454861
 20
-934.8637695312502
 30
0.0
 40
8.144205729166666
  1
400
 41
0.7
 72
     1
 11
-300.0
 21
-930.7916666666669
 31
0.0
100
AcDbText
 73
     2
  0
LINE
  5
1AD
330
413
100
AcDbEntity
  8
DATA
  6
Continuous
 62
     7
100
AcDbLine
 10
-514.5
 20
-355.0000000000002
 30
0.0
 11
-514.5
 21
-995.0
 31
0.0
  0
LINE
  5
1AE
330
413
100
AcDbEntity
  8
DATA
  6
Continuous
 62
     7
100
AcDbLine
 10
-85.5
 20
-355.0000000000002
 30
0.0
 11
-85.5
 21
-995.0
 31
0.0
  0
ARC
  5
1AF
330
413
100
AcDbEntity
  8
DATA
  6
Continuous
 62
     7
100
AcDbCircle
 10
-509.4999999999999
 20
-355.0000000000002
 30
0.0
 40
5.0
100
AcDbArc
 50
90.0
 51
180.0
  0
ARC
  5
1B0
330
413
100
AcDbEntity
  8
DATA
  6
Continuous
 62
     7
100
AcDbCircle
 10
-90.5
 20
-355.0000000000002
 30
0.0
 40
5.0
100
AcDbArc
 50
0.0
 51
90.0
  0
ARC
  5
1B1
330
413
100
AcDbEntity
  8
DATA
  6
Continuous
 62
     7
100
AcDbCircle
 10
-509.4999999999999
 20
-995.0
 30
0.0
 40
5.0
100
AcDbArc
 50
180.0
 51
270.0
  0
ARC
  5
1B2
330
413
100
AcDbEntity
  8
DATA
  6
Continuous
 62
     7
100
AcDbCircle
 10
-90.5
 20
-995.0
 30
0.0
 40
5.0
100
AcDbArc
 50
270.0
 51
0.0
  0
LINE
  5
1B3
330
413
100
AcDbEntity
  8
DATA
  6
Continuous
 62
     7
100
AcDbLine
 10
-514.5
 20
-368.5000000000002
 30
0.0
 11
-85.5
 21
-368.5000000000002
 31
0.0
  0
LINE
  5
1B4
330
413
100
AcDbEntity
  8
DATA
  6
Continuous
 62
     7
100
AcDbLine
 10
-511.0
 20
-368.5000000000002
 30
0.0
 11
-511.0
 21
-981.4999999999999
 31
0.0
  0
LINE
  5
1B5
330
413
100
AcDbEntity
  8
DATA
  6
Continuous
 62
     7
100
AcDbLine
 10
-89.0
 20
-368.5000000000002
 30
0.0
 11
-89.0
 21
-981.4999999999999
 31
0.0
  0
CIRCLE
  5
1B6
330
413
100
AcDbEntity
  8
DATA
  6
Continuous
 62
     7
100
AcDbCircle
 10
-185.5
 20
-968.5
 30
0.0
 40
5.5
  0
CIRCLE
  5
1B7
330
413
100
AcDbEntity
  8
DATA
  6
Continuous
 62
     7
100
AcDbCircle
 10
-185.5
 20
-968.5
 30
0.0
 40
3.5
  0
LWPOLYLINE
  5
1B8
330
413
100
AcDbEntity
  8
DATA
  6
Continuous
 62
     7
100
AcDbPolyline
 90
        6
 70
     1
 43
0.0
 10
-183.5081415712957
 20
-969.6500000000002
 10
-183.5081415712957
 20
-967.35
 10
-185.5
 20
-966.2000000000002
 10
-187.4918584287043
 20
-967.3500000000002
 10
-187.4918584287043
 20
-969.6500000000002
 10
-185.5
 20
-970.8
  0
CIRCLE
  5
1C1
330
413
100
AcDbEntity
  8
DATA
  6
Continuous
 62
     7
100
AcDbCircle
 10
-185.5
 20
-381.5000000000002
 30
0.0
 40
5.5
  0
CIRCLE
  5
1C2
330
413
100
AcDbEntity
  8
DATA
  6
Continuous
 62
     7
100
AcDbCircle
 10
-185.5
 20
-381.5000000000002
 30
0.0
 40
3.5
  0
LWPOLYLINE
  5
1C3
330
413
100
AcDbEntity
  8
DATA
  6
Continuous
 62
     7
100
AcDbPolyline
 90
        6
 70
     1
 43
0.0
 10
-183.5081415712957
 20
-380.3500000000003
 10
-183.5081415712957
 20
-382.6500000000003
 10
-185.5
 20
-383.8000000000001
 10
-187.4918584287043
 20
-382.6500000000002
 10
-187.4918584287043
 20
-380.3500000000003
 10
-185.5
 20
-379.2000000000002
  0
LINE
  5
1CC
330
413
100
AcDbEntity
  8
DATA
  6
Continuous
 62
     7
100
AcDbLine
 10
-439.5
 20
-368.5000000000002
 30
0.0
 11
-439.5
 21
-981.4999999999999
 31
0.0
  0
LINE
  5
1CD
330
413
100
AcDbEntity
  8
DATA
  6
Continuous
 62
     7
100
AcDbLine
 10
-160.5
 20
-368.5000000000002
 30
0.0
 11
-160.5
 21
-981.4999999999999
 31
0.0
  0
LINE
  5
1CE
330
413
100
AcDbEntity
  8
DATA
  6
Continuous
 62
     7
100
AcDbLine
 10
-439.5
 20
-981.4999999999999
 30
0.0
 11
-514.5
 21
-981.4999999999999
 31
0.0
  0
LINE
  5
1CF
330
413
100
AcDbEntity
  8
DATA
  6
Continuous
 62
     7
100
AcDbLine
 10
-180.0
 20
-582.0
 30
0.0
 11
-89.0
 21
-582.0
 31
0.0
  0
LINE
  5
1D0
330
413
100
AcDbEntity
  8
DATA
  6
Continuous
 62
     7
100
AcDbLine
 10
-412.8196601125018
 20
-574.0
 30
0.0
 11
-511.0
 21
-574.0
 31
0.0
  0
LINE
  5
1D1
330
413
100
AcDbEntity
  8
DATA
  6
Continuous
 62
     7
100
AcDbLine
 10
-420.0
 20
-582.0
 30
0.0
 11
-511.0
 21
-582.0
 31
0.0
  0
LINE
  5
1D2
330
413
100
AcDbEntity
  8
DATA
  6
Continuous
 62
     7
100
AcDbLine
 10
-420.0
 20
-582.0
 30
0.0
 11
-414.0
 21
-594.0
 31
0.0
  0
LINE
  5
1D3
330
413
100
AcDbEntity
  8
DATA
  6
Continuous
 62
     7
100
AcDbLine
 10
-412.8196601125018
 20
-574.0
 30
0.0
 11
-406.8196601125018
 21
-586.0
 31
0.0
  0
LINE
  5
1D4
330
413
100
AcDbEntity
  8
DATA
  6
Continuous
 62
     7
100
AcDbLine
 10
-406.8196601125018
 20
-586.0
 30
0.0
 11
-193.1803398874981
 21
-586.0
 31
0.0
  0
LINE
  5
1D5
330
413
100
AcDbEntity
  8
DATA
  6
Continuous
 62
     7
100
AcDbLine
 10
-187.1803398874981
 20
-574.0
 30
0.0
 11
-89.0
 21
-574.0
 31
0.0
  0
LINE
  5
1D6
330
413
100
AcDbEntity
  8
DATA
  6
Continuous
 62
     7
100
AcDbLine
 10
-180.0
 20
-582.0
 30
0.0
 11
-186.0
 21
-594.0
 31
0.0
  0
LINE
  5
1D7
330
413
100
AcDbEntity
  8
DATA
  6
Continuous
 62
     7
100
AcDbLine
 10
-187.1803398874981
 20
-574.0
 30
0.0
 11
-193.1803398874981
 21
-586.0
 31
0.0
  0
LINE
  5
1D8
330
413
100
AcDbEntity
  8
DATA
  6
Continuous
 62
     7
100
AcDbLine
 10
-414.0
 20
-594.0
 30
0.0
 11
-186.0
 21
-594.0
 31
0.0
  0
LINE
  5
1D9
330
413
100
AcDbEntity
  8
DATA
  6
Continuous
 62
     7
100
AcDbLine
 10
-743.000000000115
 20
-995.0
 30
0.0
 11
-743.000000000115
 21
-980.0
 31
0.0
  0
LINE
  5
1DA
330
413
100
AcDbEntity
  8
DATA
  6
Continuous
 62
     7
100
AcDbLine
 10
-743.000000000115
 20
-370.0000000000002
 30
0.0
 11
-743.000000000115
 21
-355.0000000000002
 31
0.0
  0
LINE
  5
1DB
330
413
100
AcDbEntity
  8
DATA
  6
Continuous
 62
     7
100
AcDbLine
 10
-1136.780000000115
 20
-1000.0
 30
0.0
 11
-748.000000000115
 21
-1000.0
 31
0.0
  0
LINE
  5
1DC
330
413
100
AcDbEntity
  8
DATA
  6
Continuous
 62
     7
100
AcDbLine
 10
-748.000000000115
 20
-350.0000000000002
 30
0.0
 11
-1195.0
 21
-350.0000000000002
 31
0.0
  0
LINE
  5
1DD
330
413
100
AcDbEntity
  8
DATA
  6
Continuous
 62
     7
100
AcDbLine
 10
-794.0000000001146
 20
-370.0000000000002
 30
0.0
 11
-794.0000000001146
 21
-980.0
 31
0.0
  0
ARC
  5
1DE
330
413
100
AcDbEntity
  8
DATA
  6
Continuous
 62
     7
100
AcDbCircle
 10
-748.000000000115
 20
-995.0
 30
0.0
 40
5.0
100
AcDbArc
 50
270.0
 51
0.0
  0
ARC
  5
1DF
330
413
100
AcDbEntity
  8
DATA
  6
Continuous
 62
     7
100
AcDbCircle
 10
-748.000000000115
 20
-355.0000000000002
 30
0.0
 40
5.0
100
AcDbArc
 50
0.0
 51
90.0
  0
LINE
  5
1E0
330
413
100
AcDbEntity
  8
DATA
  6
Continuous
 62
     7
100
AcDbLine
 10
-745.500000000115
 20
-980.0
 30
0.0
 11
-745.500000000115
 21
-370.0000000000002
 31
0.0
  0
CIRCLE
  5
1E1
330
413
100
AcDbEntity
  8
DATA
  6
Continuous
 62
     7
100
AcDbCircle
 10
-802.0000000001145
 20
-380.0000000000002
 30
0.0
 40
3.0
  0
LINE
  5
1E2
330
413
100
AcDbEntity
  8
DATA
  6
Continuous
 62
     7
100
AcDbLine
 10
-809.0000000001145
 20
-370.0000000000002
 30
0.0
 11
-809.0000000001145
 21
-980.0
 31
0.0
  0
LINE
  5
1E3
330
413
100
AcDbEntity
  8
DATA
  6
Continuous
 62
     7
100
AcDbLine
 10
-800.7500000001146
 20
-380.0000000000002
 30
0.0
 11
-803.2500000001146
 21
-380.0000000000002
 31
0.0
  0
LINE
  5
1E4
330
413
100
AcDbEntity
  8
DATA
  6
Continuous
 62
     7
100
AcDbLine
 10
-802.0000000001145
 20
-381.2500000000002
 30
0.0
 11
-802.0000000001145
 21
-378.7500000000002
 31
0.0
  0
CIRCLE
  5
1E5
330
413
100
AcDbEntity
  8
DATA
  6
Continuous
 62
     7
100
AcDbCircle
 10
-802.0000000001145
 20
-968.5
 30
0.0
 40
3.0
  0
LINE
  5
1E6
330
413
100
AcDbEntity
  8
DATA
  6
Continuous
 62
     7
100
AcDbLine
 10
-800.7500000001146
 20
-968.5
 30
0.0
 11
-803.2500000001146
 21
-968.5
 31
0.0
  0
LINE
  5
1E7
330
413
100
AcDbEntity
  8
DATA
  6
Continuous
 62
     7
100
AcDbLine
 10
-802.0000000001145
 20
-967.2499999999999
 30
0.0
 11
-802.0000000001145
 21
-969.7499999999999
 31
0.0
  0
LINE
  5
1E8
330
413
100
AcDbEntity
  8
DATA
  6
Continuous
 62
     7
100
AcDbLine
 10
-1074.728759033197
 20
-446.5000000000001
 30
0.0
 11
-1074.728759033197
 21
-401.5000000000001
 31
0.0
  0
LINE
  5
1E9
330
413
100
AcDbEntity
  8
DATA
  6
Continuous
 62
     7
100
AcDbLine
 10
-1068.661659033196
 20
-446.5000000000001
 30
0.0
 11
-1068.661659033196
 21
-401.5000000000001
 31
0.0
  0
ARC
  5
1EA
330
413
100
AcDbEntity
  8
DATA
  6
Continuous
 62
     7
100
AcDbCircle
 10
-1063.322560833273
 20
-401.2998084443797
 30
0.0
 40
11.40795485768128
100
AcDbArc
 50
158.2167291208658
 51
181.0055018760663
  0
ARC
  5
1EB
330
413
100
AcDbEntity
  8
DATA
  6
Continuous
 62
     7
100
AcDbCircle
 10
-1070.066253484714
 20
-398.5345801848171
 30
0.0
 40
4.120149824515844
100
AcDbArc
 50
129.1236307650626
 51
159.1236307650602
  0
ARC
  5
1EC
330
413
100
AcDbEntity
  8
DATA
  6
Continuous
 62
     7
100
AcDbCircle
 10
-1071.664443386704
 20
-396.6507766538429
 30
0.0
 40
1.651063319765889
100
AcDbArc
 50
91.06770206975829
 51
127.3472257506575
  0
ARC
  5
1ED
330
413
100
AcDbEntity
  8
DATA
  6
Continuous
 62
     7
100
AcDbCircle
 10
-1080.067857233121
 20
-401.2998084443797
 30
0.0
 40
11.40795485768197
100
AcDbArc
 50
358.9944981239337
 51
21.78327087913334
  0
ARC
  5
1EE
330
413
100
AcDbEntity
  8
DATA
  6
Continuous
 62
     7
100
AcDbCircle
 10
-1073.32416458168
 20
-398.5345801848171
 30
0.0
 40
4.120149824515952
100
AcDbArc
 50
20.87636923493975
 51
50.87636923493249
  0
ARC
  5
1EF
330
413
100
AcDbEntity
  8
DATA
  6
Continuous
 62
     7
100
AcDbCircle
 10
-1071.725974679691
 20
-396.6507766538429
 30
0.0
 40
1.651063319766104
100
AcDbArc
 50
52.65277424931738
 51
88.93229793021019
  0
ARC
  5
1F0
330
413
100
AcDbEntity
  8
DATA
  6
Continuous
 62
     7
100
AcDbCircle
 10
-1063.322560833273
 20
-446.7001915556208
 30
0.0
 40
11.40795485768105
100
AcDbArc
 50
178.9944981239331
 51
201.7832708791336
  0
ARC
  5
1F1
330
413
100
AcDbEntity
  8
DATA
  6
Continuous
 62
     7
100
AcDbCircle
 10
-1070.066253484714
 20
-449.4654198151834
 30
0.0
 40
4.120149824515952
100
AcDbArc
 50
200.8763692349397
 51
230.8763692349374
  0
ARC
  5
1F2
330
413
100
AcDbEntity
  8
DATA
  6
Continuous
 62
     7
100
AcDbCircle
 10
-1071.664443386704
 20
-451.3492233461575
 30
0.0
 40
1.651063319765553
100
AcDbArc
 50
232.6527742493424
 51
268.9322979302418
  0
ARC
  5
1F3
330
413
100
AcDbEntity
  8
DATA
  6
Continuous
 62
     7
100
AcDbCircle
 10
-1080.067857233121
 20
-446.7001915556208
 30
0.0
 40
11.40795485768166
100
AcDbArc
 50
338.2167291208672
 51
1.00550187606683
  0
ARC
  5
1F4
330
413
100
AcDbEntity
  8
DATA
  6
Continuous
 62
     7
100
AcDbCircle
 10
-1073.32416458168
 20
-449.4654198151834
 30
0.0
 40
4.12014982451613
100
AcDbArc
 50
309.1236307650676
 51
339.1236307650602
  0
ARC
  5
1F5
330
413
100
AcDbEntity
  8
DATA
  6
Continuous
 62
     7
100
AcDbCircle
 10
-1071.725974679691
 20
-451.3492233461575
 30
0.0
 40
1.651063319765906
100
AcDbArc
 50
271.0677020697898
 51
307.3472257506826
  0
LINE
  5
1F6
330
413
100
AcDbEntity
  8
DATA
  6
Continuous
 62
     7
100
AcDbLine
 10
-1192.228759033197
 20
-446.5000000000001
 30
0.0
 11
-1192.228759033197
 21
-401.5000000000001
 31
0.0
  0
LINE
  5
1F7
330
413
100
AcDbEntity
  8
DATA
  6
Continuous
 62
     7
100
AcDbLine
 10
-1186.161659033196
 20
-446.5000000000001
 30
0.0
 11
-1186.161659033196
 21
-401.5000000000001
 31
0.0
  0
ARC
  5
1F8
330
413
100
AcDbEntity
  8
DATA
  6
Continuous
 62
     7
100
AcDbCircle
 10
-1180.822560833273
 20
-401.2998084443797
 30
0.0
 40
11.40795485768128
100
AcDbArc
 50
158.2167291208658
 51
181.0055018760663
  0
ARC
  5
1F9
330
413
100
AcDbEntity
  8
DATA
  6
Continuous
 62
     7
100
AcDbCircle
 10
-1187.566253484714
 20
-398.5345801848171
 30
0.0
 40
4.120149824515844
100
AcDbArc
 50
129.1236307650626
 51
159.1236307650602
  0
ARC
  5
1FA
330
413
100
AcDbEntity
  8
DATA
  6
Continuous
 62
     7
100
AcDbCircle
 10
-1189.164443386704
 20
-396.6507766538429
 30
0.0
 40
1.651063319765889
100
AcDbArc
 50
91.06770206975829
 51
127.3472257506575
  0
ARC
  5
1FB
330
413
100
AcDbEntity
  8
DATA
  6
Continuous
 62
     7
100
AcDbCircle
 10
-1197.567857233121
 20
-401.2998084443797
 30
0.0
 40
11.40795485768197
100
AcDbArc
 50
358.9944981239337
 51
21.78327087913334
  0
ARC
  5
1FC
330
413
100
AcDbEntity
  8
DATA
  6
Continuous
 62
     7
100
AcDbCircle
 10
-1190.82416458168
 20
-398.5345801848171
 30
0.0
 40
4.120149824515952
100
AcDbArc
 50
20.87636923493975
 51
50.87636923493249
  0
ARC
  5
1FD
330
413
100
AcDbEntity
  8
DATA
  6
Continuous
 62
     7
100
AcDbCircle
 10
-1189.225974679691
 20
-396.6507766538429
 30
0.0
 40
1.651063319766104
100
AcDbArc
 50
52.65277424931738
 51
88.93229793021019
  0
ARC
  5
1FE
330
413
100
AcDbEntity
  8
DATA
  6
Continuous
 62
     7
100
AcDbCircle
 10
-1180.822560833273
 20
-446.7001915556208
 30
0.0
 40
11.40795485768105
100
AcDbArc
 50
178.9944981239331
 51
201.7832708791336
  0
ARC
  5
1FF
330
413
100
AcDbEntity
  8
DATA
  6
Continuous
 62
     7
100
AcDbCircle
 10
-1187.566253484714
 20
-449.4654198151834
 30
0.0
 40
4.120149824515952
100
AcDbArc
 50
200.8763692349397
 51
230.8763692349374
  0
ARC
  5
200
330
413
100
AcDbEntity
  8
DATA
  6
Continuous
 62
     7
100
AcDbCircle
 10
-1189.164443386704
 20
-451.3492233461575
 30
0.0
 40
1.651063319765553
100
AcDbArc
 50
232.6527742493424
 51
268.9322979302418
  0
ARC
  5
201
330
413
100
AcDbEntity
  8
DATA
  6
Continuous
 62
     7
100
AcDbCircle
 10
-1197.567857233121
 20
-446.7001915556208
 30
0.0
 40
11.40795485768166
100
AcDbArc
 50
338.2167291208672
 51
1.00550187606683
  0
ARC
  5
202
330
413
100
AcDbEntity
  8
DATA
  6
Continuous
 62
     7
100
AcDbCircle
 10
-1190.82416458168
 20
-449.4654198151834
 30
0.0
 40
4.12014982451613
100
AcDbArc
 50
309.1236307650676
 51
339.1236307650602
  0
ARC
  5
203
330
413
100
AcDbEntity
  8
DATA
  6
Continuous
 62
     7
100
AcDbCircle
 10
-1189.225974679691
 20
-451.3492233461575
 30
0.0
 40
1.651063319765906
100
AcDbArc
 50
271.0677020697898
 51
307.3472257506826
  0
ARC
  5
204
330
413
100
AcDbEntity
  8
DATA
  6
Continuous
 62
     7
100
AcDbCircle
 10
-1173.896219017723
 20
-390.426274279733
 30
0.0
 40
11.54245674051179
100
AcDbArc
 50
15.13811307124431
 51
37.99198928291087
  0
ARC
  5
205
330
413
100
AcDbEntity
  8
DATA
  6
Continuous
 62
     7
100
AcDbCircle
 10
-1183.234670458258
 20
-393.0000000000002
 30
0.0
 40
21.22902493452238
100
AcDbArc
 50
344.7385195751404
 51
15.26148042485977
  0
ARC
  5
206
330
413
100
AcDbEntity
  8
DATA
  6
Continuous
 62
     7
100
AcDbCircle
 10
-1173.896219017723
 20
-395.5737257202674
 30
0.0
 40
11.54245674051155
100
AcDbArc
 50
322.0080107170891
 51
344.8618869287557
  0
LINE
  5
207
330
413
100
AcDbEntity
  8
DATA
  6
Continuous
 62
     7
100
AcDbLine
 10
-1166.704645523736
 20
-390.2060000000004
 30
0.0
 11
-1165.815645523736
 21
-393.0000000000002
 31
0.0
  0
LINE
  5
208
330
413
100
AcDbEntity
  8
DATA
  6
Continuous
 62
     7
100
AcDbLine
 10
-1168.355645523736
 20
-395.7940000000002
 30
0.0
 11
-1169.244645523736
 21
-393.0000000000002
 31
0.0
  0
LINE
  5
209
330
413
100
AcDbEntity
  8
DATA
  6
Continuous
 62
     7
100
AcDbLine
 10
-1168.355645523736
 20
-390.2060000000004
 30
0.0
 11
-1166.704645523736
 21
-390.2060000000004
 31
0.0
  0
LINE
  5
20A
330
413
100
AcDbEntity
  8
DATA
  6
Continuous
 62
     7
100
AcDbLine
 10
-1166.704645523736
 20
-395.7940000000002
 30
0.0
 11
-1168.355645523736
 21
-395.7940000000002
 31
0.0
  0
LINE
  5
20B
330
413
100
AcDbEntity
  8
DATA
  6
Continuous
 62
     7
100
AcDbLine
 10
-1169.244645523736
 20
-393.0000000000002
 30
0.0
 11
-1168.355645523736
 21
-390.2060000000004
 31
0.0
  0
LINE
  5
20C
330
413
100
AcDbEntity
  8
DATA
  6
Continuous
 62
     7
100
AcDbLine
 10
-1165.815645523736
 20
-393.0000000000002
 30
0.0
 11
-1166.704645523736
 21
-395.7940000000002
 31
0.0
  0
ARC
  5
20D
330
413
100
AcDbEntity
  8
DATA
  6
Continuous
 62
     7
100
AcDbCircle
 10
-1167.593645523736
 20
-385.1794875327397
 30
0.0
 40
3.355487532739864
100
AcDbArc
 50
33.62642913597444
 51
146.3735708640212
  0
ARC
  5
20E
330
413
100
AcDbEntity
  8
DATA
  6
Continuous
 62
     7
100
AcDbCircle
 10
-1161.291072029748
 20
-390.426274279733
 30
0.0
 40
11.54245674051155
100
AcDbArc
 50
142.0080107170891
 51
164.8618869287551
  0
ARC
  5
20F
330
413
100
AcDbEntity
  8
DATA
  6
Continuous
 62
     7
100
AcDbCircle
 10
-1151.952620589213
 20
-393.0000000000002
 30
0.0
 40
21.22902493452238
100
AcDbArc
 50
164.7385195751403
 51
195.2614804248597
  0
ARC
  5
210
330
413
100
AcDbEntity
  8
DATA
  6
Continuous
 62
     7
100
AcDbCircle
 10
-1161.291072029748
 20
-395.5737257202674
 30
0.0
 40
11.54245674051135
100
AcDbArc
 50
195.1381130712449
 51
217.9919892829109
  0
ARC
  5
211
330
413
100
AcDbEntity
  8
DATA
  6
Continuous
 62
     7
100
AcDbCircle
 10
-1167.593645523736
 20
-400.8205124672608
 30
0.0
 40
3.355487532739485
100
AcDbArc
 50
213.6264291359787
 51
326.3735708640255
  0
LINE
  5
212
330
413
100
AcDbEntity
  8
DATA
  6
Continuous
 62
     7
100
AcDbLine
 10
-1200.0
 20
-355.0000000000002
 30
0.0
 11
-1200.0
 21
-995.0
 31
0.0
  0
CIRCLE
  5
213
330
413
100
AcDbEntity
  8
DATA
  6
Continuous
 62
     7
100
AcDbCircle
 10
-858.0000000001151
 20
-393.5000000000002
 30
0.0
 40
11.17600000000038
  0
LINE
  5
214
330
413
100
AcDbEntity
  8
DATA
  6
Continuous
 62
     7
100
AcDbLine
 10
-859.7780000001149
 20
-390.7060000000003
 30
0.0
 11
-861.5560000001151
 21
-393.5000000000002
 31
0.0
  0
LINE
  5
215
330
413
100
AcDbEntity
  8
DATA
  6
Continuous
 62
     7
100
AcDbLine
 10
-856.476000000115
 20
-396.2940000000001
 30
0.0
 11
-854.6980000001154
 21
-393.5000000000002
 31
0.0
  0
LINE
  5
216
330
413
100
AcDbEntity
  8
DATA
  6
Continuous
 62
     7
100
AcDbLine
 10
-856.476000000115
 20
-390.7060000000003
 30
0.0
 11
-859.7780000001149
 21
-390.7060000000003
 31
0.0
  0
LINE
  5
217
330
413
100
AcDbEntity
  8
DATA
  6
Continuous
 62
     7
100
AcDbLine
 10
-859.7780000001149
 20
-396.2940000000001
 30
0.0
 11
-856.476000000115
 21
-396.2940000000001
 31
0.0
  0
LINE
  5
218
330
413
100
AcDbEntity
  8
DATA
  6
Continuous
 62
     7
100
AcDbLine
 10
-854.6980000001154
 20
-393.5000000000002
 30
0.0
 11
-856.476000000115
 21
-390.7060000000003
 31
0.0
  0
LINE
  5
219
330
413
100
AcDbEntity
  8
DATA
  6
Continuous
 62
     7
100
AcDbLine
 10
-861.5560000001151
 20
-393.5000000000002
 30
0.0
 11
-859.7780000001149
 21
-396.2940000000001
 31
0.0
  0
LINE
  5
21A
330
413
100
AcDbEntity
  8
DATA
  6
Continuous
 62
     7
100
AcDbLine
 10
-1054.239782971783
 20
-350.0000000000002
 30
0.0
 11
-1054.239782971783
 21
-1000.0
 31
0.0
  0
LINE
  5
21B
330
413
100
AcDbEntity
  8
DATA
  6
Continuous
 62
     7
100
AcDbLine
 10
-748.000000000115
 20
-1000.0
 30
0.0
 11
-1195.0
 21
-1000.0
 31
0.0
  0
ARC
  5
21C
330
413
100
AcDbEntity
  8
DATA
  6
Continuous
 62
     7
100
AcDbCircle
 10
-1195.0
 20
-995.0
 30
0.0
 40
5.0
100
AcDbArc
 50
180.0
 51
270.0
  0
LINE
  5
21D
330
413
100
AcDbEntity
  8
DATA
  6
Continuous
 62
     7
100
AcDbLine
 10
-1074.728759033197
 20
-913.5000000000001
 30
0.0
 11
-1074.728759033197
 21
-958.5
 31
0.0
  0
LINE
  5
21E
330
413
100
AcDbEntity
  8
DATA
  6
Continuous
 62
     7
100
AcDbLine
 10
-1068.661659033196
 20
-913.5000000000001
 30
0.0
 11
-1068.661659033196
 21
-958.5
 31
0.0
  0
ARC
  5
21F
330
413
100
AcDbEntity
  8
DATA
  6
Continuous
 62
     7
100
AcDbCircle
 10
-1063.322560833273
 20
-958.7001915556207
 30
0.0
 40
11.40795485768106
100
AcDbArc
 50
178.9944981239326
 51
201.7832708791325
  0
ARC
  5
220
330
413
100
AcDbEntity
  8
DATA
  6
Continuous
 62
     7
100
AcDbCircle
 10
-1070.066253484714
 20
-961.4654198151834
 30
0.0
 40
4.120149824515831
100
AcDbArc
 50
200.8763692349353
 51
230.8763692349354
  0
ARC
  5
221
330
413
100
AcDbEntity
  8
DATA
  6
Continuous
 62
     7
100
AcDbCircle
 10
-1071.664443386704
 20
-963.3492233461577
 30
0.0
 40
1.651063319765372
100
AcDbArc
 50
232.6527742493376
 51
268.9322979302416
  0
ARC
  5
222
330
413
100
AcDbEntity
  8
DATA
  6
Continuous
 62
     7
100
AcDbCircle
 10
-1080.067857233121
 20
-958.7001915556207
 30
0.0
 40
11.40795485768158
100
AcDbArc
 50
338.2167291208682
 51
1.005501876067398
  0
ARC
  5
223
330
413
100
AcDbEntity
  8
DATA
  6
Continuous
 62
     7
100
AcDbCircle
 10
-1073.32416458168
 20
-961.4654198151834
 30
0.0
 40
4.120149824515954
100
AcDbArc
 50
309.1236307650696
 51
339.1236307650646
  0
ARC
  5
224
330
413
100
AcDbEntity
  8
DATA
  6
Continuous
 62
     7
100
AcDbCircle
 10
-1071.725974679691
 20
-963.3492233461577
 30
0.0
 40
1.651063319765679
100
AcDbArc
 50
271.06770206979
 51
307.3472257506874
  0
ARC
  5
225
330
413
100
AcDbEntity
  8
DATA
  6
Continuous
 62
     7
100
AcDbCircle
 10
-1063.322560833273
 20
-913.2998084443794
 30
0.0
 40
11.40795485768133
100
AcDbArc
 50
158.2167291208653
 51
181.0055018760663
  0
ARC
  5
226
330
413
100
AcDbEntity
  8
DATA
  6
Continuous
 62
     7
100
AcDbCircle
 10
-1070.066253484714
 20
-910.5345801848171
 30
0.0
 40
4.120149824515844
100
AcDbArc
 50
129.1236307650626
 51
159.1236307650587
  0
ARC
  5
227
330
413
100
AcDbEntity
  8
DATA
  6
Continuous
 62
     7
100
AcDbCircle
 10
-1071.664443386704
 20
-908.650776653843
 30
0.0
 40
1.651063319765889
100
AcDbArc
 50
91.06770206975829
 51
127.3472257506575
  0
ARC
  5
228
330
413
100
AcDbEntity
  8
DATA
  6
Continuous
 62
     7
100
AcDbCircle
 10
-1080.067857233121
 20
-913.2998084443794
 30
0.0
 40
11.40795485768197
100
AcDbArc
 50
358.9944981239337
 51
21.78327087913385
  0
ARC
  5
229
330
413
100
AcDbEntity
  8
DATA
  6
Continuous
 62
     7
100
AcDbCircle
 10
-1073.32416458168
 20
-910.5345801848171
 30
0.0
 40
4.120149824515993
100
AcDbArc
 50
20.87636923494123
 51
50.87636923493251
  0
ARC
  5
22A
330
413
100
AcDbEntity
  8
DATA
  6
Continuous
 62
     7
100
AcDbCircle
 10
-1071.725974679691
 20
-908.650776653843
 30
0.0
 40
1.651063319766104
100
AcDbArc
 50
52.65277424931738
 51
88.93229793021019
  0
LINE
  5
22B
330
413
100
AcDbEntity
  8
DATA
  6
Continuous
 62
     7
100
AcDbLine
 10
-1192.228759033197
 20
-913.5000000000001
 30
0.0
 11
-1192.228759033197
 21
-958.5
 31
0.0
  0
LINE
  5
22C
330
413
100
AcDbEntity
  8
DATA
  6
Continuous
 62
     7
100
AcDbLine
 10
-1186.161659033196
 20
-913.5000000000001
 30
0.0
 11
-1186.161659033196
 21
-958.5
 31
0.0
  0
ARC
  5
22D
330
413
100
AcDbEntity
  8
DATA
  6
Continuous
 62
     7
100
AcDbCircle
 10
-1180.822560833273
 20
-958.7001915556207
 30
0.0
 40
11.40795485768106
100
AcDbArc
 50
178.9944981239326
 51
201.7832708791325
  0
ARC
  5
22E
330
413
100
AcDbEntity
  8
DATA
  6
Continuous
 62
     7
100
AcDbCircle
 10
-1187.566253484714
 20
-961.4654198151834
 30
0.0
 40
4.120149824515831
100
AcDbArc
 50
200.8763692349353
 51
230.8763692349354
  0
ARC
  5
22F
330
413
100
AcDbEntity
  8
DATA
  6
Continuous
 62
     7
100
AcDbCircle
 10
-1189.164443386704
 20
-963.3492233461577
 30
0.0
 40
1.651063319765372
100
AcDbArc
 50
232.6527742493376
 51
268.9322979302416
  0
ARC
  5
230
330
413
100
AcDbEntity
  8
DATA
  6
Continuous
 62
     7
100
AcDbCircle
 10
-1197.567857233121
 20
-958.7001915556207
 30
0.0
 40
11.40795485768158
100
AcDbArc
 50
338.2167291208682
 51
1.005501876067398
  0
ARC
  5
231
330
413
100
AcDbEntity
  8
DATA
  6
Continuous
 62
     7
100
AcDbCircle
 10
-1190.82416458168
 20
-961.4654198151834
 30
0.0
 40
4.120149824515954
100
AcDbArc
 50
309.1236307650696
 51
339.1236307650646
  0
ARC
  5
232
330
413
100
AcDbEntity
  8
DATA
  6
Continuous
 62
     7
100
AcDbCircle
 10
-1189.225974679691
 20
-963.3492233461577
 30
0.0
 40
1.651063319765679
100
AcDbArc
 50
271.06770206979
 51
307.3472257506874
  0
ARC
  5
233
330
413
100
AcDbEntity
  8
DATA
  6
Continuous
 62
     7
100
AcDbCircle
 10
-1180.822560833273
 20
-913.2998084443794
 30
0.0
 40
11.40795485768133
100
AcDbArc
 50
158.2167291208653
 51
181.0055018760663
  0
ARC
  5
234
330
413
100
AcDbEntity
  8
DATA
  6
Continuous
 62
     7
100
AcDbCircle
 10
-1187.566253484714
 20
-910.5345801848171
 30
0.0
 40
4.120149824515844
100
AcDbArc
 50
129.1236307650626
 51
159.1236307650587
  0
ARC
  5
235
330
413
100
AcDbEntity
  8
DATA
  6
Continuous
 62
     7
100
AcDbCircle
 10
-1189.164443386704
 20
-908.650776653843
 30
0.0
 40
1.651063319765889
100
AcDbArc
 50
91.06770206975829
 51
127.3472257506575
  0
ARC
  5
236
330
413
100
AcDbEntity
  8
DATA
  6
Continuous
 62
     7
100
AcDbCircle
 10
-1197.567857233121
 20
-913.2998084443794
 30
0.0
 40
11.40795485768197
100
AcDbArc
 50
358.9944981239337
 51
21.78327087913385
  0
ARC
  5
237
330
413
100
AcDbEntity
  8
DATA
  6
Continuous
 62
     7
100
AcDbCircle
 10
-1190.82416458168
 20
-910.5345801848171
 30
0.0
 40
4.120149824515993
100
AcDbArc
 50
20.87636923494123
 51
50.87636923493251
  0
ARC
  5
238
330
413
100
AcDbEntity
  8
DATA
  6
Continuous
 62
     7
100
AcDbCircle
 10
-1189.225974679691
 20
-908.650776653843
 30
0.0
 40
1.651063319766104
100
AcDbArc
 50
52.65277424931738
 51
88.93229793021019
  0
ARC
  5
239
330
413
100
AcDbEntity
  8
DATA
  6
Continuous
 62
     7
100
AcDbCircle
 10
-1173.896219017723
 20
-969.573725720267
 30
0.0
 40
11.54245674051155
100
AcDbArc
 50
322.0080107170891
 51
344.8618869287557
  0
ARC
  5
23A
330
413
100
AcDbEntity
  8
DATA
  6
Continuous
 62
     7
100
AcDbCircle
 10
-1183.234670458258
 20
-967.0
 30
0.0
 40
21.22902493452238
100
AcDbArc
 50
344.7385195751404
 51
15.26148042485977
  0
ARC
  5
23B
330
413
100
AcDbEntity
  8
DATA
  6
Continuous
 62
     7
100
AcDbCircle
 10
-1173.896219017723
 20
-964.4262742797328
 30
0.0
 40
11.54245674051179
100
AcDbArc
 50
15.13811307124431
 51
37.99198928291087
  0
LINE
  5
23C
330
413
100
AcDbEntity
  8
DATA
  6
Continuous
 62
     7
100
AcDbLine
 10
-1166.704645523736
 20
-969.7939999999999
 30
0.0
 11
-1165.815645523736
 21
-967.0
 31
0.0
  0
LINE
  5
23D
330
413
100
AcDbEntity
  8
DATA
  6
Continuous
 62
     7
100
AcDbLine
 10
-1168.355645523736
 20
-964.206
 30
0.0
 11
-1169.244645523736
 21
-967.0
 31
0.0
  0
LINE
  5
23E
330
413
100
AcDbEntity
  8
DATA
  6
Continuous
 62
     7
100
AcDbLine
 10
-1168.355645523736
 20
-969.7939999999999
 30
0.0
 11
-1166.704645523736
 21
-969.7939999999999
 31
0.0
  0
LINE
  5
23F
330
413
100
AcDbEntity
  8
DATA
  6
Continuous
 62
     7
100
AcDbLine
 10
-1166.704645523736
 20
-964.206
 30
0.0
 11
-1168.355645523736
 21
-964.206
 31
0.0
  0
LINE
  5
240
330
413
100
AcDbEntity
  8
DATA
  6
Continuous
 62
     7
100
AcDbLine
 10
-1169.244645523736
 20
-967.0
 30
0.0
 11
-1168.355645523736
 21
-969.7939999999999
 31
0.0
  0
LINE
  5
241
330
413
100
AcDbEntity
  8
DATA
  6
Continuous
 62
     7
100
AcDbLine
 10
-1165.815645523736
 20
-967.0
 30
0.0
 11
-1166.704645523736
 21
-964.206
 31
0.0
  0
ARC
  5
242
330
413
100
AcDbEntity
  8
DATA
  6
Continuous
 62
     7
100
AcDbCircle
 10
-1167.593645523736
 20
-974.8205124672606
 30
0.0
 40
3.355487532739359
100
AcDbArc
 50
213.6264291359756
 51
326.3735708640287
  0
ARC
  5
243
330
413
100
AcDbEntity
  8
DATA
  6
Continuous
 62
     7
100
AcDbCircle
 10
-1161.291072029748
 20
-969.573725720267
 30
0.0
 40
11.54245674051135
100
AcDbArc
 50
195.1381130712449
 51
217.9919892829109
  0
ARC
  5
244
330
413
100
AcDbEntity
  8
DATA
  6
Continuous
 62
     7
100
AcDbCircle
 10
-1151.952620589213
 20
-967.0
 30
0.0
 40
21.22902493452238
100
AcDbArc
 50
164.7385195751403
 51
195.2614804248597
  0
ARC
  5
245
330
413
100
AcDbEntity
  8
DATA
  6
Continuous
 62
     7
100
AcDbCircle
 10
-1161.291072029748
 20
-964.4262742797328
 30
0.0
 40
11.54245674051155
100
AcDbArc
 50
142.0080107170891
 51
164.8618869287551
  0
ARC
  5
246
330
413
100
AcDbEntity
  8
DATA
  6
Continuous
 62
     7
100
AcDbCircle
 10
-1167.593645523736
 20
-959.1794875327396
 30
0.0
 40
3.35548753273999
100
AcDbArc
 50
33.62642913597767
 51
146.373570864018
  0
ARC
  5
247
330
413
100
AcDbEntity
  8
DATA
  6
Continuous
 62
     7
100
AcDbCircle
 10
-1195.0
 20
-355.0000000000002
 30
0.0
 40
5.0
100
AcDbArc
 50
90.0
 51
180.0
  0
LINE
  5
248
330
413
100
AcDbEntity
  8
DATA
  6
Continuous
 62
     7
100
AcDbLine
 10
-809.0000000001145
 20
-980.0
 30
0.0
 11
-743.000000000115
 21
-980.0
 31
0.0
  0
LINE
  5
249
330
413
100
AcDbEntity
  8
DATA
  6
Continuous
 62
     7
100
AcDbLine
 10
-809.0000000001145
 20
-370.0000000000002
 30
0.0
 11
-743.000000000115
 21
-370.0000000000002
 31
0.0
  0
LINE
  5
24A
330
413
100
AcDbEntity
  8
DATA
  6
Continuous
 62
     7
100
AcDbLine
 10
-809.0000000001145
 20
-980.0
 30
0.0
 11
-743.000000000115
 21
-980.0
 31
0.0
  0
CIRCLE
  5
24B
330
413
100
AcDbEntity
  8
DATA
  6
Continuous
 62
     7
100
AcDbCircle
 10
-802.0000000001145
 20
-675.0
 30
0.0
 40
3.0
  0
LINE
  5
24C
330
413
100
AcDbEntity
  8
DATA
  6
Continuous
 62
     7
100
AcDbLine
 10
-800.7500000001146
 20
-675.0
 30
0.0
 11
-803.2500000001146
 21
-675.0
 31
0.0
  0
LINE
  5
24D
330
413
100
AcDbEntity
  8
DATA
  6
Continuous
 62
     7
100
AcDbLine
 10
-802.0000000001145
 20
-673.7500000000001
 30
0.0
 11
-802.0000000001145
 21
-676.2500000000001
 31
0.0
  0
CIRCLE
  5
24E
330
413
100
AcDbEntity
  8
DATA
  6
Continuous
 62
     7
100
AcDbCircle
 10
-858.0000000001151
 20
-956.4999999999999
 30
0.0
 40
11.17600000000038
  0
LINE
  5
24F
330
413
100
AcDbEntity
  8
DATA
  6
Continuous
 62
     7
100
AcDbLine
 10
-859.7780000001149
 20
-959.2939999999998
 30
0.0
 11
-861.5560000001151
 21
-956.4999999999999
 31
0.0
  0
LINE
  5
250
330
413
100
AcDbEntity
  8
DATA
  6
Continuous
 62
     7
100
AcDbLine
 10
-856.476000000115
 20
-953.706
 30
0.0
 11
-854.6980000001154
 21
-956.4999999999999
 31
0.0
  0
LINE
  5
251
330
413
100
AcDbEntity
  8
DATA
  6
Continuous
 62
     7
100
AcDbLine
 10
-856.476000000115
 20
-959.2939999999998
 30
0.0
 11
-859.7780000001149
 21
-959.2939999999998
 31
0.0
  0
LINE
  5
252
330
413
100
AcDbEntity
  8
DATA
  6
Continuous
 62
     7
100
AcDbLine
 10
-859.7780000001149
 20
-953.706
 30
0.0
 11
-856.476000000115
 21
-953.706
 31
0.0
  0
LINE
  5
253
330
413
100
AcDbEntity
  8
DATA
  6
Continuous
 62
     7
100
AcDbLine
 10
-854.6980000001154
 20
-956.4999999999999
 30
0.0
 11
-856.476000000115
 21
-959.2939999999998
 31
0.0
  0
LINE
  5
254
330
413
100
AcDbEntity
  8
DATA
  6
Continuous
 62
     7
100
AcDbLine
 10
-861.5560000001151
 20
-956.4999999999999
 30
0.0
 11
-859.7780000001149
 21
-953.706
 31
0.0
  0
LINE
  5
255
330
413
100
AcDbEntity
  8
DATA
  6
Continuous
 62
     7
100
AcDbLine
 10
-258.016660498396
 20
-1606.999999999999
 30
0.0
 11
-90.50000000000045
 21
-1606.999999999999
 31
0.0
  0
LINE
  5
256
330
413
100
AcDbEntity
  8
DATA
  6
Continuous
 62
     7
100
AcDbLine
 10
-507.0000000000005
 20
-1465.569909990704
 30
0.0
 11
-265.5166604983961
 21
-1604.990381056766
 31
0.0
  0
ARC
  5
257
330
413
100
AcDbEntity
  8
DATA
  6
Continuous
 62
     7
100
AcDbCircle
 10
-258.016660498396
 20
-1591.999999999999
 30
0.0
 40
15.00000000000005
100
AcDbArc
 50
240.0000000000001
 51
270.0
  0
CIRCLE
  5
258
330
413
100
AcDbEntity
  8
DATA
  6
Continuous
 62
     7
100
AcDbCircle
 10
-303.5000000000004
 20
-1540.999999999999
 30
0.0
 40
11.17600000000038
  0
LINE
  5
259
330
413
100
AcDbEntity
  8
DATA
  6
Continuous
 62
     7
100
AcDbLine
 10
-301.7220000000006
 20
-1543.793999999999
 30
0.0
 11
-299.9440000000003
 21
-1540.999999999999
 31
0.0
  0
LINE
  5
25A
330
413
100
AcDbEntity
  8
DATA
  6
Continuous
 62
     7
100
AcDbLine
 10
-305.0240000000004
 20
-1538.205999999999
 30
0.0
 11
-306.8020000000001
 21
-1540.999999999999
 31
0.0
  0
LINE
  5
25B
330
413
100
AcDbEntity
  8
DATA
  6
Continuous
 62
     7
100
AcDbLine
 10
-305.0240000000004
 20
-1543.793999999999
 30
0.0
 11
-301.7220000000006
 21
-1543.793999999999
 31
0.0
  0
LINE
  5
25C
330
413
100
AcDbEntity
  8
DATA
  6
Continuous
 62
     7
100
AcDbLine
 10
-301.7220000000006
 20
-1538.205999999999
 30
0.0
 11
-305.0240000000004
 21
-1538.205999999999
 31
0.0
  0
LINE
  5
25D
330
413
100
AcDbEntity
  8
DATA
  6
Continuous
 62
     7
100
AcDbLine
 10
-306.8020000000001
 20
-1540.999999999999
 30
0.0
 11
-305.0240000000004
 21
-1543.793999999999
 31
0.0
  0
LINE
  5
25E
330
413
100
AcDbEntity
  8
DATA
  6
Continuous
 62
     7
100
AcDbLine
 10
-299.9440000000003
 20
-1540.999999999999
 30
0.0
 11
-301.7220000000006
 21
-1538.205999999999
 31
0.0
  0
ARC
  5
25F
330
413
100
AcDbEntity
  8
DATA
  6
Continuous
 62
     7
100
AcDbCircle
 10
-90.50000000000045
 20
-1601.999999999999
 30
0.0
 40
5.0
100
AcDbArc
 50
270.0
 51
0.0
  0
LINE
  5
260
330
413
100
AcDbEntity
  8
DATA
  6
Continuous
 62
     7
100
AcDbLine
 10
-85.50000000000045
 20
-1202.286871728157
 30
0.0
 11
-85.50000000000045
 21
-1601.999999999999
 31
0.0
  0
ARC
  5
261
330
413
100
AcDbEntity
  8
DATA
  6
Continuous
 62
     7
100
AcDbCircle
 10
-411.6809020819401
 20
-1496.64238066124
 30
0.0
 40
8.750000000000028
100
AcDbArc
 50
60.0000000000001
 51
240.0000000000001
  0
ARC
  5
262
330
413
100
AcDbEntity
  8
DATA
  6
Continuous
 62
     7
100
AcDbCircle
 10
-375.3078351229938
 20
-1517.642380661239
 30
0.0
 40
8.750000000000028
100
AcDbArc
 50
240.0000000000001
 51
60.0000000000001
  0
LINE
  5
263
330
413
100
AcDbEntity
  8
DATA
  6
Continuous
 62
     7
100
AcDbLine
 10
-407.3059020819401
 20
-1489.064658378126
 30
0.0
 11
-370.9328351229938
 21
-1510.064658378125
 31
0.0
  0
LINE
  5
264
330
413
100
AcDbEntity
  8
DATA
  6
Continuous
 62
     7
100
AcDbLine
 10
-416.05590208194
 20
-1504.220102944353
 30
0.0
 11
-379.6828351229938
 21
-1525.220102944353
 31
0.0
  0
ARC
  5
265
330
413
100
AcDbEntity
  8
DATA
  6
Continuous
 62
     7
100
AcDbCircle
 10
-106.2500000000004
 20
-1573.250142858305
 30
0.0
 40
8.75
100
AcDbArc
 50
180.0
 51
0.0
  0
ARC
  5
266
330
413
100
AcDbEntity
  8
DATA
  6
Continuous
 62
     7
100
AcDbCircle
 10
-106.2500000000004
 20
-1531.250142858305
 30
0.0
 40
8.75
100
AcDbArc
 50
0.0
 51
180.0
  0
LINE
  5
267
330
413
100
AcDbEntity
  8
DATA
  6
Continuous
 62
     7
100
AcDbLine
 10
-115.0000000000004
 20
-1573.250142858305
 30
0.0
 11
-115.0000000000004
 21
-1531.250142858305
 31
0.0
  0
LINE
  5
268
330
413
100
AcDbEntity
  8
DATA
  6
Continuous
 62
     7
100
AcDbLine
 10
-97.50000000000044
 20
-1573.250142858305
 30
0.0
 11
-97.50000000000044
 21
-1531.250142858305
 31
0.0
  0
LINE
  5
269
330
413
100
AcDbEntity
  8
DATA
  6
Continuous
 62
     7
100
AcDbLine
 10
-147.5179487154337
 20
-1158.204917611872
 30
0.0
 11
-92.99500000000035
 21
-1189.68375672974
 31
0.0
  0
ARC
  5
26A
330
413
100
AcDbEntity
  8
DATA
  6
Continuous
 62
     7
100
AcDbCircle
 10
-300.0000000000004
 20
-2254.290469962
 30
0.0
 40
1104.290469962001
100
AcDbArc
 50
85.88720072455547
 51
94.1127992754445
  0
ARC
  5
26B
330
413
100
AcDbEntity
  8
DATA
  6
Continuous
 62
     7
100
AcDbCircle
 10
-100.4950000000003
 20
-1202.674137786507
 30
0.0
 40
15.0
100
AcDbArc
 50
0.0
 51
60.0000000000001
  0
ARC
  5
26C
330
413
100
AcDbEntity
  8
DATA
  6
Continuous
 62
     7
100
AcDbCircle
 10
-160.0179487154341
 20
-1179.855552706484
 30
0.0
 40
25.0000000000007
100
AcDbArc
 50
59.99999999999973
 51
84.5631074725418
  0
LINE
  5
26D
330
413
100
AcDbEntity
  8
DATA
  6
Continuous
 62
     7
100
AcDbLine
 10
-514.5050000000001
 20
-1202.674137786507
 30
0.0
 11
-514.5000000000005
 21
-1452.579528933938
 31
0.0
  0
ARC
  5
26E
330
413
100
AcDbEntity
  8
DATA
  6
Continuous
 62
     7
100
AcDbCircle
 10
-499.5000000000005
 20
-1452.579528933938
 30
0.0
 40
15.0
100
AcDbArc
 50
180.0
 51
240.0000000000001
  0
LINE
  5
26F
330
413
100
AcDbEntity
  8
DATA
  6
Continuous
 62
     7
100
AcDbLine
 10
-220.8000000000006
 20
-1152.843783985372
 30
0.0
 11
-157.6492154102984
 21
-1154.968023650164
 31
0.0
  0
LINE
  5
270
330
413
100
AcDbEntity
  8
DATA
  6
Continuous
 62
     7
100
AcDbLine
 10
-452.4820512845671
 20
-1158.204917611872
 30
0.0
 11
-507.0050000000001
 21
-1189.68375672974
 31
0.0
  0
ARC
  5
271
330
413
100
AcDbEntity
  8
DATA
  6
Continuous
 62
     7
100
AcDbCircle
 10
-499.505
 20
-1202.674137786507
 30
0.0
 40
15.00000000000005
100
AcDbArc
 50
119.9999999999998
 51
180.0
  0
ARC
  5
272
330
413
100
AcDbEntity
  8
DATA
  6
Continuous
 62
     7
100
AcDbCircle
 10
-439.9820512845663
 20
-1179.855552706484
 30
0.0
 40
25.00000000000072
100
AcDbArc
 50
95.43689252745821
 51
120.0000000000012
  0
LINE
  5
273
330
413
100
AcDbEntity
  8
DATA
  6
Continuous
 62
     7
100
AcDbLine
 10
-379.2000000000002
 20
-1152.843783985372
 30
0.0
 11
-442.3507845897019
 21
-1154.968023650164
 31
0.0
  0
CIRCLE
  5
274
330
413
100
AcDbEntity
  8
DATA
  6
Continuous
 62
     7
100
AcDbCircle
 10
-127.5000000000004
 20
-1264.999999999999
 30
0.0
 40
11.17600000000038
  0
LINE
  5
275
330
413
100
AcDbEntity
  8
DATA
  6
Continuous
 62
     7
100
AcDbLine
 10
-125.7220000000006
 20
-1267.793999999999
 30
0.0
 11
-123.9440000000004
 21
-1264.999999999999
 31
0.0
  0
LINE
  5
276
330
413
100
AcDbEntity
  8
DATA
  6
Continuous
 62
     7
100
AcDbLine
 10
-129.0240000000003
 20
-1262.205999999999
 30
0.0
 11
-130.8020000000001
 21
-1264.999999999999
 31
0.0
  0
LINE
  5
277
330
413
100
AcDbEntity
  8
DATA
  6
Continuous
 62
     7
100
AcDbLine
 10
-129.0240000000003
 20
-1267.793999999999
 30
0.0
 11
-125.7220000000006
 21
-1267.793999999999
 31
0.0
  0
LINE
  5
278
330
413
100
AcDbEntity
  8
DATA
  6
Continuous
 62
     7
100
AcDbLine
 10
-125.7220000000006
 20
-1262.205999999999
 30
0.0
 11
-129.0240000000003
 21
-1262.205999999999
 31
0.0
  0
LINE
  5
279
330
413
100
AcDbEntity
  8
DATA
  6
Continuous
 62
     7
100
AcDbLine
 10
-130.8020000000001
 20
-1264.999999999999
 30
0.0
 11
-129.0240000000003
 21
-1267.793999999999
 31
0.0
  0
LINE
  5
27A
330
413
100
AcDbEntity
  8
DATA
  6
Continuous
 62
     7
100
AcDbLine
 10
-123.9440000000004
 20
-1264.999999999999
 30
0.0
 11
-125.7220000000006
 21
-1262.205999999999
 31
0.0
  0
CIRCLE
  5
27B
330
413
100
AcDbEntity
  8
DATA
  6
Continuous
 62
     7
100
AcDbCircle
 10
-472.5000000000004
 20
-1264.999999999999
 30
0.0
 40
11.17600000000038
  0
LINE
  5
27C
330
413
100
AcDbEntity
  8
DATA
  6
Continuous
 62
     7
100
AcDbLine
 10
-474.2780000000002
 20
-1267.793999999999
 30
0.0
 11
-476.0560000000005
 21
-1264.999999999999
 31
0.0
  0
LINE
  5
27D
330
413
100
AcDbEntity
  8
DATA
  6
Continuous
 62
     7
100
AcDbLine
 10
-470.9760000000005
 20
-1262.205999999999
 30
0.0
 11
-469.1980000000008
 21
-1264.999999999999
 31
0.0
  0
LINE
  5
27E
330
413
100
AcDbEntity
  8
DATA
  6
Continuous
 62
     7
100
AcDbLine
 10
-470.9760000000005
 20
-1267.793999999999
 30
0.0
 11
-474.2780000000002
 21
-1267.793999999999
 31
0.0
  0
LINE
  5
27F
330
413
100
AcDbEntity
  8
DATA
  6
Continuous
 62
     7
100
AcDbLine
 10
-474.2780000000002
 20
-1262.205999999999
 30
0.0
 11
-470.9760000000005
 21
-1262.205999999999
 31
0.0
  0
LINE
  5
280
330
413
100
AcDbEntity
  8
DATA
  6
Continuous
 62
     7
100
AcDbLine
 10
-469.1980000000008
 20
-1264.999999999999
 30
0.0
 11
-470.9760000000005
 21
-1267.793999999999
 31
0.0
  0
LINE
  5
281
330
413
100
AcDbEntity
  8
DATA
  6
Continuous
 62
     7
100
AcDbLine
 10
-476.0560000000005
 20
-1264.999999999999
 30
0.0
 11
-474.2780000000002
 21
-1262.205999999999
 31
0.0
  0
LINE
  5
282
330
413
100
AcDbEntity
  8
DATA
  6
Continuous
 62
     7
100
AcDbLine
 10
-488.7960845255411
 20
-1202.264845246495
 30
0.0
 11
-488.7674191882196
 21
-1202.314495067152
 31
0.0
  0
LINE
  5
283
330
413
100
AcDbEntity
  8
DATA
  6
Continuous
 62
     7
100
AcDbLine
 10
-450.6909667590262
 20
-1180.264845246495
 30
0.0
 11
-450.6623014217043
 21
-1180.314495067152
 31
0.0
  0
ARC
  5
284
330
413
100
AcDbEntity
  8
DATA
  6
Continuous
 62
     7
100
AcDbCircle
 10
-483.5550591217569
 20
-1209.342567529609
 30
0.0
 40
8.750000000000028
100
AcDbArc
 50
119.9999999999998
 51
300.0
  0
ARC
  5
285
330
413
100
AcDbEntity
  8
DATA
  6
Continuous
 62
     7
100
AcDbCircle
 10
-447.1819921628102
 20
-1188.342567529608
 30
0.0
 40
8.750000000000028
100
AcDbArc
 50
300.0
 51
119.9999999999999
  0
LINE
  5
286
330
413
100
AcDbEntity
  8
DATA
  6
Continuous
 62
     7
100
AcDbLine
 10
-487.9300591217569
 20
-1201.764845246495
 30
0.0
 11
-451.5569921628102
 21
-1180.764845246494
 31
0.0
  0
LINE
  5
287
330
413
100
AcDbEntity
  8
DATA
  6
Continuous
 62
     7
100
AcDbLine
 10
-479.180059121757
 20
-1216.920289812722
 30
0.0
 11
-442.8069921628102
 21
-1195.920289812722
 31
0.0
  0
ARC
  5
288
330
413
100
AcDbEntity
  8
DATA
  6
Continuous
 62
     7
100
AcDbCircle
 10
-152.8180078371901
 20
-1188.342567529608
 30
0.0
 40
8.750000000000028
100
AcDbArc
 50
60.0000000000001
 51
240.0000000000001
  0
ARC
  5
289
330
413
100
AcDbEntity
  8
DATA
  6
Continuous
 62
     7
100
AcDbCircle
 10
-116.4449408782438
 20
-1209.342567529609
 30
0.0
 40
8.750000000000028
100
AcDbArc
 50
240.0000000000001
 51
60.0000000000001
  0
LINE
  5
28A
330
413
100
AcDbEntity
  8
DATA
  6
Continuous
 62
     7
100
AcDbLine
 10
-148.4430078371901
 20
-1180.764845246494
 30
0.0
 11
-112.0699408782438
 21
-1201.764845246495
 31
0.0
  0
LINE
  5
28B
330
413
100
AcDbEntity
  8
DATA
  6
Continuous
 62
     7
100
AcDbLine
 10
-157.1930078371902
 20
-1195.920289812722
 30
0.0
 11
-120.8199408782439
 21
-1216.920289812722
 31
0.0
  0
LINE
  5
28C
330
413
100
AcDbEntity
  8
DATA
  6
Continuous
 62
     7
100
AcDbLine
 10
459.4999999986648
 20
-429.4600000000001
 30
0.0
 11
459.4999999986648
 21
-993.5
 31
0.0
  0
LINE
  5
28D
330
413
100
AcDbEntity
  8
DATA
  6
Continuous
 62
     7
100
AcDbLine
 10
7.5
 20
-350.0000000000002
 30
0.0
 11
396.2799999999997
 21
-350.0000000000002
 31
0.0
  0
ARC
  5
28E
330
413
100
AcDbEntity
  8
DATA
  6
Continuous
 62
     7
100
AcDbCircle
 10
454.4999999986648
 20
-355.0000000000002
 30
0.0
 40
5.0
100
AcDbArc
 50
0.0
 51
90.0
  0
LINE
  5
28F
330
413
100
AcDbEntity
  8
DATA
  6
Continuous
 62
     7
100
AcDbLine
 10
459.4999999986648
 20
-995.0
 30
0.0
 11
459.4999999986648
 21
-355.0000000000002
 31
0.0
  0
LINE
  5
290
330
413
100
AcDbEntity
  8
DATA
  6
Continuous
 62
     7
100
AcDbLine
 10
5.0
 20
-350.0000000000002
 30
0.0
 11
454.4999999986648
 21
-350.0000000000002
 31
0.0
  0
LINE
  5
291
330
413
100
AcDbEntity
  8
DATA
  6
Continuous
 62
     7
100
AcDbLine
 10
5.0
 20
-1000.0
 30
0.0
 11
454.4999999986648
 21
-1000.0
 31
0.0
  0
LINE
  5
292
330
413
100
AcDbEntity
  8
DATA
  6
Continuous
 62
     7
100
AcDbLine
 10
0.0
 20
-995.0
 30
0.0
 11
0.0
 21
-980.0
 31
0.0
  0
LINE
  5
293
330
413
100
AcDbEntity
  8
DATA
  6
Continuous
 62
     7
100
AcDbLine
 10
0.0
 20
-370.0000000000002
 30
0.0
 11
0.0
 21
-355.0000000000002
 31
0.0
  0
LINE
  5
294
330
413
100
AcDbEntity
  8
DATA
  6
Continuous
 62
     7
100
AcDbLine
 10
51.0
 20
-370.0000000000002
 30
0.0
 11
51.0
 21
-980.0
 31
0.0
  0
ARC
  5
295
330
413
100
AcDbEntity
  8
DATA
  6
Continuous
 62
     7
100
AcDbCircle
 10
5.0
 20
-995.0
 30
0.0
 40
5.0
100
AcDbArc
 50
180.0
 51
270.0
  0
ARC
  5
296
330
413
100
AcDbEntity
  8
DATA
  6
Continuous
 62
     7
100
AcDbCircle
 10
5.0
 20
-355.0000000000002
 30
0.0
 40
5.0
100
AcDbArc
 50
90.0
 51
180.0
  0
LINE
  5
297
330
413
100
AcDbEntity
  8
DATA
  6
Continuous
 62
     7
100
AcDbLine
 10
2.5
 20
-980.0
 30
0.0
 11
2.5
 21
-370.0000000000002
 31
0.0
  0
CIRCLE
  5
298
330
413
100
AcDbEntity
  8
DATA
  6
Continuous
 62
     7
100
AcDbCircle
 10
59.0
 20
-380.0000000000002
 30
0.0
 40
3.0
  0
LINE
  5
299
330
413
100
AcDbEntity
  8
DATA
  6
Continuous
 62
     7
100
AcDbLine
 10
66.0
 20
-370.0000000000002
 30
0.0
 11
66.0
 21
-980.0
 31
0.0
  0
LINE
  5
29A
330
413
100
AcDbEntity
  8
DATA
  6
Continuous
 62
     7
100
AcDbLine
 10
57.75
 20
-380.0000000000002
 30
0.0
 11
60.25
 21
-380.0000000000002
 31
0.0
  0
LINE
  5
29B
330
413
100
AcDbEntity
  8
DATA
  6
Continuous
 62
     7
100
AcDbLine
 10
59.0
 20
-381.2500000000002
 30
0.0
 11
59.0
 21
-378.7500000000002
 31
0.0
  0
CIRCLE
  5
29C
330
413
100
AcDbEntity
  8
DATA
  6
Continuous
 62
     7
100
AcDbCircle
 10
59.0
 20
-968.5
 30
0.0
 40
3.0
  0
LINE
  5
29D
330
413
100
AcDbEntity
  8
DATA
  6
Continuous
 62
     7
100
AcDbLine
 10
57.75
 20
-968.5
 30
0.0
 11
60.25
 21
-968.5
 31
0.0
  0
LINE
  5
29E
330
413
100
AcDbEntity
  8
DATA
  6
Continuous
 62
     7
100
AcDbLine
 10
59.0
 20
-967.2499999999999
 30
0.0
 11
59.0
 21
-969.7499999999999
 31
0.0
  0
LINE
  5
29F
330
413
100
AcDbEntity
  8
DATA
  6
Continuous
 62
     7
100
AcDbLine
 10
66.0
 20
-980.0
 30
0.0
 11
0.0
 21
-980.0
 31
0.0
  0
LINE
  5
2A0
330
413
100
AcDbEntity
  8
DATA
  6
Continuous
 62
     7
100
AcDbLine
 10
66.0
 20
-370.0000000000002
 30
0.0
 11
0.0
 21
-370.0000000000002
 31
0.0
  0
LINE
  5
2A1
330
413
100
AcDbEntity
  8
DATA
  6
Continuous
 62
     7
100
AcDbLine
 10
66.0
 20
-980.0
 30
0.0
 11
0.0
 21
-980.0
 31
0.0
  0
CIRCLE
  5
2A2
330
413
100
AcDbEntity
  8
DATA
  6
Continuous
 62
     7
100
AcDbCircle
 10
59.0
 20
-675.0
 30
0.0
 40
3.0
  0
LINE
  5
2A3
330
413
100
AcDbEntity
  8
DATA
  6
Continuous
 62
     7
100
AcDbLine
 10
57.75
 20
-675.0
 30
0.0
 11
60.25
 21
-675.0
 31
0.0
  0
LINE
  5
2A4
330
413
100
AcDbEntity
  8
DATA
  6
Continuous
 62
     7
100
AcDbLine
 10
59.0
 20
-673.7500000000001
 30
0.0
 11
59.0
 21
-676.2500000000001
 31
0.0
  0
CIRCLE
  5
2A5
330
413
100
AcDbEntity
  8
DATA
  6
Continuous
 62
     7
100
AcDbCircle
 10
117.4999999986648
 20
-393.5000000000002
 30
0.0
 40
11.17600000000038
  0
LINE
  5
2A6
330
413
100
AcDbEntity
  8
DATA
  6
Continuous
 62
     7
100
AcDbLine
 10
119.2779999986646
 20
-390.7060000000003
 30
0.0
 11
121.0559999986649
 21
-393.5000000000002
 31
0.0
  0
LINE
  5
2A7
330
413
100
AcDbEntity
  8
DATA
  6
Continuous
 62
     7
100
AcDbLine
 10
115.9759999986649
 20
-396.2940000000001
 30
0.0
 11
114.1979999986652
 21
-393.5000000000002
 31
0.0
  0
LINE
  5
2A8
330
413
100
AcDbEntity
  8
DATA
  6
Continuous
 62
     7
100
AcDbLine
 10
115.9759999986649
 20
-390.7060000000003
 30
0.0
 11
119.2779999986646
 21
-390.7060000000003
 31
0.0
  0
LINE
  5
2A9
330
413
100
AcDbEntity
  8
DATA
  6
Continuous
 62
     7
100
AcDbLine
 10
119.2779999986646
 20
-396.2940000000001
 30
0.0
 11
115.9759999986649
 21
-396.2940000000001
 31
0.0
  0
LINE
  5
2AA
330
413
100
AcDbEntity
  8
DATA
  6
Continuous
 62
     7
100
AcDbLine
 10
114.1979999986652
 20
-393.5000000000002
 30
0.0
 11
115.9759999986649
 21
-390.7060000000003
 31
0.0
  0
LINE
  5
2AB
330
413
100
AcDbEntity
  8
DATA
  6
Continuous
 62
     7
100
AcDbLine
 10
121.0559999986649
 20
-393.5000000000002
 30
0.0
 11
119.2779999986646
 21
-396.2940000000001
 31
0.0
  0
CIRCLE
  5
2AC
330
413
100
AcDbEntity
  8
DATA
  6
Continuous
 62
     7
100
AcDbCircle
 10
117.4999999986648
 20
-956.4999999999999
 30
0.0
 40
11.17600000000038
  0
LINE
  5
2AD
330
413
100
AcDbEntity
  8
DATA
  6
Continuous
 62
     7
100
AcDbLine
 10
119.2779999986646
 20
-959.2939999999998
 30
0.0
 11
121.0559999986649
 21
-956.4999999999999
 31
0.0
  0
LINE
  5
2AE
330
413
100
AcDbEntity
  8
DATA
  6
Continuous
 62
     7
100
AcDbLine
 10
115.9759999986649
 20
-953.706
 30
0.0
 11
114.1979999986652
 21
-956.4999999999999
 31
0.0
  0
LINE
  5
2AF
330
413
100
AcDbEntity
  8
DATA
  6
Continuous
 62
     7
100
AcDbLine
 10
115.9759999986649
 20
-959.2939999999998
 30
0.0
 11
119.2779999986646
 21
-959.2939999999998
 31
0.0
  0
LINE
  5
2B0
330
413
100
AcDbEntity
  8
DATA
  6
Continuous
 62
     7
100
AcDbLine
 10
119.2779999986646
 20
-953.706
 30
0.0
 11
115.9759999986649
 21
-953.706
 31
0.0
  0
LINE
  5
2B1
330
413
100
AcDbEntity
  8
DATA
  6
Continuous
 62
     7
100
AcDbLine
 10
114.1979999986652
 20
-956.4999999999999
 30
0.0
 11
115.9759999986649
 21
-959.2939999999998
 31
0.0
  0
LINE
  5
2B2
330
413
100
AcDbEntity
  8
DATA
  6
Continuous
 62
     7
100
AcDbLine
 10
121.0559999986649
 20
-956.4999999999999
 30
0.0
 11
119.2779999986646
 21
-953.706
 31
0.0
  0
ARC
  5
2B3
330
413
100
AcDbEntity
  8
DATA
  6
Continuous
 62
     7
100
AcDbCircle
 10
454.4999999986648
 20
-995.0
 30
0.0
 40
5.0
100
AcDbArc
 50
270.0
 51
0.0
  0
LWPOLYLINE
  5
2B4
330
413
100
AcDbEntity
  8
DATA
  6
Continuous
 62
     7
100
AcDbPolyline
 90
        4
 70
     1
 43
0.0
 10
715.0
 20
669.0
 10
1285.0
 20
669.0
 10
1285.0
 20
-201.0
 10
715.0
 20
-201.0
  0
CIRCLE
  5
2BB
330
413
100
AcDbEntity
  8
DATA
  6
Continuous
 62
     7
100
AcDbCircle
 10
1000.0
 20
468.0
 30
0.0
 40
70.5
  0
CIRCLE
  5
2BC
330
413
100
AcDbEntity
  8
DATA
  6
Continuous
 62
     7
100
AcDbCircle
 10
928.0
 20
411.0
 30
0.0
 40
12.0
  0
CIRCLE
  5
2BD
330
413
100
AcDbEntity
  8
DATA
  6
Continuous
 62
     7
100
AcDbCircle
 10
1072.0
 20
525.0
 30
0.0
 40
12.0
  0
LINE
  5
2BE
330
413
100
AcDbEntity
  8
DATA
  6
Continuous
 62
     7
100
AcDbLine
 10
1060.0
 20
486.0
 30
0.0
 11
1060.0
 21
450.0
 31
0.0
  0
LINE
  5
2BF
330
413
100
AcDbEntity
  8
DATA
  6
Continuous
 62
     7
100
AcDbLine
 10
940.0
 20
480.0
 30
0.0
 11
940.0
 21
456.0
 31
0.0
  0
LINE
  5
2C0
330
413
100
AcDbEntity
  8
DATA
  6
Continuous
 62
     7
100
AcDbLine
 10
940.0
 20
480.0
 30
0.0
 11
947.2000000000006
 21
480.0
 31
0.0
  0
LINE
  5
2C1
330
413
100
AcDbEntity
  8
DATA
  6
Continuous
 62
     7
100
AcDbLine
 10
940.0
 20
456.0
 30
0.0
 11
947.2000000000006
 21
456.0
 31
0.0
  0
LINE
  5
2C2
330
413
100
AcDbEntity
  8
DATA
  6
Continuous
 62
     7
100
AcDbLine
 10
1060.0
 20
486.0
 30
0.0
 11
1049.637100000001
 21
486.0
 31
0.0
  0
LINE
  5
2C3
330
413
100
AcDbEntity
  8
DATA
  6
Continuous
 62
     7
100
AcDbLine
 10
1060.0
 20
450.0
 30
0.0
 11
1049.637100000001
 21
450.0
 31
0.0
  0
ARC
  5
2C4
330
413
100
AcDbEntity
  8
DATA
  6
Continuous
 62
     7
100
AcDbCircle
 10
1000.0
 20
468.0
 30
0.0
 40
52.80001606448783
100
AcDbArc
 50
19.93226415067832
 51
167.1961668196998
  0
ARC
  5
2C5
330
413
100
AcDbEntity
  8
DATA
  6
Continuous
 62
     7
100
AcDbCircle
 10
1000.0
 20
468.0
 30
0.0
 40
52.80002102607424
100
AcDbArc
 50
192.9999995554215
 51
339.9999942379622
  0
ARC
  5
2C6
330
413
100
AcDbEntity
  8
DATA
  6
Continuous
 62
     7
100
AcDbCircle
 10
1000.0
 20
468.0
 30
0.0
 40
37.20001297238486
100
AcDbArc
 50
330.0000115355605
 51
60.00001153556057
  0
LINE
  5
2C7
330
413
100
AcDbEntity
  8
DATA
  6
Continuous
 62
     7
100
AcDbLine
 10
1018.600179999999
 20
500.2160399999998
 30
0.0
 11
1016.875180000001
 21
497.2282800000002
 31
0.0
  0
LINE
  5
2C8
330
413
100
AcDbEntity
  8
DATA
  6
Continuous
 62
     7
100
AcDbLine
 10
1032.21628
 20
449.4001800000001
 30
0.0
 11
1029.22846
 21
451.1251800000002
 31
0.0
  0
ARC
  5
2C9
330
413
100
AcDbEntity
  8
DATA
  6
Continuous
 62
     7
100
AcDbCircle
 10
1000.0
 20
468.0
 30
0.0
 40
37.20001297238328
100
AcDbArc
 50
150.0000115355591
 51
240.0000115355608
  0
LINE
  5
2CA
330
413
100
AcDbEntity
  8
DATA
  6
Continuous
 62
     7
100
AcDbLine
 10
967.7838400000016
 20
486.6000000000001
 30
0.0
 11
970.7716600000003
 21
484.875
 31
0.0
  0
LINE
  5
2CB
330
413
100
AcDbEntity
  8
DATA
  6
Continuous
 62
     7
100
AcDbLine
 10
981.4001200000001
 20
435.7837799999999
 30
0.0
 11
983.1251199999989
 21
438.7716000000001
 31
0.0
  0
ARC
  5
2CC
330
413
100
AcDbEntity
  8
DATA
  6
Continuous
 62
     7
100
AcDbCircle
 10
1000.0
 20
468.0
 30
0.0
 40
33.75002298948614
100
AcDbArc
 50
59.9996696821013
 51
150.0002126043036
  0
ARC
  5
2CD
330
413
100
AcDbEntity
  8
DATA
  6
Continuous
 62
     7
100
AcDbCircle
 10
1000.0
 20
468.0
 30
0.0
 40
33.74997691220601
100
AcDbArc
 50
240.000212604301
 51
330.0007182431232
  0
ARC
  5
2CE
330
413
100
AcDbEntity
  8
DATA
  6
Continuous
 62
     7
100
AcDbCircle
 10
1000.0
 20
468.0
 30
0.0
 40
21.59994048525272
100
AcDbArc
 50
329.9999088547082
 51
59.99990885470349
  0
ARC
  5
2CF
330
413
100
AcDbEntity
  8
DATA
  6
Continuous
 62
     7
100
AcDbCircle
 10
1000.0
 20
468.0
 30
0.0
 40
21.59994048525115
100
AcDbArc
 50
149.9999088547057
 51
239.9999088547069
  0
LINE
  5
2D0
330
413
100
AcDbEntity
  8
DATA
  6
Continuous
 62
     7
100
AcDbLine
 10
1018.70614
 20
457.20012
 30
0.0
 11
1015.068880000001
 21
459.3000600000003
 31
0.0
  0
LINE
  5
2D1
330
413
100
AcDbEntity
  8
DATA
  6
Continuous
 62
     7
100
AcDbLine
 10
1010.80006
 20
486.7060199999999
 30
0.0
 11
1008.700059999999
 21
483.0688200000001
 31
0.0
  0
LINE
  5
2D2
330
413
100
AcDbEntity
  8
DATA
  6
Continuous
 62
     7
100
AcDbLine
 10
981.29392
 20
478.7999999999997
 30
0.0
 11
984.9311799999998
 21
476.7000000000003
 31
0.0
  0
LINE
  5
2D3
330
413
100
AcDbEntity
  8
DATA
  6
Continuous
 62
     7
100
AcDbLine
 10
989.2001200000011
 20
449.2938599999998
 30
0.0
 11
991.3000599999996
 21
452.93112
 31
0.0
  0
ARC
  5
2D4
330
413
100
AcDbEntity
  8
DATA
  6
Continuous
 62
     7
100
AcDbCircle
 10
1000.0
 20
468.0
 30
0.0
 40
17.40001092516875
100
AcDbArc
 50
59.99979263403299
 51
150.0002336238285
  0
ARC
  5
2D5
330
413
100
AcDbEntity
  8
DATA
  6
Continuous
 62
     7
100
AcDbCircle
 10
1000.0
 20
468.0
 30
0.0
 40
17.40000288672414
100
AcDbArc
 50
240.0002336238291
 51
329.9997926340318
  0
LINE
  5
2D6
330
413
100
AcDbEntity
  8
DATA
  6
Continuous
 62
     7
100
AcDbLine
 10
934.0
 20
411.0
 30
0.0
 11
922.0
 21
411.0
 31
0.0
  0
LINE
  5
2D7
330
413
100
AcDbEntity
  8
DATA
  6
Continuous
 62
     7
100
AcDbLine
 10
928.0
 20
417.0
 30
0.0
 11
928.0
 21
405.0
 31
0.0
  0
LINE
  5
2D8
330
413
100
AcDbEntity
  8
DATA
  6
Continuous
 62
     7
100
AcDbLine
 10
1078.0
 20
525.0
 30
0.0
 11
1066.0
 21
525.0
 31
0.0
  0
LINE
  5
2D9
330
413
100
AcDbEntity
  8
DATA
  6
Continuous
 62
     7
100
AcDbLine
 10
1072.0
 20
531.0
 30
0.0
 11
1072.0
 21
519.0
 31
0.0
  0
CIRCLE
  5
2DA
330
413
100
AcDbEntity
  8
DATA
  6
Continuous
 62
     7
100
AcDbCircle
 10
1000.0
 20
0.0
 30
0.0
 40
70.49999999999993
  0
CIRCLE
  5
2DB
330
413
100
AcDbEntity
  8
DATA
  6
Continuous
 62
     7
100
AcDbCircle
 10
928.0
 20
-56.99999999999993
 30
0.0
 40
12.0
  0
CIRCLE
  5
2DC
330
413
100
AcDbEntity
  8
DATA
  6
Continuous
 62
     7
100
AcDbCircle
 10
1072.0
 20
57.0
 30
0.0
 40
12.0
  0
LINE
  5
2DD
330
413
100
AcDbEntity
  8
DATA
  6
Continuous
 62
     7
100
AcDbLine
 10
1060.0
 20
18.0
 30
0.0
 11
1060.0
 21
-18.0
 31
0.0
  0
LINE
  5
2DE
330
413
100
AcDbEntity
  8
DATA
  6
Continuous
 62
     7
100
AcDbLine
 10
940.0
 20
12.0
 30
0.0
 11
940.0
 21
-12.0
 31
0.0
  0
LINE
  5
2DF
330
413
100
AcDbEntity
  8
DATA
  6
Continuous
 62
     7
100
AcDbLine
 10
940.0
 20
12.0
 30
0.0
 11
947.2000000000006
 21
12.0
 31
0.0
  0
LINE
  5
2E0
330
413
100
AcDbEntity
  8
DATA
  6
Continuous
 62
     7
100
AcDbLine
 10
940.0
 20
-12.0
 30
0.0
 11
947.2000000000006
 21
-12.0
 31
0.0
  0
LINE
  5
2E1
330
413
100
AcDbEntity
  8
DATA
  6
Continuous
 62
     7
100
AcDbLine
 10
1060.0
 20
18.0
 30
0.0
 11
1049.637100000001
 21
18.0
 31
0.0
  0
LINE
  5
2E2
330
413
100
AcDbEntity
  8
DATA
  6
Continuous
 62
     7
100
AcDbLine
 10
1060.0
 20
-18.0
 30
0.0
 11
1049.637100000001
 21
-18.0
 31
0.0
  0
ARC
  5
2E3
330
413
100
AcDbEntity
  8
DATA
  6
Continuous
 62
     7
100
AcDbCircle
 10
1000.0
 20
0.0
 30
0.0
 40
52.80001606448783
100
AcDbArc
 50
19.93226415067832
 51
167.1961668196998
  0
ARC
  5
2E4
330
413
100
AcDbEntity
  8
DATA
  6
Continuous
 62
     7
100
AcDbCircle
 10
1000.0
 20
0.0
 30
0.0
 40
52.80002102607424
100
AcDbArc
 50
192.9999995554215
 51
339.9999942379622
  0
ARC
  5
2E5
330
413
100
AcDbEntity
  8
DATA
  6
Continuous
 62
     7
100
AcDbCircle
 10
1000.0
 20
0.0
 30
0.0
 40
37.20001297238486
100
AcDbArc
 50
330.0000115355605
 51
60.00001153556064
  0
LINE
  5
2E6
330
413
100
AcDbEntity
  8
DATA
  6
Continuous
 62
     7
100
AcDbLine
 10
1018.600179999999
 20
32.2160399999998
 30
0.0
 11
1016.875180000001
 21
29.22828000000027
 31
0.0
  0
LINE
  5
2E7
330
413
100
AcDbEntity
  8
DATA
  6
Continuous
 62
     7
100
AcDbLine
 10
1032.21628
 20
-18.59981999999991
 30
0.0
 11
1029.22846
 21
-16.87481999999977
 31
0.0
  0
ARC
  5
2E8
330
413
100
AcDbEntity
  8
DATA
  6
Continuous
 62
     7
100
AcDbCircle
 10
1000.0
 20
0.0
 30
0.0
 40
37.20001297238328
100
AcDbArc
 50
150.0000115355591
 51
240.0000115355607
  0
LINE
  5
2E9
330
413
100
AcDbEntity
  8
DATA
  6
Continuous
 62
     7
100
AcDbLine
 10
967.7838400000016
 20
18.60000000000013
 30
0.0
 11
970.7716600000003
 21
16.875
 31
0.0
  0
LINE
  5
2EA
330
413
100
AcDbEntity
  8
DATA
  6
Continuous
 62
     7
100
AcDbLine
 10
981.4001200000001
 20
-32.21622000000002
 30
0.0
 11
983.1251199999989
 21
-29.22839999999997
 31
0.0
  0
ARC
  5
2EB
330
413
100
AcDbEntity
  8
DATA
  6
Continuous
 62
     7
100
AcDbCircle
 10
1000.0
 20
0.0
 30
0.0
 40
33.75002298948619
100
AcDbArc
 50
59.99966968210136
 51
150.0002126043036
  0
ARC
  5
2EC
330
413
100
AcDbEntity
  8
DATA
  6
Continuous
 62
     7
100
AcDbCircle
 10
1000.0
 20
0.0
 30
0.0
 40
33.74997691220601
100
AcDbArc
 50
240.000212604301
 51
330.0007182431232
  0
ARC
  5
2ED
330
413
100
AcDbEntity
  8
DATA
  6
Continuous
 62
     7
100
AcDbCircle
 10
1000.0
 20
0.0
 30
0.0
 40
21.59994048525272
100
AcDbArc
 50
329.9999088547082
 51
59.99990885470349
  0
ARC
  5
2EE
330
413
100
AcDbEntity
  8
DATA
  6
Continuous
 62
     7
100
AcDbCircle
 10
1000.0
 20
0.0
 30
0.0
 40
21.59994048525115
100
AcDbArc
 50
149.9999088547057
 51
239.9999088547066
  0
LINE
  5
2EF
330
413
100
AcDbEntity
  8
DATA
  6
Continuous
 62
     7
100
AcDbLine
 10
1018.70614
 20
-10.79988000000003
 30
0.0
 11
1015.068880000001
 21
-8.699939999999742
 31
0.0
  0
LINE
  5
2F0
330
413
100
AcDbEntity
  8
DATA
  6
Continuous
 62
     7
100
AcDbLine
 10
1010.80006
 20
18.70601999999985
 30
0.0
 11
1008.700059999999
 21
15.06882000000019
 31
0.0
  0
LINE
  5
2F1
330
413
100
AcDbEntity
  8
DATA
  6
Continuous
 62
     7
100
AcDbLine
 10
981.29392
 20
10.79999999999972
 30
0.0
 11
984.9311799999998
 21
8.700000000000272
 31
0.0
  0
LINE
  5
2F2
330
413
100
AcDbEntity
  8
DATA
  6
Continuous
 62
     7
100
AcDbLine
 10
989.2001200000011
 20
-18.70614000000023
 30
0.0
 11
991.3000599999996
 21
-15.06888000000003
 31
0.0
  0
ARC
  5
2F3
330
413
100
AcDbEntity
  8
DATA
  6
Continuous
 62
     7
100
AcDbCircle
 10
1000.0
 20
0.0
 30
0.0
 40
17.40001092516875
100
AcDbArc
 50
59.99979263403299
 51
150.0002336238286
  0
ARC
  5
2F4
330
413
100
AcDbEntity
  8
DATA
  6
Continuous
 62
     7
100
AcDbCircle
 10
1000.0
 20
0.0
 30
0.0
 40
17.40000288672414
100
AcDbArc
 50
240.0002336238291
 51
329.9997926340318
  0
LINE
  5
2F5
330
413
100
AcDbEntity
  8
DATA
  6
Continuous
 62
     7
100
AcDbLine
 10
934.0
 20
-56.99999999999993
 30
0.0
 11
922.0
 21
-56.99999999999993
 31
0.0
  0
LINE
  5
2F6
330
413
100
AcDbEntity
  8
DATA
  6
Continuous
 62
     7
100
AcDbLine
 10
928.0
 20
-50.99999999999994
 30
0.0
 11
928.0
 21
-62.99999999999993
 31
0.0
  0
LINE
  5
2F7
330
413
100
AcDbEntity
  8
DATA
  6
Continuous
 62
     7
100
AcDbLine
 10
1078.0
 20
57.0
 30
0.0
 11
1066.0
 21
57.0
 31
0.0
  0
LINE
  5
2F8
330
413
100
AcDbEntity
  8
DATA
  6
Continuous
 62
     7
100
AcDbLine
 10
1072.0
 20
63.0
 30
0.0
 11
1072.0
 21
51.0
 31
0.0
  0
LINE
  5
2F9
330
413
100
AcDbEntity
  8
DATA
  6
Continuous
 62
     7
100
AcDbLine
 10
1000.0
 20
379.5000000000001
 30
0.0
 11
1000.0
 21
283.5
 31
0.0
  0
LINE
  5
2FA
330
413
100
AcDbEntity
  8
DATA
  6
Continuous
 62
     7
100
AcDbLine
 10
1000.0
 20
88.49999999999999
 30
0.0
 11
1000.0
 21
184.5
 31
0.0
  0
TEXT
  5
2FB
330
413
100
AcDbEntity
  8
DATA
 62
     7
100
AcDbText
 10
1013.920162768443
 20
574.6466657515693
 30
0.0
 40
61.08154296875
  1
PRX400
 41
0.7
 11
1013.920162768443
 21
605.1874372359443
 31
0.0
100
AcDbText
 73
     2
  0
TEXT
  5
2FC
330
413
100
AcDbEntity
  8
DATA
 62
     7
100
AcDbText
 10
922.6951992187499
 20
219.3404296875
 30
0.0
 40
29.319140625
  1
IN / THRU
 41
0.7
 72
     1
 11
1000.0
 21
234.0
 31
0.0
100
AcDbText
 73
     2
  0
TEXT
  5
2FD
330
413
100
AcDbEntity
  8
DATA
 62
     7
100
AcDbText
 10
1117.413977996035
 20
221.78369140625
 30
0.0
 40
24.4326171875
  1
+1 IN:8Ω
 41
0.7
 11
1117.413977996035
 21
234.0
 31
0.0
100
AcDbText
 73
     2
  0
TEXT
  5
2FE
330
413
100
AcDbEntity
  8
DATA
 62
     7
100
AcDbText
 10
1117.413977996035
 20
184.0336914062502
 30
0.0
 40
24.4326171875
  1
+2 N/C
 41
0.7
 11
1117.413977996035
 21
196.2500000000002
 31
0.0
100
AcDbText
 73
     2
  0
TEXT
  5
2FF
330
413
100
AcDbEntity
  8
DATA
 62
     7
100
AcDbText
 10
1117.413977996035
 20
259.5336914062497
 30
0.0
 40
24.4326171875
  1
PASSIVE
 41
0.7
 11
1117.413977996035
 21
271.7499999999997
 31
0.0
100
AcDbText
 73
     2
  0
TEXT
  5
300
330
413
100
AcDbEntity
  8
DATA
 62
     7
100
AcDbText
 10
1021.857662768439
 20
-123.5887499999998
 30
0.0
 40
36.93750000000001
  1
PRX415M-WH
 41
0.7
 11
1021.857662768439
 21
-105.1199999999998
 31
0.0
100
AcDbText
 73
     2
  0
LINE
  5
301
330
413
100
AcDbEntity
  8
DATA
  6
Continuous
 62
     7
100
AcDbLine
 10
635.4985236460061
 20
-995.0
 30
0.0
 11
635.4985236460061
 21
-355.0000000000002
 31
0.0
  0
LINE
  5
302
330
413
100
AcDbEntity
  8
DATA
  6
Continuous
 62
     7
100
AcDbLine
 10
640.4985236460061
 20
-350.0000000000002
 30
0.0
 11
984.0665236460063
 21
-350.0000000000002
 31
0.0
  0
ARC
  5
303
330
413
100
AcDbEntity
  8
DATA
  6
Continuous
 62
     7
100
AcDbCircle
 10
640.4985236460061
 20
-355.0000000000002
 30
0.0
 40
5.0
100
AcDbArc
 50
90.0
 51
180.0
  0
LINE
  5
304
330
413
100
AcDbEntity
  8
DATA
  6
Continuous
 62
     7
100
AcDbLine
 10
785.3575236460056
 20
-350.0000000000002
 30
0.0
 11
785.3575236460056
 21
-1000.0
 31
0.0
  0
LINE
  5
305
330
413
100
AcDbEntity
  8
DATA
  6
Continuous
 62
     7
100
AcDbLine
 10
640.4985236460061
 20
-350.0000000000002
 30
0.0
 11
1059.501476353994
 21
-350.0000000000002
 31
0.0
  0
LINE
  5
306
330
413
100
AcDbEntity
  8
DATA
  6
Continuous
 62
     7
100
AcDbLine
 10
1059.501476353994
 20
-1000.0
 30
0.0
 11
640.4985236460061
 21
-1000.0
 31
0.0
  0
ARC
  5
307
330
413
100
AcDbEntity
  8
DATA
  6
Continuous
 62
     7
100
AcDbCircle
 10
640.4985236460061
 20
-995.0
 30
0.0
 40
5.0
100
AcDbArc
 50
180.0
 51
270.0
  0
LINE
  5
308
330
413
100
AcDbEntity
  8
DATA
  6
Continuous
 62
     7
100
AcDbLine
 10
1064.501476353994
 20
-995.0
 30
0.0
 11
1064.501476353994
 21
-355.0000000000002
 31
0.0
  0
ARC
  5
309
330
413
100
AcDbEntity
  8
DATA
  6
Continuous
 62
     7
100
AcDbCircle
 10
1059.501476353994
 20
-355.0000000000002
 30
0.0
 40
5.0
100
AcDbArc
 50
0.0
 51
90.0
  0
ARC
  5
30A
330
413
100
AcDbEntity
  8
DATA
  6
Continuous
 62
     7
100
AcDbCircle
 10
1059.501476353994
 20
-995.0
 30
0.0
 40
5.0
100
AcDbArc
 50
270.0
 51
0.0
  0
ARC
  5
30B
330
413
100
AcDbEntity
  8
DATA
  6
Continuous
 62
     7
100
AcDbCircle
 10
1038.637608010494
 20
-444.5929973168297
 30
0.0
 40
8.420000000000072
100
AcDbArc
 50
180.0
 51
0.0
  0
ARC
  5
30C
330
413
100
AcDbEntity
  8
DATA
  6
Continuous
 62
     7
100
AcDbCircle
 10
1038.648481405222
 20
-403.4166247704817
 30
0.0
 40
8.420000000000072
100
AcDbArc
 50
0.0
 51
180.0
  0
LINE
  5
30D
330
413
100
AcDbEntity
  8
DATA
  6
Continuous
 62
     7
100
AcDbLine
 10
1048.552850274991
 20
-446.0000000000001
 30
0.0
 11
1048.495519600348
 21
-446.0000000000001
 31
0.0
  0
ARC
  5
30E
330
413
100
AcDbEntity
  8
DATA
  6
Continuous
 62
     7
100
AcDbCircle
 10
835.1176608872282
 20
-444.5881862731742
 30
0.0
 40
8.420000000000072
100
AcDbArc
 50
180.0
 51
0.0
  0
ARC
  5
30F
330
413
100
AcDbEntity
  8
DATA
  6
Continuous
 62
     7
100
AcDbCircle
 10
835.1285342819556
 20
-403.4118137268261
 30
0.0
 40
8.420000000000072
100
AcDbArc
 50
0.0
 51
180.0
  0
LINE
  5
310
330
413
100
AcDbEntity
  8
DATA
  6
Continuous
 62
     7
100
AcDbLine
 10
826.7085342819555
 20
-403.4118137268261
 30
0.0
 11
826.7085342819555
 21
-445.0159592696282
 31
0.0
  0
LINE
  5
311
330
413
100
AcDbEntity
  8
DATA
  6
Continuous
 62
     7
100
AcDbLine
 10
843.5485342819555
 20
-403.4118137268261
 30
0.0
 11
843.5376608872285
 21
-444.5881862731742
 31
0.0
  0
ARC
  5
312
330
413
100
AcDbEntity
  8
DATA
  6
Continuous
 62
     7
100
AcDbCircle
 10
1038.629736811088
 20
-956.3742997749471
 30
0.0
 40
8.420000000000072
100
AcDbArc
 50
180.0
 51
0.0
  0
ARC
  5
313
330
413
100
AcDbEntity
  8
DATA
  6
Continuous
 62
     7
100
AcDbCircle
 10
1038.640610205815
 20
-915.1979272285993
 30
0.0
 40
8.420000000000072
100
AcDbArc
 50
0.0
 51
180.0
  0
LINE
  5
314
330
413
100
AcDbEntity
  8
DATA
  6
Continuous
 62
     7
100
AcDbLine
 10
1030.220610205815
 20
-915.1979272285993
 30
0.0
 11
1030.220610205815
 21
-956.802072771401
 31
0.0
  0
LINE
  5
315
330
413
100
AcDbEntity
  8
DATA
  6
Continuous
 62
     7
100
AcDbLine
 10
1047.060610205815
 20
-915.1979272285993
 30
0.0
 11
1047.049736811088
 21
-956.3742997749471
 31
0.0
  0
ARC
  5
316
330
413
100
AcDbEntity
  8
DATA
  6
Continuous
 62
     7
100
AcDbCircle
 10
835.1176608872282
 20
-956.5881862731744
 30
0.0
 40
8.420000000000072
100
AcDbArc
 50
180.0
 51
0.0
  0
ARC
  5
317
330
413
100
AcDbEntity
  8
DATA
  6
Continuous
 62
     7
100
AcDbCircle
 10
835.1285342819556
 20
-915.4118137268257
 30
0.0
 40
8.420000000000072
100
AcDbArc
 50
0.0
 51
180.0
  0
LINE
  5
318
330
413
100
AcDbEntity
  8
DATA
  6
Continuous
 62
     7
100
AcDbLine
 10
826.7085342819555
 20
-915.4118137268257
 30
0.0
 11
826.7085342819555
 21
-957.0159592696281
 31
0.0
  0
LINE
  5
319
330
413
100
AcDbEntity
  8
DATA
  6
Continuous
 62
     7
100
AcDbLine
 10
843.5485342819555
 20
-915.4118137268257
 30
0.0
 11
843.5376608872285
 21
-956.5881862731744
 31
0.0
  0
LINE
  5
31A
330
413
100
AcDbEntity
  8
DATA
  6
Continuous
 62
     7
100
AcDbLine
 10
1047.068481405222
 20
-403.4166247704817
 30
0.0
 11
1047.057608010494
 21
-444.5929973168297
 31
0.0
  0
LINE
  5
31B
330
413
100
AcDbEntity
  8
DATA
  6
Continuous
 62
     7
100
AcDbLine
 10
1030.228481405221
 20
-403.4166247704817
 30
0.0
 11
1030.217608010494
 21
-444.5929973168297
 31
0.0
  0
ARC
  5
31C
330
413
100
AcDbEntity
  8
DATA
  6
Continuous
 62
     7
100
AcDbCircle
 10
871.5631187949291
 20
-391.2114999256334
 30
0.0
 40
8.887582053999699
100
AcDbArc
 50
39.47913493552262
 51
89.75368393134525
  0
ARC
  5
31D
330
413
100
AcDbEntity
  8
DATA
  6
Continuous
 62
     7
100
AcDbCircle
 10
869.4251448590794
 20
-393.2447627917277
 30
0.0
 40
11.83294624533521
100
AcDbArc
 50
10.27984620658075
 51
40.29180408541941
  0
ARC
  5
31E
330
413
100
AcDbEntity
  8
DATA
  6
Continuous
 62
     7
100
AcDbCircle
 10
868.0892132908347
 20
-393.5000000000002
 30
0.0
 40
13.19298805627396
100
AcDbArc
 50
349.6648472601497
 51
10.33515273985125
  0
ARC
  5
31F
330
413
100
AcDbEntity
  8
DATA
  6
Continuous
 62
     7
100
AcDbCircle
 10
871.5631187949291
 20
-395.788500074367
 30
0.0
 40
8.887582053999691
100
AcDbArc
 50
270.2463160686547
 51
320.5208650644774
  0
ARC
  5
320
330
413
100
AcDbEntity
  8
DATA
  6
Continuous
 62
     7
100
AcDbCircle
 10
869.4251448590794
 20
-393.7552372082728
 30
0.0
 40
11.8329462453355
100
AcDbArc
 50
319.7081959145806
 51
349.7201537934193
  0
LINE
  5
321
330
413
100
AcDbEntity
  8
DATA
  6
Continuous
 62
     7
100
AcDbLine
 10
873.1414657871081
 20
-390.7060000000003
 30
0.0
 11
874.681604947108
 21
-393.5000000000002
 31
0.0
  0
LINE
  5
322
330
413
100
AcDbEntity
  8
DATA
  6
Continuous
 62
     7
100
AcDbLine
 10
870.2812073471086
 20
-396.2940000000001
 30
0.0
 11
868.7410681871087
 21
-393.5000000000002
 31
0.0
  0
LINE
  5
323
330
413
100
AcDbEntity
  8
DATA
  6
Continuous
 62
     7
100
AcDbLine
 10
870.2812073471086
 20
-390.7060000000003
 30
0.0
 11
873.1414657871081
 21
-390.7060000000003
 31
0.0
  0
LINE
  5
324
330
413
100
AcDbEntity
  8
DATA
  6
Continuous
 62
     7
100
AcDbLine
 10
873.1414657871081
 20
-396.2940000000001
 30
0.0
 11
870.2812073471086
 21
-396.2940000000001
 31
0.0
  0
LINE
  5
325
330
413
100
AcDbEntity
  8
DATA
  6
Continuous
 62
     7
100
AcDbLine
 10
868.7410681871087
 20
-393.5000000000002
 30
0.0
 11
870.2812073471086
 21
-390.7060000000003
 31
0.0
  0
LINE
  5
326
330
413
100
AcDbEntity
  8
DATA
  6
Continuous
 62
     7
100
AcDbLine
 10
874.681604947108
 20
-393.5000000000002
 30
0.0
 11
873.1414657871081
 21
-396.2940000000001
 31
0.0
  0
ARC
  5
327
330
413
100
AcDbEntity
  8
DATA
  6
Continuous
 62
     7
100
AcDbCircle
 10
871.6395344592875
 20
-391.2114999256334
 30
0.0
 40
8.88758205399958
100
AcDbArc
 50
90.24631606865476
 51
140.5208650644774
  0
ARC
  5
328
330
413
100
AcDbEntity
  8
DATA
  6
Continuous
 62
     7
100
AcDbCircle
 10
873.7775083951371
 20
-393.2447627917277
 30
0.0
 40
11.8329462453355
100
AcDbArc
 50
139.7081959145806
 51
169.7201537934192
  0
ARC
  5
329
330
413
100
AcDbEntity
  8
DATA
  6
Continuous
 62
     7
100
AcDbCircle
 10
875.1134399633821
 20
-393.5000000000002
 30
0.0
 40
13.192988056274
100
AcDbArc
 50
169.6648472601487
 51
190.3351527398503
  0
ARC
  5
32A
330
413
100
AcDbEntity
  8
DATA
  6
Continuous
 62
     7
100
AcDbCircle
 10
871.6395344592875
 20
-395.788500074367
 30
0.0
 40
8.887582053999699
100
AcDbArc
 50
219.4791349355226
 51
269.7536839313452
  0
ARC
  5
32B
330
413
100
AcDbEntity
  8
DATA
  6
Continuous
 62
     7
100
AcDbCircle
 10
873.7775083951371
 20
-393.7552372082728
 30
0.0
 40
11.83294624533521
100
AcDbArc
 50
190.2798462065807
 51
220.2918040854194
  0
ARC
  5
32C
330
413
100
AcDbEntity
  8
DATA
  6
Continuous
 62
     7
100
AcDbCircle
 10
871.5631187949291
 20
-954.2114999256332
 30
0.0
 40
8.887582053999842
100
AcDbArc
 50
39.47913493552375
 51
89.75368393134525
  0
ARC
  5
32D
330
413
100
AcDbEntity
  8
DATA
  6
Continuous
 62
     7
100
AcDbCircle
 10
869.4251448590794
 20
-956.2447627917276
 30
0.0
 40
11.83294624533521
100
AcDbArc
 50
10.27984620658075
 51
40.29180408541941
  0
ARC
  5
32E
330
413
100
AcDbEntity
  8
DATA
  6
Continuous
 62
     7
100
AcDbCircle
 10
868.0892132908347
 20
-956.4999999999999
 30
0.0
 40
13.19298805627396
100
AcDbArc
 50
349.6648472601497
 51
10.33515273985028
  0
ARC
  5
32F
330
413
100
AcDbEntity
  8
DATA
  6
Continuous
 62
     7
100
AcDbCircle
 10
871.5631187949291
 20
-958.7885000743668
 30
0.0
 40
8.887582053999691
100
AcDbArc
 50
270.2463160686547
 51
320.5208650644763
  0
ARC
  5
330
330
413
100
AcDbEntity
  8
DATA
  6
Continuous
 62
     7
100
AcDbCircle
 10
869.4251448590794
 20
-956.7552372082726
 30
0.0
 40
11.8329462453355
100
AcDbArc
 50
319.7081959145806
 51
349.7201537934193
  0
LINE
  5
331
330
413
100
AcDbEntity
  8
DATA
  6
Continuous
 62
     7
100
AcDbLine
 10
873.1414657871081
 20
-953.706
 30
0.0
 11
874.681604947108
 21
-956.4999999999999
 31
0.0
  0
LINE
  5
332
330
413
100
AcDbEntity
  8
DATA
  6
Continuous
 62
     7
100
AcDbLine
 10
870.2812073471086
 20
-959.2939999999998
 30
0.0
 11
868.7410681871087
 21
-956.4999999999999
 31
0.0
  0
LINE
  5
333
330
413
100
AcDbEntity
  8
DATA
  6
Continuous
 62
     7
100
AcDbLine
 10
870.2812073471086
 20
-953.706
 30
0.0
 11
873.1414657871081
 21
-953.706
 31
0.0
  0
LINE
  5
334
330
413
100
AcDbEntity
  8
DATA
  6
Continuous
 62
     7
100
AcDbLine
 10
873.1414657871081
 20
-959.2939999999998
 30
0.0
 11
870.2812073471086
 21
-959.2939999999998
 31
0.0
  0
LINE
  5
335
330
413
100
AcDbEntity
  8
DATA
  6
Continuous
 62
     7
100
AcDbLine
 10
868.7410681871087
 20
-956.4999999999999
 30
0.0
 11
870.2812073471086
 21
-953.706
 31
0.0
  0
LINE
  5
336
330
413
100
AcDbEntity
  8
DATA
  6
Continuous
 62
     7
100
AcDbLine
 10
874.681604947108
 20
-956.4999999999999
 30
0.0
 11
873.1414657871081
 21
-959.2939999999998
 31
0.0
  0
ARC
  5
337
330
413
100
AcDbEntity
  8
DATA
  6
Continuous
 62
     7
100
AcDbCircle
 10
871.6395344592875
 20
-954.2114999256332
 30
0.0
 40
8.887582053999691
100
AcDbArc
 50
90.24631606865476
 51
140.5208650644762
  0
ARC
  5
338
330
413
100
AcDbEntity
  8
DATA
  6
Continuous
 62
     7
100
AcDbCircle
 10
873.7775083951371
 20
-956.2447627917276
 30
0.0
 40
11.8329462453355
100
AcDbArc
 50
139.7081959145806
 51
169.7201537934192
  0
ARC
  5
339
330
413
100
AcDbEntity
  8
DATA
  6
Continuous
 62
     7
100
AcDbCircle
 10
875.1134399633821
 20
-956.4999999999999
 30
0.0
 40
13.19298805627396
100
AcDbArc
 50
169.6648472601497
 51
190.3351527398503
  0
ARC
  5
33A
330
413
100
AcDbEntity
  8
DATA
  6
Continuous
 62
     7
100
AcDbCircle
 10
871.6395344592875
 20
-958.7885000743668
 30
0.0
 40
8.887582053999842
100
AcDbArc
 50
219.4791349355237
 51
269.7536839313452
  0
ARC
  5
33B
330
413
100
AcDbEntity
  8
DATA
  6
Continuous
 62
     7
100
AcDbCircle
 10
873.7775083951371
 20
-956.7552372082726
 30
0.0
 40
11.83294624533521
100
AcDbArc
 50
190.2798462065807
 51
220.2918040854194
  0
LINE
  5
33C
330
413
100
AcDbEntity
  8
DATA
  6
Continuous
 62
     7
100
AcDbLine
 10
648.4985236460061
 20
-749.0000000000001
 30
0.0
 11
648.4985236460061
 21
-601.0000000000001
 31
0.0
  0
LINE
  5
33D
330
413
100
AcDbEntity
  8
DATA
  6
Continuous
 62
     7
100
AcDbLine
 10
757.4985236460062
 20
-764.0000000000001
 30
0.0
 11
663.498523646006
 21
-764.0000000000001
 31
0.0
  0
LINE
  5
33E
330
413
100
AcDbEntity
  8
DATA
  6
Continuous
 62
     7
100
AcDbLine
 10
772.4985236460062
 20
-601.0000000000001
 30
0.0
 11
772.4985236460062
 21
-749.0000000000001
 31
0.0
  0
LINE
  5
33F
330
413
100
AcDbEntity
  8
DATA
  6
Continuous
 62
     7
100
AcDbLine
 10
663.498523646006
 20
-586.0000000000001
 30
0.0
 11
757.4985236460062
 21
-586.0000000000001
 31
0.0
  0
LWPOLYLINE
  5
340
330
413
100
AcDbEntity
  8
DATA
  6
Continuous
 62
     7
100
AcDbPolyline
 90
        4
 70
     1
 43
0.0
 10
662.998523646006
 20
-602.5000000000001
 10
757.9985236460061
 20
-602.5000000000001
 10
757.9985236460061
 20
-747.5000000000001
 10
662.998523646006
 20
-747.5000000000001
  0
ARC
  5
347
330
413
100
AcDbEntity
  8
DATA
  6
Continuous
 62
     7
100
AcDbCircle
 10
663.498523646006
 20
-601.0000000000001
 30
0.0
 40
15.0
100
AcDbArc
 50
90.0
 51
180.0
  0
ARC
  5
348
330
413
100
AcDbEntity
  8
DATA
  6
Continuous
 62
     7
100
AcDbCircle
 10
663.498523646006
 20
-749.0000000000001
 30
0.0
 40
15.0
100
AcDbArc
 50
180.0
 51
270.0
  0
ARC
  5
349
330
413
100
AcDbEntity
  8
DATA
  6
Continuous
 62
     7
100
AcDbCircle
 10
757.4985236460062
 20
-749.0000000000001
 30
0.0
 40
15.0
100
AcDbArc
 50
270.0
 51
0.0
  0
ARC
  5
34A
330
413
100
AcDbEntity
  8
DATA
  6
Continuous
 62
     7
100
AcDbCircle
 10
757.4985236460062
 20
-601.0000000000001
 30
0.0
 40
15.0
100
AcDbArc
 50
0.0
 51
90.0
  0
CIRCLE
  5
34B
330
413
100
AcDbEntity
  8
DATA
  6
Continuous
 62
     7
100
AcDbCircle
 10
653.4985236460061
 20
-602.0000000000001
 30
0.0
 40
3.500000000000269
  0
LINE
  5
34C
330
413
100
AcDbEntity
  8
DATA
  6
Continuous
 62
     7
100
AcDbLine
 10
651.7485236460061
 20
-602.0000000000001
 30
0.0
 11
655.2485236460061
 21
-602.0000000000001
 31
0.0
  0
LINE
  5
34D
330
413
100
AcDbEntity
  8
DATA
  6
Continuous
 62
     7
100
AcDbLine
 10
653.4985236460061
 20
-603.75
 30
0.0
 11
653.4985236460061
 21
-600.25
 31
0.0
  0
CIRCLE
  5
34E
330
413
100
AcDbEntity
  8
DATA
  6
Continuous
 62
     7
100
AcDbCircle
 10
767.4985236460062
 20
-602.0000000000001
 30
0.0
 40
3.500000000000269
  0
LINE
  5
34F
330
413
100
AcDbEntity
  8
DATA
  6
Continuous
 62
     7
100
AcDbLine
 10
765.7485236460062
 20
-602.0000000000001
 30
0.0
 11
769.2485236460062
 21
-602.0000000000001
 31
0.0
  0
LINE
  5
350
330
413
100
AcDbEntity
  8
DATA
  6
Continuous
 62
     7
100
AcDbLine
 10
767.4985236460062
 20
-603.75
 30
0.0
 11
767.4985236460062
 21
-600.25
 31
0.0
  0
CIRCLE
  5
351
330
413
100
AcDbEntity
  8
DATA
  6
Continuous
 62
     7
100
AcDbCircle
 10
653.4985236460061
 20
-675.0
 30
0.0
 40
3.500000000000269
  0
LINE
  5
352
330
413
100
AcDbEntity
  8
DATA
  6
Continuous
 62
     7
100
AcDbLine
 10
651.7485236460061
 20
-675.0
 30
0.0
 11
655.2485236460061
 21
-675.0
 31
0.0
  0
LINE
  5
353
330
413
100
AcDbEntity
  8
DATA
  6
Continuous
 62
     7
100
AcDbLine
 10
653.4985236460061
 20
-676.75
 30
0.0
 11
653.4985236460061
 21
-673.2499999999999
 31
0.0
  0
CIRCLE
  5
354
330
413
100
AcDbEntity
  8
DATA
  6
Continuous
 62
     7
100
AcDbCircle
 10
767.4985236460062
 20
-675.0
 30
0.0
 40
3.500000000000269
  0
LINE
  5
355
330
413
100
AcDbEntity
  8
DATA
  6
Continuous
 62
     7
100
AcDbLine
 10
765.7485236460062
 20
-675.0
 30
0.0
 11
769.2485236460062
 21
-675.0
 31
0.0
  0
LINE
  5
356
330
413
100
AcDbEntity
  8
DATA
  6
Continuous
 62
     7
100
AcDbLine
 10
767.4985236460062
 20
-676.75
 30
0.0
 11
767.4985236460062
 21
-673.2499999999999
 31
0.0
  0
CIRCLE
  5
357
330
413
100
AcDbEntity
  8
DATA
  6
Continuous
 62
     7
100
AcDbCircle
 10
653.4985236460061
 20
-748.0000000000001
 30
0.0
 40
3.500000000000269
  0
LINE
  5
358
330
413
100
AcDbEntity
  8
DATA
  6
Continuous
 62
     7
100
AcDbLine
 10
651.7485236460061
 20
-748.0000000000001
 30
0.0
 11
655.2485236460061
 21
-748.0000000000001
 31
0.0
  0
LINE
  5
359
330
413
100
AcDbEntity
  8
DATA
  6
Continuous
 62
     7
100
AcDbLine
 10
653.4985236460061
 20
-749.75
 30
0.0
 11
653.4985236460061
 21
-746.25
 31
0.0
  0
CIRCLE
  5
35A
330
413
100
AcDbEntity
  8
DATA
  6
Continuous
 62
     7
100
AcDbCircle
 10
767.4985236460062
 20
-748.0000000000001
 30
0.0
 40
3.500000000000269
  0
LINE
  5
35B
330
413
100
AcDbEntity
  8
DATA
  6
Continuous
 62
     7
100
AcDbLine
 10
765.7485236460062
 20
-748.0000000000001
 30
0.0
 11
769.2485236460062
 21
-748.0000000000001
 31
0.0
  0
LINE
  5
35C
330
413
100
AcDbEntity
  8
DATA
  6
Continuous
 62
     7
100
AcDbLine
 10
767.4985236460062
 20
-749.75
 30
0.0
 11
767.4985236460062
 21
-746.25
 31
0.0
  0
CIRCLE
  5
35D
330
413
100
AcDbEntity
  8
DATA
  6
Continuous
 62
     7
100
AcDbCircle
 10
710.4985236460062
 20
-636.0000000000001
 30
0.0
 40
11.75
  0
CIRCLE
  5
35E
330
413
100
AcDbEntity
  8
DATA
  6
Continuous
 62
     7
100
AcDbCircle
 10
698.4985236460062
 20
-645.5
 30
0.0
 40
2.0
  0
CIRCLE
  5
35F
330
413
100
AcDbEntity
  8
DATA
  6
Continuous
 62
     7
100
AcDbCircle
 10
722.4985236460062
 20
-626.5000000000001
 30
0.0
 40
2.0
  0
LINE
  5
360
330
413
100
AcDbEntity
  8
DATA
  6
Continuous
 62
     7
100
AcDbLine
 10
720.4985236460061
 20
-633.0
 30
0.0
 11
720.4985236460061
 21
-639.0000000000001
 31
0.0
  0
LINE
  5
361
330
413
100
AcDbEntity
  8
DATA
  6
Continuous
 62
     7
100
AcDbLine
 10
700.4985236460062
 20
-634.0000000000001
 30
0.0
 11
700.4985236460062
 21
-638.0000000000001
 31
0.0
  0
LINE
  5
362
330
413
100
AcDbEntity
  8
DATA
  6
Continuous
 62
     7
100
AcDbLine
 10
700.4985236460062
 20
-634.0000000000001
 30
0.0
 11
701.6985236460058
 21
-634.0000000000001
 31
0.0
  0
LINE
  5
363
330
413
100
AcDbEntity
  8
DATA
  6
Continuous
 62
     7
100
AcDbLine
 10
700.4985236460062
 20
-638.0000000000001
 30
0.0
 11
701.6985236460058
 21
-638.0000000000001
 31
0.0
  0
LINE
  5
364
330
413
100
AcDbEntity
  8
DATA
  6
Continuous
 62
     7
100
AcDbLine
 10
720.4985236460061
 20
-633.0
 30
0.0
 11
718.7713736460063
 21
-633.0
 31
0.0
  0
LINE
  5
365
330
413
100
AcDbEntity
  8
DATA
  6
Continuous
 62
     7
100
AcDbLine
 10
720.4985236460061
 20
-639.0000000000001
 30
0.0
 11
718.7713736460063
 21
-639.0000000000001
 31
0.0
  0
ARC
  5
366
330
413
100
AcDbEntity
  8
DATA
  6
Continuous
 62
     7
100
AcDbCircle
 10
710.4985236460062
 20
-636.0000000000001
 30
0.0
 40
8.800002677414637
100
AcDbArc
 50
19.93226415067832
 51
167.1961668197004
  0
ARC
  5
367
330
413
100
AcDbEntity
  8
DATA
  6
Continuous
 62
     7
100
AcDbCircle
 10
710.4985236460062
 20
-636.0000000000001
 30
0.0
 40
8.800003504345708
100
AcDbArc
 50
192.9999995554215
 51
339.9999942379629
  0
ARC
  5
368
330
413
100
AcDbEntity
  8
DATA
  6
Continuous
 62
     7
100
AcDbCircle
 10
710.4985236460062
 20
-636.0000000000001
 30
0.0
 40
6.200002162063936
100
AcDbArc
 50
330.0000115355583
 51
60.00001153555746
  0
LINE
  5
369
330
413
100
AcDbEntity
  8
DATA
  6
Continuous
 62
     7
100
AcDbLine
 10
713.5985536460065
 20
-630.6306600000002
 30
0.0
 11
713.3110536460064
 21
-631.1286200000002
 31
0.0
  0
LINE
  5
36A
330
413
100
AcDbEntity
  8
DATA
  6
Continuous
 62
     7
100
AcDbLine
 10
715.8679036460063
 20
-639.09997
 30
0.0
 11
715.3699336460058
 21
-638.8124700000002
 31
0.0
  0
ARC
  5
36B
330
413
100
AcDbEntity
  8
DATA
  6
Continuous
 62
     7
100
AcDbCircle
 10
710.4985236460062
 20
-636.0000000000001
 30
0.0
 40
6.200002162063936
100
AcDbArc
 50
150.0000115355582
 51
240.0000115355648
  0
LINE
  5
36C
330
413
100
AcDbEntity
  8
DATA
  6
Continuous
 62
     7
100
AcDbLine
 10
705.1291636460063
 20
-632.9000000000002
 30
0.0
 11
705.6271336460058
 21
-633.1875000000001
 31
0.0
  0
LINE
  5
36D
330
413
100
AcDbEntity
  8
DATA
  6
Continuous
 62
     7
100
AcDbLine
 10
707.3985436460061
 20
-641.3693700000003
 30
0.0
 11
707.6860436460065
 21
-640.8714000000001
 31
0.0
  0
ARC
  5
36E
330
413
100
AcDbEntity
  8
DATA
  6
Continuous
 62
     7
100
AcDbCircle
 10
710.4985236460062
 20
-636.0000000000001
 30
0.0
 40
5.625003831581032
100
AcDbArc
 50
59.99966968210136
 51
150.0002126043008
  0
ARC
  5
36F
330
413
100
AcDbEntity
  8
DATA
  6
Continuous
 62
     7
100
AcDbCircle
 10
710.4985236460062
 20
-636.0000000000001
 30
0.0
 40
5.624996152034031
100
AcDbArc
 50
240.0002126043064
 51
330.0007182431236
  0
ARC
  5
370
330
413
100
AcDbEntity
  8
DATA
  6
Continuous
 62
     7
100
AcDbCircle
 10
710.4985236460062
 20
-636.0000000000001
 30
0.0
 40
3.599990080875453
100
AcDbArc
 50
329.9999088547082
 51
59.99990885470317
  0
ARC
  5
371
330
413
100
AcDbEntity
  8
DATA
  6
Continuous
 62
     7
100
AcDbCircle
 10
710.4985236460062
 20
-636.0000000000001
 30
0.0
 40
3.599990080875453
100
AcDbArc
 50
149.9999088547082
 51
239.9999088547033
  0
LINE
  5
372
330
413
100
AcDbEntity
  8
DATA
  6
Continuous
 62
     7
100
AcDbLine
 10
713.6162136460061
 20
-637.7999800000001
 30
0.0
 11
713.0100036460063
 21
-637.4499900000001
 31
0.0
  0
LINE
  5
373
330
413
100
AcDbEntity
  8
DATA
  6
Continuous
 62
     7
100
AcDbLine
 10
712.2985336460061
 20
-632.8823300000003
 30
0.0
 11
711.9485336460065
 21
-633.4885300000002
 31
0.0
  0
LINE
  5
374
330
413
100
AcDbEntity
  8
DATA
  6
Continuous
 62
     7
100
AcDbLine
 10
707.3808436460057
 20
-634.2000000000003
 30
0.0
 11
707.9870536460064
 21
-634.5500000000002
 31
0.0
  0
LINE
  5
375
330
413
100
AcDbEntity
  8
DATA
  6
Continuous
 62
     7
100
AcDbLine
 10
708.6985436460063
 20
-639.1176900000003
 30
0.0
 11
709.0485336460061
 21
-638.5114800000001
 31
0.0
  0
ARC
  5
376
330
413
100
AcDbEntity
  8
DATA
  6
Continuous
 62
     7
100
AcDbCircle
 10
710.4985236460062
 20
-636.0000000000001
 30
0.0
 40
2.90000182086186
100
AcDbArc
 50
59.99979263402374
 51
150.0002336238325
  0
ARC
  5
377
330
413
100
AcDbEntity
  8
DATA
  6
Continuous
 62
     7
100
AcDbCircle
 10
710.4985236460062
 20
-636.0000000000001
 30
0.0
 40
2.900000481120592
100
AcDbArc
 50
240.0002336238279
 51
329.9997926340282
  0
LINE
  5
378
330
413
100
AcDbEntity
  8
DATA
  6
Continuous
 62
     7
100
AcDbLine
 10
699.4985236460061
 20
-645.5
 30
0.0
 11
697.4985236460062
 21
-645.5
 31
0.0
  0
LINE
  5
379
330
413
100
AcDbEntity
  8
DATA
  6
Continuous
 62
     7
100
AcDbLine
 10
698.4985236460062
 20
-644.5000000000001
 30
0.0
 11
698.4985236460062
 21
-646.5000000000001
 31
0.0
  0
LINE
  5
37A
330
413
100
AcDbEntity
  8
DATA
  6
Continuous
 62
     7
100
AcDbLine
 10
723.4985236460062
 20
-626.5000000000001
 30
0.0
 11
721.4985236460062
 21
-626.5000000000001
 31
0.0
  0
LINE
  5
37B
330
413
100
AcDbEntity
  8
DATA
  6
Continuous
 62
     7
100
AcDbLine
 10
722.4985236460062
 20
-625.5000000000001
 30
0.0
 11
722.4985236460062
 21
-627.5000000000001
 31
0.0
  0
CIRCLE
  5
37C
330
413
100
AcDbEntity
  8
DATA
  6
Continuous
 62
     7
100
AcDbCircle
 10
710.4985236460062
 20
-714.0000000000001
 30
0.0
 40
11.75
  0
CIRCLE
  5
37D
330
413
100
AcDbEntity
  8
DATA
  6
Continuous
 62
     7
100
AcDbCircle
 10
698.4985236460062
 20
-723.5000000000001
 30
0.0
 40
2.0
  0
CIRCLE
  5
37E
330
413
100
AcDbEntity
  8
DATA
  6
Continuous
 62
     7
100
AcDbCircle
 10
722.4985236460062
 20
-704.5000000000001
 30
0.0
 40
2.0
  0
LINE
  5
37F
330
413
100
AcDbEntity
  8
DATA
  6
Continuous
 62
     7
100
AcDbLine
 10
720.4985236460061
 20
-711.0000000000001
 30
0.0
 11
720.4985236460061
 21
-717.0000000000001
 31
0.0
  0
LINE
  5
380
330
413
100
AcDbEntity
  8
DATA
  6
Continuous
 62
     7
100
AcDbLine
 10
700.4985236460062
 20
-712.0
 30
0.0
 11
700.4985236460062
 21
-716.0000000000001
 31
0.0
  0
LINE
  5
381
330
413
100
AcDbEntity
  8
DATA
  6
Continuous
 62
     7
100
AcDbLine
 10
700.4985236460062
 20
-712.0
 30
0.0
 11
701.6985236460058
 21
-712.0
 31
0.0
  0
LINE
  5
382
330
413
100
AcDbEntity
  8
DATA
  6
Continuous
 62
     7
100
AcDbLine
 10
700.4985236460062
 20
-716.0000000000001
 30
0.0
 11
701.6985236460058
 21
-716.0000000000001
 31
0.0
  0
LINE
  5
383
330
413
100
AcDbEntity
  8
DATA
  6
Continuous
 62
     7
100
AcDbLine
 10
720.4985236460061
 20
-711.0000000000001
 30
0.0
 11
718.7713736460063
 21
-711.0000000000001
 31
0.0
  0
LINE
  5
384
330
413
100
AcDbEntity
  8
DATA
  6
Continuous
 62
     7
100
AcDbLine
 10
720.4985236460061
 20
-717.0000000000001
 30
0.0
 11
718.7713736460063
 21
-717.0000000000001
 31
0.0
  0
ARC
  5
385
330
413
100
AcDbEntity
  8
DATA
  6
Continuous
 62
     7
100
AcDbCircle
 10
710.4985236460062
 20
-714.0000000000001
 30
0.0
 40
8.800002677414637
100
AcDbArc
 50
19.93226415067832
 51
167.1961668197004
  0
ARC
  5
386
330
413
100
AcDbEntity
  8
DATA
  6
Continuous
 62
     7
100
AcDbCircle
 10
710.4985236460062
 20
-714.0000000000001
 30
0.0
 40
8.800003504345708
100
AcDbArc
 50
192.9999995554215
 51
339.9999942379629
  0
ARC
  5
387
330
413
100
AcDbEntity
  8
DATA
  6
Continuous
 62
     7
100
AcDbCircle
 10
710.4985236460062
 20
-714.0000000000001
 30
0.0
 40
6.200002162063936
100
AcDbArc
 50
330.0000115355583
 51
60.00001153555746
  0
LINE
  5
388
330
413
100
AcDbEntity
  8
DATA
  6
Continuous
 62
     7
100
AcDbLine
 10
713.5985536460065
 20
-708.6306600000003
 30
0.0
 11
713.3110536460064
 21
-709.1286200000001
 31
0.0
  0
LINE
  5
389
330
413
100
AcDbEntity
  8
DATA
  6
Continuous
 62
     7
100
AcDbLine
 10
715.8679036460063
 20
-717.0999700000001
 30
0.0
 11
715.3699336460058
 21
-716.8124700000003
 31
0.0
  0
ARC
  5
38A
330
413
100
AcDbEntity
  8
DATA
  6
Continuous
 62
     7
100
AcDbCircle
 10
710.4985236460062
 20
-714.0000000000001
 30
0.0
 40
6.200002162063936
100
AcDbArc
 50
150.0000115355582
 51
240.0000115355648
  0
LINE
  5
38B
330
413
100
AcDbEntity
  8
DATA
  6
Continuous
 62
     7
100
AcDbLine
 10
705.1291636460063
 20
-710.9000000000001
 30
0.0
 11
705.6271336460058
 21
-711.1875000000001
 31
0.0
  0
LINE
  5
38C
330
413
100
AcDbEntity
  8
DATA
  6
Continuous
 62
     7
100
AcDbLine
 10
707.3985436460061
 20
-719.3693700000003
 30
0.0
 11
707.6860436460065
 21
-718.8714
 31
0.0
  0
ARC
  5
38D
330
413
100
AcDbEntity
  8
DATA
  6
Continuous
 62
     7
100
AcDbCircle
 10
710.4985236460062
 20
-714.0000000000001
 30
0.0
 40
5.625003831581032
100
AcDbArc
 50
59.99966968210136
 51
150.0002126043008
  0
ARC
  5
38E
330
413
100
AcDbEntity
  8
DATA
  6
Continuous
 62
     7
100
AcDbCircle
 10
710.4985236460062
 20
-714.0000000000001
 30
0.0
 40
5.624996152034031
100
AcDbArc
 50
240.0002126043064
 51
330.0007182431236
  0
ARC
  5
38F
330
413
100
AcDbEntity
  8
DATA
  6
Continuous
 62
     7
100
AcDbCircle
 10
710.4985236460062
 20
-714.0000000000001
 30
0.0
 40
3.599990080875453
100
AcDbArc
 50
329.9999088547082
 51
59.99990885470317
  0
ARC
  5
390
330
413
100
AcDbEntity
  8
DATA
  6
Continuous
 62
     7
100
AcDbCircle
 10
710.4985236460062
 20
-714.0000000000001
 30
0.0
 40
3.599990080875453
100
AcDbArc
 50
149.9999088547082
 51
239.9999088547033
  0
LINE
  5
391
330
413
100
AcDbEntity
  8
DATA
  6
Continuous
 62
     7
100
AcDbLine
 10
713.6162136460061
 20
-715.7999800000001
 30
0.0
 11
713.0100036460063
 21
-715.4499900000002
 31
0.0
  0
LINE
  5
392
330
413
100
AcDbEntity
  8
DATA
  6
Continuous
 62
     7
100
AcDbLine
 10
712.2985336460061
 20
-710.8823300000002
 30
0.0
 11
711.9485336460065
 21
-711.4885300000001
 31
0.0
  0
LINE
  5
393
330
413
100
AcDbEntity
  8
DATA
  6
Continuous
 62
     7
100
AcDbLine
 10
707.3808436460057
 20
-712.2000000000002
 30
0.0
 11
707.9870536460064
 21
-712.5500000000002
 31
0.0
  0
LINE
  5
394
330
413
100
AcDbEntity
  8
DATA
  6
Continuous
 62
     7
100
AcDbLine
 10
708.6985436460063
 20
-717.1176900000002
 30
0.0
 11
709.0485336460061
 21
-716.5114800000001
 31
0.0
  0
ARC
  5
395
330
413
100
AcDbEntity
  8
DATA
  6
Continuous
 62
     7
100
AcDbCircle
 10
710.4985236460062
 20
-714.0000000000001
 30
0.0
 40
2.90000182086186
100
AcDbArc
 50
59.99979263402374
 51
150.0002336238325
  0
ARC
  5
396
330
413
100
AcDbEntity
  8
DATA
  6
Continuous
 62
     7
100
AcDbCircle
 10
710.4985236460062
 20
-714.0000000000001
 30
0.0
 40
2.900000481120592
100
AcDbArc
 50
240.0002336238279
 51
329.9997926340282
  0
LINE
  5
397
330
413
100
AcDbEntity
  8
DATA
  6
Continuous
 62
     7
100
AcDbLine
 10
699.4985236460061
 20
-723.5000000000001
 30
0.0
 11
697.4985236460062
 21
-723.5000000000001
 31
0.0
  0
LINE
  5
398
330
413
100
AcDbEntity
  8
DATA
  6
Continuous
 62
     7
100
AcDbLine
 10
698.4985236460062
 20
-722.5000000000001
 30
0.0
 11
698.4985236460062
 21
-724.5
 31
0.0
  0
LINE
  5
399
330
413
100
AcDbEntity
  8
DATA
  6
Continuous
 62
     7
100
AcDbLine
 10
723.4985236460062
 20
-704.5000000000001
 30
0.0
 11
721.4985236460062
 21
-704.5000000000001
 31
0.0
  0
LINE
  5
39A
330
413
100
AcDbEntity
  8
DATA
  6
Continuous
 62
     7
100
AcDbLine
 10
722.4985236460062
 20
-703.5000000000001
 30
0.0
 11
722.4985236460062
 21
-705.5000000000001
 31
0.0
  0
LINE
  5
39B
330
413
100
AcDbEntity
  8
DATA
  6
Continuous
 62
     7
100
AcDbLine
 10
710.4985236460062
 20
-650.7500000000001
 30
0.0
 11
710.4985236460062
 21
-666.7500000000001
 31
0.0
  0
LINE
  5
39C
330
413
100
AcDbEntity
  8
DATA
  6
Continuous
 62
     7
100
AcDbLine
 10
710.4985236460062
 20
-699.2500000000001
 30
0.0
 11
710.4985236460062
 21
-683.2500000000001
 31
0.0
  0
TEXT
  5
39D
330
413
100
AcDbEntity
  8
DATA
 62
     7
100
AcDbText
 10
712.8185507740799
 20
-618.225555708072
 30
0.0
 40
10.18025716145833
  1
PRX400
 41
0.7
 11
712.8185507740799
 21
-613.1354271273429
 31
0.0
100
AcDbText
 73
     2
  0
TEXT
  5
39E
330
413
100
AcDbEntity
  8
DATA
 62
     7
100
AcDbText
 10
697.6143901824646
 20
-677.4432617187501
 30
0.0
 40
4.8865234375
  1
IN / THRU
 41
0.7
 72
     1
 11
710.4985236460062
 21
-675.0
 31
0.0
100
AcDbText
 73
     2
  0
TEXT
  5
39F
330
413
100
AcDbEntity
  8
DATA
 62
     7
100
AcDbText
 10
730.0675199786792
 20
-677.0360514322917
 30
0.0
 40
4.072102864583333
  1
+1 IN:8Ω
 41
0.7
 11
730.0675199786792
 21
-675.0
 31
0.0
100
AcDbText
 73
     2
  0
TEXT
  5
3A0
330
413
100
AcDbEntity
  8
DATA
 62
     7
100
AcDbText
 10
730.0675199786792
 20
-683.3277180989585
 30
0.0
 40
4.072102864583333
  1
+2 N/C
 41
0.7
 11
730.0675199786792
 21
-681.2916666666669
 31
0.0
100
AcDbText
 73
     2
  0
TEXT
  5
3A1
330
413
100
AcDbEntity
  8
DATA
 62
     7
100
AcDbText
 10
730.0675199786792
 20
-670.7443847656251
 30
0.0
 40
4.072102864583333
  1
PASSIVE
 41
0.7
 11
730.0675199786792
 21
-668.7083333333334
 31
0.0
100
AcDbText
 73
     2
  0
TEXT
  5
3A2
330
413
100
AcDbEntity
  8
DATA
 62
     7
100
AcDbText
 10
714.1414674407461
 20
-734.5981250000002
 30
0.0
 40
6.156250000000001
  1
PRX415M-WH
 41
0.7
 11
714.1414674407461
 21
-731.5200000000002
 31
0.0
100
AcDbText
 73
     2
  0
ENDSEC
  0
SECTION
  2
OBJECTS
  0
DICTIONARY
  5
3B0
330
0
100
AcDbDictionary
281
     1
  3
ACAD_CIP_PREVIOUS_PRODUCT_INFO
350
42B
  3
ACAD_COLOR
350
406
  3
ACAD_DETAILVIEWSTYLE
350
40D
  3
ACAD_GROUP
350
3B1
  3
ACAD_LAYOUT
350
405
  3
ACAD_MATERIAL
350
3B4
  3
ACAD_MLEADERSTYLE
350
409
  3
ACAD_MLINESTYLE
350
402
  3
ACAD_PLOTSETTINGS
350
404
  3
ACAD_PLOTSTYLENAME
350
3B2
  3
ACAD_SCALELIST
350
3E6
  3
ACAD_SECTIONVIEWSTYLE
350
40B
  3
ACAD_TABLESTYLE
350
407
  3
ACAD_VISUALSTYLE
350
3CD
  3
ACDB_RECOMPOSE_DATA
350
443
  3
AcDbVariableDictionary
350
436
  3
DWGPROPS
350
444
  0
DICTIONARY
  5
42C
330
3F8
100
AcDbDictionary
280
     1
281
     1
  3
ADSK_XREC_LAYER_RECONCILED
360
42D
  0
DICTIONARY
  5
42E
330
417
100
AcDbDictionary
280
     1
281
     1
  3
ADSK_XREC_LAYER_RECONCILED
360
42F
  0
DICTIONARY
  5
430
330
423
100
AcDbDictionary
280
     1
281
     1
  3
ADSK_XREC_LAYER_RECONCILED
360
431
  0
DICTIONARY
  5
432
330
424
100
AcDbDictionary
280
     1
281
     1
  3
ADSK_XREC_LAYER_RECONCILED
360
433
  0
DICTIONARY
  5
434
330
425
100
AcDbDictionary
280
     1
281
     1
  3
ADSK_XREC_LAYER_RECONCILED
360
435
  0
XRECORD
  5
42B
102
{ACAD_REACTORS
330
3B0
102
}
330
3B0
100
AcDbXrecord
280
     1
300
ACDLT
300
2019
300
ACDLT_F_S
  0
DICTIONARY
  5
406
102
{ACAD_REACTORS
330
3B0
102
}
330
3B0
100
AcDbDictionary
281
     1
  0
DICTIONARY
  5
40D
102
{ACAD_REACTORS
330
3B0
102
}
330
3B0
100
AcDbDictionary
281
     1
  3
Imperial24
350
40E
  0
DICTIONARY
  5
3B1
102
{ACAD_REACTORS
330
3B0
102
}
330
3B0
100
AcDbDictionary
281
     1
  0
DICTIONARY
  5
405
102
{ACAD_REACTORS
330
3B0
102
}
330
3B0
100
AcDbDictionary
281
     1
  3
Model
350
416
  3
レイアウト1
350
412
  0
DICTIONARY
  5
3B4
102
{ACAD_REACTORS
330
3B0
102
}
330
3B0
100
AcDbDictionary
281
     1
  3
ByBlock
350
3BD
  3
ByLayer
350
3B5
  3
Global
350
3C5
  0
DICTIONARY
  5
409
102
{ACAD_REACTORS
330
3B0
102
}
330
3B0
100
AcDbDictionary
281
     1
  3
Standard
350
40A
  0
DICTIONARY
  5
402
102
{ACAD_REACTORS
330
3B0
102
}
330
3B0
100
AcDbDictionary
281
     1
  3
Standard
350
403
  0
DICTIONARY
  5
404
102
{ACAD_REACTORS
330
3B0
102
}
330
3B0
100
AcDbDictionary
281
     1
  0
ACDBDICTIONARYWDFLT
  5
3B2
102
{ACAD_REACTORS
330
3B0
102
}
330
3B0
100
AcDbDictionary
281
     1
  3
Normal
350
3B3
100
AcDbDictionaryWithDefault
340
3B3
  0
DICTIONARY
  5
3E6
102
{ACAD_REACTORS
330
3B0
102
}
330
3B0
100
AcDbDictionary
281
     1
  3
A0
350
3E7
  3
A1
350
3E8
  3
A2
350
3E9
  3
A3
350
3EA
  3
A4
350
3EB
  3
A5
350
3EC
  3
A6
350
3ED
  3
A7
350
3EE
  3
A8
350
3EF
  3
A9
350
3F0
  3
B0
350
3F1
  3
B1
350
3F2
  3
B2
350
3F3
  3
B3
350
3F4
  3
B4
350
3F5
  3
B5
350
3F6
  3
B6
350
3F7
  0
DICTIONARY
  5
40B
102
{ACAD_REACTORS
330
3B0
102
}
330
3B0
100
AcDbDictionary
281
     1
  3
Imperial24
350
40C
  0
DICTIONARY
  5
407
102
{ACAD_REACTORS
330
3B0
102
}
330
3B0
100
AcDbDictionary
281
     1
  3
Standard
350
408
  0
DICTIONARY
  5
3CD
102
{ACAD_REACTORS
330
3B0
102
}
330
3B0
100
AcDbDictionary
281
     1
  3
2dWireframe
350
3D3
  3
Basic
350
3D2
  3
Brighten
350
3D9
  3
ColorChange
350
3DD
  3
Conceptual
350
3D6
  3
Dim
350
3D8
  3
EdgeColorOff
350
3E5
  3
Facepattern
350
3DC
  3
Flat
350
3CE
  3
FlatWithEdges
350
3CF
  3
Gouraud
350
3D0
  3
GouraudWithEdges
350
3D1
  3
Hidden
350
3D5
  3
JitterOff
350
3E3
  3
Linepattern
350
3DB
  3
OverhangOff
350
3E4
  3
Realistic
350
3D7
  3
Shaded
350
3E2
  3
Shaded with edges
350
3E1
  3
Shades of Gray
350
3DE
  3
Sketchy
350
3DF
  3
Thicken
350
3DA
  3
Wireframe
350
3D4
  3
X-Ray
350
3E0
  0
XRECORD
  5
443
102
{ACAD_REACTORS
330
3B0
102
}
330
3B0
100
AcDbXrecord
280
     1
 90
        1
330
408
  0
DICTIONARY
  5
436
102
{ACAD_REACTORS
330
3B0
102
}
330
3B0
100
AcDbDictionary
281
     1
  3
CANNOSCALE
350
43B
  3
CMLEADERSTYLE
350
438
  3
CTABLESTYLE
350
437
  3
CVIEWDETAILSTYLE
350
439
  3
CVIEWSECTIONSTYLE
350
43A
  3
DIMASSOC
350
43E
  3
INDEXCTL
350
43D
  3
SORTENTS
350
43C
  3
XCLIPFRAME
350
43F
  0
XRECORD
  5
444
102
{ACAD_REACTORS
330
3B0
102
}
330
3B0
100
AcDbXrecord
280
     1
  1
DWGPROPS COOKIE
  2

  3

  4

  6

  7

  8
sasaki_n
  9

300
=
301
=
302
=
303
=
304
=
305
=
306
=
307
=
308
=
309
=
 40
0.0004398148148148
 41
2458458.427071759
 42
2458458.428263889
  1

 90
        0
  0
XRECORD
  5
42D
102
{ACAD_REACTORS
330
42C
102
}
330
42C
100
AcDbXrecord
280
     1
290
     1
  0
XRECORD
  5
42F
102
{ACAD_REACTORS
330
42E
102
}
330
42E
100
AcDbXrecord
280
     1
290
     1
  0
XRECORD
  5
431
102
{ACAD_REACTORS
330
430
102
}
330
430
100
AcDbXrecord
280
     1
290
     1
  0
XRECORD
  5
433
102
{ACAD_REACTORS
330
432
102
}
330
432
100
AcDbXrecord
280
     1
290
     1
  0
XRECORD
  5
435
102
{ACAD_REACTORS
330
434
102
}
330
434
100
AcDbXrecord
280
     1
290
     1
  0
ACDBDETAILVIEWSTYLE
  5
40E
102
{ACAD_XDICTIONARY
360
47C
102
}
102
{ACAD_REACTORS
330
40D
102
}
330
40D
100
AcDbModelDocViewStyle
 70
     0
  3
Imperial24
290
     0
100
AcDbDetailViewStyle
 70
     0
 71
     0
 90
        3
 71
     1
340
3F9
 40
0.24
340
0
 40
0.24
300

 40
0.36
280
     3
 71
     2
340
400
 90
       25
 71
     3
340
3F9
 40
0.24
 90
        1
 40
0.75
 90
        1
300
%<\AcVar ViewType \f "%tc1">% %<\AcVar ViewDetailId>%\PSCALE %<\AcVar ViewScale \f "%sn">%
 71
     4
340
400
 90
       25
340
400
 90
       25
280
     0
  0
LAYOUT
  5
416
102
{ACAD_XDICTIONARY
360
480
102
}
102
{ACAD_REACTORS
330
405
102
}
330
405
100
AcDbPlotSettings
  1

  2
DocuPrint 3000-3
  4

  6

 40
0.0
 41
0.0
 42
0.0
 43
0.0
 44
0.0
 45
0.0
 46
0.0
 47
0.0
 48
0.0
 49
0.0
140
0.0
141
0.0
142
1.0
143
1.0
 70
  1712
 72
     0
 73
     0
 74
     0
  7

 75
     0
147
1.0
148
0.0
149
0.0
100
AcDbLayout
  1
Model
 70
     1
 71
     0
 10
0.0
 20
0.0
 11
12.0
 21
9.0
 12
0.0
 22
0.0
 32
0.0
 14
0.0
 24
0.0
 34
0.0
 15
0.0
 25
0.0
 35
0.0
146
0.0
 13
0.0
 23
0.0
 33
0.0
 16
1.0
 26
0.0
 36
0.0
 17
0.0
 27
1.0
 37
0.0
 76
     0
330
413
331
418
  0
LAYOUT
  5
412
102
{ACAD_XDICTIONARY
360
47E
102
}
102
{ACAD_REACTORS
330
405
102
}
330
405
100
AcDbPlotSettings
  1

  2
DocuPrint 3000-3
  4

  6

 40
0.0
 41
0.0
 42
0.0
 43
0.0
 44
0.0
 45
0.0
 46
0.0
 47
0.0
 48
0.0
 49
0.0
140
0.0
141
0.0
142
1.0
143
1.0
 70
   688
 72
     0
 73
     0
 74
     5
  7

 75
    16
147
1.0
148
0.0
149
0.0
100
AcDbLayout
  1
レイアウト1
 70
     0
 71
     1
 10
0.0
 20
0.0
 11
12.0
 21
9.0
 12
0.0
 22
0.0
 32
0.0
 14
1.000000000000000E+20
 24
1.000000000000000E+20
 34
1.000000000000000E+20
 15
-1.000000000000000E+20
 25
-1.000000000000000E+20
 35
-1.000000000000000E+20
146
0.0
 13
0.0
 23
0.0
 33
0.0
 16
1.0
 26
0.0
 36
0.0
 17
0.0
 27
1.0
 37
0.0
 76
     0
330
40F
  0
MATERIAL
  5
3BD
102
{ACAD_XDICTIONARY
360
3BE
102
}
102
{ACAD_REACTORS
330
3B4
102
}
330
3B4
100
AcDbMaterial
  1
ByBlock
 72
     0
 43
0.0208333333333333
 43
0.0
 43
0.0
 43
0.0
 43
0.0
 43
0.0208333333333333
 43
0.0
 43
0.0
 43
0.0
 43
0.0
 43
1.0
 43
0.0
 43
0.0
 43
0.0
 43
0.0
 43
1.0
 77
     0
 47
0.0208333333333333
 47
0.0
 47
0.0
 47
0.0
 47
0.0
 47
0.0208333333333333
 47
0.0
 47
0.0
 47
0.0
 47
0.0
 47
1.0
 47
0.0
 47
0.0
 47
0.0
 47
0.0
 47
1.0
171
     0
 49
0.0208333333333333
 49
0.0
 49
0.0
 49
0.0
 49
0.0
 49
0.0208333333333333
 49
0.0
 49
0.0
 49
0.0
 49
0.0
 49
1.0
 49
0.0
 49
0.0
 49
0.0
 49
0.0
 49
1.0
175
     0
142
0.0208333333333333
142
0.0
142
0.0
142
0.0
142
0.0
142
0.0208333333333333
142
0.0
142
0.0
142
0.0
142
0.0
142
1.0
142
0.0
142
0.0
142
0.0
142
0.0
142
1.0
179
     0
144
0.0208333333333333
144
0.0
144
0.0
144
0.0
144
0.0
144
0.0208333333333333
144
0.0
144
0.0
144
0.0
144
0.0
144
1.0
144
0.0
144
0.0
144
0.0
144
0.0
144
1.0
147
0.0208333333333333
147
0.0
147
0.0
147
0.0
147
0.0
147
0.0208333333333333
147
0.0
147
0.0
147
0.0
147
0.0
147
1.0
147
0.0
147
0.0
147
0.0
147
0.0
147
1.0
  0
MATERIAL
  5
3B5
102
{ACAD_XDICTIONARY
360
3B6
102
}
102
{ACAD_REACTORS
330
3B4
102
}
330
3B4
100
AcDbMaterial
  1
ByLayer
 72
     0
 43
0.0208333333333333
 43
0.0
 43
0.0
 43
0.0
 43
0.0
 43
0.0208333333333333
 43
0.0
 43
0.0
 43
0.0
 43
0.0
 43
1.0
 43
0.0
 43
0.0
 43
0.0
 43
0.0
 43
1.0
 77
     0
 47
0.0208333333333333
 47
0.0
 47
0.0
 47
0.0
 47
0.0
 47
0.0208333333333333
 47
0.0
 47
0.0
 47
0.0
 47
0.0
 47
1.0
 47
0.0
 47
0.0
 47
0.0
 47
0.0
 47
1.0
171
     0
 49
0.0208333333333333
 49
0.0
 49
0.0
 49
0.0
 49
0.0
 49
0.0208333333333333
 49
0.0
 49
0.0
 49
0.0
 49
0.0
 49
1.0
 49
0.0
 49
0.0
 49
0.0
 49
0.0
 49
1.0
175
     0
142
0.0208333333333333
142
0.0
142
0.0
142
0.0
142
0.0
142
0.0208333333333333
142
0.0
142
0.0
142
0.0
142
0.0
142
1.0
142
0.0
142
0.0
142
0.0
142
0.0
142
1.0
179
     0
144
0.0208333333333333
144
0.0
144
0.0
144
0.0
144
0.0
144
0.0208333333333333
144
0.0
144
0.0
144
0.0
144
0.0
144
1.0
144
0.0
144
0.0
144
0.0
144
0.0
144
1.0
147
0.0208333333333333
147
0.0
147
0.0
147
0.0
147
0.0
147
0.0208333333333333
147
0.0
147
0.0
147
0.0
147
0.0
147
1.0
147
0.0
147
0.0
147
0.0
147
0.0
147
1.0
  0
MATERIAL
  5
3C5
102
{ACAD_XDICTIONARY
360
3C6
102
}
102
{ACAD_REACTORS
330
3B4
102
}
330
3B4
100
AcDbMaterial
  1
Global
 72
     0
 43
0.0208333333333333
 43
0.0
 43
0.0
 43
0.0
 43
0.0
 43
0.0208333333333333
 43
0.0
 43
0.0
 43
0.0
 43
0.0
 43
1.0
 43
0.0
 43
0.0
 43
0.0
 43
0.0
 43
1.0
 77
     0
 47
0.0208333333333333
 47
0.0
 47
0.0
 47
0.0
 47
0.0
 47
0.0208333333333333
 47
0.0
 47
0.0
 47
0.0
 47
0.0
 47
1.0
 47
0.0
 47
0.0
 47
0.0
 47
0.0
 47
1.0
171
     0
 49
0.0208333333333333
 49
0.0
 49
0.0
 49
0.0
 49
0.0
 49
0.0208333333333333
 49
0.0
 49
0.0
 49
0.0
 49
0.0
 49
1.0
 49
0.0
 49
0.0
 49
0.0
 49
0.0
 49
1.0
175
     0
142
0.0208333333333333
142
0.0
142
0.0
142
0.0
142
0.0
142
0.0208333333333333
142
0.0
142
0.0
142
0.0
142
0.0
142
1.0
142
0.0
142
0.0
142
0.0
142
0.0
142
1.0
179
     0
144
0.0208333333333333
144
0.0
144
0.0
144
0.0
144
0.0
144
0.0208333333333333
144
0.0
144
0.0
144
0.0
144
0.0
144
1.0
144
0.0
144
0.0
144
0.0
144
0.0
144
1.0
147
0.0208333333333333
147
0.0
147
0.0
147
0.0
147
0.0
147
0.0208333333333333
147
0.0
147
0.0
147
0.0
147
0.0
147
1.0
147
0.0
147
0.0
147
0.0
147
0.0
147
1.0
  0
MLEADERSTYLE
  5
40A
102
{ACAD_REACTORS
330
409
102
}
330
409
100
AcDbMLeaderStyle
170
     2
171
     1
172
     0
 90
        2
 40
0.0
 41
0.0
173
     1
 91
-1056964608
340
3FE
 92
       -2
290
     1
 42
0.09
291
     1
 43
0.36
  3
Standard
 44
0.18
300

342
3F9
174
     1
178
     6
175
     1
176
     0
 93
-1056964608
 45
0.18
292
     0
297
     0
 46
0.18
 94
-1056964608
 47
1.0
 49
1.0
140
1.0
293
     1
141
0.0
294
     1
177
     0
142
1.0
295
     0
296
     0
143
0.125
1001
ACAD_MLEADERVER
1070
     2
  0
MLINESTYLE
  5
403
102
{ACAD_REACTORS
330
402
102
}
330
402
100
AcDbMlineStyle
  2
STANDARD
 70
     0
  3

 62
   256
 51
90.0
 52
90.0
 71
     2
 49
0.5
 62
   256
  6
BYLAYER
 49
-0.5
 62
   256
  6
BYLAYER
  0
ACDBPLACEHOLDER
  5
3B3
102
{ACAD_REACTORS
330
3B2
102
}
330
3B2
  0
SCALE
  5
3E7
102
{ACAD_REACTORS
330
3E6
102
}
330
3E6
100
AcDbScale
 70
     0
300
1:1
140
1.0
141
1.0
290
     1
  0
SCALE
  5
3E8
102
{ACAD_REACTORS
330
3E6
102
}
330
3E6
100
AcDbScale
 70
     0
300
1/128" = 1'-0"
140
0.0078125
141
12.0
290
     0
  0
SCALE
  5
3E9
102
{ACAD_REACTORS
330
3E6
102
}
330
3E6
100
AcDbScale
 70
     0
300
1/64" = 1'-0"
140
0.015625
141
12.0
290
     0
  0
SCALE
  5
3EA
102
{ACAD_REACTORS
330
3E6
102
}
330
3E6
100
AcDbScale
 70
     0
300
1/32" = 1'-0"
140
0.03125
141
12.0
290
     0
  0
SCALE
  5
3EB
102
{ACAD_REACTORS
330
3E6
102
}
330
3E6
100
AcDbScale
 70
     0
300
1/16" = 1'-0"
140
0.0625
141
12.0
290
     0
  0
SCALE
  5
3EC
102
{ACAD_REACTORS
330
3E6
102
}
330
3E6
100
AcDbScale
 70
     0
300
3/32" = 1'-0"
140
0.09375
141
12.0
290
     0
  0
SCALE
  5
3ED
102
{ACAD_REACTORS
330
3E6
102
}
330
3E6
100
AcDbScale
 70
     0
300
1/8" = 1'-0"
140
0.125
141
12.0
290
     0
  0
SCALE
  5
3EE
102
{ACAD_REACTORS
330
3E6
102
}
330
3E6
100
AcDbScale
 70
     0
300
3/16" = 1'-0"
140
0.1875
141
12.0
290
     0
  0
SCALE
  5
3EF
102
{ACAD_REACTORS
330
3E6
102
}
330
3E6
100
AcDbScale
 70
     0
300
1/4" = 1'-0"
140
0.25
141
12.0
290
     0
  0
SCALE
  5
3F0
102
{ACAD_REACTORS
330
3E6
102
}
330
3E6
100
AcDbScale
 70
     0
300
3/8" = 1'-0"
140
0.375
141
12.0
290
     0
  0
SCALE
  5
3F1
102
{ACAD_REACTORS
330
3E6
102
}
330
3E6
100
AcDbScale
 70
     0
300
1/2" = 1'-0"
140
0.5
141
12.0
290
     0
  0
SCALE
  5
3F2
102
{ACAD_REACTORS
330
3E6
102
}
330
3E6
100
AcDbScale
 70
     0
300
3/4" = 1'-0"
140
0.75
141
12.0
290
     0
  0
SCALE
  5
3F3
102
{ACAD_REACTORS
330
3E6
102
}
330
3E6
100
AcDbScale
 70
     0
300
1" = 1'-0"
140
1.0
141
12.0
290
     0
  0
SCALE
  5
3F4
102
{ACAD_REACTORS
330
3E6
102
}
330
3E6
100
AcDbScale
 70
     0
300
1-1/2" = 1'-0"
140
1.5
141
12.0
290
     0
  0
SCALE
  5
3F5
102
{ACAD_REACTORS
330
3E6
102
}
330
3E6
100
AcDbScale
 70
     0
300
3" = 1'-0"
140
3.0
141
12.0
290
     0
  0
SCALE
  5
3F6
102
{ACAD_REACTORS
330
3E6
102
}
330
3E6
100
AcDbScale
 70
     0
300
6" = 1'-0"
140
6.0
141
12.0
290
     0
  0
SCALE
  5
3F7
102
{ACAD_REACTORS
330
3E6
102
}
330
3E6
100
AcDbScale
 70
     0
300
1'-0" = 1'-0"
140
12.0
141
12.0
290
     0
  0
ACDBSECTIONVIEWSTYLE
  5
40C
102
{ACAD_XDICTIONARY
360
47A
102
}
102
{ACAD_REACTORS
330
40B
102
}
330
40B
100
AcDbModelDocViewStyle
 70
     0
  3
Imperial24
290
     0
100
AcDbSectionViewStyle
 70
     0
 71
     0
 90
       78
 71
     1
340
3F9
 40
0.24
340
0
340
0
 40
0.24
300
I, O, Q, S, X, Z
 40
0.48
 90
        3
 40
0.18
 90
        1
 71
     2
340
400
 90
       25
340
400
 90
       50
 40
0.24
 40
0.0
 40
0.24
 71
     3
340
3F9
 40
0.24
 90
        1
 40
0.75
 90
        1
300
%<\AcVar ViewType \f "%tc1">% %<\AcVar ViewSectionStartId>%-%<\AcVar ViewSectionEndId>%\PSCALE %<\AcVar ViewScale \f "%sn">%
 71
     4
300
ANSI31
 40
1.0
 90
        0
290
     0
290
     0
 90
        6
 40
0.0
 40
1.570796326794896
 40
0.2617993877991494
 40
1.308996938995747
 40
-0.2617993877991494
 40
1.832595714594046
  0
TABLESTYLE
  5
408
102
{ACAD_XDICTIONARY
360
441
102
}
102
{ACAD_REACTORS
330
407
102
}
330
407
100
AcDbTableStyle
  3
Standard
 70
     0
 71
     0
 40
0.06
 41
0.06
280
     0
281
     0
  7
STANDARD
140
0.18
170
     2
 62
     0
 63
     7
283
     0
274
    -2
284
     1
 64
     0
275
    -2
285
     1
 65
     0
276
    -2
286
     1
 66
     0
277
    -2
287
     1
 67
     0
278
    -2
288
     1
 68
     0
279
    -2
289
     1
 69
     0
  7
STANDARD
140
0.25
170
     5
 62
     0
 63
     7
283
     0
274
    -2
284
     1
 64
     0
275
    -2
285
     1
 65
     0
276
    -2
286
     1
 66
     0
277
    -2
287
     1
 67
     0
278
    -2
288
     1
 68
     0
279
    -2
289
     1
 69
     0
  7
STANDARD
140
0.18
170
     5
 62
     0
 63
     7
283
     0
274
    -2
284
     1
 64
     0
275
    -2
285
     1
 65
     0
276
    -2
286
     1
 66
     0
277
    -2
287
     1
 67
     0
278
    -2
288
     1
 68
     0
279
    -2
289
     1
 69
     0
  0
VISUALSTYLE
  5
3D3
102
{ACAD_XDICTIONARY
360
452
102
}
102
{ACAD_REACTORS
330
3CD
102
}
330
3CD
100
AcDbVisualStyle
  2
2dWireframe
 70
     4
 71
     0
 72
     2
 73
     0
 90
        0
 40
-0.6
 41
-30.0
 62
     5
 63
     7
 74
     1
 91
        4
 64
     7
 65
   257
 75
     1
175
     1
 42
1.0
 92
        0
 66
   257
 43
1.0
 76
     1
 77
     6
 78
     2
 67
     7
 79
     5
170
     0
171
     0
290
     0
174
     0
 93
        1
 44
0.0
173
     0
291
     0
 45
0.0
1001
ACAD
1000
AcDbSavedByObjectVersion
1070
     0
  0
VISUALSTYLE
  5
3D2
102
{ACAD_XDICTIONARY
360
450
102
}
102
{ACAD_REACTORS
330
3CD
102
}
330
3CD
100
AcDbVisualStyle
  2
Basic
 70
     7
 71
     1
 72
     0
 73
     1
 90
        0
 40
-0.6
 41
-30.0
 62
     5
 63
     7
 74
     0
 91
        4
 64
     7
 65
   257
 75
     1
175
     1
 42
1.0
 92
        8
 66
     7
 43
1.0
 76
     1
 77
     6
 78
     2
 67
     7
 79
     5
170
     0
171
     0
290
     0
174
     0
 93
        1
 44
0.0
173
     0
291
     1
 45
0.0
1001
ACAD
1000
AcDbSavedByObjectVersion
1070
     0
  0
VISUALSTYLE
  5
3D9
102
{ACAD_XDICTIONARY
360
45E
102
}
102
{ACAD_REACTORS
330
3CD
102
}
330
3CD
100
AcDbVisualStyle
  2
Brighten
 70
    12
 71
     2
 72
     2
 73
     0
 90
        0
 40
-0.6
 41
-30.0
 62
     5
 63
     7
 74
     1
 91
        4
 64
     7
 65
   257
 75
     1
175
     1
 42
1.0
 92
        8
 66
     7
 43
1.0
 76
     1
 77
     6
 78
     2
 67
     7
 79
     5
170
     0
171
     0
290
     0
174
     0
 93
        1
 44
50.0
173
     0
291
     1
 45
0.0
1001
ACAD
1000
AcDbSavedByObjectVersion
1070
     0
  0
VISUALSTYLE
  5
3DD
102
{ACAD_XDICTIONARY
360
466
102
}
102
{ACAD_REACTORS
330
3CD
102
}
330
3CD
100
AcDbVisualStyle
  2
ColorChange
 70
    16
 71
     2
 72
     2
 73
     3
 90
        0
 40
-0.6
 41
-30.0
 62
     5
 63
     8
 74
     1
 91
        4
 64
     7
 65
   257
 75
     1
175
     1
 42
1.0
 92
        8
 66
     8
 43
1.0
 76
     1
 77
     6
 78
     2
 67
     7
 79
     5
170
     0
171
     0
290
     0
174
     0
 93
        1
 44
0.0
173
     0
291
     1
 45
0.0
1001
ACAD
1000
AcDbSavedByObjectVersion
1070
     0
  0
VISUALSTYLE
  5
3D6
102
{ACAD_XDICTIONARY
360
458
102
}
102
{ACAD_REACTORS
330
3CD
102
}
330
3CD
100
AcDbVisualStyle
  2
Conceptual
 70
     9
 71
     3
 72
     2
 73
     0
 90
        0
 40
-0.6
 41
-30.0
 62
     5
 63
     7
 74
     2
 91
        2
 64
     7
 65
   257
 75
     1
175
     1
 42
179.0
 92
        8
 66
     7
 43
1.0
 76
     1
 77
     6
 78
     2
 67
     7
 79
     3
170
     0
171
     0
290
     0
174
     0
 93
        1
 44
0.0
173
     0
291
     0
 45
0.0
1001
ACAD
1000
AcDbSavedByObjectVersion
1070
     0
  0
VISUALSTYLE
  5
3D8
102
{ACAD_XDICTIONARY
360
45C
102
}
102
{ACAD_REACTORS
330
3CD
102
}
330
3CD
100
AcDbVisualStyle
  2
Dim
 70
    11
 71
     2
 72
     2
 73
     0
 90
        0
 40
-0.6
 41
-30.0
 62
     5
 63
     7
 74
     1
 91
        4
 64
     7
 65
   257
 75
     1
175
     1
 42
1.0
 92
        8
 66
     7
 43
1.0
 76
     1
 77
     6
 78
     2
 67
     7
 79
     5
170
     0
171
     0
290
     0
174
     0
 93
        1
 44
-50.0
173
     0
291
     1
 45
0.0
1001
ACAD
1000
AcDbSavedByObjectVersion
1070
     0
  0
VISUALSTYLE
  5
3E5
102
{ACAD_XDICTIONARY
360
476
102
}
102
{ACAD_REACTORS
330
3CD
102
}
330
3CD
100
AcDbVisualStyle
  2
EdgeColorOff
 70
    22
 71
     2
 72
     2
 73
     0
 90
        0
 40
-0.6
 41
-30.0
 62
     5
 63
     7
 74
     1
 91
        4
 64
     7
 65
   257
 75
     1
175
     1
 42
1.0
 92
        8
 66
     7
 43
1.0
 76
     1
 77
     6
 78
     2
 67
     7
 79
     5
170
     0
171
     0
290
     0
174
     0
 93
        1
 44
0.0
173
     0
291
     1
 45
0.0
1001
ACAD
1000
AcDbSavedByObjectVersion
1070
     0
  0
VISUALSTYLE
  5
3DC
102
{ACAD_XDICTIONARY
360
464
102
}
102
{ACAD_REACTORS
330
3CD
102
}
330
3CD
100
AcDbVisualStyle
  2
Facepattern
 70
    15
 71
     2
 72
     2
 73
     0
 90
        0
 40
-0.6
 41
-30.0
 62
     5
 63
     7
 74
     1
 91
        4
 64
     7
 65
   257
 75
     1
175
     1
 42
1.0
 92
        8
 66
     7
 43
1.0
 76
     1
 77
     6
 78
     2
 67
     7
 79
     5
170
     0
171
     0
290
     0
174
     0
 93
        1
 44
0.0
173
     0
291
     1
 45
0.0
1001
ACAD
1000
AcDbSavedByObjectVersion
1070
     0
  0
VISUALSTYLE
  5
3CE
102
{ACAD_XDICTIONARY
360
448
102
}
102
{ACAD_REACTORS
330
3CD
102
}
330
3CD
100
AcDbVisualStyle
  2
Flat
 70
     0
 71
     2
 72
     1
 73
     1
 90
        2
 40
-0.6
 41
30.0
 62
     5
 63
     7
 74
     0
 91
        0
 64
     7
 65
   257
 75
     1
175
     1
 42
1.0
 92
        8
 66
     7
 43
1.0
 76
     1
 77
     6
 78
     2
 67
     7
 79
     5
170
     0
171
     0
290
     0
174
     0
 93
       13
 44
0.0
173
     0
291
     1
 45
0.0
1001
ACAD
1000
AcDbSavedByObjectVersion
1070
     0
  0
VISUALSTYLE
  5
3CF
102
{ACAD_XDICTIONARY
360
44A
102
}
102
{ACAD_REACTORS
330
3CD
102
}
330
3CD
100
AcDbVisualStyle
  2
FlatWithEdges
 70
     1
 71
     2
 72
     1
 73
     1
 90
        2
 40
-0.6
 41
30.0
 62
     5
 63
     7
 74
     1
 91
        0
 64
     7
 65
   257
 75
     1
175
     1
 42
1.0
 92
        0
 66
   257
 43
1.0
 76
     1
 77
     6
 78
     2
 67
     7
 79
     5
170
     0
171
     0
290
     0
174
     0
 93
       13
 44
0.0
173
     0
291
     1
 45
0.0
1001
ACAD
1000
AcDbSavedByObjectVersion
1070
     0
  0
VISUALSTYLE
  5
3D0
102
{ACAD_XDICTIONARY
360
44C
102
}
102
{ACAD_REACTORS
330
3CD
102
}
330
3CD
100
AcDbVisualStyle
  2
Gouraud
 70
     2
 71
     2
 72
     2
 73
     1
 90
        2
 40
-0.6
 41
30.0
 62
     5
 63
     7
 74
     0
 91
        0
 64
     7
 65
   257
 75
     1
175
     1
 42
1.0
 92
        0
 66
     7
 43
1.0
 76
     1
 77
     6
 78
     2
 67
     7
 79
     5
170
     0
171
     0
290
     0
174
     0
 93
       13
 44
0.0
173
     0
291
     1
 45
0.0
1001
ACAD
1000
AcDbSavedByObjectVersion
1070
     0
  0
VISUALSTYLE
  5
3D1
102
{ACAD_XDICTIONARY
360
44E
102
}
102
{ACAD_REACTORS
330
3CD
102
}
330
3CD
100
AcDbVisualStyle
  2
GouraudWithEdges
 70
     3
 71
     2
 72
     2
 73
     1
 90
        2
 40
-0.6
 41
30.0
 62
     5
 63
     7
 74
     1
 91
        0
 64
     7
 65
   257
 75
     1
175
     1
 42
1.0
 92
        0
 66
   257
 43
1.0
 76
     1
 77
     6
 78
     2
 67
     7
 79
     5
170
     0
171
     0
290
     0
174
     0
 93
       13
 44
0.0
173
     0
291
     1
 45
0.0
1001
ACAD
1000
AcDbSavedByObjectVersion
1070
     0
  0
VISUALSTYLE
  5
3D5
102
{ACAD_XDICTIONARY
360
456
102
}
102
{ACAD_REACTORS
330
3CD
102
}
330
3CD
100
AcDbVisualStyle
  2
Hidden
 70
     6
 71
     1
 72
     2
 73
     2
 90
        0
 40
-0.6
 41
-30.0
 62
     5
 63
     7
 74
     2
 91
        2
 64
     7
 65
   257
 75
     2
175
     1
 42
40.0
 92
        0
 66
   257
 43
1.0
 76
     1
 77
     6
 78
     2
 67
     7
 79
     3
170
     0
171
     0
290
     0
174
     0
 93
        1
 44
0.0
173
     0
291
     0
 45
0.0
1001
ACAD
1000
AcDbSavedByObjectVersion
1070
     0
  0
VISUALSTYLE
  5
3E3
102
{ACAD_XDICTIONARY
360
472
102
}
102
{ACAD_REACTORS
330
3CD
102
}
330
3CD
100
AcDbVisualStyle
  2
JitterOff
 70
    20
 71
     2
 72
     2
 73
     0
 90
        0
 40
-0.6
 41
-30.0
 62
     5
 63
     7
 74
     1
 91
        4
 64
     7
 65
   257
 75
     1
175
     1
 42
1.0
 92
       10
 66
     7
 43
1.0
 76
     1
 77
     6
 78
     2
 67
     7
 79
     5
170
     0
171
     0
290
     0
174
     0
 93
        1
 44
0.0
173
     0
291
     1
 45
0.0
1001
ACAD
1000
AcDbSavedByObjectVersion
1070
     0
  0
VISUALSTYLE
  5
3DB
102
{ACAD_XDICTIONARY
360
462
102
}
102
{ACAD_REACTORS
330
3CD
102
}
330
3CD
100
AcDbVisualStyle
  2
Linepattern
 70
    14
 71
     2
 72
     2
 73
     0
 90
        0
 40
-0.6
 41
-30.0
 62
     5
 63
     7
 74
     1
 91
        4
 64
     7
 65
   257
 75
     7
175
     7
 42
1.0
 92
        8
 66
     7
 43
1.0
 76
     1
 77
     6
 78
     2
 67
     7
 79
     5
170
     0
171
     0
290
     0
174
     0
 93
        1
 44
0.0
173
     0
291
     1
 45
0.0
1001
ACAD
1000
AcDbSavedByObjectVersion
1070
     0
  0
VISUALSTYLE
  5
3E4
102
{ACAD_XDICTIONARY
360
474
102
}
102
{ACAD_REACTORS
330
3CD
102
}
330
3CD
100
AcDbVisualStyle
  2
OverhangOff
 70
    21
 71
     2
 72
     2
 73
     0
 90
        0
 40
-0.6
 41
-30.0
 62
     5
 63
     7
 74
     1
 91
        4
 64
     7
 65
   257
 75
     1
175
     1
 42
1.0
 92
        9
 66
     7
 43
1.0
 76
     1
 77
     6
 78
     2
 67
     7
 79
     5
170
     0
171
     0
290
     0
174
     0
 93
        1
 44
0.0
173
     0
291
     1
 45
0.0
1001
ACAD
1000
AcDbSavedByObjectVersion
1070
     0
  0
VISUALSTYLE
  5
3D7
102
{ACAD_XDICTIONARY
360
45A
102
}
102
{ACAD_REACTORS
330
3CD
102
}
330
3CD
100
AcDbVisualStyle
  2
Realistic
 70
     8
 71
     2
 72
     3
 73
     0
 90
        2
 40
-0.6
 41
30.0
 62
     5
 63
     7
 74
     0
 91
        0
 64
     7
 65
   257
 75
     1
175
     1
 42
1.0
 92
        8
 66
   257
 43
1.0
 76
     1
 77
     6
 78
     2
 67
     7
 79
     3
170
     0
171
     0
290
     0
174
     0
 93
       13
 44
0.0
173
     0
291
     0
 45
0.0
1001
ACAD
1000
AcDbSavedByObjectVersion
1070
     0
  0
VISUALSTYLE
  5
3E2
102
{ACAD_XDICTIONARY
360
470
102
}
102
{ACAD_REACTORS
330
3CD
102
}
330
3CD
100
AcDbVisualStyle
  2
Shaded
 70
    27
 71
     2
 72
     2
 73
     1
 90
        2
 40
-0.6
 41
30.0
 62
     5
 63
     7
 74
     0
 91
        4
 64
     7
 65
   257
 75
     1
175
     1
 42
1.0
 92
        8
 66
   257
 43
1.0
 76
     1
 77
     6
 78
     2
 67
     8
 79
     3
170
     0
171
     0
290
     0
174
     0
 93
        5
 44
0.0
173
     0
291
     0
 45
0.0
1001
ACAD
1000
AcDbSavedByObjectVersion
1070
     0
  0
VISUALSTYLE
  5
3E1
102
{ACAD_XDICTIONARY
360
46E
102
}
102
{ACAD_REACTORS
330
3CD
102
}
330
3CD
100
AcDbVisualStyle
  2
Shaded with edges
 70
    26
 71
     2
 72
     2
 73
     1
 90
        2
 40
-0.6
 41
30.0
 62
     5
 63
     7
 74
     1
 91
        2
 64
     7
 65
   257
 75
     2
175
     1
 42
1.0
 92
        8
 66
   257
 43
1.0
 76
     1
 77
     6
 78
     2
 67
     7
 79
     3
170
     0
171
     0
290
     0
174
     0
 93
        5
 44
0.0
173
     0
291
     0
 45
0.0
1001
ACAD
1000
AcDbSavedByObjectVersion
1070
     0
  0
VISUALSTYLE
  5
3DE
102
{ACAD_XDICTIONARY
360
468
102
}
102
{ACAD_REACTORS
330
3CD
102
}
330
3CD
100
AcDbVisualStyle
  2
Shades of Gray
 70
    23
 71
     2
 72
     2
 73
     3
 90
        0
 40
-0.6
 41
-30.0
 62
     5
 63
     7
 74
     2
 91
        2
 64
     7
 65
     7
 75
     1
175
     1
 42
40.0
 92
        8
 66
     7
 43
1.0
 76
     1
 77
     6
 78
     2
 67
     7
 79
     3
170
     0
171
     0
290
     0
174
     0
 93
        1
 44
0.0
173
     0
291
     0
 45
0.0
1001
ACAD
1000
AcDbSavedByObjectVersion
1070
     0
  0
VISUALSTYLE
  5
3DF
102
{ACAD_XDICTIONARY
360
46A
102
}
102
{ACAD_REACTORS
330
3CD
102
}
330
3CD
100
AcDbVisualStyle
  2
Sketchy
 70
    24
 71
     1
 72
     2
 73
     2
 90
        0
 40
-0.6
 41
-30.0
 62
     5
 63
     7
 74
     2
 91
        2
 64
     7
 65
     7
 75
     1
175
     1
 42
40.0
 92
       11
 66
     7
 43
1.0
 76
     1
 77
     6
 78
     2
 67
     7
 79
     6
170
     0
171
     0
290
     0
174
     0
 93
        1
 44
0.0
173
     0
291
     0
 45
0.0
1001
ACAD
1000
AcDbSavedByObjectVersion
1070
     0
  0
VISUALSTYLE
  5
3DA
102
{ACAD_XDICTIONARY
360
460
102
}
102
{ACAD_REACTORS
330
3CD
102
}
330
3CD
100
AcDbVisualStyle
  2
Thicken
 70
    13
 71
     2
 72
     2
 73
     0
 90
        0
 40
-0.6
 41
-30.0
 62
     5
 63
     7
 74
     1
 91
        4
 64
     7
 65
   257
 75
     1
175
     1
 42
1.0
 92
       12
 66
     7
 43
1.0
 76
     1
 77
     6
 78
     2
 67
     7
 79
     5
170
     0
171
     0
290
     0
174
     0
 93
        1
 44
0.0
173
     0
291
     1
 45
0.0
1001
ACAD
1000
AcDbSavedByObjectVersion
1070
     0
  0
VISUALSTYLE
  5
3D4
102
{ACAD_XDICTIONARY
360
454
102
}
102
{ACAD_REACTORS
330
3CD
102
}
330
3CD
100
AcDbVisualStyle
  2
Wireframe
 70
     5
 71
     0
 72
     2
 73
     0
 90
        0
 40
-0.6
 41
-30.0
 62
     5
 63
     7
 74
     1
 91
        4
 64
     7
 65
   257
 75
     1
175
     1
 42
1.0
 92
        0
 66
   257
 43
1.0
 76
     1
 77
     6
 78
     2
 67
     7
 79
     3
170
     0
171
     0
290
     0
174
     0
 93
        1
 44
0.0
173
     0
291
     0
 45
0.0
1001
ACAD
1000
AcDbSavedByObjectVersion
1070
     0
  0
VISUALSTYLE
  5
3E0
102
{ACAD_XDICTIONARY
360
46C
102
}
102
{ACAD_REACTORS
330
3CD
102
}
330
3CD
100
AcDbVisualStyle
  2
X-Ray
 70
    25
 71
     2
 72
     2
 73
     1
 90
        1
 40
0.5
 41
-30.0
 62
     5
 63
     7
 74
     1
 91
        0
 64
     7
 65
   257
 75
     1
175
     1
 42
1.0
 92
        8
 66
     7
 43
1.0
 76
     1
 77
     6
 78
     2
 67
     7
 79
     3
170
     0
171
     0
290
     0
174
     0
 93
       13
 44
0.0
173
     0
291
     0
 45
0.0
1001
ACAD
1000
AcDbSavedByObjectVersion
1070
     0
  0
DICTIONARYVAR
  5
43B
102
{ACAD_REACTORS
330
436
102
}
330
436
100
DictionaryVariables
280
     0
  1
1:1
  0
DICTIONARYVAR
  5
438
102
{ACAD_REACTORS
330
436
102
}
330
436
100
DictionaryVariables
280
     0
  1
STANDARD
  0
DICTIONARYVAR
  5
437
102
{ACAD_REACTORS
330
436
102
}
330
436
100
DictionaryVariables
280
     0
  1
STANDARD
  0
DICTIONARYVAR
  5
439
102
{ACAD_REACTORS
330
436
102
}
330
436
100
DictionaryVariables
280
     0
  1
Imperial24
  0
DICTIONARYVAR
  5
43A
102
{ACAD_REACTORS
330
436
102
}
330
436
100
DictionaryVariables
280
     0
  1
Imperial24
  0
DICTIONARYVAR
  5
43E
102
{ACAD_REACTORS
330
436
102
}
330
436
100
DictionaryVariables
280
     0
  1
1
  0
DICTIONARYVAR
  5
43D
102
{ACAD_REACTORS
330
436
102
}
330
436
100
DictionaryVariables
280
     0
  1
0
  0
DICTIONARYVAR
  5
43C
102
{ACAD_REACTORS
330
436
102
}
330
436
100
DictionaryVariables
280
     0
  1
127
  0
DICTIONARYVAR
  5
43F
102
{ACAD_REACTORS
330
436
102
}
330
436
100
DictionaryVariables
280
     0
  1
2
  0
DICTIONARY
  5
47C
330
40E
100
AcDbDictionary
280
     1
281
     1
  3
ACAD_XREC_ROUNDTRIP
360
47D
  0
DICTIONARY
  5
480
330
416
100
AcDbDictionary
280
     1
281
     1
  3
ACAD_XREC_ROUNDTRIP
360
481
  0
DICTIONARY
  5
47E
330
412
100
AcDbDictionary
280
     1
281
     1
  3
ACAD_XREC_ROUNDTRIP
360
47F
  0
DICTIONARY
  5
3BE
330
3BD
100
AcDbDictionary
280
     1
281
     1
  3
ACAD_XREC_ROUNDTRIP
360
446
  3
BUMPTILE
360
3C0
  3
DIFFUSETILE
360
3BF
  3
OPACITYTILE
360
3C3
  3
REFLECTIONTILE
360
3C2
  3
REFRACTIONTILE
360
3C4
  3
SPECULARTILE
360
3C1
  0
DICTIONARY
  5
3B6
330
3B5
100
AcDbDictionary
280
     1
281
     1
  3
ACAD_XREC_ROUNDTRIP
360
445
  3
BUMPTILE
360
3B8
  3
DIFFUSETILE
360
3B7
  3
OPACITYTILE
360
3BB
  3
REFLECTIONTILE
360
3BA
  3
REFRACTIONTILE
360
3BC
  3
SPECULARTILE
360
3B9
  0
DICTIONARY
  5
3C6
330
3C5
100
AcDbDictionary
280
     1
281
     1
  3
ACAD_XREC_ROUNDTRIP
360
447
  3
BUMPTILE
360
3C8
  3
DIFFUSETILE
360
3C7
  3
OPACITYTILE
360
3CB
  3
REFLECTIONTILE
360
3CA
  3
REFRACTIONTILE
360
3CC
  3
SPECULARTILE
360
3C9
  0
DICTIONARY
  5
47A
330
40C
100
AcDbDictionary
280
     1
281
     1
  3
ACAD_XREC_ROUNDTRIP
360
47B
  0
DICTIONARY
  5
441
330
408
100
AcDbDictionary
280
     1
281
     1
  3
ACAD_ROUNDTRIP_2008_TABLESTYLE_CELLSTYLEMAP
360
442
  3
ACAD_XREC_ROUNDTRIP
360
478
  0
DICTIONARY
  5
452
330
3D3
100
AcDbDictionary
280
     1
281
     1
  3
ACAD_XREC_ROUNDTRIP
360
453
  0
DICTIONARY
  5
450
330
3D2
100
AcDbDictionary
280
     1
281
     1
  3
ACAD_XREC_ROUNDTRIP
360
451
  0
DICTIONARY
  5
45E
330
3D9
100
AcDbDictionary
280
     1
281
     1
  3
ACAD_XREC_ROUNDTRIP
360
45F
  0
DICTIONARY
  5
466
330
3DD
100
AcDbDictionary
280
     1
281
     1
  3
ACAD_XREC_ROUNDTRIP
360
467
  0
DICTIONARY
  5
458
330
3D6
100
AcDbDictionary
280
     1
281
     1
  3
ACAD_XREC_ROUNDTRIP
360
459
  0
DICTIONARY
  5
45C
330
3D8
100
AcDbDictionary
280
     1
281
     1
  3
ACAD_XREC_ROUNDTRIP
360
45D
  0
DICTIONARY
  5
476
330
3E5
100
AcDbDictionary
280
     1
281
     1
  3
ACAD_XREC_ROUNDTRIP
360
477
  0
DICTIONARY
  5
464
330
3DC
100
AcDbDictionary
280
     1
281
     1
  3
ACAD_XREC_ROUNDTRIP
360
465
  0
DICTIONARY
  5
448
330
3CE
100
AcDbDictionary
280
     1
281
     1
  3
ACAD_XREC_ROUNDTRIP
360
449
  0
DICTIONARY
  5
44A
330
3CF
100
AcDbDictionary
280
     1
281
     1
  3
ACAD_XREC_ROUNDTRIP
360
44B
  0
DICTIONARY
  5
44C
330
3D0
100
AcDbDictionary
280
     1
281
     1
  3
ACAD_XREC_ROUNDTRIP
360
44D
  0
DICTIONARY
  5
44E
330
3D1
100
AcDbDictionary
280
     1
281
     1
  3
ACAD_XREC_ROUNDTRIP
360
44F
  0
DICTIONARY
  5
456
330
3D5
100
AcDbDictionary
280
     1
281
     1
  3
ACAD_XREC_ROUNDTRIP
360
457
  0
DICTIONARY
  5
472
330
3E3
100
AcDbDictionary
280
     1
281
     1
  3
ACAD_XREC_ROUNDTRIP
360
473
  0
DICTIONARY
  5
462
330
3DB
100
AcDbDictionary
280
     1
281
     1
  3
ACAD_XREC_ROUNDTRIP
360
463
  0
DICTIONARY
  5
474
330
3E4
100
AcDbDictionary
280
     1
281
     1
  3
ACAD_XREC_ROUNDTRIP
360
475
  0
DICTIONARY
  5
45A
330
3D7
100
AcDbDictionary
280
     1
281
     1
  3
ACAD_XREC_ROUNDTRIP
360
45B
  0
DICTIONARY
  5
470
330
3E2
100
AcDbDictionary
280
     1
281
     1
  3
ACAD_XREC_ROUNDTRIP
360
471
  0
DICTIONARY
  5
46E
330
3E1
100
AcDbDictionary
280
     1
281
     1
  3
ACAD_XREC_ROUNDTRIP
360
46F
  0
DICTIONARY
  5
468
330
3DE
100
AcDbDictionary
280
     1
281
     1
  3
ACAD_XREC_ROUNDTRIP
360
469
  0
DICTIONARY
  5
46A
330
3DF
100
AcDbDictionary
280
     1
281
     1
  3
ACAD_XREC_ROUNDTRIP
360
46B
  0
DICTIONARY
  5
460
330
3DA
100
AcDbDictionary
280
     1
281
     1
  3
ACAD_XREC_ROUNDTRIP
360
461
  0
DICTIONARY
  5
454
330
3D4
100
AcDbDictionary
280
     1
281
     1
  3
ACAD_XREC_ROUNDTRIP
360
455
  0
DICTIONARY
  5
46C
330
3E0
100
AcDbDictionary
280
     1
281
     1
  3
ACAD_XREC_ROUNDTRIP
360
46D
  0
XRECORD
  5
47D
102
{ACAD_REACTORS
330
47C
102
}
330
47C
100
AcDbXrecord
280
     1
102
DISPLAYNAME
  1
Imperial24
102
FLAGS
 90
        0
  0
XRECORD
  5
481
102
{ACAD_REACTORS
330
480
102
}
330
480
100
AcDbXrecord
280
     1
102
SHADEPLOT
 70
     0
102
SHADEPLOTRESLEVEL
 70
     2
102
SHADEPLOTCUSTOMDPI
 70
   300
  0
XRECORD
  5
47F
102
{ACAD_REACTORS
330
47E
102
}
330
47E
100
AcDbXrecord
280
     1
102
SHADEPLOT
 70
     0
102
SHADEPLOTRESLEVEL
 70
     2
102
SHADEPLOTCUSTOMDPI
 70
   300
  0
XRECORD
  5
446
102
{ACAD_REACTORS
330
3BE
102
}
330
3BE
100
AcDbXrecord
280
     1
102
MATERIAL
148
0.0
149
0.0
149
0.0
 93
        0
 94
      127
282
     0
 72
     0
 77
     0
171
     0
175
     0
179
     0
273
     0
  0
XRECORD
  5
3C0
102
{ACAD_REACTORS
330
3BE
102
}
330
3BE
100
AcDbXrecord
280
     1
270
     1
271
     1
  0
XRECORD
  5
3BF
102
{ACAD_REACTORS
330
3BE
102
}
330
3BE
100
AcDbXrecord
280
     1
270
     1
271
     1
  0
XRECORD
  5
3C3
102
{ACAD_REACTORS
330
3BE
102
}
330
3BE
100
AcDbXrecord
280
     1
270
     1
271
     1
  0
XRECORD
  5
3C2
102
{ACAD_REACTORS
330
3BE
102
}
330
3BE
100
AcDbXrecord
280
     1
270
     1
271
     1
  0
XRECORD
  5
3C4
102
{ACAD_REACTORS
330
3BE
102
}
330
3BE
100
AcDbXrecord
280
     1
270
     1
271
     1
  0
XRECORD
  5
3C1
102
{ACAD_REACTORS
330
3BE
102
}
330
3BE
100
AcDbXrecord
280
     1
270
     1
271
     1
  0
XRECORD
  5
445
102
{ACAD_REACTORS
330
3B6
102
}
330
3B6
100
AcDbXrecord
280
     1
102
MATERIAL
148
0.0
149
0.0
149
0.0
 93
        0
 94
      127
282
     0
 72
     0
 77
     0
171
     0
175
     0
179
     0
273
     0
  0
XRECORD
  5
3B8
102
{ACAD_REACTORS
330
3B6
102
}
330
3B6
100
AcDbXrecord
280
     1
270
     1
271
     1
  0
XRECORD
  5
3B7
102
{ACAD_REACTORS
330
3B6
102
}
330
3B6
100
AcDbXrecord
280
     1
270
     1
271
     1
  0
XRECORD
  5
3BB
102
{ACAD_REACTORS
330
3B6
102
}
330
3B6
100
AcDbXrecord
280
     1
270
     1
271
     1
  0
XRECORD
  5
3BA
102
{ACAD_REACTORS
330
3B6
102
}
330
3B6
100
AcDbXrecord
280
     1
270
     1
271
     1
  0
XRECORD
  5
3BC
102
{ACAD_REACTORS
330
3B6
102
}
330
3B6
100
AcDbXrecord
280
     1
270
     1
271
     1
  0
XRECORD
  5
3B9
102
{ACAD_REACTORS
330
3B6
102
}
330
3B6
100
AcDbXrecord
280
     1
270
     1
271
     1
  0
XRECORD
  5
447
102
{ACAD_REACTORS
330
3C6
102
}
330
3C6
100
AcDbXrecord
280
     1
102
MATERIAL
148
0.0
149
0.0
149
0.0
 93
        0
 94
      127
282
     0
 72
     0
 77
     0
171
     0
175
     0
179
     0
273
     0
  0
XRECORD
  5
3C8
102
{ACAD_REACTORS
330
3C6
102
}
330
3C6
100
AcDbXrecord
280
     1
270
     1
271
     1
  0
XRECORD
  5
3C7
102
{ACAD_REACTORS
330
3C6
102
}
330
3C6
100
AcDbXrecord
280
     1
270
     1
271
     1
  0
XRECORD
  5
3CB
102
{ACAD_REACTORS
330
3C6
102
}
330
3C6
100
AcDbXrecord
280
     1
270
     1
271
     1
  0
XRECORD
  5
3CA
102
{ACAD_REACTORS
330
3C6
102
}
330
3C6
100
AcDbXrecord
280
     1
270
     1
271
     1
  0
XRECORD
  5
3CC
102
{ACAD_REACTORS
330
3C6
102
}
330
3C6
100
AcDbXrecord
280
     1
270
     1
271
     1
  0
XRECORD
  5
3C9
102
{ACAD_REACTORS
330
3C6
102
}
330
3C6
100
AcDbXrecord
280
     1
270
     1
271
     1
  0
XRECORD
  5
47B
102
{ACAD_REACTORS
330
47A
102
}
330
47A
100
AcDbXrecord
280
     1
102
DISPLAYNAME
  1
Imperial24
102
FLAGS
 90
        0
  0
CELLSTYLEMAP
  5
442
102
{ACAD_REACTORS
330
441
102
}
330
441
100
AcDbCellStyleMap
 90
        3
300
CELLSTYLE
  1
TABLEFORMAT_BEGIN
 90
        5
170
     1
 91
        0
 92
    32768
 62
   257
 93
        1
300
CONTENTFORMAT
  1
CONTENTFORMAT_BEGIN
 90
        0
 91
        0
 92
      512
 93
        0
300

 40
0.0
140
1.0
 94
        5
 62
     0
340
3F9
144
0.25
309
CONTENTFORMAT_END
171
     0
 94
        0
309
TABLEFORMAT_END
  1
CELLSTYLE_BEGIN
 90
        1
 91
        1
300
_TITLE
309
CELLSTYLE_END
300
CELLSTYLE
  1
TABLEFORMAT_BEGIN
 90
        5
170
     1
 91
        0
 92
        0
 62
   257
 93
        1
300
CONTENTFORMAT
  1
CONTENTFORMAT_BEGIN
 90
        0
 91
        0
 92
      512
 93
        0
300

 40
0.0
140
1.0
 94
        5
 62
     0
340
3F9
144
0.18
309
CONTENTFORMAT_END
171
     0
 94
        0
309
TABLEFORMAT_END
  1
CELLSTYLE_BEGIN
 90
        2
 91
        1
300
_HEADER
309
CELLSTYLE_END
300
CELLSTYLE
  1
TABLEFORMAT_BEGIN
 90
        5
170
     1
 91
        0
 92
        0
 62
   257
 93
        1
300
CONTENTFORMAT
  1
CONTENTFORMAT_BEGIN
 90
        0
 91
        0
 92
      512
 93
        0
300

 40
0.0
140
1.0
 94
        2
 62
     0
340
3F9
144
0.18
309
CONTENTFORMAT_END
171
     0
 94
        0
309
TABLEFORMAT_END
  1
CELLSTYLE_BEGIN
 90
        3
 91
        2
300
_DATA
309
CELLSTYLE_END
  0
XRECORD
  5
478
102
{ACAD_REACTORS
330
441
102
}
330
441
100
AcDbXrecord
280
     1
102
ACAD_ROUNDTRIP_PRE2007_TABLESTYLE
 90
      512
 91
        0
  1

 92
      512
 93
        0
  2

 94
      512
 95
        0
  3

  0
XRECORD
  5
453
102
{ACAD_REACTORS
330
452
102
}
330
452
100
AcDbXrecord
280
     1
102
RTVSPost2010Prop28
280
     1
102
RTVSPost2010PropOp28
 70
     1
102
RTVSPost2010Prop29
280
     1
102
RTVSPost2010PropOp29
 70
     1
102
RTVSPost2010Prop30
280
     0
102
RTVSPost2010PropOp30
 70
     1
102
RTVSPost2010Prop31
280
     0
102
RTVSPost2010PropOp31
 70
     1
102
RTVSPost2010Prop32
280
     0
102
RTVSPost2010PropOp32
 70
     1
102
RTVSPost2010Prop33
280
     0
102
RTVSPost2010PropOp33
 70
     1
102
RTVSPost2010Prop34
280
     0
102
RTVSPost2010PropOp34
 70
     1
102
RTVSPost2010Prop35
280
     0
102
RTVSPost2010PropOp35
 70
     1
102
RTVSPost2010Prop36
280
     0
102
RTVSPost2010PropOp36
 70
     1
102
RTVSPost2010Prop37
 90
       50
102
RTVSPost2010PropOp37
 70
     1
102
RTVSPost2010Prop38
140
0.0
102
RTVSPost2010PropOp38
 70
     1
102
RTVSPost2010Prop39
140
1.0
102
RTVSPost2010PropOp39
 70
     1
102
RTVSPost2010Prop40
 90
        0
102
RTVSPost2010PropOp40
 70
     1
102
RTVSPost2010Prop41ColorIndex
 90
       18
102
RTVSPost2010Prop41ColorRGB
 90
        0
102
RTVSPost2010PropOp41
 70
     1
102
RTVSPost2010Prop42
 90
       50
102
RTVSPost2010PropOp42
 70
     1
102
RTVSPost2010Prop43
 90
        3
102
RTVSPost2010PropOp43
 70
     1
102
RTVSPost2010Prop44ColorIndex
 90
        5
102
RTVSPost2010Prop44ColorRGB
 90
      255
102
RTVSPost2010PropOp44
 70
     1
102
RTVSPost2010Prop45
280
     0
102
RTVSPost2010PropOp45
 70
     1
102
RTVSPost2010Prop46
 90
       50
102
RTVSPost2010PropOp46
 70
     1
102
RTVSPost2010Prop47
 90
       50
102
RTVSPost2010PropOp47
 70
     1
102
RTVSPost2010Prop48
 90
       50
102
RTVSPost2010PropOp48
 70
     1
102
RTVSPost2010Prop49
280
     0
102
RTVSPost2010PropOp49
 70
     1
102
RTVSPost2010Prop50
 90
       50
102
RTVSPost2010PropOp50
 70
     1
102
RTVSPost2010Prop51ColorIndex
 90
      256
102
RTVSPost2010Prop51ColorRGB
 90
-16777216
102
RTVSPost2010PropOp51
 70
     0
102
RTVSPost2010Prop52
140
1.0
102
RTVSPost2010PropOp52
 70
     0
102
RTVSPost2010Prop53
 90
        2
102
RTVSPost2010PropOp53
 70
     1
102
RTVSPost2010Prop54
  1
strokes_ogs.tif
102
RTVSPost2010PropOp54
 70
     1
102
RTVSPost2010Prop55
280
     0
102
RTVSPost2010PropOp55
 70
     1
102
RTVSPost2010Prop56
140
1.0
102
RTVSPost2010PropOp56
 70
     1
102
RTVSPost2010Prop57
140
1.0
102
RTVSPost2010PropOp57
 70
     1
102
RTVSPropertyOp0
 70
     1
102
RTVSPropertyOp1
 70
     1
102
RTVSPropertyOp2
 70
     1
102
RTVSPropertyOp3
 70
     1
102
RTVSPropertyOp4
 70
     1
102
RTVSPropertyOp5
 70
     1
102
RTVSPropertyOp6
 70
     1
102
RTVSPropertyOp7
 70
     1
102
RTVSPropertyOp8
 70
     1
102
RTVSPropertyOp9
 70
     1
102
RTVSPropertyOp10
 70
     1
102
RTVSPropertyOp11
 70
     1
102
RTVSPropertyOp12
 70
     1
102
RTVSPropertyOp13
 70
     1
102
RTVSPropertyOp14
 70
     1
102
RTVSPropertyOp15
 70
     1
102
RTVSPropertyOp16
 70
     1
102
RTVSPropertyOp17
 70
     1
102
RTVSPropertyOp18
 70
     1
102
RTVSPropertyOp19
 70
     1
102
RTVSPropertyOp20
 70
     1
102
RTVSPropertyOp21
 70
     1
102
RTVSPropertyOp22
 70
     1
102
RTVSPropertyOp23
 70
     1
102
RTVSPropertyOp24
 70
     1
102
RTVSPropertyOp25
 70
     1
102
RTVSPropertyOp26
 70
     1
102
RTVSPropertyOp27
 70
     1
102
RTVSPropertyOp28
 70
     1
102
RTVSPropertyOp29
 70
     1
102
RTVSPropertyOp30
 70
     1
102
RTVSPropertyOp31
 70
     1
102
RTVSPropertyOp32
 70
     1
102
RTVSPropertyOp33
 70
     1
102
RTVSPropertyOp34
 70
     1
102
RTVSPropertyOp35
 70
     1
102
RTVSPropertyOp36
 70
     1
102
RTVSPropertyOp37
 70
     1
102
RTVSPropertyOp38
 70
     1
102
RTVSPropertyOp39
 70
     1
102
RTVSPropertyOp40
 70
     1
102
RTVSPropertyOp41
 70
     1
102
RTVSPropertyOp42
 70
     1
102
RTVSPropertyOp43
 70
     1
102
RTVSPropertyOp44
 70
     1
102
RTVSPropertyOp45
 70
     1
102
RTVSPropertyOp46
 70
     1
102
RTVSPropertyOp47
 70
     1
102
RTVSPropertyOp48
 70
     1
102
RTVSPropertyOp49
 70
     1
102
RTVSPropertyOp50
 70
     1
102
RTVSPropertyOp51
 70
     0
102
RTVSPropertyOp52
 70
     0
102
RTVSPropertyOp53
 70
     1
102
RTVSPropertyOp54
 70
     1
102
RTVSPropertyOp55
 70
     1
102
RTVSPropertyOp56
 70
     1
102
RTVSPropertyOp57
 70
     1
102
RTVSPropertyOp58
 70
     1
102
RTVSPropertyOp59
 70
     1
102
RTVSPropertyOp60
 70
     1
102
RTVSPropertyOp61
 70
     1
102
RTVSPropertyOp62
 70
     1
  0
XRECORD
  5
451
102
{ACAD_REACTORS
330
450
102
}
330
450
100
AcDbXrecord
280
     1
102
RTVSPost2010Prop28
280
     0
102
RTVSPost2010PropOp28
 70
     1
102
RTVSPost2010Prop29
280
     1
102
RTVSPost2010PropOp29
 70
     1
102
RTVSPost2010Prop30
280
     1
102
RTVSPost2010PropOp30
 70
     1
102
RTVSPost2010Prop31
280
     0
102
RTVSPost2010PropOp31
 70
     1
102
RTVSPost2010Prop32
280
     0
102
RTVSPost2010PropOp32
 70
     1
102
RTVSPost2010Prop33
280
     0
102
RTVSPost2010PropOp33
 70
     1
102
RTVSPost2010Prop34
280
     0
102
RTVSPost2010PropOp34
 70
     1
102
RTVSPost2010Prop35
280
     0
102
RTVSPost2010PropOp35
 70
     1
102
RTVSPost2010Prop36
280
     0
102
RTVSPost2010PropOp36
 70
     1
102
RTVSPost2010Prop37
 90
       50
102
RTVSPost2010PropOp37
 70
     1
102
RTVSPost2010Prop38
140
0.0
102
RTVSPost2010PropOp38
 70
     1
102
RTVSPost2010Prop39
140
1.0
102
RTVSPost2010PropOp39
 70
     1
102
RTVSPost2010Prop40
 90
        0
102
RTVSPost2010PropOp40
 70
     1
102
RTVSPost2010Prop41ColorIndex
 90
       18
102
RTVSPost2010Prop41ColorRGB
 90
        0
102
RTVSPost2010PropOp41
 70
     1
102
RTVSPost2010Prop42
 90
       50
102
RTVSPost2010PropOp42
 70
     1
102
RTVSPost2010Prop43
 90
        3
102
RTVSPost2010PropOp43
 70
     1
102
RTVSPost2010Prop44ColorIndex
 90
        5
102
RTVSPost2010Prop44ColorRGB
 90
      255
102
RTVSPost2010PropOp44
 70
     1
102
RTVSPost2010Prop45
280
     0
102
RTVSPost2010PropOp45
 70
     1
102
RTVSPost2010Prop46
 90
       50
102
RTVSPost2010PropOp46
 70
     1
102
RTVSPost2010Prop47
 90
       50
102
RTVSPost2010PropOp47
 70
     1
102
RTVSPost2010Prop48
 90
       50
102
RTVSPost2010PropOp48
 70
     1
102
RTVSPost2010Prop49
280
     0
102
RTVSPost2010PropOp49
 70
     1
102
RTVSPost2010Prop50
 90
       50
102
RTVSPost2010PropOp50
 70
     1
102
RTVSPost2010Prop51ColorIndex
 90
      256
102
RTVSPost2010Prop51ColorRGB
 90
-16777216
102
RTVSPost2010PropOp51
 70
     0
102
RTVSPost2010Prop52
140
1.0
102
RTVSPost2010PropOp52
 70
     0
102
RTVSPost2010Prop53
 90
        2
102
RTVSPost2010PropOp53
 70
     1
102
RTVSPost2010Prop54
  1
strokes_ogs.tif
102
RTVSPost2010PropOp54
 70
     1
102
RTVSPost2010Prop55
280
     0
102
RTVSPost2010PropOp55
 70
     1
102
RTVSPost2010Prop56
140
1.0
102
RTVSPost2010PropOp56
 70
     1
102
RTVSPost2010Prop57
140
1.0
102
RTVSPost2010PropOp57
 70
     1
102
RTVSPropertyOp0
 70
     1
102
RTVSPropertyOp1
 70
     1
102
RTVSPropertyOp2
 70
     1
102
RTVSPropertyOp3
 70
     1
102
RTVSPropertyOp4
 70
     1
102
RTVSPropertyOp5
 70
     1
102
RTVSPropertyOp6
 70
     1
102
RTVSPropertyOp7
 70
     1
102
RTVSPropertyOp8
 70
     1
102
RTVSPropertyOp9
 70
     1
102
RTVSPropertyOp10
 70
     1
102
RTVSPropertyOp11
 70
     1
102
RTVSPropertyOp12
 70
     1
102
RTVSPropertyOp13
 70
     1
102
RTVSPropertyOp14
 70
     1
102
RTVSPropertyOp15
 70
     1
102
RTVSPropertyOp16
 70
     1
102
RTVSPropertyOp17
 70
     1
102
RTVSPropertyOp18
 70
     1
102
RTVSPropertyOp19
 70
     1
102
RTVSPropertyOp20
 70
     1
102
RTVSPropertyOp21
 70
     1
102
RTVSPropertyOp22
 70
     1
102
RTVSPropertyOp23
 70
     1
102
RTVSPropertyOp24
 70
     1
102
RTVSPropertyOp25
 70
     1
102
RTVSPropertyOp26
 70
     1
102
RTVSPropertyOp27
 70
     1
102
RTVSPropertyOp28
 70
     1
102
RTVSPropertyOp29
 70
     1
102
RTVSPropertyOp30
 70
     1
102
RTVSPropertyOp31
 70
     1
102
RTVSPropertyOp32
 70
     1
102
RTVSPropertyOp33
 70
     1
102
RTVSPropertyOp34
 70
     1
102
RTVSPropertyOp35
 70
     1
102
RTVSPropertyOp36
 70
     1
102
RTVSPropertyOp37
 70
     1
102
RTVSPropertyOp38
 70
     1
102
RTVSPropertyOp39
 70
     1
102
RTVSPropertyOp40
 70
     1
102
RTVSPropertyOp41
 70
     1
102
RTVSPropertyOp42
 70
     1
102
RTVSPropertyOp43
 70
     1
102
RTVSPropertyOp44
 70
     1
102
RTVSPropertyOp45
 70
     1
102
RTVSPropertyOp46
 70
     1
102
RTVSPropertyOp47
 70
     1
102
RTVSPropertyOp48
 70
     1
102
RTVSPropertyOp49
 70
     1
102
RTVSPropertyOp50
 70
     1
102
RTVSPropertyOp51
 70
     0
102
RTVSPropertyOp52
 70
     0
102
RTVSPropertyOp53
 70
     1
102
RTVSPropertyOp54
 70
     1
102
RTVSPropertyOp55
 70
     1
102
RTVSPropertyOp56
 70
     1
102
RTVSPropertyOp57
 70
     1
102
RTVSPropertyOp58
 70
     1
102
RTVSPropertyOp59
 70
     1
102
RTVSPropertyOp60
 70
     1
102
RTVSPropertyOp61
 70
     1
102
RTVSPropertyOp62
 70
     1
  0
XRECORD
  5
45F
102
{ACAD_REACTORS
330
45E
102
}
330
45E
100
AcDbXrecord
280
     1
102
RTVSPost2010Prop28
280
     0
102
RTVSPost2010PropOp28
 70
     1
102
RTVSPost2010Prop29
280
     1
102
RTVSPost2010PropOp29
 70
     1
102
RTVSPost2010Prop30
280
     1
102
RTVSPost2010PropOp30
 70
     1
102
RTVSPost2010Prop31
280
     0
102
RTVSPost2010PropOp31
 70
     1
102
RTVSPost2010Prop32
280
     0
102
RTVSPost2010PropOp32
 70
     1
102
RTVSPost2010Prop33
280
     0
102
RTVSPost2010PropOp33
 70
     1
102
RTVSPost2010Prop34
280
     0
102
RTVSPost2010PropOp34
 70
     1
102
RTVSPost2010Prop35
280
     0
102
RTVSPost2010PropOp35
 70
     1
102
RTVSPost2010Prop36
280
     0
102
RTVSPost2010PropOp36
 70
     1
102
RTVSPost2010Prop37
 90
       50
102
RTVSPost2010PropOp37
 70
     1
102
RTVSPost2010Prop38
140
0.0
102
RTVSPost2010PropOp38
 70
     1
102
RTVSPost2010Prop39
140
1.0
102
RTVSPost2010PropOp39
 70
     1
102
RTVSPost2010Prop40
 90
        0
102
RTVSPost2010PropOp40
 70
     1
102
RTVSPost2010Prop41ColorIndex
 90
       18
102
RTVSPost2010Prop41ColorRGB
 90
        0
102
RTVSPost2010PropOp41
 70
     1
102
RTVSPost2010Prop42
 90
       50
102
RTVSPost2010PropOp42
 70
     1
102
RTVSPost2010Prop43
 90
        3
102
RTVSPost2010PropOp43
 70
     1
102
RTVSPost2010Prop44ColorIndex
 90
        5
102
RTVSPost2010Prop44ColorRGB
 90
      255
102
RTVSPost2010PropOp44
 70
     1
102
RTVSPost2010Prop45
280
     0
102
RTVSPost2010PropOp45
 70
     1
102
RTVSPost2010Prop46
 90
       50
102
RTVSPost2010PropOp46
 70
     1
102
RTVSPost2010Prop47
 90
       50
102
RTVSPost2010PropOp47
 70
     1
102
RTVSPost2010Prop48
 90
       50
102
RTVSPost2010PropOp48
 70
     1
102
RTVSPost2010Prop49
280
     0
102
RTVSPost2010PropOp49
 70
     1
102
RTVSPost2010Prop50
 90
       50
102
RTVSPost2010PropOp50
 70
     1
102
RTVSPost2010Prop51ColorIndex
 90
      256
102
RTVSPost2010Prop51ColorRGB
 90
-16777216
102
RTVSPost2010PropOp51
 70
     0
102
RTVSPost2010Prop52
140
1.0
102
RTVSPost2010PropOp52
 70
     0
102
RTVSPost2010Prop53
 90
        2
102
RTVSPost2010PropOp53
 70
     1
102
RTVSPost2010Prop54
  1
strokes_ogs.tif
102
RTVSPost2010PropOp54
 70
     1
102
RTVSPost2010Prop55
280
     0
102
RTVSPost2010PropOp55
 70
     1
102
RTVSPost2010Prop56
140
1.0
102
RTVSPost2010PropOp56
 70
     1
102
RTVSPost2010Prop57
140
1.0
102
RTVSPost2010PropOp57
 70
     1
102
RTVSPropertyOp0
 70
     1
102
RTVSPropertyOp1
 70
     1
102
RTVSPropertyOp2
 70
     1
102
RTVSPropertyOp3
 70
     1
102
RTVSPropertyOp4
 70
     1
102
RTVSPropertyOp5
 70
     1
102
RTVSPropertyOp6
 70
     1
102
RTVSPropertyOp7
 70
     1
102
RTVSPropertyOp8
 70
     1
102
RTVSPropertyOp9
 70
     1
102
RTVSPropertyOp10
 70
     1
102
RTVSPropertyOp11
 70
     1
102
RTVSPropertyOp12
 70
     1
102
RTVSPropertyOp13
 70
     1
102
RTVSPropertyOp14
 70
     1
102
RTVSPropertyOp15
 70
     1
102
RTVSPropertyOp16
 70
     1
102
RTVSPropertyOp17
 70
     1
102
RTVSPropertyOp18
 70
     1
102
RTVSPropertyOp19
 70
     1
102
RTVSPropertyOp20
 70
     1
102
RTVSPropertyOp21
 70
     1
102
RTVSPropertyOp22
 70
     1
102
RTVSPropertyOp23
 70
     1
102
RTVSPropertyOp24
 70
     1
102
RTVSPropertyOp25
 70
     1
102
RTVSPropertyOp26
 70
     1
102
RTVSPropertyOp27
 70
     1
102
RTVSPropertyOp28
 70
     1
102
RTVSPropertyOp29
 70
     1
102
RTVSPropertyOp30
 70
     1
102
RTVSPropertyOp31
 70
     1
102
RTVSPropertyOp32
 70
     1
102
RTVSPropertyOp33
 70
     1
102
RTVSPropertyOp34
 70
     1
102
RTVSPropertyOp35
 70
     1
102
RTVSPropertyOp36
 70
     1
102
RTVSPropertyOp37
 70
     1
102
RTVSPropertyOp38
 70
     1
102
RTVSPropertyOp39
 70
     1
102
RTVSPropertyOp40
 70
     1
102
RTVSPropertyOp41
 70
     1
102
RTVSPropertyOp42
 70
     1
102
RTVSPropertyOp43
 70
     1
102
RTVSPropertyOp44
 70
     1
102
RTVSPropertyOp45
 70
     1
102
RTVSPropertyOp46
 70
     1
102
RTVSPropertyOp47
 70
     1
102
RTVSPropertyOp48
 70
     1
102
RTVSPropertyOp49
 70
     1
102
RTVSPropertyOp50
 70
     1
102
RTVSPropertyOp51
 70
     0
102
RTVSPropertyOp52
 70
     0
102
RTVSPropertyOp53
 70
     1
102
RTVSPropertyOp54
 70
     1
102
RTVSPropertyOp55
 70
     1
102
RTVSPropertyOp56
 70
     1
102
RTVSPropertyOp57
 70
     1
102
RTVSPropertyOp58
 70
     1
102
RTVSPropertyOp59
 70
     1
102
RTVSPropertyOp60
 70
     1
102
RTVSPropertyOp61
 70
     1
102
RTVSPropertyOp62
 70
     1
  0
XRECORD
  5
467
102
{ACAD_REACTORS
330
466
102
}
330
466
100
AcDbXrecord
280
     1
102
RTVSPost2010Prop28
280
     0
102
RTVSPost2010PropOp28
 70
     1
102
RTVSPost2010Prop29
280
     1
102
RTVSPost2010PropOp29
 70
     1
102
RTVSPost2010Prop30
280
     1
102
RTVSPost2010PropOp30
 70
     1
102
RTVSPost2010Prop31
280
     0
102
RTVSPost2010PropOp31
 70
     1
102
RTVSPost2010Prop32
280
     0
102
RTVSPost2010PropOp32
 70
     1
102
RTVSPost2010Prop33
280
     0
102
RTVSPost2010PropOp33
 70
     1
102
RTVSPost2010Prop34
280
     0
102
RTVSPost2010PropOp34
 70
     1
102
RTVSPost2010Prop35
280
     0
102
RTVSPost2010PropOp35
 70
     1
102
RTVSPost2010Prop36
280
     0
102
RTVSPost2010PropOp36
 70
     1
102
RTVSPost2010Prop37
 90
       50
102
RTVSPost2010PropOp37
 70
     1
102
RTVSPost2010Prop38
140
0.0
102
RTVSPost2010PropOp38
 70
     1
102
RTVSPost2010Prop39
140
1.0
102
RTVSPost2010PropOp39
 70
     1
102
RTVSPost2010Prop40
 90
        0
102
RTVSPost2010PropOp40
 70
     1
102
RTVSPost2010Prop41ColorIndex
 90
       18
102
RTVSPost2010Prop41ColorRGB
 90
        0
102
RTVSPost2010PropOp41
 70
     1
102
RTVSPost2010Prop42
 90
       50
102
RTVSPost2010PropOp42
 70
     1
102
RTVSPost2010Prop43
 90
        3
102
RTVSPost2010PropOp43
 70
     1
102
RTVSPost2010Prop44ColorIndex
 90
        5
102
RTVSPost2010Prop44ColorRGB
 90
      255
102
RTVSPost2010PropOp44
 70
     1
102
RTVSPost2010Prop45
280
     0
102
RTVSPost2010PropOp45
 70
     1
102
RTVSPost2010Prop46
 90
       50
102
RTVSPost2010PropOp46
 70
     1
102
RTVSPost2010Prop47
 90
       50
102
RTVSPost2010PropOp47
 70
     1
102
RTVSPost2010Prop48
 90
       50
102
RTVSPost2010PropOp48
 70
     1
102
RTVSPost2010Prop49
280
     0
102
RTVSPost2010PropOp49
 70
     1
102
RTVSPost2010Prop50
 90
       50
102
RTVSPost2010PropOp50
 70
     1
102
RTVSPost2010Prop51ColorIndex
 90
      256
102
RTVSPost2010Prop51ColorRGB
 90
-16777216
102
RTVSPost2010PropOp51
 70
     0
102
RTVSPost2010Prop52
140
1.0
102
RTVSPost2010PropOp52
 70
     0
102
RTVSPost2010Prop53
 90
        2
102
RTVSPost2010PropOp53
 70
     1
102
RTVSPost2010Prop54
  1
strokes_ogs.tif
102
RTVSPost2010PropOp54
 70
     1
102
RTVSPost2010Prop55
280
     0
102
RTVSPost2010PropOp55
 70
     1
102
RTVSPost2010Prop56
140
1.0
102
RTVSPost2010PropOp56
 70
     1
102
RTVSPost2010Prop57
140
1.0
102
RTVSPost2010PropOp57
 70
     1
102
RTVSPropertyOp0
 70
     1
102
RTVSPropertyOp1
 70
     1
102
RTVSPropertyOp2
 70
     1
102
RTVSPropertyOp3
 70
     1
102
RTVSPropertyOp4
 70
     1
102
RTVSPropertyOp5
 70
     1
102
RTVSPropertyOp6
 70
     1
102
RTVSPropertyOp7
 70
     1
102
RTVSPropertyOp8
 70
     1
102
RTVSPropertyOp9
 70
     1
102
RTVSPropertyOp10
 70
     1
102
RTVSPropertyOp11
 70
     1
102
RTVSPropertyOp12
 70
     1
102
RTVSPropertyOp13
 70
     1
102
RTVSPropertyOp14
 70
     1
102
RTVSPropertyOp15
 70
     1
102
RTVSPropertyOp16
 70
     1
102
RTVSPropertyOp17
 70
     1
102
RTVSPropertyOp18
 70
     1
102
RTVSPropertyOp19
 70
     1
102
RTVSPropertyOp20
 70
     1
102
RTVSPropertyOp21
 70
     1
102
RTVSPropertyOp22
 70
     1
102
RTVSPropertyOp23
 70
     1
102
RTVSPropertyOp24
 70
     1
102
RTVSPropertyOp25
 70
     1
102
RTVSPropertyOp26
 70
     1
102
RTVSPropertyOp27
 70
     1
102
RTVSPropertyOp28
 70
     1
102
RTVSPropertyOp29
 70
     1
102
RTVSPropertyOp30
 70
     1
102
RTVSPropertyOp31
 70
     1
102
RTVSPropertyOp32
 70
     1
102
RTVSPropertyOp33
 70
     1
102
RTVSPropertyOp34
 70
     1
102
RTVSPropertyOp35
 70
     1
102
RTVSPropertyOp36
 70
     1
102
RTVSPropertyOp37
 70
     1
102
RTVSPropertyOp38
 70
     1
102
RTVSPropertyOp39
 70
     1
102
RTVSPropertyOp40
 70
     1
102
RTVSPropertyOp41
 70
     1
102
RTVSPropertyOp42
 70
     1
102
RTVSPropertyOp43
 70
     1
102
RTVSPropertyOp44
 70
     1
102
RTVSPropertyOp45
 70
     1
102
RTVSPropertyOp46
 70
     1
102
RTVSPropertyOp47
 70
     1
102
RTVSPropertyOp48
 70
     1
102
RTVSPropertyOp49
 70
     1
102
RTVSPropertyOp50
 70
     1
102
RTVSPropertyOp51
 70
     0
102
RTVSPropertyOp52
 70
     0
102
RTVSPropertyOp53
 70
     1
102
RTVSPropertyOp54
 70
     1
102
RTVSPropertyOp55
 70
     1
102
RTVSPropertyOp56
 70
     1
102
RTVSPropertyOp57
 70
     1
102
RTVSPropertyOp58
 70
     1
102
RTVSPropertyOp59
 70
     1
102
RTVSPropertyOp60
 70
     1
102
RTVSPropertyOp61
 70
     1
102
RTVSPropertyOp62
 70
     1
  0
XRECORD
  5
459
102
{ACAD_REACTORS
330
458
102
}
330
458
100
AcDbXrecord
280
     1
102
RTVSPost2010Prop28
280
     0
102
RTVSPost2010PropOp28
 70
     1
102
RTVSPost2010Prop29
280
     1
102
RTVSPost2010PropOp29
 70
     1
102
RTVSPost2010Prop30
280
     1
102
RTVSPost2010PropOp30
 70
     1
102
RTVSPost2010Prop31
280
     0
102
RTVSPost2010PropOp31
 70
     1
102
RTVSPost2010Prop32
280
     0
102
RTVSPost2010PropOp32
 70
     1
102
RTVSPost2010Prop33
280
     0
102
RTVSPost2010PropOp33
 70
     1
102
RTVSPost2010Prop34
280
     0
102
RTVSPost2010PropOp34
 70
     1
102
RTVSPost2010Prop35
280
     0
102
RTVSPost2010PropOp35
 70
     1
102
RTVSPost2010Prop36
280
     0
102
RTVSPost2010PropOp36
 70
     1
102
RTVSPost2010Prop37
 90
       50
102
RTVSPost2010PropOp37
 70
     1
102
RTVSPost2010Prop38
140
0.0
102
RTVSPost2010PropOp38
 70
     1
102
RTVSPost2010Prop39
140
1.0
102
RTVSPost2010PropOp39
 70
     1
102
RTVSPost2010Prop40
 90
        0
102
RTVSPost2010PropOp40
 70
     1
102
RTVSPost2010Prop41ColorIndex
 90
       18
102
RTVSPost2010Prop41ColorRGB
 90
        0
102
RTVSPost2010PropOp41
 70
     1
102
RTVSPost2010Prop42
 90
       50
102
RTVSPost2010PropOp42
 70
     1
102
RTVSPost2010Prop43
 90
        3
102
RTVSPost2010PropOp43
 70
     1
102
RTVSPost2010Prop44ColorIndex
 90
        5
102
RTVSPost2010Prop44ColorRGB
 90
      255
102
RTVSPost2010PropOp44
 70
     1
102
RTVSPost2010Prop45
280
     0
102
RTVSPost2010PropOp45
 70
     1
102
RTVSPost2010Prop46
 90
       50
102
RTVSPost2010PropOp46
 70
     1
102
RTVSPost2010Prop47
 90
       50
102
RTVSPost2010PropOp47
 70
     1
102
RTVSPost2010Prop48
 90
       50
102
RTVSPost2010PropOp48
 70
     1
102
RTVSPost2010Prop49
280
     0
102
RTVSPost2010PropOp49
 70
     1
102
RTVSPost2010Prop50
 90
       50
102
RTVSPost2010PropOp50
 70
     1
102
RTVSPost2010Prop51ColorIndex
 90
      256
102
RTVSPost2010Prop51ColorRGB
 90
-16777216
102
RTVSPost2010PropOp51
 70
     0
102
RTVSPost2010Prop52
140
1.0
102
RTVSPost2010PropOp52
 70
     0
102
RTVSPost2010Prop53
 90
        2
102
RTVSPost2010PropOp53
 70
     1
102
RTVSPost2010Prop54
  1
strokes_ogs.tif
102
RTVSPost2010PropOp54
 70
     1
102
RTVSPost2010Prop55
280
     0
102
RTVSPost2010PropOp55
 70
     1
102
RTVSPost2010Prop56
140
1.0
102
RTVSPost2010PropOp56
 70
     1
102
RTVSPost2010Prop57
140
1.0
102
RTVSPost2010PropOp57
 70
     1
102
RTVSPropertyOp0
 70
     1
102
RTVSPropertyOp1
 70
     1
102
RTVSPropertyOp2
 70
     1
102
RTVSPropertyOp3
 70
     1
102
RTVSPropertyOp4
 70
     1
102
RTVSPropertyOp5
 70
     1
102
RTVSPropertyOp6
 70
     1
102
RTVSPropertyOp7
 70
     1
102
RTVSPropertyOp8
 70
     1
102
RTVSPropertyOp9
 70
     1
102
RTVSPropertyOp10
 70
     1
102
RTVSPropertyOp11
 70
     1
102
RTVSPropertyOp12
 70
     1
102
RTVSPropertyOp13
 70
     1
102
RTVSPropertyOp14
 70
     1
102
RTVSPropertyOp15
 70
     1
102
RTVSPropertyOp16
 70
     1
102
RTVSPropertyOp17
 70
     1
102
RTVSPropertyOp18
 70
     1
102
RTVSPropertyOp19
 70
     1
102
RTVSPropertyOp20
 70
     1
102
RTVSPropertyOp21
 70
     1
102
RTVSPropertyOp22
 70
     1
102
RTVSPropertyOp23
 70
     1
102
RTVSPropertyOp24
 70
     1
102
RTVSPropertyOp25
 70
     1
102
RTVSPropertyOp26
 70
     1
102
RTVSPropertyOp27
 70
     1
102
RTVSPropertyOp28
 70
     1
102
RTVSPropertyOp29
 70
     1
102
RTVSPropertyOp30
 70
     1
102
RTVSPropertyOp31
 70
     1
102
RTVSPropertyOp32
 70
     1
102
RTVSPropertyOp33
 70
     1
102
RTVSPropertyOp34
 70
     1
102
RTVSPropertyOp35
 70
     1
102
RTVSPropertyOp36
 70
     1
102
RTVSPropertyOp37
 70
     1
102
RTVSPropertyOp38
 70
     1
102
RTVSPropertyOp39
 70
     1
102
RTVSPropertyOp40
 70
     1
102
RTVSPropertyOp41
 70
     1
102
RTVSPropertyOp42
 70
     1
102
RTVSPropertyOp43
 70
     1
102
RTVSPropertyOp44
 70
     1
102
RTVSPropertyOp45
 70
     1
102
RTVSPropertyOp46
 70
     1
102
RTVSPropertyOp47
 70
     1
102
RTVSPropertyOp48
 70
     1
102
RTVSPropertyOp49
 70
     1
102
RTVSPropertyOp50
 70
     1
102
RTVSPropertyOp51
 70
     0
102
RTVSPropertyOp52
 70
     0
102
RTVSPropertyOp53
 70
     1
102
RTVSPropertyOp54
 70
     1
102
RTVSPropertyOp55
 70
     1
102
RTVSPropertyOp56
 70
     1
102
RTVSPropertyOp57
 70
     1
102
RTVSPropertyOp58
 70
     1
102
RTVSPropertyOp59
 70
     1
102
RTVSPropertyOp60
 70
     1
102
RTVSPropertyOp61
 70
     1
102
RTVSPropertyOp62
 70
     1
  0
XRECORD
  5
45D
102
{ACAD_REACTORS
330
45C
102
}
330
45C
100
AcDbXrecord
280
     1
102
RTVSPost2010Prop28
280
     0
102
RTVSPost2010PropOp28
 70
     1
102
RTVSPost2010Prop29
280
     1
102
RTVSPost2010PropOp29
 70
     1
102
RTVSPost2010Prop30
280
     1
102
RTVSPost2010PropOp30
 70
     1
102
RTVSPost2010Prop31
280
     0
102
RTVSPost2010PropOp31
 70
     1
102
RTVSPost2010Prop32
280
     0
102
RTVSPost2010PropOp32
 70
     1
102
RTVSPost2010Prop33
280
     0
102
RTVSPost2010PropOp33
 70
     1
102
RTVSPost2010Prop34
280
     0
102
RTVSPost2010PropOp34
 70
     1
102
RTVSPost2010Prop35
280
     0
102
RTVSPost2010PropOp35
 70
     1
102
RTVSPost2010Prop36
280
     0
102
RTVSPost2010PropOp36
 70
     1
102
RTVSPost2010Prop37
 90
       50
102
RTVSPost2010PropOp37
 70
     1
102
RTVSPost2010Prop38
140
0.0
102
RTVSPost2010PropOp38
 70
     1
102
RTVSPost2010Prop39
140
1.0
102
RTVSPost2010PropOp39
 70
     1
102
RTVSPost2010Prop40
 90
        0
102
RTVSPost2010PropOp40
 70
     1
102
RTVSPost2010Prop41ColorIndex
 90
       18
102
RTVSPost2010Prop41ColorRGB
 90
        0
102
RTVSPost2010PropOp41
 70
     1
102
RTVSPost2010Prop42
 90
       50
102
RTVSPost2010PropOp42
 70
     1
102
RTVSPost2010Prop43
 90
        3
102
RTVSPost2010PropOp43
 70
     1
102
RTVSPost2010Prop44ColorIndex
 90
        5
102
RTVSPost2010Prop44ColorRGB
 90
      255
102
RTVSPost2010PropOp44
 70
     1
102
RTVSPost2010Prop45
280
     0
102
RTVSPost2010PropOp45
 70
     1
102
RTVSPost2010Prop46
 90
       50
102
RTVSPost2010PropOp46
 70
     1
102
RTVSPost2010Prop47
 90
       50
102
RTVSPost2010PropOp47
 70
     1
102
RTVSPost2010Prop48
 90
       50
102
RTVSPost2010PropOp48
 70
     1
102
RTVSPost2010Prop49
280
     0
102
RTVSPost2010PropOp49
 70
     1
102
RTVSPost2010Prop50
 90
       50
102
RTVSPost2010PropOp50
 70
     1
102
RTVSPost2010Prop51ColorIndex
 90
      256
102
RTVSPost2010Prop51ColorRGB
 90
-16777216
102
RTVSPost2010PropOp51
 70
     0
102
RTVSPost2010Prop52
140
1.0
102
RTVSPost2010PropOp52
 70
     0
102
RTVSPost2010Prop53
 90
        2
102
RTVSPost2010PropOp53
 70
     1
102
RTVSPost2010Prop54
  1
strokes_ogs.tif
102
RTVSPost2010PropOp54
 70
     1
102
RTVSPost2010Prop55
280
     0
102
RTVSPost2010PropOp55
 70
     1
102
RTVSPost2010Prop56
140
1.0
102
RTVSPost2010PropOp56
 70
     1
102
RTVSPost2010Prop57
140
1.0
102
RTVSPost2010PropOp57
 70
     1
102
RTVSPropertyOp0
 70
     1
102
RTVSPropertyOp1
 70
     1
102
RTVSPropertyOp2
 70
     1
102
RTVSPropertyOp3
 70
     1
102
RTVSPropertyOp4
 70
     1
102
RTVSPropertyOp5
 70
     1
102
RTVSPropertyOp6
 70
     1
102
RTVSPropertyOp7
 70
     1
102
RTVSPropertyOp8
 70
     1
102
RTVSPropertyOp9
 70
     1
102
RTVSPropertyOp10
 70
     1
102
RTVSPropertyOp11
 70
     1
102
RTVSPropertyOp12
 70
     1
102
RTVSPropertyOp13
 70
     1
102
RTVSPropertyOp14
 70
     1
102
RTVSPropertyOp15
 70
     1
102
RTVSPropertyOp16
 70
     1
102
RTVSPropertyOp17
 70
     1
102
RTVSPropertyOp18
 70
     1
102
RTVSPropertyOp19
 70
     1
102
RTVSPropertyOp20
 70
     1
102
RTVSPropertyOp21
 70
     1
102
RTVSPropertyOp22
 70
     1
102
RTVSPropertyOp23
 70
     1
102
RTVSPropertyOp24
 70
     1
102
RTVSPropertyOp25
 70
     1
102
RTVSPropertyOp26
 70
     1
102
RTVSPropertyOp27
 70
     1
102
RTVSPropertyOp28
 70
     1
102
RTVSPropertyOp29
 70
     1
102
RTVSPropertyOp30
 70
     1
102
RTVSPropertyOp31
 70
     1
102
RTVSPropertyOp32
 70
     1
102
RTVSPropertyOp33
 70
     1
102
RTVSPropertyOp34
 70
     1
102
RTVSPropertyOp35
 70
     1
102
RTVSPropertyOp36
 70
     1
102
RTVSPropertyOp37
 70
     1
102
RTVSPropertyOp38
 70
     1
102
RTVSPropertyOp39
 70
     1
102
RTVSPropertyOp40
 70
     1
102
RTVSPropertyOp41
 70
     1
102
RTVSPropertyOp42
 70
     1
102
RTVSPropertyOp43
 70
     1
102
RTVSPropertyOp44
 70
     1
102
RTVSPropertyOp45
 70
     1
102
RTVSPropertyOp46
 70
     1
102
RTVSPropertyOp47
 70
     1
102
RTVSPropertyOp48
 70
     1
102
RTVSPropertyOp49
 70
     1
102
RTVSPropertyOp50
 70
     1
102
RTVSPropertyOp51
 70
     0
102
RTVSPropertyOp52
 70
     0
102
RTVSPropertyOp53
 70
     1
102
RTVSPropertyOp54
 70
     1
102
RTVSPropertyOp55
 70
     1
102
RTVSPropertyOp56
 70
     1
102
RTVSPropertyOp57
 70
     1
102
RTVSPropertyOp58
 70
     1
102
RTVSPropertyOp59
 70
     1
102
RTVSPropertyOp60
 70
     1
102
RTVSPropertyOp61
 70
     1
102
RTVSPropertyOp62
 70
     1
  0
XRECORD
  5
477
102
{ACAD_REACTORS
330
476
102
}
330
476
100
AcDbXrecord
280
     1
102
RTVSPost2010Prop28
280
     0
102
RTVSPost2010PropOp28
 70
     1
102
RTVSPost2010Prop29
280
     1
102
RTVSPost2010PropOp29
 70
     1
102
RTVSPost2010Prop30
280
     1
102
RTVSPost2010PropOp30
 70
     1
102
RTVSPost2010Prop31
280
     0
102
RTVSPost2010PropOp31
 70
     1
102
RTVSPost2010Prop32
280
     0
102
RTVSPost2010PropOp32
 70
     1
102
RTVSPost2010Prop33
280
     0
102
RTVSPost2010PropOp33
 70
     1
102
RTVSPost2010Prop34
280
     0
102
RTVSPost2010PropOp34
 70
     1
102
RTVSPost2010Prop35
280
     0
102
RTVSPost2010PropOp35
 70
     1
102
RTVSPost2010Prop36
280
     0
102
RTVSPost2010PropOp36
 70
     1
102
RTVSPost2010Prop37
 90
       50
102
RTVSPost2010PropOp37
 70
     0
102
RTVSPost2010Prop38
140
0.0
102
RTVSPost2010PropOp38
 70
     0
102
RTVSPost2010Prop39
140
1.0
102
RTVSPost2010PropOp39
 70
     0
102
RTVSPost2010Prop40
 90
        0
102
RTVSPost2010PropOp40
 70
     0
102
RTVSPost2010Prop41ColorIndex
 90
       18
102
RTVSPost2010Prop41ColorRGB
 90
        0
102
RTVSPost2010PropOp41
 70
     0
102
RTVSPost2010Prop42
 90
       50
102
RTVSPost2010PropOp42
 70
     0
102
RTVSPost2010Prop43
 90
        3
102
RTVSPost2010PropOp43
 70
     0
102
RTVSPost2010Prop44ColorIndex
 90
        5
102
RTVSPost2010Prop44ColorRGB
 90
      255
102
RTVSPost2010PropOp44
 70
     0
102
RTVSPost2010Prop45
280
     0
102
RTVSPost2010PropOp45
 70
     1
102
RTVSPost2010Prop46
 90
       50
102
RTVSPost2010PropOp46
 70
     0
102
RTVSPost2010Prop47
 90
       50
102
RTVSPost2010PropOp47
 70
     0
102
RTVSPost2010Prop48
 90
       50
102
RTVSPost2010PropOp48
 70
     0
102
RTVSPost2010Prop49
280
     0
102
RTVSPost2010PropOp49
 70
     1
102
RTVSPost2010Prop50
 90
       50
102
RTVSPost2010PropOp50
 70
     0
102
RTVSPost2010Prop51ColorIndex
 90
      256
102
RTVSPost2010Prop51ColorRGB
 90
-16777216
102
RTVSPost2010PropOp51
 70
     0
102
RTVSPost2010Prop52
140
1.0
102
RTVSPost2010PropOp52
 70
     0
102
RTVSPost2010Prop53
 90
        2
102
RTVSPost2010PropOp53
 70
     0
102
RTVSPost2010Prop54
  1
strokes_ogs.tif
102
RTVSPost2010PropOp54
 70
     0
102
RTVSPost2010Prop55
280
     0
102
RTVSPost2010PropOp55
 70
     1
102
RTVSPost2010Prop56
140
1.0
102
RTVSPost2010PropOp56
 70
     0
102
RTVSPost2010Prop57
140
1.0
102
RTVSPost2010PropOp57
 70
     0
102
RTVSPropertyOp0
 70
     0
102
RTVSPropertyOp1
 70
     0
102
RTVSPropertyOp2
 70
     0
102
RTVSPropertyOp3
 70
     0
102
RTVSPropertyOp4
 70
     0
102
RTVSPropertyOp5
 70
     0
102
RTVSPropertyOp6
 70
     0
102
RTVSPropertyOp7
 70
     0
102
RTVSPropertyOp8
 70
     0
102
RTVSPropertyOp9
 70
     0
102
RTVSPropertyOp10
 70
     0
102
RTVSPropertyOp11
 70
     0
102
RTVSPropertyOp12
 70
     0
102
RTVSPropertyOp13
 70
     0
102
RTVSPropertyOp14
 70
     2
102
RTVSPropertyOp15
 70
     0
102
RTVSPropertyOp16
 70
     0
102
RTVSPropertyOp17
 70
     0
102
RTVSPropertyOp18
 70
     0
102
RTVSPropertyOp19
 70
     0
102
RTVSPropertyOp20
 70
     0
102
RTVSPropertyOp21
 70
     0
102
RTVSPropertyOp22
 70
     0
102
RTVSPropertyOp23
 70
     0
102
RTVSPropertyOp24
 70
     0
102
RTVSPropertyOp25
 70
     0
102
RTVSPropertyOp26
 70
     0
102
RTVSPropertyOp27
 70
     0
102
RTVSPropertyOp28
 70
     1
102
RTVSPropertyOp29
 70
     1
102
RTVSPropertyOp30
 70
     1
102
RTVSPropertyOp31
 70
     1
102
RTVSPropertyOp32
 70
     1
102
RTVSPropertyOp33
 70
     1
102
RTVSPropertyOp34
 70
     1
102
RTVSPropertyOp35
 70
     1
102
RTVSPropertyOp36
 70
     1
102
RTVSPropertyOp37
 70
     0
102
RTVSPropertyOp38
 70
     0
102
RTVSPropertyOp39
 70
     0
102
RTVSPropertyOp40
 70
     0
102
RTVSPropertyOp41
 70
     0
102
RTVSPropertyOp42
 70
     0
102
RTVSPropertyOp43
 70
     0
102
RTVSPropertyOp44
 70
     0
102
RTVSPropertyOp45
 70
     1
102
RTVSPropertyOp46
 70
     0
102
RTVSPropertyOp47
 70
     0
102
RTVSPropertyOp48
 70
     0
102
RTVSPropertyOp49
 70
     1
102
RTVSPropertyOp50
 70
     0
102
RTVSPropertyOp51
 70
     0
102
RTVSPropertyOp52
 70
     0
102
RTVSPropertyOp53
 70
     0
102
RTVSPropertyOp54
 70
     0
102
RTVSPropertyOp55
 70
     1
102
RTVSPropertyOp56
 70
     0
102
RTVSPropertyOp57
 70
     0
102
RTVSPropertyOp58
 70
     0
102
RTVSPropertyOp59
 70
     0
102
RTVSPropertyOp60
 70
     0
102
RTVSPropertyOp61
 70
     0
102
RTVSPropertyOp62
 70
     0
  0
XRECORD
  5
465
102
{ACAD_REACTORS
330
464
102
}
330
464
100
AcDbXrecord
280
     1
102
RTVSPost2010Prop28
280
     0
102
RTVSPost2010PropOp28
 70
     1
102
RTVSPost2010Prop29
280
     1
102
RTVSPost2010PropOp29
 70
     1
102
RTVSPost2010Prop30
280
     1
102
RTVSPost2010PropOp30
 70
     1
102
RTVSPost2010Prop31
280
     0
102
RTVSPost2010PropOp31
 70
     1
102
RTVSPost2010Prop32
280
     0
102
RTVSPost2010PropOp32
 70
     1
102
RTVSPost2010Prop33
280
     0
102
RTVSPost2010PropOp33
 70
     1
102
RTVSPost2010Prop34
280
     0
102
RTVSPost2010PropOp34
 70
     1
102
RTVSPost2010Prop35
280
     0
102
RTVSPost2010PropOp35
 70
     1
102
RTVSPost2010Prop36
280
     0
102
RTVSPost2010PropOp36
 70
     1
102
RTVSPost2010Prop37
 90
       50
102
RTVSPost2010PropOp37
 70
     1
102
RTVSPost2010Prop38
140
0.0
102
RTVSPost2010PropOp38
 70
     1
102
RTVSPost2010Prop39
140
1.0
102
RTVSPost2010PropOp39
 70
     1
102
RTVSPost2010Prop40
 90
        0
102
RTVSPost2010PropOp40
 70
     1
102
RTVSPost2010Prop41ColorIndex
 90
       18
102
RTVSPost2010Prop41ColorRGB
 90
        0
102
RTVSPost2010PropOp41
 70
     1
102
RTVSPost2010Prop42
 90
       50
102
RTVSPost2010PropOp42
 70
     1
102
RTVSPost2010Prop43
 90
        3
102
RTVSPost2010PropOp43
 70
     1
102
RTVSPost2010Prop44ColorIndex
 90
        5
102
RTVSPost2010Prop44ColorRGB
 90
      255
102
RTVSPost2010PropOp44
 70
     1
102
RTVSPost2010Prop45
280
     0
102
RTVSPost2010PropOp45
 70
     1
102
RTVSPost2010Prop46
 90
       50
102
RTVSPost2010PropOp46
 70
     1
102
RTVSPost2010Prop47
 90
       50
102
RTVSPost2010PropOp47
 70
     1
102
RTVSPost2010Prop48
 90
       50
102
RTVSPost2010PropOp48
 70
     1
102
RTVSPost2010Prop49
280
     0
102
RTVSPost2010PropOp49
 70
     1
102
RTVSPost2010Prop50
 90
       50
102
RTVSPost2010PropOp50
 70
     1
102
RTVSPost2010Prop51ColorIndex
 90
      256
102
RTVSPost2010Prop51ColorRGB
 90
-16777216
102
RTVSPost2010PropOp51
 70
     0
102
RTVSPost2010Prop52
140
1.0
102
RTVSPost2010PropOp52
 70
     0
102
RTVSPost2010Prop53
 90
        2
102
RTVSPost2010PropOp53
 70
     1
102
RTVSPost2010Prop54
  1
strokes_ogs.tif
102
RTVSPost2010PropOp54
 70
     1
102
RTVSPost2010Prop55
280
     0
102
RTVSPost2010PropOp55
 70
     1
102
RTVSPost2010Prop56
140
1.0
102
RTVSPost2010PropOp56
 70
     1
102
RTVSPost2010Prop57
140
1.0
102
RTVSPost2010PropOp57
 70
     1
102
RTVSPropertyOp0
 70
     1
102
RTVSPropertyOp1
 70
     1
102
RTVSPropertyOp2
 70
     1
102
RTVSPropertyOp3
 70
     1
102
RTVSPropertyOp4
 70
     1
102
RTVSPropertyOp5
 70
     1
102
RTVSPropertyOp6
 70
     1
102
RTVSPropertyOp7
 70
     1
102
RTVSPropertyOp8
 70
     1
102
RTVSPropertyOp9
 70
     1
102
RTVSPropertyOp10
 70
     1
102
RTVSPropertyOp11
 70
     1
102
RTVSPropertyOp12
 70
     1
102
RTVSPropertyOp13
 70
     1
102
RTVSPropertyOp14
 70
     1
102
RTVSPropertyOp15
 70
     1
102
RTVSPropertyOp16
 70
     1
102
RTVSPropertyOp17
 70
     1
102
RTVSPropertyOp18
 70
     1
102
RTVSPropertyOp19
 70
     1
102
RTVSPropertyOp20
 70
     1
102
RTVSPropertyOp21
 70
     1
102
RTVSPropertyOp22
 70
     1
102
RTVSPropertyOp23
 70
     1
102
RTVSPropertyOp24
 70
     1
102
RTVSPropertyOp25
 70
     1
102
RTVSPropertyOp26
 70
     1
102
RTVSPropertyOp27
 70
     1
102
RTVSPropertyOp28
 70
     1
102
RTVSPropertyOp29
 70
     1
102
RTVSPropertyOp30
 70
     1
102
RTVSPropertyOp31
 70
     1
102
RTVSPropertyOp32
 70
     1
102
RTVSPropertyOp33
 70
     1
102
RTVSPropertyOp34
 70
     1
102
RTVSPropertyOp35
 70
     1
102
RTVSPropertyOp36
 70
     1
102
RTVSPropertyOp37
 70
     1
102
RTVSPropertyOp38
 70
     1
102
RTVSPropertyOp39
 70
     1
102
RTVSPropertyOp40
 70
     1
102
RTVSPropertyOp41
 70
     1
102
RTVSPropertyOp42
 70
     1
102
RTVSPropertyOp43
 70
     1
102
RTVSPropertyOp44
 70
     1
102
RTVSPropertyOp45
 70
     1
102
RTVSPropertyOp46
 70
     1
102
RTVSPropertyOp47
 70
     1
102
RTVSPropertyOp48
 70
     1
102
RTVSPropertyOp49
 70
     1
102
RTVSPropertyOp50
 70
     1
102
RTVSPropertyOp51
 70
     0
102
RTVSPropertyOp52
 70
     0
102
RTVSPropertyOp53
 70
     1
102
RTVSPropertyOp54
 70
     1
102
RTVSPropertyOp55
 70
     1
102
RTVSPropertyOp56
 70
     1
102
RTVSPropertyOp57
 70
     1
102
RTVSPropertyOp58
 70
     1
102
RTVSPropertyOp59
 70
     1
102
RTVSPropertyOp60
 70
     1
102
RTVSPropertyOp61
 70
     1
102
RTVSPropertyOp62
 70
     1
  0
XRECORD
  5
449
102
{ACAD_REACTORS
330
448
102
}
330
448
100
AcDbXrecord
280
     1
102
RTVSPost2010Prop28
280
     0
102
RTVSPost2010PropOp28
 70
     1
102
RTVSPost2010Prop29
280
     1
102
RTVSPost2010PropOp29
 70
     1
102
RTVSPost2010Prop30
280
     1
102
RTVSPost2010PropOp30
 70
     1
102
RTVSPost2010Prop31
280
     0
102
RTVSPost2010PropOp31
 70
     1
102
RTVSPost2010Prop32
280
     0
102
RTVSPost2010PropOp32
 70
     1
102
RTVSPost2010Prop33
280
     0
102
RTVSPost2010PropOp33
 70
     1
102
RTVSPost2010Prop34
280
     0
102
RTVSPost2010PropOp34
 70
     1
102
RTVSPost2010Prop35
280
     0
102
RTVSPost2010PropOp35
 70
     1
102
RTVSPost2010Prop36
280
     0
102
RTVSPost2010PropOp36
 70
     1
102
RTVSPost2010Prop37
 90
       50
102
RTVSPost2010PropOp37
 70
     1
102
RTVSPost2010Prop38
140
0.0
102
RTVSPost2010PropOp38
 70
     1
102
RTVSPost2010Prop39
140
1.0
102
RTVSPost2010PropOp39
 70
     1
102
RTVSPost2010Prop40
 90
        0
102
RTVSPost2010PropOp40
 70
     1
102
RTVSPost2010Prop41ColorIndex
 90
       18
102
RTVSPost2010Prop41ColorRGB
 90
        0
102
RTVSPost2010PropOp41
 70
     1
102
RTVSPost2010Prop42
 90
       50
102
RTVSPost2010PropOp42
 70
     1
102
RTVSPost2010Prop43
 90
        3
102
RTVSPost2010PropOp43
 70
     1
102
RTVSPost2010Prop44ColorIndex
 90
        5
102
RTVSPost2010Prop44ColorRGB
 90
      255
102
RTVSPost2010PropOp44
 70
     1
102
RTVSPost2010Prop45
280
     0
102
RTVSPost2010PropOp45
 70
     1
102
RTVSPost2010Prop46
 90
       50
102
RTVSPost2010PropOp46
 70
     1
102
RTVSPost2010Prop47
 90
       50
102
RTVSPost2010PropOp47
 70
     1
102
RTVSPost2010Prop48
 90
       50
102
RTVSPost2010PropOp48
 70
     1
102
RTVSPost2010Prop49
280
     0
102
RTVSPost2010PropOp49
 70
     1
102
RTVSPost2010Prop50
 90
       50
102
RTVSPost2010PropOp50
 70
     1
102
RTVSPost2010Prop51ColorIndex
 90
      256
102
RTVSPost2010Prop51ColorRGB
 90
-16777216
102
RTVSPost2010PropOp51
 70
     0
102
RTVSPost2010Prop52
140
1.0
102
RTVSPost2010PropOp52
 70
     0
102
RTVSPost2010Prop53
 90
        2
102
RTVSPost2010PropOp53
 70
     1
102
RTVSPost2010Prop54
  1
strokes_ogs.tif
102
RTVSPost2010PropOp54
 70
     1
102
RTVSPost2010Prop55
280
     0
102
RTVSPost2010PropOp55
 70
     1
102
RTVSPost2010Prop56
140
1.0
102
RTVSPost2010PropOp56
 70
     1
102
RTVSPost2010Prop57
140
1.0
102
RTVSPost2010PropOp57
 70
     1
102
RTVSPropertyOp0
 70
     1
102
RTVSPropertyOp1
 70
     1
102
RTVSPropertyOp2
 70
     1
102
RTVSPropertyOp3
 70
     1
102
RTVSPropertyOp4
 70
     1
102
RTVSPropertyOp5
 70
     1
102
RTVSPropertyOp6
 70
     1
102
RTVSPropertyOp7
 70
     1
102
RTVSPropertyOp8
 70
     1
102
RTVSPropertyOp9
 70
     1
102
RTVSPropertyOp10
 70
     1
102
RTVSPropertyOp11
 70
     1
102
RTVSPropertyOp12
 70
     1
102
RTVSPropertyOp13
 70
     1
102
RTVSPropertyOp14
 70
     1
102
RTVSPropertyOp15
 70
     1
102
RTVSPropertyOp16
 70
     1
102
RTVSPropertyOp17
 70
     1
102
RTVSPropertyOp18
 70
     1
102
RTVSPropertyOp19
 70
     1
102
RTVSPropertyOp20
 70
     1
102
RTVSPropertyOp21
 70
     1
102
RTVSPropertyOp22
 70
     1
102
RTVSPropertyOp23
 70
     1
102
RTVSPropertyOp24
 70
     1
102
RTVSPropertyOp25
 70
     1
102
RTVSPropertyOp26
 70
     1
102
RTVSPropertyOp27
 70
     1
102
RTVSPropertyOp28
 70
     1
102
RTVSPropertyOp29
 70
     1
102
RTVSPropertyOp30
 70
     1
102
RTVSPropertyOp31
 70
     1
102
RTVSPropertyOp32
 70
     1
102
RTVSPropertyOp33
 70
     1
102
RTVSPropertyOp34
 70
     1
102
RTVSPropertyOp35
 70
     1
102
RTVSPropertyOp36
 70
     1
102
RTVSPropertyOp37
 70
     1
102
RTVSPropertyOp38
 70
     1
102
RTVSPropertyOp39
 70
     1
102
RTVSPropertyOp40
 70
     1
102
RTVSPropertyOp41
 70
     1
102
RTVSPropertyOp42
 70
     1
102
RTVSPropertyOp43
 70
     1
102
RTVSPropertyOp44
 70
     1
102
RTVSPropertyOp45
 70
     1
102
RTVSPropertyOp46
 70
     1
102
RTVSPropertyOp47
 70
     1
102
RTVSPropertyOp48
 70
     1
102
RTVSPropertyOp49
 70
     1
102
RTVSPropertyOp50
 70
     1
102
RTVSPropertyOp51
 70
     0
102
RTVSPropertyOp52
 70
     0
102
RTVSPropertyOp53
 70
     1
102
RTVSPropertyOp54
 70
     1
102
RTVSPropertyOp55
 70
     1
102
RTVSPropertyOp56
 70
     1
102
RTVSPropertyOp57
 70
     1
102
RTVSPropertyOp58
 70
     1
102
RTVSPropertyOp59
 70
     1
102
RTVSPropertyOp60
 70
     1
102
RTVSPropertyOp61
 70
     1
102
RTVSPropertyOp62
 70
     1
  0
XRECORD
  5
44B
102
{ACAD_REACTORS
330
44A
102
}
330
44A
100
AcDbXrecord
280
     1
102
RTVSPost2010Prop28
280
     0
102
RTVSPost2010PropOp28
 70
     1
102
RTVSPost2010Prop29
280
     1
102
RTVSPost2010PropOp29
 70
     1
102
RTVSPost2010Prop30
280
     1
102
RTVSPost2010PropOp30
 70
     1
102
RTVSPost2010Prop31
280
     0
102
RTVSPost2010PropOp31
 70
     1
102
RTVSPost2010Prop32
280
     0
102
RTVSPost2010PropOp32
 70
     1
102
RTVSPost2010Prop33
280
     0
102
RTVSPost2010PropOp33
 70
     1
102
RTVSPost2010Prop34
280
     0
102
RTVSPost2010PropOp34
 70
     1
102
RTVSPost2010Prop35
280
     0
102
RTVSPost2010PropOp35
 70
     1
102
RTVSPost2010Prop36
280
     0
102
RTVSPost2010PropOp36
 70
     1
102
RTVSPost2010Prop37
 90
       50
102
RTVSPost2010PropOp37
 70
     1
102
RTVSPost2010Prop38
140
0.0
102
RTVSPost2010PropOp38
 70
     1
102
RTVSPost2010Prop39
140
1.0
102
RTVSPost2010PropOp39
 70
     1
102
RTVSPost2010Prop40
 90
        0
102
RTVSPost2010PropOp40
 70
     1
102
RTVSPost2010Prop41ColorIndex
 90
       18
102
RTVSPost2010Prop41ColorRGB
 90
        0
102
RTVSPost2010PropOp41
 70
     1
102
RTVSPost2010Prop42
 90
       50
102
RTVSPost2010PropOp42
 70
     1
102
RTVSPost2010Prop43
 90
        3
102
RTVSPost2010PropOp43
 70
     1
102
RTVSPost2010Prop44ColorIndex
 90
        5
102
RTVSPost2010Prop44ColorRGB
 90
      255
102
RTVSPost2010PropOp44
 70
     1
102
RTVSPost2010Prop45
280
     0
102
RTVSPost2010PropOp45
 70
     1
102
RTVSPost2010Prop46
 90
       50
102
RTVSPost2010PropOp46
 70
     1
102
RTVSPost2010Prop47
 90
       50
102
RTVSPost2010PropOp47
 70
     1
102
RTVSPost2010Prop48
 90
       50
102
RTVSPost2010PropOp48
 70
     1
102
RTVSPost2010Prop49
280
     0
102
RTVSPost2010PropOp49
 70
     1
102
RTVSPost2010Prop50
 90
       50
102
RTVSPost2010PropOp50
 70
     1
102
RTVSPost2010Prop51ColorIndex
 90
      256
102
RTVSPost2010Prop51ColorRGB
 90
-16777216
102
RTVSPost2010PropOp51
 70
     0
102
RTVSPost2010Prop52
140
1.0
102
RTVSPost2010PropOp52
 70
     0
102
RTVSPost2010Prop53
 90
        2
102
RTVSPost2010PropOp53
 70
     1
102
RTVSPost2010Prop54
  1
strokes_ogs.tif
102
RTVSPost2010PropOp54
 70
     1
102
RTVSPost2010Prop55
280
     0
102
RTVSPost2010PropOp55
 70
     1
102
RTVSPost2010Prop56
140
1.0
102
RTVSPost2010PropOp56
 70
     1
102
RTVSPost2010Prop57
140
1.0
102
RTVSPost2010PropOp57
 70
     1
102
RTVSPropertyOp0
 70
     1
102
RTVSPropertyOp1
 70
     1
102
RTVSPropertyOp2
 70
     1
102
RTVSPropertyOp3
 70
     1
102
RTVSPropertyOp4
 70
     1
102
RTVSPropertyOp5
 70
     1
102
RTVSPropertyOp6
 70
     1
102
RTVSPropertyOp7
 70
     1
102
RTVSPropertyOp8
 70
     1
102
RTVSPropertyOp9
 70
     1
102
RTVSPropertyOp10
 70
     1
102
RTVSPropertyOp11
 70
     1
102
RTVSPropertyOp12
 70
     1
102
RTVSPropertyOp13
 70
     1
102
RTVSPropertyOp14
 70
     1
102
RTVSPropertyOp15
 70
     1
102
RTVSPropertyOp16
 70
     1
102
RTVSPropertyOp17
 70
     1
102
RTVSPropertyOp18
 70
     1
102
RTVSPropertyOp19
 70
     1
102
RTVSPropertyOp20
 70
     1
102
RTVSPropertyOp21
 70
     1
102
RTVSPropertyOp22
 70
     1
102
RTVSPropertyOp23
 70
     1
102
RTVSPropertyOp24
 70
     1
102
RTVSPropertyOp25
 70
     1
102
RTVSPropertyOp26
 70
     1
102
RTVSPropertyOp27
 70
     1
102
RTVSPropertyOp28
 70
     1
102
RTVSPropertyOp29
 70
     1
102
RTVSPropertyOp30
 70
     1
102
RTVSPropertyOp31
 70
     1
102
RTVSPropertyOp32
 70
     1
102
RTVSPropertyOp33
 70
     1
102
RTVSPropertyOp34
 70
     1
102
RTVSPropertyOp35
 70
     1
102
RTVSPropertyOp36
 70
     1
102
RTVSPropertyOp37
 70
     1
102
RTVSPropertyOp38
 70
     1
102
RTVSPropertyOp39
 70
     1
102
RTVSPropertyOp40
 70
     1
102
RTVSPropertyOp41
 70
     1
102
RTVSPropertyOp42
 70
     1
102
RTVSPropertyOp43
 70
     1
102
RTVSPropertyOp44
 70
     1
102
RTVSPropertyOp45
 70
     1
102
RTVSPropertyOp46
 70
     1
102
RTVSPropertyOp47
 70
     1
102
RTVSPropertyOp48
 70
     1
102
RTVSPropertyOp49
 70
     1
102
RTVSPropertyOp50
 70
     1
102
RTVSPropertyOp51
 70
     0
102
RTVSPropertyOp52
 70
     0
102
RTVSPropertyOp53
 70
     1
102
RTVSPropertyOp54
 70
     1
102
RTVSPropertyOp55
 70
     1
102
RTVSPropertyOp56
 70
     1
102
RTVSPropertyOp57
 70
     1
102
RTVSPropertyOp58
 70
     1
102
RTVSPropertyOp59
 70
     1
102
RTVSPropertyOp60
 70
     1
102
RTVSPropertyOp61
 70
     1
102
RTVSPropertyOp62
 70
     1
  0
XRECORD
  5
44D
102
{ACAD_REACTORS
330
44C
102
}
330
44C
100
AcDbXrecord
280
     1
102
RTVSPost2010Prop28
280
     0
102
RTVSPost2010PropOp28
 70
     1
102
RTVSPost2010Prop29
280
     1
102
RTVSPost2010PropOp29
 70
     1
102
RTVSPost2010Prop30
280
     1
102
RTVSPost2010PropOp30
 70
     1
102
RTVSPost2010Prop31
280
     0
102
RTVSPost2010PropOp31
 70
     1
102
RTVSPost2010Prop32
280
     0
102
RTVSPost2010PropOp32
 70
     1
102
RTVSPost2010Prop33
280
     0
102
RTVSPost2010PropOp33
 70
     1
102
RTVSPost2010Prop34
280
     0
102
RTVSPost2010PropOp34
 70
     1
102
RTVSPost2010Prop35
280
     0
102
RTVSPost2010PropOp35
 70
     1
102
RTVSPost2010Prop36
280
     0
102
RTVSPost2010PropOp36
 70
     1
102
RTVSPost2010Prop37
 90
       50
102
RTVSPost2010PropOp37
 70
     1
102
RTVSPost2010Prop38
140
0.0
102
RTVSPost2010PropOp38
 70
     1
102
RTVSPost2010Prop39
140
1.0
102
RTVSPost2010PropOp39
 70
     1
102
RTVSPost2010Prop40
 90
        0
102
RTVSPost2010PropOp40
 70
     1
102
RTVSPost2010Prop41ColorIndex
 90
       18
102
RTVSPost2010Prop41ColorRGB
 90
        0
102
RTVSPost2010PropOp41
 70
     1
102
RTVSPost2010Prop42
 90
       50
102
RTVSPost2010PropOp42
 70
     1
102
RTVSPost2010Prop43
 90
        3
102
RTVSPost2010PropOp43
 70
     1
102
RTVSPost2010Prop44ColorIndex
 90
        5
102
RTVSPost2010Prop44ColorRGB
 90
      255
102
RTVSPost2010PropOp44
 70
     1
102
RTVSPost2010Prop45
280
     0
102
RTVSPost2010PropOp45
 70
     1
102
RTVSPost2010Prop46
 90
       50
102
RTVSPost2010PropOp46
 70
     1
102
RTVSPost2010Prop47
 90
       50
102
RTVSPost2010PropOp47
 70
     1
102
RTVSPost2010Prop48
 90
       50
102
RTVSPost2010PropOp48
 70
     1
102
RTVSPost2010Prop49
280
     0
102
RTVSPost2010PropOp49
 70
     1
102
RTVSPost2010Prop50
 90
       50
102
RTVSPost2010PropOp50
 70
     1
102
RTVSPost2010Prop51ColorIndex
 90
      256
102
RTVSPost2010Prop51ColorRGB
 90
-16777216
102
RTVSPost2010PropOp51
 70
     0
102
RTVSPost2010Prop52
140
1.0
102
RTVSPost2010PropOp52
 70
     0
102
RTVSPost2010Prop53
 90
        2
102
RTVSPost2010PropOp53
 70
     1
102
RTVSPost2010Prop54
  1
strokes_ogs.tif
102
RTVSPost2010PropOp54
 70
     1
102
RTVSPost2010Prop55
280
     0
102
RTVSPost2010PropOp55
 70
     1
102
RTVSPost2010Prop56
140
1.0
102
RTVSPost2010PropOp56
 70
     1
102
RTVSPost2010Prop57
140
1.0
102
RTVSPost2010PropOp57
 70
     1
102
RTVSPropertyOp0
 70
     1
102
RTVSPropertyOp1
 70
     1
102
RTVSPropertyOp2
 70
     1
102
RTVSPropertyOp3
 70
     1
102
RTVSPropertyOp4
 70
     1
102
RTVSPropertyOp5
 70
     1
102
RTVSPropertyOp6
 70
     1
102
RTVSPropertyOp7
 70
     1
102
RTVSPropertyOp8
 70
     1
102
RTVSPropertyOp9
 70
     1
102
RTVSPropertyOp10
 70
     1
102
RTVSPropertyOp11
 70
     1
102
RTVSPropertyOp12
 70
     1
102
RTVSPropertyOp13
 70
     1
102
RTVSPropertyOp14
 70
     1
102
RTVSPropertyOp15
 70
     1
102
RTVSPropertyOp16
 70
     1
102
RTVSPropertyOp17
 70
     1
102
RTVSPropertyOp18
 70
     1
102
RTVSPropertyOp19
 70
     1
102
RTVSPropertyOp20
 70
     1
102
RTVSPropertyOp21
 70
     1
102
RTVSPropertyOp22
 70
     1
102
RTVSPropertyOp23
 70
     1
102
RTVSPropertyOp24
 70
     1
102
RTVSPropertyOp25
 70
     1
102
RTVSPropertyOp26
 70
     1
102
RTVSPropertyOp27
 70
     1
102
RTVSPropertyOp28
 70
     1
102
RTVSPropertyOp29
 70
     1
102
RTVSPropertyOp30
 70
     1
102
RTVSPropertyOp31
 70
     1
102
RTVSPropertyOp32
 70
     1
102
RTVSPropertyOp33
 70
     1
102
RTVSPropertyOp34
 70
     1
102
RTVSPropertyOp35
 70
     1
102
RTVSPropertyOp36
 70
     1
102
RTVSPropertyOp37
 70
     1
102
RTVSPropertyOp38
 70
     1
102
RTVSPropertyOp39
 70
     1
102
RTVSPropertyOp40
 70
     1
102
RTVSPropertyOp41
 70
     1
102
RTVSPropertyOp42
 70
     1
102
RTVSPropertyOp43
 70
     1
102
RTVSPropertyOp44
 70
     1
102
RTVSPropertyOp45
 70
     1
102
RTVSPropertyOp46
 70
     1
102
RTVSPropertyOp47
 70
     1
102
RTVSPropertyOp48
 70
     1
102
RTVSPropertyOp49
 70
     1
102
RTVSPropertyOp50
 70
     1
102
RTVSPropertyOp51
 70
     0
102
RTVSPropertyOp52
 70
     0
102
RTVSPropertyOp53
 70
     1
102
RTVSPropertyOp54
 70
     1
102
RTVSPropertyOp55
 70
     1
102
RTVSPropertyOp56
 70
     1
102
RTVSPropertyOp57
 70
     1
102
RTVSPropertyOp58
 70
     1
102
RTVSPropertyOp59
 70
     1
102
RTVSPropertyOp60
 70
     1
102
RTVSPropertyOp61
 70
     1
102
RTVSPropertyOp62
 70
     1
  0
XRECORD
  5
44F
102
{ACAD_REACTORS
330
44E
102
}
330
44E
100
AcDbXrecord
280
     1
102
RTVSPost2010Prop28
280
     0
102
RTVSPost2010PropOp28
 70
     1
102
RTVSPost2010Prop29
280
     1
102
RTVSPost2010PropOp29
 70
     1
102
RTVSPost2010Prop30
280
     1
102
RTVSPost2010PropOp30
 70
     1
102
RTVSPost2010Prop31
280
     0
102
RTVSPost2010PropOp31
 70
     1
102
RTVSPost2010Prop32
280
     0
102
RTVSPost2010PropOp32
 70
     1
102
RTVSPost2010Prop33
280
     0
102
RTVSPost2010PropOp33
 70
     1
102
RTVSPost2010Prop34
280
     0
102
RTVSPost2010PropOp34
 70
     1
102
RTVSPost2010Prop35
280
     0
102
RTVSPost2010PropOp35
 70
     1
102
RTVSPost2010Prop36
280
     0
102
RTVSPost2010PropOp36
 70
     1
102
RTVSPost2010Prop37
 90
       50
102
RTVSPost2010PropOp37
 70
     1
102
RTVSPost2010Prop38
140
0.0
102
RTVSPost2010PropOp38
 70
     1
102
RTVSPost2010Prop39
140
1.0
102
RTVSPost2010PropOp39
 70
     1
102
RTVSPost2010Prop40
 90
        0
102
RTVSPost2010PropOp40
 70
     1
102
RTVSPost2010Prop41ColorIndex
 90
       18
102
RTVSPost2010Prop41ColorRGB
 90
        0
102
RTVSPost2010PropOp41
 70
     1
102
RTVSPost2010Prop42
 90
       50
102
RTVSPost2010PropOp42
 70
     1
102
RTVSPost2010Prop43
 90
        3
102
RTVSPost2010PropOp43
 70
     1
102
RTVSPost2010Prop44ColorIndex
 90
        5
102
RTVSPost2010Prop44ColorRGB
 90
      255
102
RTVSPost2010PropOp44
 70
     1
102
RTVSPost2010Prop45
280
     0
102
RTVSPost2010PropOp45
 70
     1
102
RTVSPost2010Prop46
 90
       50
102
RTVSPost2010PropOp46
 70
     1
102
RTVSPost2010Prop47
 90
       50
102
RTVSPost2010PropOp47
 70
     1
102
RTVSPost2010Prop48
 90
       50
102
RTVSPost2010PropOp48
 70
     1
102
RTVSPost2010Prop49
280
     0
102
RTVSPost2010PropOp49
 70
     1
102
RTVSPost2010Prop50
 90
       50
102
RTVSPost2010PropOp50
 70
     1
102
RTVSPost2010Prop51ColorIndex
 90
      256
102
RTVSPost2010Prop51ColorRGB
 90
-16777216
102
RTVSPost2010PropOp51
 70
     0
102
RTVSPost2010Prop52
140
1.0
102
RTVSPost2010PropOp52
 70
     0
102
RTVSPost2010Prop53
 90
        2
102
RTVSPost2010PropOp53
 70
     1
102
RTVSPost2010Prop54
  1
strokes_ogs.tif
102
RTVSPost2010PropOp54
 70
     1
102
RTVSPost2010Prop55
280
     0
102
RTVSPost2010PropOp55
 70
     1
102
RTVSPost2010Prop56
140
1.0
102
RTVSPost2010PropOp56
 70
     1
102
RTVSPost2010Prop57
140
1.0
102
RTVSPost2010PropOp57
 70
     1
102
RTVSPropertyOp0
 70
     1
102
RTVSPropertyOp1
 70
     1
102
RTVSPropertyOp2
 70
     1
102
RTVSPropertyOp3
 70
     1
102
RTVSPropertyOp4
 70
     1
102
RTVSPropertyOp5
 70
     1
102
RTVSPropertyOp6
 70
     1
102
RTVSPropertyOp7
 70
     1
102
RTVSPropertyOp8
 70
     1
102
RTVSPropertyOp9
 70
     1
102
RTVSPropertyOp10
 70
     1
102
RTVSPropertyOp11
 70
     1
102
RTVSPropertyOp12
 70
     1
102
RTVSPropertyOp13
 70
     1
102
RTVSPropertyOp14
 70
     1
102
RTVSPropertyOp15
 70
     1
102
RTVSPropertyOp16
 70
     1
102
RTVSPropertyOp17
 70
     1
102
RTVSPropertyOp18
 70
     1
102
RTVSPropertyOp19
 70
     1
102
RTVSPropertyOp20
 70
     1
102
RTVSPropertyOp21
 70
     1
102
RTVSPropertyOp22
 70
     1
102
RTVSPropertyOp23
 70
     1
102
RTVSPropertyOp24
 70
     1
102
RTVSPropertyOp25
 70
     1
102
RTVSPropertyOp26
 70
     1
102
RTVSPropertyOp27
 70
     1
102
RTVSPropertyOp28
 70
     1
102
RTVSPropertyOp29
 70
     1
102
RTVSPropertyOp30
 70
     1
102
RTVSPropertyOp31
 70
     1
102
RTVSPropertyOp32
 70
     1
102
RTVSPropertyOp33
 70
     1
102
RTVSPropertyOp34
 70
     1
102
RTVSPropertyOp35
 70
     1
102
RTVSPropertyOp36
 70
     1
102
RTVSPropertyOp37
 70
     1
102
RTVSPropertyOp38
 70
     1
102
RTVSPropertyOp39
 70
     1
102
RTVSPropertyOp40
 70
     1
102
RTVSPropertyOp41
 70
     1
102
RTVSPropertyOp42
 70
     1
102
RTVSPropertyOp43
 70
     1
102
RTVSPropertyOp44
 70
     1
102
RTVSPropertyOp45
 70
     1
102
RTVSPropertyOp46
 70
     1
102
RTVSPropertyOp47
 70
     1
102
RTVSPropertyOp48
 70
     1
102
RTVSPropertyOp49
 70
     1
102
RTVSPropertyOp50
 70
     1
102
RTVSPropertyOp51
 70
     0
102
RTVSPropertyOp52
 70
     0
102
RTVSPropertyOp53
 70
     1
102
RTVSPropertyOp54
 70
     1
102
RTVSPropertyOp55
 70
     1
102
RTVSPropertyOp56
 70
     1
102
RTVSPropertyOp57
 70
     1
102
RTVSPropertyOp58
 70
     1
102
RTVSPropertyOp59
 70
     1
102
RTVSPropertyOp60
 70
     1
102
RTVSPropertyOp61
 70
     1
102
RTVSPropertyOp62
 70
     1
  0
XRECORD
  5
457
102
{ACAD_REACTORS
330
456
102
}
330
456
100
AcDbXrecord
280
     1
102
RTVSPost2010Prop28
280
     0
102
RTVSPost2010PropOp28
 70
     1
102
RTVSPost2010Prop29
280
     1
102
RTVSPost2010PropOp29
 70
     1
102
RTVSPost2010Prop30
280
     1
102
RTVSPost2010PropOp30
 70
     1
102
RTVSPost2010Prop31
280
     0
102
RTVSPost2010PropOp31
 70
     1
102
RTVSPost2010Prop32
280
     0
102
RTVSPost2010PropOp32
 70
     1
102
RTVSPost2010Prop33
280
     0
102
RTVSPost2010PropOp33
 70
     1
102
RTVSPost2010Prop34
280
     0
102
RTVSPost2010PropOp34
 70
     1
102
RTVSPost2010Prop35
280
     0
102
RTVSPost2010PropOp35
 70
     1
102
RTVSPost2010Prop36
280
     0
102
RTVSPost2010PropOp36
 70
     1
102
RTVSPost2010Prop37
 90
       50
102
RTVSPost2010PropOp37
 70
     1
102
RTVSPost2010Prop38
140
0.0
102
RTVSPost2010PropOp38
 70
     1
102
RTVSPost2010Prop39
140
1.0
102
RTVSPost2010PropOp39
 70
     1
102
RTVSPost2010Prop40
 90
        0
102
RTVSPost2010PropOp40
 70
     1
102
RTVSPost2010Prop41ColorIndex
 90
       18
102
RTVSPost2010Prop41ColorRGB
 90
        0
102
RTVSPost2010PropOp41
 70
     1
102
RTVSPost2010Prop42
 90
       50
102
RTVSPost2010PropOp42
 70
     1
102
RTVSPost2010Prop43
 90
        3
102
RTVSPost2010PropOp43
 70
     1
102
RTVSPost2010Prop44ColorIndex
 90
        5
102
RTVSPost2010Prop44ColorRGB
 90
      255
102
RTVSPost2010PropOp44
 70
     1
102
RTVSPost2010Prop45
280
     0
102
RTVSPost2010PropOp45
 70
     1
102
RTVSPost2010Prop46
 90
       50
102
RTVSPost2010PropOp46
 70
     1
102
RTVSPost2010Prop47
 90
       50
102
RTVSPost2010PropOp47
 70
     1
102
RTVSPost2010Prop48
 90
       50
102
RTVSPost2010PropOp48
 70
     1
102
RTVSPost2010Prop49
280
     0
102
RTVSPost2010PropOp49
 70
     1
102
RTVSPost2010Prop50
 90
       50
102
RTVSPost2010PropOp50
 70
     1
102
RTVSPost2010Prop51ColorIndex
 90
      256
102
RTVSPost2010Prop51ColorRGB
 90
-16777216
102
RTVSPost2010PropOp51
 70
     0
102
RTVSPost2010Prop52
140
1.0
102
RTVSPost2010PropOp52
 70
     0
102
RTVSPost2010Prop53
 90
        2
102
RTVSPost2010PropOp53
 70
     1
102
RTVSPost2010Prop54
  1
strokes_ogs.tif
102
RTVSPost2010PropOp54
 70
     1
102
RTVSPost2010Prop55
280
     0
102
RTVSPost2010PropOp55
 70
     1
102
RTVSPost2010Prop56
140
1.0
102
RTVSPost2010PropOp56
 70
     1
102
RTVSPost2010Prop57
140
1.0
102
RTVSPost2010PropOp57
 70
     1
102
RTVSPropertyOp0
 70
     1
102
RTVSPropertyOp1
 70
     1
102
RTVSPropertyOp2
 70
     1
102
RTVSPropertyOp3
 70
     1
102
RTVSPropertyOp4
 70
     1
102
RTVSPropertyOp5
 70
     1
102
RTVSPropertyOp6
 70
     1
102
RTVSPropertyOp7
 70
     1
102
RTVSPropertyOp8
 70
     1
102
RTVSPropertyOp9
 70
     1
102
RTVSPropertyOp10
 70
     1
102
RTVSPropertyOp11
 70
     1
102
RTVSPropertyOp12
 70
     1
102
RTVSPropertyOp13
 70
     1
102
RTVSPropertyOp14
 70
     1
102
RTVSPropertyOp15
 70
     1
102
RTVSPropertyOp16
 70
     1
102
RTVSPropertyOp17
 70
     1
102
RTVSPropertyOp18
 70
     1
102
RTVSPropertyOp19
 70
     1
102
RTVSPropertyOp20
 70
     1
102
RTVSPropertyOp21
 70
     1
102
RTVSPropertyOp22
 70
     1
102
RTVSPropertyOp23
 70
     1
102
RTVSPropertyOp24
 70
     1
102
RTVSPropertyOp25
 70
     1
102
RTVSPropertyOp26
 70
     1
102
RTVSPropertyOp27
 70
     1
102
RTVSPropertyOp28
 70
     1
102
RTVSPropertyOp29
 70
     1
102
RTVSPropertyOp30
 70
     1
102
RTVSPropertyOp31
 70
     1
102
RTVSPropertyOp32
 70
     1
102
RTVSPropertyOp33
 70
     1
102
RTVSPropertyOp34
 70
     1
102
RTVSPropertyOp35
 70
     1
102
RTVSPropertyOp36
 70
     1
102
RTVSPropertyOp37
 70
     1
102
RTVSPropertyOp38
 70
     1
102
RTVSPropertyOp39
 70
     1
102
RTVSPropertyOp40
 70
     1
102
RTVSPropertyOp41
 70
     1
102
RTVSPropertyOp42
 70
     1
102
RTVSPropertyOp43
 70
     1
102
RTVSPropertyOp44
 70
     1
102
RTVSPropertyOp45
 70
     1
102
RTVSPropertyOp46
 70
     1
102
RTVSPropertyOp47
 70
     1
102
RTVSPropertyOp48
 70
     1
102
RTVSPropertyOp49
 70
     1
102
RTVSPropertyOp50
 70
     1
102
RTVSPropertyOp51
 70
     0
102
RTVSPropertyOp52
 70
     0
102
RTVSPropertyOp53
 70
     1
102
RTVSPropertyOp54
 70
     1
102
RTVSPropertyOp55
 70
     1
102
RTVSPropertyOp56
 70
     1
102
RTVSPropertyOp57
 70
     1
102
RTVSPropertyOp58
 70
     1
102
RTVSPropertyOp59
 70
     1
102
RTVSPropertyOp60
 70
     1
102
RTVSPropertyOp61
 70
     1
102
RTVSPropertyOp62
 70
     1
  0
XRECORD
  5
473
102
{ACAD_REACTORS
330
472
102
}
330
472
100
AcDbXrecord
280
     1
102
RTVSPost2010Prop28
280
     0
102
RTVSPost2010PropOp28
 70
     1
102
RTVSPost2010Prop29
280
     1
102
RTVSPost2010PropOp29
 70
     1
102
RTVSPost2010Prop30
280
     1
102
RTVSPost2010PropOp30
 70
     1
102
RTVSPost2010Prop31
280
     0
102
RTVSPost2010PropOp31
 70
     1
102
RTVSPost2010Prop32
280
     0
102
RTVSPost2010PropOp32
 70
     1
102
RTVSPost2010Prop33
280
     0
102
RTVSPost2010PropOp33
 70
     1
102
RTVSPost2010Prop34
280
     0
102
RTVSPost2010PropOp34
 70
     1
102
RTVSPost2010Prop35
280
     0
102
RTVSPost2010PropOp35
 70
     1
102
RTVSPost2010Prop36
280
     0
102
RTVSPost2010PropOp36
 70
     1
102
RTVSPost2010Prop37
 90
       50
102
RTVSPost2010PropOp37
 70
     0
102
RTVSPost2010Prop38
140
0.0
102
RTVSPost2010PropOp38
 70
     0
102
RTVSPost2010Prop39
140
1.0
102
RTVSPost2010PropOp39
 70
     0
102
RTVSPost2010Prop40
 90
        0
102
RTVSPost2010PropOp40
 70
     0
102
RTVSPost2010Prop41ColorIndex
 90
       18
102
RTVSPost2010Prop41ColorRGB
 90
        0
102
RTVSPost2010PropOp41
 70
     0
102
RTVSPost2010Prop42
 90
       50
102
RTVSPost2010PropOp42
 70
     0
102
RTVSPost2010Prop43
 90
        3
102
RTVSPost2010PropOp43
 70
     0
102
RTVSPost2010Prop44ColorIndex
 90
        5
102
RTVSPost2010Prop44ColorRGB
 90
      255
102
RTVSPost2010PropOp44
 70
     0
102
RTVSPost2010Prop45
280
     0
102
RTVSPost2010PropOp45
 70
     1
102
RTVSPost2010Prop46
 90
       50
102
RTVSPost2010PropOp46
 70
     0
102
RTVSPost2010Prop47
 90
       50
102
RTVSPost2010PropOp47
 70
     0
102
RTVSPost2010Prop48
 90
       50
102
RTVSPost2010PropOp48
 70
     0
102
RTVSPost2010Prop49
280
     0
102
RTVSPost2010PropOp49
 70
     1
102
RTVSPost2010Prop50
 90
       50
102
RTVSPost2010PropOp50
 70
     0
102
RTVSPost2010Prop51ColorIndex
 90
      256
102
RTVSPost2010Prop51ColorRGB
 90
-16777216
102
RTVSPost2010PropOp51
 70
     0
102
RTVSPost2010Prop52
140
1.0
102
RTVSPost2010PropOp52
 70
     0
102
RTVSPost2010Prop53
 90
        2
102
RTVSPost2010PropOp53
 70
     0
102
RTVSPost2010Prop54
  1
strokes_ogs.tif
102
RTVSPost2010PropOp54
 70
     0
102
RTVSPost2010Prop55
280
     0
102
RTVSPost2010PropOp55
 70
     1
102
RTVSPost2010Prop56
140
1.0
102
RTVSPost2010PropOp56
 70
     0
102
RTVSPost2010Prop57
140
1.0
102
RTVSPost2010PropOp57
 70
     0
102
RTVSPropertyOp0
 70
     0
102
RTVSPropertyOp1
 70
     0
102
RTVSPropertyOp2
 70
     0
102
RTVSPropertyOp3
 70
     0
102
RTVSPropertyOp4
 70
     0
102
RTVSPropertyOp5
 70
     0
102
RTVSPropertyOp6
 70
     0
102
RTVSPropertyOp7
 70
     0
102
RTVSPropertyOp8
 70
     0
102
RTVSPropertyOp9
 70
     0
102
RTVSPropertyOp10
 70
     0
102
RTVSPropertyOp11
 70
     0
102
RTVSPropertyOp12
 70
     0
102
RTVSPropertyOp13
 70
     0
102
RTVSPropertyOp14
 70
     2
102
RTVSPropertyOp15
 70
     0
102
RTVSPropertyOp16
 70
     0
102
RTVSPropertyOp17
 70
     0
102
RTVSPropertyOp18
 70
     0
102
RTVSPropertyOp19
 70
     0
102
RTVSPropertyOp20
 70
     0
102
RTVSPropertyOp21
 70
     0
102
RTVSPropertyOp22
 70
     0
102
RTVSPropertyOp23
 70
     0
102
RTVSPropertyOp24
 70
     0
102
RTVSPropertyOp25
 70
     0
102
RTVSPropertyOp26
 70
     0
102
RTVSPropertyOp27
 70
     0
102
RTVSPropertyOp28
 70
     1
102
RTVSPropertyOp29
 70
     1
102
RTVSPropertyOp30
 70
     1
102
RTVSPropertyOp31
 70
     1
102
RTVSPropertyOp32
 70
     1
102
RTVSPropertyOp33
 70
     1
102
RTVSPropertyOp34
 70
     1
102
RTVSPropertyOp35
 70
     1
102
RTVSPropertyOp36
 70
     1
102
RTVSPropertyOp37
 70
     0
102
RTVSPropertyOp38
 70
     0
102
RTVSPropertyOp39
 70
     0
102
RTVSPropertyOp40
 70
     0
102
RTVSPropertyOp41
 70
     0
102
RTVSPropertyOp42
 70
     0
102
RTVSPropertyOp43
 70
     0
102
RTVSPropertyOp44
 70
     0
102
RTVSPropertyOp45
 70
     1
102
RTVSPropertyOp46
 70
     0
102
RTVSPropertyOp47
 70
     0
102
RTVSPropertyOp48
 70
     0
102
RTVSPropertyOp49
 70
     1
102
RTVSPropertyOp50
 70
     0
102
RTVSPropertyOp51
 70
     0
102
RTVSPropertyOp52
 70
     0
102
RTVSPropertyOp53
 70
     0
102
RTVSPropertyOp54
 70
     0
102
RTVSPropertyOp55
 70
     1
102
RTVSPropertyOp56
 70
     0
102
RTVSPropertyOp57
 70
     0
102
RTVSPropertyOp58
 70
     0
102
RTVSPropertyOp59
 70
     0
102
RTVSPropertyOp60
 70
     0
102
RTVSPropertyOp61
 70
     0
102
RTVSPropertyOp62
 70
     0
  0
XRECORD
  5
463
102
{ACAD_REACTORS
330
462
102
}
330
462
100
AcDbXrecord
280
     1
102
RTVSPost2010Prop28
280
     0
102
RTVSPost2010PropOp28
 70
     1
102
RTVSPost2010Prop29
280
     1
102
RTVSPost2010PropOp29
 70
     1
102
RTVSPost2010Prop30
280
     1
102
RTVSPost2010PropOp30
 70
     1
102
RTVSPost2010Prop31
280
     0
102
RTVSPost2010PropOp31
 70
     1
102
RTVSPost2010Prop32
280
     0
102
RTVSPost2010PropOp32
 70
     1
102
RTVSPost2010Prop33
280
     0
102
RTVSPost2010PropOp33
 70
     1
102
RTVSPost2010Prop34
280
     0
102
RTVSPost2010PropOp34
 70
     1
102
RTVSPost2010Prop35
280
     0
102
RTVSPost2010PropOp35
 70
     1
102
RTVSPost2010Prop36
280
     0
102
RTVSPost2010PropOp36
 70
     1
102
RTVSPost2010Prop37
 90
       50
102
RTVSPost2010PropOp37
 70
     1
102
RTVSPost2010Prop38
140
0.0
102
RTVSPost2010PropOp38
 70
     1
102
RTVSPost2010Prop39
140
1.0
102
RTVSPost2010PropOp39
 70
     1
102
RTVSPost2010Prop40
 90
        0
102
RTVSPost2010PropOp40
 70
     1
102
RTVSPost2010Prop41ColorIndex
 90
       18
102
RTVSPost2010Prop41ColorRGB
 90
        0
102
RTVSPost2010PropOp41
 70
     1
102
RTVSPost2010Prop42
 90
       50
102
RTVSPost2010PropOp42
 70
     1
102
RTVSPost2010Prop43
 90
        3
102
RTVSPost2010PropOp43
 70
     1
102
RTVSPost2010Prop44ColorIndex
 90
        5
102
RTVSPost2010Prop44ColorRGB
 90
      255
102
RTVSPost2010PropOp44
 70
     1
102
RTVSPost2010Prop45
280
     0
102
RTVSPost2010PropOp45
 70
     1
102
RTVSPost2010Prop46
 90
       50
102
RTVSPost2010PropOp46
 70
     1
102
RTVSPost2010Prop47
 90
       50
102
RTVSPost2010PropOp47
 70
     1
102
RTVSPost2010Prop48
 90
       50
102
RTVSPost2010PropOp48
 70
     1
102
RTVSPost2010Prop49
280
     0
102
RTVSPost2010PropOp49
 70
     1
102
RTVSPost2010Prop50
 90
       50
102
RTVSPost2010PropOp50
 70
     1
102
RTVSPost2010Prop51ColorIndex
 90
      256
102
RTVSPost2010Prop51ColorRGB
 90
-16777216
102
RTVSPost2010PropOp51
 70
     0
102
RTVSPost2010Prop52
140
1.0
102
RTVSPost2010PropOp52
 70
     0
102
RTVSPost2010Prop53
 90
        2
102
RTVSPost2010PropOp53
 70
     1
102
RTVSPost2010Prop54
  1
strokes_ogs.tif
102
RTVSPost2010PropOp54
 70
     1
102
RTVSPost2010Prop55
280
     0
102
RTVSPost2010PropOp55
 70
     1
102
RTVSPost2010Prop56
140
1.0
102
RTVSPost2010PropOp56
 70
     1
102
RTVSPost2010Prop57
140
1.0
102
RTVSPost2010PropOp57
 70
     1
102
RTVSPropertyOp0
 70
     1
102
RTVSPropertyOp1
 70
     1
102
RTVSPropertyOp2
 70
     1
102
RTVSPropertyOp3
 70
     1
102
RTVSPropertyOp4
 70
     1
102
RTVSPropertyOp5
 70
     1
102
RTVSPropertyOp6
 70
     1
102
RTVSPropertyOp7
 70
     1
102
RTVSPropertyOp8
 70
     1
102
RTVSPropertyOp9
 70
     1
102
RTVSPropertyOp10
 70
     1
102
RTVSPropertyOp11
 70
     1
102
RTVSPropertyOp12
 70
     1
102
RTVSPropertyOp13
 70
     1
102
RTVSPropertyOp14
 70
     1
102
RTVSPropertyOp15
 70
     1
102
RTVSPropertyOp16
 70
     1
102
RTVSPropertyOp17
 70
     1
102
RTVSPropertyOp18
 70
     1
102
RTVSPropertyOp19
 70
     1
102
RTVSPropertyOp20
 70
     1
102
RTVSPropertyOp21
 70
     1
102
RTVSPropertyOp22
 70
     1
102
RTVSPropertyOp23
 70
     1
102
RTVSPropertyOp24
 70
     1
102
RTVSPropertyOp25
 70
     1
102
RTVSPropertyOp26
 70
     1
102
RTVSPropertyOp27
 70
     1
102
RTVSPropertyOp28
 70
     1
102
RTVSPropertyOp29
 70
     1
102
RTVSPropertyOp30
 70
     1
102
RTVSPropertyOp31
 70
     1
102
RTVSPropertyOp32
 70
     1
102
RTVSPropertyOp33
 70
     1
102
RTVSPropertyOp34
 70
     1
102
RTVSPropertyOp35
 70
     1
102
RTVSPropertyOp36
 70
     1
102
RTVSPropertyOp37
 70
     1
102
RTVSPropertyOp38
 70
     1
102
RTVSPropertyOp39
 70
     1
102
RTVSPropertyOp40
 70
     1
102
RTVSPropertyOp41
 70
     1
102
RTVSPropertyOp42
 70
     1
102
RTVSPropertyOp43
 70
     1
102
RTVSPropertyOp44
 70
     1
102
RTVSPropertyOp45
 70
     1
102
RTVSPropertyOp46
 70
     1
102
RTVSPropertyOp47
 70
     1
102
RTVSPropertyOp48
 70
     1
102
RTVSPropertyOp49
 70
     1
102
RTVSPropertyOp50
 70
     1
102
RTVSPropertyOp51
 70
     0
102
RTVSPropertyOp52
 70
     0
102
RTVSPropertyOp53
 70
     1
102
RTVSPropertyOp54
 70
     1
102
RTVSPropertyOp55
 70
     1
102
RTVSPropertyOp56
 70
     1
102
RTVSPropertyOp57
 70
     1
102
RTVSPropertyOp58
 70
     1
102
RTVSPropertyOp59
 70
     1
102
RTVSPropertyOp60
 70
     1
102
RTVSPropertyOp61
 70
     1
102
RTVSPropertyOp62
 70
     1
  0
XRECORD
  5
475
102
{ACAD_REACTORS
330
474
102
}
330
474
100
AcDbXrecord
280
     1
102
RTVSPost2010Prop28
280
     0
102
RTVSPost2010PropOp28
 70
     1
102
RTVSPost2010Prop29
280
     1
102
RTVSPost2010PropOp29
 70
     1
102
RTVSPost2010Prop30
280
     1
102
RTVSPost2010PropOp30
 70
     1
102
RTVSPost2010Prop31
280
     0
102
RTVSPost2010PropOp31
 70
     1
102
RTVSPost2010Prop32
280
     0
102
RTVSPost2010PropOp32
 70
     1
102
RTVSPost2010Prop33
280
     0
102
RTVSPost2010PropOp33
 70
     1
102
RTVSPost2010Prop34
280
     0
102
RTVSPost2010PropOp34
 70
     1
102
RTVSPost2010Prop35
280
     0
102
RTVSPost2010PropOp35
 70
     1
102
RTVSPost2010Prop36
280
     0
102
RTVSPost2010PropOp36
 70
     1
102
RTVSPost2010Prop37
 90
       50
102
RTVSPost2010PropOp37
 70
     0
102
RTVSPost2010Prop38
140
0.0
102
RTVSPost2010PropOp38
 70
     0
102
RTVSPost2010Prop39
140
1.0
102
RTVSPost2010PropOp39
 70
     0
102
RTVSPost2010Prop40
 90
        0
102
RTVSPost2010PropOp40
 70
     0
102
RTVSPost2010Prop41ColorIndex
 90
       18
102
RTVSPost2010Prop41ColorRGB
 90
        0
102
RTVSPost2010PropOp41
 70
     0
102
RTVSPost2010Prop42
 90
       50
102
RTVSPost2010PropOp42
 70
     0
102
RTVSPost2010Prop43
 90
        3
102
RTVSPost2010PropOp43
 70
     0
102
RTVSPost2010Prop44ColorIndex
 90
        5
102
RTVSPost2010Prop44ColorRGB
 90
      255
102
RTVSPost2010PropOp44
 70
     0
102
RTVSPost2010Prop45
280
     0
102
RTVSPost2010PropOp45
 70
     1
102
RTVSPost2010Prop46
 90
       50
102
RTVSPost2010PropOp46
 70
     0
102
RTVSPost2010Prop47
 90
       50
102
RTVSPost2010PropOp47
 70
     0
102
RTVSPost2010Prop48
 90
       50
102
RTVSPost2010PropOp48
 70
     0
102
RTVSPost2010Prop49
280
     0
102
RTVSPost2010PropOp49
 70
     1
102
RTVSPost2010Prop50
 90
       50
102
RTVSPost2010PropOp50
 70
     0
102
RTVSPost2010Prop51ColorIndex
 90
      256
102
RTVSPost2010Prop51ColorRGB
 90
-16777216
102
RTVSPost2010PropOp51
 70
     0
102
RTVSPost2010Prop52
140
1.0
102
RTVSPost2010PropOp52
 70
     0
102
RTVSPost2010Prop53
 90
        2
102
RTVSPost2010PropOp53
 70
     0
102
RTVSPost2010Prop54
  1
strokes_ogs.tif
102
RTVSPost2010PropOp54
 70
     0
102
RTVSPost2010Prop55
280
     0
102
RTVSPost2010PropOp55
 70
     1
102
RTVSPost2010Prop56
140
1.0
102
RTVSPost2010PropOp56
 70
     0
102
RTVSPost2010Prop57
140
1.0
102
RTVSPost2010PropOp57
 70
     0
102
RTVSPropertyOp0
 70
     0
102
RTVSPropertyOp1
 70
     0
102
RTVSPropertyOp2
 70
     0
102
RTVSPropertyOp3
 70
     0
102
RTVSPropertyOp4
 70
     0
102
RTVSPropertyOp5
 70
     0
102
RTVSPropertyOp6
 70
     0
102
RTVSPropertyOp7
 70
     0
102
RTVSPropertyOp8
 70
     0
102
RTVSPropertyOp9
 70
     0
102
RTVSPropertyOp10
 70
     0
102
RTVSPropertyOp11
 70
     0
102
RTVSPropertyOp12
 70
     0
102
RTVSPropertyOp13
 70
     0
102
RTVSPropertyOp14
 70
     2
102
RTVSPropertyOp15
 70
     0
102
RTVSPropertyOp16
 70
     0
102
RTVSPropertyOp17
 70
     0
102
RTVSPropertyOp18
 70
     0
102
RTVSPropertyOp19
 70
     0
102
RTVSPropertyOp20
 70
     0
102
RTVSPropertyOp21
 70
     0
102
RTVSPropertyOp22
 70
     0
102
RTVSPropertyOp23
 70
     0
102
RTVSPropertyOp24
 70
     0
102
RTVSPropertyOp25
 70
     0
102
RTVSPropertyOp26
 70
     0
102
RTVSPropertyOp27
 70
     0
102
RTVSPropertyOp28
 70
     1
102
RTVSPropertyOp29
 70
     1
102
RTVSPropertyOp30
 70
     1
102
RTVSPropertyOp31
 70
     1
102
RTVSPropertyOp32
 70
     1
102
RTVSPropertyOp33
 70
     1
102
RTVSPropertyOp34
 70
     1
102
RTVSPropertyOp35
 70
     1
102
RTVSPropertyOp36
 70
     1
102
RTVSPropertyOp37
 70
     0
102
RTVSPropertyOp38
 70
     0
102
RTVSPropertyOp39
 70
     0
102
RTVSPropertyOp40
 70
     0
102
RTVSPropertyOp41
 70
     0
102
RTVSPropertyOp42
 70
     0
102
RTVSPropertyOp43
 70
     0
102
RTVSPropertyOp44
 70
     0
102
RTVSPropertyOp45
 70
     1
102
RTVSPropertyOp46
 70
     0
102
RTVSPropertyOp47
 70
     0
102
RTVSPropertyOp48
 70
     0
102
RTVSPropertyOp49
 70
     1
102
RTVSPropertyOp50
 70
     0
102
RTVSPropertyOp51
 70
     0
102
RTVSPropertyOp52
 70
     0
102
RTVSPropertyOp53
 70
     0
102
RTVSPropertyOp54
 70
     0
102
RTVSPropertyOp55
 70
     1
102
RTVSPropertyOp56
 70
     0
102
RTVSPropertyOp57
 70
     0
102
RTVSPropertyOp58
 70
     0
102
RTVSPropertyOp59
 70
     0
102
RTVSPropertyOp60
 70
     0
102
RTVSPropertyOp61
 70
     0
102
RTVSPropertyOp62
 70
     0
  0
XRECORD
  5
45B
102
{ACAD_REACTORS
330
45A
102
}
330
45A
100
AcDbXrecord
280
     1
102
RTVSPost2010Prop28
280
     0
102
RTVSPost2010PropOp28
 70
     1
102
RTVSPost2010Prop29
280
     1
102
RTVSPost2010PropOp29
 70
     1
102
RTVSPost2010Prop30
280
     1
102
RTVSPost2010PropOp30
 70
     1
102
RTVSPost2010Prop31
280
     0
102
RTVSPost2010PropOp31
 70
     1
102
RTVSPost2010Prop32
280
     0
102
RTVSPost2010PropOp32
 70
     1
102
RTVSPost2010Prop33
280
     0
102
RTVSPost2010PropOp33
 70
     1
102
RTVSPost2010Prop34
280
     0
102
RTVSPost2010PropOp34
 70
     1
102
RTVSPost2010Prop35
280
     0
102
RTVSPost2010PropOp35
 70
     1
102
RTVSPost2010Prop36
280
     0
102
RTVSPost2010PropOp36
 70
     1
102
RTVSPost2010Prop37
 90
       50
102
RTVSPost2010PropOp37
 70
     1
102
RTVSPost2010Prop38
140
0.0
102
RTVSPost2010PropOp38
 70
     1
102
RTVSPost2010Prop39
140
1.0
102
RTVSPost2010PropOp39
 70
     1
102
RTVSPost2010Prop40
 90
        0
102
RTVSPost2010PropOp40
 70
     1
102
RTVSPost2010Prop41ColorIndex
 90
       18
102
RTVSPost2010Prop41ColorRGB
 90
        0
102
RTVSPost2010PropOp41
 70
     1
102
RTVSPost2010Prop42
 90
       50
102
RTVSPost2010PropOp42
 70
     1
102
RTVSPost2010Prop43
 90
        3
102
RTVSPost2010PropOp43
 70
     1
102
RTVSPost2010Prop44ColorIndex
 90
        5
102
RTVSPost2010Prop44ColorRGB
 90
      255
102
RTVSPost2010PropOp44
 70
     1
102
RTVSPost2010Prop45
280
     0
102
RTVSPost2010PropOp45
 70
     1
102
RTVSPost2010Prop46
 90
       50
102
RTVSPost2010PropOp46
 70
     1
102
RTVSPost2010Prop47
 90
       50
102
RTVSPost2010PropOp47
 70
     1
102
RTVSPost2010Prop48
 90
       50
102
RTVSPost2010PropOp48
 70
     1
102
RTVSPost2010Prop49
280
     0
102
RTVSPost2010PropOp49
 70
     1
102
RTVSPost2010Prop50
 90
       50
102
RTVSPost2010PropOp50
 70
     1
102
RTVSPost2010Prop51ColorIndex
 90
      256
102
RTVSPost2010Prop51ColorRGB
 90
-16777216
102
RTVSPost2010PropOp51
 70
     0
102
RTVSPost2010Prop52
140
1.0
102
RTVSPost2010PropOp52
 70
     0
102
RTVSPost2010Prop53
 90
        2
102
RTVSPost2010PropOp53
 70
     1
102
RTVSPost2010Prop54
  1
strokes_ogs.tif
102
RTVSPost2010PropOp54
 70
     1
102
RTVSPost2010Prop55
280
     0
102
RTVSPost2010PropOp55
 70
     1
102
RTVSPost2010Prop56
140
1.0
102
RTVSPost2010PropOp56
 70
     1
102
RTVSPost2010Prop57
140
1.0
102
RTVSPost2010PropOp57
 70
     1
102
RTVSPropertyOp0
 70
     1
102
RTVSPropertyOp1
 70
     1
102
RTVSPropertyOp2
 70
     1
102
RTVSPropertyOp3
 70
     1
102
RTVSPropertyOp4
 70
     1
102
RTVSPropertyOp5
 70
     1
102
RTVSPropertyOp6
 70
     1
102
RTVSPropertyOp7
 70
     1
102
RTVSPropertyOp8
 70
     1
102
RTVSPropertyOp9
 70
     1
102
RTVSPropertyOp10
 70
     1
102
RTVSPropertyOp11
 70
     1
102
RTVSPropertyOp12
 70
     1
102
RTVSPropertyOp13
 70
     1
102
RTVSPropertyOp14
 70
     1
102
RTVSPropertyOp15
 70
     1
102
RTVSPropertyOp16
 70
     1
102
RTVSPropertyOp17
 70
     1
102
RTVSPropertyOp18
 70
     1
102
RTVSPropertyOp19
 70
     1
102
RTVSPropertyOp20
 70
     1
102
RTVSPropertyOp21
 70
     1
102
RTVSPropertyOp22
 70
     1
102
RTVSPropertyOp23
 70
     1
102
RTVSPropertyOp24
 70
     1
102
RTVSPropertyOp25
 70
     1
102
RTVSPropertyOp26
 70
     1
102
RTVSPropertyOp27
 70
     1
102
RTVSPropertyOp28
 70
     1
102
RTVSPropertyOp29
 70
     1
102
RTVSPropertyOp30
 70
     1
102
RTVSPropertyOp31
 70
     1
102
RTVSPropertyOp32
 70
     1
102
RTVSPropertyOp33
 70
     1
102
RTVSPropertyOp34
 70
     1
102
RTVSPropertyOp35
 70
     1
102
RTVSPropertyOp36
 70
     1
102
RTVSPropertyOp37
 70
     1
102
RTVSPropertyOp38
 70
     1
102
RTVSPropertyOp39
 70
     1
102
RTVSPropertyOp40
 70
     1
102
RTVSPropertyOp41
 70
     1
102
RTVSPropertyOp42
 70
     1
102
RTVSPropertyOp43
 70
     1
102
RTVSPropertyOp44
 70
     1
102
RTVSPropertyOp45
 70
     1
102
RTVSPropertyOp46
 70
     1
102
RTVSPropertyOp47
 70
     1
102
RTVSPropertyOp48
 70
     1
102
RTVSPropertyOp49
 70
     1
102
RTVSPropertyOp50
 70
     1
102
RTVSPropertyOp51
 70
     0
102
RTVSPropertyOp52
 70
     0
102
RTVSPropertyOp53
 70
     1
102
RTVSPropertyOp54
 70
     1
102
RTVSPropertyOp55
 70
     1
102
RTVSPropertyOp56
 70
     1
102
RTVSPropertyOp57
 70
     1
102
RTVSPropertyOp58
 70
     1
102
RTVSPropertyOp59
 70
     1
102
RTVSPropertyOp60
 70
     1
102
RTVSPropertyOp61
 70
     1
102
RTVSPropertyOp62
 70
     1
  0
XRECORD
  5
471
102
{ACAD_REACTORS
330
470
102
}
330
470
100
AcDbXrecord
280
     1
102
RTVSPost2010Prop28
280
     0
102
RTVSPost2010PropOp28
 70
     1
102
RTVSPost2010Prop29
280
     1
102
RTVSPost2010PropOp29
 70
     1
102
RTVSPost2010Prop30
280
     1
102
RTVSPost2010PropOp30
 70
     1
102
RTVSPost2010Prop31
280
     0
102
RTVSPost2010PropOp31
 70
     1
102
RTVSPost2010Prop32
280
     0
102
RTVSPost2010PropOp32
 70
     1
102
RTVSPost2010Prop33
280
     0
102
RTVSPost2010PropOp33
 70
     1
102
RTVSPost2010Prop34
280
     0
102
RTVSPost2010PropOp34
 70
     1
102
RTVSPost2010Prop35
280
     0
102
RTVSPost2010PropOp35
 70
     1
102
RTVSPost2010Prop36
280
     0
102
RTVSPost2010PropOp36
 70
     1
102
RTVSPost2010Prop37
 90
       50
102
RTVSPost2010PropOp37
 70
     1
102
RTVSPost2010Prop38
140
0.0
102
RTVSPost2010PropOp38
 70
     1
102
RTVSPost2010Prop39
140
1.0
102
RTVSPost2010PropOp39
 70
     1
102
RTVSPost2010Prop40
 90
        0
102
RTVSPost2010PropOp40
 70
     1
102
RTVSPost2010Prop41ColorIndex
 90
       18
102
RTVSPost2010Prop41ColorRGB
 90
        0
102
RTVSPost2010PropOp41
 70
     1
102
RTVSPost2010Prop42
 90
       50
102
RTVSPost2010PropOp42
 70
     1
102
RTVSPost2010Prop43
 90
        3
102
RTVSPost2010PropOp43
 70
     1
102
RTVSPost2010Prop44ColorIndex
 90
        5
102
RTVSPost2010Prop44ColorRGB
 90
      255
102
RTVSPost2010PropOp44
 70
     1
102
RTVSPost2010Prop45
280
     0
102
RTVSPost2010PropOp45
 70
     1
102
RTVSPost2010Prop46
 90
       50
102
RTVSPost2010PropOp46
 70
     1
102
RTVSPost2010Prop47
 90
       50
102
RTVSPost2010PropOp47
 70
     1
102
RTVSPost2010Prop48
 90
       50
102
RTVSPost2010PropOp48
 70
     1
102
RTVSPost2010Prop49
280
     0
102
RTVSPost2010PropOp49
 70
     1
102
RTVSPost2010Prop50
 90
       50
102
RTVSPost2010PropOp50
 70
     1
102
RTVSPost2010Prop51ColorIndex
 90
      256
102
RTVSPost2010Prop51ColorRGB
 90
-16777216
102
RTVSPost2010PropOp51
 70
     0
102
RTVSPost2010Prop52
140
1.0
102
RTVSPost2010PropOp52
 70
     0
102
RTVSPost2010Prop53
 90
        2
102
RTVSPost2010PropOp53
 70
     1
102
RTVSPost2010Prop54
  1
strokes_ogs.tif
102
RTVSPost2010PropOp54
 70
     1
102
RTVSPost2010Prop55
280
     0
102
RTVSPost2010PropOp55
 70
     1
102
RTVSPost2010Prop56
140
1.0
102
RTVSPost2010PropOp56
 70
     1
102
RTVSPost2010Prop57
140
1.0
102
RTVSPost2010PropOp57
 70
     1
102
RTVSPropertyOp0
 70
     1
102
RTVSPropertyOp1
 70
     1
102
RTVSPropertyOp2
 70
     1
102
RTVSPropertyOp3
 70
     1
102
RTVSPropertyOp4
 70
     1
102
RTVSPropertyOp5
 70
     1
102
RTVSPropertyOp6
 70
     1
102
RTVSPropertyOp7
 70
     1
102
RTVSPropertyOp8
 70
     1
102
RTVSPropertyOp9
 70
     1
102
RTVSPropertyOp10
 70
     1
102
RTVSPropertyOp11
 70
     1
102
RTVSPropertyOp12
 70
     1
102
RTVSPropertyOp13
 70
     1
102
RTVSPropertyOp14
 70
     1
102
RTVSPropertyOp15
 70
     1
102
RTVSPropertyOp16
 70
     1
102
RTVSPropertyOp17
 70
     1
102
RTVSPropertyOp18
 70
     1
102
RTVSPropertyOp19
 70
     1
102
RTVSPropertyOp20
 70
     1
102
RTVSPropertyOp21
 70
     1
102
RTVSPropertyOp22
 70
     1
102
RTVSPropertyOp23
 70
     1
102
RTVSPropertyOp24
 70
     1
102
RTVSPropertyOp25
 70
     1
102
RTVSPropertyOp26
 70
     1
102
RTVSPropertyOp27
 70
     1
102
RTVSPropertyOp28
 70
     1
102
RTVSPropertyOp29
 70
     1
102
RTVSPropertyOp30
 70
     1
102
RTVSPropertyOp31
 70
     1
102
RTVSPropertyOp32
 70
     1
102
RTVSPropertyOp33
 70
     1
102
RTVSPropertyOp34
 70
     1
102
RTVSPropertyOp35
 70
     1
102
RTVSPropertyOp36
 70
     1
102
RTVSPropertyOp37
 70
     1
102
RTVSPropertyOp38
 70
     1
102
RTVSPropertyOp39
 70
     1
102
RTVSPropertyOp40
 70
     1
102
RTVSPropertyOp41
 70
     1
102
RTVSPropertyOp42
 70
     1
102
RTVSPropertyOp43
 70
     1
102
RTVSPropertyOp44
 70
     1
102
RTVSPropertyOp45
 70
     1
102
RTVSPropertyOp46
 70
     1
102
RTVSPropertyOp47
 70
     1
102
RTVSPropertyOp48
 70
     1
102
RTVSPropertyOp49
 70
     1
102
RTVSPropertyOp50
 70
     1
102
RTVSPropertyOp51
 70
     0
102
RTVSPropertyOp52
 70
     0
102
RTVSPropertyOp53
 70
     1
102
RTVSPropertyOp54
 70
     1
102
RTVSPropertyOp55
 70
     1
102
RTVSPropertyOp56
 70
     1
102
RTVSPropertyOp57
 70
     1
102
RTVSPropertyOp58
 70
     1
102
RTVSPropertyOp59
 70
     1
102
RTVSPropertyOp60
 70
     1
102
RTVSPropertyOp61
 70
     1
102
RTVSPropertyOp62
 70
     1
  0
XRECORD
  5
46F
102
{ACAD_REACTORS
330
46E
102
}
330
46E
100
AcDbXrecord
280
     1
102
RTVSPost2010Prop28
280
     0
102
RTVSPost2010PropOp28
 70
     1
102
RTVSPost2010Prop29
280
     1
102
RTVSPost2010PropOp29
 70
     1
102
RTVSPost2010Prop30
280
     1
102
RTVSPost2010PropOp30
 70
     1
102
RTVSPost2010Prop31
280
     0
102
RTVSPost2010PropOp31
 70
     1
102
RTVSPost2010Prop32
280
     0
102
RTVSPost2010PropOp32
 70
     1
102
RTVSPost2010Prop33
280
     0
102
RTVSPost2010PropOp33
 70
     1
102
RTVSPost2010Prop34
280
     0
102
RTVSPost2010PropOp34
 70
     1
102
RTVSPost2010Prop35
280
     0
102
RTVSPost2010PropOp35
 70
     1
102
RTVSPost2010Prop36
280
     0
102
RTVSPost2010PropOp36
 70
     1
102
RTVSPost2010Prop37
 90
       50
102
RTVSPost2010PropOp37
 70
     1
102
RTVSPost2010Prop38
140
0.0
102
RTVSPost2010PropOp38
 70
     1
102
RTVSPost2010Prop39
140
1.0
102
RTVSPost2010PropOp39
 70
     1
102
RTVSPost2010Prop40
 90
        0
102
RTVSPost2010PropOp40
 70
     1
102
RTVSPost2010Prop41ColorIndex
 90
       18
102
RTVSPost2010Prop41ColorRGB
 90
        0
102
RTVSPost2010PropOp41
 70
     1
102
RTVSPost2010Prop42
 90
       50
102
RTVSPost2010PropOp42
 70
     1
102
RTVSPost2010Prop43
 90
        3
102
RTVSPost2010PropOp43
 70
     1
102
RTVSPost2010Prop44ColorIndex
 90
        5
102
RTVSPost2010Prop44ColorRGB
 90
      255
102
RTVSPost2010PropOp44
 70
     1
102
RTVSPost2010Prop45
280
     0
102
RTVSPost2010PropOp45
 70
     1
102
RTVSPost2010Prop46
 90
       50
102
RTVSPost2010PropOp46
 70
     1
102
RTVSPost2010Prop47
 90
       50
102
RTVSPost2010PropOp47
 70
     1
102
RTVSPost2010Prop48
 90
       50
102
RTVSPost2010PropOp48
 70
     1
102
RTVSPost2010Prop49
280
     0
102
RTVSPost2010PropOp49
 70
     1
102
RTVSPost2010Prop50
 90
       50
102
RTVSPost2010PropOp50
 70
     1
102
RTVSPost2010Prop51ColorIndex
 90
      256
102
RTVSPost2010Prop51ColorRGB
 90
-16777216
102
RTVSPost2010PropOp51
 70
     0
102
RTVSPost2010Prop52
140
1.0
102
RTVSPost2010PropOp52
 70
     0
102
RTVSPost2010Prop53
 90
        2
102
RTVSPost2010PropOp53
 70
     1
102
RTVSPost2010Prop54
  1
strokes_ogs.tif
102
RTVSPost2010PropOp54
 70
     1
102
RTVSPost2010Prop55
280
     0
102
RTVSPost2010PropOp55
 70
     1
102
RTVSPost2010Prop56
140
1.0
102
RTVSPost2010PropOp56
 70
     1
102
RTVSPost2010Prop57
140
1.0
102
RTVSPost2010PropOp57
 70
     1
102
RTVSPropertyOp0
 70
     1
102
RTVSPropertyOp1
 70
     1
102
RTVSPropertyOp2
 70
     1
102
RTVSPropertyOp3
 70
     1
102
RTVSPropertyOp4
 70
     1
102
RTVSPropertyOp5
 70
     1
102
RTVSPropertyOp6
 70
     1
102
RTVSPropertyOp7
 70
     1
102
RTVSPropertyOp8
 70
     1
102
RTVSPropertyOp9
 70
     1
102
RTVSPropertyOp10
 70
     1
102
RTVSPropertyOp11
 70
     1
102
RTVSPropertyOp12
 70
     1
102
RTVSPropertyOp13
 70
     1
102
RTVSPropertyOp14
 70
     1
102
RTVSPropertyOp15
 70
     1
102
RTVSPropertyOp16
 70
     1
102
RTVSPropertyOp17
 70
     1
102
RTVSPropertyOp18
 70
     1
102
RTVSPropertyOp19
 70
     1
102
RTVSPropertyOp20
 70
     1
102
RTVSPropertyOp21
 70
     1
102
RTVSPropertyOp22
 70
     1
102
RTVSPropertyOp23
 70
     1
102
RTVSPropertyOp24
 70
     1
102
RTVSPropertyOp25
 70
     1
102
RTVSPropertyOp26
 70
     1
102
RTVSPropertyOp27
 70
     1
102
RTVSPropertyOp28
 70
     1
102
RTVSPropertyOp29
 70
     1
102
RTVSPropertyOp30
 70
     1
102
RTVSPropertyOp31
 70
     1
102
RTVSPropertyOp32
 70
     1
102
RTVSPropertyOp33
 70
     1
102
RTVSPropertyOp34
 70
     1
102
RTVSPropertyOp35
 70
     1
102
RTVSPropertyOp36
 70
     1
102
RTVSPropertyOp37
 70
     1
102
RTVSPropertyOp38
 70
     1
102
RTVSPropertyOp39
 70
     1
102
RTVSPropertyOp40
 70
     1
102
RTVSPropertyOp41
 70
     1
102
RTVSPropertyOp42
 70
     1
102
RTVSPropertyOp43
 70
     1
102
RTVSPropertyOp44
 70
     1
102
RTVSPropertyOp45
 70
     1
102
RTVSPropertyOp46
 70
     1
102
RTVSPropertyOp47
 70
     1
102
RTVSPropertyOp48
 70
     1
102
RTVSPropertyOp49
 70
     1
102
RTVSPropertyOp50
 70
     1
102
RTVSPropertyOp51
 70
     0
102
RTVSPropertyOp52
 70
     0
102
RTVSPropertyOp53
 70
     1
102
RTVSPropertyOp54
 70
     1
102
RTVSPropertyOp55
 70
     1
102
RTVSPropertyOp56
 70
     1
102
RTVSPropertyOp57
 70
     1
102
RTVSPropertyOp58
 70
     1
102
RTVSPropertyOp59
 70
     1
102
RTVSPropertyOp60
 70
     1
102
RTVSPropertyOp61
 70
     1
102
RTVSPropertyOp62
 70
     1
  0
XRECORD
  5
469
102
{ACAD_REACTORS
330
468
102
}
330
468
100
AcDbXrecord
280
     1
102
RTVSPost2010Prop28
280
     0
102
RTVSPost2010PropOp28
 70
     1
102
RTVSPost2010Prop29
280
     1
102
RTVSPost2010PropOp29
 70
     1
102
RTVSPost2010Prop30
280
     1
102
RTVSPost2010PropOp30
 70
     1
102
RTVSPost2010Prop31
280
     0
102
RTVSPost2010PropOp31
 70
     1
102
RTVSPost2010Prop32
280
     0
102
RTVSPost2010PropOp32
 70
     1
102
RTVSPost2010Prop33
280
     0
102
RTVSPost2010PropOp33
 70
     1
102
RTVSPost2010Prop34
280
     0
102
RTVSPost2010PropOp34
 70
     1
102
RTVSPost2010Prop35
280
     0
102
RTVSPost2010PropOp35
 70
     1
102
RTVSPost2010Prop36
280
     0
102
RTVSPost2010PropOp36
 70
     1
102
RTVSPost2010Prop37
 90
       50
102
RTVSPost2010PropOp37
 70
     1
102
RTVSPost2010Prop38
140
0.0
102
RTVSPost2010PropOp38
 70
     1
102
RTVSPost2010Prop39
140
1.0
102
RTVSPost2010PropOp39
 70
     1
102
RTVSPost2010Prop40
 90
        0
102
RTVSPost2010PropOp40
 70
     1
102
RTVSPost2010Prop41ColorIndex
 90
       18
102
RTVSPost2010Prop41ColorRGB
 90
        0
102
RTVSPost2010PropOp41
 70
     1
102
RTVSPost2010Prop42
 90
       50
102
RTVSPost2010PropOp42
 70
     1
102
RTVSPost2010Prop43
 90
        3
102
RTVSPost2010PropOp43
 70
     1
102
RTVSPost2010Prop44ColorIndex
 90
        5
102
RTVSPost2010Prop44ColorRGB
 90
      255
102
RTVSPost2010PropOp44
 70
     1
102
RTVSPost2010Prop45
280
     0
102
RTVSPost2010PropOp45
 70
     1
102
RTVSPost2010Prop46
 90
       50
102
RTVSPost2010PropOp46
 70
     1
102
RTVSPost2010Prop47
 90
       50
102
RTVSPost2010PropOp47
 70
     1
102
RTVSPost2010Prop48
 90
       50
102
RTVSPost2010PropOp48
 70
     1
102
RTVSPost2010Prop49
280
     0
102
RTVSPost2010PropOp49
 70
     1
102
RTVSPost2010Prop50
 90
       50
102
RTVSPost2010PropOp50
 70
     1
102
RTVSPost2010Prop51ColorIndex
 90
      256
102
RTVSPost2010Prop51ColorRGB
 90
-16777216
102
RTVSPost2010PropOp51
 70
     0
102
RTVSPost2010Prop52
140
1.0
102
RTVSPost2010PropOp52
 70
     0
102
RTVSPost2010Prop53
 90
        2
102
RTVSPost2010PropOp53
 70
     1
102
RTVSPost2010Prop54
  1
strokes_ogs.tif
102
RTVSPost2010PropOp54
 70
     1
102
RTVSPost2010Prop55
280
     0
102
RTVSPost2010PropOp55
 70
     1
102
RTVSPost2010Prop56
140
1.0
102
RTVSPost2010PropOp56
 70
     1
102
RTVSPost2010Prop57
140
1.0
102
RTVSPost2010PropOp57
 70
     1
102
RTVSPropertyOp0
 70
     1
102
RTVSPropertyOp1
 70
     1
102
RTVSPropertyOp2
 70
     1
102
RTVSPropertyOp3
 70
     1
102
RTVSPropertyOp4
 70
     1
102
RTVSPropertyOp5
 70
     1
102
RTVSPropertyOp6
 70
     1
102
RTVSPropertyOp7
 70
     1
102
RTVSPropertyOp8
 70
     1
102
RTVSPropertyOp9
 70
     1
102
RTVSPropertyOp10
 70
     1
102
RTVSPropertyOp11
 70
     1
102
RTVSPropertyOp12
 70
     1
102
RTVSPropertyOp13
 70
     1
102
RTVSPropertyOp14
 70
     1
102
RTVSPropertyOp15
 70
     1
102
RTVSPropertyOp16
 70
     1
102
RTVSPropertyOp17
 70
     1
102
RTVSPropertyOp18
 70
     1
102
RTVSPropertyOp19
 70
     1
102
RTVSPropertyOp20
 70
     1
102
RTVSPropertyOp21
 70
     1
102
RTVSPropertyOp22
 70
     1
102
RTVSPropertyOp23
 70
     1
102
RTVSPropertyOp24
 70
     1
102
RTVSPropertyOp25
 70
     1
102
RTVSPropertyOp26
 70
     1
102
RTVSPropertyOp27
 70
     1
102
RTVSPropertyOp28
 70
     1
102
RTVSPropertyOp29
 70
     1
102
RTVSPropertyOp30
 70
     1
102
RTVSPropertyOp31
 70
     1
102
RTVSPropertyOp32
 70
     1
102
RTVSPropertyOp33
 70
     1
102
RTVSPropertyOp34
 70
     1
102
RTVSPropertyOp35
 70
     1
102
RTVSPropertyOp36
 70
     1
102
RTVSPropertyOp37
 70
     1
102
RTVSPropertyOp38
 70
     1
102
RTVSPropertyOp39
 70
     1
102
RTVSPropertyOp40
 70
     1
102
RTVSPropertyOp41
 70
     1
102
RTVSPropertyOp42
 70
     1
102
RTVSPropertyOp43
 70
     1
102
RTVSPropertyOp44
 70
     1
102
RTVSPropertyOp45
 70
     1
102
RTVSPropertyOp46
 70
     1
102
RTVSPropertyOp47
 70
     1
102
RTVSPropertyOp48
 70
     1
102
RTVSPropertyOp49
 70
     1
102
RTVSPropertyOp50
 70
     1
102
RTVSPropertyOp51
 70
     0
102
RTVSPropertyOp52
 70
     0
102
RTVSPropertyOp53
 70
     1
102
RTVSPropertyOp54
 70
     1
102
RTVSPropertyOp55
 70
     1
102
RTVSPropertyOp56
 70
     1
102
RTVSPropertyOp57
 70
     1
102
RTVSPropertyOp58
 70
     1
102
RTVSPropertyOp59
 70
     1
102
RTVSPropertyOp60
 70
     1
102
RTVSPropertyOp61
 70
     1
102
RTVSPropertyOp62
 70
     1
  0
XRECORD
  5
46B
102
{ACAD_REACTORS
330
46A
102
}
330
46A
100
AcDbXrecord
280
     1
102
RTVSPost2010Prop28
280
     0
102
RTVSPost2010PropOp28
 70
     1
102
RTVSPost2010Prop29
280
     1
102
RTVSPost2010PropOp29
 70
     1
102
RTVSPost2010Prop30
280
     1
102
RTVSPost2010PropOp30
 70
     1
102
RTVSPost2010Prop31
280
     0
102
RTVSPost2010PropOp31
 70
     1
102
RTVSPost2010Prop32
280
     0
102
RTVSPost2010PropOp32
 70
     1
102
RTVSPost2010Prop33
280
     0
102
RTVSPost2010PropOp33
 70
     1
102
RTVSPost2010Prop34
280
     0
102
RTVSPost2010PropOp34
 70
     1
102
RTVSPost2010Prop35
280
     0
102
RTVSPost2010PropOp35
 70
     1
102
RTVSPost2010Prop36
280
     0
102
RTVSPost2010PropOp36
 70
     1
102
RTVSPost2010Prop37
 90
       50
102
RTVSPost2010PropOp37
 70
     1
102
RTVSPost2010Prop38
140
0.0
102
RTVSPost2010PropOp38
 70
     1
102
RTVSPost2010Prop39
140
1.0
102
RTVSPost2010PropOp39
 70
     1
102
RTVSPost2010Prop40
 90
        0
102
RTVSPost2010PropOp40
 70
     1
102
RTVSPost2010Prop41ColorIndex
 90
       18
102
RTVSPost2010Prop41ColorRGB
 90
        0
102
RTVSPost2010PropOp41
 70
     1
102
RTVSPost2010Prop42
 90
       50
102
RTVSPost2010PropOp42
 70
     1
102
RTVSPost2010Prop43
 90
        3
102
RTVSPost2010PropOp43
 70
     1
102
RTVSPost2010Prop44ColorIndex
 90
        5
102
RTVSPost2010Prop44ColorRGB
 90
      255
102
RTVSPost2010PropOp44
 70
     1
102
RTVSPost2010Prop45
280
     0
102
RTVSPost2010PropOp45
 70
     1
102
RTVSPost2010Prop46
 90
       50
102
RTVSPost2010PropOp46
 70
     1
102
RTVSPost2010Prop47
 90
       50
102
RTVSPost2010PropOp47
 70
     1
102
RTVSPost2010Prop48
 90
       50
102
RTVSPost2010PropOp48
 70
     1
102
RTVSPost2010Prop49
280
     0
102
RTVSPost2010PropOp49
 70
     1
102
RTVSPost2010Prop50
 90
       50
102
RTVSPost2010PropOp50
 70
     1
102
RTVSPost2010Prop51ColorIndex
 90
      256
102
RTVSPost2010Prop51ColorRGB
 90
-16777216
102
RTVSPost2010PropOp51
 70
     0
102
RTVSPost2010Prop52
140
1.0
102
RTVSPost2010PropOp52
 70
     0
102
RTVSPost2010Prop53
 90
        2
102
RTVSPost2010PropOp53
 70
     1
102
RTVSPost2010Prop54
  1
strokes_ogs.tif
102
RTVSPost2010PropOp54
 70
     1
102
RTVSPost2010Prop55
280
     0
102
RTVSPost2010PropOp55
 70
     1
102
RTVSPost2010Prop56
140
1.0
102
RTVSPost2010PropOp56
 70
     1
102
RTVSPost2010Prop57
140
1.0
102
RTVSPost2010PropOp57
 70
     1
102
RTVSPropertyOp0
 70
     1
102
RTVSPropertyOp1
 70
     1
102
RTVSPropertyOp2
 70
     1
102
RTVSPropertyOp3
 70
     1
102
RTVSPropertyOp4
 70
     1
102
RTVSPropertyOp5
 70
     1
102
RTVSPropertyOp6
 70
     1
102
RTVSPropertyOp7
 70
     1
102
RTVSPropertyOp8
 70
     1
102
RTVSPropertyOp9
 70
     1
102
RTVSPropertyOp10
 70
     1
102
RTVSPropertyOp11
 70
     1
102
RTVSPropertyOp12
 70
     1
102
RTVSPropertyOp13
 70
     1
102
RTVSPropertyOp14
 70
     1
102
RTVSPropertyOp15
 70
     1
102
RTVSPropertyOp16
 70
     1
102
RTVSPropertyOp17
 70
     1
102
RTVSPropertyOp18
 70
     1
102
RTVSPropertyOp19
 70
     1
102
RTVSPropertyOp20
 70
     1
102
RTVSPropertyOp21
 70
     1
102
RTVSPropertyOp22
 70
     1
102
RTVSPropertyOp23
 70
     1
102
RTVSPropertyOp24
 70
     1
102
RTVSPropertyOp25
 70
     1
102
RTVSPropertyOp26
 70
     1
102
RTVSPropertyOp27
 70
     1
102
RTVSPropertyOp28
 70
     1
102
RTVSPropertyOp29
 70
     1
102
RTVSPropertyOp30
 70
     1
102
RTVSPropertyOp31
 70
     1
102
RTVSPropertyOp32
 70
     1
102
RTVSPropertyOp33
 70
     1
102
RTVSPropertyOp34
 70
     1
102
RTVSPropertyOp35
 70
     1
102
RTVSPropertyOp36
 70
     1
102
RTVSPropertyOp37
 70
     1
102
RTVSPropertyOp38
 70
     1
102
RTVSPropertyOp39
 70
     1
102
RTVSPropertyOp40
 70
     1
102
RTVSPropertyOp41
 70
     1
102
RTVSPropertyOp42
 70
     1
102
RTVSPropertyOp43
 70
     1
102
RTVSPropertyOp44
 70
     1
102
RTVSPropertyOp45
 70
     1
102
RTVSPropertyOp46
 70
     1
102
RTVSPropertyOp47
 70
     1
102
RTVSPropertyOp48
 70
     1
102
RTVSPropertyOp49
 70
     1
102
RTVSPropertyOp50
 70
     1
102
RTVSPropertyOp51
 70
     0
102
RTVSPropertyOp52
 70
     0
102
RTVSPropertyOp53
 70
     1
102
RTVSPropertyOp54
 70
     1
102
RTVSPropertyOp55
 70
     1
102
RTVSPropertyOp56
 70
     1
102
RTVSPropertyOp57
 70
     1
102
RTVSPropertyOp58
 70
     1
102
RTVSPropertyOp59
 70
     1
102
RTVSPropertyOp60
 70
     1
102
RTVSPropertyOp61
 70
     1
102
RTVSPropertyOp62
 70
     1
  0
XRECORD
  5
461
102
{ACAD_REACTORS
330
460
102
}
330
460
100
AcDbXrecord
280
     1
102
RTVSPost2010Prop28
280
     0
102
RTVSPost2010PropOp28
 70
     1
102
RTVSPost2010Prop29
280
     1
102
RTVSPost2010PropOp29
 70
     1
102
RTVSPost2010Prop30
280
     1
102
RTVSPost2010PropOp30
 70
     1
102
RTVSPost2010Prop31
280
     0
102
RTVSPost2010PropOp31
 70
     1
102
RTVSPost2010Prop32
280
     0
102
RTVSPost2010PropOp32
 70
     1
102
RTVSPost2010Prop33
280
     0
102
RTVSPost2010PropOp33
 70
     1
102
RTVSPost2010Prop34
280
     0
102
RTVSPost2010PropOp34
 70
     1
102
RTVSPost2010Prop35
280
     0
102
RTVSPost2010PropOp35
 70
     1
102
RTVSPost2010Prop36
280
     0
102
RTVSPost2010PropOp36
 70
     1
102
RTVSPost2010Prop37
 90
       50
102
RTVSPost2010PropOp37
 70
     1
102
RTVSPost2010Prop38
140
0.0
102
RTVSPost2010PropOp38
 70
     1
102
RTVSPost2010Prop39
140
1.0
102
RTVSPost2010PropOp39
 70
     1
102
RTVSPost2010Prop40
 90
        0
102
RTVSPost2010PropOp40
 70
     1
102
RTVSPost2010Prop41ColorIndex
 90
       18
102
RTVSPost2010Prop41ColorRGB
 90
        0
102
RTVSPost2010PropOp41
 70
     1
102
RTVSPost2010Prop42
 90
       50
102
RTVSPost2010PropOp42
 70
     1
102
RTVSPost2010Prop43
 90
        3
102
RTVSPost2010PropOp43
 70
     1
102
RTVSPost2010Prop44ColorIndex
 90
        5
102
RTVSPost2010Prop44ColorRGB
 90
      255
102
RTVSPost2010PropOp44
 70
     1
102
RTVSPost2010Prop45
280
     0
102
RTVSPost2010PropOp45
 70
     1
102
RTVSPost2010Prop46
 90
       50
102
RTVSPost2010PropOp46
 70
     1
102
RTVSPost2010Prop47
 90
       50
102
RTVSPost2010PropOp47
 70
     1
102
RTVSPost2010Prop48
 90
       50
102
RTVSPost2010PropOp48
 70
     1
102
RTVSPost2010Prop49
280
     0
102
RTVSPost2010PropOp49
 70
     1
102
RTVSPost2010Prop50
 90
       50
102
RTVSPost2010PropOp50
 70
     1
102
RTVSPost2010Prop51ColorIndex
 90
      256
102
RTVSPost2010Prop51ColorRGB
 90
-16777216
102
RTVSPost2010PropOp51
 70
     0
102
RTVSPost2010Prop52
140
1.0
102
RTVSPost2010PropOp52
 70
     0
102
RTVSPost2010Prop53
 90
        2
102
RTVSPost2010PropOp53
 70
     1
102
RTVSPost2010Prop54
  1
strokes_ogs.tif
102
RTVSPost2010PropOp54
 70
     1
102
RTVSPost2010Prop55
280
     0
102
RTVSPost2010PropOp55
 70
     1
102
RTVSPost2010Prop56
140
1.0
102
RTVSPost2010PropOp56
 70
     1
102
RTVSPost2010Prop57
140
1.0
102
RTVSPost2010PropOp57
 70
     1
102
RTVSPropertyOp0
 70
     1
102
RTVSPropertyOp1
 70
     1
102
RTVSPropertyOp2
 70
     1
102
RTVSPropertyOp3
 70
     1
102
RTVSPropertyOp4
 70
     1
102
RTVSPropertyOp5
 70
     1
102
RTVSPropertyOp6
 70
     1
102
RTVSPropertyOp7
 70
     1
102
RTVSPropertyOp8
 70
     1
102
RTVSPropertyOp9
 70
     1
102
RTVSPropertyOp10
 70
     1
102
RTVSPropertyOp11
 70
     1
102
RTVSPropertyOp12
 70
     1
102
RTVSPropertyOp13
 70
     1
102
RTVSPropertyOp14
 70
     1
102
RTVSPropertyOp15
 70
     1
102
RTVSPropertyOp16
 70
     1
102
RTVSPropertyOp17
 70
     1
102
RTVSPropertyOp18
 70
     1
102
RTVSPropertyOp19
 70
     1
102
RTVSPropertyOp20
 70
     1
102
RTVSPropertyOp21
 70
     1
102
RTVSPropertyOp22
 70
     1
102
RTVSPropertyOp23
 70
     1
102
RTVSPropertyOp24
 70
     1
102
RTVSPropertyOp25
 70
     1
102
RTVSPropertyOp26
 70
     1
102
RTVSPropertyOp27
 70
     1
102
RTVSPropertyOp28
 70
     1
102
RTVSPropertyOp29
 70
     1
102
RTVSPropertyOp30
 70
     1
102
RTVSPropertyOp31
 70
     1
102
RTVSPropertyOp32
 70
     1
102
RTVSPropertyOp33
 70
     1
102
RTVSPropertyOp34
 70
     1
102
RTVSPropertyOp35
 70
     1
102
RTVSPropertyOp36
 70
     1
102
RTVSPropertyOp37
 70
     1
102
RTVSPropertyOp38
 70
     1
102
RTVSPropertyOp39
 70
     1
102
RTVSPropertyOp40
 70
     1
102
RTVSPropertyOp41
 70
     1
102
RTVSPropertyOp42
 70
     1
102
RTVSPropertyOp43
 70
     1
102
RTVSPropertyOp44
 70
     1
102
RTVSPropertyOp45
 70
     1
102
RTVSPropertyOp46
 70
     1
102
RTVSPropertyOp47
 70
     1
102
RTVSPropertyOp48
 70
     1
102
RTVSPropertyOp49
 70
     1
102
RTVSPropertyOp50
 70
     1
102
RTVSPropertyOp51
 70
     0
102
RTVSPropertyOp52
 70
     0
102
RTVSPropertyOp53
 70
     1
102
RTVSPropertyOp54
 70
     1
102
RTVSPropertyOp55
 70
     1
102
RTVSPropertyOp56
 70
     1
102
RTVSPropertyOp57
 70
     1
102
RTVSPropertyOp58
 70
     1
102
RTVSPropertyOp59
 70
     1
102
RTVSPropertyOp60
 70
     1
102
RTVSPropertyOp61
 70
     1
102
RTVSPropertyOp62
 70
     1
  0
XRECORD
  5
455
102
{ACAD_REACTORS
330
454
102
}
330
454
100
AcDbXrecord
280
     1
102
RTVSPost2010Prop28
280
     0
102
RTVSPost2010PropOp28
 70
     1
102
RTVSPost2010Prop29
280
     1
102
RTVSPost2010PropOp29
 70
     1
102
RTVSPost2010Prop30
280
     1
102
RTVSPost2010PropOp30
 70
     1
102
RTVSPost2010Prop31
280
     0
102
RTVSPost2010PropOp31
 70
     1
102
RTVSPost2010Prop32
280
     0
102
RTVSPost2010PropOp32
 70
     1
102
RTVSPost2010Prop33
280
     0
102
RTVSPost2010PropOp33
 70
     1
102
RTVSPost2010Prop34
280
     0
102
RTVSPost2010PropOp34
 70
     1
102
RTVSPost2010Prop35
280
     0
102
RTVSPost2010PropOp35
 70
     1
102
RTVSPost2010Prop36
280
     0
102
RTVSPost2010PropOp36
 70
     1
102
RTVSPost2010Prop37
 90
       50
102
RTVSPost2010PropOp37
 70
     1
102
RTVSPost2010Prop38
140
0.0
102
RTVSPost2010PropOp38
 70
     1
102
RTVSPost2010Prop39
140
1.0
102
RTVSPost2010PropOp39
 70
     1
102
RTVSPost2010Prop40
 90
        0
102
RTVSPost2010PropOp40
 70
     1
102
RTVSPost2010Prop41ColorIndex
 90
       18
102
RTVSPost2010Prop41ColorRGB
 90
        0
102
RTVSPost2010PropOp41
 70
     1
102
RTVSPost2010Prop42
 90
       50
102
RTVSPost2010PropOp42
 70
     1
102
RTVSPost2010Prop43
 90
        3
102
RTVSPost2010PropOp43
 70
     1
102
RTVSPost2010Prop44ColorIndex
 90
        5
102
RTVSPost2010Prop44ColorRGB
 90
      255
102
RTVSPost2010PropOp44
 70
     1
102
RTVSPost2010Prop45
280
     0
102
RTVSPost2010PropOp45
 70
     1
102
RTVSPost2010Prop46
 90
       50
102
RTVSPost2010PropOp46
 70
     1
102
RTVSPost2010Prop47
 90
       50
102
RTVSPost2010PropOp47
 70
     1
102
RTVSPost2010Prop48
 90
       50
102
RTVSPost2010PropOp48
 70
     1
102
RTVSPost2010Prop49
280
     0
102
RTVSPost2010PropOp49
 70
     1
102
RTVSPost2010Prop50
 90
       50
102
RTVSPost2010PropOp50
 70
     1
102
RTVSPost2010Prop51ColorIndex
 90
      256
102
RTVSPost2010Prop51ColorRGB
 90
-16777216
102
RTVSPost2010PropOp51
 70
     0
102
RTVSPost2010Prop52
140
1.0
102
RTVSPost2010PropOp52
 70
     0
102
RTVSPost2010Prop53
 90
        2
102
RTVSPost2010PropOp53
 70
     1
102
RTVSPost2010Prop54
  1
strokes_ogs.tif
102
RTVSPost2010PropOp54
 70
     1
102
RTVSPost2010Prop55
280
     0
102
RTVSPost2010PropOp55
 70
     1
102
RTVSPost2010Prop56
140
1.0
102
RTVSPost2010PropOp56
 70
     1
102
RTVSPost2010Prop57
140
1.0
102
RTVSPost2010PropOp57
 70
     1
102
RTVSPropertyOp0
 70
     1
102
RTVSPropertyOp1
 70
     1
102
RTVSPropertyOp2
 70
     1
102
RTVSPropertyOp3
 70
     1
102
RTVSPropertyOp4
 70
     1
102
RTVSPropertyOp5
 70
     1
102
RTVSPropertyOp6
 70
     1
102
RTVSPropertyOp7
 70
     1
102
RTVSPropertyOp8
 70
     1
102
RTVSPropertyOp9
 70
     1
102
RTVSPropertyOp10
 70
     1
102
RTVSPropertyOp11
 70
     1
102
RTVSPropertyOp12
 70
     1
102
RTVSPropertyOp13
 70
     1
102
RTVSPropertyOp14
 70
     1
102
RTVSPropertyOp15
 70
     1
102
RTVSPropertyOp16
 70
     1
102
RTVSPropertyOp17
 70
     1
102
RTVSPropertyOp18
 70
     1
102
RTVSPropertyOp19
 70
     1
102
RTVSPropertyOp20
 70
     1
102
RTVSPropertyOp21
 70
     1
102
RTVSPropertyOp22
 70
     1
102
RTVSPropertyOp23
 70
     1
102
RTVSPropertyOp24
 70
     1
102
RTVSPropertyOp25
 70
     1
102
RTVSPropertyOp26
 70
     1
102
RTVSPropertyOp27
 70
     1
102
RTVSPropertyOp28
 70
     1
102
RTVSPropertyOp29
 70
     1
102
RTVSPropertyOp30
 70
     1
102
RTVSPropertyOp31
 70
     1
102
RTVSPropertyOp32
 70
     1
102
RTVSPropertyOp33
 70
     1
102
RTVSPropertyOp34
 70
     1
102
RTVSPropertyOp35
 70
     1
102
RTVSPropertyOp36
 70
     1
102
RTVSPropertyOp37
 70
     1
102
RTVSPropertyOp38
 70
     1
102
RTVSPropertyOp39
 70
     1
102
RTVSPropertyOp40
 70
     1
102
RTVSPropertyOp41
 70
     1
102
RTVSPropertyOp42
 70
     1
102
RTVSPropertyOp43
 70
     1
102
RTVSPropertyOp44
 70
     1
102
RTVSPropertyOp45
 70
     1
102
RTVSPropertyOp46
 70
     1
102
RTVSPropertyOp47
 70
     1
102
RTVSPropertyOp48
 70
     1
102
RTVSPropertyOp49
 70
     1
102
RTVSPropertyOp50
 70
     1
102
RTVSPropertyOp51
 70
     0
102
RTVSPropertyOp52
 70
     0
102
RTVSPropertyOp53
 70
     1
102
RTVSPropertyOp54
 70
     1
102
RTVSPropertyOp55
 70
     1
102
RTVSPropertyOp56
 70
     1
102
RTVSPropertyOp57
 70
     1
102
RTVSPropertyOp58
 70
     1
102
RTVSPropertyOp59
 70
     1
102
RTVSPropertyOp60
 70
     1
102
RTVSPropertyOp61
 70
     1
102
RTVSPropertyOp62
 70
     1
  0
XRECORD
  5
46D
102
{ACAD_REACTORS
330
46C
102
}
330
46C
100
AcDbXrecord
280
     1
102
RTVSPost2010Prop28
280
     0
102
RTVSPost2010PropOp28
 70
     1
102
RTVSPost2010Prop29
280
     1
102
RTVSPost2010PropOp29
 70
     1
102
RTVSPost2010Prop30
280
     1
102
RTVSPost2010PropOp30
 70
     1
102
RTVSPost2010Prop31
280
     0
102
RTVSPost2010PropOp31
 70
     1
102
RTVSPost2010Prop32
280
     0
102
RTVSPost2010PropOp32
 70
     1
102
RTVSPost2010Prop33
280
     0
102
RTVSPost2010PropOp33
 70
     1
102
RTVSPost2010Prop34
280
     0
102
RTVSPost2010PropOp34
 70
     1
102
RTVSPost2010Prop35
280
     0
102
RTVSPost2010PropOp35
 70
     1
102
RTVSPost2010Prop36
280
     0
102
RTVSPost2010PropOp36
 70
     1
102
RTVSPost2010Prop37
 90
       50
102
RTVSPost2010PropOp37
 70
     1
102
RTVSPost2010Prop38
140
0.0
102
RTVSPost2010PropOp38
 70
     1
102
RTVSPost2010Prop39
140
1.0
102
RTVSPost2010PropOp39
 70
     1
102
RTVSPost2010Prop40
 90
        0
102
RTVSPost2010PropOp40
 70
     1
102
RTVSPost2010Prop41ColorIndex
 90
       18
102
RTVSPost2010Prop41ColorRGB
 90
        0
102
RTVSPost2010PropOp41
 70
     1
102
RTVSPost2010Prop42
 90
       50
102
RTVSPost2010PropOp42
 70
     1
102
RTVSPost2010Prop43
 90
        3
102
RTVSPost2010PropOp43
 70
     1
102
RTVSPost2010Prop44ColorIndex
 90
        5
102
RTVSPost2010Prop44ColorRGB
 90
      255
102
RTVSPost2010PropOp44
 70
     1
102
RTVSPost2010Prop45
280
     0
102
RTVSPost2010PropOp45
 70
     1
102
RTVSPost2010Prop46
 90
       50
102
RTVSPost2010PropOp46
 70
     1
102
RTVSPost2010Prop47
 90
       50
102
RTVSPost2010PropOp47
 70
     1
102
RTVSPost2010Prop48
 90
       50
102
RTVSPost2010PropOp48
 70
     1
102
RTVSPost2010Prop49
280
     0
102
RTVSPost2010PropOp49
 70
     1
102
RTVSPost2010Prop50
 90
       50
102
RTVSPost2010PropOp50
 70
     1
102
RTVSPost2010Prop51ColorIndex
 90
      256
102
RTVSPost2010Prop51ColorRGB
 90
-16777216
102
RTVSPost2010PropOp51
 70
     0
102
RTVSPost2010Prop52
140
1.0
102
RTVSPost2010PropOp52
 70
     0
102
RTVSPost2010Prop53
 90
        2
102
RTVSPost2010PropOp53
 70
     1
102
RTVSPost2010Prop54
  1
strokes_ogs.tif
102
RTVSPost2010PropOp54
 70
     1
102
RTVSPost2010Prop55
280
     0
102
RTVSPost2010PropOp55
 70
     1
102
RTVSPost2010Prop56
140
1.0
102
RTVSPost2010PropOp56
 70
     1
102
RTVSPost2010Prop57
140
1.0
102
RTVSPost2010PropOp57
 70
     1
102
RTVSPropertyOp0
 70
     1
102
RTVSPropertyOp1
 70
     1
102
RTVSPropertyOp2
 70
     1
102
RTVSPropertyOp3
 70
     1
102
RTVSPropertyOp4
 70
     1
102
RTVSPropertyOp5
 70
     1
102
RTVSPropertyOp6
 70
     1
102
RTVSPropertyOp7
 70
     1
102
RTVSPropertyOp8
 70
     1
102
RTVSPropertyOp9
 70
     1
102
RTVSPropertyOp10
 70
     1
102
RTVSPropertyOp11
 70
     1
102
RTVSPropertyOp12
 70
     1
102
RTVSPropertyOp13
 70
     1
102
RTVSPropertyOp14
 70
     1
102
RTVSPropertyOp15
 70
     1
102
RTVSPropertyOp16
 70
     1
102
RTVSPropertyOp17
 70
     1
102
RTVSPropertyOp18
 70
     1
102
RTVSPropertyOp19
 70
     1
102
RTVSPropertyOp20
 70
     1
102
RTVSPropertyOp21
 70
     1
102
RTVSPropertyOp22
 70
     1
102
RTVSPropertyOp23
 70
     1
102
RTVSPropertyOp24
 70
     1
102
RTVSPropertyOp25
 70
     1
102
RTVSPropertyOp26
 70
     1
102
RTVSPropertyOp27
 70
     1
102
RTVSPropertyOp28
 70
     1
102
RTVSPropertyOp29
 70
     1
102
RTVSPropertyOp30
 70
     1
102
RTVSPropertyOp31
 70
     1
102
RTVSPropertyOp32
 70
     1
102
RTVSPropertyOp33
 70
     1
102
RTVSPropertyOp34
 70
     1
102
RTVSPropertyOp35
 70
     1
102
RTVSPropertyOp36
 70
     1
102
RTVSPropertyOp37
 70
     1
102
RTVSPropertyOp38
 70
     1
102
RTVSPropertyOp39
 70
     1
102
RTVSPropertyOp40
 70
     1
102
RTVSPropertyOp41
 70
     1
102
RTVSPropertyOp42
 70
     1
102
RTVSPropertyOp43
 70
     1
102
RTVSPropertyOp44
 70
     1
102
RTVSPropertyOp45
 70
     1
102
RTVSPropertyOp46
 70
     1
102
RTVSPropertyOp47
 70
     1
102
RTVSPropertyOp48
 70
     1
102
RTVSPropertyOp49
 70
     1
102
RTVSPropertyOp50
 70
     1
102
RTVSPropertyOp51
 70
     0
102
RTVSPropertyOp52
 70
     0
102
RTVSPropertyOp53
 70
     1
102
RTVSPropertyOp54
 70
     1
102
RTVSPropertyOp55
 70
     1
102
RTVSPropertyOp56
 70
     1
102
RTVSPropertyOp57
 70
     1
102
RTVSPropertyOp58
 70
     1
102
RTVSPropertyOp59
 70
     1
102
RTVSPropertyOp60
 70
     1
102
RTVSPropertyOp61
 70
     1
102
RTVSPropertyOp62
 70
     1
  0
ENDSEC
  0
EOF
