  0
SECTION
  2
HEADER
  9
$ACADVER
  1
AC1009
  9
$INSBASE
 10
0.0
 20
0.0
 30
0.0
  9
$EXTMIN
 10
-1350.0823911746061
 20
-2014.8832945933329
 30
-0.0015258207003583
  9
$EXTMAX
 10
1350.0824037474611
 20
1999.567671355127
 30
0.0000000349246037
  9
$LIMMIN
 10
0.0
 20
0.0
  9
$LIMMAX
 10
0.0
 20
0.0
  9
$ORTHOMODE
 70
     0
  9
$REGENMODE
 70
     1
  9
$FILLMODE
 70
     1
  9
$QTEXTMODE
 70
     0
  9
$MIRRTEXT
 70
     1
  9
$DRAGMODE
 70
     2
  9
$LTSCALE
 40
76.200000000000003
  9
$OSMODE
 70
   231
  9
$ATTMODE
 70
     1
  9
$TEXTSIZE
 40
0.0
  9
$TRACEWID
 40
1.0
  9
$TEXTSTYLE
  7
STANDARD
  9
$CLAYER
  8
DATA
  9
$CELTYPE
  6
BYLAYER
  9
$CECOLOR
 62
   256
  9
$DIMSCALE
 40
1.0
  9
$DIMASZ
 40
0.18
  9
$DIMEXO
 40
0.0625
  9
$DIMDLI
 40
0.38
  9
$DIMRND
 40
0.0
  9
$DIMDLE
 40
0.0
  9
$DIMEXE
 40
0.18
  9
$DIMTP
 40
0.0
  9
$DIMTM
 40
0.0
  9
$DIMTXT
 40
0.18
  9
$DIMCEN
 40
0.09
  9
$DIMTSZ
 40
0.0
  9
$DIMTOL
 70
     0
  9
$DIMLIM
 70
     0
  9
$DIMTIH
 70
     1
  9
$DIMTOH
 70
     1
  9
$DIMSE1
 70
     0
  9
$DIMSE2
 70
     0
  9
$DIMTAD
 70
     0
  9
$DIMZIN
 70
     0
  9
$DIMBLK
  1

  9
$DIMASO
 70
     1
  9
$DIMSHO
 70
     1
  9
$DIMPOST
  1

  9
$DIMAPOST
  1

  9
$DIMALT
 70
     0
  9
$DIMALTD
 70
     2
  9
$DIMALTF
 40
25.399999999999999
  9
$DIMLFAC
 40
1.0
  9
$DIMTOFL
 70
     0
  9
$DIMTVP
 40
0.0
  9
$DIMTIX
 70
     0
  9
$DIMSOXD
 70
     0
  9
$DIMSAH
 70
     0
  9
$DIMBLK1
  1

  9
$DIMBLK2
  1

  9
$DIMSTYLE
  2
STANDARD
  9
$DIMCLRD
 70
     0
  9
$DIMCLRE
 70
     0
  9
$DIMCLRT
 70
     0
  9
$DIMTFAC
 40
1.0
  9
$DIMGAP
 40
0.09
  9
$LUNITS
 70
     2
  9
$LUPREC
 70
     4
  9
$SKETCHINC
 40
0.1
  9
$FILLETRAD
 40
0.0
  9
$AUNITS
 70
     0
  9
$AUPREC
 70
     0
  9
$MENU
  1
acad
  9
$ELEVATION
 40
0.0
  9
$PELEVATION
 40
0.0
  9
$THICKNESS
 40
0.0
  9
$LIMCHECK
 70
     0
  9
$BLIPMODE
 70
     0
  9
$CHAMFERA
 40
0.0
  9
$CHAMFERB
 40
0.0
  9
$SKPOLY
 70
     0
  9
$TDCREATE
 40
2456693.7627430549
  9
$TDUPDATE
 40
2456693.7718762741
  9
$TDINDWG
 40
0.0003650347
  9
$TDUSRTIMER
 40
0.0003648495
  9
$USRTIMER
 70
     1
  9
$ANGBASE
 50
0.0
  9
$ANGDIR
 70
     0
  9
$PDMODE
 70
     1
  9
$PDSIZE
 40
-2.0
  9
$PLINEWID
 40
0.0
  9
$COORDS
 70
     2
  9
$SPLFRAME
 70
     0
  9
$SPLINETYPE
 70
     6
  9
$SPLINESEGS
 70
     8
  9
$ATTDIA
 70
     0
  9
$ATTREQ
 70
     1
  9
$HANDLING
 70
     1
  9
$HANDSEED
  5
68B
  9
$SURFTAB1
 70
     6
  9
$SURFTAB2
 70
     6
  9
$SURFTYPE
 70
     6
  9
$SURFU
 70
     6
  9
$SURFV
 70
     6
  9
$UCSNAME
  2

  9
$UCSORG
 10
0.0
 20
0.0
 30
0.0
  9
$UCSXDIR
 10
1.0
 20
0.0
 30
0.0
  9
$UCSYDIR
 10
0.0
 20
1.0
 30
0.0
  9
$PUCSNAME
  2

  9
$PUCSORG
 10
0.0
 20
0.0
 30
0.0
  9
$PUCSXDIR
 10
1.0
 20
0.0
 30
0.0
  9
$PUCSYDIR
 10
0.0
 20
1.0
 30
0.0
  9
$USERI1
 70
     0
  9
$USERI2
 70
     0
  9
$USERI3
 70
     0
  9
$USERI4
 70
     0
  9
$USERI5
 70
     0
  9
$USERR1
 40
0.0
  9
$USERR2
 40
0.0
  9
$USERR3
 40
0.0
  9
$USERR4
 40
0.0
  9
$USERR5
 40
0.0
  9
$WORLDVIEW
 70
     1
  9
$SHADEDGE
 70
     3
  9
$SHADEDIF
 70
    70
  9
$TILEMODE
 70
     1
  9
$MAXACTVP
 70
    64
  9
$PLIMCHECK
 70
     0
  9
$PEXTMIN
 10
1.0000000000000000E+020
 20
1.0000000000000000E+020
 30
1.0000000000000000E+020
  9
$PEXTMAX
 10
-1.0000000000000000E+020
 20
-1.0000000000000000E+020
 30
-1.0000000000000000E+020
  9
$PLIMMIN
 10
0.0
 20
0.0
  9
$PLIMMAX
 10
12.0
 20
9.0
  9
$UNITMODE
 70
     0
  9
$VISRETAIN
 70
     0
  9
$PLINEGEN
 70
     1
  9
$PSLTSCALE
 70
     0
  0
ENDSEC
  0
SECTION
  2
TABLES
  0
TABLE
  2
VPORT
 70
     1
  0
VPORT
  2
*ACTIVE
 70
     0
 10
0.0
 20
0.0
 11
1.0
 21
1.0
 12
0.0000062864273787
 22
-7.6578116191026311
 13
0.0
 23
0.0
 14
1.0
 24
1.0
 15
0.0
 25
0.0
 16
0.0
 26
0.0
 36
1.0
 17
0.0
 27
0.0
 37
0.0
 40
4046.060816074038
 41
2.1787122207621552
 42
50.0
 43
0.0
 44
0.0
 50
0.0
 51
0.0
 71
     0
 72
  2000
 73
     1
 74
     1
 75
     0
 76
     0
 77
     0
 78
     0
  0
ENDTAB
  0
TABLE
  2
LTYPE
 70
    11
  0
LTYPE
  2
CONTINUOUS
 70
     0
  3
Solid line
 72
    65
 73
     0
 40
0.0
  0
ENDTAB
  0
TABLE
  2
LAYER
 70
     5
  0
LAYER
  2
0
 70
     0
 62
     7
  6
CONTINUOUS
  0
LAYER
  2
DATA
 70
     0
 62
     7
  6
CONTINUOUS
  0
LAYER
  2
HIBINO-BASE
 70
     0
 62
     7
  6
CONTINUOUS
  0
LAYER
  2
SPEC
 70
     0
 62
     7
  6
CONTINUOUS
  0
LAYER
  2
DIMNSIONS
 70
     0
 62
     7
  6
CONTINUOUS
  0
ENDTAB
  0
TABLE
  2
STYLE
 70
     3
  0
STYLE
  2
STANDARD
 70
     0
 40
0.0
 41
1.0
 50
0.0
 71
     0
 42
0.0
  3
txt
  4
BIGFONT.SHX
  0
ENDTAB
  0
TABLE
  2
VIEW
 70
     0
  0
ENDTAB
  0
TABLE
  2
UCS
 70
     0
  0
ENDTAB
  0
TABLE
  2
APPID
 70
     4
  0
APPID
  2
ACAD
 70
     0
  0
APPID
  2
ACADANNOTATIVE
 70
     0
  0
APPID
  2
ACAD_NAV_VCDISPLAY
 70
     0
  0
APPID
  2
ACAD_MLEADERVER
 70
     0
  0
ENDTAB
  0
TABLE
  2
DIMSTYLE
 70
     2
  0
DIMSTYLE
  2
STANDARD
 70
     0
  3

  4

  5

  6

  7

 40
1.0
 41
0.18
 42
0.0625
 43
0.38
 44
0.18
 45
0.0
 46
0.0
 47
0.0
 48
0.0
140
0.18
141
0.09
142
0.0
143
25.399999999999999
144
1.0
145
0.0
146
1.0
147
0.09
 71
     0
 72
     0
 73
     1
 74
     1
 75
     0
 76
     0
 77
     0
 78
     0
170
     0
171
     2
172
     0
173
     0
174
     0
175
     0
176
     0
177
     0
178
     0
  0
ENDTAB
  0
ENDSEC
  0
SECTION
  2
BLOCKS
  0
BLOCK
  8
0
  2
$MODEL_SPACE
 70
     0
 10
0.0
 20
0.0
 30
0.0
  3
$MODEL_SPACE
  1

  0
ENDBLK
  5
615
  8
0
  0
BLOCK
 67
     1
  8
0
  2
$PAPER_SPACE
 70
     0
 10
0.0
 20
0.0
 30
0.0
  3
$PAPER_SPACE
  1

  0
ENDBLK
  5
611
 67
     1
  8
0
  0
ENDSEC
  0
SECTION
  2
ENTITIES
  0
LINE
  5
2C
  8
HIBINO-BASE
  6
CONTINUOUS
 62
     7
 10
-1350.0
 20
1999.44541
 30
0.0
 11
1350.0
 21
1999.44541
 31
0.0
  0
LINE
  5
2D
  8
HIBINO-BASE
  6
CONTINUOUS
 62
     7
 10
1350.0
 20
-1900.5545900000011
 30
0.0
 11
-1350.0
 21
-1900.5545900000011
 31
0.0
  0
LINE
  5
2E
  8
HIBINO-BASE
  6
CONTINUOUS
 62
     7
 10
-1350.0
 20
-1900.5545900000011
 30
0.0
 11
-1350.0
 21
1999.44541
 31
0.0
  0
LINE
  5
2F
  8
HIBINO-BASE
  6
CONTINUOUS
 62
     7
 10
1350.0
 20
1999.44541
 30
0.0
 11
1350.0
 21
-1900.5545900000011
 31
0.0
  0
LINE
  5
30
  8
HIBINO-BASE
  6
CONTINUOUS
 62
     7
 10
0.0000000000001066
 20
-1563.0545900000011
 30
0.0
 11
1350.0
 21
-1563.0545900000011
 31
0.0
  0
LINE
  5
31
  8
HIBINO-BASE
  6
CONTINUOUS
 62
     7
 10
0.0000000000001066
 20
-1900.5545900000011
 30
0.0
 11
0.0000000000001066
 21
-1563.0545900000011
 31
0.0
  0
TEXT
  5
32
  8
HIBINO-BASE
 62
     7
 10
13.50000000000019
 20
-1600.68499
 30
0.0
 40
24.4326171875
  1
NOTE
 41
0.7
 11
13.50000000000019
 21
-1576.2523728125
 31
0.0
 73
     3
  0
LINE
  5
33
  8
HIBINO-BASE
  6
CONTINUOUS
 62
     7
 10
525.00000000000034
 20
-1900.5545900000011
 30
0.0
 11
525.00000000000034
 21
-1563.0545900000011
 31
0.0
  0
TEXT
  5
34
  8
HIBINO-BASE
 62
     7
 10
538.49999999999989
 20
-1600.68499
 30
0.0
 40
24.4326171875
  1
TITLE
 41
0.7
 11
538.49999999999989
 21
-1576.2523728125
 31
0.0
 73
     3
  0
LINE
  5
35
  8
HIBINO-BASE
  6
CONTINUOUS
 62
     7
 10
0.0000000000001066
 20
-1750.5545900000011
 30
0.0
 11
1350.0
 21
-1750.5545900000011
 31
0.0
  0
TEXT
  5
36
  8
HIBINO-BASE
 62
     7
 10
726.0
 20
-1787.3401899999999
 30
0.0
 40
24.4326171875
  1
DRAWN
 41
0.7
 11
726.0
 21
-1762.9075728124999
 31
0.0
 73
     3
  0
TEXT
  5
37
  8
HIBINO-BASE
 62
     7
 10
351.0
 20
-1787.3401899999999
 30
0.0
 40
24.4326171875
  1
DATE
 41
0.7
 11
351.0
 21
-1762.9075728124999
 31
0.0
 73
     3
  0
TEXT
  5
38
  8
HIBINO-BASE
 62
     7
 10
201.0
 20
-1787.3401899999999
 30
0.0
 40
24.4326171875
  1
SCALE
 41
0.7
 11
201.0
 21
-1762.9075728124999
 31
0.0
 73
     3
  0
TEXT
  5
39
  8
HIBINO-BASE
 62
     7
 10
538.49999999999989
 20
-1787.3401899999999
 30
0.0
 40
24.4326171875
  1
DESIGN
 41
0.7
 11
538.49999999999989
 21
-1762.9075728124999
 31
0.0
 73
     3
  0
TEXT
  5
3A
  8
HIBINO-BASE
 62
     7
 10
1100.9999999999991
 20
-1787.3401899999999
 30
0.0
 40
24.4326171875
  1
DRAWING NO.
 41
0.7
 11
1100.9999999999991
 21
-1762.9075728124999
 31
0.0
 73
     3
  0
TEXT
  5
3B
  8
HIBINO-BASE
 62
     7
 10
913.49999999999989
 20
-1787.3401899999999
 30
0.0
 40
24.4326171875
  1
CHECK
 41
0.7
 11
913.49999999999989
 21
-1762.9075728124999
 31
0.0
 73
     3
  0
LINE
  5
3C
  8
HIBINO-BASE
  6
CONTINUOUS
 62
     7
 10
215.62500000000011
 20
-1881.8045900000011
 30
0.0
 11
271.8750000000004
 21
-1825.5545900000011
 31
0.0
  0
TEXT
  5
3D
  8
HIBINO-BASE
 62
     7
 10
206.25000000000011
 20
-1842.1887400000001
 30
0.0
 40
24.4326171875
  1
1
 41
0.7
 11
206.25000000000011
 21
-1817.7561228125001
 31
0.0
 73
     3
  0
LINE
  5
3E
  8
HIBINO-BASE
  6
CONTINUOUS
 62
     7
 10
187.50000000000011
 20
-1900.5545900000011
 30
0.0
 11
187.50000000000011
 21
-1750.5545900000011
 31
0.0
  0
LINE
  5
3F
  8
HIBINO-BASE
  6
CONTINUOUS
 62
     7
 10
337.49999999999989
 20
-1900.5545900000011
 30
0.0
 11
337.49999999999989
 21
-1750.5545900000011
 31
0.0
  0
LINE
  5
40
  8
HIBINO-BASE
  6
CONTINUOUS
 62
     7
 10
712.49999999999955
 20
-1750.5545900000011
 30
0.0
 11
712.49999999999955
 21
-1900.5545900000011
 31
0.0
  0
LINE
  5
41
  8
HIBINO-BASE
  6
CONTINUOUS
 62
     7
 10
1087.5
 20
-1750.5545900000011
 30
0.0
 11
1087.5
 21
-1900.5545900000011
 31
0.0
  0
LINE
  5
42
  8
HIBINO-BASE
  6
CONTINUOUS
 62
     7
 10
899.99999999999955
 20
-1900.5545900000011
 30
0.0
 11
899.99999999999955
 21
-1750.5545900000011
 31
0.0
  0
TEXT
  5
43
  8
HIBINO-BASE
 62
     7
 10
350.34810000000022
 20
-1857.59989
 30
0.0
 40
24.4326171875
  1
'14.01.
 41
0.7
 11
350.34810000000022
 21
-1833.1672728125
 31
0.0
 73
     3
  0
TEXT
  5
44
  8
HIBINO-BASE
 62
     7
 10
262.5
 20
-1870.3137400000001
 30
0.0
 40
24.4326171875
  1
15
 41
0.7
 11
262.5
 21
-1845.8811228125001
 31
0.0
 73
     3
  0
TEXT
  5
45
  8
HIBINO-BASE
 62
     7
 10
735.08715016551935
 20
-1857.59989
 30
0.0
 40
24.4326171875
  1
N.Sasaki
 41
0.7
 11
735.08715016551935
 21
-1833.1672728125
 31
0.0
 73
     3
  0
TEXT
  5
46
  8
HIBINO-BASE
 62
     7
 10
58.250000000000412
 20
-1870.9145900000001
 30
0.0
 40
48.865234374999993
  1
A4
 41
0.7
 11
58.250000000000412
 21
-1822.0493556250001
 31
0.0
 73
     3
  0
TEXT
  5
47
  8
HIBINO-BASE
 62
     7
 10
14.37500000000003
 20
-1789.846415
 30
0.0
 40
24.4326171875
  1
PAPER SIZE
 41
0.7
 11
14.37500000000003
 21
-1765.4137978125
 31
0.0
 73
     3
  0
TEXT
  5
48
  8
HIBINO-BASE
 62
     7
 10
-1242.24
 20
-1996.684757
 30
0.0
 40
54.000662695312492
  1
Hibino Corporation
 41
0.7
 11
-1242.24
 21
-1942.684094304688
 31
0.0
 73
     3
  0
TEXT
  5
49
  8
HIBINO-BASE
 62
     7
 10
751.02584999999999
 20
-1996.684757
 30
0.0
 40
54.000662695312492
  1
ヒビノ株式会社
 41
0.7
 11
751.02584999999999
 21
-1942.684094304688
 31
0.0
 73
     3
  0
LINE
  5
4A
  8
SPEC
  6
CONTINUOUS
 62
     7
 10
-1237.5
 20
1849.44541
 30
0.0
 11
975.00000000000011
 21
1849.44541
 31
0.0
  0
LINE
  5
4B
  8
SPEC
  6
CONTINUOUS
 62
     7
 10
-1237.5
 20
1793.1954099999989
 30
0.0
 11
975.00000000000011
 21
1793.1954099999989
 31
0.0
  0
LINE
  5
4C
  8
SPEC
  6
CONTINUOUS
 62
     7
 10
-1237.5
 20
893.19540999999958
 30
0.0
 11
975.00000000000011
 21
893.19540999999958
 31
0.0
  0
LINE
  5
4D
  8
SPEC
  6
CONTINUOUS
 62
     7
 10
-1237.5
 20
949.44540999999958
 30
0.0
 11
975.00000000000011
 21
949.44540999999958
 31
0.0
  0
LINE
  5
4E
  8
SPEC
  6
CONTINUOUS
 62
     7
 10
-1237.5
 20
1849.44541
 30
0.0
 11
-1237.5
 21
893.19540999999936
 31
0.0
  0
TEXT
  5
4F
  8
SPEC
 62
     7
 10
-1218.75
 20
1870.3444599999989
 30
0.0
 40
36.64892578125
  1
仕様
 41
0.7
 11
-1218.75
 21
1906.9933857812489
 31
0.0
 73
     3
  0
LINE
  5
50
  8
SPEC
  6
CONTINUOUS
 62
     7
 10
-550.0
 20
1849.44541
 30
0.0
 11
-550.0
 21
893.19540999999936
 31
0.0
  0
LINE
  5
51
  8
SPEC
  6
CONTINUOUS
 62
     7
 10
975.00000000000011
 20
1849.44541
 30
0.0
 11
975.00000000000011
 21
893.19540999999936
 31
0.0
  0
TEXT
  5
52
  8
SPEC
 62
     7
 10
-1224.0
 20
964.23540999999886
 30
0.0
 40
28.504720052083339
  1
寸法(W\U+00D7H\U+00D7D)
 41
0.7
 11
-1224.0
 21
992.74013005208235
 31
0.0
 73
     3
  0
TEXT
  5
53
  8
SPEC
 62
     7
 10
-1224.0
 20
907.98540999999955
 30
0.0
 40
28.504720052083339
  1
質量
 41
0.7
 11
-1224.0
 21
936.49013005208269
 31
0.0
 73
     3
  0
TEXT
  5
54
  8
SPEC
 62
     7
 10
-536.50000000000045
 20
907.98540999999909
 30
0.0
 40
28.504720052083329
  1
16kg
 41
0.7
 11
-536.50000000000045
 21
936.49013005208246
 31
0.0
 73
     3
  0
LINE
  5
55
  8
SPEC
  6
CONTINUOUS
 62
     7
 10
-1237.5
 20
1736.9454099999989
 30
0.0
 11
975.00000000000011
 21
1736.9454099999989
 31
0.0
  0
LINE
  5
56
  8
SPEC
  6
CONTINUOUS
 62
     7
 10
-1237.5
 20
1680.6954099999989
 30
0.0
 11
975.00000000000011
 21
1680.6954099999989
 31
0.0
  0
LINE
  5
57
  8
SPEC
  6
CONTINUOUS
 62
     7
 10
-900.0
 20
1568.1954099999989
 30
0.0
 11
975.00000000000011
 21
1568.1954099999989
 31
0.0
  0
LINE
  5
58
  8
SPEC
  6
CONTINUOUS
 62
     7
 10
-1237.5
 20
1455.6954099999989
 30
0.0
 11
975.00000000000011
 21
1455.6954099999989
 31
0.0
  0
LINE
  5
59
  8
SPEC
  6
CONTINUOUS
 62
     7
 10
-900.0
 20
1343.19541
 30
0.0
 11
975.00000000000011
 21
1343.19541
 31
0.0
  0
LINE
  5
5A
  8
SPEC
  6
CONTINUOUS
 62
     7
 10
-900.0
 20
1286.9454099999989
 30
0.0
 11
975.00000000000011
 21
1286.9454099999989
 31
0.0
  0
LINE
  5
5B
  8
SPEC
  6
CONTINUOUS
 62
     7
 10
-1237.5
 20
1174.4454099999989
 30
0.0
 11
975.00000000000011
 21
1174.4454099999989
 31
0.0
  0
LINE
  5
5C
  8
SPEC
  6
CONTINUOUS
 62
     7
 10
-1237.5
 20
1118.1954099999989
 30
0.0
 11
975.00000000000011
 21
1118.1954099999989
 31
0.0
  0
LINE
  5
5D
  8
SPEC
  6
CONTINUOUS
 62
     7
 10
-1237.5
 20
1061.9454099999989
 30
0.0
 11
975.00000000000011
 21
1061.9454099999989
 31
0.0
  0
LINE
  5
5E
  8
SPEC
  6
CONTINUOUS
 62
     7
 10
-1237.5
 20
1005.695409999999
 30
0.0
 11
975.00000000000011
 21
1005.695409999999
 31
0.0
  0
TEXT
  5
5F
  8
SPEC
 62
     7
 10
-536.50000000000045
 20
964.23540999999886
 30
0.0
 40
28.504720052083329
  1
336\U+00D7496\U+00D7323(除突起部)
 41
0.7
 11
-536.50000000000045
 21
992.74013005208235
 31
0.0
 73
     3
  0
TEXT
  5
60
  8
SPEC
 62
     7
 10
-1224.0
 20
1805.0141766666659
 30
0.0
 40
28.504720052083329
  1
形式
 41
0.7
 11
-1224.0
 21
1833.5188967187489
 31
0.0
 73
     3
  0
TEXT
  5
61
  8
SPEC
 62
     7
 10
-1224.0
 20
1751.7354099999991
 30
0.0
 40
28.504720052083329
  1
周波数レンジ(-10dB)
 41
0.7
 11
-1224.0
 21
1780.240130052083
 31
0.0
 73
     3
  0
TEXT
  5
62
  8
SPEC
 62
     7
 10
-1224.0
 20
1695.4854099999991
 30
0.0
 40
28.504720052083329
  1
指向角度(水平\U+00D7垂直)
 41
0.7
 11
-1224.0
 21
1723.990130052083
 31
0.0
 73
     3
  0
TEXT
  5
63
  8
SPEC
 62
     7
 10
-1224.0
 20
1639.2354099999991
 30
0.0
 40
28.504720052083329
  1
最大音圧レベル(1m)
 41
0.7
 11
-1224.0
 21
1667.740130052083
 31
0.0
 73
     3
  0
TEXT
  5
64
  8
SPEC
 62
     7
 10
-1224.0
 20
1582.9854099999991
 30
0.0
 40
28.504720052083329
  1
ドライバー構成
 41
0.7
 11
-1224.0
 21
1611.4901300520819
 31
0.0
 73
     3
  0
TEXT
  5
65
  8
SPEC
 62
     7
 10
-534.9963164892439
 20
1359.489093510756
 30
0.0
 40
28.504720052083329
  1
2
 41
0.7
 11
-534.9963164892439
 21
1387.993813562839
 31
0.0
 73
     3
  0
TEXT
  5
66
  8
SPEC
 62
     7
 10
-1224.0
 20
1470.4854099999991
 30
0.0
 40
28.504720052083329
  1
クロスオーバー周波数
 41
0.7
 11
-1224.0
 21
1498.9901300520819
 31
0.0
 73
     3
  0
TEXT
  5
67
  8
SPEC
 62
     7
 10
-1224.0
 20
1414.2354099999991
 30
0.0
 40
28.504720052083329
  1
パワーアンプ
 41
0.7
 11
-1224.0
 21
1442.7401300520819
 31
0.0
 73
     3
  0
TEXT
  5
68
  8
SPEC
 62
     7
 10
-1224.0
 20
1357.9854099999991
 30
0.0
 40
28.504720052083329
  1
入力
 41
0.7
 11
-1224.0
 21
1386.4901300520819
 31
0.0
 73
     3
  0
TEXT
  5
69
  8
SPEC
 62
     7
 10
-536.50000000000045
 20
1076.7354099999991
 30
0.0
 40
28.504720052083329
  1
55W
 41
0.7
 11
-536.50000000000045
 21
1105.2401300520819
 31
0.0
 73
     3
  0
TEXT
  5
6A
  8
SPEC
 62
     7
 10
-1224.0
 20
1189.2354099999991
 30
0.0
 40
28.504720052083329
  1
インジケーター
 41
0.7
 11
-1224.0
 21
1217.7401300520819
 31
0.0
 73
     3
  0
TEXT
  5
6B
  8
SPEC
 62
     7
 10
-1224.0
 20
1132.9854099999991
 30
0.0
 40
28.504720052083329
  1
電源
 41
0.7
 11
-1224.0
 21
1161.4901300520819
 31
0.0
 73
     3
  0
TEXT
  5
6C
  8
SPEC
 62
     7
 10
-1224.0
 20
1076.7354099999991
 30
0.0
 40
28.504720052083329
  1
消費電力(1/8出力時、ピンクノイズ)
 41
0.7
 11
-1224.0
 21
1105.2401300520819
 31
0.0
 73
     3
  0
TEXT
  5
6D
  8
SPEC
 62
     7
 10
-1224.0
 20
1020.485409999999
 30
0.0
 40
28.504720052083329
  1
エンクロージャー
 41
0.7
 11
-1224.0
 21
1048.9901300520819
 31
0.0
 73
     3
  0
TEXT
  5
6E
  8
SPEC
 62
     7
 10
-886.50000000000034
 20
1582.9854099999991
 30
0.0
 40
28.504720052083339
  1
LF
 41
0.7
 11
-886.50000000000034
 21
1611.4901300520819
 31
0.0
 73
     3
  0
TEXT
  5
6F
  8
SPEC
 62
     7
 10
-886.50000000000034
 20
1526.7354099999991
 30
0.0
 40
28.504720052083339
  1
HF
 41
0.7
 11
-886.50000000000034
 21
1555.2401300520819
 31
0.0
 73
     3
  0
TEXT
  5
70
  8
SPEC
 62
     7
 10
-886.50000000000034
 20
1301.7354099999991
 30
0.0
 40
28.504720052083339
  1
端子・形式
 41
0.7
 11
-886.50000000000034
 21
1330.2401300520819
 31
0.0
 73
     3
  0
TEXT
  5
71
  8
SPEC
 62
     7
 10
-886.50000000000034
 20
1245.4854099999991
 30
0.0
 40
28.504720052083339
  1
インピーダンス
 41
0.7
 11
-886.50000000000034
 21
1273.9901300520819
 31
0.0
 73
     3
  0
LINE
  5
72
  8
SPEC
  6
CONTINUOUS
 62
     7
 10
-1237.5
 20
1624.4454099999989
 30
0.0
 11
975.00000000000011
 21
1624.4454099999989
 31
0.0
  0
LINE
  5
73
  8
SPEC
  6
CONTINUOUS
 62
     7
 10
-1237.5
 20
1511.9454099999989
 30
0.0
 11
975.00000000000011
 21
1511.9454099999989
 31
0.0
  0
LINE
  5
74
  8
SPEC
  6
CONTINUOUS
 62
     7
 10
-1237.5
 20
1399.4454099999989
 30
0.0
 11
975.00000000000011
 21
1399.4454099999989
 31
0.0
  0
LINE
  5
75
  8
SPEC
  6
CONTINUOUS
 62
     7
 10
-1237.5
 20
1230.69541
 30
0.0
 11
975.00000000000011
 21
1230.69541
 31
0.0
  0
LINE
  5
76
  8
SPEC
  6
CONTINUOUS
 62
     7
 10
-900.0
 20
1624.4454099999989
 30
0.0
 11
-900.0
 21
1511.9454099999989
 31
0.0
  0
LINE
  5
77
  8
SPEC
  6
CONTINUOUS
 62
     7
 10
-900.0
 20
1399.4454099999989
 30
0.0
 11
-900.0
 21
1230.69541
 31
0.0
  0
TEXT
  5
78
  8
SPEC
 62
     7
 10
-886.50000000000034
 20
1357.9854099999991
 30
0.0
 40
28.504720052083329
  1
チャンネル数
 41
0.7
 11
-886.50000000000034
 21
1386.4901300520819
 31
0.0
 73
     3
  0
TEXT
  5
79
  8
SPEC
 62
     7
 10
-536.50000000000045
 20
1805.3395766666661
 30
0.0
 40
28.504720052083329
  1
2-Wayパワード・フルレンジ
 41
0.7
 11
-536.50000000000045
 21
1833.8442967187491
 31
0.0
 73
     3
  0
TEXT
  5
7A
  8
SPEC
 62
     7
 10
-536.50000000000045
 20
1749.0895766666661
 30
0.0
 40
28.504720052083329
  1
50Hz～19.6kHz(EQ:NORMAL時)
 41
0.7
 11
-536.50000000000045
 21
1777.5942967187491
 31
0.0
 73
     3
  0
TEXT
  5
7B
  8
SPEC
 62
     7
 10
-536.50000000000045
 20
1692.8395766666661
 30
0.0
 40
28.504720052083329
  1
100\U+00B0\U+00D7 60\U+00B0
 41
0.7
 11
-536.50000000000045
 21
1721.3442967187491
 31
0.0
 73
     3
  0
TEXT
  5
7C
  8
SPEC
 62
     7
 10
-536.50000000000045
 20
1636.5895766666661
 30
0.0
 40
28.504720052083329
  1
133dB SPL(ピーク)
 41
0.7
 11
-536.50000000000045
 21
1665.0942967187491
 31
0.0
 73
     3
  0
TEXT
  5
7D
  8
SPEC
 62
     7
 10
-536.50000000000045
 20
1580.3395766666661
 30
0.0
 40
28.504720052083329
  1
250mm(M110-4)
 41
0.7
 11
-536.50000000000045
 21
1608.8442967187491
 31
0.0
 73
     3
  0
TEXT
  5
7E
  8
SPEC
 62
     7
 10
-536.50000000000045
 20
1526.7354099999991
 30
0.0
 40
28.504720052083329
  1
38mm(2408H-2)
 41
0.7
 11
-536.50000000000045
 21
1555.2401300520819
 31
0.0
 73
     3
  0
TEXT
  5
7F
  8
SPEC
 62
     7
 10
-536.50000000000045
 20
1470.4854099999991
 30
0.0
 40
28.504720052083329
  1
1.9kHz
 41
0.7
 11
-536.50000000000045
 21
1498.9901300520819
 31
0.0
 73
     3
  0
TEXT
  5
80
  8
SPEC
 62
     7
 10
-536.50000000000045
 20
1414.2354099999991
 30
0.0
 40
28.504720052083329
  1
Class D
 41
0.7
 11
-536.50000000000045
 21
1442.7401300520819
 31
0.0
 73
     3
  0
TEXT
  5
81
  8
SPEC
 62
     7
 10
-536.50000000000045
 20
1301.7354099999991
 30
0.0
 40
28.504720052083329
  1
XLRと標準フォーンジャック(3P)対応の複合型 端子\U+00D72、RCA\U+00D72
 41
0.7
 11
-536.50000000000045
 21
1330.2401300520819
 31
0.0
 73
     3
  0
TEXT
  5
82
  8
SPEC
 62
     7
 10
-531.13181529524695
 20
1248.5847328843481
 30
0.0
 40
28.504720052083329
  1
20k\U+03A9(バランス)、10k\U+03A9(アンバランス)
 41
0.7
 11
-531.13181529524695
 21
1277.0894529364309
 31
0.0
 73
     3
  0
TEXT
  5
83
  8
SPEC
 62
     7
 10
-536.3192331559103
 20
1189.416176844089
 30
0.0
 40
28.504720052083329
  1
EQ、Limit、Mic/Line、Signal、Power(前面、背面)
 41
0.7
 11
-536.3192331559103
 21
1217.9208968961721
 31
0.0
 73
     3
  0
TEXT
  5
84
  8
SPEC
 62
     7
 10
-536.3192331559103
 20
1133.166176844089
 30
0.0
 40
28.504720052083329
  1
AC100V、50/60Hz
 41
0.7
 11
-536.3192331559103
 21
1161.670896896173
 31
0.0
 73
     3
  0
TEXT
  5
85
  8
SPEC
 62
     7
 10
-536.3192331559103
 20
1020.666176844089
 30
0.0
 40
28.504720052083329
  1
25/18mm合板、黒、DuraFlex仕上げ
 41
0.7
 11
-536.3192331559103
 21
1049.170896896173
 31
0.0
 73
     3
  0
TEXT
  5
86
  8
DIMNSIONS
 62
     7
 10
-299.99999999999989
 20
-1716.51224
 30
0.0
 40
36.64892578125
  1
(単位：mm)
 41
0.7
 11
-299.99999999999989
 21
-1679.86331421875
 31
0.0
 73
     3
  0
LINE
  5
87
  8
DIMNSIONS
  6
CONTINUOUS
 62
     7
 10
-929.44765383393474
 20
-200.0
 30
0.0
 11
-1239.8023461658449
 21
-200.0
 31
0.0
  0
LINE
  5
88
  8
DIMNSIONS
  6
CONTINUOUS
 62
     7
 10
-1027.718378479103
 20
122.9998399547213
 30
0.0
 11
-1239.8023461658449
 21
122.9998399547213
 31
0.0
  0
LINE
  5
89
  8
DIMNSIONS
  6
CONTINUOUS
 62
     7
 10
-1209.8023461658449
 20
-200.0
 30
0.0
 11
-1209.8023461658449
 21
122.9998399547213
 31
0.0
  0
LINE
  5
8A
  8
DIMNSIONS
  6
CONTINUOUS
 62
     7
 10
-1209.8023461658449
 20
-200.0
 30
0.0
 11
-1219.8529430930989
 21
-162.49066162109369
 31
0.0
  0
LINE
  5
8B
  8
DIMNSIONS
  6
CONTINUOUS
 62
     7
 10
-1209.8023461658449
 20
-200.0
 30
0.0
 11
-1199.7517492385909
 21
-162.49066162109369
 31
0.0
  0
LINE
  5
8C
  8
DIMNSIONS
  6
CONTINUOUS
 62
     7
 10
-1209.8023461658449
 20
122.9998399547213
 30
0.0
 11
-1199.7517492385909
 21
85.49050157581506
 31
0.0
  0
LINE
  5
8D
  8
DIMNSIONS
  6
CONTINUOUS
 62
     7
 10
-1209.8023461658449
 20
122.9998399547213
 30
0.0
 11
-1219.8529430930989
 21
85.49050157581506
 31
0.0
  0
TEXT
  5
8E
  8
DIMNSIONS
 62
     7
 10
-1224.710679499178
 20
-66.651871452827862
 30
0.0
 40
40.721028645833371
  1
323
 50
90.0
 41
0.7
 11
-1265.431708145011
 21
-66.651871452827862
 31
0.0
 73
     3
  0
LINE
  5
8F
  8
DIMNSIONS
  6
CONTINUOUS
 62
     7
 10
181.25
 20
-900.0
 30
0.0
 11
280.0
 21
-900.0
 31
0.0
  0
LINE
  5
90
  8
DIMNSIONS
  6
CONTINUOUS
 62
     7
 10
30.0
 20
-858.0
 30
0.0
 11
280.0
 21
-858.0
 31
0.0
  0
LINE
  5
91
  8
DIMNSIONS
  6
CONTINUOUS
 62
     7
 10
250.0
 20
-858.0
 30
0.0
 11
250.0
 21
-900.0
 31
0.0
  0
LINE
  5
92
  8
DIMNSIONS
  6
CONTINUOUS
 62
     7
 10
250.0
 20
-900.0
 30
0.0
 11
250.0
 21
-1030.833333333333
 31
0.0
  0
LINE
  5
93
  8
DIMNSIONS
  6
CONTINUOUS
 62
     7
 10
250.0
 20
-900.0
 30
0.0
 11
260.05059692725359
 21
-937.50933837890625
 31
0.0
  0
LINE
  5
94
  8
DIMNSIONS
  6
CONTINUOUS
 62
     7
 10
250.0
 20
-900.0
 30
0.0
 11
239.94940307274641
 21
-937.50933837890625
 31
0.0
  0
LINE
  5
95
  8
DIMNSIONS
  6
CONTINUOUS
 62
     7
 10
250.0
 20
-858.0
 30
0.0
 11
250.0
 21
-783.0
 31
0.0
  0
LINE
  5
96
  8
DIMNSIONS
  6
CONTINUOUS
 62
     7
 10
250.0
 20
-858.0
 30
0.0
 11
239.94940307274641
 21
-820.49066162109375
 31
0.0
  0
LINE
  5
97
  8
DIMNSIONS
  6
CONTINUOUS
 62
     7
 10
250.0
 20
-858.0
 30
0.0
 11
260.05059692725359
 21
-820.49066162109375
 31
0.0
  0
TEXT
  5
98
  8
DIMNSIONS
 62
     7
 10
235.09166666666661
 20
-1030.833333333333
 30
0.0
 40
40.721028645833343
  1
42.0
 50
90.0
 41
0.7
 11
194.3706380208333
 21
-1030.833333333333
 31
0.0
 73
     3
  0
LINE
  5
99
  8
DIMNSIONS
  6
CONTINUOUS
 62
     7
 10
-1081.5
 20
-404.0
 30
0.0
 11
-1230.0
 21
-404.0
 31
0.0
  0
LINE
  5
9A
  8
DIMNSIONS
  6
CONTINUOUS
 62
     7
 10
-1081.5
 20
-900.0
 30
0.0
 11
-1230.0
 21
-900.0
 31
0.0
  0
LINE
  5
9B
  8
DIMNSIONS
  6
CONTINUOUS
 62
     7
 10
-1200.0
 20
-404.0
 30
0.0
 11
-1200.0
 21
-900.0
 31
0.0
  0
LINE
  5
9C
  8
DIMNSIONS
  6
CONTINUOUS
 62
     7
 10
-1200.0
 20
-404.0
 30
0.0
 11
-1189.949403072746
 21
-441.50933837890631
 31
0.0
  0
LINE
  5
9D
  8
DIMNSIONS
  6
CONTINUOUS
 62
     7
 10
-1200.0
 20
-404.0
 30
0.0
 11
-1210.0505969272531
 21
-441.50933837890631
 31
0.0
  0
LINE
  5
9E
  8
DIMNSIONS
  6
CONTINUOUS
 62
     7
 10
-1200.0
 20
-900.0
 30
0.0
 11
-1210.0505969272531
 21
-862.49066162109375
 31
0.0
  0
LINE
  5
9F
  8
DIMNSIONS
  6
CONTINUOUS
 62
     7
 10
-1200.0
 20
-900.0
 30
0.0
 11
-1189.949403072746
 21
-862.49066162109375
 31
0.0
  0
TEXT
  5
A0
  8
DIMNSIONS
 62
     7
 10
-1214.9083333333331
 20
-691.6875
 30
0.0
 40
40.721028645833343
  1
496
 50
90.0
 41
0.7
 11
-1255.6293619791661
 21
-691.6875
 31
0.0
 73
     3
  0
LINE
  5
A1
  8
DIMNSIONS
  6
CONTINUOUS
 62
     7
 10
-1081.5
 20
-900.0
 30
0.0
 11
-1230.0
 21
-900.0
 31
0.0
  0
LINE
  5
A2
  8
DIMNSIONS
  6
CONTINUOUS
 62
     7
 10
-1074.5
 20
-903.5
 30
0.0
 11
-1230.0
 21
-903.5
 31
0.0
  0
LINE
  5
A3
  8
DIMNSIONS
  6
CONTINUOUS
 62
     7
 10
-1200.0
 20
-903.5
 30
0.0
 11
-1200.0
 21
-900.0
 31
0.0
  0
LINE
  5
A4
  8
DIMNSIONS
  6
CONTINUOUS
 62
     7
 10
-1200.0
 20
-900.0
 30
0.0
 11
-1200.0
 21
-825.0
 31
0.0
  0
LINE
  5
A5
  8
DIMNSIONS
  6
CONTINUOUS
 62
     7
 10
-1200.0
 20
-900.0
 30
0.0
 11
-1210.0505969272531
 21
-862.49066162109375
 31
0.0
  0
LINE
  5
A6
  8
DIMNSIONS
  6
CONTINUOUS
 62
     7
 10
-1200.0
 20
-900.0
 30
0.0
 11
-1189.949403072746
 21
-862.49066162109375
 31
0.0
  0
LINE
  5
A7
  8
DIMNSIONS
  6
CONTINUOUS
 62
     7
 10
-1200.0
 20
-903.5
 30
0.0
 11
-1200.0
 21
-1004.375
 31
0.0
  0
LINE
  5
A8
  8
DIMNSIONS
  6
CONTINUOUS
 62
     7
 10
-1200.0
 20
-903.5
 30
0.0
 11
-1189.949403072746
 21
-941.00933837890625
 31
0.0
  0
LINE
  5
A9
  8
DIMNSIONS
  6
CONTINUOUS
 62
     7
 10
-1200.0
 20
-903.5
 30
0.0
 11
-1210.0505969272531
 21
-941.00933837890625
 31
0.0
  0
TEXT
  5
AA
  8
DIMNSIONS
 62
     7
 10
-1214.9083333333331
 20
-1004.375
 30
0.0
 40
40.721028645833343
  1
3.5
 50
90.0
 41
0.7
 11
-1255.6293619791661
 21
-1004.375
 31
0.0
 73
     3
  0
LINE
  5
AB
  8
DIMNSIONS
  6
CONTINUOUS
 62
     7
 10
-1067.75
 20
-919.00000000000011
 30
0.0
 11
-1067.75
 21
-1130.0
 31
0.0
  0
LINE
  5
AC
  8
DIMNSIONS
  6
CONTINUOUS
 62
     7
 10
-732.24999999999966
 20
-919.0
 30
0.0
 11
-732.24999999999966
 21
-1130.0
 31
0.0
  0
LINE
  5
AD
  8
DIMNSIONS
  6
CONTINUOUS
 62
     7
 10
-1067.75
 20
-1100.0
 30
0.0
 11
-732.24999999999966
 21
-1100.0
 31
0.0
  0
LINE
  5
AE
  8
DIMNSIONS
  6
CONTINUOUS
 62
     7
 10
-1067.75
 20
-1100.0
 30
0.0
 11
-1030.240661621094
 21
-1089.949403072746
 31
0.0
  0
LINE
  5
AF
  8
DIMNSIONS
  6
CONTINUOUS
 62
     7
 10
-1067.75
 20
-1100.0
 30
0.0
 11
-1030.240661621094
 21
-1110.0505969272531
 31
0.0
  0
LINE
  5
B0
  8
DIMNSIONS
  6
CONTINUOUS
 62
     7
 10
-732.24999999999966
 20
-1100.0
 30
0.0
 11
-769.75933837890591
 21
-1110.050596927254
 31
0.0
  0
LINE
  5
B1
  8
DIMNSIONS
  6
CONTINUOUS
 62
     7
 10
-732.24999999999966
 20
-1100.0
 30
0.0
 11
-769.75933837890591
 21
-1089.949403072746
 31
0.0
  0
TEXT
  5
B2
  8
DIMNSIONS
 62
     7
 10
-939.68749999999989
 20
-1085.091666666666
 30
0.0
 40
40.721028645833343
  1
336
 41
0.7
 11
-939.68749999999989
 21
-1044.370638020833
 31
0.0
 73
     3
  0
LINE
  5
B3
  8
DIMNSIONS
  6
CONTINUOUS
 62
     7
 10
-1019.8004347827
 20
-86.000160045278662
 30
0.0
 11
-1019.8004347827
 21
-330.0
 31
0.0
  0
LINE
  5
B4
  8
DIMNSIONS
  6
CONTINUOUS
 62
     7
 10
-780.19956521729955
 20
-86.000160045278662
 30
0.0
 11
-780.19956521729955
 21
-330.0
 31
0.0
  0
LINE
  5
B5
  8
DIMNSIONS
  6
CONTINUOUS
 62
     7
 10
-1019.8004347827
 20
-300.0
 30
0.0
 11
-780.19956521729955
 21
-300.0
 31
0.0
  0
LINE
  5
B6
  8
DIMNSIONS
  6
CONTINUOUS
 62
     7
 10
-1019.8004347827
 20
-300.0
 30
0.0
 11
-982.29109640379431
 21
-289.94940307274641
 31
0.0
  0
LINE
  5
B7
  8
DIMNSIONS
  6
CONTINUOUS
 62
     7
 10
-1019.8004347827
 20
-300.0
 30
0.0
 11
-982.29109640379431
 21
-310.05059692725359
 31
0.0
  0
LINE
  5
B8
  8
DIMNSIONS
  6
CONTINUOUS
 62
     7
 10
-780.19956521729955
 20
-300.0
 30
0.0
 11
-817.7089035962058
 21
-310.05059692725359
 31
0.0
  0
LINE
  5
B9
  8
DIMNSIONS
  6
CONTINUOUS
 62
     7
 10
-780.19956521729955
 20
-300.0
 30
0.0
 11
-817.7089035962058
 21
-289.94940307274641
 31
0.0
  0
TEXT
  5
BA
  8
DIMNSIONS
 62
     7
 10
-939.68749999999989
 20
-285.0916666666667
 30
0.0
 40
40.721028645833343
  1
240
 41
0.7
 11
-939.68749999999989
 21
-244.3706380208333
 31
0.0
 73
     3
  0
LINE
  5
BB
  8
DIMNSIONS
  6
CONTINUOUS
 62
     7
 10
-772.28162152089658
 20
122.9998399547213
 30
0.0
 11
-595.0
 21
122.9998399547213
 31
0.0
  0
LINE
  5
BC
  8
DIMNSIONS
  6
CONTINUOUS
 62
     7
 10
-750.19956521729955
 20
-56.000160045278683
 30
0.0
 11
-595.0
 21
-56.000160045278683
 31
0.0
  0
LINE
  5
BD
  8
DIMNSIONS
  6
CONTINUOUS
 62
     7
 10
-625.0
 20
122.9998399547213
 30
0.0
 11
-625.0
 21
-56.000160045278683
 31
0.0
  0
LINE
  5
BE
  8
DIMNSIONS
  6
CONTINUOUS
 62
     7
 10
-625.0
 20
122.9998399547213
 30
0.0
 11
-614.94940307274635
 21
85.49050157581506
 31
0.0
  0
LINE
  5
BF
  8
DIMNSIONS
  6
CONTINUOUS
 62
     7
 10
-625.0
 20
122.9998399547213
 30
0.0
 11
-635.05059692725365
 21
85.49050157581506
 31
0.0
  0
LINE
  5
C0
  8
DIMNSIONS
  6
CONTINUOUS
 62
     7
 10
-625.0
 20
-56.000160045278683
 30
0.0
 11
-635.05059692725365
 21
-18.490821666372419
 31
0.0
  0
LINE
  5
C1
  8
DIMNSIONS
  6
CONTINUOUS
 62
     7
 10
-625.0
 20
-56.000160045278683
 30
0.0
 11
-614.94940307274635
 21
-18.490821666372419
 31
0.0
  0
TEXT
  5
C2
  8
DIMNSIONS
 62
     7
 10
-639.9083333333333
 20
-6.1876600452786814
 30
0.0
 40
40.721028645833343
  1
179
 50
90.0
 41
0.7
 11
-680.62936197916667
 21
-6.1876600452786761
 31
0.0
 73
     3
  0
LINE
  5
C3
  8
DIMNSIONS
  6
CONTINUOUS
 62
     7
 10
-464.0435027087338
 20
-849.5
 30
0.0
 11
-220.0
 21
-849.5
 31
0.0
  0
LINE
  5
C4
  8
DIMNSIONS
  6
CONTINUOUS
 62
     7
 10
-319.36067977499812
 20
-900.0
 30
0.0
 11
-220.0
 21
-900.0
 31
0.0
  0
LINE
  5
C5
  8
DIMNSIONS
  6
CONTINUOUS
 62
     7
 10
-250.0
 20
-900.0
 30
0.0
 11
-250.0
 21
-849.5
 31
0.0
  0
LINE
  5
C6
  8
DIMNSIONS
  6
CONTINUOUS
 62
     7
 10
-250.0
 20
-849.5
 30
0.0
 11
-250.0
 21
-774.5
 31
0.0
  0
LINE
  5
C7
  8
DIMNSIONS
  6
CONTINUOUS
 62
     7
 10
-250.0
 20
-849.5
 30
0.0
 11
-260.05059692725359
 21
-811.99066162109364
 31
0.0
  0
LINE
  5
C8
  8
DIMNSIONS
  6
CONTINUOUS
 62
     7
 10
-250.0
 20
-849.5
 30
0.0
 11
-239.94940307274641
 21
-811.99066162109364
 31
0.0
  0
LINE
  5
C9
  8
DIMNSIONS
  6
CONTINUOUS
 62
     7
 10
-250.0
 20
-900.0
 30
0.0
 11
-250.0
 21
-1030.833333333333
 31
0.0
  0
LINE
  5
CA
  8
DIMNSIONS
  6
CONTINUOUS
 62
     7
 10
-250.0
 20
-900.0
 30
0.0
 11
-239.94940307274641
 21
-937.50933837890625
 31
0.0
  0
LINE
  5
CB
  8
DIMNSIONS
  6
CONTINUOUS
 62
     7
 10
-250.0
 20
-900.0
 30
0.0
 11
-260.05059692725359
 21
-937.50933837890625
 31
0.0
  0
TEXT
  5
CC
  8
DIMNSIONS
 62
     7
 10
-264.9083333333333
 20
-1030.833333333333
 30
0.0
 40
40.721028645833343
  1
50.5
 50
90.0
 41
0.7
 11
-305.62936197916667
 21
-1030.833333333333
 31
0.0
 73
     3
  0
LINE
  5
CD
  8
DIMNSIONS
  6
CONTINUOUS
 62
     7
 10
-464.0435027087338
 20
-849.5
 30
0.0
 11
-220.0
 21
-849.5
 31
0.0
  0
LINE
  5
CE
  8
DIMNSIONS
  6
CONTINUOUS
 62
     7
 10
-464.0435027087338
 20
-454.49999999999989
 30
0.0
 11
-220.0
 21
-454.49999999999989
 31
0.0
  0
LINE
  5
CF
  8
DIMNSIONS
  6
CONTINUOUS
 62
     7
 10
-250.0
 20
-849.5
 30
0.0
 11
-250.0
 21
-454.49999999999989
 31
0.0
  0
LINE
  5
D0
  8
DIMNSIONS
  6
CONTINUOUS
 62
     7
 10
-250.0
 20
-849.5
 30
0.0
 11
-260.05059692725359
 21
-811.99066162109364
 31
0.0
  0
LINE
  5
D1
  8
DIMNSIONS
  6
CONTINUOUS
 62
     7
 10
-250.0
 20
-849.5
 30
0.0
 11
-239.94940307274641
 21
-811.99066162109364
 31
0.0
  0
LINE
  5
D2
  8
DIMNSIONS
  6
CONTINUOUS
 62
     7
 10
-250.0
 20
-454.49999999999989
 30
0.0
 11
-239.94940307274641
 21
-492.00933837890631
 31
0.0
  0
LINE
  5
D3
  8
DIMNSIONS
  6
CONTINUOUS
 62
     7
 10
-250.0
 20
-454.49999999999989
 30
0.0
 11
-260.05059692725359
 21
-492.00933837890631
 31
0.0
  0
TEXT
  5
D4
  8
DIMNSIONS
 62
     7
 10
-264.9083333333333
 20
-691.6875
 30
0.0
 40
40.721028645833343
  1
395
 50
90.0
 41
0.7
 11
-305.62936197916662
 21
-691.6875
 31
0.0
 73
     3
  0
LINE
  5
D5
  8
DIMNSIONS
  6
CONTINUOUS
 62
     7
 10
-772.09179236299644
 20
-61.853707631414977
 30
0.0
 11
-650.0
 21
-149.99999999999989
 31
0.0
  0
LINE
  5
D6
  8
DIMNSIONS
  6
CONTINUOUS
 62
     7
 10
-772.09179236299644
 20
-61.853707631414977
 30
0.0
 11
-735.60115558125278
 21
-75.135213249389054
 31
0.0
  0
LINE
  5
D7
  8
DIMNSIONS
  6
CONTINUOUS
 62
     7
 10
-772.09179236299644
 20
-61.853707631414977
 30
0.0
 11
-747.13072671872283
 21
-91.601147287958014
 31
0.0
  0
LINE
  5
D8
  8
DIMNSIONS
  6
CONTINUOUS
 62
     7
 10
-650.0
 20
-149.99999999999989
 30
0.0
 11
-487.7083333333332
 21
-149.99999999999989
 31
0.0
  0
TEXT
  5
D9
  8
DIMNSIONS
 62
     7
 10
-620.0
 20
-135.09166666666661
 30
0.0
 40
40.721028645833343
  1
4-M10
 41
0.7
 11
-620.0
 21
-94.370638020833269
 31
0.0
 73
     3
  0
LINE
  5
DA
  8
DIMNSIONS
  6
CONTINUOUS
 62
     7
 10
-490.15967448813802
 20
-445.28501880887438
 30
0.0
 11
-450.0
 21
-350.0
 31
0.0
  0
LINE
  5
DB
  8
DIMNSIONS
  6
CONTINUOUS
 62
     7
 10
-490.15967448813802
 20
-445.28501880887438
 30
0.0
 11
-484.75523162609278
 21
-406.83040970192451
 31
0.0
  0
LINE
  5
DC
  8
DIMNSIONS
  6
CONTINUOUS
 62
     7
 10
-490.15967448813802
 20
-445.28501880887438
 30
0.0
 11
-466.25198512283072
 21
-414.68457186067792
 31
0.0
  0
LINE
  5
DD
  8
DIMNSIONS
  6
CONTINUOUS
 62
     7
 10
-450.0
 20
-350.0
 30
0.0
 11
-287.70833333333331
 21
-350.0
 31
0.0
  0
TEXT
  5
DE
  8
DIMNSIONS
 62
     7
 10
-420.0
 20
-335.0916666666667
 30
0.0
 40
40.721028645833343
  1
4-M10
 41
0.7
 11
-420.0
 21
-294.37063802083333
 31
0.0
 73
     3
  0
LINE
  5
DF
  8
DIMNSIONS
  6
CONTINUOUS
 62
     7
 10
2.7999999999999998
 20
-867.60000000000002
 30
0.0
 11
56.0
 21
-1050.0
 31
0.0
  0
LINE
  5
E0
  8
DIMNSIONS
  6
CONTINUOUS
 62
     7
 10
2.7999999999999998
 20
-867.60000000000002
 30
0.0
 11
23.37810284666293
 21
-900.53184852767265
 31
0.0
  0
LINE
  5
E1
  8
DIMNSIONS
  6
CONTINUOUS
 62
     7
 10
2.7999999999999998
 20
-867.60000000000002
 30
0.0
 11
4.1552355630626661
 21
-906.40886884187717
 31
0.0
  0
LINE
  5
E2
  8
DIMNSIONS
  6
CONTINUOUS
 62
     7
 10
56.0
 20
-1050.0
 30
0.0
 11
165.375
 21
-1050.0
 31
0.0
  0
TEXT
  5
E3
  8
DIMNSIONS
 62
     7
 10
86.0
 20
-1035.091666666666
 30
0.0
 40
40.721028645833343
  1
M10
 41
0.7
 11
86.0
 21
-994.37063802083321
 31
0.0
 73
     3
  0
LINE
  5
E4
  8
DIMNSIONS
  6
CONTINUOUS
 62
     7
 10
-817.75000000002785
 20
-1358.9998399546171
 30
0.0
 11
-570.0
 21
-1358.9998399546171
 31
0.0
  0
LINE
  5
E5
  8
DIMNSIONS
  6
CONTINUOUS
 62
     7
 10
-772.28162152089658
 20
-1522.999839954721
 30
0.0
 11
-570.0
 21
-1522.999839954721
 31
0.0
  0
LINE
  5
E6
  8
DIMNSIONS
  6
CONTINUOUS
 62
     7
 10
-600.0
 20
-1358.9998399546171
 30
0.0
 11
-600.0
 21
-1522.999839954721
 31
0.0
  0
LINE
  5
E7
  8
DIMNSIONS
  6
CONTINUOUS
 62
     7
 10
-600.0
 20
-1358.9998399546171
 30
0.0
 11
-589.94940307274635
 21
-1396.509178333524
 31
0.0
  0
LINE
  5
E8
  8
DIMNSIONS
  6
CONTINUOUS
 62
     7
 10
-600.0
 20
-1358.9998399546171
 30
0.0
 11
-610.05059692725365
 21
-1396.509178333524
 31
0.0
  0
LINE
  5
E9
  8
DIMNSIONS
  6
CONTINUOUS
 62
     7
 10
-600.0
 20
-1522.999839954721
 30
0.0
 11
-610.05059692725365
 21
-1485.490501575815
 31
0.0
  0
LINE
  5
EA
  8
DIMNSIONS
  6
CONTINUOUS
 62
     7
 10
-600.0
 20
-1522.999839954721
 30
0.0
 11
-589.94940307274635
 21
-1485.490501575815
 31
0.0
  0
TEXT
  5
EB
  8
DIMNSIONS
 62
     7
 10
-614.9083333333333
 20
-1480.6873399546689
 30
0.0
 40
40.721028645833343
  1
164
 50
90.0
 41
0.7
 11
-655.62936197916667
 21
-1480.6873399546689
 31
0.0
 73
     3
  0
LINE
  5
EC
  8
DIMNSIONS
  6
CONTINUOUS
 62
     7
 10
-873.39933011306198
 20
-1352.0245721056549
 30
0.0
 11
-675.0
 21
-1300.0
 31
0.0
  0
LINE
  5
ED
  8
DIMNSIONS
  6
CONTINUOUS
 62
     7
 10
-873.39933011306198
 20
-1352.0245721056549
 30
0.0
 11
-839.43563884911839
 21
-1333.1981906173039
 31
0.0
  0
LINE
  5
EE
  8
DIMNSIONS
  6
CONTINUOUS
 62
     7
 10
-873.39933011306198
 20
-1352.0245721056549
 30
0.0
 11
-834.57271992801964
 21
-1352.702293107378
 31
0.0
  0
LINE
  5
EF
  8
DIMNSIONS
  6
CONTINUOUS
 62
     7
 10
-675.0
 20
-1300.0
 30
0.0
 11
-168.74999999999989
 21
-1300.0
 31
0.0
  0
TEXT
  5
F0
  8
DIMNSIONS
 62
     7
 10
-645.0
 20
-1285.091666666666
 30
0.0
 40
40.721028645833343
  1
\U+03C635ポールソケット
 41
0.7
 11
-645.0
 21
-1244.370638020833
 31
0.0
 73
     3
  0
ARC
  5
F1
  8
DATA
  6
CONTINUOUS
 62
     7
 10
-900.00000000000011
 20
753.12483995471825
 30
0.0
 40
938.12499999999704
 50
264.1994850357209
 51
275.80051496427922
  0
TEXT
  5
F2
  8
DATA
 62
     7
 10
-1312.5
 20
-1782.4104233333339
 30
0.0
 40
28.504720052083339
  1
※仕様及び外観は予告なく変更されることがあります。
 41
0.7
 11
-1312.5
 21
-1753.9057032812509
 31
0.0
 73
     3
  0
TEXT
  5
F3
  8
DATA
 62
     7
 10
-1312.5
 20
-1819.45209
 30
0.0
 40
28.504720052083339
  1
　また、同一商品でも若干の個体差があることがあります。ご了承ください。
 41
0.7
 11
-1312.5
 21
-1790.947369947917
 31
0.0
 73
     3
  0
TEXT
  5
F4
  8
DATA
 62
     7
 10
414.04515870412189
 20
724.73750399999994
 30
0.0
 40
54.000778124999997
  1
コネクターパネル拡大図
 41
0.7
 11
414.04515870412189
 21
778.73828212499996
 31
0.0
 73
     3
  0
LINE
  5
F5
  8
DATA
  6
CONTINUOUS
 62
     7
 10
379.9999999999996
 20
700.0
 30
0.0
 11
1220.0
 21
700.0
 31
0.0
  0
CIRCLE
  5
F6
  8
DATA
  6
CONTINUOUS
 62
     7
 10
-774.24999999999966
 20
-1253.999839954721
 30
0.0
 40
18.750000000000011
  0
CIRCLE
  5
F7
  8
DATA
  6
CONTINUOUS
 62
     7
 10
-774.24999999999966
 20
-1253.999839954721
 30
0.0
 40
5.499999999999627
  0
CIRCLE
  5
F8
  8
DATA
  6
CONTINUOUS
 62
     7
 10
-774.24999999999966
 20
-1253.999839954721
 30
0.0
 40
4.5
  0
CIRCLE
  5
F9
  8
DATA
  6
CONTINUOUS
 62
     7
 10
-818.24999999999966
 20
-1479.999839954721
 30
0.0
 40
18.750000000000011
  0
CIRCLE
  5
FA
  8
DATA
  6
CONTINUOUS
 62
     7
 10
-818.24999999999966
 20
-1479.999839954721
 30
0.0
 40
5.499999999999627
  0
CIRCLE
  5
FB
  8
DATA
  6
CONTINUOUS
 62
     7
 10
-818.24999999999966
 20
-1479.999839954721
 30
0.0
 40
4.5
  0
LINE
  5
FC
  8
DATA
  6
CONTINUOUS
 62
     7
 10
-732.24999999999966
 20
-1236.1681557594011
 30
0.0
 11
-732.24999999999966
 21
-1330.163329246167
 31
0.0
  0
LINE
  5
FD
  8
DATA
  6
CONTINUOUS
 62
     7
 10
-747.24999999999955
 20
-1244.2523136617419
 30
0.0
 11
-747.24999999999955
 21
-1330.163329246167
 31
0.0
  0
LINE
  5
FE
  8
DATA
  6
CONTINUOUS
 62
     7
 10
-783.07033623260543
 20
-1508.561001485542
 30
0.0
 11
-733.03871471170874
 21
-1335.724490776988
 31
0.0
  0
LINE
  5
FF
  8
DATA
  6
CONTINUOUS
 62
     7
 10
-795.38896831512693
 20
-1497.170711102837
 30
0.0
 11
-747.84153603378093
 21
-1332.915945040003
 31
0.0
  0
LINE
  5
100
  8
DATA
  6
CONTINUOUS
 62
     7
 10
-997.71837847910342
 20
-1522.999839954721
 30
0.0
 11
-802.28162152089646
 21
-1522.999839954721
 31
0.0
  0
LINE
  5
101
  8
DATA
  6
CONTINUOUS
 62
     7
 10
-802.24999999999966
 20
-1204.999839954721
 30
0.0
 11
-748.05941822538239
 21
-1216.612107477853
 31
0.0
  0
LINE
  5
102
  8
DATA
  6
CONTINUOUS
 62
     7
 10
-803.78546128467747
 20
-1220.0113351043719
 30
0.0
 11
-759.10706366903605
 21
-1229.5852774505811
 31
0.0
  0
LINE
  5
103
  8
DATA
  6
CONTINUOUS
 62
     7
 10
-998.81877780533705
 20
-1205.2288637701499
 30
0.0
 11
-1051.9405817746169
 21
-1216.612107477853
 31
0.0
  0
LINE
  5
104
  8
DATA
  6
CONTINUOUS
 62
     7
 10
-996.2145387153023
 20
-1220.0113351043669
 30
0.0
 11
-1040.892936330963
 21
-1229.5852774505811
 31
0.0
  0
LINE
  5
105
  8
DATA
  6
CONTINUOUS
 62
     7
 10
-990.20256771865411
 20
-1507.999839954721
 30
0.0
 11
-809.79743228134578
 21
-1507.999839954721
 31
0.0
  0
LINE
  5
106
  8
DATA
  6
CONTINUOUS
 62
     7
 10
-1067.75
 20
-1236.1681557594011
 30
0.0
 11
-1067.75
 21
-1330.163329246167
 31
0.0
  0
LINE
  5
107
  8
DATA
  6
CONTINUOUS
 62
     7
 10
-1052.75
 20
-1244.2523136617419
 30
0.0
 11
-1052.75
 21
-1330.163329246167
 31
0.0
  0
LINE
  5
108
  8
DATA
  6
CONTINUOUS
 62
     7
 10
-1016.929663767394
 20
-1508.561001485542
 30
0.0
 11
-1066.961285288291
 21
-1335.724490776988
 31
0.0
  0
LINE
  5
109
  8
DATA
  6
CONTINUOUS
 62
     7
 10
-1004.611031684873
 20
-1497.170711102837
 30
0.0
 11
-1052.158463966219
 21
-1332.915945040003
 31
0.0
  0
ARC
  5
10A
  8
DATA
  6
CONTINUOUS
 62
     7
 10
-802.28162152089646
 20
-1502.999839954721
 30
0.0
 40
20.0
 50
270.0
 51
343.85566121971618
  0
ARC
  5
10B
  8
DATA
  6
CONTINUOUS
 62
     7
 10
-997.71837847910342
 20
-1502.999839954721
 30
0.0
 40
19.99999999999984
 50
196.1443387802837
 51
270.0
  0
ARC
  5
10C
  8
DATA
  6
CONTINUOUS
 62
     7
 10
-1047.75
 20
-1330.163329246167
 30
0.0
 40
20.0
 50
180.00000000000199
 51
196.14433878028569
  0
ARC
  5
10D
  8
DATA
  6
CONTINUOUS
 62
     7
 10
-752.24999999999955
 20
-1330.163329246167
 30
0.0
 40
20.000000000000021
 50
343.85566121971431
 51
359.99999999999801
  0
ARC
  5
10E
  8
DATA
  6
CONTINUOUS
 62
     7
 10
-990.20256771865411
 20
-1492.999839954721
 30
0.0
 40
15.00000000000021
 50
196.14433878028211
 51
270.0
  0
ARC
  5
10F
  8
DATA
  6
CONTINUOUS
 62
     7
 10
-1037.75
 20
-1328.7450738918851
 30
0.0
 40
15.0
 50
180.0000000000087
 51
196.14433878029129
  0
ARC
  5
110
  8
DATA
  6
CONTINUOUS
 62
     7
 10
-809.79743228134669
 20
-1492.999839954721
 30
0.0
 40
15.0
 50
270.00000000000352
 51
343.85566121971812
  0
ARC
  5
111
  8
DATA
  6
CONTINUOUS
 62
     7
 10
-900.0
 20
-2153.1248399547212
 30
0.0
 40
953.125
 50
84.12865310715766
 51
95.804939850944308
  0
ARC
  5
112
  8
DATA
  6
CONTINUOUS
 62
     7
 10
-900.0
 20
-2153.1248399547212
 30
0.0
 40
938.12499999999989
 50
84.229070891765176
 51
95.770929108233517
  0
ARC
  5
113
  8
DATA
  6
CONTINUOUS
 62
     7
 10
-1037.75
 20
-1244.2523136617419
 30
0.0
 40
15.000000000000011
 50
102.0947570770136
 51
180.0
  0
ARC
  5
114
  8
DATA
  6
CONTINUOUS
 62
     7
 10
-762.24999999999955
 20
-1244.2523136617419
 30
0.0
 40
15.0
 50
0.0000000000008527
 51
77.905242922986588
  0
ARC
  5
115
  8
DATA
  6
CONTINUOUS
 62
     7
 10
-752.24999999999955
 20
-1236.1681557594011
 30
0.0
 40
20.0
 50
0.0
 51
77.905242922988066
  0
ARC
  5
116
  8
DATA
  6
CONTINUOUS
 62
     7
 10
-1047.75
 20
-1236.1681557594011
 30
0.0
 40
19.99999999999989
 50
102.09475707701191
 51
180.0
  0
CIRCLE
  5
117
  8
DATA
  6
CONTINUOUS
 62
     7
 10
-1025.75
 20
-1253.999839954721
 30
0.0
 40
18.750000000000011
  0
CIRCLE
  5
118
  8
DATA
  6
CONTINUOUS
 62
     7
 10
-1025.75
 20
-1253.999839954721
 30
0.0
 40
5.499999999999627
  0
CIRCLE
  5
119
  8
DATA
  6
CONTINUOUS
 62
     7
 10
-1025.75
 20
-1253.999839954721
 30
0.0
 40
4.5
  0
CIRCLE
  5
11A
  8
DATA
  6
CONTINUOUS
 62
     7
 10
-981.75
 20
-1479.999839954721
 30
0.0
 40
18.750000000000011
  0
CIRCLE
  5
11B
  8
DATA
  6
CONTINUOUS
 62
     7
 10
-981.75
 20
-1479.999839954721
 30
0.0
 40
5.499999999999627
  0
CIRCLE
  5
11C
  8
DATA
  6
CONTINUOUS
 62
     7
 10
-981.75
 20
-1479.999839954721
 30
0.0
 40
4.5
  0
LINE
  5
11D
  8
DATA
  6
CONTINUOUS
 62
     7
 10
-732.24999999999966
 20
-163.83184424059829
 30
0.0
 11
-732.24999999999966
 21
-69.836670753832408
 31
0.0
  0
LINE
  5
11E
  8
DATA
  6
CONTINUOUS
 62
     7
 10
-747.24999999999955
 20
-155.74768633825789
 30
0.0
 11
-747.24999999999955
 21
-69.836670753832408
 31
0.0
  0
LINE
  5
11F
  8
DATA
  6
CONTINUOUS
 62
     7
 10
-797.24999999999955
 20
-110.5574409452866
 30
0.0
 11
-797.24999999999955
 21
-78.346202879499842
 31
0.0
  0
LINE
  5
120
  8
DATA
  6
CONTINUOUS
 62
     7
 10
-817.95857103860601
 20
-130.18223629583829
 30
0.0
 11
-805.54179606750006
 21
-123.9738488102853
 31
0.0
  0
LINE
  5
121
  8
DATA
  6
CONTINUOUS
 62
     7
 10
-783.07033623260543
 20
108.5610014855425
 30
0.0
 11
-733.03871471170874
 21
-64.275509223011213
 31
0.0
  0
LINE
  5
122
  8
DATA
  6
CONTINUOUS
 62
     7
 10
-795.38896831512693
 20
97.170711102837103
 30
0.0
 11
-747.84153603378093
 21
-67.08405495999645
 31
0.0
  0
LINE
  5
123
  8
DATA
  6
CONTINUOUS
 62
     7
 10
-832.96802211737111
 20
47.17071110283711
 30
0.0
 11
-797.84153603378093
 21
-74.175331731384034
 31
0.0
  0
LINE
  5
124
  8
DATA
  6
CONTINUOUS
 62
     7
 10
-997.71837847910342
 20
122.9998399547213
 30
0.0
 11
-802.28162152089646
 21
122.9998399547213
 31
0.0
  0
LINE
  5
125
  8
DATA
  6
CONTINUOUS
 62
     7
 10
-802.24999999999966
 20
-195.00016004527859
 30
0.0
 11
-748.05941822538239
 21
-183.38789252214639
 31
0.0
  0
LINE
  5
126
  8
DATA
  6
CONTINUOUS
 62
     7
 10
-803.78546128467747
 20
-179.98866489562789
 30
0.0
 11
-759.10706366903605
 21
-170.414722549419
 31
0.0
  0
LINE
  5
127
  8
DATA
  6
CONTINUOUS
 62
     7
 10
-998.56877780533705
 20
-194.77113622984919
 30
0.0
 11
-1051.6905817746169
 21
-183.38789252214639
 31
0.0
  0
LINE
  5
128
  8
DATA
  6
CONTINUOUS
 62
     7
 10
-996.2145387153023
 20
-179.98866489563201
 30
0.0
 11
-1040.892936330963
 21
-170.414722549419
 31
0.0
  0
LINE
  5
129
  8
DATA
  6
CONTINUOUS
 62
     7
 10
-990.20256771865411
 20
107.9998399547213
 30
0.0
 11
-809.79743228134578
 21
107.9998399547213
 31
0.0
  0
LINE
  5
12A
  8
DATA
  6
CONTINUOUS
 62
     7
 10
-952.62351391641016
 20
57.999839954721317
 30
0.0
 11
-847.37648608358973
 21
57.999839954721317
 31
0.0
  0
LINE
  5
12B
  8
DATA
  6
CONTINUOUS
 62
     7
 10
-1067.75
 20
-163.83184424059829
 30
0.0
 11
-1067.75
 21
-69.836670753832408
 31
0.0
  0
LINE
  5
12C
  8
DATA
  6
CONTINUOUS
 62
     7
 10
-1052.75
 20
-155.74768633825789
 30
0.0
 11
-1052.75
 21
-69.836670753832408
 31
0.0
  0
LINE
  5
12D
  8
DATA
  6
CONTINUOUS
 62
     7
 10
-1002.75
 20
-110.5574409452866
 30
0.0
 11
-1002.75
 21
-78.346202879499842
 31
0.0
  0
LINE
  5
12E
  8
DATA
  6
CONTINUOUS
 62
     7
 10
-982.04142896140945
 20
-130.18223629583059
 30
0.0
 11
-994.45820393249983
 21
-123.9738488102853
 31
0.0
  0
LINE
  5
12F
  8
DATA
  6
CONTINUOUS
 62
     7
 10
-1016.929663767394
 20
108.5610014855425
 30
0.0
 11
-1066.961285288291
 21
-64.275509223011213
 31
0.0
  0
LINE
  5
130
  8
DATA
  6
CONTINUOUS
 62
     7
 10
-1004.611031684873
 20
97.170711102837103
 30
0.0
 11
-1052.158463966219
 21
-67.08405495999645
 31
0.0
  0
LINE
  5
131
  8
DATA
  6
CONTINUOUS
 62
     7
 10
-967.03197788262889
 20
47.17071110283711
 30
0.0
 11
-1002.158463966219
 21
-74.175331731384034
 31
0.0
  0
ARC
  5
132
  8
DATA
  6
CONTINUOUS
 62
     7
 10
-900.0
 20
753.1248399547211
 30
0.0
 40
888.12499999999989
 50
265.06683267498471
 51
274.93316732501432
  0
ARC
  5
133
  8
DATA
  6
CONTINUOUS
 62
     7
 10
-802.28162152089646
 20
102.9998399547213
 30
0.0
 40
19.99999999999984
 50
16.14433878028381
 51
90.0
  0
ARC
  5
134
  8
DATA
  6
CONTINUOUS
 62
     7
 10
-997.71837847910342
 20
102.9998399547213
 30
0.0
 40
20.0
 50
90.0
 51
163.8556612197161
  0
ARC
  5
135
  8
DATA
  6
CONTINUOUS
 62
     7
 10
-1047.75
 20
-69.836670753833076
 30
0.0
 40
20.000000000000021
 50
163.85566121971431
 51
179.99999999999801
  0
ARC
  5
136
  8
DATA
  6
CONTINUOUS
 62
     7
 10
-752.24999999999955
 20
-69.836670753833076
 30
0.0
 40
20.0
 50
0.0000000000019327
 51
16.14433878028569
  0
ARC
  5
137
  8
DATA
  6
CONTINUOUS
 62
     7
 10
-990.20256771865411
 20
92.999839954721566
 30
0.0
 40
14.999999999999771
 50
90.0
 51
163.85566121971789
  0
ARC
  5
138
  8
DATA
  6
CONTINUOUS
 62
     7
 10
-1037.75
 20
-71.254926108114518
 30
0.0
 40
15.000000000000909
 50
163.85566121970879
 51
179.9999999999913
  0
ARC
  5
139
  8
DATA
  6
CONTINUOUS
 62
     7
 10
-762.25000000000045
 20
-71.254926108108151
 30
0.0
 40
15.000000000000909
 50
359.99999999998442
 51
16.144338780266931
  0
ARC
  5
13A
  8
DATA
  6
CONTINUOUS
 62
     7
 10
-809.79743228134669
 20
92.999839954721324
 30
0.0
 40
15.000000000001149
 50
16.144338780281942
 51
89.999999999996504
  0
ARC
  5
13B
  8
DATA
  6
CONTINUOUS
 62
     7
 10
-847.3764860835887
 20
42.999839954721317
 30
0.0
 40
14.99999999999941
 50
16.144338780283871
 51
90.000000000003496
  0
ARC
  5
13C
  8
DATA
  6
CONTINUOUS
 62
     7
 10
-952.62351391641016
 20
42.999839954721537
 30
0.0
 40
14.999999999999771
 50
90.0
 51
163.85566121971789
  0
ARC
  5
13D
  8
DATA
  6
CONTINUOUS
 62
     7
 10
-987.75000000000011
 20
-78.346202879502101
 30
0.0
 40
15.000000000000909
 50
163.85566121970879
 51
179.9999999999913
  0
ARC
  5
13E
  8
DATA
  6
CONTINUOUS
 62
     7
 10
-987.75000000000011
 20
-110.5574409452869
 30
0.0
 40
15.0
 50
179.9999999999992
 51
243.43494882292089
  0
ARC
  5
13F
  8
DATA
  6
CONTINUOUS
 62
     7
 10
-975.33322502893589
 20
-116.76582843088499
 30
0.0
 40
14.99999999994073
 50
243.43494882292049
 51
265.06683267506787
  0
ARC
  5
140
  8
DATA
  6
CONTINUOUS
 62
     7
 10
-824.66677497103933
 20
-116.7658284309715
 30
0.0
 40
14.99999999985269
 50
274.93316732480429
 51
296.56505117707729
  0
ARC
  5
141
  8
DATA
  6
CONTINUOUS
 62
     7
 10
-812.24999999999955
 20
-110.5574409452869
 30
0.0
 40
14.999999999999909
 50
296.56505117707923
 51
0.0000000000008527
  0
ARC
  5
142
  8
DATA
  6
CONTINUOUS
 62
     7
 10
-812.25000000000045
 20
-78.346202879495735
 30
0.0
 40
15.000000000000909
 50
359.99999999998442
 51
16.144338780266931
  0
LINE
  5
143
  8
DATA
  6
CONTINUOUS
 62
     7
 10
-852.8024649603409
 20
25.780420720131961
 30
0.0
 11
-844.11825443402586
 21
-4.2195792798682703
 31
0.0
  0
LINE
  5
144
  8
DATA
  6
CONTINUOUS
 62
     7
 10
-937.34189239551336
 20
32.999839954721352
 30
0.0
 11
-862.40810760448642
 21
32.999839954721352
 31
0.0
  0
LINE
  5
145
  8
DATA
  6
CONTINUOUS
 62
     7
 10
-946.02610292182806
 20
-17.000160045278651
 30
0.0
 11
-853.7238970781716
 21
-17.000160045278651
 31
0.0
  0
LINE
  5
146
  8
DATA
  6
CONTINUOUS
 62
     7
 10
-947.19753503965899
 20
25.78042072013173
 30
0.0
 11
-955.88174556597426
 21
-4.219579279868042
 31
0.0
  0
ARC
  5
147
  8
DATA
  6
CONTINUOUS
 62
     7
 10
-862.40810760448733
 20
22.999839954721349
 30
0.0
 40
10.00000000000079
 50
16.144338780282361
 51
89.99999999999477
  0
ARC
  5
148
  8
DATA
  6
CONTINUOUS
 62
     7
 10
-853.7238970781716
 20
-7.0001600452786468
 30
0.0
 40
10.0
 50
270.0
 51
16.144338780282538
  0
ARC
  5
149
  8
DATA
  6
CONTINUOUS
 62
     7
 10
-946.2761029218276
 20
-7.0001600452786468
 30
0.0
 40
10.00000000000079
 50
163.8556612197176
 51
269.99999999999483
  0
ARC
  5
14A
  8
DATA
  6
CONTINUOUS
 62
     7
 10
-937.34189239551336
 20
22.999839954721349
 30
0.0
 40
10.0
 50
90.0
 51
163.8556612197174
  0
ARC
  5
14B
  8
DATA
  6
CONTINUOUS
 62
     7
 10
-900.0
 20
753.1248399547211
 30
0.0
 40
953.125
 50
264.19506014905568
 51
275.87134689284238
  0
ARC
  5
14C
  8
DATA
  6
CONTINUOUS
 62
     7
 10
-1037.75
 20
-155.74768633825789
 30
0.0
 40
15.0
 50
180.0
 51
257.90524292298647
  0
ARC
  5
14D
  8
DATA
  6
CONTINUOUS
 62
     7
 10
-762.24999999999955
 20
-155.74768633825769
 30
0.0
 40
15.00000000000024
 50
282.09475707701353
 51
359.9999999999992
  0
ARC
  5
14E
  8
DATA
  6
CONTINUOUS
 62
     7
 10
-752.24999999999955
 20
-163.83184424059829
 30
0.0
 40
19.99999999999989
 50
282.09475707701188
 51
0.0
  0
ARC
  5
14F
  8
DATA
  6
CONTINUOUS
 62
     7
 10
-1047.75
 20
-163.83184424059829
 30
0.0
 40
20.0
 50
180.0
 51
257.90524292298812
  0
LINE
  5
150
  8
DATA
  6
CONTINUOUS
 62
     7
 10
-650.0
 20
-883.8196601125012
 30
0.0
 11
-650.0
 21
-420.1803398874988
 31
0.0
  0
LINE
  5
151
  8
DATA
  6
CONTINUOUS
 62
     7
 10
-635.0
 20
-892.0
 30
0.0
 11
-635.0
 21
-412.0
 31
0.0
  0
LINE
  5
152
  8
DATA
  6
CONTINUOUS
 62
     7
 10
-349.36067977499812
 20
-900.0
 30
0.0
 11
-627.63932022500194
 21
-900.0
 31
0.0
  0
LINE
  5
153
  8
DATA
  6
CONTINUOUS
 62
     7
 10
-331.24830117921738
 20
-892.0
 30
0.0
 11
-645.75169882078239
 21
-892.0
 31
0.0
  0
LINE
  5
154
  8
DATA
  6
CONTINUOUS
 62
     7
 10
-344.88854381999772
 20
-898.9442719099992
 30
0.0
 11
-332.52786404500063
 21
-892.76393202250006
 31
0.0
  0
LINE
  5
155
  8
DATA
  6
CONTINUOUS
 62
     7
 10
-632.11145618000228
 20
-898.9442719099992
 30
0.0
 11
-644.47213595499943
 21
-892.76393202250006
 31
0.0
  0
LINE
  5
156
  8
DATA
  6
CONTINUOUS
 62
     7
 10
-327.0
 20
-420.1803398874988
 30
0.0
 11
-327.0
 21
-883.8196601125012
 31
0.0
  0
LINE
  5
157
  8
DATA
  6
CONTINUOUS
 62
     7
 10
-516.99999999999977
 20
-404.0
 30
0.0
 11
-516.99999999999977
 21
-900.0
 31
0.0
  0
LINE
  5
158
  8
DATA
  6
CONTINUOUS
 62
     7
 10
-627.63932022500194
 20
-404.0
 30
0.0
 11
-349.36067977499812
 21
-404.0
 31
0.0
  0
LINE
  5
159
  8
DATA
  6
CONTINUOUS
 62
     7
 10
-645.75169882078239
 20
-412.0
 30
0.0
 11
-331.24830117921738
 21
-412.0
 31
0.0
  0
LINE
  5
15A
  8
DATA
  6
CONTINUOUS
 62
     7
 10
-344.88854381999857
 20
-405.0557280900008
 30
0.0
 11
-332.52786404500063
 21
-411.2360679774996
 31
0.0
  0
LINE
  5
15B
  8
DATA
  6
CONTINUOUS
 62
     7
 10
-632.11145618000137
 20
-405.0557280900008
 30
0.0
 11
-644.47213595499943
 21
-411.2360679774996
 31
0.0
  0
ARC
  5
15C
  8
DATA
  6
CONTINUOUS
 62
     7
 10
-349.36067977499812
 20
-414.0
 30
0.0
 40
9.9999999999999716
 50
63.434948822922877
 51
90.0
  0
ARC
  5
15D
  8
DATA
  6
CONTINUOUS
 62
     7
 10
-337.0
 20
-420.1803398874988
 30
0.0
 40
10.0
 50
0.0
 51
63.434948822922863
  0
ARC
  5
15E
  8
DATA
  6
CONTINUOUS
 62
     7
 10
-640.0
 20
-420.18033988749897
 30
0.0
 40
10.000000000000069
 50
116.5650511770768
 51
179.9999999999994
  0
ARC
  5
15F
  8
DATA
  6
CONTINUOUS
 62
     7
 10
-627.63932022500194
 20
-413.99999999999989
 30
0.0
 40
9.9999999999998863
 50
90.0
 51
116.56505117707739
  0
ARC
  5
160
  8
DATA
  6
CONTINUOUS
 62
     7
 10
-627.63932022500194
 20
-413.99999999999989
 30
0.0
 40
9.9999999999998863
 50
90.0
 51
116.56505117707739
  0
ARC
  5
161
  8
DATA
  6
CONTINUOUS
 62
     7
 10
-640.0
 20
-883.81966011250108
 30
0.0
 40
10.0
 50
180.00000000000131
 51
243.43494882292319
  0
ARC
  5
162
  8
DATA
  6
CONTINUOUS
 62
     7
 10
-627.63932022500194
 20
-890.0
 30
0.0
 40
10.00000000000027
 50
243.43494882291799
 51
270.0
  0
ARC
  5
163
  8
DATA
  6
CONTINUOUS
 62
     7
 10
-349.36067977499812
 20
-890.0
 30
0.0
 40
10.0
 50
270.0
 51
296.56505117708213
  0
ARC
  5
164
  8
DATA
  6
CONTINUOUS
 62
     7
 10
-337.0
 20
-883.81966011250108
 30
0.0
 40
9.9999999999999716
 50
296.56505117707712
 51
359.99999999999937
  0
LINE
  5
165
  8
DATA
  6
CONTINUOUS
 62
     7
 10
-614.74999999999989
 20
-903.5
 30
0.0
 11
-614.74999999999989
 21
-900.0
 31
0.0
  0
LINE
  5
166
  8
DATA
  6
CONTINUOUS
 62
     7
 10
-577.24999999999989
 20
-903.5
 30
0.0
 11
-614.74999999999989
 21
-903.5
 31
0.0
  0
LINE
  5
167
  8
DATA
  6
CONTINUOUS
 62
     7
 10
-577.24999999999989
 20
-900.0
 30
0.0
 11
-577.24999999999989
 21
-903.5
 31
0.0
  0
LINE
  5
168
  8
DATA
  6
CONTINUOUS
 62
     7
 10
-614.74999999999989
 20
-900.0
 30
0.0
 11
-577.24999999999989
 21
-900.0
 31
0.0
  0
LINE
  5
169
  8
DATA
  6
CONTINUOUS
 62
     7
 10
-388.75
 20
-903.5
 30
0.0
 11
-388.75
 21
-900.0
 31
0.0
  0
LINE
  5
16A
  8
DATA
  6
CONTINUOUS
 62
     7
 10
-351.25
 20
-903.5
 30
0.0
 11
-388.75
 21
-903.5
 31
0.0
  0
LINE
  5
16B
  8
DATA
  6
CONTINUOUS
 62
     7
 10
-351.25
 20
-900.0
 30
0.0
 11
-351.25
 21
-903.5
 31
0.0
  0
LINE
  5
16C
  8
DATA
  6
CONTINUOUS
 62
     7
 10
-388.75
 20
-900.0
 30
0.0
 11
-351.25
 21
-900.0
 31
0.0
  0
LINE
  5
16D
  8
DATA
  6
CONTINUOUS
 62
     7
 10
167.5
 20
-889.0
 30
0.0
 11
167.5
 21
-415.0
 31
0.0
  0
LINE
  5
16E
  8
DATA
  6
CONTINUOUS
 62
     7
 10
-153.60294117647021
 20
-899.41176470588255
 30
0.0
 11
-164.85294117647021
 21
-893.41176470588243
 31
0.0
  0
LINE
  5
16F
  8
DATA
  6
CONTINUOUS
 62
     7
 10
153.60294117647021
 20
-899.41176470588255
 30
0.0
 11
164.85294117647021
 21
-893.41176470588243
 31
0.0
  0
LINE
  5
170
  8
DATA
  6
CONTINUOUS
 62
     7
 10
-166.5
 20
-892.0
 30
0.0
 11
166.5
 21
-892.0
 31
0.0
  0
LINE
  5
171
  8
DATA
  6
CONTINUOUS
 62
     7
 10
-167.5
 20
-415.0
 30
0.0
 11
-167.5
 21
-889.0
 31
0.0
  0
LINE
  5
172
  8
DATA
  6
CONTINUOUS
 62
     7
 10
151.25
 20
-404.0
 30
0.0
 11
-151.25
 21
-404.0
 31
0.0
  0
LINE
  5
173
  8
DATA
  6
CONTINUOUS
 62
     7
 10
153.60294117647021
 20
-404.58823529411762
 30
0.0
 11
164.85294117647021
 21
-410.58823529411762
 31
0.0
  0
LINE
  5
174
  8
DATA
  6
CONTINUOUS
 62
     7
 10
-153.60294117647021
 20
-404.58823529411762
 30
0.0
 11
-164.85294117647021
 21
-410.58823529411762
 31
0.0
  0
LINE
  5
175
  8
DATA
  6
CONTINUOUS
 62
     7
 10
166.5
 20
-412.0
 30
0.0
 11
-166.5
 21
-412.0
 31
0.0
  0
ARC
  5
176
  8
DATA
  6
CONTINUOUS
 62
     7
 10
-151.25
 20
-409.0
 30
0.0
 40
5.0
 50
90.0
 51
118.07248693584989
  0
ARC
  5
177
  8
DATA
  6
CONTINUOUS
 62
     7
 10
-162.5
 20
-415.0
 30
0.0
 40
5.0000000000000204
 50
118.0724869358487
 51
179.99999999999869
  0
ARC
  5
178
  8
DATA
  6
CONTINUOUS
 62
     7
 10
151.24999999999909
 20
-408.99999999999989
 30
0.0
 40
5.0000000000001474
 50
61.927513064140307
 51
89.999999999989583
  0
ARC
  5
179
  8
DATA
  6
CONTINUOUS
 62
     7
 10
162.5
 20
-415.0
 30
0.0
 40
5.0
 50
0.0000000000013074
 51
61.927513064151292
  0
ARC
  5
17A
  8
DATA
  6
CONTINUOUS
 62
     7
 10
162.5
 20
-889.0
 30
0.0
 40
5.0000000000000204
 50
298.0724869358487
 51
359.99999999999739
  0
ARC
  5
17B
  8
DATA
  6
CONTINUOUS
 62
     7
 10
151.25
 20
-895.0
 30
0.0
 40
5.0
 50
270.0
 51
298.07248693584933
  0
ARC
  5
17C
  8
DATA
  6
CONTINUOUS
 62
     7
 10
-151.25
 20
-895.0
 30
0.0
 40
4.9999999999999201
 50
241.9275130641507
 51
270.0
  0
ARC
  5
17D
  8
DATA
  6
CONTINUOUS
 62
     7
 10
-162.5
 20
-889.0
 30
0.0
 40
5.0
 50
180.00000000000131
 51
241.9275130641507
  0
LINE
  5
17E
  8
DATA
  6
CONTINUOUS
 62
     7
 10
112.5
 20
-900.0
 30
0.0
 11
112.5
 21
-404.0
 31
0.0
  0
LINE
  5
17F
  8
DATA
  6
CONTINUOUS
 62
     7
 10
-112.5
 20
-900.0
 30
0.0
 11
-112.5
 21
-404.0
 31
0.0
  0
LINE
  5
180
  8
DATA
  6
CONTINUOUS
 62
     7
 10
151.25
 20
-900.0
 30
0.0
 11
-151.25
 21
-900.0
 31
0.0
  0
LINE
  5
181
  8
DATA
  6
CONTINUOUS
 62
     7
 10
106.75
 20
-903.5
 30
0.0
 11
106.75
 21
-900.0
 31
0.0
  0
LINE
  5
182
  8
DATA
  6
CONTINUOUS
 62
     7
 10
144.25
 20
-903.5
 30
0.0
 11
106.75
 21
-903.5
 31
0.0
  0
LINE
  5
183
  8
DATA
  6
CONTINUOUS
 62
     7
 10
144.25
 20
-900.0
 30
0.0
 11
144.25
 21
-903.5
 31
0.0
  0
LINE
  5
184
  8
DATA
  6
CONTINUOUS
 62
     7
 10
106.75
 20
-900.0
 30
0.0
 11
144.25
 21
-900.0
 31
0.0
  0
LINE
  5
185
  8
DATA
  6
CONTINUOUS
 62
     7
 10
-106.75
 20
-903.5
 30
0.0
 11
-106.75
 21
-900.0
 31
0.0
  0
LINE
  5
186
  8
DATA
  6
CONTINUOUS
 62
     7
 10
-144.25
 20
-903.5
 30
0.0
 11
-106.75
 21
-903.5
 31
0.0
  0
LINE
  5
187
  8
DATA
  6
CONTINUOUS
 62
     7
 10
-144.25
 20
-900.0
 30
0.0
 11
-144.25
 21
-903.5
 31
0.0
  0
LINE
  5
188
  8
DATA
  6
CONTINUOUS
 62
     7
 10
-106.75
 20
-900.0
 30
0.0
 11
-144.25
 21
-900.0
 31
0.0
  0
LINE
  5
189
  8
DATA
  6
CONTINUOUS
 62
     7
 10
62.75
 20
-903.5
 30
0.0
 11
62.75
 21
-900.0
 31
0.0
  0
LINE
  5
18A
  8
DATA
  6
CONTINUOUS
 62
     7
 10
100.25
 20
-903.5
 30
0.0
 11
62.75
 21
-903.5
 31
0.0
  0
LINE
  5
18B
  8
DATA
  6
CONTINUOUS
 62
     7
 10
100.25
 20
-900.0
 30
0.0
 11
100.25
 21
-903.5
 31
0.0
  0
LINE
  5
18C
  8
DATA
  6
CONTINUOUS
 62
     7
 10
62.75
 20
-900.0
 30
0.0
 11
100.25
 21
-900.0
 31
0.0
  0
LINE
  5
18D
  8
DATA
  6
CONTINUOUS
 62
     7
 10
-100.25
 20
-903.5
 30
0.0
 11
-100.25
 21
-900.0
 31
0.0
  0
LINE
  5
18E
  8
DATA
  6
CONTINUOUS
 62
     7
 10
-62.75
 20
-903.5
 30
0.0
 11
-100.25
 21
-903.5
 31
0.0
  0
LINE
  5
18F
  8
DATA
  6
CONTINUOUS
 62
     7
 10
-62.75
 20
-900.0
 30
0.0
 11
-62.75
 21
-903.5
 31
0.0
  0
LINE
  5
190
  8
DATA
  6
CONTINUOUS
 62
     7
 10
-100.25
 20
-900.0
 30
0.0
 11
-62.75
 21
-900.0
 31
0.0
  0
LINE
  5
191
  8
DATA
  6
CONTINUOUS
 62
     7
 10
-1067.75
 20
-889.0
 30
0.0
 11
-1067.75
 21
-415.0
 31
0.0
  0
LINE
  5
192
  8
DATA
  6
CONTINUOUS
 62
     7
 10
-1057.75
 20
-867.0
 30
0.0
 11
-1057.75
 21
-429.0
 31
0.0
  0
LINE
  5
193
  8
DATA
  6
CONTINUOUS
 62
     7
 10
-1045.75
 20
-855.0
 30
0.0
 11
-1045.75
 21
-810.0
 31
0.0
  0
LINE
  5
194
  8
DATA
  6
CONTINUOUS
 62
     7
 10
-748.49999999999955
 20
-900.0
 30
0.0
 11
-1051.5
 21
-900.0
 31
0.0
  0
LINE
  5
195
  8
DATA
  6
CONTINUOUS
 62
     7
 10
-746.14705882352951
 20
-899.41176470588255
 30
0.0
 11
-734.89705882352951
 21
-893.41176470588243
 31
0.0
  0
LINE
  5
196
  8
DATA
  6
CONTINUOUS
 62
     7
 10
-1053.85294117647
 20
-899.41176470588255
 30
0.0
 11
-1065.10294117647
 21
-893.41176470588243
 31
0.0
  0
LINE
  5
197
  8
DATA
  6
CONTINUOUS
 62
     7
 10
-733.24999999999955
 20
-892.0
 30
0.0
 11
-1066.75
 21
-892.0
 31
0.0
  0
LINE
  5
198
  8
DATA
  6
CONTINUOUS
 62
     7
 10
-742.24999999999955
 20
-867.0
 30
0.0
 11
-1057.75
 21
-867.0
 31
0.0
  0
LINE
  5
199
  8
DATA
  6
CONTINUOUS
 62
     7
 10
-754.24999999999955
 20
-855.0
 30
0.0
 11
-1045.75
 21
-855.0
 31
0.0
  0
LINE
  5
19A
  8
DATA
  6
CONTINUOUS
 62
     7
 10
-732.24999999999966
 20
-415.0
 30
0.0
 11
-732.24999999999966
 21
-889.0
 31
0.0
  0
LINE
  5
19B
  8
DATA
  6
CONTINUOUS
 62
     7
 10
-742.24999999999955
 20
-429.0
 30
0.0
 11
-742.24999999999955
 21
-867.0
 31
0.0
  0
LINE
  5
19C
  8
DATA
  6
CONTINUOUS
 62
     7
 10
-754.24999999999955
 20
-441.0
 30
0.0
 11
-754.24999999999955
 21
-530.0
 31
0.0
  0
LINE
  5
19D
  8
DATA
  6
CONTINUOUS
 62
     7
 10
-754.24999999999955
 20
-810.0
 30
0.0
 11
-754.24999999999955
 21
-855.0
 31
0.0
  0
LINE
  5
19E
  8
DATA
  6
CONTINUOUS
 62
     7
 10
-1051.5
 20
-404.0
 30
0.0
 11
-748.49999999999955
 21
-404.0
 31
0.0
  0
LINE
  5
19F
  8
DATA
  6
CONTINUOUS
 62
     7
 10
-1053.85294117647
 20
-404.58823529411762
 30
0.0
 11
-1065.10294117647
 21
-410.58823529411762
 31
0.0
  0
LINE
  5
1A0
  8
DATA
  6
CONTINUOUS
 62
     7
 10
-746.14705882352951
 20
-404.58823529411762
 30
0.0
 11
-734.89705882352951
 21
-410.58823529411762
 31
0.0
  0
LINE
  5
1A1
  8
DATA
  6
CONTINUOUS
 62
     7
 10
-1057.75
 20
-429.0
 30
0.0
 11
-742.24999999999955
 21
-429.0
 31
0.0
  0
LINE
  5
1A2
  8
DATA
  6
CONTINUOUS
 62
     7
 10
-1045.75
 20
-441.0
 30
0.0
 11
-754.24999999999955
 21
-441.0
 31
0.0
  0
LINE
  5
1A3
  8
DATA
  6
CONTINUOUS
 62
     7
 10
-1066.75
 20
-412.0
 30
0.0
 11
-733.24999999999955
 21
-412.0
 31
0.0
  0
LINE
  5
1A4
  8
DATA
  6
CONTINUOUS
 62
     7
 10
-1045.75
 20
-441.0
 30
0.0
 11
-1045.75
 21
-530.0
 31
0.0
  0
ARC
  5
1A5
  8
DATA
  6
CONTINUOUS
 62
     7
 10
-748.49999999999955
 20
-409.0
 30
0.0
 40
4.9999999999998188
 50
61.927513064150112
 51
90.0
  0
ARC
  5
1A6
  8
DATA
  6
CONTINUOUS
 62
     7
 10
-737.24999999999955
 20
-415.0
 30
0.0
 40
5.0
 50
0.0000000000013074
 51
61.927513064151292
  0
ARC
  5
1A7
  8
DATA
  6
CONTINUOUS
 62
     7
 10
-1051.4999999999991
 20
-408.99999999999989
 30
0.0
 40
4.9999999999998863
 50
90.000000000010417
 51
118.0724869358597
  0
ARC
  5
1A8
  8
DATA
  6
CONTINUOUS
 62
     7
 10
-1062.75
 20
-415.0
 30
0.0
 40
5.0000000000000204
 50
118.0724869358487
 51
179.99999999999869
  0
ARC
  5
1A9
  8
DATA
  6
CONTINUOUS
 62
     7
 10
-1062.75
 20
-889.0
 30
0.0
 40
5.0
 50
180.0000000000025
 51
241.9275130641513
  0
ARC
  5
1AA
  8
DATA
  6
CONTINUOUS
 62
     7
 10
-1051.5
 20
-895.0
 30
0.0
 40
4.9999999999999201
 50
241.9275130641507
 51
270.0
  0
ARC
  5
1AB
  8
DATA
  6
CONTINUOUS
 62
     7
 10
-748.49999999999955
 20
-895.0
 30
0.0
 40
5.0
 50
270.0
 51
298.07248693584933
  0
ARC
  5
1AC
  8
DATA
  6
CONTINUOUS
 62
     7
 10
-737.24999999999955
 20
-889.0
 30
0.0
 40
4.9999999999999201
 50
298.07248693584933
 51
359.99999999999869
  0
TEXT
  5
1AD
  8
DATA
 62
     7
 10
749.99999999999955
 20
-1733.59124
 30
0.0
 40
36.64892578125
  1
PRX710
 41
0.7
 11
749.99999999999955
 21
-1696.94231421875
 31
0.0
 73
     3
  0
TEXT
  5
1AE
  8
DATA
 62
     7
 10
749.99999999999955
 20
-1624.84124
 30
0.0
 40
36.64892578125
  1
JBL PROFESSIONAL
 41
0.7
 11
749.99999999999955
 21
-1588.19231421875
 31
0.0
 73
     3
  0
TEXT
  5
1AF
  8
DATA
 62
     7
 10
712.49999999999955
 20
-1676.9955650000011
 30
0.0
 40
24.4326171875
  1
2-Wayパワード・フルレンジ
 41
0.7
 11
712.49999999999955
 21
-1652.5629478124999
 31
0.0
 73
     3
  0
CIRCLE
  5
1B0
  8
DATA
  6
CONTINUOUS
 62
     7
 10
-494.0435027087338
 20
-849.5
 30
0.0
 40
10.00000000000003
  0
LINE
  5
1B1
  8
DATA
  6
CONTINUOUS
 62
     7
 10
-491.04350270873289
 20
-849.50000000000023
 30
0.0
 11
-492.5435027087338
 21
-852.09807621135405
 31
0.0
  0
LINE
  5
1B2
  8
DATA
  6
CONTINUOUS
 62
     7
 10
-492.54350270873289
 20
-846.90192378864629
 30
0.0
 11
-491.04350270873289
 21
-849.50000000000023
 31
0.0
  0
LINE
  5
1B3
  8
DATA
  6
CONTINUOUS
 62
     7
 10
-495.54350270873391
 20
-846.90192378864595
 30
0.0
 11
-492.54350270873289
 21
-846.90192378864629
 31
0.0
  0
LINE
  5
1B4
  8
DATA
  6
CONTINUOUS
 62
     7
 10
-497.04350270873471
 20
-849.49999999999955
 30
0.0
 11
-495.54350270873391
 21
-846.90192378864595
 31
0.0
  0
LINE
  5
1B5
  8
DATA
  6
CONTINUOUS
 62
     7
 10
-495.54350270873471
 20
-852.0980762113536
 30
0.0
 11
-497.04350270873471
 21
-849.49999999999955
 31
0.0
  0
LINE
  5
1B6
  8
DATA
  6
CONTINUOUS
 62
     7
 10
-492.5435027087338
 20
-852.09807621135405
 30
0.0
 11
-495.54350270873471
 21
-852.0980762113536
 31
0.0
  0
CIRCLE
  5
1B7
  8
DATA
  6
CONTINUOUS
 62
     7
 10
-494.0435027087338
 20
-454.49999999999989
 30
0.0
 40
10.00000000000003
  0
LINE
  5
1B8
  8
DATA
  6
CONTINUOUS
 62
     7
 10
-491.04350270873289
 20
-454.4999999999996
 30
0.0
 11
-492.5435027087338
 21
-451.90192378864589
 31
0.0
  0
LINE
  5
1B9
  8
DATA
  6
CONTINUOUS
 62
     7
 10
-492.54350270873289
 20
-457.0980762113536
 30
0.0
 11
-491.04350270873289
 21
-454.4999999999996
 31
0.0
  0
LINE
  5
1BA
  8
DATA
  6
CONTINUOUS
 62
     7
 10
-495.54350270873391
 20
-457.098076211354
 30
0.0
 11
-492.54350270873289
 21
-457.0980762113536
 31
0.0
  0
LINE
  5
1BB
  8
DATA
  6
CONTINUOUS
 62
     7
 10
-497.04350270873471
 20
-454.50000000000051
 30
0.0
 11
-495.54350270873391
 21
-457.098076211354
 31
0.0
  0
LINE
  5
1BC
  8
DATA
  6
CONTINUOUS
 62
     7
 10
-495.54350270873471
 20
-451.90192378864629
 30
0.0
 11
-497.04350270873471
 21
-454.50000000000051
 31
0.0
  0
LINE
  5
1BD
  8
DATA
  6
CONTINUOUS
 62
     7
 10
-492.5435027087338
 20
-451.90192378864589
 30
0.0
 11
-495.54350270873471
 21
-451.90192378864629
 31
0.0
  0
CIRCLE
  5
1BE
  8
DATA
  6
CONTINUOUS
 62
     7
 10
0.0
 20
-858.0
 30
0.0
 40
10.00000000000003
  0
LINE
  5
1BF
  8
DATA
  6
CONTINUOUS
 62
     7
 10
3.0000000000009091
 20
-857.99999999999955
 30
0.0
 11
1.5
 21
-855.40192378864595
 31
0.0
  0
LINE
  5
1C0
  8
DATA
  6
CONTINUOUS
 62
     7
 10
1.5000000000009091
 20
-860.59807621135371
 30
0.0
 11
3.0000000000009091
 21
-857.99999999999955
 31
0.0
  0
LINE
  5
1C1
  8
DATA
  6
CONTINUOUS
 62
     7
 10
-1.5
 20
-860.59807621135394
 30
0.0
 11
1.5000000000009091
 21
-860.59807621135371
 31
0.0
  0
LINE
  5
1C2
  8
DATA
  6
CONTINUOUS
 62
     7
 10
-3.0000000000009091
 20
-858.00000000000034
 30
0.0
 11
-1.5
 21
-860.59807621135394
 31
0.0
  0
LINE
  5
1C3
  8
DATA
  6
CONTINUOUS
 62
     7
 10
-1.5000000000009091
 20
-855.4019237886464
 30
0.0
 11
-3.0000000000009091
 21
-858.00000000000034
 31
0.0
  0
LINE
  5
1C4
  8
DATA
  6
CONTINUOUS
 62
     7
 10
1.5
 20
-855.40192378864595
 30
0.0
 11
-1.5000000000009091
 21
-855.4019237886464
 31
0.0
  0
TEXT
  5
1C5
  8
DATA
 62
     7
 10
22.5233479805703
 20
-599.21750785744985
 30
0.0
 40
2.8504720052083332
  1
CH1/MIX/CH2
 41
0.7
 72
     1
 11
32.499999998799467
 21
-597.79227185484558
 31
0.0
 73
     2
  0
TEXT
  5
1C6
  8
DATA
 62
     7
 10
22.5233479805703
 20
-616.21750785744985
 30
0.0
 40
2.8504720052083332
  1
CH1/MIX/CH2
 41
0.7
 72
     1
 11
32.499999998799467
 21
-614.79227185484569
 31
0.0
 73
     2
  0
CIRCLE
  5
1C7
  8
DATA
  6
CONTINUOUS
 62
     7
 10
-0.0000000000491127
 20
-597.00000000007776
 30
0.0
 40
6.4999999999993809
  0
LINE
  5
1C8
  8
DATA
  6
CONTINUOUS
 62
     7
 10
3.8206041398525481
 20
-602.25861046351577
 30
0.0
 11
5.8778525228753997
 21
-605.09016994382785
 31
0.0
  0
LINE
  5
1C9
  8
DATA
  6
CONTINUOUS
 62
     7
 10
6.181867355870053
 20
-594.99138953664044
 30
0.0
 11
9.5105651629019121
 21
-593.90983005632836
 31
0.0
  0
LINE
  5
1CA
  8
DATA
  6
CONTINUOUS
 62
     7
 10
-0.0000000000491127
 20
-590.50000000007788
 30
0.0
 11
-0.0000000000491127
 21
-587.00000000007788
 31
0.0
  0
LINE
  5
1CB
  8
DATA
  6
CONTINUOUS
 62
     7
 10
-6.1818673559682793
 20
-594.99138953664044
 30
0.0
 11
-9.5105651630001358
 21
-593.90983005632836
 31
0.0
  0
LINE
  5
1CC
  8
DATA
  6
CONTINUOUS
 62
     7
 10
-3.8206041394132622
 20
-602.25861046277294
 30
0.0
 11
-5.877852522973626
 21
-605.09016994382694
 31
0.0
  0
LINE
  5
1CD
  8
DATA
  6
CONTINUOUS
 62
     7
 10
-2.5047285800446839
 20
-601.29811394161845
 30
0.0
 11
-3.1099361567958108
 21
-602.13111070839045
 31
0.0
  0
LINE
  5
1CE
  8
DATA
  6
CONTINUOUS
 62
     7
 10
-0.4045084971876349
 20
-596.70610737385402
 30
0.0
 11
-0.4341976815139789
 21
-596.74697103039375
 31
0.0
  0
LINE
  5
1CF
  8
DATA
  6
CONTINUOUS
 62
     7
 10
-3.3137455744199542
 20
-600.7103286893265
 30
0.0
 11
-3.9189531511701712
 21
-601.5433254560977
 31
0.0
  0
LINE
  5
1D0
  8
DATA
  6
CONTINUOUS
 62
     7
 10
-6.4012503946287316
 20
-595.87128684524282
 30
0.0
 11
-7.8784620241467547
 21
-595.61081457874241
 31
0.0
  0
LINE
  5
1D1
  8
DATA
  6
CONTINUOUS
 62
     7
 10
-6.4960403756731457
 20
-596.77315327151166
 30
0.0
 11
-7.9951266162015591
 21
-596.72080402645793
 31
0.0
  0
LINE
  5
1D2
  8
DATA
  6
CONTINUOUS
 62
     7
 10
-6.4643923199437259
 20
-597.67943501131765
 30
0.0
 11
-7.9561751629953497
 21
-597.83622770621889
 31
0.0
  0
LINE
  5
1D3
  8
DATA
  6
CONTINUOUS
 62
     7
 10
-6.306922220843262
 20
-598.57249232147547
 30
0.0
 11
-7.762365810256596
 21
-598.93537516487504
 31
0.0
  0
LINE
  5
1D4
  8
DATA
  6
CONTINUOUS
 62
     7
 10
-6.0266950547338629
 20
-599.43494285728161
 30
0.0
 11
-7.4174708365826518
 21
-599.996852747405
 31
0.0
  0
LINE
  5
1D5
  8
DATA
  6
CONTINUOUS
 62
     7
 10
-5.629165124647443
 20
-600.25000000007753
 30
0.0
 11
-6.9282032303244714
 21
-601.00000000007765
 31
0.0
  0
LINE
  5
1D6
  8
DATA
  6
CONTINUOUS
 62
     7
 10
-5.1220698984925539
 20
-601.00179958969431
 30
0.0
 11
-6.3040860289020202
 21
-601.92529180268286
 31
0.0
  0
LINE
  5
1D7
  8
DATA
  6
CONTINUOUS
 62
     7
 10
-4.5152794080331651
 20
-601.67570870227905
 30
0.0
 11
-5.5572669637203926
 21
-602.75471840278692
 31
0.0
  0
LINE
  5
1D8
  8
DATA
  6
CONTINUOUS
 62
     7
 10
4.515279407934031
 20
-601.6757087022786
 30
0.0
 11
5.5572669636230794
 21
-602.75471840278726
 31
0.0
  0
LINE
  5
1D9
  8
DATA
  6
CONTINUOUS
 62
     7
 10
5.1220698983943294
 20
-601.0017995896942
 30
0.0
 11
6.3040860288047043
 21
-601.92529180268275
 31
0.0
  0
LINE
  5
1DA
  8
DATA
  6
CONTINUOUS
 62
     7
 10
5.6291651245501271
 20
-600.25000000007833
 30
0.0
 11
6.9282032302271537
 21
-601.00000000007776
 31
0.0
  0
LINE
  5
1DB
  8
DATA
  6
CONTINUOUS
 62
     7
 10
6.0266950546356384
 20
-599.4349428572815
 30
0.0
 11
7.4174708364862436
 21
-599.99685274740523
 31
0.0
  0
LINE
  5
1DC
  8
DATA
  6
CONTINUOUS
 62
     7
 10
6.3069222207450357
 20
-598.57249232147615
 30
0.0
 11
7.7623658101583706
 21
-598.93537516487515
 31
0.0
  0
LINE
  5
1DD
  8
DATA
  6
CONTINUOUS
 62
     7
 10
6.464392319844591
 20
-597.67943501131788
 30
0.0
 11
7.9561751628971251
 21
-597.83622770621878
 31
0.0
  0
LINE
  5
1DE
  8
DATA
  6
CONTINUOUS
 62
     7
 10
6.4960403755749212
 20
-596.77315327151121
 30
0.0
 11
7.995126616104244
 21
-596.72080402645759
 31
0.0
  0
LINE
  5
1DF
  8
DATA
  6
CONTINUOUS
 62
     7
 10
6.401250394530507
 20
-595.87128684524282
 30
0.0
 11
7.8784620240476197
 21
-595.61081457874252
 31
0.0
  0
LINE
  5
1E0
  8
DATA
  6
CONTINUOUS
 62
     7
 10
5.8421613008958948
 20
-594.15058754594895
 30
0.0
 11
7.1903523703440442
 21
-593.49303082576546
 31
0.0
  0
LINE
  5
1E1
  8
DATA
  6
CONTINUOUS
 62
     7
 10
5.3887442215591363
 20
-593.36524612751748
 30
0.0
 11
6.632300580390619
 21
-592.52645677231214
 31
0.0
  0
LINE
  5
1E2
  8
DATA
  6
CONTINUOUS
 62
     7
 10
4.830441365555088
 20
-592.65065105874532
 30
0.0
 11
5.9451586037703228
 21
-591.64695514920686
 31
0.0
  0
LINE
  5
1E3
  8
DATA
  6
CONTINUOUS
 62
     7
 10
4.1781194629138563
 20
-592.02071111980467
 30
0.0
 11
5.1423008774436312
 21
-590.87164445512565
 31
0.0
  0
LINE
  5
1E4
  8
DATA
  6
CONTINUOUS
 62
     7
 10
3.4444752174676969
 20
-591.487687375061
 30
0.0
 11
4.2393541138162609
 21
-590.21561523082676
 31
0.0
  0
LINE
  5
1E5
  8
DATA
  6
CONTINUOUS
 62
     7
 10
2.6437881799438401
 20
-591.0619545254018
 30
0.0
 11
3.2538931445569679
 21
-589.69163633893697
 31
0.0
  0
LINE
  5
1E6
  8
DATA
  6
CONTINUOUS
 62
     7
 10
1.7916428127609829
 20
-590.75179897647877
 30
0.0
 11
2.2050988464870889
 21
-589.30990643257155
 31
0.0
  0
LINE
  5
1E7
  8
DATA
  6
CONTINUOUS
 62
     7
 10
0.9046251561912868
 20
-590.56325755325759
 30
0.0
 11
1.113384807631518
 21
-589.07785545014644
 31
0.0
  0
LINE
  5
1E8
  8
DATA
  6
CONTINUOUS
 62
     7
 10
-0.9046251562886029
 20
-590.56325755326316
 30
0.0
 11
-1.1133848077297439
 21
-589.07785545014553
 31
0.0
  0
LINE
  5
1E9
  8
DATA
  6
CONTINUOUS
 62
     7
 10
-1.7916428128601181
 20
-590.75179897647774
 30
0.0
 11
-2.2050988465853152
 21
-589.30990643257212
 31
0.0
  0
LINE
  5
1EA
  8
DATA
  6
CONTINUOUS
 62
     7
 10
-2.6437881800420651
 20
-591.06195452540044
 30
0.0
 11
-3.2538931446561041
 21
-589.69163633893754
 31
0.0
  0
LINE
  5
1EB
  8
DATA
  6
CONTINUOUS
 62
     7
 10
-3.4444752175641029
 20
-591.487687375061
 30
0.0
 11
-4.2393541139153958
 21
-590.21561523082585
 31
0.0
  0
LINE
  5
1EC
  8
DATA
  6
CONTINUOUS
 62
     7
 10
-4.1781194630111713
 20
-592.02071111980433
 30
0.0
 11
-5.1423008775418557
 21
-590.87164445512599
 31
0.0
  0
LINE
  5
1ED
  8
DATA
  6
CONTINUOUS
 62
     7
 10
-4.8304413656514953
 20
-592.65065105874532
 30
0.0
 11
-5.9451586038685491
 21
-591.64695514920686
 31
0.0
  0
LINE
  5
1EE
  8
DATA
  6
CONTINUOUS
 62
     7
 10
-5.3887442216573609
 20
-593.36524612751828
 30
0.0
 11
-6.6323005804897539
 21
-592.52645677231214
 31
0.0
  0
LINE
  5
1EF
  8
DATA
  6
CONTINUOUS
 62
     7
 10
-5.8421613009941211
 20
-594.15058754594895
 30
0.0
 11
-7.1903523704413601
 21
-593.4930308257658
 31
0.0
  0
ARC
  5
1F0
  8
DATA
  6
CONTINUOUS
 62
     7
 10
0.6271707795567636
 20
-591.03286862786831
 30
0.0
 40
0.4999999999990279
 50
351.61198453548019
 51
176.3880154644585
  0
ARC
  5
1F1
  8
DATA
  6
CONTINUOUS
 62
     7
 10
-0.0000000000527507
 20
-597.00000000008265
 30
0.0
 40
5.9999999999940652
 50
238.78019184717579
 51
229.21980815277161
  0
ARC
  5
1F2
  8
DATA
  6
CONTINUOUS
 62
     7
 10
0.0
 20
-597.0
 30
0.0
 40
5.0000000000922924
 50
239.73026269141289
 51
228.2608295228718
  0
ARC
  5
1F3
  8
DATA
  6
CONTINUOUS
 62
     7
 10
-1.4694631307775119
 20
-599.0225424860065
 30
0.0
 40
2.500000000008932
 50
245.5369590327596
 51
222.46304096722361
  0
ARC
  5
1F4
  8
DATA
  6
CONTINUOUS
 62
     7
 10
-2.440419858507084
 20
-591.51872725422174
 30
0.0
 40
0.5000000000004735
 50
21.61198453550028
 51
206.38801546442599
  0
ARC
  5
1F5
  8
DATA
  6
CONTINUOUS
 62
     7
 10
-4.854101966304369
 20
-593.4732884863231
 30
0.0
 40
0.4999999999997032
 50
51.61198453557666
 51
236.3880154644423
  0
ARC
  5
1F6
  8
DATA
  6
CONTINUOUS
 62
     7
 10
-5.9671313722665209
 20
-596.37282922047405
 30
0.0
 40
0.4999999999994741
 50
81.611984535579936
 51
266.38801546441709
  0
ARC
  5
1F7
  8
DATA
  6
CONTINUOUS
 62
     7
 10
-5.4812727459129746
 20
-599.44041985853755
 30
0.0
 40
0.5000000000001125
 50
111.6119845355727
 51
296.38801546445478
  0
ARC
  5
1F8
  8
DATA
  6
CONTINUOUS
 62
     7
 10
-3.5267115138121881
 20
-601.85410196633495
 30
0.0
 40
0.4999999999997097
 50
144.00000000007719
 51
324.00000000003507
  0
ARC
  5
1F9
  8
DATA
  6
CONTINUOUS
 62
     7
 10
-0.6271707796604461
 20
-602.96713137229676
 30
0.0
 40
0.4999999999999111
 50
171.6119845355083
 51
356.38801546445188
  0
ARC
  5
1FA
  8
DATA
  6
CONTINUOUS
 62
     7
 10
2.440419858401583
 20
-602.48127274594322
 30
0.0
 40
0.5000000000006409
 50
201.6119845355488
 51
26.388015464390971
  0
ARC
  5
1FB
  8
DATA
  6
CONTINUOUS
 62
     7
 10
4.8541019661997771
 20
-600.5267115138422
 30
0.0
 40
0.4999999999998225
 50
231.6119845354545
 51
56.388015464435092
  0
ARC
  5
1FC
  8
DATA
  6
CONTINUOUS
 62
     7
 10
5.9671313721610204
 20
-597.62717077969126
 30
0.0
 40
0.5000000000000365
 50
261.61198453558939
 51
86.388015464419524
  0
ARC
  5
1FD
  8
DATA
  6
CONTINUOUS
 62
     7
 10
5.4812727458083828
 20
-594.55958014162798
 30
0.0
 40
0.4999999999996719
 50
291.61198453548059
 51
116.388015464449
  0
ARC
  5
1FE
  8
DATA
  6
CONTINUOUS
 62
     7
 10
3.5267115137066858
 20
-592.14589803383035
 30
0.0
 40
0.5000000000008581
 50
321.61198453559842
 51
146.3880154644385
  0
TEXT
  5
1FF
  8
DATA
 62
     7
 10
-53.061495738138227
 20
-641.57373850260433
 30
0.0
 40
2.8504720052083332
  1
+4
 41
0.7
 72
     1
 11
-51.398720401766703
 21
-640.14850250000018
 31
0.0
 73
     2
  0
TEXT
  5
200
  8
DATA
 62
     7
 10
-54.059160939961153
 20
-645.27790516927075
 30
0.0
 40
2.8504720052083332
  1
dBu
 41
0.7
 72
     1
 11
-51.398720401766703
 21
-643.85266916666671
 31
0.0
 73
     2
  0
TEXT
  5
201
  8
DATA
 62
     7
 10
4.29093481791885
 20
-613.07315266927083
 30
0.0
 40
2.8504720052083332
  1
Ground
 41
0.7
 72
     1
 11
9.9443709615820453
 21
-611.64791666666667
 31
0.0
 73
     2
  0
TEXT
  5
202
  8
DATA
 62
     7
 10
6.951375356113294
 20
-616.77731933593748
 30
0.0
 40
2.8504720052083332
  1
Lift
 41
0.7
 72
     1
 11
9.9443709615820453
 21
-615.35208333333333
 31
0.0
 73
     2
  0
TEXT
  5
203
  8
DATA
 62
     7
 10
-51.710152625110901
 20
-614.42523600260415
 30
0.0
 40
2.8504720052083332
  1
Mic/Line
 41
0.7
 72
     1
 11
-45.391606346899103
 21
-613.0
 31
0.0
 73
     2
  0
LINE
  5
204
  8
DATA
  6
CONTINUOUS
 62
     7
 10
16.399999999400279
 20
-663.00029291666669
 30
0.0
 11
16.399999999400279
 21
-617.20416666666665
 31
0.0
  0
LINE
  5
205
  8
DATA
  6
CONTINUOUS
 62
     7
 10
16.399999999400279
 20
-609.79583333333335
 30
0.0
 11
16.399999999400279
 21
-576.49999999999989
 31
0.0
  0
LINE
  5
206
  8
DATA
  6
CONTINUOUS
 62
     7
 10
0.0012795976335838
 20
-683.0
 30
0.0
 11
-14.99997952129706
 21
-683.0
 31
0.0
  0
LINE
  5
207
  8
DATA
  6
CONTINUOUS
 62
     7
 10
5.0012795976335829
 20
-673.00029291666658
 30
0.0
 11
5.0012795976335829
 21
-678.0
 31
0.0
  0
LINE
  5
208
  8
DATA
  6
CONTINUOUS
 62
     7
 10
10.00127959763358
 20
-668.00029291666669
 30
0.0
 11
11.399999999400279
 21
-668.00029291666669
 31
0.0
  0
LINE
  5
209
  8
DATA
  6
CONTINUOUS
 62
     7
 10
11.399999999400279
 20
-571.49999999999989
 30
0.0
 11
-6.4999999857000139
 21
-571.49999999999989
 31
0.0
  0
ARC
  5
20A
  8
DATA
  6
CONTINUOUS
 62
     7
 10
11.399999999400279
 20
-576.49999999999989
 30
0.0
 40
5.0
 50
0.0
 51
90.0
  0
ARC
  5
20B
  8
DATA
  6
CONTINUOUS
 62
     7
 10
11.399999999400279
 20
-663.00029291666669
 30
0.0
 40
5.0
 50
270.0
 51
0.0
  0
ARC
  5
20C
  8
DATA
  6
CONTINUOUS
 62
     7
 10
10.00127959763358
 20
-673.00029291666658
 30
0.0
 40
5.0
 50
90.0
 51
180.0
  0
ARC
  5
20D
  8
DATA
  6
CONTINUOUS
 62
     7
 10
0.0012795976335838
 20
-678.0
 30
0.0
 40
5.0
 50
270.0
 51
0.0
  0
LINE
  5
20E
  8
DATA
  6
CONTINUOUS
 62
     7
 10
-87.5
 20
-834.0
 30
0.0
 11
-87.5
 21
-470.0
 31
0.0
  0
LINE
  5
20F
  8
DATA
  6
CONTINUOUS
 62
     7
 10
-67.5
 20
-824.0
 30
0.0
 11
-67.5
 21
-480.0
 31
0.0
  0
LINE
  5
210
  8
DATA
  6
CONTINUOUS
 62
     7
 10
77.5
 20
-844.0
 30
0.0
 11
-77.5
 21
-844.0
 31
0.0
  0
LINE
  5
211
  8
DATA
  6
CONTINUOUS
 62
     7
 10
-67.5
 20
-824.0
 30
0.0
 11
67.5
 21
-824.0
 31
0.0
  0
LINE
  5
212
  8
DATA
  6
CONTINUOUS
 62
     7
 10
67.5
 20
-774.0
 30
0.0
 11
-67.5
 21
-774.0
 31
0.0
  0
LINE
  5
213
  8
DATA
  6
CONTINUOUS
 62
     7
 10
67.5
 20
-769.0
 30
0.0
 11
-67.5
 21
-769.0
 31
0.0
  0
LINE
  5
214
  8
DATA
  6
CONTINUOUS
 62
     7
 10
87.5
 20
-470.0
 30
0.0
 11
87.5
 21
-834.0
 31
0.0
  0
LINE
  5
215
  8
DATA
  6
CONTINUOUS
 62
     7
 10
67.5
 20
-480.0
 30
0.0
 11
67.5
 21
-824.0
 31
0.0
  0
LINE
  5
216
  8
DATA
  6
CONTINUOUS
 62
     7
 10
-77.5
 20
-460.0
 30
0.0
 11
77.5
 21
-460.0
 31
0.0
  0
LINE
  5
217
  8
DATA
  6
CONTINUOUS
 62
     7
 10
-67.5
 20
-480.0
 30
0.0
 11
67.5
 21
-480.0
 31
0.0
  0
ARC
  5
218
  8
DATA
  6
CONTINUOUS
 62
     7
 10
-77.5
 20
-834.0
 30
0.0
 40
10.0
 50
180.0
 51
270.0
  0
ARC
  5
219
  8
DATA
  6
CONTINUOUS
 62
     7
 10
77.5
 20
-834.0
 30
0.0
 40
10.0
 50
270.0
 51
0.0
  0
ARC
  5
21A
  8
DATA
  6
CONTINUOUS
 62
     7
 10
-77.5
 20
-470.0
 30
0.0
 40
10.0
 50
90.0
 51
180.0
  0
ARC
  5
21B
  8
DATA
  6
CONTINUOUS
 62
     7
 10
77.5
 20
-470.0
 30
0.0
 40
10.0
 50
0.0
 51
90.0
  0
CIRCLE
  5
21C
  8
DATA
  6
CONTINUOUS
 62
     7
 10
33.5
 20
-819.0
 30
0.0
 40
2.5000000000003229
  0
CIRCLE
  5
21D
  8
DATA
  6
CONTINUOUS
 62
     7
 10
-33.5
 20
-819.0
 30
0.0
 40
2.5000000000003229
  0
LINE
  5
21E
  8
DATA
  6
CONTINUOUS
 62
     7
 10
-35.0
 20
-819.0
 30
0.0
 11
-32.0
 21
-819.0
 31
0.0
  0
LINE
  5
21F
  8
DATA
  6
CONTINUOUS
 62
     7
 10
-33.579999999999927
 20
-820.5
 30
0.0
 11
-33.579999999999927
 21
-817.5
 31
0.0
  0
LINE
  5
220
  8
DATA
  6
CONTINUOUS
 62
     7
 10
35.0
 20
-819.0
 30
0.0
 11
32.0
 21
-819.0
 31
0.0
  0
LINE
  5
221
  8
DATA
  6
CONTINUOUS
 62
     7
 10
33.579999999999927
 20
-820.5
 30
0.0
 11
33.579999999999927
 21
-817.5
 31
0.0
  0
ARC
  5
222
  8
DATA
  6
CONTINUOUS
 62
     7
 10
-25.499999999963631
 20
-739.99999999994861
 30
0.0
 40
23.249999999937408
 50
60.356338108124589
 51
143.44380664840369
  0
ARC
  5
223
  8
DATA
  6
CONTINUOUS
 62
     7
 10
-25.499999999963631
 20
-739.99999999994861
 30
0.0
 40
23.249999999938169
 50
150.35633810836481
 51
233.44380664831971
  0
ARC
  5
224
  8
DATA
  6
CONTINUOUS
 62
     7
 10
-25.499999999963631
 20
-739.99999999994861
 30
0.0
 40
23.24999999993749
 50
240.3563381082742
 51
323.44380664809802
  0
ARC
  5
225
  8
DATA
  6
CONTINUOUS
 62
     7
 10
-25.499999999963631
 20
-739.99999999994861
 30
0.0
 40
23.249999999937032
 50
330.35633810803893
 51
53.443806648181422
  0
ARC
  5
226
  8
DATA
  6
CONTINUOUS
 62
     7
 10
-25.500000000029111
 20
-740.00000000006139
 30
0.0
 40
19.000000000067772
 50
68.200922830828603
 51
149.133232783691
  0
ARC
  5
227
  8
DATA
  6
CONTINUOUS
 62
     7
 10
-25.500000000029111
 20
-740.00000000006139
 30
0.0
 40
19.000000000066802
 50
158.2009228304685
 51
239.13323278374969
  0
ARC
  5
228
  8
DATA
  6
CONTINUOUS
 62
     7
 10
-25.500000000029111
 20
-740.00000000006139
 30
0.0
 40
19.000000000067349
 50
248.20092283053259
 51
329.13323278407648
  0
ARC
  5
229
  8
DATA
  6
CONTINUOUS
 62
     7
 10
-25.500000000029111
 20
-740.00000000006139
 30
0.0
 40
19.000000000067988
 50
338.20092283089531
 51
59.133232784015888
  0
ARC
  5
22A
  8
DATA
  6
CONTINUOUS
 62
     7
 10
-25.499999999998181
 20
-739.99999999998875
 30
0.0
 40
16.499999999988589
 50
75.407766102218673
 51
154.09772123936361
  0
ARC
  5
22B
  8
DATA
  6
CONTINUOUS
 62
     7
 10
-25.499999999998181
 20
-739.99999999998875
 30
0.0
 40
16.499999999988251
 50
165.40776610230151
 51
244.097721239371
  0
ARC
  5
22C
  8
DATA
  6
CONTINUOUS
 62
     7
 10
-25.499999999998181
 20
-739.99999999998875
 30
0.0
 40
16.49999999998823
 50
255.40776610230969
 51
334.09772123930389
  0
ARC
  5
22D
  8
DATA
  6
CONTINUOUS
 62
     7
 10
-25.499999999998181
 20
-739.99999999998875
 30
0.0
 40
16.49999999998883
 50
345.40776610223122
 51
64.097721239291559
  0
ARC
  5
22E
  8
DATA
  6
CONTINUOUS
 62
     7
 10
-25.5
 20
-740.00000000000102
 30
0.0
 40
11.75000000000086
 50
119.9999999999975
 51
171.92777458635189
  0
ARC
  5
22F
  8
DATA
  6
CONTINUOUS
 62
     7
 10
-25.5
 20
-740.00000000000102
 30
0.0
 40
11.750000000000099
 50
210.00000000000219
 51
261.9277745863443
  0
ARC
  5
230
  8
DATA
  6
CONTINUOUS
 62
     7
 10
-25.5
 20
-740.00000000000102
 30
0.0
 40
11.75000000000122
 50
300.00000000000171
 51
351.92777458635459
  0
ARC
  5
231
  8
DATA
  6
CONTINUOUS
 62
     7
 10
-25.5
 20
-740.00000000000102
 30
0.0
 40
11.750000000001741
 50
29.999999999998298
 51
81.927774586357813
  0
LINE
  5
232
  8
DATA
  6
CONTINUOUS
 62
     7
 10
-35.675798494467017
 20
-745.875
 30
0.0
 11
-41.467764913561041
 21
-735.84301988639697
 31
0.0
  0
LINE
  5
233
  8
DATA
  6
CONTINUOUS
 62
     7
 10
-43.141344355331967
 20
-732.94429526274678
 30
0.0
 11
-45.706999818336953
 21
-728.50044964610584
 31
0.0
  0
LINE
  5
234
  8
DATA
  6
CONTINUOUS
 62
     7
 10
-37.13357917155372
 20
-738.35004980099529
 30
0.0
 11
-40.342416695970321
 21
-732.79218017547032
 31
0.0
  0
LINE
  5
235
  8
DATA
  6
CONTINUOUS
 62
     7
 10
-41.808889900442402
 20
-730.25217407738717
 30
0.0
 11
-44.17609948885638
 21
-726.15204679808994
 31
0.0
  0
LINE
  5
236
  8
DATA
  6
CONTINUOUS
 62
     7
 10
-31.375
 20
-729.8242015055331
 30
0.0
 11
-21.343019886383448
 21
-724.03223508643146
 31
0.0
  0
LINE
  5
237
  8
DATA
  6
CONTINUOUS
 62
     7
 10
-18.444295262825111
 20
-722.35865564471294
 30
0.0
 11
-14.000449646106061
 21
-719.7930001816635
 31
0.0
  0
LINE
  5
238
  8
DATA
  6
CONTINUOUS
 62
     7
 10
-23.850049800993471
 20
-728.36642082844639
 30
0.0
 11
-18.292180175460999
 21
-725.15758330402423
 31
0.0
  0
LINE
  5
239
  8
DATA
  6
CONTINUOUS
 62
     7
 10
-15.7521740774464
 20
-723.69111009959261
 30
0.0
 11
-11.65204679808812
 21
-721.32390051114351
 31
0.0
  0
LINE
  5
23A
  8
DATA
  6
CONTINUOUS
 62
     7
 10
-15.324201505532979
 20
-734.125
 30
0.0
 11
-9.5322350864407781
 21
-744.15698011360109
 31
0.0
  0
LINE
  5
23B
  8
DATA
  6
CONTINUOUS
 62
     7
 10
-7.8586556446734894
 20
-747.05570473724504
 30
0.0
 11
-5.293000181663956
 21
-751.49955035389394
 31
0.0
  0
LINE
  5
23C
  8
DATA
  6
CONTINUOUS
 62
     7
 10
-13.866420828444459
 20
-741.64995019900834
 30
0.0
 11
-10.65758330403332
 21
-747.20781982452274
 31
0.0
  0
LINE
  5
23D
  8
DATA
  6
CONTINUOUS
 62
     7
 10
-9.1911100995512243
 20
-749.74782592262545
 30
0.0
 11
-6.8239005111436191
 21
-753.84795320191085
 31
0.0
  0
LINE
  5
23E
  8
DATA
  6
CONTINUOUS
 62
     7
 10
-19.625
 20
-750.17579849446702
 30
0.0
 11
-29.656980113588361
 21
-755.96776491355195
 31
0.0
  0
LINE
  5
23F
  8
DATA
  6
CONTINUOUS
 62
     7
 10
-32.555704737324049
 20
-757.64134435537267
 30
0.0
 11
-36.999550353893937
 21
-760.2069998183365
 31
0.0
  0
LINE
  5
240
  8
DATA
  6
CONTINUOUS
 62
     7
 10
-27.149950199008352
 20
-751.63357917155486
 30
0.0
 11
-32.707819824514452
 21
-754.8424166959619
 31
0.0
  0
LINE
  5
241
  8
DATA
  6
CONTINUOUS
 62
     7
 10
-35.247825922686388
 20
-756.30888990048447
 30
0.0
 11
-39.347953201910968
 21
-758.67609948885661
 31
0.0
  0
LINE
  5
242
  8
DATA
  6
CONTINUOUS
 62
     7
 10
28.0
 20
-757.0
 30
0.0
 11
28.0
 21
-714.0
 31
0.0
  0
LINE
  5
243
  8
DATA
  6
CONTINUOUS
 62
     7
 10
30.0
 20
-734.0
 30
0.0
 11
30.0
 21
-716.0
 31
0.0
  0
LINE
  5
244
  8
DATA
  6
CONTINUOUS
 62
     7
 10
32.0
 20
-732.0
 30
0.0
 11
32.0
 21
-718.0
 31
0.0
  0
LINE
  5
245
  8
DATA
  6
CONTINUOUS
 62
     7
 10
56.0
 20
-757.0
 30
0.0
 11
28.0
 21
-757.0
 31
0.0
  0
LINE
  5
246
  8
DATA
  6
CONTINUOUS
 62
     7
 10
56.0
 20
-714.0
 30
0.0
 11
56.0
 21
-757.0
 31
0.0
  0
LINE
  5
247
  8
DATA
  6
CONTINUOUS
 62
     7
 10
54.0
 20
-716.0
 30
0.0
 11
54.0
 21
-734.0
 31
0.0
  0
LINE
  5
248
  8
DATA
  6
CONTINUOUS
 62
     7
 10
52.0
 20
-718.0
 30
0.0
 11
52.0
 21
-732.0
 31
0.0
  0
LINE
  5
249
  8
DATA
  6
CONTINUOUS
 62
     7
 10
28.0
 20
-714.0
 30
0.0
 11
56.0
 21
-714.0
 31
0.0
  0
LINE
  5
24A
  8
DATA
  6
CONTINUOUS
 62
     7
 10
30.0
 20
-716.0
 30
0.0
 11
54.0
 21
-716.0
 31
0.0
  0
LINE
  5
24B
  8
DATA
  6
CONTINUOUS
 62
     7
 10
30.0
 20
-747.0
 30
0.0
 11
30.0
 21
-736.0
 31
0.0
  0
LINE
  5
24C
  8
DATA
  6
CONTINUOUS
 62
     7
 10
35.0
 20
-752.0
 30
0.0
 11
30.0
 21
-747.0
 31
0.0
  0
LINE
  5
24D
  8
DATA
  6
CONTINUOUS
 62
     7
 10
49.0
 20
-752.0
 30
0.0
 11
35.0
 21
-752.0
 31
0.0
  0
LINE
  5
24E
  8
DATA
  6
CONTINUOUS
 62
     7
 10
54.0
 20
-747.0
 30
0.0
 11
49.0
 21
-752.0
 31
0.0
  0
LINE
  5
24F
  8
DATA
  6
CONTINUOUS
 62
     7
 10
54.0
 20
-736.0
 30
0.0
 11
54.0
 21
-747.0
 31
0.0
  0
LINE
  5
250
  8
DATA
  6
CONTINUOUS
 62
     7
 10
30.0
 20
-736.0
 30
0.0
 11
54.0
 21
-736.0
 31
0.0
  0
LINE
  5
251
  8
DATA
  6
CONTINUOUS
 62
     7
 10
30.0
 20
-734.0
 30
0.0
 11
54.0
 21
-734.0
 31
0.0
  0
ARC
  5
252
  8
DATA
  6
CONTINUOUS
 62
     7
 10
-46.724946331181862
 20
-787.65294519633335
 30
0.0
 40
0.2869048033359047
 50
307.64190249759048
 51
354.2670192896154
  0
LINE
  5
253
  8
DATA
  6
CONTINUOUS
 62
     7
 10
-54.094444558397292
 20
-783.13178983701823
 30
0.0
 11
-52.749430558398679
 21
-779.92699783701869
 31
0.0
  0
LINE
  5
254
  8
DATA
  6
CONTINUOUS
 62
     7
 10
-54.094444558397292
 20
-783.13178983701823
 30
0.0
 11
-55.422862558398258
 21
-779.92699783701869
 31
0.0
  0
LINE
  5
255
  8
DATA
  6
CONTINUOUS
 62
     7
 10
-43.898884558397178
 20
-788.92699783701869
 30
0.0
 11
-43.898884558397178
 21
-779.92699783701869
 31
0.0
  0
LINE
  5
256
  8
DATA
  6
CONTINUOUS
 62
     7
 10
-42.171946558397387
 20
-779.92699783701869
 30
0.0
 11
-42.171946558397387
 21
-787.54877383701785
 31
0.0
  0
LINE
  5
257
  8
DATA
  6
CONTINUOUS
 62
     7
 10
-52.118431558397781
 20
-779.92699783701869
 30
0.0
 11
-52.118431558397781
 21
-787.54877383701785
 31
0.0
  0
LINE
  5
258
  8
DATA
  6
CONTINUOUS
 62
     7
 10
-50.457913558397209
 20
-779.92699783701869
 30
0.0
 11
-50.457913558397209
 21
-787.54877383701785
 31
0.0
  0
LINE
  5
259
  8
DATA
  6
CONTINUOUS
 62
     7
 10
-49.594444558397292
 20
-779.92699783701869
 30
0.0
 11
-49.594444558397292
 21
-788.92699783701869
 31
0.0
  0
LINE
  5
25A
  8
DATA
  6
CONTINUOUS
 62
     7
 10
-48.083371558397637
 20
-780.77385283701744
 30
0.0
 11
-48.083371558397637
 21
-783.6631588370177
 31
0.0
  0
LINE
  5
25B
  8
DATA
  6
CONTINUOUS
 62
     7
 10
-44.84464955839757
 20
-783.49597483701871
 30
0.0
 11
-44.84464955839757
 21
-781.38825583701782
 31
0.0
  0
LINE
  5
25C
  8
DATA
  6
CONTINUOUS
 62
     7
 10
-46.439476558398383
 20
-781.17238183701829
 30
0.0
 11
-46.439476558398383
 21
-783.26463883701877
 31
0.0
  0
ARC
  5
25D
  8
DATA
  6
CONTINUOUS
 62
     7
 10
-52.451647558396857
 20
-786.61597783701757
 30
0.0
 40
2.3209680826510288
 50
264.69085622148839
 51
323.9911991542312
  0
LINE
  5
25E
  8
DATA
  6
CONTINUOUS
 62
     7
 10
-53.380420558396501
 20
-786.10411183701785
 30
0.0
 11
-53.380420558396501
 21
-787.54875583701778
 31
0.0
  0
LINE
  5
25F
  8
DATA
  6
CONTINUOUS
 62
     7
 10
-53.380420558396501
 20
-786.10411183701785
 30
0.0
 11
-54.874888558397288
 21
-786.10411183701785
 31
0.0
  0
LINE
  5
260
  8
DATA
  6
CONTINUOUS
 62
     7
 10
-54.874888558397288
 20
-786.10411183701785
 30
0.0
 11
-54.874888558397288
 21
-787.54875583701778
 31
0.0
  0
ARC
  5
261
  8
DATA
  6
CONTINUOUS
 62
     7
 10
-52.746262558397582
 20
-787.56823183701829
 30
0.0
 40
0.6281359436174772
 50
269.71184879276251
 51
1.775987005722413
  0
ARC
  5
262
  8
DATA
  6
CONTINUOUS
 62
     7
 10
-52.75258955839854
 20
-787.56823183701829
 30
0.0
 40
0.6281327317115519
 50
178.22401299438391
 51
270.28815120729058
  0
ARC
  5
263
  8
DATA
  6
CONTINUOUS
 62
     7
 10
-52.881154558397611
 20
-786.61597783701757
 30
0.0
 40
2.3209643132525319
 50
216.00880084574641
 51
275.30914377847211
  0
ARC
  5
264
  8
DATA
  6
CONTINUOUS
 62
     7
 10
-53.82599255839704
 20
-787.49787883701833
 30
0.0
 40
1.0501201873593851
 50
182.7769954499737
 51
207.35960666708209
  0
CIRCLE
  5
265
  8
DATA
  6
CONTINUOUS
 62
     7
 10
-54.003112558397333
 20
-784.37718283701815
 30
0.0
 40
0.8551619999998366
  0
LINE
  5
266
  8
DATA
  6
CONTINUOUS
 62
     7
 10
-39.398884558397192
 20
-788.92698883701735
 30
0.0
 11
-43.898884558397178
 21
-788.92698883701735
 31
0.0
  0
LINE
  5
267
  8
DATA
  6
CONTINUOUS
 62
     7
 10
-39.398884558397192
 20
-788.92698883701735
 30
0.0
 11
-39.398884558397192
 21
-786.10410283701935
 31
0.0
  0
LINE
  5
268
  8
DATA
  6
CONTINUOUS
 62
     7
 10
-39.398884558397192
 20
-786.10411183701785
 30
0.0
 11
-40.909948558397453
 21
-786.10411183701785
 31
0.0
  0
LINE
  5
269
  8
DATA
  6
CONTINUOUS
 62
     7
 10
-40.909948558397453
 20
-786.10411183701785
 30
0.0
 11
-40.909948558397453
 21
-787.54875583701778
 31
0.0
  0
LINE
  5
26A
  8
DATA
  6
CONTINUOUS
 62
     7
 10
-49.594444558397292
 20
-788.92698883701735
 30
0.0
 11
-46.439476558398383
 21
-788.92697983701783
 31
0.0
  0
LINE
  5
26B
  8
DATA
  6
CONTINUOUS
 62
     7
 10
-48.083380558397039
 20
-788.08012483701827
 30
0.0
 11
-47.269726558397458
 21
-788.08012483701827
 31
0.0
  0
LINE
  5
26C
  8
DATA
  6
CONTINUOUS
 62
     7
 10
-48.083371558397637
 20
-788.08012483701827
 30
0.0
 11
-48.083371558397637
 21
-784.52661883701785
 31
0.0
  0
LINE
  5
26D
  8
DATA
  6
CONTINUOUS
 62
     7
 10
-48.083380558397039
 20
-784.52661883701785
 30
0.0
 11
-47.269726558397458
 21
-784.52661883701785
 31
0.0
  0
LINE
  5
26E
  8
DATA
  6
CONTINUOUS
 62
     7
 10
-46.439476558398383
 20
-787.68160483701763
 30
0.0
 11
-46.439476558398383
 21
-784.92513883701872
 31
0.0
  0
ARC
  5
26F
  8
DATA
  6
CONTINUOUS
 62
     7
 10
-51.506809558397428
 20
-787.49787883701833
 30
0.0
 40
1.0501186930780719
 50
332.64039333284268
 51
357.22300455000988
  0
ARC
  5
270
  8
DATA
  6
CONTINUOUS
 62
     7
 10
-41.537788558396628
 20
-787.56823183701829
 30
0.0
 40
0.6281359436174772
 50
269.71184879276251
 51
1.775987005722413
  0
ARC
  5
271
  8
DATA
  6
CONTINUOUS
 62
     7
 10
-41.544106558398212
 20
-787.56823183701829
 30
0.0
 40
0.62813273171337
 50
178.22401299438889
 51
270.28815120728967
  0
LINE
  5
272
  8
DATA
  6
CONTINUOUS
 62
     7
 10
-44.845378558396988
 20
-787.48233583701892
 30
0.0
 11
-44.845378558396988
 21
-785.09119783701783
 31
0.0
  0
LINE
  5
273
  8
DATA
  6
CONTINUOUS
 62
     7
 10
-48.083380558397039
 20
-783.6631588370177
 30
0.0
 11
-47.269726558397458
 21
-783.6631588370177
 31
0.0
  0
ARC
  5
274
  8
DATA
  6
CONTINUOUS
 62
     7
 10
-46.55388455839784
 20
-787.21845583701815
 30
0.0
 40
1.7123502705459379
 50
273.83098160909748
 51
351.1351473098112
  0
LINE
  5
275
  8
DATA
  6
CONTINUOUS
 62
     7
 10
-52.118431558397781
 20
-779.92699783701869
 30
0.0
 11
-50.457913558397209
 21
-779.92699783701869
 31
0.0
  0
LINE
  5
276
  8
DATA
  6
CONTINUOUS
 62
     7
 10
-55.422862558398258
 20
-779.92699783701869
 30
0.0
 11
-52.749430558398679
 21
-779.92699783701869
 31
0.0
  0
LINE
  5
277
  8
DATA
  6
CONTINUOUS
 62
     7
 10
-43.898884558397178
 20
-779.92699783701869
 30
0.0
 11
-42.171946558397387
 21
-779.92699783701869
 31
0.0
  0
LINE
  5
278
  8
DATA
  6
CONTINUOUS
 62
     7
 10
-49.594444558397292
 20
-779.92699783701869
 30
0.0
 11
-46.422133443065817
 21
-779.92700512138458
 31
0.0
  0
LINE
  5
279
  8
DATA
  6
CONTINUOUS
 62
     7
 10
-48.083380558397039
 20
-780.77386183701776
 30
0.0
 11
-47.269726558397458
 21
-780.77386183701776
 31
0.0
  0
ARC
  5
27A
  8
DATA
  6
CONTINUOUS
 62
     7
 10
-46.536811558396941
 20
-781.63291183701892
 30
0.0
 40
1.709756939619852
 50
8.2269238590440068
 51
86.154126692181322
  0
ARC
  5
27B
  8
DATA
  6
CONTINUOUS
 62
     7
 10
-47.26011864205428
 20
-786.50180567248947
 30
0.0
 40
1.5783484080439929
 50
269.65121993760812
 51
282.82648280688181
  0
ARC
  5
27C
  8
DATA
  6
CONTINUOUS
 62
     7
 10
-47.08284513367834
 20
-787.16910011712321
 30
0.0
 40
0.8886941133236042
 50
281.23310362276038
 51
306.86200889409378
  0
ARC
  5
27D
  8
DATA
  6
CONTINUOUS
 62
     7
 10
-46.724946331181862
 20
-784.95379847770266
 30
0.0
 40
0.2869048033358559
 50
5.7329807103845116
 51
52.358097502395708
  0
ARC
  5
27E
  8
DATA
  6
CONTINUOUS
 62
     7
 10
-47.26011864205428
 20
-786.10493800154666
 30
0.0
 40
1.578348408043986
 50
77.173517193118244
 51
90.348780062391782
  0
ARC
  5
27F
  8
DATA
  6
CONTINUOUS
 62
     7
 10
-47.08284513367834
 20
-785.43764355691314
 30
0.0
 40
0.8886941133235801
 50
53.137991105901783
 51
78.76689637723824
  0
ARC
  5
280
  8
DATA
  6
CONTINUOUS
 62
     7
 10
-45.71629055839729
 20
-785.15006683701824
 30
0.0
 40
0.8728993475227257
 50
3.867006359847649
 51
88.361634567947803
  0
ARC
  5
281
  8
DATA
  6
CONTINUOUS
 62
     7
 10
-45.717091558397442
 20
-783.40413883701785
 30
0.0
 40
0.8737667459524635
 50
271.689282104634
 51
356.07828298259699
  0
ARC
  5
282
  8
DATA
  6
CONTINUOUS
 62
     7
 10
-46.724946331181862
 20
-783.23597919633289
 30
0.0
 40
0.2869048033359047
 50
307.64190249759048
 51
354.26701928925399
  0
ARC
  5
283
  8
DATA
  6
CONTINUOUS
 62
     7
 10
-47.26011864205428
 20
-782.08483967248981
 30
0.0
 40
1.5783484080430841
 50
269.651219937608
 51
282.82648280688909
  0
ARC
  5
284
  8
DATA
  6
CONTINUOUS
 62
     7
 10
-47.08284513367834
 20
-782.75213411712252
 30
0.0
 40
0.8886941133253882
 50
281.23310362273747
 51
306.86200889415687
  0
ARC
  5
285
  8
DATA
  6
CONTINUOUS
 62
     7
 10
-46.724946331181862
 20
-781.20104147770246
 30
0.0
 40
0.2869048033358559
 50
5.7329807103845116
 51
52.358097502395708
  0
ARC
  5
286
  8
DATA
  6
CONTINUOUS
 62
     7
 10
-47.26011864205428
 20
-782.35218100154646
 30
0.0
 40
1.578348408043986
 50
77.173517193118244
 51
90.348780062391782
  0
ARC
  5
287
  8
DATA
  6
CONTINUOUS
 62
     7
 10
-47.08284513367834
 20
-781.68488655691294
 30
0.0
 40
0.8886941133235801
 50
53.137991105901783
 51
78.76689637723824
  0
POLYLINE
  5
288
  8
DATA
  6
CONTINUOUS
 62
     7
 66
     1
 10
0.0
 20
0.0
 30
0.0
 70
     1
  0
VERTEX
  5
645
  8
DATA
  6
CONTINUOUS
 62
     7
 10
-59.20000000000072
 20
-778.0
 30
0.0
  0
VERTEX
  5
646
  8
DATA
  6
CONTINUOUS
 62
     7
 10
-34.200000000000728
 20
-778.0
 30
0.0
  0
VERTEX
  5
647
  8
DATA
  6
CONTINUOUS
 62
     7
 10
-34.200000000000728
 20
-803.0
 30
0.0
  0
VERTEX
  5
648
  8
DATA
  6
CONTINUOUS
 62
     7
 10
-59.20000000000072
 20
-803.0
 30
0.0
  0
SEQEND
  5
649
  8
DATA
  6
CONTINUOUS
 62
     7
  0
TEXT
  5
28F
  8
DATA
 62
     7
 10
-36.76634542991696
 20
-667.57344558593752
 30
0.0
 40
2.8504720052083332
  1
-10
 41
0.7
 72
     1
 11
-34.604737492633973
 21
-666.14820958333326
 31
0.0
 73
     2
  0
TEXT
  5
290
  8
DATA
 62
     7
 10
-37.265178030828409
 20
-671.27761225260406
 30
0.0
 40
2.8504720052083332
  1
dBv
 41
0.7
 72
     1
 11
-34.604737492633973
 21
-669.85237625000002
 31
0.0
 73
     2
  0
LINE
  5
291
  8
DATA
  6
CONTINUOUS
 62
     7
 10
52.0
 20
-732.0
 30
0.0
 11
32.0
 21
-732.0
 31
0.0
  0
LINE
  5
292
  8
DATA
  6
CONTINUOUS
 62
     7
 10
32.0
 20
-718.0
 30
0.0
 11
52.0
 21
-718.0
 31
0.0
  0
LINE
  5
293
  8
DATA
  6
CONTINUOUS
 62
     7
 10
32.0
 20
-720.0
 30
0.0
 11
52.0
 21
-720.0
 31
0.0
  0
CIRCLE
  5
294
  8
DATA
  6
CONTINUOUS
 62
     7
 10
42.0
 20
-730.0
 30
0.0
 40
1.2499999999999081
  0
LINE
  5
295
  8
DATA
  6
CONTINUOUS
 62
     7
 10
42.0
 20
-723.54999999999984
 30
0.0
 11
42.0
 21
-721.04999999999984
 31
0.0
  0
CIRCLE
  5
296
  8
DATA
  6
CONTINUOUS
 62
     7
 10
42.0
 20
-709.99999999999955
 30
0.0
 40
2.7499999999998379
  0
LINE
  5
297
  8
DATA
  6
CONTINUOUS
 62
     7
 10
40.499999999999993
 20
-709.99999999999955
 30
0.0
 11
43.5
 21
-709.99999999999955
 31
0.0
  0
LINE
  5
298
  8
DATA
  6
CONTINUOUS
 62
     7
 10
42.0
 20
-711.49999999999955
 30
0.0
 11
42.0
 21
-708.49999999999955
 31
0.0
  0
CIRCLE
  5
299
  8
DATA
  6
CONTINUOUS
 62
     7
 10
42.0
 20
-761.00000000000011
 30
0.0
 40
2.7499999999998379
  0
LINE
  5
29A
  8
DATA
  6
CONTINUOUS
 62
     7
 10
40.499999999999993
 20
-761.00000000000011
 30
0.0
 11
43.5
 21
-761.00000000000011
 31
0.0
  0
LINE
  5
29B
  8
DATA
  6
CONTINUOUS
 62
     7
 10
42.0
 20
-759.50000000000011
 30
0.0
 11
42.0
 21
-762.5
 31
0.0
  0
CIRCLE
  5
29C
  8
DATA
  6
CONTINUOUS
 62
     7
 10
27.999999999248761
 20
-642.0
 30
0.0
 40
1.6499999998359269
  0
CIRCLE
  5
29D
  8
DATA
  6
CONTINUOUS
 62
     7
 10
36.99999999835017
 20
-642.0
 30
0.0
 40
1.6499999998341079
  0
CIRCLE
  5
29E
  8
DATA
  6
CONTINUOUS
 62
     7
 10
32.499999998799467
 20
-642.0
 30
0.0
 40
11.9999999988
  0
CIRCLE
  5
29F
  8
DATA
  6
CONTINUOUS
 62
     7
 10
41.99744083118275
 20
-653.99999999879981
 30
0.0
 40
2.5
  0
LINE
  5
2A0
  8
DATA
  6
CONTINUOUS
 62
     7
 10
40.494881664515553
 20
-653.99999999879981
 30
0.0
 11
43.49488166451556
 21
-653.99999999879981
 31
0.0
  0
LINE
  5
2A1
  8
DATA
  6
CONTINUOUS
 62
     7
 10
41.99744083118275
 20
-652.49882833213348
 30
0.0
 11
41.99744083118275
 21
-655.49882833213348
 31
0.0
  0
CIRCLE
  5
2A2
  8
DATA
  6
CONTINUOUS
 62
     7
 10
23.00255916641618
 20
-630.00000000119996
 30
0.0
 40
2.5
  0
LINE
  5
2A3
  8
DATA
  6
CONTINUOUS
 62
     7
 10
21.499999999748979
 20
-630.00000000119996
 30
0.0
 11
24.499999999748979
 21
-630.00000000119996
 31
0.0
  0
LINE
  5
2A4
  8
DATA
  6
CONTINUOUS
 62
     7
 10
23.00255916641618
 20
-628.49882833453319
 30
0.0
 11
23.00255916641618
 21
-631.49882833453307
 31
0.0
  0
CIRCLE
  5
2A5
  8
DATA
  6
CONTINUOUS
 62
     7
 10
32.499999998799467
 20
-642.0
 30
0.0
 40
9.7500000156815751
  0
CIRCLE
  5
2A6
  8
DATA
  6
CONTINUOUS
 62
     7
 10
32.499999998799467
 20
-638.0500000003949
 30
0.0
 40
1.6499999998341079
  0
CIRCLE
  5
2A7
  8
DATA
  6
CONTINUOUS
 62
     7
 10
0.0
 20
-642.0
 30
0.0
 40
7.899999852375986
  0
CIRCLE
  5
2A8
  8
DATA
  6
CONTINUOUS
 62
     7
 10
0.0
 20
-642.0
 30
0.0
 40
9.7499999990251833
  0
CIRCLE
  5
2A9
  8
DATA
  6
CONTINUOUS
 62
     7
 10
0.0
 20
-642.0
 30
0.0
 40
11.999999998800201
  0
LINE
  5
2AA
  8
DATA
  6
CONTINUOUS
 62
     7
 10
2.3999999997595292
 20
-634.47338057367915
 30
0.0
 11
2.3999999997595292
 21
-634.47338072779712
 31
0.0
  0
LINE
  5
2AB
  8
DATA
  6
CONTINUOUS
 62
     7
 10
-2.8499999997156911
 20
-634.63199500073688
 30
0.0
 11
-2.8499999997156911
 21
-634.6319951581728
 31
0.0
  0
ARC
  5
2AC
  8
DATA
  6
CONTINUOUS
 62
     7
 10
-4.4999999995507087
 20
-642.0
 30
0.0
 40
1.999999999800095
 50
32.089183874050867
 51
327.91081612594922
  0
ARC
  5
2AD
  8
DATA
  6
CONTINUOUS
 62
     7
 10
4.4999999995498001
 20
-642.0
 30
0.0
 40
1.999999999800095
 50
212.0891838740508
 51
147.91081612594911
  0
ARC
  5
2AE
  8
DATA
  6
CONTINUOUS
 62
     7
 10
0.0
 20
-645.94999999960555
 30
0.0
 40
1.99999999980077
 50
137.8522840898888
 51
42.147715910128611
  0
ARC
  5
2AF
  8
DATA
  6
CONTINUOUS
 62
     7
 10
-5.4447223327897509
 20
-636.5552780005446
 30
0.0
 40
0.7999999999207108
 50
56.612913999968789
 51
213.3870860000219
  0
ARC
  5
2B0
  8
DATA
  6
CONTINUOUS
 62
     7
 10
0.0
 20
-642.0
 30
0.0
 40
2.9999999999997442
 50
20.741916485081301
 51
159.25808351492489
  0
ARC
  5
2B1
  8
DATA
  6
CONTINUOUS
 62
     7
 10
0.0
 20
-642.0
 30
0.0
 40
3.0000000000005942
 50
200.74191648507511
 51
240.3778367991917
  0
ARC
  5
2B2
  8
DATA
  6
CONTINUOUS
 62
     7
 10
0.0
 20
-642.0
 30
0.0
 40
2.999999999999643
 50
299.6221632007933
 51
339.25808351491872
  0
CIRCLE
  5
2B3
  8
DATA
  6
CONTINUOUS
 62
     7
 10
9.499999999049578
 20
-653.99999999879981
 30
0.0
 40
2.5
  0
LINE
  5
2B4
  8
DATA
  6
CONTINUOUS
 62
     7
 10
7.9974408323832886
 20
-653.99999999879981
 30
0.0
 11
10.99744083238329
 21
-653.99999999879981
 31
0.0
  0
LINE
  5
2B5
  8
DATA
  6
CONTINUOUS
 62
     7
 10
9.499999999049578
 20
-652.49882833213348
 30
0.0
 11
9.499999999049578
 21
-655.49882833213348
 31
0.0
  0
CIRCLE
  5
2B6
  8
DATA
  6
CONTINUOUS
 62
     7
 10
-9.5025591657167752
 20
-629.99882833453319
 30
0.0
 40
2.5
  0
LINE
  5
2B7
  8
DATA
  6
CONTINUOUS
 62
     7
 10
-11.005118332383059
 20
-629.99882833453319
 30
0.0
 11
-8.0051183323830628
 21
-629.99882833453319
 31
0.0
  0
LINE
  5
2B8
  8
DATA
  6
CONTINUOUS
 62
     7
 10
-9.5025591657167752
 20
-628.49765666786686
 30
0.0
 11
-9.5025591657167752
 21
-631.49765666786686
 31
0.0
  0
LINE
  5
2B9
  8
DATA
  6
CONTINUOUS
 62
     7
 10
-2.3999999997604391
 20
-632.55000000094515
 30
0.0
 11
-2.3999999997604391
 21
-630.29626128234167
 31
0.0
  0
LINE
  5
2BA
  8
DATA
  6
CONTINUOUS
 62
     7
 10
2.3999999997595292
 20
-632.55000000094492
 30
0.0
 11
2.3999999997595292
 21
-630.29626128234167
 31
0.0
  0
CIRCLE
  5
2BB
  8
DATA
  6
CONTINUOUS
 62
     7
 10
-34.998720416666401
 20
-642.00058583333328
 30
0.0
 40
7.899999852375986
  0
CIRCLE
  5
2BC
  8
DATA
  6
CONTINUOUS
 62
     7
 10
-34.998720416666401
 20
-642.00058583333328
 30
0.0
 40
9.7499999990251833
  0
CIRCLE
  5
2BD
  8
DATA
  6
CONTINUOUS
 62
     7
 10
-34.998720416666401
 20
-642.00058583333328
 30
0.0
 40
11.999999998800201
  0
LINE
  5
2BE
  8
DATA
  6
CONTINUOUS
 62
     7
 10
-32.598720416906872
 20
-634.47396640701243
 30
0.0
 11
-32.598720416906872
 21
-634.47396656113051
 31
0.0
  0
LINE
  5
2BF
  8
DATA
  6
CONTINUOUS
 62
     7
 10
-37.848720416382093
 20
-634.63258083407027
 30
0.0
 11
-37.848720416382093
 21
-634.63258099150596
 31
0.0
  0
ARC
  5
2C0
  8
DATA
  6
CONTINUOUS
 62
     7
 10
-39.498720416217111
 20
-642.00058583333328
 30
0.0
 40
1.999999999800095
 50
32.089183874050867
 51
327.91081612594922
  0
ARC
  5
2C1
  8
DATA
  6
CONTINUOUS
 62
     7
 10
-30.498720417116601
 20
-642.00058583333328
 30
0.0
 40
1.999999999800095
 50
212.0891838740508
 51
147.91081612594911
  0
ARC
  5
2C2
  8
DATA
  6
CONTINUOUS
 62
     7
 10
-34.998720416666401
 20
-645.95058583293883
 30
0.0
 40
1.99999999980077
 50
137.8522840898888
 51
42.147715910128611
  0
ARC
  5
2C3
  8
DATA
  6
CONTINUOUS
 62
     7
 10
-40.443442749456139
 20
-636.55586383387799
 30
0.0
 40
0.7999999999207108
 50
56.612913999968789
 51
213.3870860000219
  0
ARC
  5
2C4
  8
DATA
  6
CONTINUOUS
 62
     7
 10
-34.998720416666401
 20
-642.00058583333328
 30
0.0
 40
2.9999999999997442
 50
20.741916485081301
 51
159.25808351492489
  0
ARC
  5
2C5
  8
DATA
  6
CONTINUOUS
 62
     7
 10
-34.998720416666401
 20
-642.00058583333328
 30
0.0
 40
3.0000000000005942
 50
200.74191648507511
 51
240.3778367991917
  0
ARC
  5
2C6
  8
DATA
  6
CONTINUOUS
 62
     7
 10
-34.998720416666401
 20
-642.00058583333328
 30
0.0
 40
2.999999999999643
 50
299.6221632007933
 51
339.25808351491872
  0
CIRCLE
  5
2C7
  8
DATA
  6
CONTINUOUS
 62
     7
 10
-25.498720417616831
 20
-654.0005858321332
 30
0.0
 40
2.5
  0
LINE
  5
2C8
  8
DATA
  6
CONTINUOUS
 62
     7
 10
-27.001279584283111
 20
-654.0005858321332
 30
0.0
 11
-24.001279584283111
 21
-654.0005858321332
 31
0.0
  0
LINE
  5
2C9
  8
DATA
  6
CONTINUOUS
 62
     7
 10
-25.498720417616831
 20
-652.49941416546687
 30
0.0
 11
-25.498720417616831
 21
-655.49941416546687
 31
0.0
  0
CIRCLE
  5
2CA
  8
DATA
  6
CONTINUOUS
 62
     7
 10
-44.501279582383177
 20
-629.99941416786658
 30
0.0
 40
2.5
  0
LINE
  5
2CB
  8
DATA
  6
CONTINUOUS
 62
     7
 10
-46.003838749049457
 20
-629.99941416786658
 30
0.0
 11
-43.00383874904945
 21
-629.99941416786658
 31
0.0
  0
LINE
  5
2CC
  8
DATA
  6
CONTINUOUS
 62
     7
 10
-44.501279582383177
 20
-628.49824250120025
 30
0.0
 11
-44.501279582383177
 21
-631.49824250120025
 31
0.0
  0
LINE
  5
2CD
  8
DATA
  6
CONTINUOUS
 62
     7
 10
-37.398720416426848
 20
-632.55058583427854
 30
0.0
 11
-37.398720416426848
 21
-630.29684711567518
 31
0.0
  0
LINE
  5
2CE
  8
DATA
  6
CONTINUOUS
 62
     7
 10
-32.598720416906872
 20
-632.55058583427842
 30
0.0
 11
-32.598720416906872
 21
-630.29684711567518
 31
0.0
  0
CIRCLE
  5
2CF
  8
DATA
  6
CONTINUOUS
 62
     7
 10
-9.99874088107026
 20
-668.00029291666669
 30
0.0
 40
1.75
  0
CIRCLE
  5
2D0
  8
DATA
  6
CONTINUOUS
 62
     7
 10
-9.99874088107026
 20
-668.00029291666669
 30
0.0
 40
3.0
  0
CIRCLE
  5
2D1
  8
DATA
  6
CONTINUOUS
 62
     7
 10
-9.99874088107026
 20
-668.00029291666669
 30
0.0
 40
3.9999999999998321
  0
CIRCLE
  5
2D2
  8
DATA
  6
CONTINUOUS
 62
     7
 10
-9.99874088107026
 20
-668.00029291666669
 30
0.0
 40
5.0000000000005027
  0
CIRCLE
  5
2D3
  8
DATA
  6
CONTINUOUS
 62
     7
 10
-24.998740881070269
 20
-668.00029291666669
 30
0.0
 40
1.75
  0
CIRCLE
  5
2D4
  8
DATA
  6
CONTINUOUS
 62
     7
 10
-24.998740881070269
 20
-668.00029291666669
 30
0.0
 40
3.0
  0
CIRCLE
  5
2D5
  8
DATA
  6
CONTINUOUS
 62
     7
 10
-24.998740881070269
 20
-668.00029291666669
 30
0.0
 40
3.9999999999998321
  0
CIRCLE
  5
2D6
  8
DATA
  6
CONTINUOUS
 62
     7
 10
-24.998740881070269
 20
-668.00029291666669
 30
0.0
 40
4.999999999999643
  0
CIRCLE
  5
2D7
  8
DATA
  6
CONTINUOUS
 62
     7
 10
-34.998720416666401
 20
-613.0
 30
0.0
 40
2.500000000000008
  0
CIRCLE
  5
2D8
  8
DATA
  6
CONTINUOUS
 62
     7
 10
0.0
 20
-613.0
 30
0.0
 40
2.500000000000008
  0
CIRCLE
  5
2D9
  8
DATA
  6
CONTINUOUS
 62
     7
 10
-34.998720416666401
 20
-583.0
 30
0.0
 40
1.5
  0
CIRCLE
  5
2DA
  8
DATA
  6
CONTINUOUS
 62
     7
 10
-17.499360208333201
 20
-583.0
 30
0.0
 40
1.5
  0
CIRCLE
  5
2DB
  8
DATA
  6
CONTINUOUS
 62
     7
 10
0.0
 20
-583.0
 30
0.0
 40
1.4999999999998459
  0
CIRCLE
  5
2DC
  8
DATA
  6
CONTINUOUS
 62
     7
 10
-21.5
 20
-613.0
 30
0.0
 40
1.5000000000003191
  0
CIRCLE
  5
2DD
  8
DATA
  6
CONTINUOUS
 62
     7
 10
-34.998720416666401
 20
-558.0
 30
0.0
 40
3.9999999999999978
  0
CIRCLE
  5
2DE
  8
DATA
  6
CONTINUOUS
 62
     7
 10
-34.998720416666401
 20
-545.0
 30
0.0
 40
2.0005858333331279
  0
LINE
  5
2DF
  8
DATA
  6
CONTINUOUS
 62
     7
 10
26.999999998799471
 20
-595.0
 30
0.0
 11
26.999999998799471
 21
-590.0
 31
0.0
  0
LINE
  5
2E0
  8
DATA
  6
CONTINUOUS
 62
     7
 10
37.999999998799467
 20
-595.0
 30
0.0
 11
26.999999998799471
 21
-595.0
 31
0.0
  0
LINE
  5
2E1
  8
DATA
  6
CONTINUOUS
 62
     7
 10
37.999999998799467
 20
-590.0
 30
0.0
 11
37.999999998799467
 21
-595.0
 31
0.0
  0
LINE
  5
2E2
  8
DATA
  6
CONTINUOUS
 62
     7
 10
26.999999998799471
 20
-590.0
 30
0.0
 11
37.999999998799467
 21
-590.0
 31
0.0
  0
LINE
  5
2E3
  8
DATA
  6
CONTINUOUS
 62
     7
 10
29.999999998799471
 20
-594.5
 30
0.0
 11
29.999999998799471
 21
-590.5
 31
0.0
  0
LINE
  5
2E4
  8
DATA
  6
CONTINUOUS
 62
     7
 10
34.999999998799467
 20
-594.5
 30
0.0
 11
29.999999998799471
 21
-594.5
 31
0.0
  0
LINE
  5
2E5
  8
DATA
  6
CONTINUOUS
 62
     7
 10
34.999999998799467
 20
-590.5
 30
0.0
 11
34.999999998799467
 21
-594.5
 31
0.0
  0
LINE
  5
2E6
  8
DATA
  6
CONTINUOUS
 62
     7
 10
29.999999998799471
 20
-590.5
 30
0.0
 11
34.999999998799467
 21
-590.5
 31
0.0
  0
LINE
  5
2E7
  8
DATA
  6
CONTINUOUS
 62
     7
 10
26.999999998799471
 20
-612.0
 30
0.0
 11
26.999999998799471
 21
-607.0
 31
0.0
  0
LINE
  5
2E8
  8
DATA
  6
CONTINUOUS
 62
     7
 10
37.999999998799467
 20
-612.0
 30
0.0
 11
26.999999998799471
 21
-612.0
 31
0.0
  0
LINE
  5
2E9
  8
DATA
  6
CONTINUOUS
 62
     7
 10
37.999999998799467
 20
-607.0
 30
0.0
 11
37.999999998799467
 21
-612.0
 31
0.0
  0
LINE
  5
2EA
  8
DATA
  6
CONTINUOUS
 62
     7
 10
26.999999998799471
 20
-607.0
 30
0.0
 11
37.999999998799467
 21
-607.0
 31
0.0
  0
LINE
  5
2EB
  8
DATA
  6
CONTINUOUS
 62
     7
 10
29.999999998799471
 20
-611.5
 30
0.0
 11
29.999999998799471
 21
-607.5
 31
0.0
  0
LINE
  5
2EC
  8
DATA
  6
CONTINUOUS
 62
     7
 10
34.999999998799467
 20
-611.5
 30
0.0
 11
29.999999998799471
 21
-611.5
 31
0.0
  0
LINE
  5
2ED
  8
DATA
  6
CONTINUOUS
 62
     7
 10
34.999999998799467
 20
-607.5
 30
0.0
 11
34.999999998799467
 21
-611.5
 31
0.0
  0
LINE
  5
2EE
  8
DATA
  6
CONTINUOUS
 62
     7
 10
29.999999998799471
 20
-607.5
 30
0.0
 11
34.999999998799467
 21
-607.5
 31
0.0
  0
CIRCLE
  5
2EF
  8
DATA
  6
CONTINUOUS
 62
     7
 10
44.5
 20
-558.0
 30
0.0
 40
3.9999999999999978
  0
CIRCLE
  5
2F0
  8
DATA
  6
CONTINUOUS
 62
     7
 10
44.5
 20
-545.0
 30
0.0
 40
2.0005858333331279
  0
TEXT
  5
2F1
  8
DATA
 62
     7
 10
-23.675382879135061
 20
-626.88963226682483
 30
0.0
 40
4.072102864583333
  1
INPUT
 41
0.7
 72
     1
 11
-17.499360201183659
 21
-624.8535808345332
 31
0.0
 73
     2
  0
LINE
  5
2F2
  8
DATA
  6
CONTINUOUS
 62
     7
 10
-51.398720401766703
 20
-663.00029291666669
 30
0.0
 11
-51.398720401766703
 21
-646.50058583333328
 31
0.0
  0
LINE
  5
2F3
  8
DATA
  6
CONTINUOUS
 62
     7
 10
-51.398720401766703
 20
-637.50058583333328
 30
0.0
 11
-51.398720401766703
 21
-617.20416666666665
 31
0.0
  0
LINE
  5
2F4
  8
DATA
  6
CONTINUOUS
 62
     7
 10
-51.398720401766703
 20
-609.79583333333335
 30
0.0
 11
-51.398720401766703
 21
-576.49999999999989
 31
0.0
  0
LINE
  5
2F5
  8
DATA
  6
CONTINUOUS
 62
     7
 10
-35.0
 20
-683.0
 30
0.0
 11
-19.998740881070258
 21
-683.0
 31
0.0
  0
LINE
  5
2F6
  8
DATA
  6
CONTINUOUS
 62
     7
 10
-40.0
 20
-673.00029291666658
 30
0.0
 11
-40.0
 21
-678.0
 31
0.0
  0
LINE
  5
2F7
  8
DATA
  6
CONTINUOUS
 62
     7
 10
-45.0
 20
-668.00029291666669
 30
0.0
 11
-46.398720401766703
 21
-668.00029291666669
 31
0.0
  0
TEXT
  5
2F8
  8
DATA
 62
     7
 10
27.274134655917521
 20
-626.88963226682483
 30
0.0
 40
4.072102864583333
  1
THRU
 41
0.7
 72
     1
 11
32.499999998799467
 21
-624.8535808345332
 31
0.0
 73
     2
  0
CIRCLE
  5
2F9
  8
DATA
  6
CONTINUOUS
 62
     7
 10
-17.496801034516459
 20
-660.5999999999998
 30
0.0
 40
2.5
  0
LINE
  5
2FA
  8
DATA
  6
CONTINUOUS
 62
     7
 10
-18.999360201183659
 20
-660.5999999999998
 30
0.0
 11
-15.999360201183659
 21
-660.5999999999998
 31
0.0
  0
LINE
  5
2FB
  8
DATA
  6
CONTINUOUS
 62
     7
 10
-17.496801034516459
 20
-659.09882833333347
 30
0.0
 11
-17.496801034516459
 21
-662.09882833333347
 31
0.0
  0
LINE
  5
2FC
  8
DATA
  6
CONTINUOUS
 62
     7
 10
-46.398720401766703
 20
-571.49999999999989
 30
0.0
 11
-28.498720416666401
 21
-571.49999999999989
 31
0.0
  0
ARC
  5
2FD
  8
DATA
  6
CONTINUOUS
 62
     7
 10
-46.398720401766703
 20
-576.49999999999989
 30
0.0
 40
5.0
 50
90.0
 51
180.0
  0
ARC
  5
2FE
  8
DATA
  6
CONTINUOUS
 62
     7
 10
-46.398720401766703
 20
-663.00029291666669
 30
0.0
 40
5.0
 50
180.0
 51
270.0
  0
ARC
  5
2FF
  8
DATA
  6
CONTINUOUS
 62
     7
 10
-45.0
 20
-673.00029291666658
 30
0.0
 40
5.0
 50
0.0
 51
90.0
  0
ARC
  5
300
  8
DATA
  6
CONTINUOUS
 62
     7
 10
-35.0
 20
-678.0
 30
0.0
 40
5.0
 50
180.0
 51
270.0
  0
TEXT
  5
301
  8
DATA
 62
     7
 10
-22.250146876530891
 20
-599.03605143229163
 30
0.0
 40
4.072102864583333
  1
GAIN
 41
0.7
 72
     1
 11
-17.499360201183659
 21
-597.0
 31
0.0
 73
     2
  0
TEXT
  5
302
  8
DATA
 62
     7
 10
-20.82491088107626
 20
-578.47315266927069
 30
0.0
 40
2.8504720052083332
  1
Limit
 41
0.7
 72
     1
 11
-17.499360208333201
 21
-577.04791666666665
 31
0.0
 73
     2
  0
TEXT
  5
303
  8
DATA
 62
     7
 10
-39.488213824869533
 20
-578.36065266927062
 30
0.0
 40
2.8504720052083332
  1
Signal
 41
0.7
 72
     1
 11
-34.998720416666401
 21
-576.93541666666647
 31
0.0
 73
     2
  0
TEXT
  5
304
  8
DATA
 62
     7
 10
-4.4894934082031241
 20
-578.36065266927085
 30
0.0
 40
2.8504720052083332
  1
Signal
 41
0.7
 72
     1
 11
0.0
 21
-576.9354166666667
 31
0.0
 73
     2
  0
TEXT
  5
305
  8
DATA
 62
     7
 10
48.628002230898062
 20
-641.57373850260433
 30
0.0
 40
2.8504720052083332
  1
+4
 41
0.7
 72
     1
 11
50.290777567269593
 21
-640.14850250000018
 31
0.0
 73
     2
  0
TEXT
  5
306
  8
DATA
 62
     7
 10
47.63033702907515
 20
-645.27790516927075
 30
0.0
 40
2.8504720052083332
  1
dBu
 41
0.7
 72
     1
 11
50.290777567269593
 21
-643.85266916666671
 31
0.0
 73
     2
  0
CIRCLE
  5
307
  8
DATA
  6
CONTINUOUS
 62
     7
 10
-34.998720416666401
 20
-597.0
 30
0.0
 40
6.4999999999993809
  0
LINE
  5
308
  8
DATA
  6
CONTINUOUS
 62
     7
 10
-31.17811627676474
 20
-602.25861046343812
 30
0.0
 11
-29.120867893741892
 21
-605.09016994374986
 31
0.0
  0
LINE
  5
309
  8
DATA
  6
CONTINUOUS
 62
     7
 10
-28.816853060747231
 20
-594.99138953656256
 30
0.0
 11
-25.48815525371538
 21
-593.90983005625048
 31
0.0
  0
LINE
  5
30A
  8
DATA
  6
CONTINUOUS
 62
     7
 10
-34.998720416666401
 20
-590.5
 30
0.0
 11
-34.998720416666401
 21
-587.0
 31
0.0
  0
LINE
  5
30B
  8
DATA
  6
CONTINUOUS
 62
     7
 10
-41.180587772585561
 20
-594.99138953656256
 30
0.0
 11
-44.509285579617433
 21
-593.90983005625048
 31
0.0
  0
LINE
  5
30C
  8
DATA
  6
CONTINUOUS
 62
     7
 10
-38.819324556030551
 20
-602.25861046269506
 30
0.0
 11
-40.876572939590922
 21
-605.09016994374895
 31
0.0
  0
LINE
  5
30D
  8
DATA
  6
CONTINUOUS
 62
     7
 10
-37.503448996661973
 20
-601.29811394154058
 30
0.0
 11
-38.1086565734131
 21
-602.13111070831258
 31
0.0
  0
LINE
  5
30E
  8
DATA
  6
CONTINUOUS
 62
     7
 10
-35.403228913804931
 20
-596.70610737377615
 30
0.0
 11
-35.432918098131282
 21
-596.74697103031565
 31
0.0
  0
LINE
  5
30F
  8
DATA
  6
CONTINUOUS
 62
     7
 10
-38.31246599103725
 20
-600.71032868924885
 30
0.0
 11
-38.91767356778746
 21
-601.54332545601994
 31
0.0
  0
LINE
  5
310
  8
DATA
  6
CONTINUOUS
 62
     7
 10
-41.399970811246007
 20
-595.87128684516495
 30
0.0
 11
-42.877182440764038
 21
-595.61081457866453
 31
0.0
  0
LINE
  5
311
  8
DATA
  6
CONTINUOUS
 62
     7
 10
-41.494760792290442
 20
-596.77315327143367
 30
0.0
 11
-42.993847032818849
 21
-596.72080402638005
 31
0.0
  0
LINE
  5
312
  8
DATA
  6
CONTINUOUS
 62
     7
 10
-41.463112736561023
 20
-597.67943501123966
 30
0.0
 11
-42.954895579612632
 21
-597.83622770614113
 31
0.0
  0
LINE
  5
313
  8
DATA
  6
CONTINUOUS
 62
     7
 10
-41.305642637460537
 20
-598.57249232139782
 30
0.0
 11
-42.761086226873879
 21
-598.93537516479716
 31
0.0
  0
LINE
  5
314
  8
DATA
  6
CONTINUOUS
 62
     7
 10
-41.025415471351138
 20
-599.43494285720362
 30
0.0
 11
-42.416191253199941
 21
-599.99685274732724
 31
0.0
  0
LINE
  5
315
  8
DATA
  6
CONTINUOUS
 62
     7
 10
-40.627885541264718
 20
-600.24999999999955
 30
0.0
 11
-41.926923646941759
 21
-600.99999999999977
 31
0.0
  0
LINE
  5
316
  8
DATA
  6
CONTINUOUS
 62
     7
 10
-40.120790315109844
 20
-601.00179958961644
 30
0.0
 11
-41.302806445519302
 21
-601.92529180260533
 31
0.0
  0
LINE
  5
317
  8
DATA
  6
CONTINUOUS
 62
     7
 10
-39.513999824650462
 20
-601.67570870220106
 30
0.0
 11
-40.555987380337683
 21
-602.75471840270893
 31
0.0
  0
LINE
  5
318
  8
DATA
  6
CONTINUOUS
 62
     7
 10
-30.483441008683251
 20
-601.67570870220072
 30
0.0
 11
-29.441453452994221
 21
-602.75471840270939
 31
0.0
  0
LINE
  5
319
  8
DATA
  6
CONTINUOUS
 62
     7
 10
-29.87665051822297
 20
-601.00179958961644
 30
0.0
 11
-28.694634387812581
 21
-601.92529180260487
 31
0.0
  0
LINE
  5
31A
  8
DATA
  6
CONTINUOUS
 62
     7
 10
-29.369555292067162
 20
-600.25000000000045
 30
0.0
 11
-28.070517186390131
 21
-601.0
 31
0.0
  0
LINE
  5
31B
  8
DATA
  6
CONTINUOUS
 62
     7
 10
-28.97202536198165
 20
-599.43494285720362
 30
0.0
 11
-27.58124958013105
 21
-599.99685274732735
 31
0.0
  0
LINE
  5
31C
  8
DATA
  6
CONTINUOUS
 62
     7
 10
-28.691798195872249
 20
-598.57249232139827
 30
0.0
 11
-27.236354606458921
 21
-598.93537516479716
 31
0.0
  0
LINE
  5
31D
  8
DATA
  6
CONTINUOUS
 62
     7
 10
-28.53432809677269
 20
-597.67943501124
 30
0.0
 11
-27.042545253720171
 21
-597.8362277061409
 31
0.0
  0
LINE
  5
31E
  8
DATA
  6
CONTINUOUS
 62
     7
 10
-28.502680041042371
 20
-596.7731532714331
 30
0.0
 11
-27.003593800513048
 21
-596.72080402638005
 31
0.0
  0
LINE
  5
31F
  8
DATA
  6
CONTINUOUS
 62
     7
 10
-28.597470022086789
 20
-595.87128684516472
 30
0.0
 11
-27.120258392569671
 21
-595.61081457866476
 31
0.0
  0
LINE
  5
320
  8
DATA
  6
CONTINUOUS
 62
     7
 10
-29.1565591157214
 20
-594.15058754587108
 30
0.0
 11
-27.808368046273252
 21
-593.49303082568747
 31
0.0
  0
LINE
  5
321
  8
DATA
  6
CONTINUOUS
 62
     7
 10
-29.609976195058149
 20
-593.36524612743949
 30
0.0
 11
-28.366419836226669
 21
-592.52645677223438
 31
0.0
  0
LINE
  5
322
  8
DATA
  6
CONTINUOUS
 62
     7
 10
-30.1682790510622
 20
-592.65065105866734
 30
0.0
 11
-29.053561812846969
 21
-591.6469551491291
 31
0.0
  0
LINE
  5
323
  8
DATA
  6
CONTINUOUS
 62
     7
 10
-30.82060095370343
 20
-592.02071111972691
 30
0.0
 11
-29.856419539173661
 21
-590.87164445504766
 31
0.0
  0
LINE
  5
324
  8
DATA
  6
CONTINUOUS
 62
     7
 10
-31.554245199149591
 20
-591.48768737498312
 30
0.0
 11
-30.75936630280103
 21
-590.21561523074888
 31
0.0
  0
LINE
  5
325
  8
DATA
  6
CONTINUOUS
 62
     7
 10
-32.354932236673449
 20
-591.06195452532381
 30
0.0
 11
-31.74482727206032
 21
-589.6916363388591
 31
0.0
  0
LINE
  5
326
  8
DATA
  6
CONTINUOUS
 62
     7
 10
-33.207077603856298
 20
-590.75179897640089
 30
0.0
 11
-32.793621570130199
 21
-589.30990643249368
 31
0.0
  0
LINE
  5
327
  8
DATA
  6
CONTINUOUS
 62
     7
 10
-34.094095260426002
 20
-590.56325755318005
 30
0.0
 11
-33.88533560898577
 21
-589.07785545006845
 31
0.0
  0
LINE
  5
328
  8
DATA
  6
CONTINUOUS
 62
     7
 10
-35.903345572905891
 20
-590.56325755318528
 30
0.0
 11
-36.112105224347033
 21
-589.07785545006755
 31
0.0
  0
LINE
  5
329
  8
DATA
  6
CONTINUOUS
 62
     7
 10
-36.790363229477407
 20
-590.75179897639987
 30
0.0
 11
-37.203819263202611
 21
-589.30990643249424
 31
0.0
  0
LINE
  5
32A
  8
DATA
  6
CONTINUOUS
 62
     7
 10
-37.642508596659361
 20
-591.06195452532245
 30
0.0
 11
-38.252613561273392
 21
-589.69163633885955
 31
0.0
  0
LINE
  5
32B
  8
DATA
  6
CONTINUOUS
 62
     7
 10
-38.443195634181393
 20
-591.48768737498312
 30
0.0
 11
-39.238074530532693
 21
-590.21561523074797
 31
0.0
  0
LINE
  5
32C
  8
DATA
  6
CONTINUOUS
 62
     7
 10
-39.17683987962846
 20
-592.02071111972646
 30
0.0
 11
-40.141021294159152
 21
-590.871644455048
 31
0.0
  0
LINE
  5
32D
  8
DATA
  6
CONTINUOUS
 62
     7
 10
-39.829161782268777
 20
-592.65065105866734
 30
0.0
 11
-40.943879020485838
 21
-591.6469551491291
 31
0.0
  0
LINE
  5
32E
  8
DATA
  6
CONTINUOUS
 62
     7
 10
-40.38746463827465
 20
-593.3652461274404
 30
0.0
 11
-41.631020997107029
 21
-592.52645677223438
 31
0.0
  0
LINE
  5
32F
  8
DATA
  6
CONTINUOUS
 62
     7
 10
-40.840881717611403
 20
-594.15058754587108
 30
0.0
 11
-42.189072787058649
 21
-593.49303082568804
 31
0.0
  0
ARC
  5
330
  8
DATA
  6
CONTINUOUS
 62
     7
 10
-34.371549637060532
 20
-591.03286862779055
 30
0.0
 40
0.4999999999990113
 50
351.61198453549321
 51
176.3880154644454
  0
ARC
  5
331
  8
DATA
  6
CONTINUOUS
 62
     7
 10
-34.998720416670039
 20
-597.00000000000466
 30
0.0
 40
5.9999999999940652
 50
238.78019184717579
 51
229.2198081527709
  0
ARC
  5
332
  8
DATA
  6
CONTINUOUS
 62
     7
 10
-34.998720416617289
 20
-596.99999999992212
 30
0.0
 40
5.0000000000922924
 50
239.73026269141289
 51
228.2608295228718
  0
ARC
  5
333
  8
DATA
  6
CONTINUOUS
 62
     7
 10
-36.468183547394801
 20
-599.02254248592862
 30
0.0
 40
2.500000000008932
 50
245.5369590327596
 51
222.46304096722551
  0
ARC
  5
334
  8
DATA
  6
CONTINUOUS
 62
     7
 10
-37.439140275124373
 20
-591.51872725414376
 30
0.0
 40
0.5000000000004735
 50
21.61198453550028
 51
206.3880154644377
  0
ARC
  5
335
  8
DATA
  6
CONTINUOUS
 62
     7
 10
-39.852822382921659
 20
-593.47328848624522
 30
0.0
 40
0.4999999999997032
 50
51.61198453557666
 51
236.38801546444961
  0
ARC
  5
336
  8
DATA
  6
CONTINUOUS
 62
     7
 10
-40.965851788883811
 20
-596.37282922039617
 30
0.0
 40
0.4999999999995867
 50
81.611984535581826
 51
266.38801546441709
  0
ARC
  5
337
  8
DATA
  6
CONTINUOUS
 62
     7
 10
-40.479993162530263
 20
-599.44041985845968
 30
0.0
 40
0.5000000000002182
 50
111.6119845355679
 51
296.38801546445478
  0
ARC
  5
338
  8
DATA
  6
CONTINUOUS
 62
     7
 10
-38.525431930429477
 20
-601.85410196625696
 30
0.0
 40
0.4999999999996429
 50
144.00000000008771
 51
324.00000000003507
  0
ARC
  5
339
  8
DATA
  6
CONTINUOUS
 62
     7
 10
-35.625891196277728
 20
-602.967131372219
 30
0.0
 40
0.4999999999999111
 50
171.6119845355083
 51
356.38801546445188
  0
ARC
  5
33A
  8
DATA
  6
CONTINUOUS
 62
     7
 10
-32.558300558215713
 20
-602.48127274586545
 30
0.0
 40
0.5000000000005573
 50
201.6119845355245
 51
26.38801546439095
  0
ARC
  5
33B
  8
DATA
  6
CONTINUOUS
 62
     7
 10
-30.144618450417511
 20
-600.5267115137641
 30
0.0
 40
0.4999999999999116
 50
231.6119845354626
 51
56.388015464435107
  0
ARC
  5
33C
  8
DATA
  6
CONTINUOUS
 62
     7
 10
-29.031589044456268
 20
-597.62717077961338
 30
0.0
 40
0.4999999999998116
 50
261.61198453558558
 51
86.388015464419524
  0
ARC
  5
33D
  8
DATA
  6
CONTINUOUS
 62
     7
 10
-29.51744767080891
 20
-594.55958014154999
 30
0.0
 40
0.4999999999998832
 50
291.61198453547092
 51
116.3880154644548
  0
ARC
  5
33E
  8
DATA
  6
CONTINUOUS
 62
     7
 10
-31.472008902910598
 20
-592.14589803375247
 30
0.0
 40
0.5000000000008581
 50
321.61198453559842
 51
146.38801546444941
  0
TEXT
  5
33F
  8
DATA
 62
     7
 10
17.867577038730019
 20
-605.98388910332369
 30
0.0
 40
4.072102864583333
  1
THRU SELECT
 41
0.7
 72
     1
 11
32.499999998799467
 21
-603.94783767103195
 31
0.0
 73
     2
  0
TEXT
  5
340
  8
DATA
 62
     7
 10
19.292813041334181
 20
-588.69369467992044
 30
0.0
 40
4.072102864583333
  1
SPK SELECT
 41
0.7
 72
     1
 11
32.499999998799467
 21
-586.6576432476287
 31
0.0
 73
     2
  0
TEXT
  5
341
  8
DATA
 62
     7
 10
-37.374113754340023
 20
-553.39021809895814
 30
0.0
 40
4.072102864583333
  1
EQ
 41
0.7
 72
     1
 11
-34.998720416666401
 21
-551.35416666666652
 31
0.0
 73
     2
  0
TEXT
  5
342
  8
DATA
 62
     7
 10
32.718049045138891
 20
-553.39021809895814
 30
0.0
 40
4.072102864583333
  1
FRONT LED
 41
0.7
 72
     1
 11
44.5
 21
-551.35416666666652
 31
0.0
 73
     2
  0
TEXT
  5
343
  8
DATA
 62
     7
 10
-51.953436143663367
 20
-564.65339474454254
 30
0.0
 40
2.8504720052083332
  1
NORMAL
 41
0.7
 72
     1
 11
-46.300000000000182
 21
-563.22815874193839
 31
0.0
 73
     2
  0
LINE
  5
344
  8
DATA
  6
CONTINUOUS
 62
     7
 10
-42.300000000000168
 20
-560.0
 30
0.0
 11
-50.300000000000182
 21
-560.0
 31
0.0
  0
LINE
  5
345
  8
DATA
  6
CONTINUOUS
 62
     7
 10
-48.800000000000182
 20
-560.0
 30
0.0
 11
-48.800000000000182
 21
-558.0
 31
0.0
  0
LINE
  5
346
  8
DATA
  6
CONTINUOUS
 62
     7
 10
-43.800000000000168
 20
-558.0
 30
0.0
 11
-43.800000000000168
 21
-560.0
 31
0.0
  0
LINE
  5
347
  8
DATA
  6
CONTINUOUS
 62
     7
 10
-48.800000000000182
 20
-558.0
 30
0.0
 11
-43.800000000000168
 21
-558.0
 31
0.0
  0
TEXT
  5
348
  8
DATA
 62
     7
 10
-28.353211775172898
 20
-564.65339474454254
 30
0.0
 40
2.8504720052083332
  1
BOOST
 41
0.7
 72
     1
 11
-23.697440833332621
 21
-563.22815874193839
 31
0.0
 73
     2
  0
LINE
  5
349
  8
DATA
  6
CONTINUOUS
 62
     7
 10
-19.697440833332621
 20
-560.0
 30
0.0
 11
-27.697440833332621
 21
-560.0
 31
0.0
  0
LINE
  5
34A
  8
DATA
  6
CONTINUOUS
 62
     7
 10
-26.197440833332621
 20
-560.0
 30
0.0
 11
-26.197440833332621
 21
-555.0
 31
0.0
  0
LINE
  5
34B
  8
DATA
  6
CONTINUOUS
 62
     7
 10
-21.197440833332621
 20
-555.0
 30
0.0
 11
-21.197440833332621
 21
-560.0
 31
0.0
  0
LINE
  5
34C
  8
DATA
  6
CONTINUOUS
 62
     7
 10
-26.197440833332621
 20
-557.0
 30
0.0
 11
-21.197440833332621
 21
-557.0
 31
0.0
  0
LINE
  5
34D
  8
DATA
  6
CONTINUOUS
 62
     7
 10
-26.197440833332621
 20
-555.0
 30
0.0
 11
-21.197440833332621
 21
-555.0
 31
0.0
  0
TEXT
  5
34E
  8
DATA
 62
     7
 10
31.535945080294692
 20
-564.65339474454254
 30
0.0
 40
2.8504720052083332
  1
ON
 41
0.7
 72
     1
 11
33.19872041666622
 21
-563.22815874193839
 31
0.0
 73
     2
  0
LINE
  5
34F
  8
DATA
  6
CONTINUOUS
 62
     7
 10
37.19872041666622
 20
-560.0
 30
0.0
 11
29.19872041666622
 21
-560.0
 31
0.0
  0
LINE
  5
350
  8
DATA
  6
CONTINUOUS
 62
     7
 10
30.69872041666622
 20
-560.0
 30
0.0
 11
30.69872041666622
 21
-558.0
 31
0.0
  0
LINE
  5
351
  8
DATA
  6
CONTINUOUS
 62
     7
 10
35.69872041666622
 20
-558.0
 30
0.0
 11
35.69872041666622
 21
-560.0
 31
0.0
  0
LINE
  5
352
  8
DATA
  6
CONTINUOUS
 62
     7
 10
30.69872041666622
 20
-558.0
 30
0.0
 11
35.69872041666622
 21
-558.0
 31
0.0
  0
TEXT
  5
353
  8
DATA
 62
     7
 10
53.140839045139337
 20
-564.65339474454254
 30
0.0
 40
2.8504720052083332
  1
OFF
 41
0.7
 72
     1
 11
55.80127958333378
 21
-563.22815874193839
 31
0.0
 73
     2
  0
LINE
  5
354
  8
DATA
  6
CONTINUOUS
 62
     7
 10
59.80127958333378
 20
-560.0
 30
0.0
 11
51.80127958333378
 21
-560.0
 31
0.0
  0
LINE
  5
355
  8
DATA
  6
CONTINUOUS
 62
     7
 10
53.30127958333378
 20
-560.0
 30
0.0
 11
53.30127958333378
 21
-555.0
 31
0.0
  0
LINE
  5
356
  8
DATA
  6
CONTINUOUS
 62
     7
 10
58.30127958333378
 20
-555.0
 30
0.0
 11
58.30127958333378
 21
-560.0
 31
0.0
  0
LINE
  5
357
  8
DATA
  6
CONTINUOUS
 62
     7
 10
53.30127958333378
 20
-557.0
 30
0.0
 11
58.30127958333378
 21
-557.0
 31
0.0
  0
LINE
  5
358
  8
DATA
  6
CONTINUOUS
 62
     7
 10
53.30127958333378
 20
-555.0
 30
0.0
 11
58.30127958333378
 21
-555.0
 31
0.0
  0
TEXT
  5
359
  8
DATA
 62
     7
 10
33.098111979166667
 20
-542.3896322656251
 30
0.0
 40
4.072102864583333
  1
PWR/STBY
 41
0.7
 72
     1
 11
44.5
 21
-540.35358083333347
 31
0.0
 73
     2
  0
CIRCLE
  5
35A
  8
DATA
  6
CONTINUOUS
 62
     7
 10
-33.5
 20
-837.0
 30
0.0
 40
4.7500000000002034
  0
LINE
  5
35B
  8
DATA
  6
CONTINUOUS
 62
     7
 10
-36.0
 20
-837.0
 30
0.0
 11
-31.0
 21
-837.0
 31
0.0
  0
LINE
  5
35C
  8
DATA
  6
CONTINUOUS
 62
     7
 10
-33.5
 20
-839.49999999999989
 30
0.0
 11
-33.5
 21
-834.5
 31
0.0
  0
CIRCLE
  5
35D
  8
DATA
  6
CONTINUOUS
 62
     7
 10
33.5
 20
-837.0
 30
0.0
 40
4.7500000000002034
  0
LINE
  5
35E
  8
DATA
  6
CONTINUOUS
 62
     7
 10
31.0
 20
-837.0
 30
0.0
 11
36.0
 21
-837.0
 31
0.0
  0
LINE
  5
35F
  8
DATA
  6
CONTINUOUS
 62
     7
 10
33.5
 20
-839.49999999999989
 30
0.0
 11
33.5
 21
-834.5
 31
0.0
  0
CIRCLE
  5
360
  8
DATA
  6
CONTINUOUS
 62
     7
 10
-33.5
 20
-467.0
 30
0.0
 40
4.7500000000002034
  0
LINE
  5
361
  8
DATA
  6
CONTINUOUS
 62
     7
 10
-36.0
 20
-467.0
 30
0.0
 11
-31.0
 21
-467.0
 31
0.0
  0
LINE
  5
362
  8
DATA
  6
CONTINUOUS
 62
     7
 10
-33.5
 20
-464.5
 30
0.0
 11
-33.5
 21
-469.5
 31
0.0
  0
CIRCLE
  5
363
  8
DATA
  6
CONTINUOUS
 62
     7
 10
33.5
 20
-467.0
 30
0.0
 40
4.7500000000002034
  0
LINE
  5
364
  8
DATA
  6
CONTINUOUS
 62
     7
 10
31.0
 20
-467.0
 30
0.0
 11
36.0
 21
-467.0
 31
0.0
  0
LINE
  5
365
  8
DATA
  6
CONTINUOUS
 62
     7
 10
33.5
 20
-464.5
 30
0.0
 11
33.5
 21
-469.5
 31
0.0
  0
CIRCLE
  5
366
  8
DATA
  6
CONTINUOUS
 62
     7
 10
-80.5
 20
-640.99999999999966
 30
0.0
 40
4.7500000000002034
  0
LINE
  5
367
  8
DATA
  6
CONTINUOUS
 62
     7
 10
-83.0
 20
-640.99999999999966
 30
0.0
 11
-78.0
 21
-640.99999999999966
 31
0.0
  0
LINE
  5
368
  8
DATA
  6
CONTINUOUS
 62
     7
 10
-80.5
 20
-643.49999999999966
 30
0.0
 11
-80.5
 21
-638.49999999999977
 31
0.0
  0
CIRCLE
  5
369
  8
DATA
  6
CONTINUOUS
 62
     7
 10
-80.5
 20
-533.0
 30
0.0
 40
4.7500000000002034
  0
LINE
  5
36A
  8
DATA
  6
CONTINUOUS
 62
     7
 10
-83.0
 20
-533.0
 30
0.0
 11
-78.0
 21
-533.0
 31
0.0
  0
LINE
  5
36B
  8
DATA
  6
CONTINUOUS
 62
     7
 10
-80.5
 20
-535.5
 30
0.0
 11
-80.5
 21
-530.49999999999989
 31
0.0
  0
CIRCLE
  5
36C
  8
DATA
  6
CONTINUOUS
 62
     7
 10
-80.5
 20
-749.0
 30
0.0
 40
4.7500000000002034
  0
LINE
  5
36D
  8
DATA
  6
CONTINUOUS
 62
     7
 10
-83.0
 20
-749.0
 30
0.0
 11
-78.0
 21
-749.0
 31
0.0
  0
LINE
  5
36E
  8
DATA
  6
CONTINUOUS
 62
     7
 10
-80.5
 20
-751.5
 30
0.0
 11
-80.5
 21
-746.49999999999989
 31
0.0
  0
CIRCLE
  5
36F
  8
DATA
  6
CONTINUOUS
 62
     7
 10
80.5
 20
-640.99999999999966
 30
0.0
 40
4.7500000000002034
  0
LINE
  5
370
  8
DATA
  6
CONTINUOUS
 62
     7
 10
83.0
 20
-640.99999999999966
 30
0.0
 11
78.0
 21
-640.99999999999966
 31
0.0
  0
LINE
  5
371
  8
DATA
  6
CONTINUOUS
 62
     7
 10
80.5
 20
-643.49999999999966
 30
0.0
 11
80.5
 21
-638.49999999999977
 31
0.0
  0
CIRCLE
  5
372
  8
DATA
  6
CONTINUOUS
 62
     7
 10
80.5
 20
-533.0
 30
0.0
 40
4.7500000000002034
  0
LINE
  5
373
  8
DATA
  6
CONTINUOUS
 62
     7
 10
83.0
 20
-533.0
 30
0.0
 11
78.0
 21
-533.0
 31
0.0
  0
LINE
  5
374
  8
DATA
  6
CONTINUOUS
 62
     7
 10
80.5
 20
-535.5
 30
0.0
 11
80.5
 21
-530.49999999999989
 31
0.0
  0
CIRCLE
  5
375
  8
DATA
  6
CONTINUOUS
 62
     7
 10
80.5
 20
-749.0
 30
0.0
 40
4.7500000000002034
  0
LINE
  5
376
  8
DATA
  6
CONTINUOUS
 62
     7
 10
83.0
 20
-749.0
 30
0.0
 11
78.0
 21
-749.0
 31
0.0
  0
LINE
  5
377
  8
DATA
  6
CONTINUOUS
 62
     7
 10
80.5
 20
-751.5
 30
0.0
 11
80.5
 21
-746.49999999999989
 31
0.0
  0
CIRCLE
  5
378
  8
DATA
  6
CONTINUOUS
 62
     7
 10
33.5
 20
-485.0
 30
0.0
 40
2.5000000000003229
  0
CIRCLE
  5
379
  8
DATA
  6
CONTINUOUS
 62
     7
 10
-33.5
 20
-485.0
 30
0.0
 40
2.5000000000003229
  0
LINE
  5
37A
  8
DATA
  6
CONTINUOUS
 62
     7
 10
-35.0
 20
-485.0
 30
0.0
 11
-32.0
 21
-485.0
 31
0.0
  0
LINE
  5
37B
  8
DATA
  6
CONTINUOUS
 62
     7
 10
-33.579999999999927
 20
-483.49999999999989
 30
0.0
 11
-33.579999999999927
 21
-486.5
 31
0.0
  0
LINE
  5
37C
  8
DATA
  6
CONTINUOUS
 62
     7
 10
35.0
 20
-485.0
 30
0.0
 11
32.0
 21
-485.0
 31
0.0
  0
LINE
  5
37D
  8
DATA
  6
CONTINUOUS
 62
     7
 10
33.579999999999927
 20
-483.49999999999989
 30
0.0
 11
33.579999999999927
 21
-486.5
 31
0.0
  0
CIRCLE
  5
37E
  8
DATA
  6
CONTINUOUS
 62
     7
 10
63.420000000000059
 20
-533.0
 30
0.0
 40
2.5000000000003229
  0
LINE
  5
37F
  8
DATA
  6
CONTINUOUS
 62
     7
 10
64.920000000000073
 20
-533.0
 30
0.0
 11
61.920000000000073
 21
-533.0
 31
0.0
  0
LINE
  5
380
  8
DATA
  6
CONTINUOUS
 62
     7
 10
63.5
 20
-531.5
 30
0.0
 11
63.5
 21
-534.49999999999989
 31
0.0
  0
CIRCLE
  5
381
  8
DATA
  6
CONTINUOUS
 62
     7
 10
63.420000000000059
 20
-640.99999999999966
 30
0.0
 40
2.5000000000003229
  0
LINE
  5
382
  8
DATA
  6
CONTINUOUS
 62
     7
 10
64.920000000000073
 20
-640.99999999999966
 30
0.0
 11
61.920000000000073
 21
-640.99999999999966
 31
0.0
  0
LINE
  5
383
  8
DATA
  6
CONTINUOUS
 62
     7
 10
63.5
 20
-639.49999999999966
 30
0.0
 11
63.5
 21
-642.49999999999977
 31
0.0
  0
CIRCLE
  5
384
  8
DATA
  6
CONTINUOUS
 62
     7
 10
63.420000000000059
 20
-749.0
 30
0.0
 40
2.5000000000003229
  0
LINE
  5
385
  8
DATA
  6
CONTINUOUS
 62
     7
 10
64.920000000000073
 20
-749.0
 30
0.0
 11
61.920000000000073
 21
-749.0
 31
0.0
  0
LINE
  5
386
  8
DATA
  6
CONTINUOUS
 62
     7
 10
63.5
 20
-747.5
 30
0.0
 11
63.5
 21
-750.49999999999989
 31
0.0
  0
CIRCLE
  5
387
  8
DATA
  6
CONTINUOUS
 62
     7
 10
-63.420000000000059
 20
-533.0
 30
0.0
 40
2.5000000000003229
  0
LINE
  5
388
  8
DATA
  6
CONTINUOUS
 62
     7
 10
-64.920000000000073
 20
-533.0
 30
0.0
 11
-61.920000000000073
 21
-533.0
 31
0.0
  0
LINE
  5
389
  8
DATA
  6
CONTINUOUS
 62
     7
 10
-63.5
 20
-531.5
 30
0.0
 11
-63.5
 21
-534.49999999999989
 31
0.0
  0
CIRCLE
  5
38A
  8
DATA
  6
CONTINUOUS
 62
     7
 10
-63.420000000000059
 20
-640.99999999999966
 30
0.0
 40
2.5000000000003229
  0
LINE
  5
38B
  8
DATA
  6
CONTINUOUS
 62
     7
 10
-64.920000000000073
 20
-640.99999999999966
 30
0.0
 11
-61.920000000000073
 21
-640.99999999999966
 31
0.0
  0
LINE
  5
38C
  8
DATA
  6
CONTINUOUS
 62
     7
 10
-63.5
 20
-639.49999999999966
 30
0.0
 11
-63.5
 21
-642.49999999999977
 31
0.0
  0
CIRCLE
  5
38D
  8
DATA
  6
CONTINUOUS
 62
     7
 10
-63.420000000000059
 20
-749.0
 30
0.0
 40
2.5000000000003229
  0
LINE
  5
38E
  8
DATA
  6
CONTINUOUS
 62
     7
 10
-64.920000000000073
 20
-749.0
 30
0.0
 11
-61.920000000000073
 21
-749.0
 31
0.0
  0
LINE
  5
38F
  8
DATA
  6
CONTINUOUS
 62
     7
 10
-63.5
 20
-747.5
 30
0.0
 11
-63.5
 21
-750.49999999999989
 31
0.0
  0
TEXT
  5
390
  8
DATA
 62
     7
 10
-23.69115804036495
 20
-535.41648763020828
 30
0.0
 40
12.21630859375
  1
PRX710
 41
0.7
 72
     1
 11
-1.6000000000003629
 21
-529.30833333333317
 31
0.0
 73
     2
  0
TEXT
  5
391
  8
DATA
 62
     7
 10
-35.477515146618209
 20
-571.10731675096963
 30
0.0
 40
2.9319140625000002
  1
CH1
 41
0.7
 72
     1
 11
-33.083118662243209
 21
-569.64135971971962
 31
0.0
 73
     2
  0
LINE
  5
392
  8
DATA
  6
CONTINUOUS
 62
     7
 10
-28.445188823347049
 20
-571.59271943943918
 30
0.0
 11
-29.645188823347048
 21
-567.78271943943923
 31
0.0
  0
LINE
  5
393
  8
DATA
  6
CONTINUOUS
 62
     7
 10
-37.721048501139371
 20
-571.59271943943918
 30
0.0
 11
-36.521048501139383
 21
-567.78271943943923
 31
0.0
  0
LINE
  5
394
  8
DATA
  6
CONTINUOUS
 62
     7
 10
-36.521048501139383
 20
-567.78271943943923
 30
0.0
 11
-29.645188823347048
 21
-567.78271943943923
 31
0.0
  0
TEXT
  5
395
  8
DATA
 62
     7
 10
-4.5985232718033071
 20
-571.01459731153045
 30
0.0
 40
2.9319140625000002
  1
CH2
 41
0.7
 72
     1
 11
-1.8620701468033081
 21
-569.54864028028055
 31
0.0
 73
     2
  0
LINE
  5
396
  8
DATA
  6
CONTINUOUS
 62
     7
 10
2.7758596920923111
 20
-571.49999999999989
 30
0.0
 11
1.575859692092308
 21
-567.69000000000005
 31
0.0
  0
LINE
  5
397
  8
DATA
  6
CONTINUOUS
 62
     7
 10
-6.4999999857000139
 20
-571.49999999999989
 30
0.0
 11
-5.2999999857000111
 21
-567.69000000000005
 31
0.0
  0
LINE
  5
398
  8
DATA
  6
CONTINUOUS
 62
     7
 10
-5.2999999856989239
 20
-567.69000000000005
 30
0.0
 11
1.575859692092308
 21
-567.69000000000005
 31
0.0
  0
LINE
  5
399
  8
DATA
  6
CONTINUOUS
 62
     7
 10
-1007.0
 20
-903.5
 30
0.0
 11
-1007.0
 21
-900.0
 31
0.0
  0
LINE
  5
39A
  8
DATA
  6
CONTINUOUS
 62
     7
 10
-1044.5
 20
-903.5
 30
0.0
 11
-1007.0
 21
-903.5
 31
0.0
  0
LINE
  5
39B
  8
DATA
  6
CONTINUOUS
 62
     7
 10
-1044.5
 20
-900.0
 30
0.0
 11
-1044.5
 21
-903.5
 31
0.0
  0
LINE
  5
39C
  8
DATA
  6
CONTINUOUS
 62
     7
 10
-1000.5
 20
-903.5
 30
0.0
 11
-1000.5
 21
-900.0
 31
0.0
  0
LINE
  5
39D
  8
DATA
  6
CONTINUOUS
 62
     7
 10
-963.0
 20
-903.5
 30
0.0
 11
-1000.5
 21
-903.5
 31
0.0
  0
LINE
  5
39E
  8
DATA
  6
CONTINUOUS
 62
     7
 10
-963.0
 20
-900.0
 30
0.0
 11
-963.0
 21
-903.5
 31
0.0
  0
LINE
  5
39F
  8
DATA
  6
CONTINUOUS
 62
     7
 10
-792.99999999999966
 20
-903.5
 30
0.0
 11
-792.99999999999966
 21
-900.0
 31
0.0
  0
LINE
  5
3A0
  8
DATA
  6
CONTINUOUS
 62
     7
 10
-755.49999999999966
 20
-903.5
 30
0.0
 11
-792.99999999999966
 21
-903.5
 31
0.0
  0
LINE
  5
3A1
  8
DATA
  6
CONTINUOUS
 62
     7
 10
-755.49999999999966
 20
-900.0
 30
0.0
 11
-755.49999999999966
 21
-903.5
 31
0.0
  0
LINE
  5
3A2
  8
DATA
  6
CONTINUOUS
 62
     7
 10
-836.99999999999966
 20
-903.5
 30
0.0
 11
-836.99999999999966
 21
-900.0
 31
0.0
  0
LINE
  5
3A3
  8
DATA
  6
CONTINUOUS
 62
     7
 10
-799.49999999999955
 20
-903.5
 30
0.0
 11
-836.99999999999966
 21
-903.5
 31
0.0
  0
LINE
  5
3A4
  8
DATA
  6
CONTINUOUS
 62
     7
 10
-799.49999999999955
 20
-900.0
 30
0.0
 11
-799.49999999999955
 21
-903.5
 31
0.0
  0
LINE
  5
3A5
  8
DATA
  6
CONTINUOUS
 62
     7
 10
-1045.5
 20
-805.0
 30
0.0
 11
-1045.5
 21
-535.0
 31
0.0
  0
LINE
  5
3A6
  8
DATA
  6
CONTINUOUS
 62
     7
 10
-1010.5
 20
-810.0
 30
0.0
 11
-1045.75
 21
-810.0
 31
0.0
  0
LINE
  5
3A7
  8
DATA
  6
CONTINUOUS
 62
     7
 10
-1015.7051148911549
 20
-805.0
 30
0.0
 11
-1045.5
 21
-805.0
 31
0.0
  0
LINE
  5
3A8
  8
DATA
  6
CONTINUOUS
 62
     7
 10
-754.49999999999989
 20
-535.0
 30
0.0
 11
-754.49999999999989
 21
-805.0
 31
0.0
  0
LINE
  5
3A9
  8
DATA
  6
CONTINUOUS
 62
     7
 10
-1010.5
 20
-810.0
 30
0.0
 11
-990.49999999999989
 21
-775.0
 31
0.0
  0
LINE
  5
3AA
  8
DATA
  6
CONTINUOUS
 62
     7
 10
-1015.7051148911549
 20
-804.99999999999966
 30
0.0
 11
-995.70511489115495
 21
-770.0
 31
0.0
  0
LINE
  5
3AB
  8
DATA
  6
CONTINUOUS
 62
     7
 10
-789.5
 20
-810.0
 30
0.0
 11
-754.24999999999955
 21
-810.0
 31
0.0
  0
LINE
  5
3AC
  8
DATA
  6
CONTINUOUS
 62
     7
 10
-784.29488510884505
 20
-805.0
 30
0.0
 11
-754.49999999999989
 21
-805.0
 31
0.0
  0
LINE
  5
3AD
  8
DATA
  6
CONTINUOUS
 62
     7
 10
-789.5
 20
-810.0
 30
0.0
 11
-809.5
 21
-775.0
 31
0.0
  0
LINE
  5
3AE
  8
DATA
  6
CONTINUOUS
 62
     7
 10
-784.29488510884505
 20
-804.99999999999966
 30
0.0
 11
-804.29488510884505
 21
-770.0
 31
0.0
  0
LINE
  5
3AF
  8
DATA
  6
CONTINUOUS
 62
     7
 10
-809.5
 20
-775.0
 30
0.0
 11
-990.49999999999989
 21
-775.0
 31
0.0
  0
LINE
  5
3B0
  8
DATA
  6
CONTINUOUS
 62
     7
 10
-804.29488510884505
 20
-770.0
 30
0.0
 11
-995.70511489115495
 21
-770.0
 31
0.0
  0
LINE
  5
3B1
  8
DATA
  6
CONTINUOUS
 62
     7
 10
-1010.5
 20
-530.0
 30
0.0
 11
-1045.75
 21
-530.0
 31
0.0
  0
LINE
  5
3B2
  8
DATA
  6
CONTINUOUS
 62
     7
 10
-1015.7051148911549
 20
-535.0
 30
0.0
 11
-1045.5
 21
-535.0
 31
0.0
  0
LINE
  5
3B3
  8
DATA
  6
CONTINUOUS
 62
     7
 10
-1010.5
 20
-530.0
 30
0.0
 11
-990.49999999999989
 21
-565.0
 31
0.0
  0
LINE
  5
3B4
  8
DATA
  6
CONTINUOUS
 62
     7
 10
-1015.7051148911549
 20
-535.00000000000011
 30
0.0
 11
-995.70511489115495
 21
-570.0
 31
0.0
  0
LINE
  5
3B5
  8
DATA
  6
CONTINUOUS
 62
     7
 10
-789.5
 20
-530.0
 30
0.0
 11
-754.24999999999955
 21
-530.0
 31
0.0
  0
LINE
  5
3B6
  8
DATA
  6
CONTINUOUS
 62
     7
 10
-784.29488510884505
 20
-535.0
 30
0.0
 11
-754.49999999999989
 21
-535.0
 31
0.0
  0
LINE
  5
3B7
  8
DATA
  6
CONTINUOUS
 62
     7
 10
-789.5
 20
-530.0
 30
0.0
 11
-809.5
 21
-565.0
 31
0.0
  0
LINE
  5
3B8
  8
DATA
  6
CONTINUOUS
 62
     7
 10
-784.29488510884505
 20
-535.00000000000011
 30
0.0
 11
-804.29488510884505
 21
-570.0
 31
0.0
  0
LINE
  5
3B9
  8
DATA
  6
CONTINUOUS
 62
     7
 10
-809.5
 20
-565.0
 30
0.0
 11
-990.49999999999989
 21
-565.0
 31
0.0
  0
LINE
  5
3BA
  8
DATA
  6
CONTINUOUS
 62
     7
 10
-804.29488510884505
 20
-570.0
 30
0.0
 11
-995.70511489115495
 21
-570.0
 31
0.0
  0
LINE
  5
3BB
  8
DATA
  6
CONTINUOUS
 62
     7
 10
-930.0
 20
-756.0
 30
0.0
 11
-930.0
 21
-706.0
 31
0.0
  0
LINE
  5
3BC
  8
DATA
  6
CONTINUOUS
 62
     7
 10
-870.0
 20
-756.0
 30
0.0
 11
-930.0
 21
-756.0
 31
0.0
  0
LINE
  5
3BD
  8
DATA
  6
CONTINUOUS
 62
     7
 10
-870.0
 20
-706.0
 30
0.0
 11
-870.0
 21
-756.0
 31
0.0
  0
LINE
  5
3BE
  8
DATA
  6
CONTINUOUS
 62
     7
 10
-930.0
 20
-706.0
 30
0.0
 11
-870.0
 21
-706.0
 31
0.0
  0
LINE
  5
3BF
  8
DATA
  6
CONTINUOUS
 62
     7
 10
-919.0
 20
-746.0
 30
0.0
 11
-919.0
 21
-716.0
 31
0.0
  0
LINE
  5
3C0
  8
DATA
  6
CONTINUOUS
 62
     7
 10
-881.0
 20
-746.0
 30
0.0
 11
-919.0
 21
-746.0
 31
0.0
  0
LINE
  5
3C1
  8
DATA
  6
CONTINUOUS
 62
     7
 10
-881.0
 20
-716.0
 30
0.0
 11
-881.0
 21
-746.0
 31
0.0
  0
LINE
  5
3C2
  8
DATA
  6
CONTINUOUS
 62
     7
 10
-919.0
 20
-716.0
 30
0.0
 11
-881.0
 21
-716.0
 31
0.0
  0
ARC
  5
3C3
  8
DATA
  6
CONTINUOUS
 62
     7
 10
-806.70415125755085
 20
-165.27357589345451
 30
0.0
 40
14.999999999993181
 50
275.80051496427632
 51
282.09475707701228
  0
ARC
  5
3C4
  8
DATA
  6
CONTINUOUS
 62
     7
 10
-805.14503228369472
 20
-175.16649401567341
 30
0.0
 40
20.000000000002231
 50
275.83436627000373
 51
282.09475707701222
  0
ARC
  5
3C5
  8
DATA
  6
CONTINUOUS
 62
     7
 10
-994.37819603072353
 20
-175.215087948286
 30
0.0
 40
20.000000000013831
 50
257.90524292298829
 51
264.19506014905102
  0
ARC
  5
3C6
  8
DATA
  6
CONTINUOUS
 62
     7
 10
-805.14503228370143
 20
-1224.8335059843821
 30
0.0
 40
20.000000000058051
 50
77.90524292298781
 51
84.16563372997787
  0
ARC
  5
3C7
  8
DATA
  6
CONTINUOUS
 62
     7
 10
-994.85496771631017
 20
-1224.8335059843071
 30
0.0
 40
19.999999999982698
 50
95.83436626999773
 51
102.09475707701181
  0
ARC
  5
3C8
  8
DATA
  6
CONTINUOUS
 62
     7
 10
-993.29584874245916
 20
-1234.726424106477
 30
0.0
 40
14.99999999992384
 50
95.800514964246844
 51
102.09475707701149
  0
ARC
  5
3C9
  8
DATA
  6
CONTINUOUS
 62
     7
 10
-806.70415125754994
 20
-1234.7264241065491
 30
0.0
 40
14.999999999996691
 50
77.905242922987654
 51
84.19948503572202
  0
ARC
  5
3CA
  8
DATA
  6
CONTINUOUS
 62
     7
 10
-993.29584874244642
 20
-165.27357589345229
 30
0.0
 40
14.999999999995699
 50
257.90524292298818
 51
264.1994850357226
  0
LINE
  5
3CB
  8
DATA
  6
CONTINUOUS
 62
     7
 10
-998.02918564109746
 20
-404.0
 30
0.0
 11
-998.02918564109746
 21
-900.0
 31
0.0
  0
LINE
  5
3CC
  8
DATA
  6
CONTINUOUS
 62
     7
 10
-801.97081435890243
 20
-404.0
 30
0.0
 11
-801.97081435890243
 21
-900.0
 31
0.0
  0
CIRCLE
  5
3CD
  8
DATA
  6
CONTINUOUS
 62
     7
 10
-1019.8004347827
 20
-56.000160045278683
 30
0.0
 40
10.00000000000003
  0
LINE
  5
3CE
  8
DATA
  6
CONTINUOUS
 62
     7
 10
-1022.800434782701
 20
-56.000160045278207
 30
0.0
 11
-1021.3004347827
 21
-53.402083833924621
 31
0.0
  0
LINE
  5
3CF
  8
DATA
  6
CONTINUOUS
 62
     7
 10
-1021.300434782701
 20
-58.598236256632489
 30
0.0
 11
-1022.800434782701
 21
-56.000160045278207
 31
0.0
  0
LINE
  5
3D0
  8
DATA
  6
CONTINUOUS
 62
     7
 10
-1018.3004347827
 20
-58.598236256632731
 30
0.0
 11
-1021.300434782701
 21
-58.598236256632489
 31
0.0
  0
LINE
  5
3D1
  8
DATA
  6
CONTINUOUS
 62
     7
 10
-1016.800434782699
 20
-56.000160045279131
 30
0.0
 11
-1018.3004347827
 21
-58.598236256632731
 31
0.0
  0
LINE
  5
3D2
  8
DATA
  6
CONTINUOUS
 62
     7
 10
-1018.300434782699
 20
-53.402083833925069
 30
0.0
 11
-1016.800434782699
 21
-56.000160045279131
 31
0.0
  0
LINE
  5
3D3
  8
DATA
  6
CONTINUOUS
 62
     7
 10
-1021.3004347827
 20
-53.402083833924621
 30
0.0
 11
-1018.300434782699
 21
-53.402083833925069
 31
0.0
  0
CIRCLE
  5
3D4
  8
DATA
  6
CONTINUOUS
 62
     7
 10
-780.19956521729955
 20
-56.000160045278683
 30
0.0
 40
10.00000000000003
  0
LINE
  5
3D5
  8
DATA
  6
CONTINUOUS
 62
     7
 10
-777.19956521729841
 20
-56.000160045278207
 30
0.0
 11
-778.69956521729955
 21
-53.402083833924621
 31
0.0
  0
LINE
  5
3D6
  8
DATA
  6
CONTINUOUS
 62
     7
 10
-778.69956521729841
 20
-58.598236256632489
 30
0.0
 11
-777.19956521729841
 21
-56.000160045278207
 31
0.0
  0
LINE
  5
3D7
  8
DATA
  6
CONTINUOUS
 62
     7
 10
-781.69956521729955
 20
-58.598236256632731
 30
0.0
 11
-778.69956521729841
 21
-58.598236256632489
 31
0.0
  0
LINE
  5
3D8
  8
DATA
  6
CONTINUOUS
 62
     7
 10
-783.19956521730057
 20
-56.000160045279131
 30
0.0
 11
-781.69956521729955
 21
-58.598236256632731
 31
0.0
  0
LINE
  5
3D9
  8
DATA
  6
CONTINUOUS
 62
     7
 10
-781.69956521730046
 20
-53.402083833925069
 30
0.0
 11
-783.19956521730057
 21
-56.000160045279131
 31
0.0
  0
LINE
  5
3DA
  8
DATA
  6
CONTINUOUS
 62
     7
 10
-778.69956521729955
 20
-53.402083833924621
 30
0.0
 11
-781.69956521730046
 21
-53.402083833925069
 31
0.0
  0
CIRCLE
  5
3DB
  8
DATA
  6
CONTINUOUS
 62
     7
 10
-1019.8004347827
 20
-1343.999839954721
 30
0.0
 40
10.00000000000003
  0
LINE
  5
3DC
  8
DATA
  6
CONTINUOUS
 62
     7
 10
-1022.800434782701
 20
-1343.999839954721
 30
0.0
 11
-1021.3004347827
 21
-1346.597916166075
 31
0.0
  0
LINE
  5
3DD
  8
DATA
  6
CONTINUOUS
 62
     7
 10
-1021.300434782701
 20
-1341.4017637433669
 30
0.0
 11
-1022.800434782701
 21
-1343.999839954721
 31
0.0
  0
LINE
  5
3DE
  8
DATA
  6
CONTINUOUS
 62
     7
 10
-1018.3004347827
 20
-1341.4017637433669
 30
0.0
 11
-1021.300434782701
 21
-1341.4017637433669
 31
0.0
  0
LINE
  5
3DF
  8
DATA
  6
CONTINUOUS
 62
     7
 10
-1016.800434782699
 20
-1343.999839954721
 30
0.0
 11
-1018.3004347827
 21
-1341.4017637433669
 31
0.0
  0
LINE
  5
3E0
  8
DATA
  6
CONTINUOUS
 62
     7
 10
-1018.300434782699
 20
-1346.5979161660739
 30
0.0
 11
-1016.800434782699
 21
-1343.999839954721
 31
0.0
  0
LINE
  5
3E1
  8
DATA
  6
CONTINUOUS
 62
     7
 10
-1021.3004347827
 20
-1346.597916166075
 30
0.0
 11
-1018.300434782699
 21
-1346.5979161660739
 31
0.0
  0
CIRCLE
  5
3E2
  8
DATA
  6
CONTINUOUS
 62
     7
 10
-780.19956521729955
 20
-1343.999839954721
 30
0.0
 40
10.00000000000003
  0
LINE
  5
3E3
  8
DATA
  6
CONTINUOUS
 62
     7
 10
-777.19956521729841
 20
-1343.999839954721
 30
0.0
 11
-778.69956521729955
 21
-1346.597916166075
 31
0.0
  0
LINE
  5
3E4
  8
DATA
  6
CONTINUOUS
 62
     7
 10
-778.69956521729841
 20
-1341.4017637433669
 30
0.0
 11
-777.19956521729841
 21
-1343.999839954721
 31
0.0
  0
LINE
  5
3E5
  8
DATA
  6
CONTINUOUS
 62
     7
 10
-781.69956521729955
 20
-1341.4017637433669
 30
0.0
 11
-778.69956521729841
 21
-1341.4017637433669
 31
0.0
  0
LINE
  5
3E6
  8
DATA
  6
CONTINUOUS
 62
     7
 10
-783.19956521730057
 20
-1343.999839954721
 30
0.0
 11
-781.69956521729955
 21
-1341.4017637433669
 31
0.0
  0
LINE
  5
3E7
  8
DATA
  6
CONTINUOUS
 62
     7
 10
-781.69956521730046
 20
-1346.5979161660739
 30
0.0
 11
-783.19956521730057
 21
-1343.999839954721
 31
0.0
  0
LINE
  5
3E8
  8
DATA
  6
CONTINUOUS
 62
     7
 10
-778.69956521729955
 20
-1346.597916166075
 30
0.0
 11
-781.69956521730046
 21
-1346.5979161660739
 31
0.0
  0
CIRCLE
  5
3E9
  8
DATA
  6
CONTINUOUS
 62
     7
 10
-900.00000000002797
 20
-1358.9998399546171
 30
0.0
 40
52.25
  0
CIRCLE
  5
3EA
  8
DATA
  6
CONTINUOUS
 62
     7
 10
-900.00000000002797
 20
-1358.9998399546171
 30
0.0
 40
27.5
  0
CIRCLE
  5
3EB
  8
DATA
  6
CONTINUOUS
 62
     7
 10
-900.00000000002797
 20
-1358.9998399546171
 30
0.0
 40
50.0
  0
LINE
  5
3EC
  8
DATA
  6
CONTINUOUS
 62
     7
 10
-903.75000000002797
 20
-1399.7498399546171
 30
0.0
 11
-902.25000000002785
 21
-1399.7498399546171
 31
0.0
  0
LINE
  5
3ED
  8
DATA
  6
CONTINUOUS
 62
     7
 10
-897.75000000002785
 20
-1399.7498399546171
 30
0.0
 11
-896.25000000002785
 21
-1399.7498399546171
 31
0.0
  0
CIRCLE
  5
3EE
  8
DATA
  6
CONTINUOUS
 62
     7
 10
-900.00000000002797
 20
-1400.4998399546171
 30
0.0
 40
6.5
  0
LINE
  5
3EF
  8
DATA
  6
CONTINUOUS
 62
     7
 10
-903.75000000002797
 20
-1401.2498399546171
 30
0.0
 11
-902.25000000002785
 21
-1401.2498399546171
 31
0.0
  0
LINE
  5
3F0
  8
DATA
  6
CONTINUOUS
 62
     7
 10
-897.75000000002785
 20
-1401.2498399546171
 30
0.0
 11
-896.25000000002785
 21
-1401.2498399546171
 31
0.0
  0
LINE
  5
3F1
  8
DATA
  6
CONTINUOUS
 62
     7
 10
-899.25000000002797
 20
-1396.7498399546171
 30
0.0
 11
-899.25000000002797
 21
-1398.2498399546171
 31
0.0
  0
LINE
  5
3F2
  8
DATA
  6
CONTINUOUS
 62
     7
 10
-899.25000000002797
 20
-1402.7498399546171
 30
0.0
 11
-899.25000000002797
 21
-1404.2498399546171
 31
0.0
  0
LINE
  5
3F3
  8
DATA
  6
CONTINUOUS
 62
     7
 10
-900.75000000002785
 20
-1396.7498399546171
 30
0.0
 11
-900.75000000002785
 21
-1398.2498399546171
 31
0.0
  0
LINE
  5
3F4
  8
DATA
  6
CONTINUOUS
 62
     7
 10
-900.75000000002785
 20
-1402.7498399546171
 30
0.0
 11
-900.75000000002785
 21
-1404.2498399546171
 31
0.0
  0
LINE
  5
3F5
  8
DATA
  6
CONTINUOUS
 62
     7
 10
-900.75000000002785
 20
-1396.7498399546171
 30
0.0
 11
-899.25000000002797
 21
-1396.7498399546171
 31
0.0
  0
LINE
  5
3F6
  8
DATA
  6
CONTINUOUS
 62
     7
 10
-903.75000000002797
 20
-1399.7498399546171
 30
0.0
 11
-903.75000000002797
 21
-1401.2498399546171
 31
0.0
  0
LINE
  5
3F7
  8
DATA
  6
CONTINUOUS
 62
     7
 10
-900.75000000002785
 20
-1404.2498399546171
 30
0.0
 11
-899.25000000002797
 21
-1404.2498399546171
 31
0.0
  0
LINE
  5
3F8
  8
DATA
  6
CONTINUOUS
 62
     7
 10
-896.25000000002785
 20
-1401.2498399546171
 30
0.0
 11
-896.25000000002785
 21
-1399.7498399546171
 31
0.0
  0
ARC
  5
3F9
  8
DATA
  6
CONTINUOUS
 62
     7
 10
-902.25000000002785
 20
-1398.2498399546171
 30
0.0
 40
1.5
 50
270.0
 51
0.0
  0
ARC
  5
3FA
  8
DATA
  6
CONTINUOUS
 62
     7
 10
-902.25000000002785
 20
-1402.7498399546171
 30
0.0
 40
1.5
 50
0.0
 51
90.0
  0
ARC
  5
3FB
  8
DATA
  6
CONTINUOUS
 62
     7
 10
-897.75000000002785
 20
-1402.7498399546171
 30
0.0
 40
1.5
 50
90.0
 51
180.0
  0
ARC
  5
3FC
  8
DATA
  6
CONTINUOUS
 62
     7
 10
-897.75000000002785
 20
-1398.2498399546171
 30
0.0
 40
1.5
 50
180.0
 51
270.0
  0
LINE
  5
3FD
  8
DATA
  6
CONTINUOUS
 62
     7
 10
-862.83446479581187
 20
-1341.872435218809
 30
0.0
 11
-863.58446479581187
 21
-1340.5733971131319
 31
0.0
  0
LINE
  5
3FE
  8
DATA
  6
CONTINUOUS
 62
     7
 10
-865.83446479581175
 20
-1336.676282796102
 30
0.0
 11
-866.58446479581187
 21
-1335.3772446904261
 31
0.0
  0
CIRCLE
  5
3FF
  8
DATA
  6
CONTINUOUS
 62
     7
 10
-864.05994574297335
 20
-1338.2498399546171
 30
0.0
 40
6.4999999999999423
  0
LINE
  5
400
  8
DATA
  6
CONTINUOUS
 62
     7
 10
-861.53542669013518
 20
-1341.122435218809
 30
0.0
 11
-862.28542669013518
 21
-1339.8233971131319
 31
0.0
  0
LINE
  5
401
  8
DATA
  6
CONTINUOUS
 62
     7
 10
-864.53542669013507
 20
-1335.926282796102
 30
0.0
 11
-865.28542669013518
 21
-1334.6272446904261
 31
0.0
  0
LINE
  5
402
  8
DATA
  6
CONTINUOUS
 62
     7
 10
-867.68254100716501
 20
-1339.475320901779
 30
0.0
 11
-866.38350290148867
 21
-1338.725320901779
 31
0.0
  0
LINE
  5
403
  8
DATA
  6
CONTINUOUS
 62
     7
 10
-862.48638858445884
 20
-1336.475320901779
 30
0.0
 11
-861.18735047878192
 21
-1335.725320901779
 31
0.0
  0
LINE
  5
404
  8
DATA
  6
CONTINUOUS
 62
     7
 10
-866.93254100716501
 20
-1340.774359007456
 30
0.0
 11
-865.63350290148855
 21
-1340.024359007456
 31
0.0
  0
LINE
  5
405
  8
DATA
  6
CONTINUOUS
 62
     7
 10
-861.73638858445884
 20
-1337.774359007456
 30
0.0
 11
-860.43735047878192
 21
-1337.024359007456
 31
0.0
  0
LINE
  5
406
  8
DATA
  6
CONTINUOUS
 62
     7
 10
-866.93254100716501
 20
-1340.774359007456
 30
0.0
 11
-867.68254100716501
 21
-1339.475320901779
 31
0.0
  0
LINE
  5
407
  8
DATA
  6
CONTINUOUS
 62
     7
 10
-862.83446479581187
 20
-1341.872435218809
 30
0.0
 11
-861.53542669013518
 21
-1341.122435218809
 31
0.0
  0
LINE
  5
408
  8
DATA
  6
CONTINUOUS
 62
     7
 10
-860.43735047878192
 20
-1337.024359007456
 30
0.0
 11
-861.18735047878192
 21
-1335.725320901779
 31
0.0
  0
LINE
  5
409
  8
DATA
  6
CONTINUOUS
 62
     7
 10
-865.28542669013518
 20
-1334.6272446904261
 30
0.0
 11
-866.58446479581187
 21
-1335.3772446904261
 31
0.0
  0
ARC
  5
40A
  8
DATA
  6
CONTINUOUS
 62
     7
 10
-864.88350290148855
 20
-1341.3233971131319
 30
0.0
 40
1.500000000000123
 50
29.999999999997289
 51
119.9999999999973
  0
ARC
  5
40B
  8
DATA
  6
CONTINUOUS
 62
     7
 10
-860.98638858445872
 20
-1339.0733971131319
 30
0.0
 40
1.500000000000123
 50
119.9999999999973
 51
210.00000000000159
  0
ARC
  5
40C
  8
DATA
  6
CONTINUOUS
 62
     7
 10
-863.23638858445861
 20
-1335.176282796102
 30
0.0
 40
1.4999999999999261
 50
210.00000000000159
 51
299.99999999999733
  0
ARC
  5
40D
  8
DATA
  6
CONTINUOUS
 62
     7
 10
-867.13350290148867
 20
-1337.426282796102
 30
0.0
 40
1.500000000000123
 50
299.99999999999733
 51
29.999999999997272
  0
LINE
  5
40E
  8
DATA
  6
CONTINUOUS
 62
     7
 10
-933.4155352042435
 20
-1335.3772446904261
 30
0.0
 11
-934.1655352042435
 21
-1336.676282796102
 31
0.0
  0
LINE
  5
40F
  8
DATA
  6
CONTINUOUS
 62
     7
 10
-936.41553520424338
 20
-1340.5733971131319
 30
0.0
 11
-937.16553520424338
 21
-1341.872435218809
 31
0.0
  0
CIRCLE
  5
410
  8
DATA
  6
CONTINUOUS
 62
     7
 10
-935.9400542570819
 20
-1338.2498399546171
 30
0.0
 40
6.4999999999999423
  0
LINE
  5
411
  8
DATA
  6
CONTINUOUS
 62
     7
 10
-934.7145733099203
 20
-1334.6272446904261
 30
0.0
 11
-935.46457330992018
 21
-1335.926282796102
 31
0.0
  0
LINE
  5
412
  8
DATA
  6
CONTINUOUS
 62
     7
 10
-937.7145733099203
 20
-1339.8233971131319
 30
0.0
 11
-938.4645733099203
 21
-1341.122435218809
 31
0.0
  0
LINE
  5
413
  8
DATA
  6
CONTINUOUS
 62
     7
 10
-933.06745899289035
 20
-1340.774359007456
 30
0.0
 11
-934.36649709856704
 21
-1340.024359007456
 31
0.0
  0
LINE
  5
414
  8
DATA
  6
CONTINUOUS
 62
     7
 10
-938.26361141559676
 20
-1337.774359007456
 30
0.0
 11
-939.56264952127356
 21
-1337.024359007456
 31
0.0
  0
LINE
  5
415
  8
DATA
  6
CONTINUOUS
 62
     7
 10
-932.31745899289035
 20
-1339.475320901779
 30
0.0
 11
-933.61649709856704
 21
-1338.725320901779
 31
0.0
  0
LINE
  5
416
  8
DATA
  6
CONTINUOUS
 62
     7
 10
-937.51361141559676
 20
-1336.475320901779
 30
0.0
 11
-938.81264952127356
 21
-1335.725320901779
 31
0.0
  0
LINE
  5
417
  8
DATA
  6
CONTINUOUS
 62
     7
 10
-932.31745899289035
 20
-1339.475320901779
 30
0.0
 11
-933.06745899289035
 21
-1340.774359007456
 31
0.0
  0
LINE
  5
418
  8
DATA
  6
CONTINUOUS
 62
     7
 10
-933.4155352042435
 20
-1335.3772446904261
 30
0.0
 11
-934.7145733099203
 21
-1334.6272446904261
 31
0.0
  0
LINE
  5
419
  8
DATA
  6
CONTINUOUS
 62
     7
 10
-938.81264952127356
 20
-1335.725320901779
 30
0.0
 11
-939.56264952127356
 21
-1337.024359007456
 31
0.0
  0
LINE
  5
41A
  8
DATA
  6
CONTINUOUS
 62
     7
 10
-938.4645733099203
 20
-1341.122435218809
 30
0.0
 11
-937.16553520424338
 21
-1341.872435218809
 31
0.0
  0
ARC
  5
41B
  8
DATA
  6
CONTINUOUS
 62
     7
 10
-932.86649709856704
 20
-1337.426282796102
 30
0.0
 40
1.4999999999999261
 50
149.99999999999841
 51
239.99999999999841
  0
ARC
  5
41C
  8
DATA
  6
CONTINUOUS
 62
     7
 10
-936.76361141559676
 20
-1335.176282796102
 30
0.0
 40
1.4999999999999261
 50
239.99999999999841
 51
329.99999999999829
  0
ARC
  5
41D
  8
DATA
  6
CONTINUOUS
 62
     7
 10
-939.01361141559676
 20
-1339.0733971131319
 30
0.0
 40
1.4999999999999261
 50
329.99999999999829
 51
60.000000000002728
  0
ARC
  5
41E
  8
DATA
  6
CONTINUOUS
 62
     7
 10
-935.11649709856715
 20
-1341.3233971131319
 30
0.0
 40
1.500000000000123
 50
60.000000000002721
 51
149.99999999999841
  0
ARC
  5
41F
  8
DATA
  6
CONTINUOUS
 62
     7
 10
-900.0
 20
-1358.999839954721
 30
0.0
 40
21.500000000107232
 50
108.3330294939274
 51
131.66697050593191
  0
ARC
  5
420
  8
DATA
  6
CONTINUOUS
 62
     7
 10
-900.0
 20
-1358.999839954721
 30
0.0
 40
21.500000000107249
 50
138.33302949378231
 51
161.66697050582769
  0
ARC
  5
421
  8
DATA
  6
CONTINUOUS
 62
     7
 10
-900.0
 20
-1358.999839954721
 30
0.0
 40
21.5000000001072
 50
168.3330294936776
 51
191.66697050578841
  0
ARC
  5
422
  8
DATA
  6
CONTINUOUS
 62
     7
 10
-900.0
 20
-1358.999839954721
 30
0.0
 40
21.500000000107129
 50
198.33302949363861
 51
221.6669705058261
  0
ARC
  5
423
  8
DATA
  6
CONTINUOUS
 62
     7
 10
-900.0
 20
-1358.999839954721
 30
0.0
 40
21.500000000107139
 50
228.33302949367729
 51
251.66697050593089
  0
ARC
  5
424
  8
DATA
  6
CONTINUOUS
 62
     7
 10
-900.0
 20
-1358.999839954721
 30
0.0
 40
21.500000000107178
 50
258.33302949378282
 51
281.66697050607092
  0
ARC
  5
425
  8
DATA
  6
CONTINUOUS
 62
     7
 10
-900.0
 20
-1358.999839954721
 30
0.0
 40
21.500000000107232
 50
288.33302949392743
 51
311.6669705062173
  0
ARC
  5
426
  8
DATA
  6
CONTINUOUS
 62
     7
 10
-900.0
 20
-1358.999839954721
 30
0.0
 40
21.500000000107232
 50
318.33302949406851
 51
341.66697050632251
  0
ARC
  5
427
  8
DATA
  6
CONTINUOUS
 62
     7
 10
-900.0
 20
-1358.999839954721
 30
0.0
 40
21.500000000107178
 50
348.33302949417367
 51
11.666970506361331
  0
ARC
  5
428
  8
DATA
  6
CONTINUOUS
 62
     7
 10
-900.0
 20
-1358.999839954721
 30
0.0
 40
21.500000000107111
 50
18.333029494212521
 51
41.666970506323317
  0
ARC
  5
429
  8
DATA
  6
CONTINUOUS
 62
     7
 10
-900.0
 20
-1358.999839954721
 30
0.0
 40
21.500000000107271
 50
48.33302949417368
 51
71.666970506219656
  0
ARC
  5
42A
  8
DATA
  6
CONTINUOUS
 62
     7
 10
-900.0
 20
-1358.999839954721
 30
0.0
 40
21.500000000107288
 50
78.333029494072122
 51
101.6669705060736
  0
LINE
  5
42B
  8
DATA
  6
CONTINUOUS
 62
     7
 10
-894.47842319799724
 20
-1384.4362742491339
 30
0.0
 11
-896.50984161427846
 21
-1376.8549175081421
 31
0.0
  0
LINE
  5
42C
  8
DATA
  6
CONTINUOUS
 62
     7
 10
-892.06360863227439
 20
-1383.7892266363781
 30
0.0
 11
-894.09502704855595
 21
-1376.207869895386
 31
0.0
  0
LINE
  5
42D
  8
DATA
  6
CONTINUOUS
 62
     7
 10
-896.15628822368512
 20
-1376.2425450724461
 30
0.0
 11
-894.70739948425148
 21
-1375.854316504792
 31
0.0
  0
ARC
  5
42E
  8
DATA
  6
CONTINUOUS
 62
     7
 10
-893.02953445856394
 20
-1384.0480456814801
 30
0.0
 40
1.4999999999998399
 50
195.000000000005
 51
275.40593177315247
  0
ARC
  5
42F
  8
DATA
  6
CONTINUOUS
 62
     7
 10
-893.51249737170804
 20
-1384.177455204032
 30
0.0
 40
1.499999999999873
 50
294.59406822685793
 51
14.9999999999967
  0
ARC
  5
430
  8
DATA
  6
CONTINUOUS
 62
     7
 10
-896.0268787011338
 20
-1376.7255079855911
 30
0.0
 40
0.5000000000000301
 50
105.00000000000701
 51
195.00000000001961
  0
ARC
  5
431
  8
DATA
  6
CONTINUOUS
 62
     7
 10
-894.57798996170038
 20
-1376.3372794179379
 30
0.0
 40
0.5000000000000006
 50
14.999999999994451
 51
104.9999999999945
  0
LINE
  5
432
  8
DATA
  6
CONTINUOUS
 62
     7
 10
-882.49995707326389
 20
-1378.267649834348
 30
0.0
 11
-888.04989539797532
 21
-1372.717711509636
 31
0.0
  0
LINE
  5
433
  8
DATA
  6
CONTINUOUS
 62
     7
 10
-880.73219012029767
 20
-1376.4998828813809
 30
0.0
 11
-886.28212844500899
 21
-1370.9499445566701
 31
0.0
  0
LINE
  5
434
  8
DATA
  6
CONTINUOUS
 62
     7
 10
-888.04989539797532
 20
-1372.0106047284501
 30
0.0
 11
-886.98923522619532
 21
-1370.9499445566701
 31
0.0
  0
ARC
  5
435
  8
DATA
  6
CONTINUOUS
 62
     7
 10
-881.43929690148434
 20
-1377.206989662568
 30
0.0
 40
1.499999999999851
 50
225.00000000000301
 51
305.40593177314662
  0
ARC
  5
436
  8
DATA
  6
CONTINUOUS
 62
     7
 10
-881.79285029207711
 20
-1377.5605430531609
 30
0.0
 40
1.499999999999833
 50
324.5940682268569
 51
45.000000000003013
  0
ARC
  5
437
  8
DATA
  6
CONTINUOUS
 62
     7
 10
-887.69634200738165
 20
-1372.3641581190429
 30
0.0
 40
0.500000000000004
 50
134.99999999999079
 51
225.00000000000921
  0
ARC
  5
438
  8
DATA
  6
CONTINUOUS
 62
     7
 10
-886.63568183560199
 20
-1371.3034979472629
 30
0.0
 40
0.500000000000004
 50
45.000000000009209
 51
134.99999999999079
  0
LINE
  5
439
  8
DATA
  6
CONTINUOUS
 62
     7
 10
-875.21061331826706
 20
-1366.9362313223701
 30
0.0
 11
-882.79197005925926
 21
-1364.90481290609
 31
0.0
  0
LINE
  5
43A
  8
DATA
  6
CONTINUOUS
 62
     7
 10
-874.56356570551065
 20
-1364.521416756648
 30
0.0
 11
-882.14492244650285
 21
-1362.489998340367
 31
0.0
  0
LINE
  5
43B
  8
DATA
  6
CONTINUOUS
 62
     7
 10
-883.14552344985248
 20
-1364.292440470394
 30
0.0
 11
-882.75729488219838
 21
-1362.8435517309599
 31
0.0
  0
ARC
  5
43C
  8
DATA
  6
CONTINUOUS
 62
     7
 10
-874.82238475061354
 20
-1365.4873425829369
 30
0.0
 40
1.499999999999752
 50
255.0000000000075
 51
335.40593177314389
  0
ARC
  5
43D
  8
DATA
  6
CONTINUOUS
 62
     7
 10
-874.95179427316464
 20
-1365.970305496081
 30
0.0
 40
1.4999999999998761
 50
354.59406822685611
 51
74.999999999994941
  0
ARC
  5
43E
  8
DATA
  6
CONTINUOUS
 62
     7
 10
-882.66256053670804
 20
-1364.421849992945
 30
0.0
 40
0.4999999999997809
 50
164.99999999999881
 51
255.00000000001231
  0
ARC
  5
43F
  8
DATA
  6
CONTINUOUS
 62
     7
 10
-882.27433196905429
 20
-1362.9729612535109
 30
0.0
 40
0.5000000000000006
 50
75.000000000005556
 51
164.99999999999881
  0
LINE
  5
440
  8
DATA
  6
CONTINUOUS
 62
     7
 10
-874.56356570551065
 20
-1353.478263152587
 30
0.0
 11
-882.14492244650285
 21
-1355.509681568868
 31
0.0
  0
LINE
  5
441
  8
DATA
  6
CONTINUOUS
 62
     7
 10
-875.21061331826706
 20
-1351.0634485868641
 30
0.0
 11
-882.79197005925926
 21
-1353.0948670031451
 31
0.0
  0
LINE
  5
442
  8
DATA
  6
CONTINUOUS
 62
     7
 10
-882.75729488219883
 20
-1355.1561281782749
 30
0.0
 11
-883.1455234498527
 21
-1353.707239438841
 31
0.0
  0
ARC
  5
443
  8
DATA
  6
CONTINUOUS
 62
     7
 10
-874.95179427316464
 20
-1352.0293744131529
 30
0.0
 40
1.4999999999998399
 50
285.00000000000512
 51
5.4059317731438901
  0
ARC
  5
444
  8
DATA
  6
CONTINUOUS
 62
     7
 10
-874.82238475061354
 20
-1352.512337326297
 30
0.0
 40
1.499999999999778
 50
24.594068226850059
 51
104.9999999999966
  0
ARC
  5
445
  8
DATA
  6
CONTINUOUS
 62
     7
 10
-882.27433196905429
 20
-1355.026718655723
 30
0.0
 40
0.5000000000000595
 50
195.00000000001961
 51
284.99999999999437
  0
ARC
  5
446
  8
DATA
  6
CONTINUOUS
 62
     7
 10
-882.66256053670804
 20
-1353.5778299162901
 30
0.0
 40
0.5000000000000006
 50
104.9999999999944
 51
195.00000000001961
  0
LINE
  5
447
  8
DATA
  6
CONTINUOUS
 62
     7
 10
-880.73219012029745
 20
-1341.499797027853
 30
0.0
 11
-886.28212844500899
 21
-1347.049735352565
 31
0.0
  0
LINE
  5
448
  8
DATA
  6
CONTINUOUS
 62
     7
 10
-882.49995707326389
 20
-1339.732030074887
 30
0.0
 11
-888.04989539797532
 21
-1345.2819683995981
 31
0.0
  0
LINE
  5
449
  8
DATA
  6
CONTINUOUS
 62
     7
 10
-886.98923522619532
 20
-1347.049735352565
 30
0.0
 11
-888.04989539797532
 21
-1345.989075180785
 31
0.0
  0
ARC
  5
44A
  8
DATA
  6
CONTINUOUS
 62
     7
 10
-881.79285029207711
 20
-1340.4391368560739
 30
0.0
 40
1.4999999999997711
 50
315.0000000000062
 51
35.405931773150151
  0
ARC
  5
44B
  8
DATA
  6
CONTINUOUS
 62
     7
 10
-881.43929690148445
 20
-1340.792690246667
 30
0.0
 40
1.499999999999964
 50
54.594068226849878
 51
134.9999999999938
  0
ARC
  5
44C
  8
DATA
  6
CONTINUOUS
 62
     7
 10
-886.63568183560199
 20
-1346.696181961971
 30
0.0
 40
0.5000000000000844
 50
225.0
 51
314.99999999999079
  0
ARC
  5
44D
  8
DATA
  6
CONTINUOUS
 62
     7
 10
-887.69634200738199
 20
-1345.635521790191
 30
0.0
 40
0.4999999999998432
 50
135.00000000000921
 51
225.00000000000921
  0
LINE
  5
44E
  8
DATA
  6
CONTINUOUS
 62
     7
 10
-892.06360863227439
 20
-1334.2104532728561
 30
0.0
 11
-894.09502704855595
 21
-1341.791810013849
 31
0.0
  0
LINE
  5
44F
  8
DATA
  6
CONTINUOUS
 62
     7
 10
-894.47842319799724
 20
-1333.5634056601
 30
0.0
 11
-896.50984161427846
 21
-1341.1447624010921
 31
0.0
  0
LINE
  5
450
  8
DATA
  6
CONTINUOUS
 62
     7
 10
-894.70739948425148
 20
-1342.1453634044419
 30
0.0
 11
-896.15628822368512
 21
-1341.7571348367881
 31
0.0
  0
ARC
  5
451
  8
DATA
  6
CONTINUOUS
 62
     7
 10
-893.51249737170804
 20
-1333.822224705202
 30
0.0
 40
1.49999999999995
 50
344.99999999999602
 51
65.405931773146349
  0
ARC
  5
452
  8
DATA
  6
CONTINUOUS
 62
     7
 10
-893.02953445856394
 20
-1333.9516342277541
 30
0.0
 40
1.499999999999865
 50
84.594068226860458
 51
164.99999999999491
  0
ARC
  5
453
  8
DATA
  6
CONTINUOUS
 62
     7
 10
-894.57798996170038
 20
-1341.6624004912969
 30
0.0
 40
0.5000000000000301
 50
254.99999999999289
 51
345.00000000000563
  0
ARC
  5
454
  8
DATA
  6
CONTINUOUS
 62
     7
 10
-896.0268787011338
 20
-1341.2741719236431
 30
0.0
 40
0.5000000000001104
 50
165.0000000000089
 51
254.99999999999289
  0
LINE
  5
455
  8
DATA
  6
CONTINUOUS
 62
     7
 10
-905.52157680205835
 20
-1333.5634056601009
 30
0.0
 11
-903.49015838577725
 21
-1341.144762401093
 31
0.0
  0
LINE
  5
456
  8
DATA
  6
CONTINUOUS
 62
     7
 10
-907.93639136778108
 20
-1334.210453272857
 30
0.0
 11
-905.90497295149987
 21
-1341.791810013849
 31
0.0
  0
LINE
  5
457
  8
DATA
  6
CONTINUOUS
 62
     7
 10
-903.84371177637058
 20
-1341.7571348367881
 30
0.0
 11
-905.292600515804
 21
-1342.1453634044419
 31
0.0
  0
ARC
  5
458
  8
DATA
  6
CONTINUOUS
 62
     7
 10
-906.97046554149176
 20
-1333.9516342277541
 30
0.0
 40
1.4999999999997811
 50
14.9999999999967
 51
95.405931773148211
  0
ARC
  5
459
  8
DATA
  6
CONTINUOUS
 62
     7
 10
-906.48750262834733
 20
-1333.8222247052031
 30
0.0
 40
1.499999999999873
 50
114.5940682268579
 51
195.000000000005
  0
ARC
  5
45A
  8
DATA
  6
CONTINUOUS
 62
     7
 10
-903.9731212989218
 20
-1341.274171923644
 30
0.0
 40
0.5000000000000006
 50
284.99999999999437
 51
14.999999999994429
  0
ARC
  5
45B
  8
DATA
  6
CONTINUOUS
 62
     7
 10
-905.42201003835555
 20
-1341.6624004912969
 30
0.0
 40
0.5000000000000595
 50
195.00000000001961
 51
285.00000000000711
  0
LINE
  5
45C
  8
DATA
  6
CONTINUOUS
 62
     7
 10
-917.50004292679171
 20
-1339.732030074887
 30
0.0
 11
-911.95010460208084
 21
-1345.2819683995981
 31
0.0
  0
LINE
  5
45D
  8
DATA
  6
CONTINUOUS
 62
     7
 10
-919.26780987975815
 20
-1341.499797027853
 30
0.0
 11
-913.71787155504671
 21
-1347.049735352565
 31
0.0
  0
LINE
  5
45E
  8
DATA
  6
CONTINUOUS
 62
     7
 10
-911.95010460208084
 20
-1345.989075180785
 30
0.0
 11
-913.01076477386016
 21
-1347.049735352565
 31
0.0
  0
ARC
  5
45F
  8
DATA
  6
CONTINUOUS
 62
     7
 10
-918.56070309857137
 20
-1340.792690246667
 30
0.0
 40
1.4999999999997711
 50
44.99999999999384
 51
125.405931773143
  0
ARC
  5
460
  8
DATA
  6
CONTINUOUS
 62
     7
 10
-918.20714970797837
 20
-1340.4391368560739
 30
0.0
 40
1.499999999999964
 50
144.59406822684991
 51
225.0
  0
ARC
  5
461
  8
DATA
  6
CONTINUOUS
 62
     7
 10
-912.30365799267395
 20
-1345.635521790191
 30
0.0
 40
0.4999999999999237
 50
315.00000000001842
 51
45.0
  0
ARC
  5
462
  8
DATA
  6
CONTINUOUS
 62
     7
 10
-913.36431816445361
 20
-1346.696181961971
 30
0.0
 40
0.500000000000004
 50
225.00000000000921
 51
315.00000000000921
  0
LINE
  5
463
  8
DATA
  6
CONTINUOUS
 62
     7
 10
-924.78938668178864
 20
-1351.063448586865
 30
0.0
 11
-917.20802994079656
 21
-1353.0948670031451
 31
0.0
  0
LINE
  5
464
  8
DATA
  6
CONTINUOUS
 62
     7
 10
-925.4364342945446
 20
-1353.478263152587
 30
0.0
 11
-917.85507755355252
 21
-1355.509681568868
 31
0.0
  0
LINE
  5
465
  8
DATA
  6
CONTINUOUS
 62
     7
 10
-916.85447655020278
 20
-1353.707239438841
 30
0.0
 11
-917.24270511785664
 21
-1355.1561281782749
 31
0.0
  0
ARC
  5
466
  8
DATA
  6
CONTINUOUS
 62
     7
 10
-925.17761524944228
 20
-1352.5123373262979
 30
0.0
 40
1.499999999999811
 50
74.999999999999133
 51
155.4059317731402
  0
ARC
  5
467
  8
DATA
  6
CONTINUOUS
 62
     7
 10
-925.04820572689107
 20
-1352.0293744131529
 30
0.0
 40
1.4999999999996489
 50
174.59406822685531
 51
255.0000000000033
  0
ARC
  5
468
  8
DATA
  6
CONTINUOUS
 62
     7
 10
-917.33743946334755
 20
-1353.5778299162901
 30
0.0
 40
0.5000000000000006
 50
345.00000000000563
 51
75.000000000005585
  0
ARC
  5
469
  8
DATA
  6
CONTINUOUS
 62
     7
 10
-917.72566803100142
 20
-1355.026718655723
 30
0.0
 40
0.5000000000000006
 50
255.0000000000056
 51
345.00000000000563
  0
LINE
  5
46A
  8
DATA
  6
CONTINUOUS
 62
     7
 10
-925.4364342945446
 20
-1364.521416756648
 30
0.0
 11
-917.85507755355252
 21
-1362.489998340367
 31
0.0
  0
LINE
  5
46B
  8
DATA
  6
CONTINUOUS
 62
     7
 10
-924.78938668178864
 20
-1366.936231322371
 30
0.0
 11
-917.20802994079656
 21
-1364.90481290609
 31
0.0
  0
LINE
  5
46C
  8
DATA
  6
CONTINUOUS
 62
     7
 10
-917.24270511785664
 20
-1362.8435517309599
 30
0.0
 11
-916.85447655020323
 21
-1364.292440470394
 31
0.0
  0
ARC
  5
46D
  8
DATA
  6
CONTINUOUS
 62
     7
 10
-925.04820572689107
 20
-1365.970305496081
 30
0.0
 40
1.4999999999997811
 50
104.9999999999966
 51
185.4059317731525
  0
ARC
  5
46E
  8
DATA
  6
CONTINUOUS
 62
     7
 10
-925.17761524944228
 20
-1365.4873425829369
 30
0.0
 40
1.499999999999976
 50
204.59406822685611
 51
285.0000000000008
  0
ARC
  5
46F
  8
DATA
  6
CONTINUOUS
 62
     7
 10
-917.72566803100142
 20
-1362.9729612535109
 30
0.0
 40
0.5000000000000595
 50
15.000000000019609
 51
104.9999999999944
  0
ARC
  5
470
  8
DATA
  6
CONTINUOUS
 62
     7
 10
-917.33743946334755
 20
-1364.421849992945
 30
0.0
 40
0.5000000000000301
 50
285.00000000000688
 51
15.000000000019609
  0
LINE
  5
471
  8
DATA
  6
CONTINUOUS
 62
     7
 10
-919.26780987975815
 20
-1376.4998828813809
 30
0.0
 11
-913.71787155504694
 21
-1370.9499445566701
 31
0.0
  0
LINE
  5
472
  8
DATA
  6
CONTINUOUS
 62
     7
 10
-917.50004292679171
 20
-1378.267649834348
 30
0.0
 11
-911.95010460208084
 21
-1372.717711509636
 31
0.0
  0
LINE
  5
473
  8
DATA
  6
CONTINUOUS
 62
     7
 10
-913.01076477386061
 20
-1370.9499445566701
 30
0.0
 11
-911.95010460208084
 21
-1372.0106047284501
 31
0.0
  0
ARC
  5
474
  8
DATA
  6
CONTINUOUS
 62
     7
 10
-918.20714970797872
 20
-1377.5605430531609
 30
0.0
 40
1.4999999999997711
 50
134.9999999999938
 51
215.40593177314801
  0
ARC
  5
475
  8
DATA
  6
CONTINUOUS
 62
     7
 10
-918.56070309857159
 20
-1377.206989662568
 30
0.0
 40
1.4999999999997671
 50
234.5940682268604
 51
315.00000000000301
  0
ARC
  5
476
  8
DATA
  6
CONTINUOUS
 62
     7
 10
-913.36431816445361
 20
-1371.3034979472629
 30
0.0
 40
0.4999999999999237
 50
45.000000000018417
 51
135.0
  0
ARC
  5
477
  8
DATA
  6
CONTINUOUS
 62
     7
 10
-912.30365799267383
 20
-1372.3641581190429
 30
0.0
 40
0.4999999999998432
 50
315.00000000000921
 51
45.000000000018403
  0
LINE
  5
478
  8
DATA
  6
CONTINUOUS
 62
     7
 10
-907.93639136778108
 20
-1383.7892266363781
 30
0.0
 11
-905.9049729515001
 21
-1376.207869895386
 31
0.0
  0
LINE
  5
479
  8
DATA
  6
CONTINUOUS
 62
     7
 10
-905.52157680205835
 20
-1384.4362742491339
 30
0.0
 11
-903.49015838577725
 21
-1376.8549175081421
 31
0.0
  0
LINE
  5
47A
  8
DATA
  6
CONTINUOUS
 62
     7
 10
-905.292600515804
 20
-1375.854316504792
 30
0.0
 11
-903.84371177637058
 21
-1376.2425450724461
 31
0.0
  0
ARC
  5
47B
  8
DATA
  6
CONTINUOUS
 62
     7
 10
-906.48750262834733
 20
-1384.177455204032
 30
0.0
 40
1.50000000000006
 50
164.9999999999971
 51
245.40593177313849
  0
ARC
  5
47C
  8
DATA
  6
CONTINUOUS
 62
     7
 10
-906.97046554149142
 20
-1384.048045681481
 30
0.0
 40
1.4999999999996489
 50
264.59406822685531
 51
345.0000000000033
  0
ARC
  5
47D
  8
DATA
  6
CONTINUOUS
 62
     7
 10
-905.42201003835544
 20
-1376.337279417937
 30
0.0
 40
0.5000000000000301
 50
74.999999999992951
 51
165.00000000000551
  0
ARC
  5
47E
  8
DATA
  6
CONTINUOUS
 62
     7
 10
-903.9731212989218
 20
-1376.7255079855911
 30
0.0
 40
0.5000000000000006
 50
345.00000000000563
 51
75.000000000005585
  0
ARC
  5
47F
  8
DATA
  6
CONTINUOUS
 62
     7
 10
550.0
 20
1455.509830284921
 30
0.0
 40
867.32149644747585
 50
253.24715896710291
 51
286.75284103289709
  0
ARC
  5
480
  8
DATA
  6
CONTINUOUS
 62
     7
 10
1050.0
 20
-205.50983028492149
 30
0.0
 40
867.32149644747585
 50
73.247158967103005
 51
106.752841032897
  0
ARC
  5
481
  8
DATA
  6
CONTINUOUS
 62
     7
 10
550.0
 20
155.50983028492141
 30
0.0
 40
867.32149644747585
 50
253.24715896710291
 51
286.75284103289709
  0
ARC
  5
482
  8
DATA
  6
CONTINUOUS
 62
     7
 10
1050.0
 20
-1505.509830284921
 30
0.0
 40
867.32149644747585
 50
73.247158967103005
 51
106.752841032897
  0
TEXT
  5
483
  8
DATA
 62
     7
 10
957.66343586399205
 20
-9.5225550021490264
 30
0.0
 40
19.953304036458331
  1
CH1/MIX/CH2
 41
0.7
 72
     1
 11
1027.499999991596
 21
0.4540970160801409
 31
0.0
 73
     2
  0
TEXT
  5
484
  8
DATA
 62
     7
 10
957.66343586399205
 20
-128.52255500214901
 30
0.0
 40
19.953304036458331
  1
CH1/MIX/CH2
 41
0.7
 72
     1
 11
1027.499999991596
 21
-118.5459029839198
 31
0.0
 73
     2
  0
CIRCLE
  5
485
  8
DATA
  6
CONTINUOUS
 62
     7
 10
799.99999999965598
 20
5.9999999994548707
 30
0.0
 40
45.499999999995673
  0
LINE
  5
486
  8
DATA
  6
CONTINUOUS
 62
     7
 10
826.74422897896795
 20
-30.81027324461116
 30
0.0
 11
841.14496766012769
 21
-50.631189606794919
 31
0.0
  0
LINE
  5
487
  8
DATA
  6
CONTINUOUS
 62
     7
 10
843.27307149109026
 20
20.060273243516122
 30
0.0
 11
866.57395614031316
 21
27.631189605701479
 31
0.0
  0
LINE
  5
488
  8
DATA
  6
CONTINUOUS
 62
     7
 10
799.99999999965598
 20
51.499999999454872
 30
0.0
 11
799.99999999965598
 21
75.999999999454843
 31
0.0
  0
LINE
  5
489
  8
DATA
  6
CONTINUOUS
 62
     7
 10
756.72692850822204
 20
20.060273243516122
 30
0.0
 11
733.42604385899904
 21
27.631189605701479
 31
0.0
  0
LINE
  5
48A
  8
DATA
  6
CONTINUOUS
 62
     7
 10
773.25577102410705
 20
-30.810273239410549
 30
0.0
 11
758.85503233918462
 21
-50.631189606788553
 31
0.0
  0
LINE
  5
48B
  8
DATA
  6
CONTINUOUS
 62
     7
 10
782.4668999396871
 20
-24.086797591329969
 30
0.0
 11
778.23044690242921
 21
-29.917774958733158
 31
0.0
  0
LINE
  5
48C
  8
DATA
  6
CONTINUOUS
 62
     7
 10
797.16844051968644
 20
8.0572483830218289
 30
0.0
 11
796.96061622940215
 21
7.7712027872437366
 31
0.0
  0
LINE
  5
48D
  8
DATA
  6
CONTINUOUS
 62
     7
 10
776.80378097906032
 20
-19.972300825286311
 30
0.0
 11
772.5673279418088
 21
-25.803278192684729
 31
0.0
  0
LINE
  5
48E
  8
DATA
  6
CONTINUOUS
 62
     7
 10
755.19124723759865
 20
13.900992083300251
 30
0.0
 11
744.85076583097259
 21
15.72429794880315
 31
0.0
  0
LINE
  5
48F
  8
DATA
  6
CONTINUOUS
 62
     7
 10
754.52771737028797
 20
7.5879270994191739
 30
0.0
 11
744.03411368658908
 21
7.9543718147945111
 31
0.0
  0
LINE
  5
490
  8
DATA
  6
CONTINUOUS
 62
     7
 10
754.7492537603938
 20
1.2439549207772409
 30
0.0
 11
744.30677385903243
 21
0.146406056466958
 31
0.0
  0
LINE
  5
491
  8
DATA
  6
CONTINUOUS
 62
     7
 10
755.85154445409705
 20
-5.0074462503298491
 30
0.0
 11
745.66343932820394
 21
-7.5476261541252807
 31
0.0
  0
LINE
  5
492
  8
DATA
  6
CONTINUOUS
 62
     7
 10
757.81313461686295
 20
-11.044600000971281
 30
0.0
 11
748.07770414392155
 21
-14.977969231835001
 31
0.0
  0
LINE
  5
493
  8
DATA
  6
CONTINUOUS
 62
     7
 10
760.59584412746779
 20
-16.750000000542741
 30
0.0
 11
751.50257738772859
 21
-22.000000000544329
 31
0.0
  0
LINE
  5
494
  8
DATA
  6
CONTINUOUS
 62
     7
 10
764.14551071055212
 20
-22.0125971278602
 30
0.0
 11
755.87139779768574
 21
-28.477042618780839
 31
0.0
  0
LINE
  5
495
  8
DATA
  6
CONTINUOUS
 62
     7
 10
768.39304414376784
 20
-26.72996091595337
 30
0.0
 11
761.09913125395701
 21
-34.283028819508452
 31
0.0
  0
LINE
  5
496
  8
DATA
  6
CONTINUOUS
 62
     7
 10
831.60695585553822
 20
-26.729960915950191
 30
0.0
 11
838.90086874536144
 21
-34.283028819510832
 31
0.0
  0
LINE
  5
497
  8
DATA
  6
CONTINUOUS
 62
     7
 10
835.85448928876042
 20
-22.012597127859411
 30
0.0
 11
844.12860220163293
 21
-28.47704261878005
 31
0.0
  0
LINE
  5
498
  8
DATA
  6
CONTINUOUS
 62
     7
 10
839.40415587185089
 20
-16.750000000548312
 30
0.0
 11
848.49742261158997
 21
-22.000000000545128
 31
0.0
  0
LINE
  5
499
  8
DATA
  6
CONTINUOUS
 62
     7
 10
842.18686538244935
 20
-11.04460000097049
 30
0.0
 11
851.92229585540349
 21
-14.97796923183739
 31
0.0
  0
LINE
  5
49A
  8
DATA
  6
CONTINUOUS
 62
     7
 10
844.14845554521526
 20
-5.0074462503338282
 30
0.0
 11
854.3365606711086
 21
-7.5476261541260783
 31
0.0
  0
LINE
  5
49B
  8
DATA
  6
CONTINUOUS
 62
     7
 10
845.25074623891226
 20
1.243954920774853
 30
0.0
 11
855.69322614027988
 21
0.1464060564677538
 31
0.0
  0
LINE
  5
49C
  8
DATA
  6
CONTINUOUS
 62
     7
 10
845.47228262902433
 20
7.5879270994215631
 30
0.0
 11
855.96588631272982
 21
7.9543718147953077
 31
0.0
  0
LINE
  5
49D
  8
DATA
  6
CONTINUOUS
 62
     7
 10
844.80875276171344
 20
13.900992083301039
 30
0.0
 11
855.14923416833312
 21
15.72429794880156
 31
0.0
  0
LINE
  5
49E
  8
DATA
  6
CONTINUOUS
 62
     7
 10
840.89512910627116
 20
25.945887178357339
 30
0.0
 11
850.33246659240842
 21
30.548784219641789
 31
0.0
  0
LINE
  5
49F
  8
DATA
  6
CONTINUOUS
 62
     7
 10
837.72120955091384
 20
31.44327710737684
 30
0.0
 11
846.42610406273411
 21
37.314802593814981
 31
0.0
  0
LINE
  5
4A0
  8
DATA
  6
CONTINUOUS
 62
     7
 10
833.81308955888562
 20
36.445442588783521
 30
0.0
 11
841.61611022639204
 21
43.471313955551189
 31
0.0
  0
LINE
  5
4A1
  8
DATA
  6
CONTINUOUS
 62
     7
 10
829.24683624039733
 20
40.855022161366477
 30
0.0
 11
835.99610614210553
 21
48.898488814120462
 31
0.0
  0
LINE
  5
4A2
  8
DATA
  6
CONTINUOUS
 62
     7
 10
824.11132652227377
 20
44.586188374572998
 30
0.0
 11
829.67547879671361
 21
53.490693384212712
 31
0.0
  0
LINE
  5
4A3
  8
DATA
  6
CONTINUOUS
 62
     7
 10
818.50651725960665
 20
47.566318322187378
 30
0.0
 11
822.77725201189867
 21
57.158545627441192
 31
0.0
  0
LINE
  5
4A4
  8
DATA
  6
CONTINUOUS
 62
     7
 10
812.54149968932666
 20
49.737407164647848
 30
0.0
 11
815.43569192540963
 21
59.830654971998342
 31
0.0
  0
LINE
  5
4A5
  8
DATA
  6
CONTINUOUS
 62
     7
 10
806.33237609333889
 20
51.057197127195302
 30
0.0
 11
807.79369365342052
 21
61.45501184897568
 31
0.0
  0
LINE
  5
4A6
  8
DATA
  6
CONTINUOUS
 62
     7
 10
793.66762390597978
 20
51.05719712715711
 30
0.0
 11
792.2063063458919
 21
61.455011848982039
 31
0.0
  0
LINE
  5
4A7
  8
DATA
  6
CONTINUOUS
 62
     7
 10
787.45850030997894
 20
49.737407164654989
 30
0.0
 11
784.56430807390291
 21
59.830654971995152
 31
0.0
  0
LINE
  5
4A8
  8
DATA
  6
CONTINUOUS
 62
     7
 10
781.49348273970554
 20
47.566318322196942
 30
0.0
 11
777.22274798740716
 21
57.158545627438002
 31
0.0
  0
LINE
  5
4A9
  8
DATA
  6
CONTINUOUS
 62
     7
 10
775.88867347705127
 20
44.586188374572998
 30
0.0
 11
770.32452120259211
 21
53.490693384219071
 31
0.0
  0
LINE
  5
4AA
  8
DATA
  6
CONTINUOUS
 62
     7
 10
770.7531637589218
 20
40.855022161369682
 30
0.0
 11
764.003893857207
 21
48.898488814117293
 31
0.0
  0
LINE
  5
4AB
  8
DATA
  6
CONTINUOUS
 62
     7
 10
766.18691044043942
 20
36.445442588783521
 30
0.0
 11
758.38388977292004
 21
43.471313955551189
 31
0.0
  0
LINE
  5
4AC
  8
DATA
  6
CONTINUOUS
 62
     7
 10
762.27879044839847
 20
31.443277107371269
 30
0.0
 11
753.5738959365716
 21
37.314802593814981
 31
0.0
  0
LINE
  5
4AD
  8
DATA
  6
CONTINUOUS
 62
     7
 10
759.10487089304104
 20
25.945887178357339
 30
0.0
 11
749.66753340691025
 21
30.548784219638609
 31
0.0
  0
ARC
  5
4AE
  8
DATA
  6
CONTINUOUS
 62
     7
 10
804.39019545689735
 20
47.769919604921029
 30
0.0
 40
3.4999999999931952
 50
351.61198453548019
 51
176.3880154644585
  0
ARC
  5
4AF
  8
DATA
  6
CONTINUOUS
 62
     7
 10
799.99999999963075
 20
5.9999999994214468
 30
0.0
 40
41.999999999958469
 50
238.78019184717579
 51
229.21980815277169
  0
ARC
  5
4B0
  8
DATA
  6
CONTINUOUS
 62
     7
 10
800.0
 20
6.0
 30
0.0
 40
35.000000000646061
 50
239.73026269141289
 51
228.2608295228718
  0
ARC
  5
4B1
  8
DATA
  6
CONTINUOUS
 62
     7
 10
789.71375808455753
 20
-8.1577974020455031
 30
0.0
 40
17.500000000062521
 50
245.5369590327596
 51
222.46304096722321
  0
ARC
  5
4B2
  8
DATA
  6
CONTINUOUS
 62
     7
 10
782.91706099045041
 20
44.36890922044779
 30
0.0
 40
3.5000000000033138
 50
21.61198453550028
 51
206.3880154644242
  0
ARC
  5
4B3
  8
DATA
  6
CONTINUOUS
 62
     7
 10
766.02128623586941
 20
30.686980595737509
 30
0.0
 40
3.4999999999979221
 50
51.61198453557666
 51
236.3880154644402
  0
ARC
  5
4B4
  8
DATA
  6
CONTINUOUS
 62
     7
 10
758.23008039413423
 20
10.390195456681679
 30
0.0
 40
3.4999999999963181
 50
81.611984535579936
 51
266.3880154644159
  0
ARC
  5
4B5
  8
DATA
  6
CONTINUOUS
 62
     7
 10
761.63109077860918
 20
-11.08293900976207
 30
0.0
 40
3.5000000000007869
 50
111.6119845355727
 51
296.38801546445779
  0
ARC
  5
4B6
  8
DATA
  6
CONTINUOUS
 62
     7
 10
775.31301940331446
 20
-27.978713764344661
 30
0.0
 40
3.499999999997967
 50
144.00000000007719
 51
324.00000000003632
  0
ARC
  5
4B7
  8
DATA
  6
CONTINUOUS
 62
     7
 10
795.60980454237699
 20
-35.769919606078133
 30
0.0
 40
3.4999999999993769
 50
171.6119845355083
 51
356.3880154644516
  0
ARC
  5
4B8
  8
DATA
  6
CONTINUOUS
 62
     7
 10
817.08293900881119
 20
-32.368909221602507
 30
0.0
 40
3.5000000000044862
 50
201.6119845355488
 51
26.388015464390971
  0
ARC
  5
4B9
  8
DATA
  6
CONTINUOUS
 62
     7
 10
833.97871376339845
 20
-18.68698059689541
 30
0.0
 40
3.4999999999987561
 50
231.6119845354545
 51
56.38801546443819
  0
ARC
  5
4BA
  8
DATA
  6
CONTINUOUS
 62
     7
 10
841.76991960512703
 20
1.6098045421620091
 30
0.0
 40
3.5000000000002549
 50
261.61198453558939
 51
86.388015464419922
  0
ARC
  5
4BB
  8
DATA
  6
CONTINUOUS
 62
     7
 10
838.36890922065845
 20
23.082939008604178
 30
0.0
 40
3.4999999999977018
 50
291.61198453548059
 51
116.38801546445011
  0
ARC
  5
4BC
  8
DATA
  6
CONTINUOUS
 62
     7
 10
824.68698059594681
 20
39.978713763187571
 30
0.0
 40
3.5000000000060059
 50
321.61198453559842
 51
146.3880154644398
  0
TEXT
  5
4BD
  8
DATA
 62
     7
 10
428.56952983303239
 20
-306.01616951822962
 30
0.0
 40
19.953304036458331
  1
+4
 41
0.7
 72
     1
 11
440.20895718763308
 21
-296.03951750000039
 31
0.0
 73
     2
  0
TEXT
  5
4BE
  8
DATA
 62
     7
 10
421.58587342027198
 20
-331.94533618489629
 30
0.0
 40
19.953304036458331
  1
dBu
 41
0.7
 72
     1
 11
440.20895718763308
 21
-321.96868416666712
 31
0.0
 73
     2
  0
TEXT
  5
4BF
  8
DATA
 62
     7
 10
830.03654372543224
 20
-106.51206868489579
 30
0.0
 40
19.953304036458331
  1
Ground
 41
0.7
 72
     1
 11
869.61059673107457
 21
-96.535416666666677
 31
0.0
 73
     2
  0
TEXT
  5
4C0
  8
DATA
 62
     7
 10
848.65962749279333
 20
-132.44123535156251
 30
0.0
 40
19.953304036458331
  1
Lift
 41
0.7
 72
     1
 11
869.61059673107457
 21
-122.46458333333329
 31
0.0
 73
     2
  0
TEXT
  5
4C1
  8
DATA
 62
     7
 10
438.02893162422328
 20
-115.9766520182291
 30
0.0
 40
19.953304036458331
  1
Mic/Line
 41
0.7
 72
     1
 11
482.25875557170588
 21
-106.0
 31
0.0
 73
     2
  0
LINE
  5
4C2
  8
DATA
  6
CONTINUOUS
 62
     7
 10
914.79999999580195
 20
-456.00205041666692
 30
0.0
 11
914.79999999580195
 21
-135.4291666666665
 31
0.0
  0
LINE
  5
4C3
  8
DATA
  6
CONTINUOUS
 62
     7
 10
914.79999999580195
 20
-83.570833333333439
 30
0.0
 11
914.79999999580195
 21
149.5
 31
0.0
  0
LINE
  5
4C4
  8
DATA
  6
CONTINUOUS
 62
     7
 10
800.00895718343509
 20
-596.0
 30
0.0
 11
695.00014335092055
 21
-596.0
 31
0.0
  0
LINE
  5
4C5
  8
DATA
  6
CONTINUOUS
 62
     7
 10
835.0089571834352
 20
-526.00205041666675
 30
0.0
 11
835.0089571834352
 21
-561.0
 31
0.0
  0
LINE
  5
4C6
  8
DATA
  6
CONTINUOUS
 62
     7
 10
870.0089571834352
 20
-491.0020504166668
 30
0.0
 11
879.79999999580195
 21
-491.0020504166668
 31
0.0
  0
LINE
  5
4C7
  8
DATA
  6
CONTINUOUS
 62
     7
 10
879.79999999580195
 20
184.5
 30
0.0
 11
754.5000001000999
 21
184.5
 31
0.0
  0
ARC
  5
4C8
  8
DATA
  6
CONTINUOUS
 62
     7
 10
879.79999999580195
 20
149.5
 30
0.0
 40
35.0
 50
0.0
 51
90.0
  0
ARC
  5
4C9
  8
DATA
  6
CONTINUOUS
 62
     7
 10
879.79999999580195
 20
-456.00205041666692
 30
0.0
 40
35.0
 50
270.0
 51
0.0
  0
ARC
  5
4CA
  8
DATA
  6
CONTINUOUS
 62
     7
 10
870.0089571834352
 20
-526.00205041666675
 30
0.0
 40
35.0
 50
90.0
 51
180.0
  0
ARC
  5
4CB
  8
DATA
  6
CONTINUOUS
 62
     7
 10
800.00895718343509
 20
-561.0
 30
0.0
 40
35.0
 50
270.0
 51
0.0
  0
LINE
  5
4CC
  8
DATA
  6
CONTINUOUS
 62
     7
 10
327.5
 20
-682.78625595185031
 30
0.0
 11
327.5
 21
617.21374404814958
 31
0.0
  0
LINE
  5
4CD
  8
DATA
  6
CONTINUOUS
 62
     7
 10
1272.5
 20
632.78625595185031
 30
0.0
 11
1272.5
 21
-667.21374404814958
 31
0.0
  0
TEXT
  5
4CE
  8
DATA
 62
     7
 10
542.6355819905823
 20
-488.0141191015627
 30
0.0
 40
19.953304036458331
  1
-10
 41
0.7
 72
     1
 11
557.76683755156307
 21
-478.03746708333352
 31
0.0
 73
     2
  0
TEXT
  5
4CF
  8
DATA
 62
     7
 10
539.14375378420209
 20
-513.94328576822932
 30
0.0
 40
19.953304036458331
  1
dBv
 41
0.7
 72
     1
 11
557.76683755156307
 21
-503.96663375000009
 31
0.0
 73
     2
  0
CIRCLE
  5
4D0
  8
DATA
  6
CONTINUOUS
 62
     7
 10
995.99999999474107
 20
-309.0
 30
0.0
 40
11.54999999885149
  0
CIRCLE
  5
4D1
  8
DATA
  6
CONTINUOUS
 62
     7
 10
1058.999999988451
 20
-309.0
 30
0.0
 40
11.54999999883875
  0
CIRCLE
  5
4D2
  8
DATA
  6
CONTINUOUS
 62
     7
 10
1027.499999991596
 20
-309.0
 30
0.0
 40
83.999999991600006
  0
CIRCLE
  5
4D3
  8
DATA
  6
CONTINUOUS
 62
     7
 10
1093.9820858182791
 20
-392.9999999915994
 30
0.0
 40
17.5
  0
LINE
  5
4D4
  8
DATA
  6
CONTINUOUS
 62
     7
 10
1083.464171651608
 20
-392.9999999915994
 30
0.0
 11
1104.4641716516089
 21
-392.9999999915994
 31
0.0
  0
LINE
  5
4D5
  8
DATA
  6
CONTINUOUS
 62
     7
 10
1093.9820858182791
 20
-382.49179832493508
 30
0.0
 11
1093.9820858182791
 21
-403.49179832493508
 31
0.0
  0
CIRCLE
  5
4D6
  8
DATA
  6
CONTINUOUS
 62
     7
 10
961.01791416491324
 20
-225.0000000084006
 30
0.0
 40
17.5
  0
LINE
  5
4D7
  8
DATA
  6
CONTINUOUS
 62
     7
 10
950.49999999824286
 20
-225.0000000084006
 30
0.0
 11
971.49999999824286
 21
-225.0000000084006
 31
0.0
  0
LINE
  5
4D8
  8
DATA
  6
CONTINUOUS
 62
     7
 10
961.01791416491324
 20
-214.4917983417331
 30
0.0
 11
961.01791416491324
 21
-235.4917983417331
 31
0.0
  0
CIRCLE
  5
4D9
  8
DATA
  6
CONTINUOUS
 62
     7
 10
1027.499999991596
 20
-309.0
 30
0.0
 40
68.250000109771037
  0
CIRCLE
  5
4DA
  8
DATA
  6
CONTINUOUS
 62
     7
 10
1027.499999991596
 20
-281.35000000276432
 30
0.0
 40
11.54999999883875
  0
CIRCLE
  5
4DB
  8
DATA
  6
CONTINUOUS
 62
     7
 10
800.0
 20
-309.0
 30
0.0
 40
55.299998966631897
  0
CIRCLE
  5
4DC
  8
DATA
  6
CONTINUOUS
 62
     7
 10
800.0
 20
-309.0
 30
0.0
 40
68.249999993176274
  0
CIRCLE
  5
4DD
  8
DATA
  6
CONTINUOUS
 62
     7
 10
800.0
 20
-309.0
 30
0.0
 40
83.999999991601456
  0
LINE
  5
4DE
  8
DATA
  6
CONTINUOUS
 62
     7
 10
816.79999999831659
 20
-256.31366401575411
 30
0.0
 11
816.79999999831659
 21
-256.3136650945799
 31
0.0
  0
LINE
  5
4DF
  8
DATA
  6
CONTINUOUS
 62
     7
 10
780.05000000199004
 20
-257.4239650051581
 30
0.0
 11
780.05000000199004
 21
-257.4239661072088
 31
0.0
  0
ARC
  5
4E0
  8
DATA
  6
CONTINUOUS
 62
     7
 10
768.50000000314503
 20
-309.0
 30
0.0
 40
13.999999998600661
 50
32.089183874050867
 51
327.91081612594922
  0
ARC
  5
4E1
  8
DATA
  6
CONTINUOUS
 62
     7
 10
831.4999999968486
 20
-309.0
 30
0.0
 40
13.999999998600661
 50
212.0891838740508
 51
147.91081612594911
  0
ARC
  5
4E2
  8
DATA
  6
CONTINUOUS
 62
     7
 10
800.0
 20
-336.64999999723892
 30
0.0
 40
13.999999998605389
 50
137.8522840898888
 51
42.147715910128291
  0
ARC
  5
4E3
  8
DATA
  6
CONTINUOUS
 62
     7
 10
761.88694367047162
 20
-270.88694600381228
 30
0.0
 40
5.5999999994449752
 50
56.612913999968789
 51
213.38708600002229
  0
ARC
  5
4E4
  8
DATA
  6
CONTINUOUS
 62
     7
 10
800.0
 20
-309.0
 30
0.0
 40
20.999999999998209
 50
20.741916485081301
 51
159.258083514925
  0
ARC
  5
4E5
  8
DATA
  6
CONTINUOUS
 62
     7
 10
800.0
 20
-309.0
 30
0.0
 40
21.00000000000416
 50
200.74191648507511
 51
240.3778367991915
  0
ARC
  5
4E6
  8
DATA
  6
CONTINUOUS
 62
     7
 10
800.0
 20
-309.0
 30
0.0
 40
20.999999999997499
 50
299.6221632007933
 51
339.25808351491889
  0
CIRCLE
  5
4E7
  8
DATA
  6
CONTINUOUS
 62
     7
 10
866.49999999334705
 20
-392.9999999915994
 30
0.0
 40
17.5
  0
LINE
  5
4E8
  8
DATA
  6
CONTINUOUS
 62
     7
 10
855.98208582668303
 20
-392.9999999915994
 30
0.0
 11
876.98208582668315
 21
-392.9999999915994
 31
0.0
  0
LINE
  5
4E9
  8
DATA
  6
CONTINUOUS
 62
     7
 10
866.49999999334705
 20
-382.49179832493508
 30
0.0
 11
866.49999999334705
 21
-403.49179832493508
 31
0.0
  0
CIRCLE
  5
4EA
  8
DATA
  6
CONTINUOUS
 62
     7
 10
733.48208583998235
 20
-224.9917983417331
 30
0.0
 40
17.5
  0
LINE
  5
4EB
  8
DATA
  6
CONTINUOUS
 62
     7
 10
722.96417167331845
 20
-224.9917983417331
 30
0.0
 11
743.96417167331845
 21
-224.9917983417331
 31
0.0
  0
LINE
  5
4EC
  8
DATA
  6
CONTINUOUS
 62
     7
 10
733.48208583998235
 20
-214.4835966750689
 30
0.0
 11
733.48208583998235
 21
-235.4835966750689
 31
0.0
  0
LINE
  5
4ED
  8
DATA
  6
CONTINUOUS
 62
     7
 10
783.20000000167693
 20
-242.850000006616
 30
0.0
 11
783.20000000167693
 21
-227.07382897639329
 31
0.0
  0
LINE
  5
4EE
  8
DATA
  6
CONTINUOUS
 62
     7
 10
816.79999999831659
 20
-242.85000000661441
 30
0.0
 11
816.79999999831659
 21
-227.07382897639329
 31
0.0
  0
CIRCLE
  5
4EF
  8
DATA
  6
CONTINUOUS
 62
     7
 10
555.00895708333508
 20
-309.00410083333372
 30
0.0
 40
55.299998966631897
  0
CIRCLE
  5
4F0
  8
DATA
  6
CONTINUOUS
 62
     7
 10
555.00895708333508
 20
-309.00410083333372
 30
0.0
 40
68.249999993176274
  0
CIRCLE
  5
4F1
  8
DATA
  6
CONTINUOUS
 62
     7
 10
555.00895708333508
 20
-309.00410083333372
 30
0.0
 40
83.999999991601456
  0
LINE
  5
4F2
  8
DATA
  6
CONTINUOUS
 62
     7
 10
571.80895708165167
 20
-256.31776484908778
 30
0.0
 11
571.80895708165167
 21
-256.31776592791363
 31
0.0
  0
LINE
  5
4F3
  8
DATA
  6
CONTINUOUS
 62
     7
 10
535.05895708532535
 20
-257.42806583849188
 30
0.0
 11
535.05895708532535
 21
-257.42806694054252
 31
0.0
  0
ARC
  5
4F4
  8
DATA
  6
CONTINUOUS
 62
     7
 10
523.50895708648011
 20
-309.00410083333372
 30
0.0
 40
13.999999998600661
 50
32.089183874050867
 51
327.91081612594922
  0
ARC
  5
4F5
  8
DATA
  6
CONTINUOUS
 62
     7
 10
586.50895708018368
 20
-309.00410083333372
 30
0.0
 40
13.999999998600661
 50
212.0891838740508
 51
147.91081612594911
  0
ARC
  5
4F6
  8
DATA
  6
CONTINUOUS
 62
     7
 10
555.00895708333508
 20
-336.65410083057247
 30
0.0
 40
13.999999998605389
 50
137.8522840898888
 51
42.14771591012893
  0
ARC
  5
4F7
  8
DATA
  6
CONTINUOUS
 62
     7
 10
516.89590075380681
 20
-270.89104683714601
 30
0.0
 40
5.5999999994449752
 50
56.612913999968789
 51
213.38708600002229
  0
ARC
  5
4F8
  8
DATA
  6
CONTINUOUS
 62
     7
 10
555.00895708333508
 20
-309.00410083333372
 30
0.0
 40
20.999999999998209
 50
20.741916485081301
 51
159.258083514925
  0
ARC
  5
4F9
  8
DATA
  6
CONTINUOUS
 62
     7
 10
555.00895708333508
 20
-309.00410083333372
 30
0.0
 40
21.00000000000416
 50
200.74191648507511
 51
240.3778367991915
  0
ARC
  5
4FA
  8
DATA
  6
CONTINUOUS
 62
     7
 10
555.00895708333508
 20
-309.00410083333372
 30
0.0
 40
20.999999999997499
 50
299.6221632007933
 51
339.25808351491872
  0
CIRCLE
  5
4FB
  8
DATA
  6
CONTINUOUS
 62
     7
 10
621.50895707668224
 20
-393.00410082493318
 30
0.0
 40
17.5
  0
LINE
  5
4FC
  8
DATA
  6
CONTINUOUS
 62
     7
 10
610.99104291001822
 20
-393.00410082493318
 30
0.0
 11
631.99104291001822
 21
-393.00410082493318
 31
0.0
  0
LINE
  5
4FD
  8
DATA
  6
CONTINUOUS
 62
     7
 10
621.50895707668224
 20
-382.49589915826891
 30
0.0
 11
621.50895707668224
 21
-403.49589915826891
 31
0.0
  0
CIRCLE
  5
4FE
  8
DATA
  6
CONTINUOUS
 62
     7
 10
488.49104292331771
 20
-224.9958991750668
 30
0.0
 40
17.5
  0
LINE
  5
4FF
  8
DATA
  6
CONTINUOUS
 62
     7
 10
477.97312875665369
 20
-224.9958991750668
 30
0.0
 11
498.97312875665369
 21
-224.9958991750668
 31
0.0
  0
LINE
  5
500
  8
DATA
  6
CONTINUOUS
 62
     7
 10
488.49104292331771
 20
-214.4876975084025
 30
0.0
 11
488.49104292331771
 21
-235.4876975084025
 31
0.0
  0
LINE
  5
501
  8
DATA
  6
CONTINUOUS
 62
     7
 10
538.20895708501189
 20
-242.85410083994969
 30
0.0
 11
538.20895708501189
 21
-227.07792980972701
 31
0.0
  0
LINE
  5
502
  8
DATA
  6
CONTINUOUS
 62
     7
 10
571.80895708165167
 20
-242.85410083994819
 30
0.0
 11
571.80895708165167
 21
-227.07792980972701
 31
0.0
  0
CIRCLE
  5
503
  8
DATA
  6
CONTINUOUS
 62
     7
 10
730.00881383250805
 20
-491.0020504166668
 30
0.0
 40
12.25
  0
CIRCLE
  5
504
  8
DATA
  6
CONTINUOUS
 62
     7
 10
730.00881383250805
 20
-491.0020504166668
 30
0.0
 40
21.0
  0
CIRCLE
  5
505
  8
DATA
  6
CONTINUOUS
 62
     7
 10
730.00881383250805
 20
-491.0020504166668
 30
0.0
 40
27.99999999999882
  0
CIRCLE
  5
506
  8
DATA
  6
CONTINUOUS
 62
     7
 10
730.00881383250805
 20
-491.0020504166668
 30
0.0
 40
35.000000000003517
  0
CIRCLE
  5
507
  8
DATA
  6
CONTINUOUS
 62
     7
 10
625.00881383250805
 20
-491.0020504166668
 30
0.0
 40
12.25
  0
CIRCLE
  5
508
  8
DATA
  6
CONTINUOUS
 62
     7
 10
625.00881383250805
 20
-491.0020504166668
 30
0.0
 40
21.0
  0
CIRCLE
  5
509
  8
DATA
  6
CONTINUOUS
 62
     7
 10
625.00881383250805
 20
-491.0020504166668
 30
0.0
 40
27.99999999999882
  0
CIRCLE
  5
50A
  8
DATA
  6
CONTINUOUS
 62
     7
 10
625.00881383250805
 20
-491.0020504166668
 30
0.0
 40
34.999999999997513
  0
CIRCLE
  5
50B
  8
DATA
  6
CONTINUOUS
 62
     7
 10
555.00895708333508
 20
-106.0
 30
0.0
 40
17.50000000000005
  0
CIRCLE
  5
50C
  8
DATA
  6
CONTINUOUS
 62
     7
 10
800.0
 20
-106.0
 30
0.0
 40
17.50000000000005
  0
CIRCLE
  5
50D
  8
DATA
  6
CONTINUOUS
 62
     7
 10
555.00895708333508
 20
104.0
 30
0.0
 40
10.5
  0
CIRCLE
  5
50E
  8
DATA
  6
CONTINUOUS
 62
     7
 10
677.50447854166748
 20
104.0
 30
0.0
 40
10.5
  0
CIRCLE
  5
50F
  8
DATA
  6
CONTINUOUS
 62
     7
 10
800.0
 20
104.0
 30
0.0
 40
10.49999999999892
  0
CIRCLE
  5
510
  8
DATA
  6
CONTINUOUS
 62
     7
 10
649.5
 20
-106.0
 30
0.0
 40
10.50000000000224
  0
CIRCLE
  5
511
  8
DATA
  6
CONTINUOUS
 62
     7
 10
555.00895708333508
 20
279.0
 30
0.0
 40
27.999999999999989
  0
CIRCLE
  5
512
  8
DATA
  6
CONTINUOUS
 62
     7
 10
555.00895708333508
 20
370.0
 30
0.0
 40
14.004100833331901
  0
LINE
  5
513
  8
DATA
  6
CONTINUOUS
 62
     7
 10
988.99999999159616
 20
20.0
 30
0.0
 11
988.99999999159616
 21
55.0
 31
0.0
  0
LINE
  5
514
  8
DATA
  6
CONTINUOUS
 62
     7
 10
1065.999999991596
 20
20.0
 30
0.0
 11
988.99999999159616
 21
20.0
 31
0.0
  0
LINE
  5
515
  8
DATA
  6
CONTINUOUS
 62
     7
 10
1065.999999991596
 20
55.0
 30
0.0
 11
1065.999999991596
 21
20.0
 31
0.0
  0
LINE
  5
516
  8
DATA
  6
CONTINUOUS
 62
     7
 10
988.99999999159616
 20
55.0
 30
0.0
 11
1065.999999991596
 21
55.0
 31
0.0
  0
LINE
  5
517
  8
DATA
  6
CONTINUOUS
 62
     7
 10
1009.999999991596
 20
23.5
 30
0.0
 11
1009.999999991596
 21
51.5
 31
0.0
  0
LINE
  5
518
  8
DATA
  6
CONTINUOUS
 62
     7
 10
1044.999999991596
 20
23.5
 30
0.0
 11
1009.999999991596
 21
23.5
 31
0.0
  0
LINE
  5
519
  8
DATA
  6
CONTINUOUS
 62
     7
 10
1044.999999991596
 20
51.5
 30
0.0
 11
1044.999999991596
 21
23.5
 31
0.0
  0
LINE
  5
51A
  8
DATA
  6
CONTINUOUS
 62
     7
 10
1009.999999991596
 20
51.5
 30
0.0
 11
1044.999999991596
 21
51.5
 31
0.0
  0
LINE
  5
51B
  8
DATA
  6
CONTINUOUS
 62
     7
 10
988.99999999159616
 20
-99.0
 30
0.0
 11
988.99999999159616
 21
-64.0
 31
0.0
  0
LINE
  5
51C
  8
DATA
  6
CONTINUOUS
 62
     7
 10
1065.999999991596
 20
-99.0
 30
0.0
 11
988.99999999159616
 21
-99.0
 31
0.0
  0
LINE
  5
51D
  8
DATA
  6
CONTINUOUS
 62
     7
 10
1065.999999991596
 20
-64.0
 30
0.0
 11
1065.999999991596
 21
-99.0
 31
0.0
  0
LINE
  5
51E
  8
DATA
  6
CONTINUOUS
 62
     7
 10
988.99999999159616
 20
-64.0
 30
0.0
 11
1065.999999991596
 21
-64.0
 31
0.0
  0
LINE
  5
51F
  8
DATA
  6
CONTINUOUS
 62
     7
 10
1009.999999991596
 20
-95.5
 30
0.0
 11
1009.999999991596
 21
-67.5
 31
0.0
  0
LINE
  5
520
  8
DATA
  6
CONTINUOUS
 62
     7
 10
1044.999999991596
 20
-95.5
 30
0.0
 11
1009.999999991596
 21
-95.5
 31
0.0
  0
LINE
  5
521
  8
DATA
  6
CONTINUOUS
 62
     7
 10
1044.999999991596
 20
-67.5
 30
0.0
 11
1044.999999991596
 21
-95.5
 31
0.0
  0
LINE
  5
522
  8
DATA
  6
CONTINUOUS
 62
     7
 10
1009.999999991596
 20
-67.5
 30
0.0
 11
1044.999999991596
 21
-67.5
 31
0.0
  0
CIRCLE
  5
523
  8
DATA
  6
CONTINUOUS
 62
     7
 10
1111.5
 20
279.0
 30
0.0
 40
27.999999999999989
  0
CIRCLE
  5
524
  8
DATA
  6
CONTINUOUS
 62
     7
 10
1111.5
 20
370.0
 30
0.0
 40
14.004100833331901
  0
TEXT
  5
525
  8
DATA
 62
     7
 10
634.27231984605464
 20
-203.22742586777491
 30
0.0
 40
28.504720052083329
  1
INPUT
 41
0.7
 72
     1
 11
677.50447859171436
 21
-188.9750658417332
 31
0.0
 73
     2
  0
LINE
  5
526
  8
DATA
  6
CONTINUOUS
 62
     7
 10
440.20895718763308
 20
-456.00205041666692
 30
0.0
 11
440.20895718763308
 21
-340.50410083333372
 31
0.0
  0
LINE
  5
527
  8
DATA
  6
CONTINUOUS
 62
     7
 10
440.20895718763308
 20
-277.50410083333372
 30
0.0
 11
440.20895718763308
 21
-135.4291666666665
 31
0.0
  0
LINE
  5
528
  8
DATA
  6
CONTINUOUS
 62
     7
 10
440.20895718763308
 20
-83.570833333333439
 30
0.0
 11
440.20895718763308
 21
149.5
 31
0.0
  0
LINE
  5
529
  8
DATA
  6
CONTINUOUS
 62
     7
 10
555.0
 20
-596.0
 30
0.0
 11
660.00881383250805
 21
-596.0
 31
0.0
  0
LINE
  5
52A
  8
DATA
  6
CONTINUOUS
 62
     7
 10
520.0
 20
-526.00205041666675
 30
0.0
 11
520.0
 21
-561.0
 31
0.0
  0
LINE
  5
52B
  8
DATA
  6
CONTINUOUS
 62
     7
 10
485.0
 20
-491.0020504166668
 30
0.0
 11
475.20895718763308
 21
-491.0020504166668
 31
0.0
  0
TEXT
  5
52C
  8
DATA
 62
     7
 10
990.91894259142271
 20
-203.22742586777491
 30
0.0
 40
28.504720052083329
  1
THRU
 41
0.7
 72
     1
 11
1027.499999991596
 21
-188.9750658417332
 31
0.0
 73
     2
  0
CIRCLE
  5
52D
  8
DATA
  6
CONTINUOUS
 62
     7
 10
677.52239275838474
 20
-439.19999999999942
 30
0.0
 40
17.5
  0
LINE
  5
52E
  8
DATA
  6
CONTINUOUS
 62
     7
 10
667.00447859171425
 20
-439.19999999999942
 30
0.0
 11
688.00447859171425
 21
-439.19999999999942
 31
0.0
  0
LINE
  5
52F
  8
DATA
  6
CONTINUOUS
 62
     7
 10
677.52239275838474
 20
-428.6917983333351
 30
0.0
 11
677.52239275838474
 21
-449.6917983333351
 31
0.0
  0
LINE
  5
530
  8
DATA
  6
CONTINUOUS
 62
     7
 10
475.20895718763308
 20
184.5
 30
0.0
 11
600.50895708333519
 21
184.5
 31
0.0
  0
ARC
  5
531
  8
DATA
  6
CONTINUOUS
 62
     7
 10
475.20895718763308
 20
149.5
 30
0.0
 40
35.0
 50
90.0
 51
180.0
  0
ARC
  5
532
  8
DATA
  6
CONTINUOUS
 62
     7
 10
475.20895718763308
 20
-456.00205041666692
 30
0.0
 40
35.0
 50
180.0
 51
270.0
  0
ARC
  5
533
  8
DATA
  6
CONTINUOUS
 62
     7
 10
485.0
 20
-526.00205041666675
 30
0.0
 40
35.0
 50
0.0
 51
90.0
  0
ARC
  5
534
  8
DATA
  6
CONTINUOUS
 62
     7
 10
555.0
 20
-561.0
 30
0.0
 40
35.0
 50
180.0
 51
270.0
  0
TEXT
  5
535
  8
DATA
 62
     7
 10
644.24897186428382
 20
-8.2523600260416643
 30
0.0
 40
28.504720052083329
  1
GAIN
 41
0.7
 72
     1
 11
677.50447859171436
 21
6.0
 31
0.0
 73
     2
  0
TEXT
  5
536
  8
DATA
 62
     7
 10
654.22562383246623
 20
135.68793131510421
 30
0.0
 40
19.953304036458331
  1
Limit
 41
0.7
 72
     1
 11
677.50447854166748
 21
145.66458333333341
 31
0.0
 73
     2
  0
TEXT
  5
537
  8
DATA
 62
     7
 10
523.58250322591334
 20
136.47543131510469
 30
0.0
 40
19.953304036458331
  1
Signal
 41
0.7
 72
     1
 11
555.00895708333508
 21
146.45208333333389
 31
0.0
 73
     2
  0
TEXT
  5
538
  8
DATA
 62
     7
 10
768.57354614257815
 20
136.47543131510389
 30
0.0
 40
19.953304036458331
  1
Signal
 41
0.7
 72
     1
 11
800.0
 21
146.45208333333309
 31
0.0
 73
     2
  0
TEXT
  5
539
  8
DATA
 62
     7
 10
1140.3960156162871
 20
-306.01616951822962
 30
0.0
 40
19.953304036458331
  1
+4
 41
0.7
 72
     1
 11
1152.035442970888
 21
-296.03951750000039
 31
0.0
 73
     2
  0
TEXT
  5
53A
  8
DATA
 62
     7
 10
1133.4123592035271
 20
-331.94533618489629
 30
0.0
 40
19.953304036458331
  1
dBu
 41
0.7
 72
     1
 11
1152.035442970888
 21
-321.96868416666712
 31
0.0
 73
     2
  0
CIRCLE
  5
53B
  8
DATA
  6
CONTINUOUS
 62
     7
 10
555.00895708333508
 20
6.0
 30
0.0
 40
45.499999999995673
  0
LINE
  5
53C
  8
DATA
  6
CONTINUOUS
 62
     7
 10
581.75318606264659
 20
-30.810273244066821
 30
0.0
 11
596.15392474380667
 21
-50.631189606249791
 31
0.0
  0
LINE
  5
53D
  8
DATA
  6
CONTINUOUS
 62
     7
 10
598.28202857476936
 20
20.060273244060451
 30
0.0
 11
621.58291322399236
 21
27.631189606246611
 31
0.0
  0
LINE
  5
53E
  8
DATA
  6
CONTINUOUS
 62
     7
 10
555.00895708333508
 20
51.5
 30
0.0
 11
555.00895708333508
 21
76.0
 31
0.0
  0
LINE
  5
53F
  8
DATA
  6
CONTINUOUS
 62
     7
 10
511.73588559190091
 20
20.060273244060451
 30
0.0
 11
488.43500094267802
 21
27.631189606246611
 31
0.0
  0
LINE
  5
540
  8
DATA
  6
CONTINUOUS
 62
     7
 10
528.26472810778603
 20
-30.810273238865431
 30
0.0
 11
513.8639894228636
 21
-50.631189606243417
 31
0.0
  0
LINE
  5
541
  8
DATA
  6
CONTINUOUS
 62
     7
 10
537.47585702336607
 20
-24.086797590784052
 30
0.0
 11
533.2394039861083
 21
-29.917774958188041
 31
0.0
  0
LINE
  5
542
  8
DATA
  6
CONTINUOUS
 62
     7
 10
552.17739760336553
 20
8.0572483835669573
 30
0.0
 11
551.96957331308113
 21
7.7712027877896599
 31
0.0
  0
LINE
  5
543
  8
DATA
  6
CONTINUOUS
 62
     7
 10
531.8127380627393
 20
-19.972300824741971
 30
0.0
 11
527.57628502548766
 21
-25.803278192138809
 31
0.0
  0
LINE
  5
544
  8
DATA
  6
CONTINUOUS
 62
     7
 10
510.20020432127779
 20
13.900992083845381
 30
0.0
 11
499.85972291465168
 21
15.72429794934828
 31
0.0
  0
LINE
  5
545
  8
DATA
  6
CONTINUOUS
 62
     7
 10
509.5366744539669
 20
7.5879270999635073
 30
0.0
 11
499.04307077026812
 21
7.954371815340437
 31
0.0
  0
LINE
  5
546
  8
DATA
  6
CONTINUOUS
 62
     7
 10
509.75821084407289
 20
1.243954921321573
 30
0.0
 11
499.31573094271153
 21
0.1464060570120864
 31
0.0
  0
LINE
  5
547
  8
DATA
  6
CONTINUOUS
 62
     7
 10
510.8605015377762
 20
-5.0074462497847199
 30
0.0
 11
500.6723964118828
 21
-7.5476261535809499
 31
0.0
  0
LINE
  5
548
  8
DATA
  6
CONTINUOUS
 62
     7
 10
512.82209170054193
 20
-11.04460000042616
 30
0.0
 11
503.08666122760042
 21
-14.97796923129067
 31
0.0
  0
LINE
  5
549
  8
DATA
  6
CONTINUOUS
 62
     7
 10
515.60480121114676
 20
-16.74999999999681
 30
0.0
 11
506.51153447140769
 21
-21.999999999999211
 31
0.0
  0
LINE
  5
54A
  8
DATA
  6
CONTINUOUS
 62
     7
 10
519.15446779423098
 20
-22.012597127315068
 30
0.0
 11
510.88035488136478
 21
-28.47704261823651
 31
0.0
  0
LINE
  5
54B
  8
DATA
  6
CONTINUOUS
 62
     7
 10
523.40200122744682
 20
-26.729960915409041
 30
0.0
 11
516.10808833763622
 21
-34.283028818963317
 31
0.0
  0
LINE
  5
54C
  8
DATA
  6
CONTINUOUS
 62
     7
 10
586.6159129392172
 20
-26.729960915405059
 30
0.0
 11
593.90982582904053
 21
-34.283028818965697
 31
0.0
  0
LINE
  5
54D
  8
DATA
  6
CONTINUOUS
 62
     7
 10
590.86344637243928
 20
-22.012597127315068
 30
0.0
 11
599.13755928531191
 21
-28.477042618234918
 31
0.0
  0
LINE
  5
54E
  8
DATA
  6
CONTINUOUS
 62
     7
 10
594.41311295552975
 20
-16.75000000000318
 30
0.0
 11
603.50637969526895
 21
-22.0
 31
0.0
  0
LINE
  5
54F
  8
DATA
  6
CONTINUOUS
 62
     7
 10
597.19582246612845
 20
-11.04460000042536
 30
0.0
 11
606.9312529390827
 21
-14.97796923129226
 31
0.0
  0
LINE
  5
550
  8
DATA
  6
CONTINUOUS
 62
     7
 10
599.15741262889424
 20
-5.0074462497886989
 30
0.0
 11
609.34551775478747
 21
-7.5476261535809499
 31
0.0
  0
LINE
  5
551
  8
DATA
  6
CONTINUOUS
 62
     7
 10
600.25970332259112
 20
1.2439549213199821
 30
0.0
 11
610.70218322395885
 21
0.1464060570128822
 31
0.0
  0
LINE
  5
552
  8
DATA
  6
CONTINUOUS
 62
     7
 10
600.48123971270343
 20
7.5879270999666906
 30
0.0
 11
610.9748433964088
 21
7.954371815340437
 31
0.0
  0
LINE
  5
553
  8
DATA
  6
CONTINUOUS
 62
     7
 10
599.81770984539253
 20
13.90099208384617
 30
0.0
 11
610.15819125201244
 21
15.72429794934669
 31
0.0
  0
LINE
  5
554
  8
DATA
  6
CONTINUOUS
 62
     7
 10
595.90408618995025
 20
25.945887178902471
 30
0.0
 11
605.34142367608729
 21
30.548784220186921
 31
0.0
  0
LINE
  5
555
  8
DATA
  6
CONTINUOUS
 62
     7
 10
592.73016663459293
 20
31.443277107922771
 30
0.0
 11
601.4350611464132
 21
37.314802594360117
 31
0.0
  0
LINE
  5
556
  8
DATA
  6
CONTINUOUS
 62
     7
 10
588.8220466425646
 20
36.44544258932865
 30
0.0
 11
596.62506731007124
 21
43.471313956096317
 31
0.0
  0
LINE
  5
557
  8
DATA
  6
CONTINUOUS
 62
     7
 10
584.25579332407585
 20
40.855022161911613
 30
0.0
 11
591.0050632257844
 21
48.898488814665598
 31
0.0
  0
LINE
  5
558
  8
DATA
  6
CONTINUOUS
 62
     7
 10
579.12028360595275
 20
44.586188375118127
 30
0.0
 11
584.6844358803927
 21
53.490693384757819
 31
0.0
  0
LINE
  5
559
  8
DATA
  6
CONTINUOUS
 62
     7
 10
573.51547434328575
 20
47.566318322732499
 30
0.0
 11
577.78620909557765
 21
57.158545627986307
 31
0.0
  0
LINE
  5
55A
  8
DATA
  6
CONTINUOUS
 62
     7
 10
567.55045677300575
 20
49.737407165192948
 30
0.0
 11
570.44464900908861
 21
59.830654972543471
 31
0.0
  0
LINE
  5
55B
  8
DATA
  6
CONTINUOUS
 62
     7
 10
561.34133317701787
 20
51.05719712774043
 30
0.0
 11
562.80265073709961
 21
61.455011849520808
 31
0.0
  0
LINE
  5
55C
  8
DATA
  6
CONTINUOUS
 62
     7
 10
548.67658098965876
 20
51.057197127702239
 30
0.0
 11
547.21526342957077
 21
61.455011849527168
 31
0.0
  0
LINE
  5
55D
  8
DATA
  6
CONTINUOUS
 62
     7
 10
542.46745739365826
 20
49.737407165200132
 30
0.0
 11
539.57326515758166
 21
59.830654972540287
 31
0.0
  0
LINE
  5
55E
  8
DATA
  6
CONTINUOUS
 62
     7
 10
536.50243982338452
 20
47.566318322742063
 30
0.0
 11
532.23170507108625
 21
57.158545627983131
 31
0.0
  0
LINE
  5
55F
  8
DATA
  6
CONTINUOUS
 62
     7
 10
530.89763056073025
 20
44.586188375118127
 30
0.0
 11
525.3334782862712
 21
53.490693384764207
 31
0.0
  0
LINE
  5
560
  8
DATA
  6
CONTINUOUS
 62
     7
 10
525.76212084260078
 20
40.855022161914789
 30
0.0
 11
519.01285094088587
 21
48.898488814662421
 31
0.0
  0
LINE
  5
561
  8
DATA
  6
CONTINUOUS
 62
     7
 10
521.1958675241184
 20
36.44544258932865
 30
0.0
 11
513.39284685659925
 21
43.471313956096317
 31
0.0
  0
LINE
  5
562
  8
DATA
  6
CONTINUOUS
 62
     7
 10
517.28774753207745
 20
31.443277107916401
 30
0.0
 11
508.5828530202507
 21
37.314802594360117
 31
0.0
  0
LINE
  5
563
  8
DATA
  6
CONTINUOUS
 62
     7
 10
514.11382797672002
 20
25.945887178902471
 30
0.0
 11
504.67649049058952
 21
30.54878422018373
 31
0.0
  0
ARC
  5
564
  8
DATA
  6
CONTINUOUS
 62
     7
 10
559.39915254057632
 20
47.769919605466157
 30
0.0
 40
3.499999999993078
 50
351.61198453549321
 51
176.3880154644452
  0
ARC
  5
565
  8
DATA
  6
CONTINUOUS
 62
     7
 10
555.00895708330972
 20
5.9999999999665761
 30
0.0
 40
41.999999999958469
 50
238.78019184717579
 51
229.2198081527709
  0
ARC
  5
566
  8
DATA
  6
CONTINUOUS
 62
     7
 10
555.00895708367898
 20
6.0000000005451284
 30
0.0
 40
35.000000000646061
 50
239.73026269141289
 51
228.2608295228718
  0
ARC
  5
567
  8
DATA
  6
CONTINUOUS
 62
     7
 10
544.72271516823639
 20
-8.1577974015003747
 30
0.0
 40
17.500000000062521
 50
245.5369590327596
 51
222.4630409672252
  0
ARC
  5
568
  8
DATA
  6
CONTINUOUS
 62
     7
 10
537.92601807412939
 20
44.368909220992919
 30
0.0
 40
3.5000000000033138
 50
21.61198453550028
 51
206.38801546443659
  0
ARC
  5
569
  8
DATA
  6
CONTINUOUS
 62
     7
 10
521.03024331954839
 20
30.686980596282641
 30
0.0
 40
3.4999999999979221
 50
51.61198453557666
 51
236.38801546444861
  0
ARC
  5
56A
  8
DATA
  6
CONTINUOUS
 62
     7
 10
513.23903747781321
 20
10.39019545722681
 30
0.0
 40
3.4999999999971059
 50
81.611984535581826
 51
266.3880154644167
  0
ARC
  5
56B
  8
DATA
  6
CONTINUOUS
 62
     7
 10
516.64004786228816
 20
-11.08293900921694
 30
0.0
 40
3.5000000000015268
 50
111.6119845355679
 51
296.38801546445319
  0
ARC
  5
56C
  8
DATA
  6
CONTINUOUS
 62
     7
 10
530.32197648699355
 20
-27.978713763799529
 30
0.0
 40
3.4999999999975002
 50
144.00000000008771
 51
324.00000000003558
  0
ARC
  5
56D
  8
DATA
  6
CONTINUOUS
 62
     7
 10
550.61876162605574
 20
-35.769919605533012
 30
0.0
 40
3.4999999999993769
 50
171.6119845355083
 51
356.3880154644516
  0
ARC
  5
56E
  8
DATA
  6
CONTINUOUS
 62
     7
 10
572.09189609249006
 20
-32.368909221058182
 30
0.0
 40
3.5000000000039
 50
201.6119845355245
 51
26.38801546439009
  0
ARC
  5
56F
  8
DATA
  6
CONTINUOUS
 62
     7
 10
588.98767084707754
 20
-18.686980596349478
 30
0.0
 40
3.4999999999993801
 50
231.6119845354626
 51
56.38801546443662
  0
ARC
  5
570
  8
DATA
  6
CONTINUOUS
 62
     7
 10
596.77887668880612
 20
1.6098045427063421
 30
0.0
 40
3.4999999999986802
 50
261.61198453558558
 51
86.388015464418316
  0
ARC
  5
571
  8
DATA
  6
CONTINUOUS
 62
     7
 10
593.37786630433754
 20
23.082939009150088
 30
0.0
 40
3.499999999999182
 50
291.61198453547092
 51
116.38801546445519
  0
ARC
  5
572
  8
DATA
  6
CONTINUOUS
 62
     7
 10
579.69593767962579
 20
39.978713763732678
 30
0.0
 40
3.5000000000060059
 50
321.61198453559842
 51
146.38801546444881
  0
TEXT
  5
573
  8
DATA
 62
     7
 10
925.07303927111025
 20
-56.887223723266089
 30
0.0
 40
28.504720052083329
  1
THRU SELECT
 41
0.7
 72
     1
 11
1027.499999991596
 21
-42.634863697224432
 31
0.0
 73
     2
  0
TEXT
  5
574
  8
DATA
 62
     7
 10
935.04969128933919
 20
64.144137240557427
 30
0.0
 40
28.504720052083329
  1
SPK SELECT
 41
0.7
 72
     1
 11
1027.499999991596
 21
78.396497266599098
 31
0.0
 73
     2
  0
TEXT
  5
575
  8
DATA
 62
     7
 10
538.38120371961975
 20
311.26847330729191
 30
0.0
 40
28.504720052083329
  1
EQ
 41
0.7
 72
     1
 11
555.00895708333508
 21
325.5208333333336
 31
0.0
 73
     2
  0
TEXT
  5
576
  8
DATA
 62
     7
 10
1029.0263433159721
 20
311.26847330729191
 30
0.0
 40
28.504720052083329
  1
FRONT LED
 41
0.7
 72
     1
 11
1111.5
 21
325.5208333333336
 31
0.0
 73
     2
  0
TEXT
  5
577
  8
DATA
 62
     7
 10
436.3259469943564
 20
232.42623678820291
 30
0.0
 40
19.953304036458331
  1
NORMAL
 41
0.7
 72
     1
 11
475.89999999999873
 21
242.40288880643209
 31
0.0
 73
     2
  0
LINE
  5
578
  8
DATA
  6
CONTINUOUS
 62
     7
 10
503.89999999999878
 20
265.0
 30
0.0
 11
447.89999999999873
 21
265.0
 31
0.0
  0
LINE
  5
579
  8
DATA
  6
CONTINUOUS
 62
     7
 10
458.39999999999878
 20
265.0
 30
0.0
 11
458.39999999999878
 21
279.0
 31
0.0
  0
LINE
  5
57A
  8
DATA
  6
CONTINUOUS
 62
     7
 10
493.39999999999873
 20
279.0
 30
0.0
 11
493.39999999999873
 21
265.0
 31
0.0
  0
LINE
  5
57B
  8
DATA
  6
CONTINUOUS
 62
     7
 10
458.39999999999878
 20
279.0
 30
0.0
 11
493.39999999999873
 21
279.0
 31
0.0
  0
TEXT
  5
57C
  8
DATA
 62
     7
 10
601.52751757378974
 20
232.42623678820291
 30
0.0
 40
19.953304036458331
  1
BOOST
 41
0.7
 72
     1
 11
634.11791416667165
 21
242.40288880643209
 31
0.0
 73
     2
  0
LINE
  5
57D
  8
DATA
  6
CONTINUOUS
 62
     7
 10
662.11791416667165
 20
265.0
 30
0.0
 11
606.11791416667165
 21
265.0
 31
0.0
  0
LINE
  5
57E
  8
DATA
  6
CONTINUOUS
 62
     7
 10
616.61791416667165
 20
265.0
 30
0.0
 11
616.61791416667165
 21
300.0
 31
0.0
  0
LINE
  5
57F
  8
DATA
  6
CONTINUOUS
 62
     7
 10
651.61791416667165
 20
300.0
 30
0.0
 11
651.61791416667165
 21
265.0
 31
0.0
  0
LINE
  5
580
  8
DATA
  6
CONTINUOUS
 62
     7
 10
616.61791416667165
 20
286.0
 30
0.0
 11
651.61791416667165
 21
286.0
 31
0.0
  0
LINE
  5
581
  8
DATA
  6
CONTINUOUS
 62
     7
 10
616.61791416667165
 20
300.0
 30
0.0
 11
651.61791416667165
 21
300.0
 31
0.0
  0
TEXT
  5
582
  8
DATA
 62
     7
 10
1020.751615562063
 20
232.42623678820291
 30
0.0
 40
19.953304036458331
  1
ON
 41
0.7
 72
     1
 11
1032.391042916664
 21
242.40288880643209
 31
0.0
 73
     2
  0
LINE
  5
583
  8
DATA
  6
CONTINUOUS
 62
     7
 10
1060.391042916664
 20
265.0
 30
0.0
 11
1004.391042916664
 21
265.0
 31
0.0
  0
LINE
  5
584
  8
DATA
  6
CONTINUOUS
 62
     7
 10
1014.891042916663
 20
265.0
 30
0.0
 11
1014.891042916663
 21
279.0
 31
0.0
  0
LINE
  5
585
  8
DATA
  6
CONTINUOUS
 62
     7
 10
1049.891042916664
 20
279.0
 30
0.0
 11
1049.891042916664
 21
265.0
 31
0.0
  0
LINE
  5
586
  8
DATA
  6
CONTINUOUS
 62
     7
 10
1014.891042916663
 20
279.0
 30
0.0
 11
1049.891042916664
 21
279.0
 31
0.0
  0
TEXT
  5
587
  8
DATA
 62
     7
 10
1171.9858733159749
 20
232.42623678820291
 30
0.0
 40
19.953304036458331
  1
OFF
 41
0.7
 72
     1
 11
1190.608957083336
 21
242.40288880643209
 31
0.0
 73
     2
  0
LINE
  5
588
  8
DATA
  6
CONTINUOUS
 62
     7
 10
1218.608957083336
 20
265.0
 30
0.0
 11
1162.608957083336
 21
265.0
 31
0.0
  0
LINE
  5
589
  8
DATA
  6
CONTINUOUS
 62
     7
 10
1173.108957083336
 20
265.0
 30
0.0
 11
1173.108957083336
 21
300.0
 31
0.0
  0
LINE
  5
58A
  8
DATA
  6
CONTINUOUS
 62
     7
 10
1208.108957083336
 20
300.0
 30
0.0
 11
1208.108957083336
 21
265.0
 31
0.0
  0
LINE
  5
58B
  8
DATA
  6
CONTINUOUS
 62
     7
 10
1173.108957083336
 20
286.0
 30
0.0
 11
1208.108957083336
 21
286.0
 31
0.0
  0
LINE
  5
58C
  8
DATA
  6
CONTINUOUS
 62
     7
 10
1173.108957083336
 20
300.0
 30
0.0
 11
1208.108957083336
 21
300.0
 31
0.0
  0
TEXT
  5
58D
  8
DATA
 62
     7
 10
1031.6867838541671
 20
388.27257414062399
 30
0.0
 40
28.504720052083329
  1
PWR/STBY
 41
0.7
 72
     1
 11
1111.5
 21
402.52493416666562
 31
0.0
 73
     2
  0
CIRCLE
  5
58E
  8
DATA
  6
CONTINUOUS
 62
     7
 10
1243.9400000000001
 20
454.0
 30
0.0
 40
17.50000000000226
  0
LINE
  5
58F
  8
DATA
  6
CONTINUOUS
 62
     7
 10
1254.4400000000001
 20
454.0
 30
0.0
 11
1233.4400000000001
 21
454.0
 31
0.0
  0
LINE
  5
590
  8
DATA
  6
CONTINUOUS
 62
     7
 10
1244.5
 20
464.5
 30
0.0
 11
1244.5
 21
443.5
 31
0.0
  0
CIRCLE
  5
591
  8
DATA
  6
CONTINUOUS
 62
     7
 10
1243.9400000000001
 20
-301.99999999999841
 30
0.0
 40
17.50000000000226
  0
LINE
  5
592
  8
DATA
  6
CONTINUOUS
 62
     7
 10
1254.4400000000001
 20
-301.99999999999841
 30
0.0
 11
1233.4400000000001
 21
-301.99999999999841
 31
0.0
  0
LINE
  5
593
  8
DATA
  6
CONTINUOUS
 62
     7
 10
1244.5
 20
-291.49999999999841
 30
0.0
 11
1244.5
 21
-312.49999999999841
 31
0.0
  0
CIRCLE
  5
594
  8
DATA
  6
CONTINUOUS
 62
     7
 10
356.05999999999949
 20
454.0
 30
0.0
 40
17.50000000000226
  0
LINE
  5
595
  8
DATA
  6
CONTINUOUS
 62
     7
 10
345.55999999999949
 20
454.0
 30
0.0
 11
366.55999999999949
 21
454.0
 31
0.0
  0
LINE
  5
596
  8
DATA
  6
CONTINUOUS
 62
     7
 10
355.5
 20
464.5
 30
0.0
 11
355.5
 21
443.5
 31
0.0
  0
CIRCLE
  5
597
  8
DATA
  6
CONTINUOUS
 62
     7
 10
356.05999999999949
 20
-301.99999999999841
 30
0.0
 40
17.50000000000226
  0
LINE
  5
598
  8
DATA
  6
CONTINUOUS
 62
     7
 10
345.55999999999949
 20
-301.99999999999841
 30
0.0
 11
366.55999999999949
 21
-301.99999999999841
 31
0.0
  0
LINE
  5
599
  8
DATA
  6
CONTINUOUS
 62
     7
 10
355.5
 20
-291.49999999999841
 30
0.0
 11
355.5
 21
-312.49999999999841
 31
0.0
  0
TEXT
  5
59A
  8
DATA
 62
     7
 10
634.16189371744554
 20
437.08458658854209
 30
0.0
 40
85.514160156249986
  1
PRX710
 41
0.7
 72
     1
 11
788.79999999999745
 21
479.84166666666698
 31
0.0
 73
     2
  0
TEXT
  5
59B
  8
DATA
 62
     7
 10
551.65739397367315
 20
187.2487827432127
 30
0.0
 40
20.523398437499999
  1
CH1
 41
0.7
 72
     1
 11
568.41816936429814
 21
197.51048196196271
 31
0.0
 73
     2
  0
LINE
  5
59C
  8
DATA
  6
CONTINUOUS
 62
     7
 10
600.88367823657052
 20
183.85096392392569
 30
0.0
 11
592.48367823657179
 21
210.52096392392539
 31
0.0
  0
LINE
  5
59D
  8
DATA
  6
CONTINUOUS
 62
     7
 10
535.95266049202564
 20
183.85096392392569
 30
0.0
 11
544.35266049202426
 21
210.52096392392539
 31
0.0
  0
LINE
  5
59E
  8
DATA
  6
CONTINUOUS
 62
     7
 10
544.35266049202426
 20
210.52096392392539
 30
0.0
 11
592.48367823657179
 21
210.52096392392539
 31
0.0
  0
TEXT
  5
59F
  8
DATA
 62
     7
 10
767.8103370973754
 20
187.8978188192869
 30
0.0
 40
20.523398437499999
  1
CH2
 41
0.7
 72
     1
 11
786.96550897237535
 21
198.15951803803691
 31
0.0
 73
     2
  0
LINE
  5
5A0
  8
DATA
  6
CONTINUOUS
 62
     7
 10
819.43101784464477
 20
184.5
 30
0.0
 11
811.03101784464604
 21
211.16999999999959
 31
0.0
  0
LINE
  5
5A1
  8
DATA
  6
CONTINUOUS
 62
     7
 10
754.5000001000999
 20
184.5
 30
0.0
 11
762.90000010009862
 21
211.16999999999959
 31
0.0
  0
LINE
  5
5A2
  8
DATA
  6
CONTINUOUS
 62
     7
 10
762.90000010010806
 20
211.16999999999959
 30
0.0
 11
811.03101784464604
 21
211.16999999999959
 31
0.0
  0
ENDSEC
  0
EOF
