  0
SECTION
  2
HEADER
  9
$ACADVER
  1
AC1009
  9
$INSBASE
 10
0.0
 20
0.0
 30
0.0
  9
$EXTMIN
 10
-1800.1098548994739
 20
-2685.3337877911131
 30
-0.0015258207003583
  9
$EXTMAX
 10
1800.109871663281
 20
2667.2675001401681
 30
0.0000000349246037
  9
$LIMMIN
 10
0.0
 20
0.0
  9
$LIMMAX
 10
0.0
 20
0.0
  9
$ORTHOMODE
 70
     0
  9
$REGENMODE
 70
     1
  9
$FILLMODE
 70
     1
  9
$QTEXTMODE
 70
     0
  9
$MIRRTEXT
 70
     1
  9
$DRAGMODE
 70
     2
  9
$LTSCALE
 40
254.0
  9
$OSMODE
 70
   231
  9
$ATTMODE
 70
     1
  9
$TEXTSIZE
 40
0.0
  9
$TRACEWID
 40
1.0
  9
$TEXTSTYLE
  7
STANDARD
  9
$CLAYER
  8
DATA
  9
$CELTYPE
  6
BYLAYER
  9
$CECOLOR
 62
   256
  9
$DIMSCALE
 40
1.0
  9
$DIMASZ
 40
0.18
  9
$DIMEXO
 40
0.0625
  9
$DIMDLI
 40
0.38
  9
$DIMRND
 40
0.0
  9
$DIMDLE
 40
0.0
  9
$DIMEXE
 40
0.18
  9
$DIMTP
 40
0.0
  9
$DIMTM
 40
0.0
  9
$DIMTXT
 40
0.18
  9
$DIMCEN
 40
0.09
  9
$DIMTSZ
 40
0.0
  9
$DIMTOL
 70
     0
  9
$DIMLIM
 70
     0
  9
$DIMTIH
 70
     1
  9
$DIMTOH
 70
     1
  9
$DIMSE1
 70
     0
  9
$DIMSE2
 70
     0
  9
$DIMTAD
 70
     0
  9
$DIMZIN
 70
     0
  9
$DIMBLK
  1

  9
$DIMASO
 70
     1
  9
$DIMSHO
 70
     1
  9
$DIMPOST
  1

  9
$DIMAPOST
  1

  9
$DIMALT
 70
     0
  9
$DIMALTD
 70
     2
  9
$DIMALTF
 40
25.399999999999999
  9
$DIMLFAC
 40
1.0
  9
$DIMTOFL
 70
     0
  9
$DIMTVP
 40
0.0
  9
$DIMTIX
 70
     0
  9
$DIMSOXD
 70
     0
  9
$DIMSAH
 70
     0
  9
$DIMBLK1
  1

  9
$DIMBLK2
  1

  9
$DIMSTYLE
  2
STANDARD
  9
$DIMCLRD
 70
     0
  9
$DIMCLRE
 70
     0
  9
$DIMCLRT
 70
     0
  9
$DIMTFAC
 40
1.0
  9
$DIMGAP
 40
0.09
  9
$LUNITS
 70
     2
  9
$LUPREC
 70
     4
  9
$SKETCHINC
 40
0.1
  9
$FILLETRAD
 40
0.0
  9
$AUNITS
 70
     0
  9
$AUPREC
 70
     0
  9
$MENU
  1
acad
  9
$ELEVATION
 40
0.0
  9
$PELEVATION
 40
0.0
  9
$THICKNESS
 40
0.0
  9
$LIMCHECK
 70
     0
  9
$BLIPMODE
 70
     0
  9
$CHAMFERA
 40
0.0
  9
$CHAMFERB
 40
0.0
  9
$SKPOLY
 70
     0
  9
$TDCREATE
 40
2456693.7645138889
  9
$TDUPDATE
 40
2456693.7746509141
  9
$TDINDWG
 40
0.0004082639
  9
$TDUSRTIMER
 40
0.0004082639
  9
$USRTIMER
 70
     1
  9
$ANGBASE
 50
0.0
  9
$ANGDIR
 70
     0
  9
$PDMODE
 70
     1
  9
$PDSIZE
 40
-2.0
  9
$PLINEWID
 40
0.0
  9
$COORDS
 70
     2
  9
$SPLFRAME
 70
     0
  9
$SPLINETYPE
 70
     6
  9
$SPLINESEGS
 70
     8
  9
$ATTDIA
 70
     0
  9
$ATTREQ
 70
     1
  9
$HANDLING
 70
     1
  9
$HANDSEED
  5
685
  9
$SURFTAB1
 70
     6
  9
$SURFTAB2
 70
     6
  9
$SURFTYPE
 70
     6
  9
$SURFU
 70
     6
  9
$SURFV
 70
     6
  9
$UCSNAME
  2

  9
$UCSORG
 10
0.0
 20
0.0
 30
0.0
  9
$UCSXDIR
 10
1.0
 20
0.0
 30
0.0
  9
$UCSYDIR
 10
0.0
 20
1.0
 30
0.0
  9
$PUCSNAME
  2

  9
$PUCSORG
 10
0.0
 20
0.0
 30
0.0
  9
$PUCSXDIR
 10
1.0
 20
0.0
 30
0.0
  9
$PUCSYDIR
 10
0.0
 20
1.0
 30
0.0
  9
$USERI1
 70
     0
  9
$USERI2
 70
     0
  9
$USERI3
 70
     0
  9
$USERI4
 70
     0
  9
$USERI5
 70
     0
  9
$USERR1
 40
0.0
  9
$USERR2
 40
0.0
  9
$USERR3
 40
0.0
  9
$USERR4
 40
0.0
  9
$USERR5
 40
0.0
  9
$WORLDVIEW
 70
     1
  9
$SHADEDGE
 70
     3
  9
$SHADEDIF
 70
    70
  9
$TILEMODE
 70
     1
  9
$MAXACTVP
 70
    64
  9
$PLIMCHECK
 70
     0
  9
$PEXTMIN
 10
1.0000000000000000E+020
 20
1.0000000000000000E+020
 30
1.0000000000000000E+020
  9
$PEXTMAX
 10
-1.0000000000000000E+020
 20
-1.0000000000000000E+020
 30
-1.0000000000000000E+020
  9
$PLIMMIN
 10
0.0
 20
0.0
  9
$PLIMMAX
 10
12.0
 20
9.0
  9
$UNITMODE
 70
     0
  9
$VISRETAIN
 70
     0
  9
$PLINEGEN
 70
     1
  9
$PSLTSCALE
 70
     0
  0
ENDSEC
  0
SECTION
  2
TABLES
  0
TABLE
  2
VPORT
 70
     1
  0
VPORT
  2
*ACTIVE
 70
     0
 10
0.0
 20
0.0
 11
1.0
 21
1.0
 12
0.0000083819027168
 22
-9.0331438254725072
 13
0.0
 23
0.0
 14
1.0
 24
1.0
 15
0.0
 25
0.0
 16
0.0
 26
0.0
 36
1.0
 17
0.0
 27
0.0
 37
0.0
 40
5394.7477547653853
 41
2.1787122207621552
 42
50.0
 43
0.0
 44
0.0
 50
0.0
 51
0.0
 71
     0
 72
  2000
 73
     1
 74
     1
 75
     0
 76
     0
 77
     0
 78
     0
  0
ENDTAB
  0
TABLE
  2
LTYPE
 70
    12
  0
LTYPE
  2
CONTINUOUS
 70
     0
  3
Solid line
 72
    65
 73
     0
 40
0.0
  0
LTYPE
  2
STYLE_11
 70
     0
  3

 72
    65
 73
     4
 40
2.1826771653543311
 49
1.364173228346456
 49
-0.2728346456692914
 49
0.2728346456692914
 49
-0.2728346456692914
  0
ENDTAB
  0
TABLE
  2
LAYER
 70
     5
  0
LAYER
  2
0
 70
     0
 62
     7
  6
CONTINUOUS
  0
LAYER
  2
DATA
 70
     0
 62
     7
  6
CONTINUOUS
  0
LAYER
  2
HIBINO-BASE
 70
     0
 62
     7
  6
CONTINUOUS
  0
LAYER
  2
SPEC
 70
     0
 62
     7
  6
CONTINUOUS
  0
LAYER
  2
DIMNSIONS
 70
     0
 62
     7
  6
CONTINUOUS
  0
ENDTAB
  0
TABLE
  2
STYLE
 70
     3
  0
STYLE
  2
STANDARD
 70
     0
 40
0.0
 41
1.0
 50
0.0
 71
     0
 42
0.0
  3
txt
  4
BIGFONT.SHX
  0
ENDTAB
  0
TABLE
  2
VIEW
 70
     0
  0
ENDTAB
  0
TABLE
  2
UCS
 70
     0
  0
ENDTAB
  0
TABLE
  2
APPID
 70
     4
  0
APPID
  2
ACAD
 70
     0
  0
APPID
  2
ACADANNOTATIVE
 70
     0
  0
APPID
  2
ACAD_NAV_VCDISPLAY
 70
     0
  0
APPID
  2
ACAD_MLEADERVER
 70
     0
  0
ENDTAB
  0
TABLE
  2
DIMSTYLE
 70
     2
  0
DIMSTYLE
  2
STANDARD
 70
     0
  3

  4

  5

  6

  7

 40
1.0
 41
0.18
 42
0.0625
 43
0.38
 44
0.18
 45
0.0
 46
0.0
 47
0.0
 48
0.0
140
0.18
141
0.09
142
0.0
143
25.399999999999999
144
1.0
145
0.0
146
1.0
147
0.09
 71
     0
 72
     0
 73
     1
 74
     1
 75
     0
 76
     0
 77
     0
 78
     0
170
     0
171
     2
172
     0
173
     0
174
     0
175
     0
176
     0
177
     0
178
     0
  0
ENDTAB
  0
ENDSEC
  0
SECTION
  2
BLOCKS
  0
BLOCK
  8
0
  2
$MODEL_SPACE
 70
     0
 10
0.0
 20
0.0
 30
0.0
  3
$MODEL_SPACE
  1

  0
ENDBLK
  5
60E
  8
0
  0
BLOCK
 67
     1
  8
0
  2
$PAPER_SPACE
 70
     0
 10
0.0
 20
0.0
 30
0.0
  3
$PAPER_SPACE
  1

  0
ENDBLK
  5
60A
 67
     1
  8
0
  0
ENDSEC
  0
SECTION
  2
ENTITIES
  0
LINE
  5
2D
  8
HIBINO-BASE
  6
CONTINUOUS
 62
     7
 10
-1800.0
 20
2667.1044850000012
 30
0.0
 11
1800.0
 21
2667.1044850000012
 31
0.0
  0
LINE
  5
2E
  8
HIBINO-BASE
  6
CONTINUOUS
 62
     7
 10
1800.0
 20
-2532.8955150000002
 30
0.0
 11
-1800.0
 21
-2532.8955150000002
 31
0.0
  0
LINE
  5
2F
  8
HIBINO-BASE
  6
CONTINUOUS
 62
     7
 10
-1800.0
 20
-2532.8955150000002
 30
0.0
 11
-1800.0
 21
2667.1044850000012
 31
0.0
  0
LINE
  5
30
  8
HIBINO-BASE
  6
CONTINUOUS
 62
     7
 10
1800.0
 20
2667.1044850000012
 30
0.0
 11
1800.0
 21
-2532.8955150000002
 31
0.0
  0
LINE
  5
31
  8
HIBINO-BASE
  6
CONTINUOUS
 62
     7
 10
0.0000000000001421
 20
-2082.8955150000002
 30
0.0
 11
1800.0
 21
-2082.8955150000002
 31
0.0
  0
LINE
  5
32
  8
HIBINO-BASE
  6
CONTINUOUS
 62
     7
 10
0.0000000000001421
 20
-2532.8955150000002
 30
0.0
 11
0.0000000000001421
 21
-2082.8955150000002
 31
0.0
  0
TEXT
  5
33
  8
HIBINO-BASE
 62
     7
 10
18.000000000000249
 20
-2133.0693816666671
 30
0.0
 40
32.576822916666671
  1
NOTE
 41
0.7
 11
18.000000000000249
 21
-2100.4925587500002
 31
0.0
 73
     3
  0
LINE
  5
34
  8
HIBINO-BASE
  6
CONTINUOUS
 62
     7
 10
700.00000000000045
 20
-2532.8955150000002
 30
0.0
 11
700.00000000000045
 21
-2082.8955150000002
 31
0.0
  0
TEXT
  5
35
  8
HIBINO-BASE
 62
     7
 10
718.0
 20
-2133.0693816666671
 30
0.0
 40
32.576822916666671
  1
TITLE
 41
0.7
 11
718.0
 21
-2100.4925587500002
 31
0.0
 73
     3
  0
LINE
  5
36
  8
HIBINO-BASE
  6
CONTINUOUS
 62
     7
 10
0.0000000000001421
 20
-2332.8955150000002
 30
0.0
 11
1800.0
 21
-2332.8955150000002
 31
0.0
  0
TEXT
  5
37
  8
HIBINO-BASE
 62
     7
 10
967.99999999999955
 20
-2381.942981666667
 30
0.0
 40
32.576822916666671
  1
DRAWN
 41
0.7
 11
967.99999999999955
 21
-2349.3661587500001
 31
0.0
 73
     3
  0
TEXT
  5
38
  8
HIBINO-BASE
 62
     7
 10
468.0
 20
-2381.942981666667
 30
0.0
 40
32.576822916666671
  1
DATE
 41
0.7
 11
468.0
 21
-2349.3661587500001
 31
0.0
 73
     3
  0
TEXT
  5
39
  8
HIBINO-BASE
 62
     7
 10
268.0
 20
-2381.942981666667
 30
0.0
 40
32.576822916666671
  1
SCALE
 41
0.7
 11
268.0
 21
-2349.3661587500001
 31
0.0
 73
     3
  0
TEXT
  5
3A
  8
HIBINO-BASE
 62
     7
 10
718.0
 20
-2381.942981666667
 30
0.0
 40
32.576822916666671
  1
DESIGN
 41
0.7
 11
718.0
 21
-2349.3661587500001
 31
0.0
 73
     3
  0
TEXT
  5
3B
  8
HIBINO-BASE
 62
     7
 10
1468.0
 20
-2381.942981666667
 30
0.0
 40
32.576822916666671
  1
DRAWING NO.
 41
0.7
 11
1468.0
 21
-2349.3661587500001
 31
0.0
 73
     3
  0
TEXT
  5
3C
  8
HIBINO-BASE
 62
     7
 10
1218.0
 20
-2381.942981666667
 30
0.0
 40
32.576822916666671
  1
CHECK
 41
0.7
 11
1218.0
 21
-2349.3661587500001
 31
0.0
 73
     3
  0
LINE
  5
3D
  8
HIBINO-BASE
  6
CONTINUOUS
 62
     7
 10
287.5
 20
-2507.8955150000002
 30
0.0
 11
362.50000000000051
 21
-2432.8955150000002
 31
0.0
  0
TEXT
  5
3E
  8
HIBINO-BASE
 62
     7
 10
275.0
 20
-2455.0743816666682
 30
0.0
 40
32.576822916666671
  1
1
 41
0.7
 11
275.0
 21
-2422.4975587500012
 31
0.0
 73
     3
  0
LINE
  5
3F
  8
HIBINO-BASE
  6
CONTINUOUS
 62
     7
 10
250.00000000000011
 20
-2532.8955150000002
 30
0.0
 11
250.00000000000011
 21
-2332.8955150000002
 31
0.0
  0
LINE
  5
40
  8
HIBINO-BASE
  6
CONTINUOUS
 62
     7
 10
449.99999999999989
 20
-2532.8955150000002
 30
0.0
 11
449.99999999999989
 21
-2332.8955150000002
 31
0.0
  0
LINE
  5
41
  8
HIBINO-BASE
  6
CONTINUOUS
 62
     7
 10
949.99999999999955
 20
-2332.8955150000002
 30
0.0
 11
949.99999999999955
 21
-2532.8955150000002
 31
0.0
  0
LINE
  5
42
  8
HIBINO-BASE
  6
CONTINUOUS
 62
     7
 10
1450.0
 20
-2332.8955150000002
 30
0.0
 11
1450.0
 21
-2532.8955150000002
 31
0.0
  0
LINE
  5
43
  8
HIBINO-BASE
  6
CONTINUOUS
 62
     7
 10
1200.0
 20
-2532.8955150000002
 30
0.0
 11
1200.0
 21
-2332.8955150000002
 31
0.0
  0
TEXT
  5
44
  8
HIBINO-BASE
 62
     7
 10
467.13080000000031
 20
-2475.6225816666661
 30
0.0
 40
32.576822916666671
  1
'14.01.
 41
0.7
 11
467.13080000000031
 21
-2443.04575875
 31
0.0
 73
     3
  0
TEXT
  5
45
  8
HIBINO-BASE
 62
     7
 10
350.0
 20
-2492.5743816666668
 30
0.0
 40
32.576822916666671
  1
20
 41
0.7
 11
350.0
 21
-2459.9975587500012
 31
0.0
 73
     3
  0
TEXT
  5
46
  8
HIBINO-BASE
 62
     7
 10
980.11620022069235
 20
-2475.6225816666661
 30
0.0
 40
32.576822916666671
  1
N.Sasaki
 41
0.7
 11
980.11620022069235
 21
-2443.04575875
 31
0.0
 73
     3
  0
TEXT
  5
47
  8
HIBINO-BASE
 62
     7
 10
77.666666666667226
 20
-2493.3755150000002
 30
0.0
 40
65.153645833333329
  1
A4
 41
0.7
 11
77.666666666667226
 21
-2428.2218691666671
 31
0.0
 73
     3
  0
TEXT
  5
48
  8
HIBINO-BASE
 62
     7
 10
19.16666666666671
 20
-2385.284615
 30
0.0
 40
32.576822916666671
  1
PAPER SIZE
 41
0.7
 11
19.16666666666671
 21
-2352.7077920833331
 31
0.0
 73
     3
  0
TEXT
  5
49
  8
HIBINO-BASE
 62
     7
 10
-1656.319999999999
 20
-2661.0690710000008
 30
0.0
 40
72.000883593749975
  1
Hibino Corporation
 41
0.7
 11
-1656.319999999999
 21
-2589.0681874062511
 31
0.0
 73
     3
  0
TEXT
  5
4A
  8
HIBINO-BASE
 62
     7
 10
1001.3678
 20
-2661.0690710000008
 30
0.0
 40
72.000883593749975
  1
ヒビノ株式会社
 41
0.7
 11
1001.3678
 21
-2589.0681874062511
 31
0.0
 73
     3
  0
LINE
  5
4B
  8
SPEC
  6
CONTINUOUS
 62
     7
 10
-1649.9999999999991
 20
2467.1044849999998
 30
0.0
 11
1299.999992625
 21
2467.1044849999998
 31
0.0
  0
LINE
  5
4C
  8
SPEC
  6
CONTINUOUS
 62
     7
 10
-1649.9999999999991
 20
2392.1044851874999
 30
0.0
 11
1299.999992625
 21
2392.1044851874999
 31
0.0
  0
LINE
  5
4D
  8
SPEC
  6
CONTINUOUS
 62
     7
 10
-1649.9999999999991
 20
2467.1044849999998
 30
0.0
 11
-1649.9999999999991
 21
1117.1044883749989
 31
0.0
  0
TEXT
  5
4E
  8
SPEC
 62
     7
 10
-1625.0000000624991
 20
2494.9698849303359
 30
0.0
 40
48.865234252836913
  1
仕様
 41
0.7
 11
-1625.0000000624991
 21
2543.835119183173
 31
0.0
 73
     3
  0
LINE
  5
4F
  8
SPEC
  6
CONTINUOUS
 62
     7
 10
-733.33333562500025
 20
2467.1044849999998
 30
0.0
 11
-733.33333562500025
 21
1117.1044883749989
 31
0.0
  0
LINE
  5
50
  8
SPEC
  6
CONTINUOUS
 62
     7
 10
1299.999992625
 20
2467.1044849999998
 30
0.0
 11
1299.999992625
 21
1117.1044883749989
 31
0.0
  0
LINE
  5
51
  8
SPEC
  6
CONTINUOUS
 62
     7
 10
-1649.9999999999991
 20
2317.104485375
 30
0.0
 11
1299.999992625
 21
2317.104485375
 31
0.0
  0
LINE
  5
52
  8
SPEC
  6
CONTINUOUS
 62
     7
 10
-1649.9999999999991
 20
2242.1044855625
 30
0.0
 11
1299.999992625
 21
2242.1044855625
 31
0.0
  0
TEXT
  5
53
  8
SPEC
 62
     7
 10
-1632.0000000450009
 20
2407.8628405974732
 30
0.0
 40
38.006293402777779
  1
形式
 41
0.7
 11
-1632.0000000450009
 21
2445.8691340002511
 31
0.0
 73
     3
  0
TEXT
  5
54
  8
SPEC
 62
     7
 10
-1632.0000000450009
 20
2336.824485219513
 30
0.0
 40
38.006293402777779
  1
周波数レンジ(-10dB)
 41
0.7
 11
-1632.0000000450009
 21
2374.8307786222908
 31
0.0
 73
     3
  0
TEXT
  5
55
  8
SPEC
 62
     7
 10
-1632.0000000450009
 20
2261.8244854070131
 30
0.0
 40
38.006293402777779
  1
指向角度(水平\U+00D7垂直)
 41
0.7
 11
-1632.0000000450009
 21
2299.8307788097909
 31
0.0
 73
     3
  0
TEXT
  5
56
  8
SPEC
 62
     7
 10
-1632.0000000450009
 20
2186.8244855945131
 30
0.0
 40
38.006293402777779
  1
最大音圧レベル(1m)
 41
0.7
 11
-1632.0000000450009
 21
2224.8307789972901
 31
0.0
 73
     3
  0
TEXT
  5
57
  8
SPEC
 62
     7
 10
-1632.0000000450009
 20
2111.8244857820141
 30
0.0
 40
38.006293402777779
  1
ドライバー構成
 41
0.7
 11
-1632.0000000450009
 21
2149.830779184791
 31
0.0
 73
     3
  0
TEXT
  5
58
  8
SPEC
 62
     7
 10
-1182.000001170001
 20
2111.8244857820132
 30
0.0
 40
38.006293402777779
  1
LF
 41
0.7
 11
-1182.000001170001
 21
2149.830779184791
 31
0.0
 73
     3
  0
LINE
  5
59
  8
SPEC
  6
CONTINUOUS
 62
     7
 10
-1649.9999999999991
 20
2167.1044857499992
 30
0.0
 11
1299.999992625
 21
2167.1044857499992
 31
0.0
  0
LINE
  5
5A
  8
SPEC
  6
CONTINUOUS
 62
     7
 10
-1200.0000011249999
 20
2167.1044857499992
 30
0.0
 11
-1200.0000011249999
 21
1942.1044863124989
 31
0.0
  0
TEXT
  5
5B
  8
SPEC
 62
     7
 10
-715.33333567000091
 20
2411.8244861570129
 30
0.0
 40
38.006293402777779
  1
3-Wayパワード・フルレンジ
 41
0.7
 11
-715.33333567000091
 21
2449.8307795597912
 31
0.0
 73
     3
  0
TEXT
  5
5C
  8
SPEC
 62
     7
 10
-715.33333567000091
 20
2261.8244861570138
 30
0.0
 40
38.006293402777779
  1
90\U+00B0\U+00D7 50\U+00B0
 41
0.7
 11
-715.33333567000091
 21
2299.8307795597912
 31
0.0
 73
     3
  0
TEXT
  5
5D
  8
SPEC
 62
     7
 10
-715.33333567000091
 20
2186.8244861570129
 30
0.0
 40
38.006293402777779
  1
136dB SPL(ピーク)
 41
0.7
 11
-715.33333567000091
 21
2224.8307795597912
 31
0.0
 73
     3
  0
TEXT
  5
5E
  8
SPEC
 62
     7
 10
-715.33333567000091
 20
2336.8244861570129
 30
0.0
 40
38.006293402777779
  1
35Hz～20kHz(EQ:NORMAL時)
 41
0.7
 11
-715.33333567000091
 21
2374.8307795597921
 31
0.0
 73
     3
  0
TEXT
  5
5F
  8
SPEC
 62
     7
 10
-715.33333567000091
 20
2111.8244861570129
 30
0.0
 40
38.006293402777779
  1
380mm(275G)
 41
0.7
 11
-715.33333567000091
 21
2149.8307795597912
 31
0.0
 73
     3
  0
LINE
  5
60
  8
SPEC
  6
CONTINUOUS
 62
     7
 10
-1200.0000011249999
 20
2092.1044859374988
 30
0.0
 11
1299.999992625
 21
2092.1044859374988
 31
0.0
  0
TEXT
  5
61
  8
SPEC
 62
     7
 10
-1182.000001170001
 20
2036.824485969513
 30
0.0
 40
38.006293402777779
  1
MF
 41
0.7
 11
-1182.000001170001
 21
2074.8307793722911
 31
0.0
 73
     3
  0
LINE
  5
62
  8
SPEC
  6
CONTINUOUS
 62
     7
 10
-1649.9999999999991
 20
1117.1044883749989
 30
0.0
 11
1299.999992625
 21
1117.1044883749989
 31
0.0
  0
LINE
  5
63
  8
SPEC
  6
CONTINUOUS
 62
     7
 10
-1649.9999999999991
 20
1192.1044881875
 30
0.0
 11
1299.999992625
 21
1192.1044881875
 31
0.0
  0
TEXT
  5
64
  8
SPEC
 62
     7
 10
-1632.0000000450009
 20
1211.8244880320131
 30
0.0
 40
38.006293402777779
  1
寸法(W\U+00D7H\U+00D7D)
 41
0.7
 11
-1632.0000000450009
 21
1249.8307814347911
 31
0.0
 73
     3
  0
TEXT
  5
65
  8
SPEC
 62
     7
 10
-1632.0000000450009
 20
1136.824488219514
 30
0.0
 40
38.006293402777779
  1
質量
 41
0.7
 11
-1632.0000000450009
 21
1174.8307816222921
 31
0.0
 73
     3
  0
TEXT
  5
66
  8
SPEC
 62
     7
 10
-715.33333567000091
 20
1136.8244882195129
 30
0.0
 40
38.006293402777779
  1
32kg
 41
0.7
 11
-715.33333567000091
 21
1174.83078162229
 31
0.0
 73
     3
  0
LINE
  5
67
  8
SPEC
  6
CONTINUOUS
 62
     7
 10
-1200.0000011249999
 20
2017.1044861249991
 30
0.0
 11
1299.999992625
 21
2017.1044861249991
 31
0.0
  0
LINE
  5
68
  8
SPEC
  6
CONTINUOUS
 62
     7
 10
-1649.9999999999991
 20
1867.104486499999
 30
0.0
 11
1299.999992625
 21
1867.104486499999
 31
0.0
  0
LINE
  5
69
  8
SPEC
  6
CONTINUOUS
 62
     7
 10
-1200.0000011249999
 20
1717.1044868749991
 30
0.0
 11
1299.999992625
 21
1717.1044868749991
 31
0.0
  0
LINE
  5
6A
  8
SPEC
  6
CONTINUOUS
 62
     7
 10
-1200.0000011249999
 20
1642.1044870624989
 30
0.0
 11
1299.999992625
 21
1642.1044870624989
 31
0.0
  0
LINE
  5
6B
  8
SPEC
  6
CONTINUOUS
 62
     7
 10
-1649.9999999999991
 20
1492.1044874374991
 30
0.0
 11
1299.999992625
 21
1492.1044874374991
 31
0.0
  0
LINE
  5
6C
  8
SPEC
  6
CONTINUOUS
 62
     7
 10
-1649.9999999999991
 20
1417.1044876249989
 30
0.0
 11
1299.999992625
 21
1417.1044876249989
 31
0.0
  0
LINE
  5
6D
  8
SPEC
  6
CONTINUOUS
 62
     7
 10
-1649.9999999999991
 20
1342.104487812499
 30
0.0
 11
1299.999992625
 21
1342.104487812499
 31
0.0
  0
LINE
  5
6E
  8
SPEC
  6
CONTINUOUS
 62
     7
 10
-1649.9999999999991
 20
1267.1044879999999
 30
0.0
 11
1299.999992625
 21
1267.1044879999999
 31
0.0
  0
TEXT
  5
6F
  8
SPEC
 62
     7
 10
-715.33333567000091
 20
1211.8244880320131
 30
0.0
 40
38.006293402777779
  1
446\U+00D7951\U+00D7538(除突起部)
 41
0.7
 11
-715.33333567000091
 21
1249.8307814347911
 31
0.0
 73
     3
  0
TEXT
  5
70
  8
SPEC
 62
     7
 10
-713.32842432733776
 20
1738.829398062177
 30
0.0
 40
38.006293402777779
  1
2
 41
0.7
 11
-713.32842432733776
 21
1776.8356914649539
 31
0.0
 73
     3
  0
TEXT
  5
71
  8
SPEC
 62
     7
 10
-1632.0000000450009
 20
1886.8244863445129
 30
0.0
 40
38.006293402777779
  1
クロスオーバー周波数
 41
0.7
 11
-1632.0000000450009
 21
1924.830779747291
 31
0.0
 73
     3
  0
TEXT
  5
72
  8
SPEC
 62
     7
 10
-1632.0000000450009
 20
1811.824486532013
 30
0.0
 40
38.006293402777779
  1
パワーアンプ
 41
0.7
 11
-1632.0000000450009
 21
1849.8307799347899
 31
0.0
 73
     3
  0
TEXT
  5
73
  8
SPEC
 62
     7
 10
-1632.0000000450009
 20
1736.8244867195131
 30
0.0
 40
38.006293402777779
  1
入力
 41
0.7
 11
-1632.0000000450009
 21
1774.8307801222909
 31
0.0
 73
     3
  0
TEXT
  5
74
  8
SPEC
 62
     7
 10
-715.33333567000091
 20
1361.8244876570129
 30
0.0
 40
38.006293402777779
  1
95W
 41
0.7
 11
-715.33333567000091
 21
1399.830781059791
 31
0.0
 73
     3
  0
TEXT
  5
75
  8
SPEC
 62
     7
 10
-1632.0000000450009
 20
1511.8244872820119
 30
0.0
 40
38.006293402777779
  1
インジケーター
 41
0.7
 11
-1632.0000000450009
 21
1549.8307806847899
 31
0.0
 73
     3
  0
TEXT
  5
76
  8
SPEC
 62
     7
 10
-1632.0000000450009
 20
1436.824487469514
 30
0.0
 40
38.006293402777779
  1
電源
 41
0.7
 11
-1632.0000000450009
 21
1474.8307808722909
 31
0.0
 73
     3
  0
TEXT
  5
77
  8
SPEC
 62
     7
 10
-1632.0000000450009
 20
1361.8244876570129
 30
0.0
 40
38.006293402777779
  1
消費電力(1/8出力時、ピンクノイズ)
 41
0.7
 11
-1632.0000000450009
 21
1399.830781059791
 31
0.0
 73
     3
  0
TEXT
  5
78
  8
SPEC
 62
     7
 10
-1632.0000000450009
 20
1286.824487844513
 30
0.0
 40
38.006293402777779
  1
エンクロージャー
 41
0.7
 11
-1632.0000000450009
 21
1324.830781247291
 31
0.0
 73
     3
  0
TEXT
  5
79
  8
SPEC
 62
     7
 10
-1182.000001170001
 20
1961.8244861570131
 30
0.0
 40
38.006293402777779
  1
HF
 41
0.7
 11
-1182.000001170001
 21
1999.83077955979
 31
0.0
 73
     3
  0
TEXT
  5
7A
  8
SPEC
 62
     7
 10
-1182.000001170001
 20
1661.8244869070129
 30
0.0
 40
38.006293402777779
  1
端子・形式
 41
0.7
 11
-1182.000001170001
 21
1699.830780309791
 31
0.0
 73
     3
  0
TEXT
  5
7B
  8
SPEC
 62
     7
 10
-1182.000001170001
 20
1586.824487094513
 30
0.0
 40
38.006293402777779
  1
インピーダンス
 41
0.7
 11
-1182.000001170001
 21
1624.830780497291
 31
0.0
 73
     3
  0
LINE
  5
7C
  8
SPEC
  6
CONTINUOUS
 62
     7
 10
-1649.9999999999991
 20
1942.1044863124989
 30
0.0
 11
1299.999992625
 21
1942.1044863124989
 31
0.0
  0
LINE
  5
7D
  8
SPEC
  6
CONTINUOUS
 62
     7
 10
-1649.9999999999991
 20
1792.1044866875
 30
0.0
 11
1299.999992625
 21
1792.1044866875
 31
0.0
  0
LINE
  5
7E
  8
SPEC
  6
CONTINUOUS
 62
     7
 10
-1649.9999999999991
 20
1567.104487249999
 30
0.0
 11
1299.999992625
 21
1567.104487249999
 31
0.0
  0
LINE
  5
7F
  8
SPEC
  6
CONTINUOUS
 62
     7
 10
-1200.0000011249999
 20
1792.1044866875
 30
0.0
 11
-1200.0000011249999
 21
1567.104487249999
 31
0.0
  0
TEXT
  5
80
  8
SPEC
 62
     7
 10
-1182.000001170001
 20
1736.8244867195131
 30
0.0
 40
38.006293402777779
  1
チャンネル数
 41
0.7
 11
-1182.000001170001
 21
1774.8307801222909
 31
0.0
 73
     3
  0
TEXT
  5
81
  8
SPEC
 62
     7
 10
-715.33333567000091
 20
1961.8244861570131
 30
0.0
 40
38.006293402777779
  1
38mm(2408H-2)
 41
0.7
 11
-715.33333567000091
 21
1999.83077955979
 31
0.0
 73
     3
  0
TEXT
  5
82
  8
SPEC
 62
     7
 10
-715.33333567000091
 20
1811.824486532013
 30
0.0
 40
38.006293402777779
  1
Class D
 41
0.7
 11
-715.33333567000091
 21
1849.8307799347899
 31
0.0
 73
     3
  0
TEXT
  5
83
  8
SPEC
 62
     7
 10
-715.33333567000091
 20
1661.8244869070129
 30
0.0
 40
38.006293402777779
  1
XLRと標準フォーンジャック(3P)対応の複合型 端子\U+00D72、RCA\U+00D72
 41
0.7
 11
-715.33333567000091
 21
1699.830780309791
 31
0.0
 73
     3
  0
TEXT
  5
84
  8
SPEC
 62
     7
 10
-708.17575608155676
 20
1590.9569175966469
 30
0.0
 40
38.006293402777779
  1
20k\U+03A9(バランス)、10k\U+03A9(アンバランス)
 41
0.7
 11
-708.17575608155676
 21
1628.963210999425
 31
0.0
 73
     3
  0
TEXT
  5
85
  8
SPEC
 62
     7
 10
-715.09231321181676
 20
1512.0655097401971
 30
0.0
 40
38.006293402777779
  1
EQ、Limit、Mic/Line、Signal、Power(前面、背面)
 41
0.7
 11
-715.09231321181676
 21
1550.0718031429751
 31
0.0
 73
     3
  0
TEXT
  5
86
  8
SPEC
 62
     7
 10
-715.09231321181676
 20
1437.0655099276969
 30
0.0
 40
38.006293402777779
  1
AC100V、50/60Hz
 41
0.7
 11
-715.09231321181676
 21
1475.0718033304749
 31
0.0
 73
     3
  0
TEXT
  5
87
  8
SPEC
 62
     7
 10
-715.09231321181676
 20
1287.065510302697
 30
0.0
 40
38.006293402777779
  1
25/18mm合板、黒、DuraFlex仕上げ
 41
0.7
 11
-715.09231321181676
 21
1325.0718037054751
 31
0.0
 73
     3
  0
TEXT
  5
88
  8
SPEC
 62
     7
 10
-715.33333567000091
 20
2036.8244861570131
 30
0.0
 40
38.006293402777779
  1
165mm(196H)
 41
0.7
 11
-715.33333567000091
 21
2074.8307795597912
 31
0.0
 73
     3
  0
TEXT
  5
89
  8
SPEC
 62
     7
 10
-715.33333567000091
 20
1886.8244864062499
 30
0.0
 40
38.006293402777779
  1
480Hz、2.0kHz
 41
0.7
 11
-715.33333567000091
 21
1924.8307798090279
 31
0.0
 73
     3
  0
TEXT
  5
8A
  8
DIMNSIONS
 62
     7
 10
-400.0
 20
-2287.5057149999998
 30
0.0
 40
48.865234375000007
  1
(単位：mm)
 41
0.7
 11
-400.0
 21
-2238.6404806249998
 31
0.0
 73
     3
  0
LINE
  5
8B
  8
DIMNSIONS
  6
CONTINUOUS
 62
     7
 10
-1448.0
 20
-149.0
 30
0.0
 11
-1640.0
 21
-149.0
 31
0.0
  0
LINE
  5
8C
  8
DIMNSIONS
  6
CONTINUOUS
 62
     7
 10
-1448.0
 20
-1100.0
 30
0.0
 11
-1640.0
 21
-1100.0
 31
0.0
  0
LINE
  5
8D
  8
DIMNSIONS
  6
CONTINUOUS
 62
     7
 10
-1600.0
 20
-149.0
 30
0.0
 11
-1600.0
 21
-1100.0
 31
0.0
  0
LINE
  5
8E
  8
DIMNSIONS
  6
CONTINUOUS
 62
     7
 10
-1600.0
 20
-149.0
 30
0.0
 11
-1586.599204096995
 21
-199.012451171875
 31
0.0
  0
LINE
  5
8F
  8
DIMNSIONS
  6
CONTINUOUS
 62
     7
 10
-1600.0
 20
-149.0
 30
0.0
 11
-1613.400795903005
 21
-199.012451171875
 31
0.0
  0
LINE
  5
90
  8
DIMNSIONS
  6
CONTINUOUS
 62
     7
 10
-1600.0
 20
-1100.0
 30
0.0
 11
-1613.400795903005
 21
-1049.987548828125
 31
0.0
  0
LINE
  5
91
  8
DIMNSIONS
  6
CONTINUOUS
 62
     7
 10
-1600.0
 20
-1100.0
 30
0.0
 11
-1586.599204096995
 21
-1049.987548828125
 31
0.0
  0
TEXT
  5
92
  8
DIMNSIONS
 62
     7
 10
-1619.877777777778
 20
-677.41666666666674
 30
0.0
 40
54.294704861111107
  1
951
 50
90.0
 41
0.7
 11
-1674.1724826388891
 21
-677.41666666666674
 31
0.0
 73
     3
  0
LINE
  5
93
  8
DIMNSIONS
  6
CONTINUOUS
 62
     7
 10
-1448.0
 20
-1100.0
 30
0.0
 11
-1640.0
 21
-1100.0
 31
0.0
  0
LINE
  5
94
  8
DIMNSIONS
  6
CONTINUOUS
 62
     7
 10
-1439.5
 20
-1103.5
 30
0.0
 11
-1640.0
 21
-1103.5
 31
0.0
  0
LINE
  5
95
  8
DIMNSIONS
  6
CONTINUOUS
 62
     7
 10
-1600.0
 20
-1103.5
 30
0.0
 11
-1600.0
 21
-1100.0
 31
0.0
  0
LINE
  5
96
  8
DIMNSIONS
  6
CONTINUOUS
 62
     7
 10
-1600.0
 20
-1100.0
 30
0.0
 11
-1600.0
 21
-1000.0
 31
0.0
  0
LINE
  5
97
  8
DIMNSIONS
  6
CONTINUOUS
 62
     7
 10
-1600.0
 20
-1100.0
 30
0.0
 11
-1613.400795903005
 21
-1049.987548828125
 31
0.0
  0
LINE
  5
98
  8
DIMNSIONS
  6
CONTINUOUS
 62
     7
 10
-1600.0
 20
-1100.0
 30
0.0
 11
-1586.599204096995
 21
-1049.987548828125
 31
0.0
  0
LINE
  5
99
  8
DIMNSIONS
  6
CONTINUOUS
 62
     7
 10
-1600.0
 20
-1103.5
 30
0.0
 11
-1600.0
 21
-1255.833333333333
 31
0.0
  0
LINE
  5
9A
  8
DIMNSIONS
  6
CONTINUOUS
 62
     7
 10
-1600.0
 20
-1103.5
 30
0.0
 11
-1586.599204096995
 21
-1153.512451171875
 31
0.0
  0
LINE
  5
9B
  8
DIMNSIONS
  6
CONTINUOUS
 62
     7
 10
-1600.0
 20
-1103.5
 30
0.0
 11
-1613.400795903005
 21
-1153.512451171875
 31
0.0
  0
TEXT
  5
9C
  8
DIMNSIONS
 62
     7
 10
-1619.877777777778
 20
-1255.833333333333
 30
0.0
 40
54.294704861111107
  1
3.5
 50
90.0
 41
0.7
 11
-1674.1724826388891
 21
-1255.833333333333
 31
0.0
 73
     3
  0
LINE
  5
9D
  8
DIMNSIONS
  6
CONTINUOUS
 62
     7
 10
-1423.0
 20
-1130.0
 30
0.0
 11
-1423.0
 21
-1290.0
 31
0.0
  0
LINE
  5
9E
  8
DIMNSIONS
  6
CONTINUOUS
 62
     7
 10
-977.0
 20
-1130.0
 30
0.0
 11
-977.0
 21
-1290.0
 31
0.0
  0
LINE
  5
9F
  8
DIMNSIONS
  6
CONTINUOUS
 62
     7
 10
-1423.0
 20
-1250.0
 30
0.0
 11
-977.0
 21
-1250.0
 31
0.0
  0
LINE
  5
A0
  8
DIMNSIONS
  6
CONTINUOUS
 62
     7
 10
-1423.0
 20
-1250.0
 30
0.0
 11
-1372.987548828125
 21
-1236.599204096995
 31
0.0
  0
LINE
  5
A1
  8
DIMNSIONS
  6
CONTINUOUS
 62
     7
 10
-1423.0
 20
-1250.0
 30
0.0
 11
-1372.987548828125
 21
-1263.400795903005
 31
0.0
  0
LINE
  5
A2
  8
DIMNSIONS
  6
CONTINUOUS
 62
     7
 10
-977.0
 20
-1250.0
 30
0.0
 11
-1027.012451171875
 21
-1263.400795903005
 31
0.0
  0
LINE
  5
A3
  8
DIMNSIONS
  6
CONTINUOUS
 62
     7
 10
-977.0
 20
-1250.0
 30
0.0
 11
-1027.012451171875
 21
-1236.599204096995
 31
0.0
  0
TEXT
  5
A4
  8
DIMNSIONS
 62
     7
 10
-1252.916666666667
 20
-1230.122222222222
 30
0.0
 40
54.294704861111107
  1
446
 41
0.7
 11
-1252.916666666667
 21
-1175.8275173611109
 31
0.0
 73
     3
  0
LINE
  5
A5
  8
DIMNSIONS
  6
CONTINUOUS
 62
     7
 10
-1240.0
 20
100.0
 30
0.0
 11
-1640.0
 21
100.0
 31
0.0
  0
LINE
  5
A6
  8
DIMNSIONS
  6
CONTINUOUS
 62
     7
 10
-1341.8987248127339
 20
638.0
 30
0.0
 11
-1640.0
 21
638.0
 31
0.0
  0
LINE
  5
A7
  8
DIMNSIONS
  6
CONTINUOUS
 62
     7
 10
-1600.0
 20
100.0
 30
0.0
 11
-1600.0
 21
638.0
 31
0.0
  0
LINE
  5
A8
  8
DIMNSIONS
  6
CONTINUOUS
 62
     7
 10
-1600.0
 20
100.0
 30
0.0
 11
-1613.400795903005
 21
150.012451171875
 31
0.0
  0
LINE
  5
A9
  8
DIMNSIONS
  6
CONTINUOUS
 62
     7
 10
-1600.0
 20
100.0
 30
0.0
 11
-1586.599204096995
 21
150.012451171875
 31
0.0
  0
LINE
  5
AA
  8
DIMNSIONS
  6
CONTINUOUS
 62
     7
 10
-1600.0
 20
638.0
 30
0.0
 11
-1586.599204096995
 21
587.987548828125
 31
0.0
  0
LINE
  5
AB
  8
DIMNSIONS
  6
CONTINUOUS
 62
     7
 10
-1600.0
 20
638.0
 30
0.0
 11
-1613.400795903005
 21
587.987548828125
 31
0.0
  0
TEXT
  5
AC
  8
DIMNSIONS
 62
     7
 10
-1619.877777777778
 20
316.08333333333331
 30
0.0
 40
54.294704861111107
  1
538
 50
90.0
 41
0.7
 11
-1674.1724826388891
 21
316.08333333333331
 31
0.0
 73
     3
  0
LINE
  5
AD
  8
DIMNSIONS
  6
CONTINUOUS
 62
     7
 10
-1058.1012751872661
 20
638.0
 30
0.0
 11
-960.0
 21
638.0
 31
0.0
  0
LINE
  5
AE
  8
DIMNSIONS
  6
CONTINUOUS
 62
     7
 10
-1160.0
 20
595.0
 30
0.0
 11
-960.0
 21
595.0
 31
0.0
  0
LINE
  5
AF
  8
DIMNSIONS
  6
CONTINUOUS
 62
     7
 10
-1000.0
 20
595.0
 30
0.0
 11
-1000.0
 21
638.0
 31
0.0
  0
LINE
  5
B0
  8
DIMNSIONS
  6
CONTINUOUS
 62
     7
 10
-1000.0
 20
638.0
 30
0.0
 11
-1000.0
 21
791.11111111111131
 31
0.0
  0
LINE
  5
B1
  8
DIMNSIONS
  6
CONTINUOUS
 62
     7
 10
-1000.0
 20
638.0
 30
0.0
 11
-1013.400795903005
 21
688.012451171875
 31
0.0
  0
LINE
  5
B2
  8
DIMNSIONS
  6
CONTINUOUS
 62
     7
 10
-1000.0
 20
638.0
 30
0.0
 11
-986.59920409699532
 21
688.012451171875
 31
0.0
  0
LINE
  5
B3
  8
DIMNSIONS
  6
CONTINUOUS
 62
     7
 10
-1000.0
 20
595.0
 30
0.0
 11
-1000.0
 21
495.0
 31
0.0
  0
LINE
  5
B4
  8
DIMNSIONS
  6
CONTINUOUS
 62
     7
 10
-1000.0
 20
595.0
 30
0.0
 11
-986.59920409699532
 21
544.98754882812489
 31
0.0
  0
LINE
  5
B5
  8
DIMNSIONS
  6
CONTINUOUS
 62
     7
 10
-1000.0
 20
595.0
 30
0.0
 11
-1013.400795903005
 21
544.98754882812489
 31
0.0
  0
TEXT
  5
B6
  8
DIMNSIONS
 62
     7
 10
-1019.877777777778
 20
649.99999999999989
 30
0.0
 40
54.294704861111107
  1
43.0
 50
90.0
 41
0.7
 11
-1074.1724826388891
 21
649.99999999999989
 31
0.0
 73
     3
  0
LINE
  5
B7
  8
DIMNSIONS
  6
CONTINUOUS
 62
     7
 10
-1058.1012751872661
 20
638.0
 30
0.0
 11
-835.0
 21
638.0
 31
0.0
  0
LINE
  5
B8
  8
DIMNSIONS
  6
CONTINUOUS
 62
     7
 10
-980.0
 20
230.0
 30
0.0
 11
-835.0
 21
230.0
 31
0.0
  0
LINE
  5
B9
  8
DIMNSIONS
  6
CONTINUOUS
 62
     7
 10
-875.0
 20
638.0
 30
0.0
 11
-875.0
 21
230.0
 31
0.0
  0
LINE
  5
BA
  8
DIMNSIONS
  6
CONTINUOUS
 62
     7
 10
-875.0
 20
638.0
 30
0.0
 11
-861.59920409699532
 21
587.987548828125
 31
0.0
  0
LINE
  5
BB
  8
DIMNSIONS
  6
CONTINUOUS
 62
     7
 10
-875.0
 20
638.0
 30
0.0
 11
-888.40079590300502
 21
587.987548828125
 31
0.0
  0
LINE
  5
BC
  8
DIMNSIONS
  6
CONTINUOUS
 62
     7
 10
-875.0
 20
230.0
 30
0.0
 11
-888.40079590300502
 21
280.012451171875
 31
0.0
  0
LINE
  5
BD
  8
DIMNSIONS
  6
CONTINUOUS
 62
     7
 10
-875.0
 20
230.0
 30
0.0
 11
-861.59920409699532
 21
280.012451171875
 31
0.0
  0
TEXT
  5
BE
  8
DIMNSIONS
 62
     7
 10
-894.87777777777762
 20
381.08333333333331
 30
0.0
 40
54.294704861111107
  1
408
 50
90.0
 41
0.7
 11
-949.17248263888871
 21
381.08333333333331
 31
0.0
 73
     3
  0
LINE
  5
BF
  8
DIMNSIONS
  6
CONTINUOUS
 62
     7
 10
-1380.0
 20
190.0
 30
0.0
 11
-1380.0
 21
-40.0
 31
0.0
  0
LINE
  5
C0
  8
DIMNSIONS
  6
CONTINUOUS
 62
     7
 10
-1020.0
 20
190.0
 30
0.0
 11
-1020.0
 21
-40.0
 31
0.0
  0
LINE
  5
C1
  8
DIMNSIONS
  6
CONTINUOUS
 62
     7
 10
-1380.0
 20
0.0
 30
0.0
 11
-1020.0
 21
0.0
 31
0.0
  0
LINE
  5
C2
  8
DIMNSIONS
  6
CONTINUOUS
 62
     7
 10
-1380.0
 20
0.0
 30
0.0
 11
-1329.987548828125
 21
13.400795903004861
 31
0.0
  0
LINE
  5
C3
  8
DIMNSIONS
  6
CONTINUOUS
 62
     7
 10
-1380.0
 20
0.0
 30
0.0
 11
-1329.987548828125
 21
-13.400795903004861
 31
0.0
  0
LINE
  5
C4
  8
DIMNSIONS
  6
CONTINUOUS
 62
     7
 10
-1020.0
 20
0.0
 30
0.0
 11
-1070.012451171875
 21
-13.40079590300487
 31
0.0
  0
LINE
  5
C5
  8
DIMNSIONS
  6
CONTINUOUS
 62
     7
 10
-1020.0
 20
0.0
 30
0.0
 11
-1070.012451171875
 21
13.400795903004861
 31
0.0
  0
TEXT
  5
C6
  8
DIMNSIONS
 62
     7
 10
-1252.916666666667
 20
19.877777777777791
 30
0.0
 40
54.294704861111107
  1
360
 41
0.7
 11
-1252.916666666667
 21
74.172482638888908
 31
0.0
 73
     3
  0
LINE
  5
C7
  8
DIMNSIONS
  6
CONTINUOUS
 62
     7
 10
-630.0
 20
-1049.5
 30
0.0
 11
-110.0
 21
-1049.5
 31
0.0
  0
LINE
  5
C8
  8
DIMNSIONS
  6
CONTINUOUS
 62
     7
 10
-237.0
 20
-1100.0
 30
0.0
 11
-110.0
 21
-1100.0
 31
0.0
  0
LINE
  5
C9
  8
DIMNSIONS
  6
CONTINUOUS
 62
     7
 10
-150.0
 20
-1100.0
 30
0.0
 11
-150.0
 21
-1049.5
 31
0.0
  0
LINE
  5
CA
  8
DIMNSIONS
  6
CONTINUOUS
 62
     7
 10
-150.0
 20
-1049.5
 30
0.0
 11
-150.0
 21
-949.5
 31
0.0
  0
LINE
  5
CB
  8
DIMNSIONS
  6
CONTINUOUS
 62
     7
 10
-150.0
 20
-1049.5
 30
0.0
 11
-163.40079590300479
 21
-999.487548828125
 31
0.0
  0
LINE
  5
CC
  8
DIMNSIONS
  6
CONTINUOUS
 62
     7
 10
-150.0
 20
-1049.5
 30
0.0
 11
-136.59920409699509
 21
-999.487548828125
 31
0.0
  0
LINE
  5
CD
  8
DIMNSIONS
  6
CONTINUOUS
 62
     7
 10
-150.0
 20
-1100.0
 30
0.0
 11
-150.0
 21
-1266.1111111111111
 31
0.0
  0
LINE
  5
CE
  8
DIMNSIONS
  6
CONTINUOUS
 62
     7
 10
-150.0
 20
-1100.0
 30
0.0
 11
-136.59920409699509
 21
-1150.012451171875
 31
0.0
  0
LINE
  5
CF
  8
DIMNSIONS
  6
CONTINUOUS
 62
     7
 10
-150.0
 20
-1100.0
 30
0.0
 11
-163.40079590300479
 21
-1150.012451171875
 31
0.0
  0
TEXT
  5
D0
  8
DIMNSIONS
 62
     7
 10
-169.87777777777771
 20
-1266.1111111111111
 30
0.0
 40
54.294704861111107
  1
50.5
 50
90.0
 41
0.7
 11
-224.17248263888891
 21
-1266.1111111111111
 31
0.0
 73
     3
  0
LINE
  5
D1
  8
DIMNSIONS
  6
CONTINUOUS
 62
     7
 10
-630.0
 20
-1049.5
 30
0.0
 11
-110.0
 21
-1049.5
 31
0.0
  0
LINE
  5
D2
  8
DIMNSIONS
  6
CONTINUOUS
 62
     7
 10
-630.0
 20
-199.5
 30
0.0
 11
-110.0
 21
-199.5
 31
0.0
  0
LINE
  5
D3
  8
DIMNSIONS
  6
CONTINUOUS
 62
     7
 10
-150.0
 20
-1049.5
 30
0.0
 11
-150.0
 21
-199.5
 31
0.0
  0
LINE
  5
D4
  8
DIMNSIONS
  6
CONTINUOUS
 62
     7
 10
-150.0
 20
-1049.5
 30
0.0
 11
-163.40079590300479
 21
-999.487548828125
 31
0.0
  0
LINE
  5
D5
  8
DIMNSIONS
  6
CONTINUOUS
 62
     7
 10
-150.0
 20
-1049.5
 30
0.0
 11
-136.59920409699509
 21
-999.487548828125
 31
0.0
  0
LINE
  5
D6
  8
DIMNSIONS
  6
CONTINUOUS
 62
     7
 10
-150.0
 20
-199.5
 30
0.0
 11
-136.59920409699509
 21
-249.512451171875
 31
0.0
  0
LINE
  5
D7
  8
DIMNSIONS
  6
CONTINUOUS
 62
     7
 10
-150.0
 20
-199.5
 30
0.0
 11
-163.40079590300479
 21
-249.512451171875
 31
0.0
  0
TEXT
  5
D8
  8
DIMNSIONS
 62
     7
 10
-169.87777777777771
 20
-677.41666666666674
 30
0.0
 40
54.294704861111107
  1
850
 50
90.0
 41
0.7
 11
-224.17248263888891
 21
-677.41666666666674
 31
0.0
 73
     3
  0
LINE
  5
D9
  8
DIMNSIONS
  6
CONTINUOUS
 62
     7
 10
240.00000000000031
 20
-199.5
 30
0.0
 11
590.0
 21
-199.5
 31
0.0
  0
LINE
  5
DA
  8
DIMNSIONS
  6
CONTINUOUS
 62
     7
 10
240.00000000000031
 20
-1049.5
 30
0.0
 11
590.0
 21
-1049.5
 31
0.0
  0
LINE
  5
DB
  8
DIMNSIONS
  6
CONTINUOUS
 62
     7
 10
550.0
 20
-199.5
 30
0.0
 11
550.0
 21
-1049.5
 31
0.0
  0
LINE
  5
DC
  8
DIMNSIONS
  6
CONTINUOUS
 62
     7
 10
550.0
 20
-199.5
 30
0.0
 11
563.40079590300468
 21
-249.512451171875
 31
0.0
  0
LINE
  5
DD
  8
DIMNSIONS
  6
CONTINUOUS
 62
     7
 10
550.0
 20
-199.5
 30
0.0
 11
536.59920409699521
 21
-249.512451171875
 31
0.0
  0
LINE
  5
DE
  8
DIMNSIONS
  6
CONTINUOUS
 62
     7
 10
550.0
 20
-1049.5
 30
0.0
 11
536.59920409699521
 21
-999.487548828125
 31
0.0
  0
LINE
  5
DF
  8
DIMNSIONS
  6
CONTINUOUS
 62
     7
 10
550.0
 20
-1049.5
 30
0.0
 11
563.40079590300468
 21
-999.487548828125
 31
0.0
  0
TEXT
  5
E0
  8
DIMNSIONS
 62
     7
 10
530.12222222222215
 20
-677.41666666666674
 30
0.0
 40
54.294704861111107
  1
850
 50
90.0
 41
0.7
 11
475.82751736111112
 21
-677.41666666666674
 31
0.0
 73
     3
  0
LINE
  5
E1
  8
DIMNSIONS
  6
CONTINUOUS
 62
     7
 10
240.00000000000031
 20
-1049.5
 30
0.0
 11
590.0
 21
-1049.5
 31
0.0
  0
LINE
  5
E2
  8
DIMNSIONS
  6
CONTINUOUS
 62
     7
 10
448.0
 20
-1100.0
 30
0.0
 11
590.0
 21
-1100.0
 31
0.0
  0
LINE
  5
E3
  8
DIMNSIONS
  6
CONTINUOUS
 62
     7
 10
550.0
 20
-1100.0
 30
0.0
 11
550.0
 21
-1049.5
 31
0.0
  0
LINE
  5
E4
  8
DIMNSIONS
  6
CONTINUOUS
 62
     7
 10
550.0
 20
-1049.5
 30
0.0
 11
550.0
 21
-949.5
 31
0.0
  0
LINE
  5
E5
  8
DIMNSIONS
  6
CONTINUOUS
 62
     7
 10
550.0
 20
-1049.5
 30
0.0
 11
536.59920409699521
 21
-999.487548828125
 31
0.0
  0
LINE
  5
E6
  8
DIMNSIONS
  6
CONTINUOUS
 62
     7
 10
550.0
 20
-1049.5
 30
0.0
 11
563.40079590300468
 21
-999.487548828125
 31
0.0
  0
LINE
  5
E7
  8
DIMNSIONS
  6
CONTINUOUS
 62
     7
 10
550.0
 20
-1100.0
 30
0.0
 11
550.0
 21
-1266.1111111111111
 31
0.0
  0
LINE
  5
E8
  8
DIMNSIONS
  6
CONTINUOUS
 62
     7
 10
550.0
 20
-1100.0
 30
0.0
 11
563.40079590300468
 21
-1150.012451171875
 31
0.0
  0
LINE
  5
E9
  8
DIMNSIONS
  6
CONTINUOUS
 62
     7
 10
550.0
 20
-1100.0
 30
0.0
 11
536.59920409699521
 21
-1150.012451171875
 31
0.0
  0
TEXT
  5
EA
  8
DIMNSIONS
 62
     7
 10
530.12222222222215
 20
-1266.1111111111111
 30
0.0
 40
54.294704861111107
  1
50.5
 50
90.0
 41
0.7
 11
475.82751736111112
 21
-1266.1111111111111
 31
0.0
 73
     3
  0
LINE
  5
EB
  8
DIMNSIONS
  6
CONTINUOUS
 62
     7
 10
-1011.679497056615
 20
224.4529980377437
 30
0.0
 11
-900.0
 21
149.99999999999989
 31
0.0
  0
LINE
  5
EC
  8
DIMNSIONS
  6
CONTINUOUS
 62
     7
 10
-1011.679497056615
 20
224.4529980377437
 30
0.0
 11
-962.43692967891025
 21
208.4531180036513
 31
0.0
  0
LINE
  5
ED
  8
DIMNSIONS
  6
CONTINUOUS
 62
     7
 10
-1011.679497056615
 20
224.4529980377437
 30
0.0
 11
-977.03412277700227
 21
185.9754117818637
 31
0.0
  0
LINE
  5
EE
  8
DIMNSIONS
  6
CONTINUOUS
 62
     7
 10
-900.0
 20
149.99999999999989
 30
0.0
 11
-683.6111111111112
 21
149.99999999999989
 31
0.0
  0
TEXT
  5
EF
  8
DIMNSIONS
 62
     7
 10
-860.0
 20
169.87777777777771
 30
0.0
 40
54.294704861111107
  1
6-M10
 41
0.7
 11
-860.0
 21
224.17248263888879
 31
0.0
 73
     3
  0
LINE
  5
F0
  8
DIMNSIONS
  6
CONTINUOUS
 62
     7
 10
-665.75954172189563
 20
-190.4435926774772
 30
0.0
 11
-600.0
 21
-50.000000000000021
 31
0.0
  0
LINE
  5
F1
  8
DIMNSIONS
  6
CONTINUOUS
 62
     7
 10
-665.75954172189563
 20
-190.4435926774772
 30
0.0
 11
-655.88008172123898
 21
-139.61817705548151
 31
0.0
  0
LINE
  5
F2
  8
DIMNSIONS
  6
CONTINUOUS
 62
     7
 10
-665.75954172189563
 20
-190.4435926774772
 30
0.0
 11
-631.79097057465685
 21
-151.3672215912548
 31
0.0
  0
LINE
  5
F3
  8
DIMNSIONS
  6
CONTINUOUS
 62
     7
 10
-600.0
 20
-50.000000000000021
 30
0.0
 11
-383.6111111111112
 21
-50.000000000000021
 31
0.0
  0
TEXT
  5
F4
  8
DIMNSIONS
 62
     7
 10
-560.0
 20
-30.122222222222248
 30
0.0
 40
54.294704861111107
  1
4-M10
 41
0.7
 11
-560.0
 21
24.172482638888869
 31
0.0
 73
     3
  0
LINE
  5
F5
  8
DIMNSIONS
  6
CONTINUOUS
 62
     7
 10
203.171791443834
 20
-190.01634358293711
 30
0.0
 11
250.0
 21
-50.0
 31
0.0
  0
LINE
  5
F6
  8
DIMNSIONS
  6
CONTINUOUS
 62
     7
 10
203.171791443834
 20
-190.01634358293711
 30
0.0
 11
206.78355141763359
 21
-138.3657695982771
 31
0.0
  0
LINE
  5
F7
  8
DIMNSIONS
  6
CONTINUOUS
 62
     7
 10
203.171791443834
 20
-190.01634358293711
 30
0.0
 11
232.12495432584629
 21
-147.0915143790738
 31
0.0
  0
LINE
  5
F8
  8
DIMNSIONS
  6
CONTINUOUS
 62
     7
 10
250.0
 20
-50.0
 30
0.0
 11
466.3888888888888
 21
-50.0
 31
0.0
  0
TEXT
  5
F9
  8
DIMNSIONS
 62
     7
 10
290.0
 20
-30.122222222222231
 30
0.0
 40
54.294704861111107
  1
2-M10
 41
0.7
 11
290.0
 21
24.172482638888891
 31
0.0
 73
     3
  0
LINE
  5
FA
  8
DATA
  6
STYLE_11
 62
     7
 10
200.0012795976329
 20
-873.49999999999989
 30
0.0
 11
185.00002047870319
 21
-873.49999999999989
 31
0.0
  0
TEXT
  5
FB
  8
DATA
 62
     7
 10
222.52334798057049
 20
-789.71750785744985
 30
0.0
 40
2.8504720052083332
  1
CH1/MIX/CH2
 41
0.7
 72
     1
 11
232.49999999879969
 21
-788.29227185484558
 31
0.0
 73
     2
  0
TEXT
  5
FC
  8
DATA
 62
     7
 10
222.52334798057049
 20
-806.71750785744985
 30
0.0
 40
2.8504720052083332
  1
CH1/MIX/CH2
 41
0.7
 72
     1
 11
232.49999999879969
 21
-805.29227185484558
 31
0.0
 73
     2
  0
TEXT
  5
FD
  8
DATA
 62
     7
 10
227.27413465591781
 20
-817.38963226682483
 30
0.0
 40
4.072102864583333
  1
THRU
 41
0.7
 72
     1
 11
232.49999999879969
 21
-815.35358083453309
 31
0.0
 73
     2
  0
TEXT
  5
FE
  8
DATA
 62
     7
 10
248.6280024411702
 20
-832.07373850260399
 30
0.0
 40
2.8504720052083332
  1
+4
 41
0.7
 72
     1
 11
250.29077777754171
 21
-830.64850249999984
 31
0.0
 73
     2
  0
TEXT
  5
FF
  8
DATA
 62
     7
 10
247.63033723934731
 20
-835.77790516927087
 30
0.0
 40
2.8504720052083332
  1
dBu
 41
0.7
 72
     1
 11
250.29077777754171
 21
-834.35266916666671
 31
0.0
 73
     2
  0
TEXT
  5
100
  8
DATA
 62
     7
 10
217.86757703873019
 20
-796.48388910332346
 30
0.0
 40
4.072102864583333
  1
THRU SELECT
 41
0.7
 72
     1
 11
232.49999999879969
 21
-794.44783767103183
 31
0.0
 73
     2
  0
TEXT
  5
101
  8
DATA
 62
     7
 10
219.2928130413344
 20
-779.1936946799201
 30
0.0
 40
4.072102864583333
  1
SPK SELECT
 41
0.7
 72
     1
 11
232.49999999879969
 21
-777.15764324762836
 31
0.0
 73
     2
  0
TEXT
  5
102
  8
DATA
 62
     7
 10
204.29093418710329
 20
-803.57315266927071
 30
0.0
 40
2.8504720052083332
  1
Ground
 41
0.7
 72
     1
 11
209.9443703307665
 21
-802.14791666666645
 31
0.0
 73
     2
  0
TEXT
  5
103
  8
DATA
 62
     7
 10
206.95137472529771
 20
-807.27731933593736
 30
0.0
 40
2.8504720052083332
  1
Lift
 41
0.7
 72
     1
 11
209.9443703307665
 21
-805.85208333333321
 31
0.0
 73
     2
  0
TEXT
  5
104
  8
DATA
 62
     7
 10
148.28984653380149
 20
-804.92523600260415
 30
0.0
 40
2.8504720052083332
  1
Mic/Line
 41
0.7
 72
     1
 11
154.60839281201331
 21
-803.5
 31
0.0
 73
     2
  0
LINE
  5
105
  8
DATA
  6
CONTINUOUS
 62
     7
 10
216.39999999940051
 20
-853.50029291666669
 30
0.0
 11
216.39999999940051
 21
-807.70416666666665
 31
0.0
  0
LINE
  5
106
  8
DATA
  6
CONTINUOUS
 62
     7
 10
216.39999999940051
 20
-800.29583333333323
 30
0.0
 11
216.39999999940051
 21
-767.0
 31
0.0
  0
TEXT
  5
107
  8
DATA
 62
     7
 10
176.32461712086521
 20
-817.38963226682483
 30
0.0
 40
4.072102864583333
  1
INPUT
 41
0.7
 72
     1
 11
182.50063979881651
 21
-815.35358083453309
 31
0.0
 73
     2
  0
TEXT
  5
108
  8
DATA
 62
     7
 10
177.74985312346931
 20
-789.53605143229163
 30
0.0
 40
4.072102864583333
  1
GAIN
 41
0.7
 72
     1
 11
182.50063979881651
 21
-787.5
 31
0.0
 73
     2
  0
TEXT
  5
109
  8
DATA
 62
     7
 10
179.17508911892401
 20
-768.97315266927069
 30
0.0
 40
2.8504720052083332
  1
Limit
 41
0.7
 72
     1
 11
182.500639791667
 21
-767.54791666666654
 31
0.0
 73
     2
  0
TEXT
  5
10A
  8
DATA
 62
     7
 10
160.51178617513071
 20
-768.86065266927073
 30
0.0
 40
2.8504720052083332
  1
Signal
 41
0.7
 72
     1
 11
165.0012795833338
 21
-767.43541666666658
 31
0.0
 73
     2
  0
TEXT
  5
10B
  8
DATA
 62
     7
 10
195.51050659179711
 20
-768.86065266927085
 30
0.0
 40
2.8504720052083332
  1
Signal
 41
0.7
 72
     1
 11
200.00000000000031
 21
-767.4354166666667
 31
0.0
 73
     2
  0
TEXT
  5
10C
  8
DATA
 62
     7
 10
164.52248485338211
 20
-761.60731675096952
 30
0.0
 40
2.9319140625000002
  1
CH1
 41
0.7
 72
     1
 11
166.9168813377571
 21
-760.14135971971939
 31
0.0
 73
     2
  0
LINE
  5
10D
  8
DATA
  6
CONTINUOUS
 62
     7
 10
171.55481117665309
 20
-762.09271943943895
 30
0.0
 11
170.3548111766531
 21
-758.28271943943923
 31
0.0
  0
LINE
  5
10E
  8
DATA
  6
CONTINUOUS
 62
     7
 10
162.27895149886081
 20
-762.09271943943895
 30
0.0
 11
163.47895149886079
 21
-758.28271943943923
 31
0.0
  0
LINE
  5
10F
  8
DATA
  6
CONTINUOUS
 62
     7
 10
163.47895149886079
 20
-758.28271943943923
 30
0.0
 11
170.3548111766531
 21
-758.28271943943923
 31
0.0
  0
TEXT
  5
110
  8
DATA
 62
     7
 10
195.40147672819671
 20
-761.51459731153034
 30
0.0
 40
2.9319140625000002
  1
CH2
 41
0.7
 72
     1
 11
198.13792985319671
 21
-760.04864028028032
 31
0.0
 73
     2
  0
LINE
  5
111
  8
DATA
  6
CONTINUOUS
 62
     7
 10
202.7758596920925
 20
-762.0
 30
0.0
 11
201.57585969209251
 21
-758.19000000000005
 31
0.0
  0
LINE
  5
112
  8
DATA
  6
CONTINUOUS
 62
     7
 10
193.50000001430021
 20
-762.0
 30
0.0
 11
194.7000000143002
 21
-758.19000000000005
 31
0.0
  0
LINE
  5
113
  8
DATA
  6
CONTINUOUS
 62
     7
 10
194.70000001430131
 20
-758.19000000000005
 30
0.0
 11
201.57585969209251
 21
-758.19000000000005
 31
0.0
  0
TEXT
  5
114
  8
DATA
 62
     7
 10
146.95297381009399
 20
-832.07373850260399
 30
0.0
 40
2.8504720052083332
  1
+4
 41
0.7
 72
     1
 11
148.6157491464655
 21
-830.64850249999984
 31
0.0
 73
     2
  0
TEXT
  5
115
  8
DATA
 62
     7
 10
145.95530860827111
 20
-835.77790516927087
 30
0.0
 40
2.8504720052083332
  1
dBu
 41
0.7
 72
     1
 11
148.6157491464655
 21
-834.35266916666671
 31
0.0
 73
     2
  0
LINE
  5
116
  8
DATA
  6
CONTINUOUS
 62
     7
 10
148.6012795982335
 20
-853.50029291666669
 30
0.0
 11
148.6012795982335
 21
-837.00058583333339
 31
0.0
  0
LINE
  5
117
  8
DATA
  6
CONTINUOUS
 62
     7
 10
148.6012795982335
 20
-828.00058583333339
 30
0.0
 11
148.6012795982335
 21
-807.70416666666665
 31
0.0
  0
CIRCLE
  5
118
  8
DATA
  6
CONTINUOUS
 62
     7
 10
199.99999999995109
 20
-787.50000000007776
 30
0.0
 40
6.4999999999994564
  0
LINE
  5
119
  8
DATA
  6
CONTINUOUS
 62
     7
 10
203.82060413985189
 20
-792.75861046351588
 30
0.0
 11
205.8778525228756
 21
-795.59016994382762
 31
0.0
  0
LINE
  5
11A
  8
DATA
  6
CONTINUOUS
 62
     7
 10
206.18186735587031
 20
-785.49138953664044
 30
0.0
 11
209.51056516290211
 21
-784.40983005632813
 31
0.0
  0
LINE
  5
11B
  8
DATA
  6
CONTINUOUS
 62
     7
 10
199.99999999995109
 20
-781.00000000007776
 30
0.0
 11
199.99999999995109
 21
-777.50000000007788
 31
0.0
  0
LINE
  5
11C
  8
DATA
  6
CONTINUOUS
 62
     7
 10
193.818132644032
 20
-785.49138953664044
 30
0.0
 11
190.48943483700009
 21
-784.40983005632813
 31
0.0
  0
LINE
  5
11D
  8
DATA
  6
CONTINUOUS
 62
     7
 10
196.17939586058699
 20
-792.75861046277294
 30
0.0
 11
194.1221474770266
 21
-795.59016994382694
 31
0.0
  0
LINE
  5
11E
  8
DATA
  6
CONTINUOUS
 62
     7
 10
197.4952714199556
 20
-791.79811394161845
 30
0.0
 11
196.89006384320439
 21
-792.63111070839034
 31
0.0
  0
LINE
  5
11F
  8
DATA
  6
CONTINUOUS
 62
     7
 10
199.59549150281251
 20
-787.20610737385402
 30
0.0
 11
199.56580231848619
 21
-787.24697103039364
 31
0.0
  0
LINE
  5
120
  8
DATA
  6
CONTINUOUS
 62
     7
 10
196.6862544255803
 20
-791.21032868932639
 30
0.0
 11
196.08104684882909
 21
-792.04332545609759
 31
0.0
  0
LINE
  5
121
  8
DATA
  6
CONTINUOUS
 62
     7
 10
193.59874960537141
 20
-786.37128684524293
 30
0.0
 11
192.1215379758525
 21
-786.11081457874252
 31
0.0
  0
LINE
  5
122
  8
DATA
  6
CONTINUOUS
 62
     7
 10
193.5039596243262
 20
-787.27315327151155
 30
0.0
 11
192.00487338379779
 21
-787.2208040264577
 31
0.0
  0
LINE
  5
123
  8
DATA
  6
CONTINUOUS
 62
     7
 10
193.5356076800565
 20
-788.17943501131742
 30
0.0
 11
192.04382483700491
 21
-788.33622770621901
 31
0.0
  0
LINE
  5
124
  8
DATA
  6
CONTINUOUS
 62
     7
 10
193.69307777915691
 20
-789.07249232147558
 30
0.0
 11
192.2376341897436
 21
-789.43537516487504
 31
0.0
  0
LINE
  5
125
  8
DATA
  6
CONTINUOUS
 62
     7
 10
193.97330494526639
 20
-789.93494285728161
 30
0.0
 11
192.5825291634176
 21
-790.49685274740477
 31
0.0
  0
LINE
  5
126
  8
DATA
  6
CONTINUOUS
 62
     7
 10
194.3708348753519
 20
-790.75000000007753
 30
0.0
 11
193.07179676967479
 21
-791.50000000007776
 31
0.0
  0
LINE
  5
127
  8
DATA
  6
CONTINUOUS
 62
     7
 10
194.87793010150759
 20
-791.5017995896942
 30
0.0
 11
193.69591397109821
 21
-792.42529180268275
 31
0.0
  0
LINE
  5
128
  8
DATA
  6
CONTINUOUS
 62
     7
 10
195.484720591967
 20
-792.17570870227905
 30
0.0
 11
194.4427330362798
 21
-793.25471840278681
 31
0.0
  0
LINE
  5
129
  8
DATA
  6
CONTINUOUS
 62
     7
 10
204.51527940793329
 20
-792.17570870227848
 30
0.0
 11
205.5572669636224
 21
-793.25471840278703
 31
0.0
  0
LINE
  5
12A
  8
DATA
  6
CONTINUOUS
 62
     7
 10
205.12206989839461
 20
-791.5017995896942
 30
0.0
 11
206.30408602880399
 21
-792.42529180268275
 31
0.0
  0
LINE
  5
12B
  8
DATA
  6
CONTINUOUS
 62
     7
 10
205.62916512455041
 20
-790.75000000007833
 30
0.0
 11
206.92820323022741
 21
-791.50000000007776
 31
0.0
  0
LINE
  5
12C
  8
DATA
  6
CONTINUOUS
 62
     7
 10
206.02669505463589
 20
-789.93494285728104
 30
0.0
 11
207.4174708364865
 21
-790.49685274740511
 31
0.0
  0
LINE
  5
12D
  8
DATA
  6
CONTINUOUS
 62
     7
 10
206.30692222074521
 20
-789.07249232147615
 30
0.0
 11
207.7623658101586
 21
-789.43537516487504
 31
0.0
  0
LINE
  5
12E
  8
DATA
  6
CONTINUOUS
 62
     7
 10
206.46439231984391
 20
-788.17943501131765
 30
0.0
 11
207.9561751628973
 21
-788.33622770621889
 31
0.0
  0
LINE
  5
12F
  8
DATA
  6
CONTINUOUS
 62
     7
 10
206.4960403755743
 20
-787.27315327151109
 30
0.0
 11
207.9951266161045
 21
-787.2208040264577
 31
0.0
  0
LINE
  5
130
  8
DATA
  6
CONTINUOUS
 62
     7
 10
206.40125039453079
 20
-786.37128684524282
 30
0.0
 11
207.87846202404791
 21
-786.11081457874252
 31
0.0
  0
LINE
  5
131
  8
DATA
  6
CONTINUOUS
 62
     7
 10
205.84216130089609
 20
-784.65058754594884
 30
0.0
 11
207.1903523703443
 21
-783.99303082576523
 31
0.0
  0
LINE
  5
132
  8
DATA
  6
CONTINUOUS
 62
     7
 10
205.38874422155851
 20
-783.86524612751759
 30
0.0
 11
206.63230058038999
 21
-783.02645677231203
 31
0.0
  0
LINE
  5
133
  8
DATA
  6
CONTINUOUS
 62
     7
 10
204.83044136555529
 20
-783.1506510587451
 30
0.0
 11
205.94515860377049
 21
-782.14695514920675
 31
0.0
  0
LINE
  5
134
  8
DATA
  6
CONTINUOUS
 62
     7
 10
204.1781194629132
 20
-782.52071111980467
 30
0.0
 11
205.14230087744389
 21
-781.37164445512542
 31
0.0
  0
LINE
  5
135
  8
DATA
  6
CONTINUOUS
 62
     7
 10
203.44447521746801
 20
-781.987687375061
 30
0.0
 11
204.23935411381561
 21
-780.71561523082653
 31
0.0
  0
LINE
  5
136
  8
DATA
  6
CONTINUOUS
 62
     7
 10
202.64378817994319
 20
-781.56195452540169
 30
0.0
 11
203.25389314455629
 21
-780.19163633893675
 31
0.0
  0
LINE
  5
137
  8
DATA
  6
CONTINUOUS
 62
     7
 10
201.79164281276121
 20
-781.25179897647877
 30
0.0
 11
202.20509884648729
 21
-779.80990643257155
 31
0.0
  0
LINE
  5
138
  8
DATA
  6
CONTINUOUS
 62
     7
 10
200.9046251561906
 20
-781.0632575532577
 30
0.0
 11
201.11338480763169
 21
-779.5778554501461
 31
0.0
  0
LINE
  5
139
  8
DATA
  6
CONTINUOUS
 62
     7
 10
199.0953748437116
 20
-781.06325755326293
 30
0.0
 11
198.88661519227051
 21
-779.57785545014531
 31
0.0
  0
LINE
  5
13A
  8
DATA
  6
CONTINUOUS
 62
     7
 10
198.2083571871392
 20
-781.25179897647786
 30
0.0
 11
197.79490115341491
 21
-779.80990643257201
 31
0.0
  0
LINE
  5
13B
  8
DATA
  6
CONTINUOUS
 62
     7
 10
197.3562118199572
 20
-781.56195452540044
 30
0.0
 11
196.7461068553441
 21
-780.1916363389372
 31
0.0
  0
LINE
  5
13C
  8
DATA
  6
CONTINUOUS
 62
     7
 10
196.55552478243609
 20
-781.987687375061
 30
0.0
 11
195.7606458860848
 21
-780.71561523082585
 31
0.0
  0
LINE
  5
13D
  8
DATA
  6
CONTINUOUS
 62
     7
 10
195.821880536989
 20
-782.52071111980399
 30
0.0
 11
194.8576991224584
 21
-781.3716444551261
 31
0.0
  0
LINE
  5
13E
  8
DATA
  6
CONTINUOUS
 62
     7
 10
195.16955863434879
 20
-783.1506510587451
 30
0.0
 11
194.05484139613171
 21
-782.14695514920675
 31
0.0
  0
LINE
  5
13F
  8
DATA
  6
CONTINUOUS
 62
     7
 10
194.61125577834201
 20
-783.86524612751828
 30
0.0
 11
193.3676994195105
 21
-783.02645677231203
 31
0.0
  0
LINE
  5
140
  8
DATA
  6
CONTINUOUS
 62
     7
 10
194.15783869900611
 20
-784.65058754594884
 30
0.0
 11
192.80964762955799
 21
-783.99303082576569
 31
0.0
  0
ARC
  5
141
  8
DATA
  6
CONTINUOUS
 62
     7
 10
200.62717077955699
 20
-781.53286862786854
 30
0.0
 40
0.4999999999990113
 50
351.61198453549321
 51
176.3880154644454
  0
ARC
  5
142
  8
DATA
  6
CONTINUOUS
 62
     7
 10
199.99999999994751
 20
-787.50000000008265
 30
0.0
 40
5.9999999999939684
 50
238.78019184717519
 51
229.21980815276439
  0
ARC
  5
143
  8
DATA
  6
CONTINUOUS
 62
     7
 10
200.00000000000031
 20
-787.5
 30
0.0
 40
5.0000000000921938
 50
239.73026269141241
 51
228.2608295228726
  0
ARC
  5
144
  8
DATA
  6
CONTINUOUS
 62
     7
 10
198.53053686922269
 20
-789.52254248600616
 30
0.0
 40
2.500000000009412
 50
245.53695903274169
 51
222.46304096722551
  0
ARC
  5
145
  8
DATA
  6
CONTINUOUS
 62
     7
 10
197.55958014149309
 20
-782.01872725422163
 30
0.0
 40
0.5000000000004735
 50
21.61198453550028
 51
206.3880154644377
  0
ARC
  5
146
  8
DATA
  6
CONTINUOUS
 62
     7
 10
195.1458980336958
 20
-783.97328848632344
 30
0.0
 40
0.4999999999997923
 50
51.61198453558476
 51
236.38801546443511
  0
ARC
  5
147
  8
DATA
  6
CONTINUOUS
 62
     7
 10
194.03286862773371
 20
-786.87282922047405
 30
0.0
 40
0.4999999999995867
 50
81.611984535581826
 51
266.3880154644163
  0
ARC
  5
148
  8
DATA
  6
CONTINUOUS
 62
     7
 10
194.51872725408629
 20
-789.94041985853744
 30
0.0
 40
0.4999999999998832
 50
111.611984535471
 51
296.38801546446058
  0
ARC
  5
149
  8
DATA
  6
CONTINUOUS
 62
     7
 10
196.47328848618801
 20
-792.35410196633472
 30
0.0
 40
0.4999999999996429
 50
144.00000000008771
 51
324.00000000002473
  0
ARC
  5
14A
  8
DATA
  6
CONTINUOUS
 62
     7
 10
199.3728292203397
 20
-793.46713137229699
 30
0.0
 40
0.500000000000844
 50
171.6119845354977
 51
356.38801546445831
  0
ARC
  5
14B
  8
DATA
  6
CONTINUOUS
 62
     7
 10
202.44041985840181
 20
-792.98127274594333
 30
0.0
 40
0.5000000000006409
 50
201.6119845355488
 51
26.388015464390971
  0
ARC
  5
14C
  8
DATA
  6
CONTINUOUS
 62
     7
 10
204.8541019661991
 20
-791.02671151384232
 30
0.0
 40
0.4999999999992576
 50
231.61198453553621
 51
56.388015464435107
  0
ARC
  5
14D
  8
DATA
  6
CONTINUOUS
 62
     7
 10
205.96713137216119
 20
-788.12717077969103
 30
0.0
 40
0.5000000000000365
 50
261.61198453558939
 51
86.388015464419524
  0
ARC
  5
14E
  8
DATA
  6
CONTINUOUS
 62
     7
 10
205.48127274580861
 20
-785.05958014162775
 30
0.0
 40
0.4999999999996719
 50
291.61198453548059
 51
116.388015464449
  0
ARC
  5
14F
  8
DATA
  6
CONTINUOUS
 62
     7
 10
203.52671151370691
 20
-782.64589803383024
 30
0.0
 40
0.5000000000009287
 50
321.61198453558831
 51
146.38801546444941
  0
LINE
  5
150
  8
DATA
  6
STYLE_11
 62
     7
 10
205.0012795976329
 20
-863.50029291666669
 30
0.0
 11
205.0012795976329
 21
-868.5
 31
0.0
  0
LINE
  5
151
  8
DATA
  6
STYLE_11
 62
     7
 10
210.0012795976329
 20
-858.50029291666658
 30
0.0
 11
211.3999999993996
 21
-858.50029291666658
 31
0.0
  0
LINE
  5
152
  8
DATA
  6
STYLE_11
 62
     7
 10
211.3999999993996
 20
-762.0
 30
0.0
 11
193.5000000142993
 21
-762.0
 31
0.0
  0
ARC
  5
153
  8
DATA
  6
STYLE_11
 62
     7
 10
211.3999999993996
 20
-767.0
 30
0.0
 40
5.0
 50
0.0
 51
90.0
  0
ARC
  5
154
  8
DATA
  6
STYLE_11
 62
     7
 10
211.3999999993996
 20
-853.50029291666669
 30
0.0
 40
5.0
 50
270.0
 51
0.0
  0
ARC
  5
155
  8
DATA
  6
STYLE_11
 62
     7
 10
210.0012795976329
 20
-863.50029291666669
 30
0.0
 40
5.0
 50
90.0
 51
180.0
  0
ARC
  5
156
  8
DATA
  6
STYLE_11
 62
     7
 10
200.0012795976329
 20
-868.5
 30
0.0
 40
5.0
 50
270.0
 51
0.0
  0
LINE
  5
157
  8
DATA
  6
CONTINUOUS
 62
     7
 10
112.5000000000002
 20
-1024.5
 30
0.0
 11
112.5000000000002
 21
-660.5
 31
0.0
  0
LINE
  5
158
  8
DATA
  6
CONTINUOUS
 62
     7
 10
132.5000000000002
 20
-1014.5
 30
0.0
 11
132.5000000000002
 21
-670.5
 31
0.0
  0
LINE
  5
159
  8
DATA
  6
CONTINUOUS
 62
     7
 10
277.50000000000028
 20
-1034.5
 30
0.0
 11
122.5000000000002
 21
-1034.5
 31
0.0
  0
LINE
  5
15A
  8
DATA
  6
CONTINUOUS
 62
     7
 10
132.5000000000002
 20
-1014.5
 30
0.0
 11
267.50000000000028
 21
-1014.5
 31
0.0
  0
LINE
  5
15B
  8
DATA
  6
CONTINUOUS
 62
     7
 10
267.50000000000028
 20
-964.49999999999989
 30
0.0
 11
132.5000000000002
 21
-964.49999999999989
 31
0.0
  0
LINE
  5
15C
  8
DATA
  6
CONTINUOUS
 62
     7
 10
267.50000000000028
 20
-959.5
 30
0.0
 11
132.5000000000002
 21
-959.5
 31
0.0
  0
LINE
  5
15D
  8
DATA
  6
CONTINUOUS
 62
     7
 10
287.50000000000028
 20
-660.5
 30
0.0
 11
287.50000000000028
 21
-1024.5
 31
0.0
  0
LINE
  5
15E
  8
DATA
  6
CONTINUOUS
 62
     7
 10
267.50000000000028
 20
-670.5
 30
0.0
 11
267.50000000000028
 21
-1014.5
 31
0.0
  0
LINE
  5
15F
  8
DATA
  6
CONTINUOUS
 62
     7
 10
122.5000000000002
 20
-650.49999999999989
 30
0.0
 11
277.50000000000028
 21
-650.49999999999989
 31
0.0
  0
LINE
  5
160
  8
DATA
  6
CONTINUOUS
 62
     7
 10
132.5000000000002
 20
-670.5
 30
0.0
 11
267.50000000000028
 21
-670.5
 31
0.0
  0
ARC
  5
161
  8
DATA
  6
CONTINUOUS
 62
     7
 10
122.5000000000002
 20
-1024.5
 30
0.0
 40
10.0
 50
180.0
 51
270.0
  0
ARC
  5
162
  8
DATA
  6
CONTINUOUS
 62
     7
 10
277.50000000000028
 20
-1024.5
 30
0.0
 40
10.0
 50
270.0
 51
0.0
  0
ARC
  5
163
  8
DATA
  6
CONTINUOUS
 62
     7
 10
122.5000000000002
 20
-660.5
 30
0.0
 40
10.0
 50
90.0
 51
180.0
  0
ARC
  5
164
  8
DATA
  6
CONTINUOUS
 62
     7
 10
277.50000000000028
 20
-660.5
 30
0.0
 40
10.0
 50
0.0
 51
90.0
  0
CIRCLE
  5
165
  8
DATA
  6
CONTINUOUS
 62
     7
 10
233.50000000000031
 20
-1009.5
 30
0.0
 40
2.5000000000002212
  0
CIRCLE
  5
166
  8
DATA
  6
CONTINUOUS
 62
     7
 10
166.5000000000002
 20
-1009.5
 30
0.0
 40
2.5000000000002212
  0
LINE
  5
167
  8
DATA
  6
CONTINUOUS
 62
     7
 10
165.0000000000002
 20
-1009.5
 30
0.0
 11
168.0000000000002
 21
-1009.5
 31
0.0
  0
LINE
  5
168
  8
DATA
  6
CONTINUOUS
 62
     7
 10
166.4200000000003
 20
-1011.0
 30
0.0
 11
166.4200000000003
 21
-1008.0
 31
0.0
  0
LINE
  5
169
  8
DATA
  6
CONTINUOUS
 62
     7
 10
235.00000000000031
 20
-1009.5
 30
0.0
 11
232.0000000000002
 21
-1009.5
 31
0.0
  0
LINE
  5
16A
  8
DATA
  6
CONTINUOUS
 62
     7
 10
233.5800000000001
 20
-1011.0
 30
0.0
 11
233.5800000000001
 21
-1008.0
 31
0.0
  0
ARC
  5
16B
  8
DATA
  6
CONTINUOUS
 62
     7
 10
174.50000000003661
 20
-930.49999999994884
 30
0.0
 40
23.249999999937408
 50
60.356338108124589
 51
143.44380664840509
  0
ARC
  5
16C
  8
DATA
  6
CONTINUOUS
 62
     7
 10
174.50000000003661
 20
-930.49999999994884
 30
0.0
 40
23.249999999938169
 50
150.35633810836481
 51
233.44380664831959
  0
ARC
  5
16D
  8
DATA
  6
CONTINUOUS
 62
     7
 10
174.50000000003661
 20
-930.49999999994884
 30
0.0
 40
23.249999999937401
 50
240.35633810827409
 51
323.4438066480966
  0
ARC
  5
16E
  8
DATA
  6
CONTINUOUS
 62
     7
 10
174.50000000003661
 20
-930.49999999994884
 30
0.0
 40
23.24999999993625
 50
330.35633810803802
 51
53.443806648183099
  0
ARC
  5
16F
  8
DATA
  6
CONTINUOUS
 62
     7
 10
174.4999999999711
 20
-930.50000000006116
 30
0.0
 40
19.000000000067772
 50
68.200922830828603
 51
149.13323278369211
  0
ARC
  5
170
  8
DATA
  6
CONTINUOUS
 62
     7
 10
174.4999999999711
 20
-930.50000000006116
 30
0.0
 40
19.000000000066802
 50
158.2009228304685
 51
239.13323278374969
  0
ARC
  5
171
  8
DATA
  6
CONTINUOUS
 62
     7
 10
174.4999999999711
 20
-930.50000000006116
 30
0.0
 40
19.000000000067349
 50
248.20092283053259
 51
329.13323278407648
  0
ARC
  5
172
  8
DATA
  6
CONTINUOUS
 62
     7
 10
174.4999999999711
 20
-930.50000000006116
 30
0.0
 40
19.000000000067139
 50
338.20092283089423
 51
59.133232784018219
  0
ARC
  5
173
  8
DATA
  6
CONTINUOUS
 62
     7
 10
174.50000000000199
 20
-930.49999999998875
 30
0.0
 40
16.499999999988589
 50
75.407766102218673
 51
154.09772123936361
  0
ARC
  5
174
  8
DATA
  6
CONTINUOUS
 62
     7
 10
174.50000000000199
 20
-930.49999999998875
 30
0.0
 40
16.499999999988251
 50
165.40776610230151
 51
244.097721239371
  0
ARC
  5
175
  8
DATA
  6
CONTINUOUS
 62
     7
 10
174.50000000000199
 20
-930.49999999998875
 30
0.0
 40
16.499999999988329
 50
255.40776610230969
 51
334.09772123930219
  0
ARC
  5
176
  8
DATA
  6
CONTINUOUS
 62
     7
 10
174.50000000000199
 20
-930.49999999998875
 30
0.0
 40
16.499999999987949
 50
345.40776610223031
 51
64.097721239294344
  0
ARC
  5
177
  8
DATA
  6
CONTINUOUS
 62
     7
 10
174.5000000000002
 20
-930.50000000000125
 30
0.0
 40
11.75000000000086
 50
119.9999999999975
 51
171.92777458635189
  0
ARC
  5
178
  8
DATA
  6
CONTINUOUS
 62
     7
 10
174.5000000000002
 20
-930.50000000000125
 30
0.0
 40
11.750000000000099
 50
210.00000000000219
 51
261.92777458633992
  0
ARC
  5
179
  8
DATA
  6
CONTINUOUS
 62
     7
 10
174.5000000000002
 20
-930.50000000000125
 30
0.0
 40
11.75000000000086
 50
299.99999999999761
 51
351.92777458635408
  0
ARC
  5
17A
  8
DATA
  6
CONTINUOUS
 62
     7
 10
174.5000000000002
 20
-930.50000000000125
 30
0.0
 40
11.750000000001799
 50
29.999999999998781
 51
81.927774586357813
  0
LINE
  5
17B
  8
DATA
  6
CONTINUOUS
 62
     7
 10
164.32420150553321
 20
-936.37499999999989
 30
0.0
 11
158.53223508643919
 21
-926.34301988639697
 31
0.0
  0
LINE
  5
17C
  8
DATA
  6
CONTINUOUS
 62
     7
 10
156.8586556446682
 20
-923.44429526274689
 30
0.0
 11
154.29300018166231
 21
-919.00044964610584
 31
0.0
  0
LINE
  5
17D
  8
DATA
  6
CONTINUOUS
 62
     7
 10
162.86642082844651
 20
-928.85004980099518
 30
0.0
 11
159.65758330402991
 21
-923.29218017547021
 31
0.0
  0
LINE
  5
17E
  8
DATA
  6
CONTINUOUS
 62
     7
 10
158.19111009955691
 20
-920.75217407738717
 30
0.0
 11
155.82390051114291
 21
-916.65204679809005
 31
0.0
  0
LINE
  5
17F
  8
DATA
  6
CONTINUOUS
 62
     7
 10
168.6250000000002
 20
-920.32420150553276
 30
0.0
 11
178.6569801136159
 21
-914.53223508643146
 31
0.0
  0
LINE
  5
180
  8
DATA
  6
CONTINUOUS
 62
     7
 10
181.55570473717509
 20
-912.85865564471305
 30
0.0
 11
185.99955035389411
 21
-910.29300018166361
 31
0.0
  0
LINE
  5
181
  8
DATA
  6
CONTINUOUS
 62
     7
 10
176.14995019900579
 20
-918.86642082844639
 30
0.0
 11
181.70781982453829
 21
-915.65758330402434
 31
0.0
  0
LINE
  5
182
  8
DATA
  6
CONTINUOUS
 62
     7
 10
184.2478259225538
 20
-914.19111009959261
 30
0.0
 11
188.34795320191211
 21
-911.82390051114328
 31
0.0
  0
LINE
  5
183
  8
DATA
  6
CONTINUOUS
 62
     7
 10
184.67579849446719
 20
-924.62499999999989
 30
0.0
 11
190.46776491355939
 21
-934.65698011360109
 31
0.0
  0
LINE
  5
184
  8
DATA
  6
CONTINUOUS
 62
     7
 10
192.14134435532671
 20
-937.5557047372447
 30
0.0
 11
194.7069998183363
 21
-941.99955035389416
 31
0.0
  0
LINE
  5
185
  8
DATA
  6
CONTINUOUS
 62
     7
 10
186.13357917155571
 20
-932.14995019900834
 30
0.0
 11
189.3424166959669
 21
-937.70781982452252
 31
0.0
  0
LINE
  5
186
  8
DATA
  6
CONTINUOUS
 62
     7
 10
190.808889900449
 20
-940.24782592262545
 30
0.0
 11
193.1760994888557
 21
-944.34795320191074
 31
0.0
  0
LINE
  5
187
  8
DATA
  6
CONTINUOUS
 62
     7
 10
180.3750000000002
 20
-940.67579849446702
 30
0.0
 11
170.34301988641181
 21
-946.46776491355195
 31
0.0
  0
LINE
  5
188
  8
DATA
  6
CONTINUOUS
 62
     7
 10
167.44429526267621
 20
-948.14134435537278
 30
0.0
 11
163.00044964610629
 21
-950.70699981833639
 31
0.0
  0
LINE
  5
189
  8
DATA
  6
CONTINUOUS
 62
     7
 10
172.85004980099089
 20
-942.13357917155486
 30
0.0
 11
167.29218017548581
 21
-945.3424166959619
 31
0.0
  0
LINE
  5
18A
  8
DATA
  6
CONTINUOUS
 62
     7
 10
164.75217407731381
 20
-946.80888990048447
 30
0.0
 11
160.65204679808829
 21
-949.17609948885649
 31
0.0
  0
LINE
  5
18B
  8
DATA
  6
CONTINUOUS
 62
     7
 10
228.0000000000002
 20
-947.49999999999989
 30
0.0
 11
228.0000000000002
 21
-904.49999999999989
 31
0.0
  0
LINE
  5
18C
  8
DATA
  6
CONTINUOUS
 62
     7
 10
230.0000000000002
 20
-924.5
 30
0.0
 11
230.0000000000002
 21
-906.49999999999989
 31
0.0
  0
LINE
  5
18D
  8
DATA
  6
CONTINUOUS
 62
     7
 10
232.0000000000002
 20
-922.49999999999989
 30
0.0
 11
232.0000000000002
 21
-908.5
 31
0.0
  0
LINE
  5
18E
  8
DATA
  6
CONTINUOUS
 62
     7
 10
256.00000000000028
 20
-947.49999999999989
 30
0.0
 11
228.0000000000002
 21
-947.49999999999989
 31
0.0
  0
LINE
  5
18F
  8
DATA
  6
CONTINUOUS
 62
     7
 10
256.00000000000028
 20
-904.49999999999989
 30
0.0
 11
256.00000000000028
 21
-947.49999999999989
 31
0.0
  0
LINE
  5
190
  8
DATA
  6
CONTINUOUS
 62
     7
 10
254.00000000000031
 20
-906.49999999999989
 30
0.0
 11
254.00000000000031
 21
-924.5
 31
0.0
  0
LINE
  5
191
  8
DATA
  6
CONTINUOUS
 62
     7
 10
252.00000000000031
 20
-908.5
 30
0.0
 11
252.00000000000031
 21
-922.49999999999989
 31
0.0
  0
LINE
  5
192
  8
DATA
  6
CONTINUOUS
 62
     7
 10
228.0000000000002
 20
-904.49999999999989
 30
0.0
 11
256.00000000000028
 21
-904.49999999999989
 31
0.0
  0
LINE
  5
193
  8
DATA
  6
CONTINUOUS
 62
     7
 10
230.0000000000002
 20
-906.49999999999989
 30
0.0
 11
254.00000000000031
 21
-906.49999999999989
 31
0.0
  0
LINE
  5
194
  8
DATA
  6
CONTINUOUS
 62
     7
 10
230.0000000000002
 20
-937.5
 30
0.0
 11
230.0000000000002
 21
-926.5
 31
0.0
  0
LINE
  5
195
  8
DATA
  6
CONTINUOUS
 62
     7
 10
235.00000000000031
 20
-942.5
 30
0.0
 11
230.0000000000002
 21
-937.5
 31
0.0
  0
LINE
  5
196
  8
DATA
  6
CONTINUOUS
 62
     7
 10
249.0000000000002
 20
-942.5
 30
0.0
 11
235.00000000000031
 21
-942.5
 31
0.0
  0
LINE
  5
197
  8
DATA
  6
CONTINUOUS
 62
     7
 10
254.00000000000031
 20
-937.5
 30
0.0
 11
249.0000000000002
 21
-942.5
 31
0.0
  0
LINE
  5
198
  8
DATA
  6
CONTINUOUS
 62
     7
 10
254.00000000000031
 20
-926.5
 30
0.0
 11
254.00000000000031
 21
-937.5
 31
0.0
  0
LINE
  5
199
  8
DATA
  6
CONTINUOUS
 62
     7
 10
230.0000000000002
 20
-926.5
 30
0.0
 11
254.00000000000031
 21
-926.5
 31
0.0
  0
LINE
  5
19A
  8
DATA
  6
CONTINUOUS
 62
     7
 10
230.0000000000002
 20
-924.5
 30
0.0
 11
254.00000000000031
 21
-924.5
 31
0.0
  0
ARC
  5
19B
  8
DATA
  6
CONTINUOUS
 62
     7
 10
153.27505366881829
 20
-978.1529451963338
 30
0.0
 40
0.2869048033359047
 50
307.64190249759048
 51
354.2670192896154
  0
LINE
  5
19C
  8
DATA
  6
CONTINUOUS
 62
     7
 10
145.9055554416029
 20
-973.63178983701835
 30
0.0
 11
147.2505694416015
 21
-970.42699783701858
 31
0.0
  0
LINE
  5
19D
  8
DATA
  6
CONTINUOUS
 62
     7
 10
145.9055554416029
 20
-973.63178983701835
 30
0.0
 11
144.57713744160191
 21
-970.42699783701858
 31
0.0
  0
LINE
  5
19E
  8
DATA
  6
CONTINUOUS
 62
     7
 10
156.10111544160301
 20
-979.42699783701858
 30
0.0
 11
156.10111544160301
 21
-970.42699783701858
 31
0.0
  0
LINE
  5
19F
  8
DATA
  6
CONTINUOUS
 62
     7
 10
157.8280534416028
 20
-970.42699783701858
 30
0.0
 11
157.8280534416028
 21
-978.04877383701762
 31
0.0
  0
LINE
  5
1A0
  8
DATA
  6
CONTINUOUS
 62
     7
 10
147.88156844160241
 20
-970.42699783701858
 30
0.0
 11
147.88156844160241
 21
-978.04877383701762
 31
0.0
  0
LINE
  5
1A1
  8
DATA
  6
CONTINUOUS
 62
     7
 10
149.542086441603
 20
-970.42699783701858
 30
0.0
 11
149.542086441603
 21
-978.04877383701762
 31
0.0
  0
LINE
  5
1A2
  8
DATA
  6
CONTINUOUS
 62
     7
 10
150.4055554416029
 20
-970.42699783701858
 30
0.0
 11
150.4055554416029
 21
-979.42699783701858
 31
0.0
  0
LINE
  5
1A3
  8
DATA
  6
CONTINUOUS
 62
     7
 10
151.9166284416026
 20
-971.27385283701767
 30
0.0
 11
151.9166284416026
 21
-974.16315883701793
 31
0.0
  0
LINE
  5
1A4
  8
DATA
  6
CONTINUOUS
 62
     7
 10
155.15535044160259
 20
-973.99597483701837
 30
0.0
 11
155.15535044160259
 21
-971.88825583701794
 31
0.0
  0
LINE
  5
1A5
  8
DATA
  6
CONTINUOUS
 62
     7
 10
153.56052344160179
 20
-971.67238183701841
 30
0.0
 11
153.56052344160179
 21
-973.76463883701888
 31
0.0
  0
ARC
  5
1A6
  8
DATA
  6
CONTINUOUS
 62
     7
 10
147.5483524416033
 20
-977.11597783701757
 30
0.0
 40
2.3209680826510288
 50
264.69085622148839
 51
323.9911991542312
  0
LINE
  5
1A7
  8
DATA
  6
CONTINUOUS
 62
     7
 10
146.61957944160369
 20
-976.60411183701785
 30
0.0
 11
146.61957944160369
 21
-978.04875583701767
 31
0.0
  0
LINE
  5
1A8
  8
DATA
  6
CONTINUOUS
 62
     7
 10
146.61957944160369
 20
-976.60411183701785
 30
0.0
 11
145.12511144160291
 21
-976.60411183701785
 31
0.0
  0
LINE
  5
1A9
  8
DATA
  6
CONTINUOUS
 62
     7
 10
145.12511144160291
 20
-976.60411183701785
 30
0.0
 11
145.12511144160291
 21
-978.04875583701767
 31
0.0
  0
ARC
  5
1AA
  8
DATA
  6
CONTINUOUS
 62
     7
 10
147.2537374416026
 20
-978.0682318370184
 30
0.0
 40
0.6281359436174772
 50
269.71184879276251
 51
1.775987005714625
  0
ARC
  5
1AB
  8
DATA
  6
CONTINUOUS
 62
     7
 10
147.24741044160169
 20
-978.0682318370184
 30
0.0
 40
0.6281327317115519
 50
178.22401299438391
 51
270.28815120729058
  0
ARC
  5
1AC
  8
DATA
  6
CONTINUOUS
 62
     7
 10
147.11884544160259
 20
-977.11597783701757
 30
0.0
 40
2.3209643132525319
 50
216.00880084574641
 51
275.30914377847228
  0
ARC
  5
1AD
  8
DATA
  6
CONTINUOUS
 62
     7
 10
146.17400744160321
 20
-977.99787883701845
 30
0.0
 40
1.0501201873593851
 50
182.7769954499737
 51
207.35960666708209
  0
CIRCLE
  5
1AE
  8
DATA
  6
CONTINUOUS
 62
     7
 10
145.99688744160281
 20
-974.87718283701838
 30
0.0
 40
0.8551619999998366
  0
LINE
  5
1AF
  8
DATA
  6
CONTINUOUS
 62
     7
 10
160.60111544160301
 20
-979.42698883701746
 30
0.0
 11
156.10111544160301
 21
-979.42698883701746
 31
0.0
  0
LINE
  5
1B0
  8
DATA
  6
CONTINUOUS
 62
     7
 10
160.60111544160301
 20
-979.42698883701746
 30
0.0
 11
160.60111544160301
 21
-976.60410283701924
 31
0.0
  0
LINE
  5
1B1
  8
DATA
  6
CONTINUOUS
 62
     7
 10
160.60111544160301
 20
-976.60411183701785
 30
0.0
 11
159.0900514416027
 21
-976.60411183701785
 31
0.0
  0
LINE
  5
1B2
  8
DATA
  6
CONTINUOUS
 62
     7
 10
159.0900514416027
 20
-976.60411183701785
 30
0.0
 11
159.0900514416027
 21
-978.04875583701767
 31
0.0
  0
LINE
  5
1B3
  8
DATA
  6
CONTINUOUS
 62
     7
 10
150.4055554416029
 20
-979.42698883701746
 30
0.0
 11
153.56052344160179
 21
-979.42697983701783
 31
0.0
  0
LINE
  5
1B4
  8
DATA
  6
CONTINUOUS
 62
     7
 10
151.91661944160319
 20
-978.58012483701816
 30
0.0
 11
152.73027344160269
 21
-978.58012483701816
 31
0.0
  0
LINE
  5
1B5
  8
DATA
  6
CONTINUOUS
 62
     7
 10
151.9166284416026
 20
-978.58012483701816
 30
0.0
 11
151.9166284416026
 21
-975.02661883701774
 31
0.0
  0
LINE
  5
1B6
  8
DATA
  6
CONTINUOUS
 62
     7
 10
151.91661944160319
 20
-975.02661883701774
 30
0.0
 11
152.73027344160269
 21
-975.02661883701774
 31
0.0
  0
LINE
  5
1B7
  8
DATA
  6
CONTINUOUS
 62
     7
 10
153.56052344160179
 20
-978.18160483701763
 30
0.0
 11
153.56052344160179
 21
-975.42513883701895
 31
0.0
  0
ARC
  5
1B8
  8
DATA
  6
CONTINUOUS
 62
     7
 10
148.49319044160279
 20
-977.99787883701845
 30
0.0
 40
1.0501186930780719
 50
332.64039333284268
 51
357.22300455000749
  0
ARC
  5
1B9
  8
DATA
  6
CONTINUOUS
 62
     7
 10
158.46221144160361
 20
-978.0682318370184
 30
0.0
 40
0.6281359436174772
 50
269.71184879276251
 51
1.775987005714625
  0
ARC
  5
1BA
  8
DATA
  6
CONTINUOUS
 62
     7
 10
158.455893441602
 20
-978.0682318370184
 30
0.0
 40
0.62813273171337
 50
178.22401299438889
 51
270.28815120728967
  0
LINE
  5
1BB
  8
DATA
  6
CONTINUOUS
 62
     7
 10
155.15462144160321
 20
-977.98233583701892
 30
0.0
 11
155.15462144160321
 21
-975.59119783701783
 31
0.0
  0
LINE
  5
1BC
  8
DATA
  6
CONTINUOUS
 62
     7
 10
151.91661944160319
 20
-974.16315883701793
 30
0.0
 11
152.73027344160269
 21
-974.16315883701793
 31
0.0
  0
ARC
  5
1BD
  8
DATA
  6
CONTINUOUS
 62
     7
 10
153.44611544160239
 20
-977.71845583701827
 30
0.0
 40
1.7123502705459379
 50
273.83098160909748
 51
351.1351473098112
  0
LINE
  5
1BE
  8
DATA
  6
CONTINUOUS
 62
     7
 10
147.88156844160241
 20
-970.42699783701858
 30
0.0
 11
149.542086441603
 21
-970.42699783701858
 31
0.0
  0
LINE
  5
1BF
  8
DATA
  6
CONTINUOUS
 62
     7
 10
144.57713744160191
 20
-970.42699783701858
 30
0.0
 11
147.2505694416015
 21
-970.42699783701858
 31
0.0
  0
LINE
  5
1C0
  8
DATA
  6
CONTINUOUS
 62
     7
 10
156.10111544160301
 20
-970.42699783701858
 30
0.0
 11
157.8280534416028
 21
-970.42699783701858
 31
0.0
  0
LINE
  5
1C1
  8
DATA
  6
CONTINUOUS
 62
     7
 10
150.4055554416029
 20
-970.42699783701858
 30
0.0
 11
153.5778665569344
 21
-970.42700512138435
 31
0.0
  0
LINE
  5
1C2
  8
DATA
  6
CONTINUOUS
 62
     7
 10
151.91661944160319
 20
-971.27386183701788
 30
0.0
 11
152.73027344160269
 21
-971.27386183701788
 31
0.0
  0
ARC
  5
1C3
  8
DATA
  6
CONTINUOUS
 62
     7
 10
153.46318844160331
 20
-972.13291183701892
 30
0.0
 40
1.709756939619852
 50
8.2269238590440068
 51
86.154126692181322
  0
ARC
  5
1C4
  8
DATA
  6
CONTINUOUS
 62
     7
 10
152.7398813579459
 20
-977.00180567248947
 30
0.0
 40
1.5783484080439929
 50
269.65121993760812
 51
282.82648280688181
  0
ARC
  5
1C5
  8
DATA
  6
CONTINUOUS
 62
     7
 10
152.91715486632191
 20
-977.66910011712309
 30
0.0
 40
0.8886941133236042
 50
281.23310362276038
 51
306.8620088940894
  0
ARC
  5
1C6
  8
DATA
  6
CONTINUOUS
 62
     7
 10
153.27505366881829
 20
-975.45379847770278
 30
0.0
 40
0.2869048033358559
 50
5.7329807103845116
 51
52.358097502381838
  0
ARC
  5
1C7
  8
DATA
  6
CONTINUOUS
 62
     7
 10
152.7398813579459
 20
-976.60493800154677
 30
0.0
 40
1.578348408043986
 50
77.173517193118244
 51
90.348780062391782
  0
ARC
  5
1C8
  8
DATA
  6
CONTINUOUS
 62
     7
 10
152.91715486632191
 20
-975.93764355691314
 30
0.0
 40
0.8886941133235801
 50
53.137991105901783
 51
78.766896377236819
  0
ARC
  5
1C9
  8
DATA
  6
CONTINUOUS
 62
     7
 10
154.28370944160289
 20
-975.65006683701836
 30
0.0
 40
0.8728993475227257
 50
3.867006359847649
 51
88.36163456794803
  0
ARC
  5
1CA
  8
DATA
  6
CONTINUOUS
 62
     7
 10
154.28290844160281
 20
-973.90413883701785
 30
0.0
 40
0.8737667459524635
 50
271.689282104634
 51
356.07828298258949
  0
ARC
  5
1CB
  8
DATA
  6
CONTINUOUS
 62
     7
 10
153.27505366881829
 20
-973.73597919633301
 30
0.0
 40
0.2869048033359047
 50
307.64190249759048
 51
354.26701928925399
  0
ARC
  5
1CC
  8
DATA
  6
CONTINUOUS
 62
     7
 10
152.7398813579459
 20
-972.58483967248969
 30
0.0
 40
1.5783484080430841
 50
269.651219937608
 51
282.82648280688909
  0
ARC
  5
1CD
  8
DATA
  6
CONTINUOUS
 62
     7
 10
152.91715486632191
 20
-973.2521341171223
 30
0.0
 40
0.8886941133253882
 50
281.23310362273747
 51
306.86200889415687
  0
ARC
  5
1CE
  8
DATA
  6
CONTINUOUS
 62
     7
 10
153.27505366881829
 20
-971.70104147770235
 30
0.0
 40
0.2869048033358559
 50
5.7329807103845116
 51
52.358097502381838
  0
ARC
  5
1CF
  8
DATA
  6
CONTINUOUS
 62
     7
 10
152.7398813579459
 20
-972.85218100154634
 30
0.0
 40
1.578348408043986
 50
77.173517193118244
 51
90.348780062391782
  0
ARC
  5
1D0
  8
DATA
  6
CONTINUOUS
 62
     7
 10
152.91715486632191
 20
-972.18488655691272
 30
0.0
 40
0.8886941133235801
 50
53.137991105901783
 51
78.766896377236819
  0
POLYLINE
  5
1D1
  8
DATA
  6
CONTINUOUS
 62
     7
 66
     1
 10
0.0
 20
0.0
 30
0.0
 70
     1
  0
VERTEX
  5
63F
  8
DATA
  6
CONTINUOUS
 62
     7
 10
140.7999999999995
 20
-968.5
 30
0.0
  0
VERTEX
  5
640
  8
DATA
  6
CONTINUOUS
 62
     7
 10
165.7999999999995
 20
-968.5
 30
0.0
  0
VERTEX
  5
641
  8
DATA
  6
CONTINUOUS
 62
     7
 10
165.7999999999995
 20
-993.5
 30
0.0
  0
VERTEX
  5
642
  8
DATA
  6
CONTINUOUS
 62
     7
 10
140.7999999999995
 20
-993.5
 30
0.0
  0
SEQEND
  5
643
  8
DATA
  6
CONTINUOUS
 62
     7
  0
LINE
  5
1D8
  8
DATA
  6
CONTINUOUS
 62
     7
 10
252.00000000000031
 20
-922.49999999999989
 30
0.0
 11
232.0000000000002
 21
-922.49999999999989
 31
0.0
  0
LINE
  5
1D9
  8
DATA
  6
CONTINUOUS
 62
     7
 10
232.0000000000002
 20
-908.5
 30
0.0
 11
252.00000000000031
 21
-908.5
 31
0.0
  0
LINE
  5
1DA
  8
DATA
  6
CONTINUOUS
 62
     7
 10
232.0000000000002
 20
-910.5
 30
0.0
 11
252.00000000000031
 21
-910.5
 31
0.0
  0
CIRCLE
  5
1DB
  8
DATA
  6
CONTINUOUS
 62
     7
 10
242.00000000000031
 20
-920.5
 30
0.0
 40
1.2499999999999081
  0
LINE
  5
1DC
  8
DATA
  6
CONTINUOUS
 62
     7
 10
242.00000000000031
 20
-914.04999999999995
 30
0.0
 11
242.00000000000031
 21
-911.54999999999995
 31
0.0
  0
CIRCLE
  5
1DD
  8
DATA
  6
CONTINUOUS
 62
     7
 10
242.00000000000031
 20
-900.49999999999966
 30
0.0
 40
2.7499999999989782
  0
LINE
  5
1DE
  8
DATA
  6
CONTINUOUS
 62
     7
 10
240.5000000000002
 20
-900.49999999999966
 30
0.0
 11
243.50000000000031
 21
-900.49999999999966
 31
0.0
  0
LINE
  5
1DF
  8
DATA
  6
CONTINUOUS
 62
     7
 10
242.00000000000031
 20
-901.99999999999955
 30
0.0
 11
242.00000000000031
 21
-898.99999999999955
 31
0.0
  0
CIRCLE
  5
1E0
  8
DATA
  6
CONTINUOUS
 62
     7
 10
242.00000000000031
 20
-951.5
 30
0.0
 40
2.7499999999989782
  0
LINE
  5
1E1
  8
DATA
  6
CONTINUOUS
 62
     7
 10
240.5000000000002
 20
-951.5
 30
0.0
 11
243.50000000000031
 21
-951.5
 31
0.0
  0
LINE
  5
1E2
  8
DATA
  6
CONTINUOUS
 62
     7
 10
242.00000000000031
 20
-950.00000000000011
 30
0.0
 11
242.00000000000031
 21
-953.00000000000011
 31
0.0
  0
CIRCLE
  5
1E3
  8
DATA
  6
CONTINUOUS
 62
     7
 10
227.99999999924901
 20
-832.49999999999989
 30
0.0
 40
1.6499999998359269
  0
CIRCLE
  5
1E4
  8
DATA
  6
CONTINUOUS
 62
     7
 10
236.9999999983504
 20
-832.49999999999989
 30
0.0
 40
1.6499999998341079
  0
CIRCLE
  5
1E5
  8
DATA
  6
CONTINUOUS
 62
     7
 10
232.49999999879969
 20
-832.49999999999989
 30
0.0
 40
11.9999999988
  0
CIRCLE
  5
1E6
  8
DATA
  6
CONTINUOUS
 62
     7
 10
241.99744083118301
 20
-844.49999999879992
 30
0.0
 40
2.5
  0
LINE
  5
1E7
  8
DATA
  6
STYLE_11
 62
     7
 10
240.49488166451579
 20
-844.49999999879992
 30
0.0
 11
243.49488166451579
 21
-844.49999999879992
 31
0.0
  0
LINE
  5
1E8
  8
DATA
  6
STYLE_11
 62
     7
 10
241.99744083118301
 20
-842.99882833213348
 30
0.0
 11
241.99744083118301
 21
-845.99882833213348
 31
0.0
  0
CIRCLE
  5
1E9
  8
DATA
  6
CONTINUOUS
 62
     7
 10
223.0025591664164
 20
-820.50000000119985
 30
0.0
 40
2.5
  0
LINE
  5
1EA
  8
DATA
  6
STYLE_11
 62
     7
 10
221.49999999974921
 20
-820.50000000119985
 30
0.0
 11
224.49999999974921
 21
-820.50000000119985
 31
0.0
  0
LINE
  5
1EB
  8
DATA
  6
STYLE_11
 62
     7
 10
223.0025591664164
 20
-818.99882833453319
 30
0.0
 11
223.0025591664164
 21
-821.99882833453307
 31
0.0
  0
CIRCLE
  5
1EC
  8
DATA
  6
CONTINUOUS
 62
     7
 10
232.49999999879969
 20
-832.49999999999989
 30
0.0
 40
9.7500000156815751
  0
CIRCLE
  5
1ED
  8
DATA
  6
CONTINUOUS
 62
     7
 10
232.49999999879969
 20
-828.5500000003949
 30
0.0
 40
1.6499999998341079
  0
CIRCLE
  5
1EE
  8
DATA
  6
CONTINUOUS
 62
     7
 10
200.00000000000031
 20
-832.49999999999989
 30
0.0
 40
7.899999852375986
  0
CIRCLE
  5
1EF
  8
DATA
  6
CONTINUOUS
 62
     7
 10
200.00000000000031
 20
-832.49999999999989
 30
0.0
 40
9.7499999990251833
  0
CIRCLE
  5
1F0
  8
DATA
  6
CONTINUOUS
 62
     7
 10
200.00000000000031
 20
-832.49999999999989
 30
0.0
 40
11.999999998800201
  0
LINE
  5
1F1
  8
DATA
  6
CONTINUOUS
 62
     7
 10
202.3999999997597
 20
-824.97338057367904
 30
0.0
 11
202.3999999997597
 21
-824.97338072779712
 31
0.0
  0
LINE
  5
1F2
  8
DATA
  6
CONTINUOUS
 62
     7
 10
197.1500000002836
 20
-825.13199500073688
 30
0.0
 11
197.1500000002836
 21
-825.13199515817269
 31
0.0
  0
ARC
  5
1F3
  8
DATA
  6
CONTINUOUS
 62
     7
 10
195.50000000044949
 20
-832.49999999999989
 30
0.0
 40
1.9999999997993241
 50
32.089183874064723
 51
327.9108161259353
  0
ARC
  5
1F4
  8
DATA
  6
CONTINUOUS
 62
     7
 10
204.49999999954909
 20
-832.49999999999989
 30
0.0
 40
1.9999999997993241
 50
212.0891838740647
 51
147.9108161259353
  0
ARC
  5
1F5
  8
DATA
  6
CONTINUOUS
 62
     7
 10
200.00000000000031
 20
-836.44999999960555
 30
0.0
 40
1.9999999998014439
 50
137.85228408990631
 51
42.147715910128611
  0
ARC
  5
1F6
  8
DATA
  6
CONTINUOUS
 62
     7
 10
194.5552776672105
 20
-827.05527800054449
 30
0.0
 40
0.7999999999207108
 50
56.612913999968789
 51
213.3870860000219
  0
ARC
  5
1F7
  8
DATA
  6
CONTINUOUS
 62
     7
 10
200.00000000000031
 20
-832.49999999999989
 30
0.0
 40
2.9999999999997442
 50
20.741916485081301
 51
159.258083514931
  0
ARC
  5
1F8
  8
DATA
  6
CONTINUOUS
 62
     7
 10
200.00000000000031
 20
-832.49999999999989
 30
0.0
 40
3.0000000000014442
 50
200.741916485069
 51
240.37783679917661
  0
ARC
  5
1F9
  8
DATA
  6
CONTINUOUS
 62
     7
 10
200.00000000000031
 20
-832.49999999999989
 30
0.0
 40
2.999999999999643
 50
299.6221632007933
 51
339.25808351491872
  0
CIRCLE
  5
1FA
  8
DATA
  6
CONTINUOUS
 62
     7
 10
209.4999999990489
 20
-844.49999999879992
 30
0.0
 40
2.5
  0
LINE
  5
1FB
  8
DATA
  6
STYLE_11
 62
     7
 10
207.9974408323836
 20
-844.49999999879992
 30
0.0
 11
210.99744083238349
 21
-844.49999999879992
 31
0.0
  0
LINE
  5
1FC
  8
DATA
  6
STYLE_11
 62
     7
 10
209.4999999990489
 20
-842.99882833213348
 30
0.0
 11
209.4999999990489
 21
-845.99882833213348
 31
0.0
  0
CIRCLE
  5
1FD
  8
DATA
  6
CONTINUOUS
 62
     7
 10
190.49744083428249
 20
-820.49882833453307
 30
0.0
 40
2.5
  0
LINE
  5
1FE
  8
DATA
  6
STYLE_11
 62
     7
 10
188.99488166761719
 20
-820.49882833453307
 30
0.0
 11
191.99488166761719
 21
-820.49882833453307
 31
0.0
  0
LINE
  5
1FF
  8
DATA
  6
STYLE_11
 62
     7
 10
190.49744083428249
 20
-818.99765666786675
 30
0.0
 11
190.49744083428249
 21
-821.99765666786686
 31
0.0
  0
LINE
  5
200
  8
DATA
  6
CONTINUOUS
 62
     7
 10
197.60000000023891
 20
-823.05000000094515
 30
0.0
 11
197.60000000023891
 21
-820.79626128234179
 31
0.0
  0
LINE
  5
201
  8
DATA
  6
CONTINUOUS
 62
     7
 10
202.3999999997597
 20
-823.05000000094515
 30
0.0
 11
202.3999999997597
 21
-820.79626128234179
 31
0.0
  0
CIRCLE
  5
202
  8
DATA
  6
CONTINUOUS
 62
     7
 10
165.0012795833338
 20
-832.50058583333339
 30
0.0
 40
7.899999852375986
  0
CIRCLE
  5
203
  8
DATA
  6
CONTINUOUS
 62
     7
 10
165.0012795833338
 20
-832.50058583333339
 30
0.0
 40
9.7499999990251833
  0
CIRCLE
  5
204
  8
DATA
  6
CONTINUOUS
 62
     7
 10
165.0012795833338
 20
-832.50058583333339
 30
0.0
 40
11.999999998800201
  0
LINE
  5
205
  8
DATA
  6
CONTINUOUS
 62
     7
 10
167.40127958309341
 20
-824.97396640701254
 30
0.0
 11
167.40127958309341
 21
-824.9739665611304
 31
0.0
  0
LINE
  5
206
  8
DATA
  6
CONTINUOUS
 62
     7
 10
162.1512795836172
 20
-825.13258083407015
 30
0.0
 11
162.1512795836172
 21
-825.13258099150585
 31
0.0
  0
ARC
  5
207
  8
DATA
  6
CONTINUOUS
 62
     7
 10
160.50127958378309
 20
-832.50058583333339
 30
0.0
 40
1.9999999997993241
 50
32.089183874064723
 51
327.9108161259353
  0
ARC
  5
208
  8
DATA
  6
CONTINUOUS
 62
     7
 10
169.50127958288269
 20
-832.50058583333339
 30
0.0
 40
1.9999999997993241
 50
212.0891838740647
 51
147.9108161259353
  0
ARC
  5
209
  8
DATA
  6
CONTINUOUS
 62
     7
 10
165.0012795833338
 20
-836.45058583293894
 30
0.0
 40
1.9999999998014439
 50
137.85228408990631
 51
42.147715910128611
  0
ARC
  5
20A
  8
DATA
  6
CONTINUOUS
 62
     7
 10
159.5565572505441
 20
-827.05586383387822
 30
0.0
 40
0.7999999999207108
 50
56.612913999968789
 51
213.3870860000219
  0
ARC
  5
20B
  8
DATA
  6
CONTINUOUS
 62
     7
 10
165.0012795833338
 20
-832.50058583333339
 30
0.0
 40
2.9999999999997442
 50
20.741916485081301
 51
159.258083514931
  0
ARC
  5
20C
  8
DATA
  6
CONTINUOUS
 62
     7
 10
165.0012795833338
 20
-832.50058583333339
 30
0.0
 40
3.0000000000014442
 50
200.741916485069
 51
240.37783679917661
  0
ARC
  5
20D
  8
DATA
  6
CONTINUOUS
 62
     7
 10
165.0012795833338
 20
-832.50058583333339
 30
0.0
 40
2.999999999999643
 50
299.6221632007933
 51
339.25808351491872
  0
CIRCLE
  5
20E
  8
DATA
  6
CONTINUOUS
 62
     7
 10
174.50127958238241
 20
-844.5005858321332
 30
0.0
 40
2.5
  0
LINE
  5
20F
  8
DATA
  6
STYLE_11
 62
     7
 10
172.99872041571709
 20
-844.5005858321332
 30
0.0
 11
175.99872041571709
 21
-844.5005858321332
 31
0.0
  0
LINE
  5
210
  8
DATA
  6
STYLE_11
 62
     7
 10
174.50127958238241
 20
-842.99941416546699
 30
0.0
 11
174.50127958238241
 21
-845.99941416546721
 31
0.0
  0
CIRCLE
  5
211
  8
DATA
  6
CONTINUOUS
 62
     7
 10
155.49872041761611
 20
-820.4994141678668
 30
0.0
 40
2.5
  0
LINE
  5
212
  8
DATA
  6
STYLE_11
 62
     7
 10
153.99616125095071
 20
-820.4994141678668
 30
0.0
 11
156.99616125095071
 21
-820.4994141678668
 31
0.0
  0
LINE
  5
213
  8
DATA
  6
STYLE_11
 62
     7
 10
155.49872041761611
 20
-818.99824250120025
 30
0.0
 11
155.49872041761611
 21
-821.99824250120037
 31
0.0
  0
LINE
  5
214
  8
DATA
  6
CONTINUOUS
 62
     7
 10
162.60127958357251
 20
-823.05058583427865
 30
0.0
 11
162.60127958357251
 21
-820.79684711567529
 31
0.0
  0
LINE
  5
215
  8
DATA
  6
CONTINUOUS
 62
     7
 10
167.40127958309341
 20
-823.05058583427819
 30
0.0
 11
167.40127958309341
 21
-820.79684711567529
 31
0.0
  0
CIRCLE
  5
216
  8
DATA
  6
CONTINUOUS
 62
     7
 10
190.00125911892999
 20
-858.50029291666658
 30
0.0
 40
1.75
  0
CIRCLE
  5
217
  8
DATA
  6
CONTINUOUS
 62
     7
 10
190.00125911892999
 20
-858.50029291666658
 30
0.0
 40
3.0
  0
CIRCLE
  5
218
  8
DATA
  6
CONTINUOUS
 62
     7
 10
190.00125911892999
 20
-858.50029291666658
 30
0.0
 40
3.9999999999998321
  0
CIRCLE
  5
219
  8
DATA
  6
CONTINUOUS
 62
     7
 10
190.00125911892999
 20
-858.50029291666658
 30
0.0
 40
5.0000000000005027
  0
CIRCLE
  5
21A
  8
DATA
  6
CONTINUOUS
 62
     7
 10
175.00125911892991
 20
-858.50029291666658
 30
0.0
 40
1.75
  0
CIRCLE
  5
21B
  8
DATA
  6
CONTINUOUS
 62
     7
 10
175.00125911892991
 20
-858.50029291666658
 30
0.0
 40
3.0
  0
CIRCLE
  5
21C
  8
DATA
  6
CONTINUOUS
 62
     7
 10
175.00125911892991
 20
-858.50029291666658
 30
0.0
 40
3.9999999999998321
  0
CIRCLE
  5
21D
  8
DATA
  6
CONTINUOUS
 62
     7
 10
175.00125911892991
 20
-858.50029291666658
 30
0.0
 40
5.0000000000005027
  0
CIRCLE
  5
21E
  8
DATA
  6
CONTINUOUS
 62
     7
 10
165.0012795833338
 20
-803.5
 30
0.0
 40
2.500000000000008
  0
CIRCLE
  5
21F
  8
DATA
  6
CONTINUOUS
 62
     7
 10
200.00000000000031
 20
-803.5
 30
0.0
 40
2.500000000000008
  0
CIRCLE
  5
220
  8
DATA
  6
CONTINUOUS
 62
     7
 10
165.0012795833338
 20
-773.5
 30
0.0
 40
1.5
  0
CIRCLE
  5
221
  8
DATA
  6
CONTINUOUS
 62
     7
 10
182.50063979166609
 20
-773.5
 30
0.0
 40
1.5
  0
CIRCLE
  5
222
  8
DATA
  6
CONTINUOUS
 62
     7
 10
200.00000000000031
 20
-773.5
 30
0.0
 40
1.4999999999998519
  0
CIRCLE
  5
223
  8
DATA
  6
CONTINUOUS
 62
     7
 10
178.5000000000002
 20
-803.5
 30
0.0
 40
1.5000000000003191
  0
CIRCLE
  5
224
  8
DATA
  6
CONTINUOUS
 62
     7
 10
165.0012795833338
 20
-748.5
 30
0.0
 40
3.9999999999999978
  0
CIRCLE
  5
225
  8
DATA
  6
CONTINUOUS
 62
     7
 10
165.0012795833338
 20
-735.5
 30
0.0
 40
2.0005858333329041
  0
LINE
  5
226
  8
DATA
  6
CONTINUOUS
 62
     7
 10
226.99999999879969
 20
-785.5
 30
0.0
 11
226.99999999879969
 21
-780.5
 31
0.0
  0
LINE
  5
227
  8
DATA
  6
CONTINUOUS
 62
     7
 10
237.99999999879969
 20
-785.5
 30
0.0
 11
226.99999999879969
 21
-785.5
 31
0.0
  0
LINE
  5
228
  8
DATA
  6
CONTINUOUS
 62
     7
 10
237.99999999879969
 20
-780.5
 30
0.0
 11
237.99999999879969
 21
-785.5
 31
0.0
  0
LINE
  5
229
  8
DATA
  6
CONTINUOUS
 62
     7
 10
226.99999999879969
 20
-780.5
 30
0.0
 11
237.99999999879969
 21
-780.5
 31
0.0
  0
LINE
  5
22A
  8
DATA
  6
CONTINUOUS
 62
     7
 10
229.99999999879969
 20
-785.0
 30
0.0
 11
229.99999999879969
 21
-781.0
 31
0.0
  0
LINE
  5
22B
  8
DATA
  6
CONTINUOUS
 62
     7
 10
234.99999999879969
 20
-785.0
 30
0.0
 11
229.99999999879969
 21
-785.0
 31
0.0
  0
LINE
  5
22C
  8
DATA
  6
CONTINUOUS
 62
     7
 10
234.99999999879969
 20
-781.0
 30
0.0
 11
234.99999999879969
 21
-785.0
 31
0.0
  0
LINE
  5
22D
  8
DATA
  6
CONTINUOUS
 62
     7
 10
229.99999999879969
 20
-781.0
 30
0.0
 11
234.99999999879969
 21
-781.0
 31
0.0
  0
LINE
  5
22E
  8
DATA
  6
CONTINUOUS
 62
     7
 10
226.99999999879969
 20
-802.5
 30
0.0
 11
226.99999999879969
 21
-797.5
 31
0.0
  0
LINE
  5
22F
  8
DATA
  6
CONTINUOUS
 62
     7
 10
237.99999999879969
 20
-802.5
 30
0.0
 11
226.99999999879969
 21
-802.5
 31
0.0
  0
LINE
  5
230
  8
DATA
  6
CONTINUOUS
 62
     7
 10
237.99999999879969
 20
-797.5
 30
0.0
 11
237.99999999879969
 21
-802.5
 31
0.0
  0
LINE
  5
231
  8
DATA
  6
CONTINUOUS
 62
     7
 10
226.99999999879969
 20
-797.5
 30
0.0
 11
237.99999999879969
 21
-797.5
 31
0.0
  0
LINE
  5
232
  8
DATA
  6
CONTINUOUS
 62
     7
 10
229.99999999879969
 20
-802.0
 30
0.0
 11
229.99999999879969
 21
-798.0
 31
0.0
  0
LINE
  5
233
  8
DATA
  6
CONTINUOUS
 62
     7
 10
234.99999999879969
 20
-802.0
 30
0.0
 11
229.99999999879969
 21
-802.0
 31
0.0
  0
LINE
  5
234
  8
DATA
  6
CONTINUOUS
 62
     7
 10
234.99999999879969
 20
-798.0
 30
0.0
 11
234.99999999879969
 21
-802.0
 31
0.0
  0
LINE
  5
235
  8
DATA
  6
CONTINUOUS
 62
     7
 10
229.99999999879969
 20
-798.0
 30
0.0
 11
234.99999999879969
 21
-798.0
 31
0.0
  0
CIRCLE
  5
236
  8
DATA
  6
CONTINUOUS
 62
     7
 10
244.5000000000002
 20
-748.5
 30
0.0
 40
3.9999999999999978
  0
CIRCLE
  5
237
  8
DATA
  6
CONTINUOUS
 62
     7
 10
244.5000000000002
 20
-735.5
 30
0.0
 40
2.0005858333329041
  0
LINE
  5
238
  8
DATA
  6
STYLE_11
 62
     7
 10
148.6012795982335
 20
-800.85416666666674
 30
0.0
 11
148.6012795982335
 21
-767.0
 31
0.0
  0
LINE
  5
239
  8
DATA
  6
STYLE_11
 62
     7
 10
165.0000000000002
 20
-873.49999999999989
 30
0.0
 11
180.00125911892991
 21
-873.49999999999989
 31
0.0
  0
LINE
  5
23A
  8
DATA
  6
STYLE_11
 62
     7
 10
160.0000000000002
 20
-863.50029291666669
 30
0.0
 11
160.0000000000002
 21
-868.5
 31
0.0
  0
LINE
  5
23B
  8
DATA
  6
STYLE_11
 62
     7
 10
155.0000000000002
 20
-858.50029291666658
 30
0.0
 11
153.6012795982335
 21
-858.50029291666658
 31
0.0
  0
CIRCLE
  5
23C
  8
DATA
  6
CONTINUOUS
 62
     7
 10
182.5031989654837
 20
-851.09999999999968
 30
0.0
 40
2.5
  0
LINE
  5
23D
  8
DATA
  6
STYLE_11
 62
     7
 10
181.00063979881659
 20
-851.09999999999968
 30
0.0
 11
184.00063979881651
 21
-851.09999999999968
 31
0.0
  0
LINE
  5
23E
  8
DATA
  6
STYLE_11
 62
     7
 10
182.5031989654837
 20
-849.59882833333347
 30
0.0
 11
182.5031989654837
 21
-852.59882833333347
 31
0.0
  0
LINE
  5
23F
  8
DATA
  6
STYLE_11
 62
     7
 10
153.6012795982335
 20
-762.0
 30
0.0
 11
171.5012795833338
 21
-762.0
 31
0.0
  0
ARC
  5
240
  8
DATA
  6
STYLE_11
 62
     7
 10
153.6012795982335
 20
-767.0
 30
0.0
 40
5.0
 50
90.0
 51
180.0
  0
ARC
  5
241
  8
DATA
  6
STYLE_11
 62
     7
 10
153.6012795982335
 20
-853.50029291666669
 30
0.0
 40
5.0
 50
180.0
 51
270.0
  0
ARC
  5
242
  8
DATA
  6
STYLE_11
 62
     7
 10
155.0000000000002
 20
-863.50029291666669
 30
0.0
 40
5.0
 50
0.0
 51
90.0
  0
ARC
  5
243
  8
DATA
  6
STYLE_11
 62
     7
 10
165.0000000000002
 20
-868.5
 30
0.0
 40
5.0
 50
180.0
 51
270.0
  0
CIRCLE
  5
244
  8
DATA
  6
CONTINUOUS
 62
     7
 10
165.0012795833338
 20
-787.5
 30
0.0
 40
6.4999999999993809
  0
LINE
  5
245
  8
DATA
  6
CONTINUOUS
 62
     7
 10
168.82188372323461
 20
-792.758610463438
 30
0.0
 11
170.87913210625831
 21
-795.59016994374986
 31
0.0
  0
LINE
  5
246
  8
DATA
  6
CONTINUOUS
 62
     7
 10
171.18314693925299
 20
-785.49138953656268
 30
0.0
 11
174.51184474628479
 21
-784.40983005625048
 31
0.0
  0
LINE
  5
247
  8
DATA
  6
CONTINUOUS
 62
     7
 10
165.0012795833338
 20
-781.0
 30
0.0
 11
165.0012795833338
 21
-777.5
 31
0.0
  0
LINE
  5
248
  8
DATA
  6
CONTINUOUS
 62
     7
 10
158.8194122274146
 20
-785.49138953656268
 30
0.0
 11
155.4907144203828
 21
-784.40983005625048
 31
0.0
  0
LINE
  5
249
  8
DATA
  6
CONTINUOUS
 62
     7
 10
161.1806754439697
 20
-792.75861046269495
 30
0.0
 11
159.12342706040931
 21
-795.59016994374895
 31
0.0
  0
LINE
  5
24A
  8
DATA
  6
CONTINUOUS
 62
     7
 10
162.4965510033382
 20
-791.79811394154046
 30
0.0
 11
161.8913434265871
 21
-792.63111070831235
 31
0.0
  0
LINE
  5
24B
  8
DATA
  6
CONTINUOUS
 62
     7
 10
164.5967710861953
 20
-787.20610737377615
 30
0.0
 11
164.5670819018689
 21
-787.24697103031554
 31
0.0
  0
LINE
  5
24C
  8
DATA
  6
CONTINUOUS
 62
     7
 10
161.68753400896301
 20
-791.21032868924885
 30
0.0
 11
161.08232643221189
 21
-792.04332545601994
 31
0.0
  0
LINE
  5
24D
  8
DATA
  6
CONTINUOUS
 62
     7
 10
158.60002918875421
 20
-786.37128684516483
 30
0.0
 11
157.12281755923519
 21
-786.11081457866453
 31
0.0
  0
LINE
  5
24E
  8
DATA
  6
CONTINUOUS
 62
     7
 10
158.50523920770891
 20
-787.2731532714339
 30
0.0
 11
157.0061529671805
 21
-787.22080402637982
 31
0.0
  0
LINE
  5
24F
  8
DATA
  6
CONTINUOUS
 62
     7
 10
158.53688726343921
 20
-788.17943501123966
 30
0.0
 11
157.04510442038759
 21
-788.33622770614102
 31
0.0
  0
LINE
  5
250
  8
DATA
  6
CONTINUOUS
 62
     7
 10
158.69435736253971
 20
-789.07249232139782
 30
0.0
 11
157.23891377312631
 21
-789.43537516479705
 31
0.0
  0
LINE
  5
251
  8
DATA
  6
CONTINUOUS
 62
     7
 10
158.9745845286491
 20
-789.93494285720351
 30
0.0
 11
157.58380874680029
 21
-790.49685274732724
 31
0.0
  0
LINE
  5
252
  8
DATA
  6
CONTINUOUS
 62
     7
 10
159.37211445873459
 20
-790.74999999999955
 30
0.0
 11
158.0730763530575
 21
-791.5
 31
0.0
  0
LINE
  5
253
  8
DATA
  6
CONTINUOUS
 62
     7
 10
159.8792096848903
 20
-791.50179958961644
 30
0.0
 11
158.69719355448089
 21
-792.42529180260499
 31
0.0
  0
LINE
  5
254
  8
DATA
  6
CONTINUOUS
 62
     7
 10
160.48600017534969
 20
-792.17570870220152
 30
0.0
 11
159.44401261966249
 21
-793.25471840270905
 31
0.0
  0
LINE
  5
255
  8
DATA
  6
CONTINUOUS
 62
     7
 10
169.516558991316
 20
-792.1757087022005
 30
0.0
 11
170.55854654700511
 21
-793.2547184027095
 31
0.0
  0
LINE
  5
256
  8
DATA
  6
CONTINUOUS
 62
     7
 10
170.1233494817773
 20
-791.50179958961644
 30
0.0
 11
171.3053656121867
 21
-792.42529180260499
 31
0.0
  0
LINE
  5
257
  8
DATA
  6
CONTINUOUS
 62
     7
 10
170.63044470793309
 20
-790.75000000000034
 30
0.0
 11
171.92948281361001
 21
-791.5
 31
0.0
  0
LINE
  5
258
  8
DATA
  6
CONTINUOUS
 62
     7
 10
171.02797463801849
 20
-789.93494285720351
 30
0.0
 11
172.41875041986921
 21
-790.49685274732747
 31
0.0
  0
LINE
  5
259
  8
DATA
  6
CONTINUOUS
 62
     7
 10
171.30820180412789
 20
-789.07249232139827
 30
0.0
 11
172.76364539354131
 21
-789.43537516479705
 31
0.0
  0
LINE
  5
25A
  8
DATA
  6
CONTINUOUS
 62
     7
 10
171.46567190322659
 20
-788.17943501124012
 30
0.0
 11
172.95745474628001
 21
-788.33622770614102
 31
0.0
  0
LINE
  5
25B
  8
DATA
  6
CONTINUOUS
 62
     7
 10
171.49731995895701
 20
-787.27315327143322
 30
0.0
 11
172.99640619948721
 21
-787.22080402637982
 31
0.0
  0
LINE
  5
25C
  8
DATA
  6
CONTINUOUS
 62
     7
 10
171.40252997791339
 20
-786.37128684516483
 30
0.0
 11
172.8797416074305
 21
-786.11081457866453
 31
0.0
  0
LINE
  5
25D
  8
DATA
  6
CONTINUOUS
 62
     7
 10
170.84344088427881
 20
-784.65058754587085
 30
0.0
 11
172.1916319537269
 21
-783.99303082568747
 31
0.0
  0
LINE
  5
25E
  8
DATA
  6
CONTINUOUS
 62
     7
 10
170.39002380494111
 20
-783.8652461274396
 30
0.0
 11
171.63358016377259
 21
-783.02645677223416
 31
0.0
  0
LINE
  5
25F
  8
DATA
  6
CONTINUOUS
 62
     7
 10
169.831720948938
 20
-783.15065105866745
 30
0.0
 11
170.94643818715321
 21
-782.14695514912921
 31
0.0
  0
LINE
  5
260
  8
DATA
  6
CONTINUOUS
 62
     7
 10
169.17939904629591
 20
-782.5207111197268
 30
0.0
 11
170.1435804608266
 21
-781.37164445504754
 31
0.0
  0
LINE
  5
261
  8
DATA
  6
CONTINUOUS
 62
     7
 10
168.44575480085061
 20
-781.98768737498301
 30
0.0
 11
169.24063369719821
 21
-780.71561523074865
 31
0.0
  0
LINE
  5
262
  8
DATA
  6
CONTINUOUS
 62
     7
 10
167.6450677633259
 20
-781.56195452532393
 30
0.0
 11
168.255172727939
 21
-780.1916363388591
 31
0.0
  0
LINE
  5
263
  8
DATA
  6
CONTINUOUS
 62
     7
 10
166.79292239614389
 20
-781.25179897640101
 30
0.0
 11
167.20637842987
 21
-779.80990643249379
 31
0.0
  0
LINE
  5
264
  8
DATA
  6
CONTINUOUS
 62
     7
 10
165.90590473957329
 20
-781.06325755317994
 30
0.0
 11
166.1146643910144
 21
-779.57785545006845
 31
0.0
  0
LINE
  5
265
  8
DATA
  6
CONTINUOUS
 62
     7
 10
164.09665442709431
 20
-781.06325755318539
 30
0.0
 11
163.88789477565319
 21
-779.57785545006743
 31
0.0
  0
LINE
  5
266
  8
DATA
  6
CONTINUOUS
 62
     7
 10
163.20963677052191
 20
-781.2517989764001
 30
0.0
 11
162.7961807367976
 21
-779.80990643249424
 31
0.0
  0
LINE
  5
267
  8
DATA
  6
CONTINUOUS
 62
     7
 10
162.35749140333991
 20
-781.56195452532245
 30
0.0
 11
161.74738643872681
 21
-780.19163633885955
 31
0.0
  0
LINE
  5
268
  8
DATA
  6
CONTINUOUS
 62
     7
 10
161.55680436581881
 20
-781.98768737498301
 30
0.0
 11
160.76192546946751
 21
-780.71561523074774
 31
0.0
  0
LINE
  5
269
  8
DATA
  6
CONTINUOUS
 62
     7
 10
160.82316012037171
 20
-782.52071111972646
 30
0.0
 11
159.85897870584111
 21
-781.37164445504811
 31
0.0
  0
LINE
  5
26A
  8
DATA
  6
CONTINUOUS
 62
     7
 10
160.17083821773139
 20
-783.15065105866745
 30
0.0
 11
159.05612097951439
 21
-782.14695514912921
 31
0.0
  0
LINE
  5
26B
  8
DATA
  6
CONTINUOUS
 62
     7
 10
159.6125353617247
 20
-783.86524612744051
 30
0.0
 11
158.36897900289321
 21
-783.02645677223416
 31
0.0
  0
LINE
  5
26C
  8
DATA
  6
CONTINUOUS
 62
     7
 10
159.15911828238879
 20
-784.65058754587085
 30
0.0
 11
157.8109272129407
 21
-783.99303082568804
 31
0.0
  0
ARC
  5
26D
  8
DATA
  6
CONTINUOUS
 62
     7
 10
165.62845036293959
 20
-781.53286862779055
 30
0.0
 40
0.4999999999990113
 50
351.61198453549321
 51
176.3880154644454
  0
ARC
  5
26E
  8
DATA
  6
CONTINUOUS
 62
     7
 10
165.00127958333019
 20
-787.50000000000455
 30
0.0
 40
5.9999999999939684
 50
238.78019184717519
 51
229.21980815276439
  0
ARC
  5
26F
  8
DATA
  6
CONTINUOUS
 62
     7
 10
165.00127958338291
 20
-787.49999999992212
 30
0.0
 40
5.0000000000921938
 50
239.73026269141241
 51
228.26082952287089
  0
ARC
  5
270
  8
DATA
  6
CONTINUOUS
 62
     7
 10
163.5318164526054
 20
-789.52254248592862
 30
0.0
 40
2.5000000000092051
 50
245.5369590327395
 51
222.46304096722551
  0
ARC
  5
271
  8
DATA
  6
CONTINUOUS
 62
     7
 10
162.5608597248758
 20
-782.01872725414376
 30
0.0
 40
0.5000000000004735
 50
21.61198453550028
 51
206.3880154644377
  0
ARC
  5
272
  8
DATA
  6
CONTINUOUS
 62
     7
 10
160.14717761707851
 20
-783.97328848624522
 30
0.0
 40
0.499999999999614
 50
51.611984535568602
 51
236.38801546444961
  0
ARC
  5
273
  8
DATA
  6
CONTINUOUS
 62
     7
 10
159.03414821111639
 20
-786.87282922039617
 30
0.0
 40
0.4999999999995867
 50
81.611984535581826
 51
266.38801546441789
  0
ARC
  5
274
  8
DATA
  6
CONTINUOUS
 62
     7
 10
159.520006837469
 20
-789.94041985845945
 30
0.0
 40
0.4999999999998832
 50
111.611984535471
 51
296.3880154644491
  0
ARC
  5
275
  8
DATA
  6
CONTINUOUS
 62
     7
 10
161.47456806957069
 20
-792.35410196625685
 30
0.0
 40
0.4999999999996429
 50
144.00000000008771
 51
324.0000000000457
  0
ARC
  5
276
  8
DATA
  6
CONTINUOUS
 62
     7
 10
164.37410880372241
 20
-793.46713137221889
 30
0.0
 40
0.5000000000008109
 50
171.6119845355235
 51
356.38801546443239
  0
ARC
  5
277
  8
DATA
  6
CONTINUOUS
 62
     7
 10
167.44169944178449
 20
-792.98127274586545
 30
0.0
 40
0.5000000000005573
 50
201.6119845355245
 51
26.38801546439095
  0
ARC
  5
278
  8
DATA
  6
CONTINUOUS
 62
     7
 10
169.85538154958181
 20
-791.02671151376421
 30
0.0
 40
0.4999999999992576
 50
231.61198453553621
 51
56.388015464435107
  0
ARC
  5
279
  8
DATA
  6
CONTINUOUS
 62
     7
 10
170.96841095554399
 20
-788.12717077961349
 30
0.0
 40
0.4999999999998116
 50
261.61198453558558
 51
86.388015464419524
  0
ARC
  5
27A
  8
DATA
  6
CONTINUOUS
 62
     7
 10
170.48255232919129
 20
-785.0595801415501
 30
0.0
 40
0.4999999999998832
 50
291.61198453547092
 51
116.388015464449
  0
ARC
  5
27B
  8
DATA
  6
CONTINUOUS
 62
     7
 10
168.5279910970896
 20
-782.64589803375236
 30
0.0
 40
0.5000000000007875
 50
321.6119845356086
 51
146.38801546444941
  0
TEXT
  5
27C
  8
DATA
 62
     7
 10
162.62588624566021
 20
-743.89021809895814
 30
0.0
 40
4.072102864583333
  1
EQ
 41
0.7
 72
     1
 11
165.0012795833338
 21
-741.85416666666652
 31
0.0
 73
     2
  0
TEXT
  5
27D
  8
DATA
 62
     7
 10
232.71804904513911
 20
-743.89021809895814
 30
0.0
 40
4.072102864583333
  1
FRONT LED
 41
0.7
 72
     1
 11
244.5000000000002
 21
-741.85416666666652
 31
0.0
 73
     2
  0
TEXT
  5
27E
  8
DATA
 62
     7
 10
147.9002994791667
 20
-755.19026811693811
 30
0.0
 40
2.9242187500000001
  1
NORMAL
 41
0.7
 72
     1
 11
153.69999999999999
 21
-753.72815874193805
 31
0.0
 73
     2
  0
LINE
  5
27F
  8
DATA
  6
CONTINUOUS
 62
     7
 10
157.69999999999911
 20
-750.49999999999989
 30
0.0
 11
149.69999999999911
 21
-750.49999999999989
 31
0.0
  0
LINE
  5
280
  8
DATA
  6
CONTINUOUS
 62
     7
 10
151.19999999999911
 20
-750.49999999999989
 30
0.0
 11
151.19999999999911
 21
-748.5
 31
0.0
  0
LINE
  5
281
  8
DATA
  6
CONTINUOUS
 62
     7
 10
156.19999999999911
 20
-748.5
 30
0.0
 11
156.19999999999911
 21
-750.49999999999989
 31
0.0
  0
LINE
  5
282
  8
DATA
  6
CONTINUOUS
 62
     7
 10
151.19999999999911
 20
-748.5
 30
0.0
 11
156.19999999999911
 21
-748.5
 31
0.0
  0
TEXT
  5
283
  8
DATA
 62
     7
 10
171.52633520833419
 20
-755.19026811693811
 30
0.0
 40
2.9242187500000001
  1
BOOST
 41
0.7
 72
     1
 11
176.30255916666761
 21
-753.72815874193805
 31
0.0
 73
     2
  0
LINE
  5
284
  8
DATA
  6
CONTINUOUS
 62
     7
 10
180.30255916666661
 20
-750.49999999999989
 30
0.0
 11
172.3025591666667
 21
-750.49999999999989
 31
0.0
  0
LINE
  5
285
  8
DATA
  6
CONTINUOUS
 62
     7
 10
173.80255916666661
 20
-750.49999999999989
 30
0.0
 11
173.80255916666661
 21
-745.5
 31
0.0
  0
LINE
  5
286
  8
DATA
  6
CONTINUOUS
 62
     7
 10
178.80255916666661
 20
-745.5
 30
0.0
 11
178.80255916666661
 21
-750.49999999999989
 31
0.0
  0
LINE
  5
287
  8
DATA
  6
CONTINUOUS
 62
     7
 10
173.80255916666661
 20
-747.5
 30
0.0
 11
178.80255916666661
 21
-747.5
 31
0.0
  0
LINE
  5
288
  8
DATA
  6
CONTINUOUS
 62
     7
 10
173.80255916666661
 20
-745.5
 30
0.0
 11
178.80255916666661
 21
-745.5
 31
0.0
  0
TEXT
  5
289
  8
DATA
 62
     7
 10
231.49292614583311
 20
-755.19026811693811
 30
0.0
 40
2.9242187500000001
  1
ON
 41
0.7
 72
     1
 11
233.1987204166665
 21
-753.72815874193805
 31
0.0
 73
     2
  0
LINE
  5
28A
  8
DATA
  6
CONTINUOUS
 62
     7
 10
237.19872041666559
 20
-750.49999999999989
 30
0.0
 11
229.19872041666559
 21
-750.49999999999989
 31
0.0
  0
LINE
  5
28B
  8
DATA
  6
CONTINUOUS
 62
     7
 10
230.69872041666559
 20
-750.49999999999989
 30
0.0
 11
230.69872041666559
 21
-748.5
 31
0.0
  0
LINE
  5
28C
  8
DATA
  6
CONTINUOUS
 62
     7
 10
235.69872041666559
 20
-748.5
 30
0.0
 11
235.69872041666559
 21
-750.49999999999989
 31
0.0
  0
LINE
  5
28D
  8
DATA
  6
CONTINUOUS
 62
     7
 10
230.69872041666559
 20
-748.5
 30
0.0
 11
235.69872041666559
 21
-748.5
 31
0.0
  0
TEXT
  5
28E
  8
DATA
 62
     7
 10
253.07200875000069
 20
-754.54960937499993
 30
0.0
 40
2.9242187500000001
  1
OFF
 41
0.7
 72
     1
 11
255.80127958333401
 21
-753.08749999999986
 31
0.0
 73
     2
  0
LINE
  5
28F
  8
DATA
  6
CONTINUOUS
 62
     7
 10
259.8012795833331
 20
-750.49999999999989
 30
0.0
 11
251.8012795833331
 21
-750.49999999999989
 31
0.0
  0
LINE
  5
290
  8
DATA
  6
CONTINUOUS
 62
     7
 10
253.3012795833331
 20
-750.49999999999989
 30
0.0
 11
253.3012795833331
 21
-745.5
 31
0.0
  0
LINE
  5
291
  8
DATA
  6
CONTINUOUS
 62
     7
 10
258.3012795833331
 20
-745.5
 30
0.0
 11
258.3012795833331
 21
-750.49999999999989
 31
0.0
  0
LINE
  5
292
  8
DATA
  6
CONTINUOUS
 62
     7
 10
253.3012795833331
 20
-747.5
 30
0.0
 11
258.3012795833331
 21
-747.5
 31
0.0
  0
LINE
  5
293
  8
DATA
  6
CONTINUOUS
 62
     7
 10
253.3012795833331
 20
-745.5
 30
0.0
 11
258.3012795833331
 21
-745.5
 31
0.0
  0
TEXT
  5
294
  8
DATA
 62
     7
 10
233.0981119791669
 20
-732.8896322656251
 30
0.0
 40
4.072102864583333
  1
PWR/STBY
 41
0.7
 72
     1
 11
244.5000000000002
 21
-730.85358083333335
 31
0.0
 73
     2
  0
CIRCLE
  5
295
  8
DATA
  6
CONTINUOUS
 62
     7
 10
166.5000000000002
 20
-1027.5
 30
0.0
 40
4.7499999999993161
  0
LINE
  5
296
  8
DATA
  6
CONTINUOUS
 62
     7
 10
164.0000000000002
 20
-1027.5
 30
0.0
 11
169.0000000000002
 21
-1027.5
 31
0.0
  0
LINE
  5
297
  8
DATA
  6
CONTINUOUS
 62
     7
 10
166.5000000000002
 20
-1030.0
 30
0.0
 11
166.5000000000002
 21
-1025.0
 31
0.0
  0
CIRCLE
  5
298
  8
DATA
  6
CONTINUOUS
 62
     7
 10
233.50000000000031
 20
-1027.5
 30
0.0
 40
4.7499999999993161
  0
LINE
  5
299
  8
DATA
  6
CONTINUOUS
 62
     7
 10
231.00000000000031
 20
-1027.5
 30
0.0
 11
236.0000000000002
 21
-1027.5
 31
0.0
  0
LINE
  5
29A
  8
DATA
  6
CONTINUOUS
 62
     7
 10
233.50000000000031
 20
-1030.0
 30
0.0
 11
233.50000000000031
 21
-1025.0
 31
0.0
  0
CIRCLE
  5
29B
  8
DATA
  6
CONTINUOUS
 62
     7
 10
166.5000000000002
 20
-657.5
 30
0.0
 40
4.7499999999993161
  0
LINE
  5
29C
  8
DATA
  6
CONTINUOUS
 62
     7
 10
164.0000000000002
 20
-657.5
 30
0.0
 11
169.0000000000002
 21
-657.5
 31
0.0
  0
LINE
  5
29D
  8
DATA
  6
CONTINUOUS
 62
     7
 10
166.5000000000002
 20
-655.0
 30
0.0
 11
166.5000000000002
 21
-660.0
 31
0.0
  0
CIRCLE
  5
29E
  8
DATA
  6
CONTINUOUS
 62
     7
 10
233.50000000000031
 20
-657.5
 30
0.0
 40
4.7499999999993161
  0
LINE
  5
29F
  8
DATA
  6
CONTINUOUS
 62
     7
 10
231.00000000000031
 20
-657.5
 30
0.0
 11
236.0000000000002
 21
-657.5
 31
0.0
  0
LINE
  5
2A0
  8
DATA
  6
CONTINUOUS
 62
     7
 10
233.50000000000031
 20
-655.0
 30
0.0
 11
233.50000000000031
 21
-660.0
 31
0.0
  0
CIRCLE
  5
2A1
  8
DATA
  6
CONTINUOUS
 62
     7
 10
119.5000000000002
 20
-831.49999999999955
 30
0.0
 40
4.7499999999993161
  0
LINE
  5
2A2
  8
DATA
  6
CONTINUOUS
 62
     7
 10
117.0000000000002
 20
-831.49999999999955
 30
0.0
 11
122.0000000000002
 21
-831.49999999999955
 31
0.0
  0
LINE
  5
2A3
  8
DATA
  6
CONTINUOUS
 62
     7
 10
119.5000000000002
 20
-833.99999999999955
 30
0.0
 11
119.5000000000002
 21
-828.99999999999966
 31
0.0
  0
CIRCLE
  5
2A4
  8
DATA
  6
CONTINUOUS
 62
     7
 10
119.5000000000002
 20
-723.5
 30
0.0
 40
4.7499999999993161
  0
LINE
  5
2A5
  8
DATA
  6
CONTINUOUS
 62
     7
 10
117.0000000000002
 20
-723.5
 30
0.0
 11
122.0000000000002
 21
-723.5
 31
0.0
  0
LINE
  5
2A6
  8
DATA
  6
CONTINUOUS
 62
     7
 10
119.5000000000002
 20
-726.0
 30
0.0
 11
119.5000000000002
 21
-721.0
 31
0.0
  0
CIRCLE
  5
2A7
  8
DATA
  6
CONTINUOUS
 62
     7
 10
119.5000000000002
 20
-939.49999999999989
 30
0.0
 40
4.7499999999993161
  0
LINE
  5
2A8
  8
DATA
  6
CONTINUOUS
 62
     7
 10
117.0000000000002
 20
-939.49999999999989
 30
0.0
 11
122.0000000000002
 21
-939.49999999999989
 31
0.0
  0
LINE
  5
2A9
  8
DATA
  6
CONTINUOUS
 62
     7
 10
119.5000000000002
 20
-942.0
 30
0.0
 11
119.5000000000002
 21
-937.0
 31
0.0
  0
CIRCLE
  5
2AA
  8
DATA
  6
CONTINUOUS
 62
     7
 10
280.50000000000028
 20
-831.49999999999955
 30
0.0
 40
4.7500000000010889
  0
LINE
  5
2AB
  8
DATA
  6
CONTINUOUS
 62
     7
 10
283.00000000000028
 20
-831.49999999999955
 30
0.0
 11
278.00000000000028
 21
-831.49999999999955
 31
0.0
  0
LINE
  5
2AC
  8
DATA
  6
CONTINUOUS
 62
     7
 10
280.50000000000028
 20
-833.99999999999955
 30
0.0
 11
280.50000000000028
 21
-828.99999999999966
 31
0.0
  0
CIRCLE
  5
2AD
  8
DATA
  6
CONTINUOUS
 62
     7
 10
280.50000000000028
 20
-723.5
 30
0.0
 40
4.7500000000010889
  0
LINE
  5
2AE
  8
DATA
  6
CONTINUOUS
 62
     7
 10
283.00000000000028
 20
-723.5
 30
0.0
 11
278.00000000000028
 21
-723.5
 31
0.0
  0
LINE
  5
2AF
  8
DATA
  6
CONTINUOUS
 62
     7
 10
280.50000000000028
 20
-726.0
 30
0.0
 11
280.50000000000028
 21
-721.0
 31
0.0
  0
CIRCLE
  5
2B0
  8
DATA
  6
CONTINUOUS
 62
     7
 10
280.50000000000028
 20
-939.49999999999989
 30
0.0
 40
4.7500000000010889
  0
LINE
  5
2B1
  8
DATA
  6
CONTINUOUS
 62
     7
 10
283.00000000000028
 20
-939.49999999999989
 30
0.0
 11
278.00000000000028
 21
-939.49999999999989
 31
0.0
  0
LINE
  5
2B2
  8
DATA
  6
CONTINUOUS
 62
     7
 10
280.50000000000028
 20
-942.0
 30
0.0
 11
280.50000000000028
 21
-937.0
 31
0.0
  0
CIRCLE
  5
2B3
  8
DATA
  6
CONTINUOUS
 62
     7
 10
233.50000000000031
 20
-675.49999999999989
 30
0.0
 40
2.5000000000002212
  0
CIRCLE
  5
2B4
  8
DATA
  6
CONTINUOUS
 62
     7
 10
166.5000000000002
 20
-675.49999999999989
 30
0.0
 40
2.5000000000002212
  0
LINE
  5
2B5
  8
DATA
  6
CONTINUOUS
 62
     7
 10
165.0000000000002
 20
-675.49999999999989
 30
0.0
 11
168.0000000000002
 21
-675.49999999999989
 31
0.0
  0
LINE
  5
2B6
  8
DATA
  6
CONTINUOUS
 62
     7
 10
166.4200000000003
 20
-674.0
 30
0.0
 11
166.4200000000003
 21
-677.0
 31
0.0
  0
LINE
  5
2B7
  8
DATA
  6
CONTINUOUS
 62
     7
 10
235.00000000000031
 20
-675.49999999999989
 30
0.0
 11
232.0000000000002
 21
-675.49999999999989
 31
0.0
  0
LINE
  5
2B8
  8
DATA
  6
CONTINUOUS
 62
     7
 10
233.5800000000001
 20
-674.0
 30
0.0
 11
233.5800000000001
 21
-677.0
 31
0.0
  0
CIRCLE
  5
2B9
  8
DATA
  6
CONTINUOUS
 62
     7
 10
263.4200000000003
 20
-723.5
 30
0.0
 40
2.5000000000002212
  0
LINE
  5
2BA
  8
DATA
  6
CONTINUOUS
 62
     7
 10
264.9200000000003
 20
-723.5
 30
0.0
 11
261.9200000000003
 21
-723.5
 31
0.0
  0
LINE
  5
2BB
  8
DATA
  6
CONTINUOUS
 62
     7
 10
263.50000000000028
 20
-722.0
 30
0.0
 11
263.50000000000028
 21
-725.0
 31
0.0
  0
CIRCLE
  5
2BC
  8
DATA
  6
CONTINUOUS
 62
     7
 10
263.4200000000003
 20
-831.49999999999955
 30
0.0
 40
2.5000000000004241
  0
LINE
  5
2BD
  8
DATA
  6
CONTINUOUS
 62
     7
 10
264.9200000000003
 20
-831.49999999999955
 30
0.0
 11
261.9200000000003
 21
-831.49999999999955
 31
0.0
  0
LINE
  5
2BE
  8
DATA
  6
CONTINUOUS
 62
     7
 10
263.50000000000028
 20
-829.99999999999966
 30
0.0
 11
263.50000000000028
 21
-832.99999999999955
 31
0.0
  0
CIRCLE
  5
2BF
  8
DATA
  6
CONTINUOUS
 62
     7
 10
263.4200000000003
 20
-939.49999999999989
 30
0.0
 40
2.5000000000002212
  0
LINE
  5
2C0
  8
DATA
  6
CONTINUOUS
 62
     7
 10
264.9200000000003
 20
-939.49999999999989
 30
0.0
 11
261.9200000000003
 21
-939.49999999999989
 31
0.0
  0
LINE
  5
2C1
  8
DATA
  6
CONTINUOUS
 62
     7
 10
263.50000000000028
 20
-938.0
 30
0.0
 11
263.50000000000028
 21
-941.0
 31
0.0
  0
CIRCLE
  5
2C2
  8
DATA
  6
CONTINUOUS
 62
     7
 10
136.5800000000001
 20
-723.5
 30
0.0
 40
2.5000000000002212
  0
LINE
  5
2C3
  8
DATA
  6
CONTINUOUS
 62
     7
 10
135.0800000000001
 20
-723.5
 30
0.0
 11
138.0800000000001
 21
-723.5
 31
0.0
  0
LINE
  5
2C4
  8
DATA
  6
CONTINUOUS
 62
     7
 10
136.5000000000002
 20
-722.0
 30
0.0
 11
136.5000000000002
 21
-725.0
 31
0.0
  0
CIRCLE
  5
2C5
  8
DATA
  6
CONTINUOUS
 62
     7
 10
136.5800000000001
 20
-831.49999999999955
 30
0.0
 40
2.5000000000004241
  0
LINE
  5
2C6
  8
DATA
  6
CONTINUOUS
 62
     7
 10
135.0800000000001
 20
-831.49999999999955
 30
0.0
 11
138.0800000000001
 21
-831.49999999999955
 31
0.0
  0
LINE
  5
2C7
  8
DATA
  6
CONTINUOUS
 62
     7
 10
136.5000000000002
 20
-829.99999999999966
 30
0.0
 11
136.5000000000002
 21
-832.99999999999955
 31
0.0
  0
CIRCLE
  5
2C8
  8
DATA
  6
CONTINUOUS
 62
     7
 10
136.5800000000001
 20
-939.49999999999989
 30
0.0
 40
2.5000000000002212
  0
LINE
  5
2C9
  8
DATA
  6
CONTINUOUS
 62
     7
 10
135.0800000000001
 20
-939.49999999999989
 30
0.0
 11
138.0800000000001
 21
-939.49999999999989
 31
0.0
  0
LINE
  5
2CA
  8
DATA
  6
CONTINUOUS
 62
     7
 10
136.5000000000002
 20
-938.0
 30
0.0
 11
136.5000000000002
 21
-941.0
 31
0.0
  0
TEXT
  5
2CB
  8
DATA
 62
     7
 10
174.170987955729
 20
-725.91648763020839
 30
0.0
 40
12.21630859375
  1
PRX735
 41
0.7
 72
     1
 11
198.39999999999981
 21
-719.80833333333328
 31
0.0
 73
     2
  0
LINE
  5
2CC
  8
DATA
  6
CONTINUOUS
 62
     7
 10
267.50000000000028
 20
-1014.5
 30
0.0
 11
267.50000000000028
 21
-939.49999999999989
 31
0.0
  0
TEXT
  5
2CD
  8
DATA
 62
     7
 10
811.94444444444446
 20
924.60000000000025
 30
0.0
 40
54.294704861111107
  1
コネクターパネル拡大図
 41
0.7
 11
811.94444444444446
 21
978.89470486111134
 31
0.0
 73
     3
  0
LINE
  5
2CE
  8
DATA
  6
CONTINUOUS
 62
     7
 10
800.0
 20
900.0
 30
0.0
 11
1600.0
 21
900.0
 31
0.0
  0
TEXT
  5
2CF
  8
DATA
 62
     7
 10
-1750.0
 20
-2375.3699594444452
 30
0.0
 40
38.006293402777779
  1
※仕様及び外観は予告なく変更されることがあります。
 41
0.7
 11
-1750.0
 21
-2337.3636660416669
 31
0.0
 73
     3
  0
TEXT
  5
2D0
  8
DATA
 62
     7
 10
-1750.0
 20
-2424.7588483333338
 30
0.0
 40
38.006293402777779
  1
　また、同一商品でも若干の個体差があることがあります。ご了承ください。
 41
0.7
 11
-1750.0
 21
-2386.752554930556
 31
0.0
 73
     3
  0
TEXT
  5
2D1
  8
DATA
 62
     7
 10
999.99999999999955
 20
-2310.2777150000002
 30
0.0
 40
48.865234375000007
  1
PRX735
 41
0.7
 11
999.99999999999955
 21
-2261.4124806250002
 31
0.0
 73
     3
  0
TEXT
  5
2D2
  8
DATA
 62
     7
 10
999.99999999999955
 20
-2165.2777150000002
 30
0.0
 40
48.865234375000007
  1
JBL PROFESSIONAL
 41
0.7
 11
999.99999999999955
 21
-2116.4124806250002
 31
0.0
 73
     3
  0
LINE
  5
2D3
  8
DATA
  6
CONTINUOUS
 62
     7
 10
-1341.0939615798061
 20
-376.5
 30
0.0
 11
-1400.0
 21
-376.5
 31
0.0
  0
LINE
  5
2D4
  8
DATA
  6
CONTINUOUS
 62
     7
 10
-1331.466921969753
 20
-368.5
 30
0.0
 11
-1400.0
 21
-368.5
 31
0.0
  0
LINE
  5
2D5
  8
DATA
  6
CONTINUOUS
 62
     7
 10
-1326.0939615798061
 20
-411.5
 30
0.0
 11
-1073.906038420195
 21
-411.5
 31
0.0
  0
LINE
  5
2D6
  8
DATA
  6
CONTINUOUS
 62
     7
 10
-1315.609779112611
 20
-405.49999999999989
 30
0.0
 11
-1084.3902208873899
 21
-405.49999999999989
 31
0.0
  0
LINE
  5
2D7
  8
DATA
  6
CONTINUOUS
 62
     7
 10
-1341.0939615798061
 20
-376.5
 30
0.0
 11
-1326.0939615798061
 21
-411.5
 31
0.0
  0
LINE
  5
2D8
  8
DATA
  6
CONTINUOUS
 62
     7
 10
-1331.466921969753
 20
-368.5
 30
0.0
 11
-1315.609779112611
 21
-405.49999999999989
 31
0.0
  0
LINE
  5
2D9
  8
DATA
  6
CONTINUOUS
 62
     7
 10
-1058.9060384201939
 20
-376.5
 30
0.0
 11
-1000.0
 21
-376.5
 31
0.0
  0
LINE
  5
2DA
  8
DATA
  6
CONTINUOUS
 62
     7
 10
-1069.390220887389
 20
-370.5
 30
0.0
 11
-1000.0
 21
-370.5
 31
0.0
  0
LINE
  5
2DB
  8
DATA
  6
CONTINUOUS
 62
     7
 10
-1058.9060384201939
 20
-376.5
 30
0.0
 11
-1073.906038420195
 21
-411.5
 31
0.0
  0
LINE
  5
2DC
  8
DATA
  6
CONTINUOUS
 62
     7
 10
-1069.390220887389
 20
-370.5
 30
0.0
 11
-1084.3902208873899
 21
-405.49999999999989
 31
0.0
  0
CIRCLE
  5
2DD
  8
DATA
  6
CONTINUOUS
 62
     7
 10
-1405.0
 20
-329.5
 30
0.0
 40
3.2499999999997038
  0
CIRCLE
  5
2DE
  8
DATA
  6
CONTINUOUS
 62
     7
 10
-995.0
 20
-329.5
 30
0.0
 40
3.2500000000005729
  0
LINE
  5
2DF
  8
DATA
  6
CONTINUOUS
 62
     7
 10
-1407.0
 20
-329.5
 30
0.0
 11
-1403.0
 21
-329.5
 31
0.0
  0
LINE
  5
2E0
  8
DATA
  6
CONTINUOUS
 62
     7
 10
-1405.0
 20
-327.5
 30
0.0
 11
-1405.0
 21
-331.5
 31
0.0
  0
LINE
  5
2E1
  8
DATA
  6
CONTINUOUS
 62
     7
 10
-997.0
 20
-329.5
 30
0.0
 11
-993.0
 21
-329.5
 31
0.0
  0
LINE
  5
2E2
  8
DATA
  6
CONTINUOUS
 62
     7
 10
-995.0
 20
-327.5
 30
0.0
 11
-995.0
 21
-331.5
 31
0.0
  0
CIRCLE
  5
2E3
  8
DATA
  6
CONTINUOUS
 62
     7
 10
-1405.0
 20
-476.49999999999989
 30
0.0
 40
3.2499999999997038
  0
CIRCLE
  5
2E4
  8
DATA
  6
CONTINUOUS
 62
     7
 10
-995.0
 20
-476.49999999999989
 30
0.0
 40
3.2500000000005729
  0
LINE
  5
2E5
  8
DATA
  6
CONTINUOUS
 62
     7
 10
-1407.0
 20
-476.49999999999989
 30
0.0
 11
-1403.0
 21
-476.49999999999989
 31
0.0
  0
LINE
  5
2E6
  8
DATA
  6
CONTINUOUS
 62
     7
 10
-1405.0
 20
-474.5
 30
0.0
 11
-1405.0
 21
-478.5
 31
0.0
  0
LINE
  5
2E7
  8
DATA
  6
CONTINUOUS
 62
     7
 10
-997.0
 20
-476.49999999999989
 30
0.0
 11
-993.0
 21
-476.49999999999989
 31
0.0
  0
LINE
  5
2E8
  8
DATA
  6
CONTINUOUS
 62
     7
 10
-995.0
 20
-474.5
 30
0.0
 11
-995.0
 21
-478.5
 31
0.0
  0
CIRCLE
  5
2E9
  8
DATA
  6
CONTINUOUS
 62
     7
 10
-1405.0
 20
-623.5
 30
0.0
 40
3.2499999999997038
  0
CIRCLE
  5
2EA
  8
DATA
  6
CONTINUOUS
 62
     7
 10
-995.0
 20
-623.5
 30
0.0
 40
3.2500000000005729
  0
LINE
  5
2EB
  8
DATA
  6
CONTINUOUS
 62
     7
 10
-1407.0
 20
-623.5
 30
0.0
 11
-1403.0
 21
-623.5
 31
0.0
  0
LINE
  5
2EC
  8
DATA
  6
CONTINUOUS
 62
     7
 10
-1405.0
 20
-621.49999999999989
 30
0.0
 11
-1405.0
 21
-625.49999999999989
 31
0.0
  0
LINE
  5
2ED
  8
DATA
  6
CONTINUOUS
 62
     7
 10
-997.0
 20
-623.5
 30
0.0
 11
-993.0
 21
-623.5
 31
0.0
  0
LINE
  5
2EE
  8
DATA
  6
CONTINUOUS
 62
     7
 10
-995.0
 20
-621.49999999999989
 30
0.0
 11
-995.0
 21
-625.49999999999989
 31
0.0
  0
CIRCLE
  5
2EF
  8
DATA
  6
CONTINUOUS
 62
     7
 10
-1405.0
 20
-770.5
 30
0.0
 40
3.2499999999997038
  0
CIRCLE
  5
2F0
  8
DATA
  6
CONTINUOUS
 62
     7
 10
-995.0
 20
-770.5
 30
0.0
 40
3.2500000000005729
  0
LINE
  5
2F1
  8
DATA
  6
CONTINUOUS
 62
     7
 10
-1407.0
 20
-770.5
 30
0.0
 11
-1403.0
 21
-770.5
 31
0.0
  0
LINE
  5
2F2
  8
DATA
  6
CONTINUOUS
 62
     7
 10
-1405.0
 20
-768.5
 30
0.0
 11
-1405.0
 21
-772.5
 31
0.0
  0
LINE
  5
2F3
  8
DATA
  6
CONTINUOUS
 62
     7
 10
-997.0
 20
-770.5
 30
0.0
 11
-993.0
 21
-770.5
 31
0.0
  0
LINE
  5
2F4
  8
DATA
  6
CONTINUOUS
 62
     7
 10
-995.0
 20
-768.5
 30
0.0
 11
-995.0
 21
-772.5
 31
0.0
  0
CIRCLE
  5
2F5
  8
DATA
  6
CONTINUOUS
 62
     7
 10
-1405.0
 20
-917.5
 30
0.0
 40
3.2499999999997038
  0
CIRCLE
  5
2F6
  8
DATA
  6
CONTINUOUS
 62
     7
 10
-995.0
 20
-917.5
 30
0.0
 40
3.2500000000005729
  0
LINE
  5
2F7
  8
DATA
  6
CONTINUOUS
 62
     7
 10
-1407.0
 20
-917.5
 30
0.0
 11
-1403.0
 21
-917.5
 31
0.0
  0
LINE
  5
2F8
  8
DATA
  6
CONTINUOUS
 62
     7
 10
-1405.0
 20
-915.49999999999989
 30
0.0
 11
-1405.0
 21
-919.5
 31
0.0
  0
LINE
  5
2F9
  8
DATA
  6
CONTINUOUS
 62
     7
 10
-997.0
 20
-917.5
 30
0.0
 11
-993.0
 21
-917.5
 31
0.0
  0
LINE
  5
2FA
  8
DATA
  6
CONTINUOUS
 62
     7
 10
-995.0
 20
-915.49999999999989
 30
0.0
 11
-995.0
 21
-919.5
 31
0.0
  0
LINE
  5
2FB
  8
DATA
  6
CONTINUOUS
 62
     7
 10
-1301.8987248127339
 20
-1938.0
 30
0.0
 11
-1098.1012751872661
 21
-1938.0
 31
0.0
  0
LINE
  5
2FC
  8
DATA
  6
CONTINUOUS
 62
     7
 10
-1290.7974496254681
 20
-1923.0
 30
0.0
 11
-1109.202550374531
 21
-1923.0
 31
0.0
  0
LINE
  5
2FD
  8
DATA
  6
CONTINUOUS
 62
     7
 10
-1316.2439983785041
 20
-1927.3832780339851
 30
0.0
 11
-1422.34527356577
 21
-1580.142741057479
 31
0.0
  0
LINE
  5
2FE
  8
DATA
  6
CONTINUOUS
 62
     7
 10
-1305.142723191238
 20
-1912.3832780339851
 30
0.0
 11
-1407.34527356577
 21
-1577.902204080973
 31
0.0
  0
LINE
  5
2FF
  8
DATA
  6
CONTINUOUS
 62
     7
 10
-1083.756001621495
 20
-1927.3832780339851
 30
0.0
 11
-977.65472643422959
 21
-1580.142741057479
 31
0.0
  0
LINE
  5
300
  8
DATA
  6
CONTINUOUS
 62
     7
 10
-1094.8572768087611
 20
-1912.3832780339851
 30
0.0
 11
-992.65472643422959
 21
-1577.902204080973
 31
0.0
  0
ARC
  5
301
  8
DATA
  6
CONTINUOUS
 62
     7
 10
-992.0
 20
-1575.7594630234939
 30
0.0
 40
14.99999999999997
 50
343.00917670801562
 51
0.0000000000017621
  0
ARC
  5
302
  8
DATA
  6
CONTINUOUS
 62
     7
 10
-1301.8987248127339
 20
-1923.0
 30
0.0
 40
15.000000000000099
 50
196.99082329198609
 51
270.0
  0
ARC
  5
303
  8
DATA
  6
CONTINUOUS
 62
     7
 10
-1098.1012751872661
 20
-1923.0
 30
0.0
 40
15.0
 50
270.0
 51
343.0091767080138
  0
ARC
  5
304
  8
DATA
  6
CONTINUOUS
 62
     7
 10
-1290.7974496254681
 20
-1908.0
 30
0.0
 40
15.000000000000099
 50
196.99082329198609
 51
270.0
  0
ARC
  5
305
  8
DATA
  6
CONTINUOUS
 62
     7
 10
-1109.202550374531
 20
-1908.0
 30
0.0
 40
15.0
 50
270.0
 51
343.0091767080138
  0
ARC
  5
306
  8
DATA
  6
CONTINUOUS
 62
     7
 10
-1393.0
 20
-1573.5189260469881
 30
0.0
 40
15.0
 50
180.0
 51
196.99082329198609
  0
ARC
  5
307
  8
DATA
  6
CONTINUOUS
 62
     7
 10
-1007.0
 20
-1573.5189260469881
 30
0.0
 40
15.00000000000003
 50
343.00917670801482
 51
0.0000000000008527
  0
CIRCLE
  5
308
  8
DATA
  6
CONTINUOUS
 62
     7
 10
-1282.5
 20
-1894.5
 30
0.0
 40
20.00000000000081
  0
CIRCLE
  5
309
  8
DATA
  6
CONTINUOUS
 62
     7
 10
-1282.5
 20
-1894.5
 30
0.0
 40
10.000000000000529
  0
CIRCLE
  5
30A
  8
DATA
  6
CONTINUOUS
 62
     7
 10
-1282.5
 20
-1894.5
 30
0.0
 40
5.5
  0
CIRCLE
  5
30B
  8
DATA
  6
CONTINUOUS
 62
     7
 10
-1117.5
 20
-1894.5
 30
0.0
 40
20.00000000000081
  0
CIRCLE
  5
30C
  8
DATA
  6
CONTINUOUS
 62
     7
 10
-1117.5
 20
-1894.5
 30
0.0
 40
10.000000000000529
  0
CIRCLE
  5
30D
  8
DATA
  6
CONTINUOUS
 62
     7
 10
-1117.5
 20
-1894.5
 30
0.0
 40
5.5
  0
TEXT
  5
30E
  8
DATA
 62
     7
 10
949.99999999999955
 20
-2234.8168150000001
 30
0.0
 40
32.576822916666671
  1
3-Wayパワード・フルレンジ
 41
0.7
 11
949.99999999999955
 21
-2202.2399920833341
 31
0.0
 73
     3
  0
LINE
  5
30F
  8
DATA
  6
CONTINUOUS
 62
     7
 10
-1000.0
 20
-187.0
 30
0.0
 11
-1000.0
 21
-368.5
 31
0.0
  0
LINE
  5
310
  8
DATA
  6
CONTINUOUS
 62
     7
 10
-1400.0
 20
-368.5
 30
0.0
 11
-1400.0
 21
-187.0
 31
0.0
  0
LINE
  5
311
  8
DATA
  6
CONTINUOUS
 62
     7
 10
-1408.0
 20
-149.0
 30
0.0
 11
-992.0
 21
-149.0
 31
0.0
  0
LINE
  5
312
  8
DATA
  6
CONTINUOUS
 62
     7
 10
-992.0
 20
-149.0
 30
0.0
 11
-977.0
 21
-159.0
 31
0.0
  0
LINE
  5
313
  8
DATA
  6
CONTINUOUS
 62
     7
 10
-1408.0
 20
-149.0
 30
0.0
 11
-1423.0
 21
-159.0
 31
0.0
  0
LINE
  5
314
  8
DATA
  6
CONTINUOUS
 62
     7
 10
-1423.0
 20
-159.0
 30
0.0
 11
-977.0
 21
-159.0
 31
0.0
  0
LINE
  5
315
  8
DATA
  6
CONTINUOUS
 62
     7
 10
-1413.0
 20
-174.0
 30
0.0
 11
-987.0
 21
-174.0
 31
0.0
  0
LINE
  5
316
  8
DATA
  6
CONTINUOUS
 62
     7
 10
-1400.0
 20
-187.0
 30
0.0
 11
-1000.0
 21
-187.0
 31
0.0
  0
CIRCLE
  5
317
  8
DATA
  6
CONTINUOUS
 62
     7
 10
-1405.0
 20
-182.0
 30
0.0
 40
3.2499999999997038
  0
CIRCLE
  5
318
  8
DATA
  6
CONTINUOUS
 62
     7
 10
-1311.0
 20
-182.0
 30
0.0
 40
3.2499999999997038
  0
CIRCLE
  5
319
  8
DATA
  6
CONTINUOUS
 62
     7
 10
-1089.0
 20
-182.0
 30
0.0
 40
3.2499999999997038
  0
CIRCLE
  5
31A
  8
DATA
  6
CONTINUOUS
 62
     7
 10
-995.0
 20
-182.0
 30
0.0
 40
3.2500000000005729
  0
LINE
  5
31B
  8
DATA
  6
CONTINUOUS
 62
     7
 10
-1407.0
 20
-182.0
 30
0.0
 11
-1403.0
 21
-182.0
 31
0.0
  0
LINE
  5
31C
  8
DATA
  6
CONTINUOUS
 62
     7
 10
-1405.0
 20
-180.0
 30
0.0
 11
-1405.0
 21
-184.0
 31
0.0
  0
LINE
  5
31D
  8
DATA
  6
CONTINUOUS
 62
     7
 10
-1313.0
 20
-182.0
 30
0.0
 11
-1309.0
 21
-182.0
 31
0.0
  0
LINE
  5
31E
  8
DATA
  6
CONTINUOUS
 62
     7
 10
-1311.0
 20
-180.0
 30
0.0
 11
-1311.0
 21
-184.0
 31
0.0
  0
LINE
  5
31F
  8
DATA
  6
CONTINUOUS
 62
     7
 10
-1091.0
 20
-182.0
 30
0.0
 11
-1087.0
 21
-182.0
 31
0.0
  0
LINE
  5
320
  8
DATA
  6
CONTINUOUS
 62
     7
 10
-1089.0
 20
-180.0
 30
0.0
 11
-1089.0
 21
-184.0
 31
0.0
  0
LINE
  5
321
  8
DATA
  6
CONTINUOUS
 62
     7
 10
-997.0
 20
-182.0
 30
0.0
 11
-993.0
 21
-182.0
 31
0.0
  0
LINE
  5
322
  8
DATA
  6
CONTINUOUS
 62
     7
 10
-995.0
 20
-180.0
 30
0.0
 11
-995.0
 21
-184.0
 31
0.0
  0
LINE
  5
323
  8
DATA
  6
CONTINUOUS
 62
     7
 10
-785.0
 20
-149.0
 30
0.0
 11
-277.0
 21
-149.0
 31
0.0
  0
LINE
  5
324
  8
DATA
  6
CONTINUOUS
 62
     7
 10
-277.0
 20
-149.0
 30
0.0
 11
-262.0
 21
-159.0
 31
0.0
  0
LINE
  5
325
  8
DATA
  6
CONTINUOUS
 62
     7
 10
-785.0
 20
-149.0
 30
0.0
 11
-800.0
 21
-159.0
 31
0.0
  0
LINE
  5
326
  8
DATA
  6
CONTINUOUS
 62
     7
 10
-800.0
 20
-159.0
 30
0.0
 11
-262.0
 21
-159.0
 31
0.0
  0
LINE
  5
327
  8
DATA
  6
CONTINUOUS
 62
     7
 10
-800.0
 20
-174.0
 30
0.0
 11
-765.0
 21
-174.0
 31
0.0
  0
CIRCLE
  5
328
  8
DATA
  6
CONTINUOUS
 62
     7
 10
-670.0
 20
-199.5
 30
0.0
 40
10.000000000000229
  0
LINE
  5
329
  8
DATA
  6
CONTINUOUS
 62
     7
 10
-673.46410161513813
 20
-201.5
 30
0.0
 11
-670.0
 21
-203.5
 31
0.0
  0
LINE
  5
32A
  8
DATA
  6
CONTINUOUS
 62
     7
 10
-673.46410161513813
 20
-197.5
 30
0.0
 11
-673.46410161513813
 21
-201.5
 31
0.0
  0
LINE
  5
32B
  8
DATA
  6
CONTINUOUS
 62
     7
 10
-670.0
 20
-195.5
 30
0.0
 11
-673.46410161513813
 21
-197.5
 31
0.0
  0
LINE
  5
32C
  8
DATA
  6
CONTINUOUS
 62
     7
 10
-666.53589838486266
 20
-197.5
 30
0.0
 11
-670.0
 21
-195.5
 31
0.0
  0
LINE
  5
32D
  8
DATA
  6
CONTINUOUS
 62
     7
 10
-666.53589838486266
 20
-201.5
 30
0.0
 11
-666.53589838486266
 21
-197.5
 31
0.0
  0
LINE
  5
32E
  8
DATA
  6
CONTINUOUS
 62
     7
 10
-670.0
 20
-203.5
 30
0.0
 11
-666.53589838486266
 21
-201.5
 31
0.0
  0
LINE
  5
32F
  8
DATA
  6
CONTINUOUS
 62
     7
 10
408.0
 20
-149.0
 30
0.0
 11
-8.0
 21
-149.0
 31
0.0
  0
LINE
  5
330
  8
DATA
  6
CONTINUOUS
 62
     7
 10
-8.0
 20
-149.0
 30
0.0
 11
-23.0
 21
-159.0
 31
0.0
  0
LINE
  5
331
  8
DATA
  6
CONTINUOUS
 62
     7
 10
408.0
 20
-149.0
 30
0.0
 11
423.0
 21
-159.0
 31
0.0
  0
LINE
  5
332
  8
DATA
  6
CONTINUOUS
 62
     7
 10
423.0
 20
-159.0
 30
0.0
 11
-23.0
 21
-159.0
 31
0.0
  0
LINE
  5
333
  8
DATA
  6
CONTINUOUS
 62
     7
 10
90.000000000000213
 20
-149.0
 30
0.0
 11
310.00000000000028
 21
-149.0
 31
0.0
  0
CIRCLE
  5
334
  8
DATA
  6
CONTINUOUS
 62
     7
 10
200.00000000000031
 20
-199.5
 30
0.0
 40
10.00000000000006
  0
LINE
  5
335
  8
DATA
  6
CONTINUOUS
 62
     7
 10
202.00000000000031
 20
-196.03589838486229
 30
0.0
 11
204.00000000000031
 21
-199.5
 31
0.0
  0
LINE
  5
336
  8
DATA
  6
CONTINUOUS
 62
     7
 10
198.0000000000002
 20
-196.03589838486229
 30
0.0
 11
202.00000000000031
 21
-196.03589838486229
 31
0.0
  0
LINE
  5
337
  8
DATA
  6
CONTINUOUS
 62
     7
 10
196.0000000000002
 20
-199.5
 30
0.0
 11
198.0000000000002
 21
-196.03589838486229
 31
0.0
  0
LINE
  5
338
  8
DATA
  6
CONTINUOUS
 62
     7
 10
198.0000000000002
 20
-202.96410161513771
 30
0.0
 11
196.0000000000002
 21
-199.5
 31
0.0
  0
LINE
  5
339
  8
DATA
  6
CONTINUOUS
 62
     7
 10
202.00000000000031
 20
-202.96410161513771
 30
0.0
 11
198.0000000000002
 21
-202.96410161513771
 31
0.0
  0
LINE
  5
33A
  8
DATA
  6
CONTINUOUS
 62
     7
 10
204.00000000000031
 20
-199.5
 30
0.0
 11
202.00000000000031
 21
-202.96410161513771
 31
0.0
  0
LINE
  5
33B
  8
DATA
  6
CONTINUOUS
 62
     7
 10
-1400.0
 20
-1062.0
 30
0.0
 11
-1400.0
 21
-1037.0
 31
0.0
  0
LINE
  5
33C
  8
DATA
  6
CONTINUOUS
 62
     7
 10
-1400.0
 20
-1027.0
 30
0.0
 11
-1400.0
 21
-376.5
 31
0.0
  0
LINE
  5
33D
  8
DATA
  6
CONTINUOUS
 62
     7
 10
-992.0
 20
-1100.0
 30
0.0
 11
-1408.0
 21
-1100.0
 31
0.0
  0
LINE
  5
33E
  8
DATA
  6
CONTINUOUS
 62
     7
 10
-992.0
 20
-1100.0
 30
0.0
 11
-977.0
 21
-1090.0
 31
0.0
  0
LINE
  5
33F
  8
DATA
  6
CONTINUOUS
 62
     7
 10
-1408.0
 20
-1100.0
 30
0.0
 11
-1423.0
 21
-1090.0
 31
0.0
  0
LINE
  5
340
  8
DATA
  6
CONTINUOUS
 62
     7
 10
-977.0
 20
-1090.0
 30
0.0
 11
-1423.0
 21
-1090.0
 31
0.0
  0
LINE
  5
341
  8
DATA
  6
CONTINUOUS
 62
     7
 10
-987.0
 20
-1075.0
 30
0.0
 11
-1413.0
 21
-1075.0
 31
0.0
  0
LINE
  5
342
  8
DATA
  6
CONTINUOUS
 62
     7
 10
-1000.0
 20
-1062.0
 30
0.0
 11
-1400.0
 21
-1062.0
 31
0.0
  0
LINE
  5
343
  8
DATA
  6
CONTINUOUS
 62
     7
 10
-1334.5
 20
-1037.0
 30
0.0
 11
-1400.0
 21
-1037.0
 31
0.0
  0
LINE
  5
344
  8
DATA
  6
CONTINUOUS
 62
     7
 10
-1341.0939615798061
 20
-1027.0
 30
0.0
 11
-1400.0
 21
-1027.0
 31
0.0
  0
LINE
  5
345
  8
DATA
  6
CONTINUOUS
 62
     7
 10
-1000.0
 20
-376.5
 30
0.0
 11
-1000.0
 21
-1027.0
 31
0.0
  0
LINE
  5
346
  8
DATA
  6
CONTINUOUS
 62
     7
 10
-1000.0
 20
-1037.0
 30
0.0
 11
-1000.0
 21
-1062.0
 31
0.0
  0
LINE
  5
347
  8
DATA
  6
CONTINUOUS
 62
     7
 10
-1319.5
 20
-1002.0
 30
0.0
 11
-1080.5
 21
-1002.0
 31
0.0
  0
LINE
  5
348
  8
DATA
  6
CONTINUOUS
 62
     7
 10
-1326.0939615798061
 20
-992.0
 30
0.0
 11
-1073.906038420195
 21
-992.0
 31
0.0
  0
LINE
  5
349
  8
DATA
  6
CONTINUOUS
 62
     7
 10
-1334.5
 20
-1037.0
 30
0.0
 11
-1319.5
 21
-1002.0
 31
0.0
  0
LINE
  5
34A
  8
DATA
  6
CONTINUOUS
 62
     7
 10
-1341.0939615798061
 20
-1027.0
 30
0.0
 11
-1326.0939615798061
 21
-992.0
 31
0.0
  0
LINE
  5
34B
  8
DATA
  6
CONTINUOUS
 62
     7
 10
-1065.5
 20
-1037.0
 30
0.0
 11
-1000.0
 21
-1037.0
 31
0.0
  0
LINE
  5
34C
  8
DATA
  6
CONTINUOUS
 62
     7
 10
-1058.9060384201939
 20
-1027.0
 30
0.0
 11
-1000.0
 21
-1027.0
 31
0.0
  0
LINE
  5
34D
  8
DATA
  6
CONTINUOUS
 62
     7
 10
-1065.5
 20
-1037.0
 30
0.0
 11
-1080.5
 21
-1002.0
 31
0.0
  0
LINE
  5
34E
  8
DATA
  6
CONTINUOUS
 62
     7
 10
-1058.9060384201939
 20
-1027.0
 30
0.0
 11
-1073.906038420195
 21
-992.0
 31
0.0
  0
CIRCLE
  5
34F
  8
DATA
  6
CONTINUOUS
 62
     7
 10
-1405.0
 20
-1067.0
 30
0.0
 40
3.249999999999738
  0
CIRCLE
  5
350
  8
DATA
  6
CONTINUOUS
 62
     7
 10
-1311.0
 20
-1067.0
 30
0.0
 40
3.249999999999738
  0
CIRCLE
  5
351
  8
DATA
  6
CONTINUOUS
 62
     7
 10
-1089.0
 20
-1067.0
 30
0.0
 40
3.249999999999738
  0
CIRCLE
  5
352
  8
DATA
  6
CONTINUOUS
 62
     7
 10
-995.0
 20
-1067.0
 30
0.0
 40
3.2500000000006071
  0
CIRCLE
  5
353
  8
DATA
  6
CONTINUOUS
 62
     7
 10
-1200.0
 20
-1067.0
 30
0.0
 40
2.0000000000001679
  0
LINE
  5
354
  8
DATA
  6
CONTINUOUS
 62
     7
 10
-1407.0
 20
-1067.0
 30
0.0
 11
-1403.0
 21
-1067.0
 31
0.0
  0
LINE
  5
355
  8
DATA
  6
CONTINUOUS
 62
     7
 10
-1405.0
 20
-1069.0
 30
0.0
 11
-1405.0
 21
-1065.0
 31
0.0
  0
LINE
  5
356
  8
DATA
  6
CONTINUOUS
 62
     7
 10
-1313.0
 20
-1067.0
 30
0.0
 11
-1309.0
 21
-1067.0
 31
0.0
  0
LINE
  5
357
  8
DATA
  6
CONTINUOUS
 62
     7
 10
-1311.0
 20
-1069.0
 30
0.0
 11
-1311.0
 21
-1065.0
 31
0.0
  0
LINE
  5
358
  8
DATA
  6
CONTINUOUS
 62
     7
 10
-1091.0
 20
-1067.0
 30
0.0
 11
-1087.0
 21
-1067.0
 31
0.0
  0
LINE
  5
359
  8
DATA
  6
CONTINUOUS
 62
     7
 10
-1089.0
 20
-1069.0
 30
0.0
 11
-1089.0
 21
-1065.0
 31
0.0
  0
LINE
  5
35A
  8
DATA
  6
CONTINUOUS
 62
     7
 10
-997.0
 20
-1067.0
 30
0.0
 11
-993.0
 21
-1067.0
 31
0.0
  0
LINE
  5
35B
  8
DATA
  6
CONTINUOUS
 62
     7
 10
-995.0
 20
-1069.0
 30
0.0
 11
-995.0
 21
-1065.0
 31
0.0
  0
LINE
  5
35C
  8
DATA
  6
CONTINUOUS
 62
     7
 10
-1230.0
 20
-941.0
 30
0.0
 11
-1230.0
 21
-891.0
 31
0.0
  0
LINE
  5
35D
  8
DATA
  6
CONTINUOUS
 62
     7
 10
-1170.0
 20
-941.0
 30
0.0
 11
-1230.0
 21
-941.0
 31
0.0
  0
LINE
  5
35E
  8
DATA
  6
CONTINUOUS
 62
     7
 10
-1170.0
 20
-891.0
 30
0.0
 11
-1170.0
 21
-941.0
 31
0.0
  0
LINE
  5
35F
  8
DATA
  6
CONTINUOUS
 62
     7
 10
-1230.0
 20
-891.0
 30
0.0
 11
-1170.0
 21
-891.0
 31
0.0
  0
LINE
  5
360
  8
DATA
  6
CONTINUOUS
 62
     7
 10
-1223.0
 20
-934.5
 30
0.0
 11
-1223.0
 21
-897.49999999999989
 31
0.0
  0
LINE
  5
361
  8
DATA
  6
CONTINUOUS
 62
     7
 10
-1177.0
 20
-934.5
 30
0.0
 11
-1223.0
 21
-934.5
 31
0.0
  0
LINE
  5
362
  8
DATA
  6
CONTINUOUS
 62
     7
 10
-1177.0
 20
-897.49999999999989
 30
0.0
 11
-1177.0
 21
-934.5
 31
0.0
  0
LINE
  5
363
  8
DATA
  6
CONTINUOUS
 62
     7
 10
-1223.0
 20
-897.49999999999989
 30
0.0
 11
-1177.0
 21
-897.49999999999989
 31
0.0
  0
LINE
  5
364
  8
DATA
  6
CONTINUOUS
 62
     7
 10
-277.0
 20
-1100.0
 30
0.0
 11
-785.0
 21
-1100.0
 31
0.0
  0
LINE
  5
365
  8
DATA
  6
CONTINUOUS
 62
     7
 10
-277.0
 20
-1100.0
 30
0.0
 11
-262.0
 21
-1090.0
 31
0.0
  0
LINE
  5
366
  8
DATA
  6
CONTINUOUS
 62
     7
 10
-785.0
 20
-1100.0
 30
0.0
 11
-800.0
 21
-1090.0
 31
0.0
  0
LINE
  5
367
  8
DATA
  6
CONTINUOUS
 62
     7
 10
-262.0
 20
-1090.0
 30
0.0
 11
-800.0
 21
-1090.0
 31
0.0
  0
LINE
  5
368
  8
DATA
  6
CONTINUOUS
 62
     7
 10
-765.0
 20
-1075.0
 30
0.0
 11
-800.0
 21
-1075.0
 31
0.0
  0
LINE
  5
369
  8
DATA
  6
CONTINUOUS
 62
     7
 10
-744.0
 20
-1103.5
 30
0.0
 11
-744.0
 21
-1100.0
 31
0.0
  0
LINE
  5
36A
  8
DATA
  6
CONTINUOUS
 62
     7
 10
-704.0
 20
-1103.5
 30
0.0
 11
-744.0
 21
-1103.5
 31
0.0
  0
LINE
  5
36B
  8
DATA
  6
CONTINUOUS
 62
     7
 10
-704.0
 20
-1100.0
 30
0.0
 11
-704.0
 21
-1103.5
 31
0.0
  0
LINE
  5
36C
  8
DATA
  6
CONTINUOUS
 62
     7
 10
-8.0
 20
-1100.0
 30
0.0
 11
-23.0
 21
-1090.0
 31
0.0
  0
LINE
  5
36D
  8
DATA
  6
CONTINUOUS
 62
     7
 10
408.0
 20
-1100.0
 30
0.0
 11
423.0
 21
-1090.0
 31
0.0
  0
LINE
  5
36E
  8
DATA
  6
CONTINUOUS
 62
     7
 10
-23.0
 20
-1090.0
 30
0.0
 11
423.0
 21
-1090.0
 31
0.0
  0
CIRCLE
  5
36F
  8
DATA
  6
CONTINUOUS
 62
     7
 10
200.00000000000031
 20
-1049.5
 30
0.0
 40
10.00000000000006
  0
LINE
  5
370
  8
DATA
  6
CONTINUOUS
 62
     7
 10
202.00000000000031
 20
-1052.964101615137
 30
0.0
 11
204.00000000000031
 21
-1049.5
 31
0.0
  0
LINE
  5
371
  8
DATA
  6
CONTINUOUS
 62
     7
 10
198.0000000000002
 20
-1052.964101615137
 30
0.0
 11
202.00000000000031
 21
-1052.964101615137
 31
0.0
  0
LINE
  5
372
  8
DATA
  6
CONTINUOUS
 62
     7
 10
196.0000000000002
 20
-1049.5
 30
0.0
 11
198.0000000000002
 21
-1052.964101615137
 31
0.0
  0
LINE
  5
373
  8
DATA
  6
CONTINUOUS
 62
     7
 10
198.0000000000002
 20
-1046.0358983848621
 30
0.0
 11
196.0000000000002
 21
-1049.5
 31
0.0
  0
LINE
  5
374
  8
DATA
  6
CONTINUOUS
 62
     7
 10
202.00000000000031
 20
-1046.0358983848621
 30
0.0
 11
198.0000000000002
 21
-1046.0358983848621
 31
0.0
  0
LINE
  5
375
  8
DATA
  6
CONTINUOUS
 62
     7
 10
204.00000000000031
 20
-1049.5
 30
0.0
 11
202.00000000000031
 21
-1046.0358983848621
 31
0.0
  0
LINE
  5
376
  8
DATA
  6
CONTINUOUS
 62
     7
 10
-1423.0
 20
-1090.0
 30
0.0
 11
-1423.0
 21
-159.0
 31
0.0
  0
LINE
  5
377
  8
DATA
  6
CONTINUOUS
 62
     7
 10
-1413.0
 20
-1075.0
 30
0.0
 11
-1413.0
 21
-174.0
 31
0.0
  0
LINE
  5
378
  8
DATA
  6
CONTINUOUS
 62
     7
 10
-977.0
 20
-159.0
 30
0.0
 11
-977.0
 21
-1090.0
 31
0.0
  0
LINE
  5
379
  8
DATA
  6
CONTINUOUS
 62
     7
 10
-987.0
 20
-174.0
 30
0.0
 11
-987.0
 21
-1075.0
 31
0.0
  0
LINE
  5
37A
  8
DATA
  6
CONTINUOUS
 62
     7
 10
-800.0
 20
-1090.0
 30
0.0
 11
-800.0
 21
-159.0
 31
0.0
  0
LINE
  5
37B
  8
DATA
  6
CONTINUOUS
 62
     7
 10
-735.0
 20
-1090.0
 30
0.0
 11
-735.0
 21
-159.0
 31
0.0
  0
LINE
  5
37C
  8
DATA
  6
CONTINUOUS
 62
     7
 10
-262.0
 20
-159.0
 30
0.0
 11
-262.0
 21
-1090.0
 31
0.0
  0
LINE
  5
37D
  8
DATA
  6
CONTINUOUS
 62
     7
 10
-765.0
 20
-174.0
 30
0.0
 11
-765.0
 21
-1075.0
 31
0.0
  0
LINE
  5
37E
  8
DATA
  6
CONTINUOUS
 62
     7
 10
-765.0
 20
-174.0
 30
0.0
 11
-765.0
 21
-1075.0
 31
0.0
  0
LINE
  5
37F
  8
DATA
  6
CONTINUOUS
 62
     7
 10
423.0
 20
-1090.0
 30
0.0
 11
423.0
 21
-159.0
 31
0.0
  0
LINE
  5
380
  8
DATA
  6
CONTINUOUS
 62
     7
 10
-23.0
 20
-159.0
 30
0.0
 11
-23.0
 21
-1090.0
 31
0.0
  0
LINE
  5
381
  8
DATA
  6
CONTINUOUS
 62
     7
 10
-1301.8987248127339
 20
638.0
 30
0.0
 11
-1098.1012751872661
 21
638.0
 31
0.0
  0
LINE
  5
382
  8
DATA
  6
CONTINUOUS
 62
     7
 10
-1290.7974496254681
 20
623.0
 30
0.0
 11
-1109.202550374531
 21
623.0
 31
0.0
  0
LINE
  5
383
  8
DATA
  6
CONTINUOUS
 62
     7
 10
-1250.092773938828
 20
568.0
 30
0.0
 11
-1150.4072260611731
 21
568.0
 31
0.0
  0
LINE
  5
384
  8
DATA
  6
CONTINUOUS
 62
     7
 10
-1316.2439983785041
 20
627.38327803398511
 30
0.0
 11
-1422.34527356577
 21
280.14274105747972
 31
0.0
  0
LINE
  5
385
  8
DATA
  6
CONTINUOUS
 62
     7
 10
-1305.142723191238
 20
612.38327803398522
 30
0.0
 11
-1407.34527356577
 21
277.90220408097349
 31
0.0
  0
LINE
  5
386
  8
DATA
  6
CONTINUOUS
 62
     7
 10
-1264.438047504598
 20
557.38327803398522
 30
0.0
 11
-1352.34527356577
 21
269.68690183378499
 31
0.0
  0
LINE
  5
387
  8
DATA
  6
CONTINUOUS
 62
     7
 10
-1083.756001621495
 20
627.38327803398511
 30
0.0
 11
-977.65472643422959
 21
280.1427410574795
 31
0.0
  0
LINE
  5
388
  8
DATA
  6
CONTINUOUS
 62
     7
 10
-1094.8572768087611
 20
612.38327803398522
 30
0.0
 11
-992.65472643422959
 21
277.90220408097349
 31
0.0
  0
LINE
  5
389
  8
DATA
  6
CONTINUOUS
 62
     7
 10
-1135.5619524954029
 20
557.38327803398522
 30
0.0
 11
-1047.65472643423
 21
269.68690183378499
 31
0.0
  0
ARC
  5
38A
  8
DATA
  6
CONTINUOUS
 62
     7
 10
-992.0
 20
275.75946302349462
 30
0.0
 40
15.0
 50
359.99999999999841
 51
16.990823291984551
  0
ARC
  5
38B
  8
DATA
  6
CONTINUOUS
 62
     7
 10
-1301.8987248127339
 20
623.0
 30
0.0
 40
15.0
 50
90.0
 51
163.0091767080138
  0
ARC
  5
38C
  8
DATA
  6
CONTINUOUS
 62
     7
 10
-1098.1012751872661
 20
623.0
 30
0.0
 40
15.000000000000099
 50
16.990823291986171
 51
90.0
  0
ARC
  5
38D
  8
DATA
  6
CONTINUOUS
 62
     7
 10
-1290.7974496254681
 20
608.0
 30
0.0
 40
15.0
 50
90.0
 51
163.0091767080138
  0
ARC
  5
38E
  8
DATA
  6
CONTINUOUS
 62
     7
 10
-1109.202550374531
 20
608.0
 30
0.0
 40
15.000000000000099
 50
16.990823291986171
 51
90.0
  0
ARC
  5
38F
  8
DATA
  6
CONTINUOUS
 62
     7
 10
-1393.0
 20
273.5189260469885
 30
0.0
 40
14.99999999999997
 50
163.0091767080155
 51
180.00000000000171
  0
ARC
  5
390
  8
DATA
  6
CONTINUOUS
 62
     7
 10
-1007.0
 20
273.5189260469885
 30
0.0
 40
15.0
 50
359.99999999999841
 51
16.990823291984551
  0
ARC
  5
391
  8
DATA
  6
CONTINUOUS
 62
     7
 10
-1149.907226061174
 20
553.0
 30
0.0
 40
15.000000000000099
 50
16.990823291986171
 51
90.0
  0
ARC
  5
392
  8
DATA
  6
CONTINUOUS
 62
     7
 10
-1250.092773938828
 20
553.0
 30
0.0
 40
15.0
 50
90.0
 51
163.0091767080138
  0
ARC
  5
393
  8
DATA
  6
CONTINUOUS
 62
     7
 10
-1338.0
 20
265.30362379980011
 30
0.0
 40
14.99999999999997
 50
163.0091767080155
 51
180.00000000000171
  0
ARC
  5
394
  8
DATA
  6
CONTINUOUS
 62
     7
 10
-1062.0
 20
265.30362379980011
 30
0.0
 40
15.0
 50
359.99999999999841
 51
16.990823291984551
  0
CIRCLE
  5
395
  8
DATA
  6
CONTINUOUS
 62
     7
 10
-1380.0
 20
230.0
 30
0.0
 40
10.00000000000006
  0
LINE
  5
396
  8
DATA
  6
CONTINUOUS
 62
     7
 10
-1378.0
 20
226.53589838486229
 30
0.0
 11
-1376.0
 21
230.0
 31
0.0
  0
LINE
  5
397
  8
DATA
  6
CONTINUOUS
 62
     7
 10
-1382.0
 20
226.53589838486229
 30
0.0
 11
-1378.0
 21
226.53589838486229
 31
0.0
  0
LINE
  5
398
  8
DATA
  6
CONTINUOUS
 62
     7
 10
-1384.0
 20
230.0
 30
0.0
 11
-1382.0
 21
226.53589838486229
 31
0.0
  0
LINE
  5
399
  8
DATA
  6
CONTINUOUS
 62
     7
 10
-1382.0
 20
233.46410161513771
 30
0.0
 11
-1384.0
 21
230.0
 31
0.0
  0
LINE
  5
39A
  8
DATA
  6
CONTINUOUS
 62
     7
 10
-1378.0
 20
233.46410161513771
 30
0.0
 11
-1382.0
 21
233.46410161513771
 31
0.0
  0
LINE
  5
39B
  8
DATA
  6
CONTINUOUS
 62
     7
 10
-1376.0
 20
230.0
 30
0.0
 11
-1378.0
 21
233.46410161513771
 31
0.0
  0
LINE
  5
39C
  8
DATA
  6
CONTINUOUS
 62
     7
 10
-1325.60132595867
 20
106.3006629793346
 30
0.0
 11
-1414.7082039324989
 21
150.8541019662492
 31
0.0
  0
LINE
  5
39D
  8
DATA
  6
CONTINUOUS
 62
     7
 10
-1321.5080898071899
 20
121.0245547348425
 30
0.0
 11
-1399.7082039324989
 21
160.12461179749769
 31
0.0
  0
LINE
  5
39E
  8
DATA
  6
CONTINUOUS
 62
     7
 10
-1306.6198391891539
 20
175.07229880706819
 30
0.0
 11
-1344.7082039325001
 21
194.11648117874171
 31
0.0
  0
LINE
  5
39F
  8
DATA
  6
CONTINUOUS
 62
     7
 10
-1074.3986740413291
 20
106.3006629793351
 30
0.0
 11
-985.29179606750017
 21
150.8541019662492
 31
0.0
  0
LINE
  5
3A0
  8
DATA
  6
CONTINUOUS
 62
     7
 10
-1078.491910192811
 20
121.0245547348425
 30
0.0
 11
-1000.2917960674999
 21
160.12461179749769
 31
0.0
  0
LINE
  5
3A1
  8
DATA
  6
CONTINUOUS
 62
     7
 10
-1093.3801608108461
 20
175.07229880706871
 30
0.0
 11
-1055.2917960674999
 21
194.11648117874159
 31
0.0
  0
ARC
  5
3A2
  8
DATA
  6
CONTINUOUS
 62
     7
 10
-1408.0
 20
164.27050983124789
 30
0.0
 40
15.0
 50
179.9999999999996
 51
243.434948822921
  0
ARC
  5
3A3
  8
DATA
  6
CONTINUOUS
 62
     7
 10
-1318.8931220261779
 20
119.7170708443185
 30
0.0
 40
14.99999999998353
 50
243.4349488229206
 51
265.43680624798628
  0
ARC
  5
3A4
  8
DATA
  6
CONTINUOUS
 62
     7
 10
-1081.106877973818
 20
119.7170708443149
 30
0.0
 40
14.9999999999786
 50
274.5631937520011
 51
296.56505117707388
  0
ARC
  5
3A5
  8
DATA
  6
CONTINUOUS
 62
     7
 10
-992.0
 20
164.27050983124789
 30
0.0
 40
15.000000000000011
 50
296.565051177079
 51
0.0000000000004547
  0
ARC
  5
3A6
  8
DATA
  6
CONTINUOUS
 62
     7
 10
-1393.0
 20
173.54101966249641
 30
0.0
 40
15.0
 50
179.9999999999996
 51
243.434948822921
  0
ARC
  5
3A7
  8
DATA
  6
CONTINUOUS
 62
     7
 10
-1314.7998858746821
 20
134.44096259985761
 30
0.0
 40
15.000000000018821
 50
243.4349488229181
 51
265.54994321847289
  0
ARC
  5
3A8
  8
DATA
  6
CONTINUOUS
 62
     7
 10
-1085.2001141253179
 20
134.4409625998573
 30
0.0
 40
15.000000000017961
 50
274.45005678152711
 51
296.5650511770761
  0
ARC
  5
3A9
  8
DATA
  6
CONTINUOUS
 62
     7
 10
-1007.0
 20
173.54101966249641
 30
0.0
 40
15.000000000000011
 50
296.565051177079
 51
0.0000000000004547
  0
ARC
  5
3AA
  8
DATA
  6
CONTINUOUS
 62
     7
 10
-1338.0
 20
207.53288904374031
 30
0.0
 40
15.0
 50
179.9999999999992
 51
243.43494882292089
  0
ARC
  5
3AB
  8
DATA
  6
CONTINUOUS
 62
     7
 10
-1299.9116352566409
 20
188.4887066720928
 30
0.0
 40
15.000000000028891
 50
243.4349488229218
 51
265.98022564554918
  0
ARC
  5
3AC
  8
DATA
  6
CONTINUOUS
 62
     7
 10
-1100.0883647433579
 20
188.48870667209371
 30
0.0
 40
15.000000000029599
 50
274.01977435445059
 51
296.56505117707729
  0
ARC
  5
3AD
  8
DATA
  6
CONTINUOUS
 62
     7
 10
-1062.0
 20
207.53288904374031
 30
0.0
 40
15.000000000000011
 50
296.565051177079
 51
0.0000000000004547
  0
LINE
  5
3AE
  8
DATA
  6
CONTINUOUS
 62
     7
 10
-1353.0
 20
207.03288904374051
 30
0.0
 11
-1353.0
 21
265.3036237997996
 31
0.0
  0
LINE
  5
3AF
  8
DATA
  6
CONTINUOUS
 62
     7
 10
-1047.0
 20
265.3036237997996
 30
0.0
 11
-1047.0
 21
207.0328890437404
 31
0.0
  0
LINE
  5
3B0
  8
DATA
  6
CONTINUOUS
 62
     7
 10
-1423.0
 20
164.27050983124801
 30
0.0
 11
-1423.0
 21
275.75946302349439
 31
0.0
  0
LINE
  5
3B1
  8
DATA
  6
CONTINUOUS
 62
     7
 10
-1408.0
 20
173.5410196624965
 30
0.0
 11
-1408.0
 21
273.5189260469881
 31
0.0
  0
LINE
  5
3B2
  8
DATA
  6
CONTINUOUS
 62
     7
 10
-977.0
 20
275.75946302349422
 30
0.0
 11
-977.0
 21
164.27050983124801
 31
0.0
  0
LINE
  5
3B3
  8
DATA
  6
CONTINUOUS
 62
     7
 10
-992.0
 20
273.5189260469881
 30
0.0
 11
-992.0
 21
173.5410196624965
 31
0.0
  0
LINE
  5
3B4
  8
DATA
  6
CONTINUOUS
 62
     7
 10
-1423.0
 20
-1464.270509831249
 30
0.0
 11
-1423.0
 21
-1575.7594630234939
 31
0.0
  0
LINE
  5
3B5
  8
DATA
  6
CONTINUOUS
 62
     7
 10
-1408.0
 20
-1473.5410196624971
 30
0.0
 11
-1408.0
 21
-1573.5189260469881
 31
0.0
  0
LINE
  5
3B6
  8
DATA
  6
CONTINUOUS
 62
     7
 10
-1325.60132595867
 20
-1406.300662979336
 30
0.0
 11
-1414.7082039324989
 21
-1450.85410196625
 31
0.0
  0
LINE
  5
3B7
  8
DATA
  6
CONTINUOUS
 62
     7
 10
-1321.5080898071899
 20
-1421.0245547348429
 30
0.0
 11
-1399.7082039324989
 21
-1460.1246117974979
 31
0.0
  0
LINE
  5
3B8
  8
DATA
  6
CONTINUOUS
 62
     7
 10
-1074.3986740413291
 20
-1406.300662979336
 30
0.0
 11
-985.29179606750017
 21
-1450.85410196625
 31
0.0
  0
LINE
  5
3B9
  8
DATA
  6
CONTINUOUS
 62
     7
 10
-1078.491910192811
 20
-1421.0245547348429
 30
0.0
 11
-1000.2917960674999
 21
-1460.1246117974979
 31
0.0
  0
LINE
  5
3BA
  8
DATA
  6
CONTINUOUS
 62
     7
 10
-977.0
 20
-1575.7594630234939
 30
0.0
 11
-977.0
 21
-1464.270509831249
 31
0.0
  0
LINE
  5
3BB
  8
DATA
  6
CONTINUOUS
 62
     7
 10
-992.0
 20
-1573.5189260469881
 30
0.0
 11
-992.0
 21
-1473.5410196624971
 31
0.0
  0
ARC
  5
3BC
  8
DATA
  6
CONTINUOUS
 62
     7
 10
-1408.0
 20
-1464.270509831249
 30
0.0
 40
15.00000000000011
 50
116.5650511770788
 51
180.0
  0
ARC
  5
3BD
  8
DATA
  6
CONTINUOUS
 62
     7
 10
-1318.8931220261779
 20
-1419.7170708443191
 30
0.0
 40
14.999999999982959
 50
94.563193752013703
 51
116.5650511770795
  0
ARC
  5
3BE
  8
DATA
  6
CONTINUOUS
 62
     7
 10
-1081.106877973818
 20
-1419.717070844315
 30
0.0
 40
14.999999999978151
 50
63.434948822925897
 51
85.436806247998902
  0
ARC
  5
3BF
  8
DATA
  6
CONTINUOUS
 62
     7
 10
-992.0
 20
-1464.270509831249
 30
0.0
 40
15.0
 50
0.0
 51
63.434948822921228
  0
ARC
  5
3C0
  8
DATA
  6
CONTINUOUS
 62
     7
 10
-1393.0
 20
-1473.5410196624971
 30
0.0
 40
15.00000000000011
 50
116.5650511770788
 51
180.0
  0
ARC
  5
3C1
  8
DATA
  6
CONTINUOUS
 62
     7
 10
-1314.7998858746821
 20
-1434.440962599858
 30
0.0
 40
15.000000000018289
 50
94.450056781527024
 51
116.5650511770818
  0
ARC
  5
3C2
  8
DATA
  6
CONTINUOUS
 62
     7
 10
-1085.2001141253179
 20
-1434.440962599858
 30
0.0
 40
15.0000000000176
 50
63.43494882292358
 51
85.549943218472876
  0
ARC
  5
3C3
  8
DATA
  6
CONTINUOUS
 62
     7
 10
-1007.0
 20
-1473.5410196624971
 30
0.0
 40
15.0
 50
0.0
 51
63.434948822921228
  0
CIRCLE
  5
3C4
  8
DATA
  6
CONTINUOUS
 62
     7
 10
-1380.0
 20
-1476.0
 30
0.0
 40
20.00000000000081
  0
CIRCLE
  5
3C5
  8
DATA
  6
CONTINUOUS
 62
     7
 10
-1380.0
 20
-1476.0
 30
0.0
 40
10.000000000000529
  0
CIRCLE
  5
3C6
  8
DATA
  6
CONTINUOUS
 62
     7
 10
-1380.0
 20
-1476.0
 30
0.0
 40
5.5
  0
CIRCLE
  5
3C7
  8
DATA
  6
CONTINUOUS
 62
     7
 10
-1020.0
 20
-1476.0
 30
0.0
 40
20.00000000000081
  0
CIRCLE
  5
3C8
  8
DATA
  6
CONTINUOUS
 62
     7
 10
-1020.0
 20
-1476.0
 30
0.0
 40
10.000000000000529
  0
CIRCLE
  5
3C9
  8
DATA
  6
CONTINUOUS
 62
     7
 10
-1020.0
 20
-1476.0
 30
0.0
 40
5.5
  0
ARC
  5
3CA
  8
DATA
  6
CONTINUOUS
 62
     7
 10
-1200.0
 20
1617.4080894031069
 30
0.0
 40
1447.4080894031069
 50
266.00011657632712
 51
273.99988342367283
  0
ARC
  5
3CB
  8
DATA
  6
CONTINUOUS
 62
     7
 10
-1200.0
 20
1616.021682121187
 30
0.0
 40
1501.021682121188
 50
265.56911133541053
 51
274.43088866458942
  0
ARC
  5
3CC
  8
DATA
  6
CONTINUOUS
 62
     7
 10
-1200.000000000003
 20
1615.7006673093049
 30
0.0
 40
1515.7006673093049
 50
265.45578590537059
 51
274.54421409462952
  0
ARC
  5
3CD
  8
DATA
  6
CONTINUOUS
 62
     7
 10
-1200.000000000003
 20
-2915.70066730908
 30
0.0
 40
1515.70066730908
 50
85.455785905369765
 51
94.544214094630036
  0
ARC
  5
3CE
  8
DATA
  6
CONTINUOUS
 62
     7
 10
-1200.0
 20
-2916.0216821212639
 30
0.0
 40
1501.021682121263
 50
85.569111335410767
 51
94.430888664589247
  0
LINE
  5
3CF
  8
DATA
  6
CONTINUOUS
 62
     7
 10
-1400.0
 20
-1103.5
 30
0.0
 11
-1400.0
 21
-1100.0
 31
0.0
  0
LINE
  5
3D0
  8
DATA
  6
CONTINUOUS
 62
     7
 10
-1360.0
 20
-1103.5
 30
0.0
 11
-1400.0
 21
-1103.5
 31
0.0
  0
LINE
  5
3D1
  8
DATA
  6
CONTINUOUS
 62
     7
 10
-1360.0
 20
-1100.0
 30
0.0
 11
-1360.0
 21
-1103.5
 31
0.0
  0
ARC
  5
3D2
  8
DATA
  6
CONTINUOUS
 62
     7
 10
-1408.0
 20
-1575.7594630234939
 30
0.0
 40
15.0
 50
179.99999999999829
 51
196.9908232919845
  0
ARC
  5
3D3
  8
DATA
  6
CONTINUOUS
 62
     7
 10
-1408.0
 20
275.75946302349467
 30
0.0
 40
15.0
 50
163.0091767080151
 51
180.00000000000131
  0
CIRCLE
  5
3D4
  8
DATA
  6
CONTINUOUS
 62
     7
 10
-1200.0
 20
595.0
 30
0.0
 40
10.00000000000006
  0
LINE
  5
3D5
  8
DATA
  6
CONTINUOUS
 62
     7
 10
-1198.0
 20
591.53589838486232
 30
0.0
 11
-1196.0
 21
595.0
 31
0.0
  0
LINE
  5
3D6
  8
DATA
  6
CONTINUOUS
 62
     7
 10
-1202.0
 20
591.53589838486232
 30
0.0
 11
-1198.0
 21
591.53589838486232
 31
0.0
  0
LINE
  5
3D7
  8
DATA
  6
CONTINUOUS
 62
     7
 10
-1204.0
 20
595.0
 30
0.0
 11
-1202.0
 21
591.53589838486232
 31
0.0
  0
LINE
  5
3D8
  8
DATA
  6
CONTINUOUS
 62
     7
 10
-1202.0
 20
598.46410161513768
 30
0.0
 11
-1204.0
 21
595.0
 31
0.0
  0
LINE
  5
3D9
  8
DATA
  6
CONTINUOUS
 62
     7
 10
-1198.0
 20
598.46410161513768
 30
0.0
 11
-1202.0
 21
598.46410161513768
 31
0.0
  0
LINE
  5
3DA
  8
DATA
  6
CONTINUOUS
 62
     7
 10
-1196.0
 20
595.0
 30
0.0
 11
-1198.0
 21
598.46410161513768
 31
0.0
  0
CIRCLE
  5
3DB
  8
DATA
  6
CONTINUOUS
 62
     7
 10
-1020.0
 20
230.0
 30
0.0
 40
10.00000000000006
  0
LINE
  5
3DC
  8
DATA
  6
CONTINUOUS
 62
     7
 10
-1022.0
 20
226.53589838486229
 30
0.0
 11
-1024.0
 21
230.0
 31
0.0
  0
LINE
  5
3DD
  8
DATA
  6
CONTINUOUS
 62
     7
 10
-1018.0
 20
226.53589838486229
 30
0.0
 11
-1022.0
 21
226.53589838486229
 31
0.0
  0
LINE
  5
3DE
  8
DATA
  6
CONTINUOUS
 62
     7
 10
-1016.0
 20
230.0
 30
0.0
 11
-1018.0
 21
226.53589838486229
 31
0.0
  0
LINE
  5
3DF
  8
DATA
  6
CONTINUOUS
 62
     7
 10
-1018.0
 20
233.46410161513771
 30
0.0
 11
-1016.0
 21
230.0
 31
0.0
  0
LINE
  5
3E0
  8
DATA
  6
CONTINUOUS
 62
     7
 10
-1022.0
 20
233.46410161513771
 30
0.0
 11
-1018.0
 21
233.46410161513771
 31
0.0
  0
LINE
  5
3E1
  8
DATA
  6
CONTINUOUS
 62
     7
 10
-1024.0
 20
230.0
 30
0.0
 11
-1022.0
 21
233.46410161513771
 31
0.0
  0
LINE
  5
3E2
  8
DATA
  6
CONTINUOUS
 62
     7
 10
-1322.997622626362
 20
-149.0
 30
0.0
 11
-1322.997622626362
 21
-1100.0
 31
0.0
  0
LINE
  5
3E3
  8
DATA
  6
CONTINUOUS
 62
     7
 10
-1077.002377373638
 20
-149.0
 30
0.0
 11
-1077.002377373638
 21
-1100.0
 31
0.0
  0
CIRCLE
  5
3E4
  8
DATA
  6
CONTINUOUS
 62
     7
 10
-1020.0
 20
-1530.0
 30
0.0
 40
10.00000000000006
  0
LINE
  5
3E5
  8
DATA
  6
CONTINUOUS
 62
     7
 10
-1022.0
 20
-1526.5358983848621
 30
0.0
 11
-1024.0
 21
-1530.0
 31
0.0
  0
LINE
  5
3E6
  8
DATA
  6
CONTINUOUS
 62
     7
 10
-1018.0
 20
-1526.5358983848621
 30
0.0
 11
-1022.0
 21
-1526.5358983848621
 31
0.0
  0
LINE
  5
3E7
  8
DATA
  6
CONTINUOUS
 62
     7
 10
-1016.0
 20
-1530.0
 30
0.0
 11
-1018.0
 21
-1526.5358983848621
 31
0.0
  0
LINE
  5
3E8
  8
DATA
  6
CONTINUOUS
 62
     7
 10
-1018.0
 20
-1533.4641016151379
 30
0.0
 11
-1016.0
 21
-1530.0
 31
0.0
  0
LINE
  5
3E9
  8
DATA
  6
CONTINUOUS
 62
     7
 10
-1022.0
 20
-1533.4641016151379
 30
0.0
 11
-1018.0
 21
-1533.4641016151379
 31
0.0
  0
LINE
  5
3EA
  8
DATA
  6
CONTINUOUS
 62
     7
 10
-1024.0
 20
-1530.0
 30
0.0
 11
-1022.0
 21
-1533.4641016151379
 31
0.0
  0
CIRCLE
  5
3EB
  8
DATA
  6
CONTINUOUS
 62
     7
 10
-1200.0
 20
-1895.0
 30
0.0
 40
10.00000000000006
  0
LINE
  5
3EC
  8
DATA
  6
CONTINUOUS
 62
     7
 10
-1202.0
 20
-1891.5358983848621
 30
0.0
 11
-1204.0
 21
-1895.0
 31
0.0
  0
LINE
  5
3ED
  8
DATA
  6
CONTINUOUS
 62
     7
 10
-1198.0
 20
-1891.5358983848621
 30
0.0
 11
-1202.0
 21
-1891.5358983848621
 31
0.0
  0
LINE
  5
3EE
  8
DATA
  6
CONTINUOUS
 62
     7
 10
-1196.0
 20
-1895.0
 30
0.0
 11
-1198.0
 21
-1891.5358983848621
 31
0.0
  0
LINE
  5
3EF
  8
DATA
  6
CONTINUOUS
 62
     7
 10
-1198.0
 20
-1898.4641016151379
 30
0.0
 11
-1196.0
 21
-1895.0
 31
0.0
  0
LINE
  5
3F0
  8
DATA
  6
CONTINUOUS
 62
     7
 10
-1202.0
 20
-1898.4641016151379
 30
0.0
 11
-1198.0
 21
-1898.4641016151379
 31
0.0
  0
LINE
  5
3F1
  8
DATA
  6
CONTINUOUS
 62
     7
 10
-1204.0
 20
-1895.0
 30
0.0
 11
-1202.0
 21
-1898.4641016151379
 31
0.0
  0
CIRCLE
  5
3F2
  8
DATA
  6
CONTINUOUS
 62
     7
 10
-1380.0
 20
-1530.0
 30
0.0
 40
10.00000000000006
  0
LINE
  5
3F3
  8
DATA
  6
CONTINUOUS
 62
     7
 10
-1378.0
 20
-1526.5358983848621
 30
0.0
 11
-1376.0
 21
-1530.0
 31
0.0
  0
LINE
  5
3F4
  8
DATA
  6
CONTINUOUS
 62
     7
 10
-1382.0
 20
-1526.5358983848621
 30
0.0
 11
-1378.0
 21
-1526.5358983848621
 31
0.0
  0
LINE
  5
3F5
  8
DATA
  6
CONTINUOUS
 62
     7
 10
-1384.0
 20
-1530.0
 30
0.0
 11
-1382.0
 21
-1526.5358983848621
 31
0.0
  0
LINE
  5
3F6
  8
DATA
  6
CONTINUOUS
 62
     7
 10
-1382.0
 20
-1533.4641016151379
 30
0.0
 11
-1384.0
 21
-1530.0
 31
0.0
  0
LINE
  5
3F7
  8
DATA
  6
CONTINUOUS
 62
     7
 10
-1378.0
 20
-1533.4641016151379
 30
0.0
 11
-1382.0
 21
-1533.4641016151379
 31
0.0
  0
LINE
  5
3F8
  8
DATA
  6
CONTINUOUS
 62
     7
 10
-1376.0
 20
-1530.0
 30
0.0
 11
-1378.0
 21
-1533.4641016151379
 31
0.0
  0
LINE
  5
3F9
  8
DATA
  6
CONTINUOUS
 62
     7
 10
-440.43738102705481
 20
-523.5
 30
0.0
 11
-574.30060513663511
 21
-523.5
 31
0.0
  0
LINE
  5
3FA
  8
DATA
  6
CONTINUOUS
 62
     7
 10
-451.44456412345568
 20
-508.49999999999989
 30
0.0
 11
-563.29342204023442
 21
-508.49999999999989
 31
0.0
  0
LINE
  5
3FB
  8
DATA
  6
CONTINUOUS
 62
     7
 10
-451.44456412345568
 20
-500.49999999999989
 30
0.0
 11
-563.29342204023442
 21
-500.49999999999989
 31
0.0
  0
LINE
  5
3FC
  8
DATA
  6
CONTINUOUS
 62
     7
 10
-574.30060513663511
 20
-317.5
 30
0.0
 11
-440.43738102705481
 21
-317.5
 31
0.0
  0
LINE
  5
3FD
  8
DATA
  6
CONTINUOUS
 62
     7
 10
-563.29342204023442
 20
-332.5
 30
0.0
 11
-451.44456412345568
 21
-332.5
 31
0.0
  0
LINE
  5
3FE
  8
DATA
  6
CONTINUOUS
 62
     7
 10
-563.29342204023442
 20
-340.5
 30
0.0
 11
-451.44456412345568
 21
-340.5
 31
0.0
  0
LINE
  5
3FF
  8
DATA
  6
CONTINUOUS
 62
     7
 10
-567.37452035659351
 20
-423.5
 30
0.0
 11
-447.36346580709642
 21
-423.5
 31
0.0
  0
LINE
  5
400
  8
DATA
  6
CONTINUOUS
 62
     7
 10
-567.37452035659351
 20
-415.5
 30
0.0
 11
-447.36346580709642
 21
-415.5
 31
0.0
  0
LINE
  5
401
  8
DATA
  6
CONTINUOUS
 62
     7
 10
-594.86899308184502
 20
-437.5
 30
0.0
 11
-594.73481404868426
 21
-437.5
 31
0.0
  0
LINE
  5
402
  8
DATA
  6
CONTINUOUS
 62
     7
 10
-566.80854220715389
 20
-437.5
 30
0.0
 11
-447.92944395653598
 21
-437.5
 31
0.0
  0
LINE
  5
403
  8
DATA
  6
CONTINUOUS
 62
     7
 10
-566.80854220715389
 20
-445.5
 30
0.0
 11
-447.92944395653598
 21
-445.5
 31
0.0
  0
LINE
  5
404
  8
DATA
  6
CONTINUOUS
 62
     7
 10
-420.00317211500573
 20
-437.5
 30
0.0
 11
-419.86899308184491
 21
-437.5
 31
0.0
  0
ARC
  5
405
  8
DATA
  6
CONTINUOUS
 62
     7
 10
-1124.2189930818449
 20
-420.5
 30
0.0
 40
704.42098385837448
 50
352.66656866709002
 51
7.3334313329099787
  0
ARC
  5
406
  8
DATA
  6
CONTINUOUS
 62
     7
 10
-1124.2189930818449
 20
-420.5
 30
0.0
 40
689.42098385837426
 50
353.48109737401433
 51
357.54759612915598
  0
ARC
  5
407
  8
DATA
  6
CONTINUOUS
 62
     7
 10
-1124.2189930818449
 20
-420.5
 30
0.0
 40
681.42098385837335
 50
353.48109737401433
 51
357.54759612915598
  0
ARC
  5
408
  8
DATA
  6
CONTINUOUS
 62
     7
 10
-1124.2189930818449
 20
-420.5
 30
0.0
 40
689.42098385837437
 50
0.7895566874362966
 51
6.518902625988912
  0
ARC
  5
409
  8
DATA
  6
CONTINUOUS
 62
     7
 10
-1124.2189930818449
 20
-420.5
 30
0.0
 40
681.42098385837392
 50
0.7895566874362952
 51
6.5189026259889227
  0
ARC
  5
40A
  8
DATA
  6
CONTINUOUS
 62
     7
 10
109.4810069181554
 20
-420.5
 30
0.0
 40
704.42098385837448
 50
172.66656866708999
 51
187.33343133291001
  0
ARC
  5
40B
  8
DATA
  6
CONTINUOUS
 62
     7
 10
109.4810069181554
 20
-420.5
 30
0.0
 40
689.42098385837346
 50
173.4810973740108
 51
179.2104866720847
  0
ARC
  5
40C
  8
DATA
  6
CONTINUOUS
 62
     7
 10
109.4810069181554
 20
-420.5
 30
0.0
 40
681.42098385837437
 50
173.4810973740108
 51
179.21048667208481
  0
ARC
  5
40D
  8
DATA
  6
CONTINUOUS
 62
     7
 10
109.4810069181554
 20
-420.5
 30
0.0
 40
689.42098385837437
 50
182.4523973684436
 51
186.51890262597729
  0
ARC
  5
40E
  8
DATA
  6
CONTINUOUS
 62
     7
 10
109.4810069181554
 20
-420.5
 30
0.0
 40
681.42098385837426
 50
182.4523973684436
 51
186.51890262597709
  0
ARC
  5
40F
  8
DATA
  6
CONTINUOUS
 62
     7
 10
-440.43738102705481
 20
-508.49999999999852
 30
0.0
 40
15.000000000001361
 50
270.0
 51
352.66656866708468
  0
ARC
  5
410
  8
DATA
  6
CONTINUOUS
 62
     7
 10
-574.30060513663511
 20
-508.49999999999852
 30
0.0
 40
15.000000000000959
 50
187.3334313329153
 51
270.0
  0
ARC
  5
411
  8
DATA
  6
CONTINUOUS
 62
     7
 10
-574.30060513663511
 20
-332.50000000000131
 30
0.0
 40
15.000000000001361
 50
90.0
 51
172.66656866708459
  0
ARC
  5
412
  8
DATA
  6
CONTINUOUS
 62
     7
 10
-440.43738102705481
 20
-332.50000000000131
 30
0.0
 40
15.000000000000959
 50
7.3334313329153584
 51
90.0
  0
ARC
  5
413
  8
DATA
  6
CONTINUOUS
 62
     7
 10
-563.29342204023442
 20
-344.99999999999977
 30
0.0
 40
12.499999999999771
 50
90.0
 51
180.0000000214938
  0
ARC
  5
414
  8
DATA
  6
CONTINUOUS
 62
     7
 10
-563.29342204023442
 20
-344.99999999999977
 30
0.0
 40
4.5
 50
90.0
 51
180.000000021494
  0
ARC
  5
415
  8
DATA
  6
CONTINUOUS
 62
     7
 10
-451.44456412345568
 20
-344.99999999999977
 30
0.0
 40
12.5
 50
0.0000000090895836
 51
90.000000000000028
  0
ARC
  5
416
  8
DATA
  6
CONTINUOUS
 62
     7
 10
-451.44456412345568
 20
-344.99999999999977
 30
0.0
 40
4.5
 50
0.0000000090888888
 51
90.0
  0
ARC
  5
417
  8
DATA
  6
CONTINUOUS
 62
     7
 10
-563.29342204023442
 20
-495.99999999999881
 30
0.0
 40
12.5
 50
180.00000000909219
 51
270.0
  0
ARC
  5
418
  8
DATA
  6
CONTINUOUS
 62
     7
 10
-451.44456412345568
 20
-495.99999999999881
 30
0.0
 40
12.499999999999771
 50
270.0
 51
0.0000000112995622
  0
ARC
  5
419
  8
DATA
  6
CONTINUOUS
 62
     7
 10
-451.44456412345568
 20
-495.99999999999881
 30
0.0
 40
4.5
 50
270.0
 51
0.0000000112992211
  0
ARC
  5
41A
  8
DATA
  6
CONTINUOUS
 62
     7
 10
-566.80854220715389
 20
-449.99999999999977
 30
0.0
 40
12.499999999999771
 50
90.0
 51
184.9953597590015
  0
ARC
  5
41B
  8
DATA
  6
CONTINUOUS
 62
     7
 10
-566.80854220715389
 20
-449.99999999999977
 30
0.0
 40
4.5
 50
90.0
 51
184.99535975900031
  0
ARC
  5
41C
  8
DATA
  6
CONTINUOUS
 62
     7
 10
-447.92944395653598
 20
-449.99999999999977
 30
0.0
 40
12.49999999999976
 50
355.00464040666532
 51
90.0
  0
ARC
  5
41D
  8
DATA
  6
CONTINUOUS
 62
     7
 10
-567.37452035659351
 20
-411.00000000000023
 30
0.0
 40
12.49999999999973
 50
178.3917598544397
 51
270.0
  0
ARC
  5
41E
  8
DATA
  6
CONTINUOUS
 62
     7
 10
-567.37452035659351
 20
-411.00000000000023
 30
0.0
 40
4.4999999999997566
 50
178.39175985444029
 51
270.0
  0
ARC
  5
41F
  8
DATA
  6
CONTINUOUS
 62
     7
 10
-447.36346580709642
 20
-411.00000000000023
 30
0.0
 40
12.499999999999771
 50
270.0
 51
1.608245109610265
  0
ARC
  5
420
  8
DATA
  6
CONTINUOUS
 62
     7
 10
-447.36346580709642
 20
-411.00000000000023
 30
0.0
 40
4.5
 50
270.0
 51
1.6082401455597051
  0
ARC
  5
421
  8
DATA
  6
CONTINUOUS
 62
     7
 10
-447.92944395653598
 20
-450.0
 30
0.0
 40
4.5000000000005969
 50
355.00464024099961
 51
90.0
  0
ARC
  5
422
  8
DATA
  6
CONTINUOUS
 62
     7
 10
-563.29342204023442
 20
-495.99999999999881
 30
0.0
 40
4.5
 50
179.99999998870069
 51
270.0
  0
LINE
  5
423
  8
DATA
  6
CONTINUOUS
 62
     7
 10
-1302.5
 20
-1103.5
 30
0.0
 11
-1302.5
 21
-1100.0
 31
0.0
  0
LINE
  5
424
  8
DATA
  6
CONTINUOUS
 62
     7
 10
-1262.5
 20
-1103.5
 30
0.0
 11
-1302.5
 21
-1103.5
 31
0.0
  0
LINE
  5
425
  8
DATA
  6
CONTINUOUS
 62
     7
 10
-1262.5
 20
-1100.0
 30
0.0
 11
-1262.5
 21
-1103.5
 31
0.0
  0
LINE
  5
426
  8
DATA
  6
CONTINUOUS
 62
     7
 10
-1000.0
 20
-1103.5
 30
0.0
 11
-1000.0
 21
-1100.0
 31
0.0
  0
LINE
  5
427
  8
DATA
  6
CONTINUOUS
 62
     7
 10
-1040.0
 20
-1103.5
 30
0.0
 11
-1000.0
 21
-1103.5
 31
0.0
  0
LINE
  5
428
  8
DATA
  6
CONTINUOUS
 62
     7
 10
-1040.0
 20
-1100.0
 30
0.0
 11
-1040.0
 21
-1103.5
 31
0.0
  0
LINE
  5
429
  8
DATA
  6
CONTINUOUS
 62
     7
 10
-1097.5
 20
-1103.5
 30
0.0
 11
-1097.5
 21
-1100.0
 31
0.0
  0
LINE
  5
42A
  8
DATA
  6
CONTINUOUS
 62
     7
 10
-1137.5
 20
-1103.5
 30
0.0
 11
-1097.5
 21
-1103.5
 31
0.0
  0
LINE
  5
42B
  8
DATA
  6
CONTINUOUS
 62
     7
 10
-1137.5
 20
-1100.0
 30
0.0
 11
-1137.5
 21
-1103.5
 31
0.0
  0
LINE
  5
42C
  8
DATA
  6
CONTINUOUS
 62
     7
 10
408.0
 20
-1100.0
 30
0.0
 11
-8.0
 21
-1100.0
 31
0.0
  0
LINE
  5
42D
  8
DATA
  6
CONTINUOUS
 62
     7
 10
0.0
 20
-1103.5
 30
0.0
 11
0.0
 21
-1100.0
 31
0.0
  0
LINE
  5
42E
  8
DATA
  6
CONTINUOUS
 62
     7
 10
40.0
 20
-1103.5
 30
0.0
 11
0.0
 21
-1103.5
 31
0.0
  0
LINE
  5
42F
  8
DATA
  6
CONTINUOUS
 62
     7
 10
40.0
 20
-1100.0
 30
0.0
 11
40.0
 21
-1103.5
 31
0.0
  0
LINE
  5
430
  8
DATA
  6
CONTINUOUS
 62
     7
 10
97.5
 20
-1103.5
 30
0.0
 11
97.5
 21
-1100.0
 31
0.0
  0
LINE
  5
431
  8
DATA
  6
CONTINUOUS
 62
     7
 10
137.5
 20
-1103.5
 30
0.0
 11
97.5
 21
-1103.5
 31
0.0
  0
LINE
  5
432
  8
DATA
  6
CONTINUOUS
 62
     7
 10
137.5
 20
-1100.0
 30
0.0
 11
137.5
 21
-1103.5
 31
0.0
  0
LINE
  5
433
  8
DATA
  6
CONTINUOUS
 62
     7
 10
400.0
 20
-1103.5
 30
0.0
 11
400.0
 21
-1100.0
 31
0.0
  0
LINE
  5
434
  8
DATA
  6
CONTINUOUS
 62
     7
 10
360.0
 20
-1103.5
 30
0.0
 11
400.0
 21
-1103.5
 31
0.0
  0
LINE
  5
435
  8
DATA
  6
CONTINUOUS
 62
     7
 10
360.0
 20
-1100.0
 30
0.0
 11
360.0
 21
-1103.5
 31
0.0
  0
LINE
  5
436
  8
DATA
  6
CONTINUOUS
 62
     7
 10
302.5
 20
-1103.5
 30
0.0
 11
302.5
 21
-1100.0
 31
0.0
  0
LINE
  5
437
  8
DATA
  6
CONTINUOUS
 62
     7
 10
262.5
 20
-1103.5
 30
0.0
 11
302.5
 21
-1103.5
 31
0.0
  0
LINE
  5
438
  8
DATA
  6
CONTINUOUS
 62
     7
 10
262.5
 20
-1100.0
 30
0.0
 11
262.5
 21
-1103.5
 31
0.0
  0
LINE
  5
439
  8
DATA
  6
CONTINUOUS
 62
     7
 10
-325.5
 20
-1103.5
 30
0.0
 11
-325.5
 21
-1100.0
 31
0.0
  0
LINE
  5
43A
  8
DATA
  6
CONTINUOUS
 62
     7
 10
-285.5
 20
-1103.5
 30
0.0
 11
-325.5
 21
-1103.5
 31
0.0
  0
LINE
  5
43B
  8
DATA
  6
CONTINUOUS
 62
     7
 10
-285.5
 20
-1100.0
 30
0.0
 11
-285.5
 21
-1103.5
 31
0.0
  0
CIRCLE
  5
43C
  8
DATA
  6
CONTINUOUS
 62
     7
 10
-670.0
 20
-1049.5
 30
0.0
 40
10.000000000000229
  0
LINE
  5
43D
  8
DATA
  6
CONTINUOUS
 62
     7
 10
-673.46410161513813
 20
-1047.5
 30
0.0
 11
-670.0
 21
-1045.5
 31
0.0
  0
LINE
  5
43E
  8
DATA
  6
CONTINUOUS
 62
     7
 10
-673.46410161513813
 20
-1051.5
 30
0.0
 11
-673.46410161513813
 21
-1047.5
 31
0.0
  0
LINE
  5
43F
  8
DATA
  6
CONTINUOUS
 62
     7
 10
-670.0
 20
-1053.5
 30
0.0
 11
-673.46410161513813
 21
-1051.5
 31
0.0
  0
LINE
  5
440
  8
DATA
  6
CONTINUOUS
 62
     7
 10
-666.53589838486266
 20
-1051.5
 30
0.0
 11
-670.0
 21
-1053.5
 31
0.0
  0
LINE
  5
441
  8
DATA
  6
CONTINUOUS
 62
     7
 10
-666.53589838486266
 20
-1047.5
 30
0.0
 11
-666.53589838486266
 21
-1051.5
 31
0.0
  0
LINE
  5
442
  8
DATA
  6
CONTINUOUS
 62
     7
 10
-670.0
 20
-1045.5
 30
0.0
 11
-666.53589838486266
 21
-1047.5
 31
0.0
  0
LINE
  5
443
  8
DATA
  6
CONTINUOUS
 62
     7
 10
-622.00000000000034
 20
-1100.0
 30
0.0
 11
-622.00000000000034
 21
-149.0
 31
0.0
  0
LINE
  5
444
  8
DATA
  6
CONTINUOUS
 62
     7
 10
87.0
 20
-1100.0
 30
0.0
 11
87.0
 21
-149.0
 31
0.0
  0
LINE
  5
445
  8
DATA
  6
CONTINUOUS
 62
     7
 10
313.0
 20
-1100.0
 30
0.0
 11
313.0
 21
-149.0
 31
0.0
  0
LINE
  5
446
  8
DATA
  6
CONTINUOUS
 62
     7
 10
59.500000000000227
 20
-508.49999999999989
 30
0.0
 11
59.500000000000227
 21
-332.5
 31
0.0
  0
LINE
  5
447
  8
DATA
  6
CONTINUOUS
 62
     7
 10
52.000000000000227
 20
-508.49999999999989
 30
0.0
 11
52.000000000000227
 21
-437.5
 31
0.0
  0
LINE
  5
448
  8
DATA
  6
CONTINUOUS
 62
     7
 10
52.000000000000227
 20
-423.5
 30
0.0
 11
52.000000000000227
 21
-332.5
 31
0.0
  0
LINE
  5
449
  8
DATA
  6
CONTINUOUS
 62
     7
 10
11.500000000000229
 20
-523.5
 30
0.0
 11
55.000000000000227
 21
-523.5
 31
0.0
  0
LINE
  5
44A
  8
DATA
  6
CONTINUOUS
 62
     7
 10
14.500000000000229
 20
-508.49999999999989
 30
0.0
 11
52.000000000000227
 21
-508.49999999999989
 31
0.0
  0
LINE
  5
44B
  8
DATA
  6
CONTINUOUS
 62
     7
 10
7.0000000000002274
 20
-332.5
 30
0.0
 11
7.0000000000002274
 21
-508.49999999999989
 31
0.0
  0
LINE
  5
44C
  8
DATA
  6
CONTINUOUS
 62
     7
 10
14.500000000000229
 20
-332.5
 30
0.0
 11
14.500000000000229
 21
-423.5
 31
0.0
  0
LINE
  5
44D
  8
DATA
  6
CONTINUOUS
 62
     7
 10
14.500000000000229
 20
-437.5
 30
0.0
 11
14.500000000000229
 21
-508.49999999999989
 31
0.0
  0
LINE
  5
44E
  8
DATA
  6
CONTINUOUS
 62
     7
 10
55.000000000000227
 20
-317.5
 30
0.0
 11
11.500000000000229
 21
-317.5
 31
0.0
  0
LINE
  5
44F
  8
DATA
  6
CONTINUOUS
 62
     7
 10
52.000000000000227
 20
-332.5
 30
0.0
 11
14.500000000000229
 21
-332.5
 31
0.0
  0
LINE
  5
450
  8
DATA
  6
CONTINUOUS
 62
     7
 10
52.000000000000227
 20
-437.5
 30
0.0
 11
14.500000000000229
 21
-437.5
 31
0.0
  0
LINE
  5
451
  8
DATA
  6
CONTINUOUS
 62
     7
 10
52.000000000000227
 20
-423.5
 30
0.0
 11
14.500000000000229
 21
-423.5
 31
0.0
  0
ARC
  5
452
  8
DATA
  6
CONTINUOUS
 62
     7
 10
45.209118137449302
 20
-331.91336230647079
 30
0.0
 40
38.213621296927741
 50
164.00775139784619
 51
180.87961263961441
  0
ARC
  5
453
  8
DATA
  6
CONTINUOUS
 62
     7
 10
18.65680985679705
 20
-324.54964272844961
 30
0.0
 40
10.662781690138891
 50
145.682336823078
 51
162.73619072526691
  0
ARC
  5
454
  8
DATA
  6
CONTINUOUS
 62
     7
 10
11.755615527706141
 20
-319.73625456149477
 30
0.0
 40
2.2508162434571499
 50
96.52090387513482
 51
147.83982953875321
  0
ARC
  5
455
  8
DATA
  6
CONTINUOUS
 62
     7
 10
21.290881862551149
 20
-331.91336230647079
 30
0.0
 40
38.213621296927741
 50
359.12038736038562
 51
15.992248602153779
  0
ARC
  5
456
  8
DATA
  6
CONTINUOUS
 62
     7
 10
47.843190143203401
 20
-324.54964272844961
 30
0.0
 40
10.66278169013896
 50
17.263809274732981
 51
34.317663176921862
  0
ARC
  5
457
  8
DATA
  6
CONTINUOUS
 62
     7
 10
54.744384472294321
 20
-319.73625456149477
 30
0.0
 40
2.250816243457165
 50
32.16017046124604
 51
83.479096124865194
  0
ARC
  5
458
  8
DATA
  6
CONTINUOUS
 62
     7
 10
45.209118137449302
 20
-509.0866376935291
 30
0.0
 40
38.213621296927741
 50
179.12038736038559
 51
195.99224860215361
  0
ARC
  5
459
  8
DATA
  6
CONTINUOUS
 62
     7
 10
18.65680985679705
 20
-516.45035727155039
 30
0.0
 40
10.66278169013888
 50
197.26380927473281
 51
214.31766317692211
  0
ARC
  5
45A
  8
DATA
  6
CONTINUOUS
 62
     7
 10
11.755615527706141
 20
-521.26374543850523
 30
0.0
 40
2.2508162434571171
 50
212.16017046124679
 51
263.47909612486518
  0
ARC
  5
45B
  8
DATA
  6
CONTINUOUS
 62
     7
 10
21.290881862551149
 20
-509.0866376935291
 30
0.0
 40
38.213621296927769
 50
344.00775139784622
 51
0.8796126396143792
  0
ARC
  5
45C
  8
DATA
  6
CONTINUOUS
 62
     7
 10
47.843190143203401
 20
-516.45035727155039
 30
0.0
 40
10.662781690138941
 50
325.68233682307817
 51
342.73619072526742
  0
ARC
  5
45D
  8
DATA
  6
CONTINUOUS
 62
     7
 10
54.744384472294321
 20
-521.26374543850523
 30
0.0
 40
2.2508162434571499
 50
276.52090387513482
 51
327.83982953875397
  0
LINE
  5
45E
  8
DATA
  6
CONTINUOUS
 62
     7
 10
340.49999999999972
 20
-508.49999999999989
 30
0.0
 11
340.49999999999972
 21
-332.5
 31
0.0
  0
LINE
  5
45F
  8
DATA
  6
CONTINUOUS
 62
     7
 10
347.99999999999977
 20
-508.49999999999989
 30
0.0
 11
347.99999999999977
 21
-437.5
 31
0.0
  0
LINE
  5
460
  8
DATA
  6
CONTINUOUS
 62
     7
 10
347.99999999999977
 20
-423.5
 30
0.0
 11
347.99999999999977
 21
-332.5
 31
0.0
  0
LINE
  5
461
  8
DATA
  6
CONTINUOUS
 62
     7
 10
388.49999999999977
 20
-523.5
 30
0.0
 11
344.99999999999977
 21
-523.5
 31
0.0
  0
LINE
  5
462
  8
DATA
  6
CONTINUOUS
 62
     7
 10
385.49999999999977
 20
-508.49999999999989
 30
0.0
 11
347.99999999999977
 21
-508.49999999999989
 31
0.0
  0
LINE
  5
463
  8
DATA
  6
CONTINUOUS
 62
     7
 10
392.99999999999977
 20
-332.5
 30
0.0
 11
392.99999999999977
 21
-508.49999999999989
 31
0.0
  0
LINE
  5
464
  8
DATA
  6
CONTINUOUS
 62
     7
 10
385.49999999999977
 20
-332.5
 30
0.0
 11
385.49999999999977
 21
-423.5
 31
0.0
  0
LINE
  5
465
  8
DATA
  6
CONTINUOUS
 62
     7
 10
385.49999999999977
 20
-437.5
 30
0.0
 11
385.49999999999977
 21
-508.49999999999989
 31
0.0
  0
LINE
  5
466
  8
DATA
  6
CONTINUOUS
 62
     7
 10
344.99999999999977
 20
-317.5
 30
0.0
 11
388.49999999999977
 21
-317.5
 31
0.0
  0
LINE
  5
467
  8
DATA
  6
CONTINUOUS
 62
     7
 10
347.99999999999977
 20
-332.5
 30
0.0
 11
385.49999999999977
 21
-332.5
 31
0.0
  0
LINE
  5
468
  8
DATA
  6
CONTINUOUS
 62
     7
 10
347.99999999999977
 20
-437.5
 30
0.0
 11
385.49999999999977
 21
-437.5
 31
0.0
  0
LINE
  5
469
  8
DATA
  6
CONTINUOUS
 62
     7
 10
347.99999999999977
 20
-423.5
 30
0.0
 11
385.49999999999977
 21
-423.5
 31
0.0
  0
ARC
  5
46A
  8
DATA
  6
CONTINUOUS
 62
     7
 10
354.79088186255058
 20
-331.91336230647079
 30
0.0
 40
38.213621296927741
 50
359.12038736038562
 51
15.992248602153779
  0
ARC
  5
46B
  8
DATA
  6
CONTINUOUS
 62
     7
 10
381.34319014320289
 20
-324.54964272844961
 30
0.0
 40
10.6627816901389
 50
17.26380927473307
 51
34.317663176922053
  0
ARC
  5
46C
  8
DATA
  6
CONTINUOUS
 62
     7
 10
388.2443844722938
 20
-319.73625456149477
 30
0.0
 40
2.2508162434571171
 50
32.1601704612468
 51
83.479096124865194
  0
ARC
  5
46D
  8
DATA
  6
CONTINUOUS
 62
     7
 10
378.70911813744891
 20
-331.91336230647079
 30
0.0
 40
38.213621296927798
 50
164.00775139784619
 51
180.87961263961441
  0
ARC
  5
46E
  8
DATA
  6
CONTINUOUS
 62
     7
 10
352.1568098567966
 20
-324.54964272844961
 30
0.0
 40
10.662781690138941
 50
145.68233682307809
 51
162.73619072526699
  0
ARC
  5
46F
  8
DATA
  6
CONTINUOUS
 62
     7
 10
345.25561552770569
 20
-319.73625456149477
 30
0.0
 40
2.2508162434571499
 50
96.52090387513482
 51
147.839829538754
  0
ARC
  5
470
  8
DATA
  6
CONTINUOUS
 62
     7
 10
354.79088186255058
 20
-509.0866376935291
 30
0.0
 40
38.213621296927727
 50
344.00775139784622
 51
0.8796126396143792
  0
ARC
  5
471
  8
DATA
  6
CONTINUOUS
 62
     7
 10
381.34319014320289
 20
-516.45035727155039
 30
0.0
 40
10.662781690138891
 50
325.68233682307789
 51
342.73619072526719
  0
ARC
  5
472
  8
DATA
  6
CONTINUOUS
 62
     7
 10
388.2443844722938
 20
-521.26374543850523
 30
0.0
 40
2.2508162434571499
 50
276.52090387513482
 51
327.83982953875318
  0
ARC
  5
473
  8
DATA
  6
CONTINUOUS
 62
     7
 10
378.70911813744891
 20
-509.0866376935291
 30
0.0
 40
38.213621296927741
 50
179.12038736038559
 51
195.99224860215361
  0
ARC
  5
474
  8
DATA
  6
CONTINUOUS
 62
     7
 10
352.1568098567966
 20
-516.45035727155039
 30
0.0
 40
10.662781690138941
 50
197.26380927473269
 51
214.31766317692191
  0
ARC
  5
475
  8
DATA
  6
CONTINUOUS
 62
     7
 10
345.25561552770569
 20
-521.26374543850523
 30
0.0
 40
2.250816243457165
 50
212.160170461246
 51
263.47909612486518
  0
TEXT
  5
476
  8
DATA
 62
     7
 10
163.23365488549121
 20
-858.07344558593741
 30
0.0
 40
2.8504720052083332
  1
-10
 41
0.7
 72
     1
 11
165.3952628227741
 21
-856.64820958333326
 31
0.0
 73
     2
  0
TEXT
  5
477
  8
DATA
 62
     7
 10
162.73482228457971
 20
-861.77761225260406
 30
0.0
 40
2.8504720052083332
  1
dBv
 41
0.7
 72
     1
 11
165.3952628227741
 21
-860.35237625000002
 31
0.0
 73
     2
  0
LINE
  5
478
  8
DATA
  6
STYLE_11
 62
     7
 10
1200.0102367810609
 20
-529.53333333333285
 30
0.0
 11
1080.000163829623
 21
-529.53333333333285
 31
0.0
  0
TEXT
  5
479
  8
DATA
 62
     7
 10
1380.1867838445619
 20
140.72660380706819
 30
0.0
 40
22.803776041666669
  1
CH1/MIX/CH2
 41
0.7
 72
     1
 11
1459.9999999903951
 21
152.1284918279016
 31
0.0
 73
     2
  0
TEXT
  5
47A
  8
DATA
 62
     7
 10
1380.1867838445619
 20
4.7266038070682628
 30
0.0
 40
22.803776041666669
  1
CH1/MIX/CH2
 41
0.7
 72
     1
 11
1459.9999999903951
 21
16.128491827901598
 31
0.0
 73
     2
  0
TEXT
  5
47B
  8
DATA
 62
     7
 10
1418.1930772473399
 20
-80.650391467932735
 30
0.0
 40
32.576822916666671
  1
THRU
 41
0.7
 72
     1
 11
1459.9999999903951
 21
-64.361980009599392
 31
0.0
 73
     2
  0
TEXT
  5
47C
  8
DATA
 62
     7
 10
1589.0240195293579
 20
-198.12324135416659
 30
0.0
 40
22.803776041666669
  1
+4
 41
0.7
 72
     1
 11
1602.32622222033
 21
-186.7213533333333
 31
0.0
 73
     2
  0
TEXT
  5
47D
  8
DATA
 62
     7
 10
1581.0426979147751
 20
-227.75657468750001
 30
0.0
 40
22.803776041666669
  1
dBu
 41
0.7
 72
     1
 11
1602.32622222033
 21
-216.35468666666671
 31
0.0
 73
     2
  0
TEXT
  5
47E
  8
DATA
 62
     7
 10
1342.9406163098399
 20
86.595553840078225
 30
0.0
 40
32.576822916666671
  1
THRU SELECT
 41
0.7
 72
     1
 11
1459.9999999903951
 21
102.8839652984115
 31
0.0
 73
     2
  0
TEXT
  5
47F
  8
DATA
 62
     7
 10
1354.3425043306729
 20
224.9171092273051
 30
0.0
 40
32.576822916666671
  1
SPK SELECT
 41
0.7
 72
     1
 11
1459.9999999903951
 21
241.2055206856385
 31
0.0
 73
     2
  0
TEXT
  5
480
  8
DATA
 62
     7
 10
1234.3274734968229
 20
29.881445312500482
 30
0.0
 40
22.803776041666669
  1
Ground
 41
0.7
 72
     1
 11
1279.5549626461279
 21
41.283333333333808
 31
0.0
 73
     2
  0
TEXT
  5
481
  8
DATA
 62
     7
 10
1255.6109978023781
 20
0.2481119791671489
 30
0.0
 40
22.803776041666669
  1
Lift
 41
0.7
 72
     1
 11
1279.5549626461279
 21
11.65000000000048
 31
0.0
 73
     2
  0
TEXT
  5
482
  8
DATA
 62
     7
 10
786.31877227040854
 20
19.064778645833812
 30
0.0
 40
22.803776041666669
  1
Mic/Line
 41
0.7
 72
     1
 11
836.86714249610304
 21
30.466666666667152
 31
0.0
 73
     2
  0
LINE
  5
483
  8
DATA
  6
CONTINUOUS
 62
     7
 10
1331.199999995202
 20
-369.5356766666664
 30
0.0
 11
1331.199999995202
 21
-3.1666666666660599
 31
0.0
  0
LINE
  5
484
  8
DATA
  6
CONTINUOUS
 62
     7
 10
1331.199999995202
 20
56.100000000000371
 30
0.0
 11
1331.199999995202
 21
322.46666666666721
 31
0.0
  0
TEXT
  5
485
  8
DATA
 62
     7
 10
1010.596936966919
 20
-80.650391467932735
 30
0.0
 40
32.576822916666671
  1
INPUT
 41
0.7
 72
     1
 11
1060.0051183905309
 21
-64.361980009599392
 31
0.0
 73
     2
  0
TEXT
  5
486
  8
DATA
 62
     7
 10
1021.998824987753
 20
142.17825520833381
 30
0.0
 40
32.576822916666671
  1
GAIN
 41
0.7
 72
     1
 11
1060.0051183905309
 21
158.46666666666709
 31
0.0
 73
     2
  0
TEXT
  5
487
  8
DATA
 62
     7
 10
1033.40071295139
 20
306.68144531250061
 30
0.0
 40
22.803776041666669
  1
Limit
 41
0.7
 72
     1
 11
1060.0051183333339
 21
318.08333333333388
 31
0.0
 73
     2
  0
TEXT
  5
488
  8
DATA
 62
     7
 10
884.09428940104397
 20
307.58144531250122
 30
0.0
 40
22.803776041666669
  1
Signal
 41
0.7
 72
     1
 11
920.01023666666913
 21
318.98333333333449
 31
0.0
 73
     2
  0
TEXT
  5
489
  8
DATA
 62
     7
 10
1164.0840527343751
 20
307.58144531250031
 30
0.0
 40
22.803776041666669
  1
Signal
 41
0.7
 72
     1
 11
1200.0
 21
318.98333333333358
 31
0.0
 73
     2
  0
TEXT
  5
48A
  8
DATA
 62
     7
 10
916.1798788270512
 20
365.60813265891107
 30
0.0
 40
23.455312500000002
  1
CH1
 41
0.7
 72
     1
 11
935.33505070205126
 21
377.33578890891113
 31
0.0
 73
     2
  0
LINE
  5
48B
  8
DATA
  6
CONTINUOUS
 62
     7
 10
972.43848941322346
 20
361.72491115115372
 30
0.0
 11
962.8384894132214
 21
392.20491115115328
 31
0.0
  0
LINE
  5
48C
  8
DATA
  6
CONTINUOUS
 62
     7
 10
898.23161199088281
 20
361.72491115115372
 30
0.0
 11
907.83161199088499
 21
392.20491115115328
 31
0.0
  0
LINE
  5
48D
  8
DATA
  6
CONTINUOUS
 62
     7
 10
907.83161199088499
 20
392.20491115115328
 30
0.0
 11
962.8384894132214
 21
392.20491115115328
 31
0.0
  0
TEXT
  5
48E
  8
DATA
 62
     7
 10
1163.2118138255721
 20
366.34988817442462
 30
0.0
 40
23.455312500000002
  1
CH2
 41
0.7
 72
     1
 11
1185.1034388255721
 21
378.07754442442462
 31
0.0
 73
     2
  0
LINE
  5
48F
  8
DATA
  6
CONTINUOUS
 62
     7
 10
1222.206877536737
 20
362.46666666666721
 30
0.0
 11
1212.606877536738
 21
392.94666666666672
 31
0.0
  0
LINE
  5
490
  8
DATA
  6
CONTINUOUS
 62
     7
 10
1148.0000001144001
 20
362.46666666666721
 30
0.0
 11
1157.600000114398
 21
392.94666666666672
 31
0.0
  0
LINE
  5
491
  8
DATA
  6
CONTINUOUS
 62
     7
 10
1157.600000114405
 20
392.94666666666672
 30
0.0
 11
1212.606877536738
 21
392.94666666666672
 31
0.0
  0
TEXT
  5
492
  8
DATA
 62
     7
 10
775.62379048074843
 20
-198.12324135416659
 30
0.0
 40
22.803776041666669
  1
+4
 41
0.7
 72
     1
 11
788.92599317172062
 21
-186.7213533333333
 31
0.0
 73
     2
  0
TEXT
  5
493
  8
DATA
 62
     7
 10
767.64246886616502
 20
-227.75657468750001
 30
0.0
 40
22.803776041666669
  1
dBu
 41
0.7
 72
     1
 11
788.92599317172062
 21
-216.35468666666671
 31
0.0
 73
     2
  0
LINE
  5
494
  8
DATA
  6
CONTINUOUS
 62
     7
 10
788.81023678586644
 20
-369.5356766666664
 30
0.0
 11
788.81023678586644
 21
-237.53801999999999
 31
0.0
  0
LINE
  5
495
  8
DATA
  6
CONTINUOUS
 62
     7
 10
788.81023678586644
 20
-165.5380199999999
 30
0.0
 11
788.81023678586644
 21
-3.1666666666660599
 31
0.0
  0
CIRCLE
  5
496
  8
DATA
  6
CONTINUOUS
 62
     7
 10
1199.9999999996071
 20
158.466666666045
 30
0.0
 40
51.999999999995651
  0
LINE
  5
497
  8
DATA
  6
CONTINUOUS
 62
     7
 10
1230.5648331188131
 20
116.39778295854011
 30
0.0
 11
1247.022820183003
 21
93.745307116045282
 31
0.0
  0
LINE
  5
498
  8
DATA
  6
CONTINUOUS
 62
     7
 10
1249.45493884696
 20
174.53555037354269
 30
0.0
 11
1276.0845213032151
 21
183.18802621604121
 31
0.0
  0
LINE
  5
499
  8
DATA
  6
CONTINUOUS
 62
     7
 10
1199.9999999996071
 20
210.466666666045
 30
0.0
 11
1199.9999999996071
 21
238.466666666045
 31
0.0
  0
LINE
  5
49A
  8
DATA
  6
CONTINUOUS
 62
     7
 10
1150.545061152254
 20
174.53555037354269
 30
0.0
 11
1123.915478695998
 21
183.18802621604121
 31
0.0
  0
LINE
  5
49B
  8
DATA
  6
CONTINUOUS
 62
     7
 10
1169.4351668846939
 20
116.3977829644827
 30
0.0
 11
1152.977179816211
 21
93.745307116052587
 31
0.0
  0
LINE
  5
49C
  8
DATA
  6
CONTINUOUS
 62
     7
 10
1179.9621713596421
 20
124.0817551337186
 30
0.0
 11
1175.1205107456331
 21
117.4177809995435
 31
0.0
  0
LINE
  5
49D
  8
DATA
  6
CONTINUOUS
 62
     7
 10
1196.763932022498
 20
160.81780767583399
 30
0.0
 11
1196.5264185478879
 21
160.49089842351711
 31
0.0
  0
LINE
  5
49E
  8
DATA
  6
CONTINUOUS
 62
     7
 10
1173.4900354046399
 20
128.7840371520542
 30
0.0
 11
1168.6483747906309
 21
122.1200630178846
 31
0.0
  0
LINE
  5
49F
  8
DATA
  6
CONTINUOUS
 62
     7
 10
1148.7899968429699
 20
167.49637190472461
 30
0.0
 11
1136.972303806818
 21
169.58015003672699
 31
0.0
  0
LINE
  5
4A0
  8
DATA
  6
CONTINUOUS
 62
     7
 10
1148.0316769946071
 20
160.28144049457481
 30
0.0
 11
1136.03898707038
 21
160.70023445500371
 31
0.0
  0
LINE
  5
4A1
  8
DATA
  6
CONTINUOUS
 62
     7
 10
1148.28486144045
 20
153.03118657612691
 30
0.0
 11
1136.350598696037
 21
151.7768450169151
 31
0.0
  0
LINE
  5
4A2
  8
DATA
  6
CONTINUOUS
 62
     7
 10
1149.5446222332539
 20
145.88672809486161
 30
0.0
 11
1137.901073517947
 21
142.9836653476668
 31
0.0
  0
LINE
  5
4A3
  8
DATA
  6
CONTINUOUS
 62
     7
 10
1151.7864395621291
 20
138.9871238084142
 30
0.0
 11
1140.660233307339
 21
134.49184468742709
 31
0.0
  0
LINE
  5
4A4
  8
DATA
  6
CONTINUOUS
 62
     7
 10
1154.966679002813
 20
132.46666666604679
 30
0.0
 11
1144.574374157397
 21
126.466666666045
 31
0.0
  0
LINE
  5
4A5
  8
DATA
  6
CONTINUOUS
 62
     7
 10
1159.0234408120591
 20
126.4522699491135
 30
0.0
 11
1149.5673117687829
 21
119.0643322452033
 31
0.0
  0
LINE
  5
4A6
  8
DATA
  6
CONTINUOUS
 62
     7
 10
1163.8777647357349
 20
121.0609970484347
 30
0.0
 11
1155.5418642902371
 21
112.4289194443718
 31
0.0
  0
LINE
  5
4A7
  8
DATA
  6
CONTINUOUS
 62
     7
 10
1236.122235263465
 20
121.0609970484383
 30
0.0
 11
1244.4581357089769
 21
112.4289194443699
 31
0.0
  0
LINE
  5
4A8
  8
DATA
  6
CONTINUOUS
 62
     7
 10
1240.9765591871551
 20
126.4522699491135
 30
0.0
 11
1250.4326882304299
 21
119.06433224520509
 31
0.0
  0
LINE
  5
4A9
  8
DATA
  6
CONTINUOUS
 62
     7
 10
1245.033320996401
 20
132.46666666604139
 30
0.0
 11
1255.425625841817
 21
126.466666666045
 31
0.0
  0
LINE
  5
4AA
  8
DATA
  6
CONTINUOUS
 62
     7
 10
1248.2135604370851
 20
138.98712380841599
 30
0.0
 11
1259.33976669189
 21
134.4918446874253
 31
0.0
  0
LINE
  5
4AB
  8
DATA
  6
CONTINUOUS
 62
     7
 10
1250.4553777659601
 20
145.88672809485789
 30
0.0
 11
1262.098926481267
 21
142.9836653476668
 31
0.0
  0
LINE
  5
4AC
  8
DATA
  6
CONTINUOUS
 62
     7
 10
1251.715138558749
 20
153.03118657612501
 30
0.0
 11
1263.649401303177
 21
151.77684501691689
 31
0.0
  0
LINE
  5
4AD
  8
DATA
  6
CONTINUOUS
 62
     7
 10
1251.9683230045921
 20
160.28144049457839
 30
0.0
 11
1263.961012928834
 21
160.7002344550055
 31
0.0
  0
LINE
  5
4AE
  8
DATA
  6
CONTINUOUS
 62
     7
 10
1251.2100031562441
 20
167.4963719047264
 30
0.0
 11
1263.027696192381
 21
169.58015003672699
 31
0.0
  0
LINE
  5
4AF
  8
DATA
  6
CONTINUOUS
 62
     7
 10
1246.7372904071669
 20
181.26196629907639
 30
0.0
 11
1257.5228189627519
 21
186.52242006054439
 31
0.0
  0
LINE
  5
4B0
  8
DATA
  6
CONTINUOUS
 62
     7
 10
1243.109953772466
 20
187.5446976465264
 30
0.0
 11
1253.058404643117
 21
194.25501248817091
 31
0.0
  0
LINE
  5
4B1
  8
DATA
  6
CONTINUOUS
 62
     7
 10
1238.6435309244409
 20
193.2614581967064
 30
0.0
 11
1247.5612688301619
 21
201.29102547301221
 31
0.0
  0
LINE
  5
4B2
  8
DATA
  6
CONTINUOUS
 62
     7
 10
1233.4249557033031
 20
198.30097770822971
 30
0.0
 11
1241.138407019549
 21
207.49351102566291
 31
0.0
  0
LINE
  5
4B3
  8
DATA
  6
CONTINUOUS
 62
     7
 10
1227.5558017397409
 20
202.56516766618009
 30
0.0
 11
1233.914832910523
 21
212.74174482005401
 31
0.0
  0
LINE
  5
4B4
  8
DATA
  6
CONTINUOUS
 62
     7
 10
1221.150305439543
 20
205.9710304634537
 30
0.0
 11
1226.031145156448
 21
216.9335759551723
 31
0.0
  0
LINE
  5
4B5
  8
DATA
  6
CONTINUOUS
 62
     7
 10
1214.3331425020881
 20
208.45227485483699
 30
0.0
 11
1217.6407907718969
 21
219.98741520609471
 31
0.0
  0
LINE
  5
4B6
  8
DATA
  6
CONTINUOUS
 62
     7
 10
1207.237001249523
 20
209.96060624060561
 30
0.0
 11
1208.9070784610519
 21
221.8438230654975
 31
0.0
  0
LINE
  5
4B7
  8
DATA
  6
CONTINUOUS
 62
     7
 10
1192.762998749691
 20
209.9606062405619
 30
0.0
 11
1191.092921538162
 21
221.84382306550469
 31
0.0
  0
LINE
  5
4B8
  8
DATA
  6
CONTINUOUS
 62
     7
 10
1185.666857497112
 20
208.45227485484429
 30
0.0
 11
1182.359209227317
 21
219.9874152060911
 31
0.0
  0
LINE
  5
4B9
  8
DATA
  6
CONTINUOUS
 62
     7
 10
1178.849694559656
 20
205.9710304634645
 30
0.0
 11
1173.9688548427509
 21
216.93357595516861
 31
0.0
  0
LINE
  5
4BA
  8
DATA
  6
CONTINUOUS
 62
     7
 10
1172.4441982594869
 20
202.56516766618009
 30
0.0
 11
1166.0851670886771
 21
212.7417448200612
 31
0.0
  0
LINE
  5
4BB
  8
DATA
  6
CONTINUOUS
 62
     7
 10
1166.5750442959099
 20
198.3009777082334
 30
0.0
 11
1158.8615929796649
 21
207.49351102565919
 31
0.0
  0
LINE
  5
4BC
  8
DATA
  6
CONTINUOUS
 62
     7
 10
1161.356469074788
 20
193.2614581967064
 30
0.0
 11
1152.4387311690509
 21
201.29102547301221
 31
0.0
  0
LINE
  5
4BD
  8
DATA
  6
CONTINUOUS
 62
     7
 10
1156.8900462267329
 20
187.54469764652089
 30
0.0
 11
1146.941595356082
 21
194.25501248817091
 31
0.0
  0
LINE
  5
4BE
  8
DATA
  6
CONTINUOUS
 62
     7
 10
1153.262709592047
 20
181.26196629907639
 30
0.0
 11
1142.4771810364621
 21
186.5224200605407
 31
0.0
  0
ARC
  5
4BF
  8
DATA
  6
CONTINUOUS
 62
     7
 10
1205.0173662364541
 20
206.20371764371879
 30
0.0
 40
3.999999999992089
 50
351.61198453549321
 51
176.388015464445
  0
ARC
  5
4C0
  8
DATA
  6
CONTINUOUS
 62
     7
 10
1199.999999999578
 20
158.46666666600501
 30
0.0
 40
47.999999999951747
 50
238.78019184717519
 51
229.21980815276439
  0
ARC
  5
4C1
  8
DATA
  6
CONTINUOUS
 62
     7
 10
1200.0
 20
158.46666666666709
 30
0.0
 40
40.000000000737572
 50
239.73026269141241
 51
228.2608295228726
  0
ARC
  5
4C2
  8
DATA
  6
CONTINUOUS
 62
     7
 10
1188.2442949537799
 20
142.286326778616
 30
0.0
 40
20.0000000000753
 50
245.53695903274169
 51
222.4630409672256
  0
ARC
  5
4C3
  8
DATA
  6
CONTINUOUS
 62
     7
 10
1180.4766411319431
 20
202.31684863289411
 30
0.0
 40
4.0000000000037881
 50
21.61198453550028
 51
206.3880154644375
  0
ARC
  5
4C4
  8
DATA
  6
CONTINUOUS
 62
     7
 10
1161.167184269565
 20
186.68035877608051
 30
0.0
 40
3.9999999999983369
 50
51.61198453558476
 51
236.3880154644369
  0
ARC
  5
4C5
  8
DATA
  6
CONTINUOUS
 62
     7
 10
1152.2629490218669
 20
163.48403290287379
 30
0.0
 40
3.999999999996692
 50
81.611984535581826
 51
266.3880154644167
  0
ARC
  5
4C6
  8
DATA
  6
CONTINUOUS
 62
     7
 10
1156.1498180326889
 20
138.9433077983667
 30
0.0
 40
3.9999999999990652
 50
111.611984535471
 51
296.3880154644628
  0
ARC
  5
4C7
  8
DATA
  6
CONTINUOUS
 62
     7
 10
1171.786307889502
 20
119.63385093598841
 30
0.0
 40
3.9999999999971432
 50
144.00000000008771
 51
324.00000000002262
  0
ARC
  5
4C8
  8
DATA
  6
CONTINUOUS
 62
     7
 10
1194.982633762716
 20
110.7296156882912
 30
0.0
 40
4.000000000006751
 50
171.6119845354977
 51
356.38801546445808
  0
ARC
  5
4C9
  8
DATA
  6
CONTINUOUS
 62
     7
 10
1219.523358867212
 20
114.6164846991214
 30
0.0
 40
4.0000000000051283
 50
201.6119845355488
 51
26.388015464390971
  0
ARC
  5
4CA
  8
DATA
  6
CONTINUOUS
 62
     7
 10
1238.8328157295909
 20
130.25297455592951
 30
0.0
 40
3.9999999999940599
 50
231.61198453553621
 51
56.388015464436073
  0
ARC
  5
4CB
  8
DATA
  6
CONTINUOUS
 62
     7
 10
1247.7370509772879
 20
153.44930042913799
 30
0.0
 40
4.0000000000002922
 50
261.61198453558939
 51
86.388015464419922
  0
ARC
  5
4CC
  8
DATA
  6
CONTINUOUS
 62
     7
 10
1243.8501819664671
 20
177.9900255336434
 30
0.0
 40
3.9999999999973741
 50
291.61198453548059
 51
116.38801546444741
  0
ARC
  5
4CD
  8
DATA
  6
CONTINUOUS
 62
     7
 10
1228.213692109653
 20
197.2994823960253
 30
0.0
 40
4.0000000000074287
 50
321.61198453558831
 51
146.38801546445021
  0
LINE
  5
4CE
  8
DATA
  6
STYLE_11
 62
     7
 10
1240.0102367810609
 20
-449.5356766666664
 30
0.0
 11
1240.0102367810609
 21
-489.53333333333279
 31
0.0
  0
LINE
  5
4CF
  8
DATA
  6
STYLE_11
 62
     7
 10
1280.0102367810609
 20
-409.5356766666664
 30
0.0
 11
1291.199999995195
 21
-409.5356766666664
 31
0.0
  0
LINE
  5
4D0
  8
DATA
  6
STYLE_11
 62
     7
 10
1291.199999995195
 20
362.46666666666721
 30
0.0
 11
1148.0000001143919
 21
362.46666666666721
 31
0.0
  0
ARC
  5
4D1
  8
DATA
  6
STYLE_11
 62
     7
 10
1291.199999995195
 20
322.46666666666721
 30
0.0
 40
40.0
 50
0.0
 51
90.0
  0
ARC
  5
4D2
  8
DATA
  6
STYLE_11
 62
     7
 10
1291.199999995195
 20
-369.5356766666664
 30
0.0
 40
40.0
 50
270.0
 51
0.0
  0
ARC
  5
4D3
  8
DATA
  6
STYLE_11
 62
     7
 10
1280.0102367810609
 20
-449.5356766666664
 30
0.0
 40
40.0
 50
90.0
 51
180.0
  0
ARC
  5
4D4
  8
DATA
  6
STYLE_11
 62
     7
 10
1200.0102367810609
 20
-489.53333333333279
 30
0.0
 40
40.0
 50
270.0
 51
0.0
  0
LINE
  5
4D5
  8
DATA
  6
CONTINUOUS
 62
     7
 10
660.0
 20
-611.72655494322726
 30
0.0
 11
660.0
 21
813.27344505677263
 31
0.0
  0
LINE
  5
4D6
  8
DATA
  6
CONTINUOUS
 62
     7
 10
1740.0
 20
836.72655494322703
 30
0.0
 11
1740.0
 21
-588.27344505677263
 31
0.0
  0
CIRCLE
  5
4D7
  8
DATA
  6
CONTINUOUS
 62
     7
 10
1423.9999999939901
 20
-201.53333333333279
 30
0.0
 40
13.19999999868741
  0
CIRCLE
  5
4D8
  8
DATA
  6
CONTINUOUS
 62
     7
 10
1495.999999986801
 20
-201.53333333333279
 30
0.0
 40
13.19999999867286
  0
CIRCLE
  5
4D9
  8
DATA
  6
CONTINUOUS
 62
     7
 10
1459.9999999903951
 20
-201.53333333333279
 30
0.0
 40
95.999999990400013
  0
CIRCLE
  5
4DA
  8
DATA
  6
CONTINUOUS
 62
     7
 10
1535.9795266494621
 20
-297.53333332373228
 30
0.0
 40
20.0
  0
LINE
  5
4DB
  8
DATA
  6
STYLE_11
 62
     7
 10
1523.959053316124
 20
-297.53333332373228
 30
0.0
 11
1547.959053316124
 21
-297.53333332373228
 31
0.0
  0
LINE
  5
4DC
  8
DATA
  6
STYLE_11
 62
     7
 10
1535.9795266494621
 20
-285.52395999040158
 30
0.0
 11
1535.9795266494621
 21
-309.52395999040158
 31
0.0
  0
CIRCLE
  5
4DD
  8
DATA
  6
CONTINUOUS
 62
     7
 10
1384.020473331329
 20
-105.5333333429335
 30
0.0
 40
20.0
  0
LINE
  5
4DE
  8
DATA
  6
STYLE_11
 62
     7
 10
1371.9999999979921
 20
-105.5333333429335
 30
0.0
 11
1395.9999999979909
 21
-105.5333333429335
 31
0.0
  0
LINE
  5
4DF
  8
DATA
  6
STYLE_11
 62
     7
 10
1384.020473331329
 20
-93.523960009599222
 30
0.0
 11
1384.020473331329
 21
-117.52396000959919
 31
0.0
  0
CIRCLE
  5
4E0
  8
DATA
  6
CONTINUOUS
 62
     7
 10
1459.9999999903951
 20
-201.53333333333279
 30
0.0
 40
78.000000125452615
  0
CIRCLE
  5
4E1
  8
DATA
  6
CONTINUOUS
 62
     7
 10
1459.9999999903951
 20
-169.9333333364921
 30
0.0
 40
13.19999999867286
  0
CIRCLE
  5
4E2
  8
DATA
  6
CONTINUOUS
 62
     7
 10
1200.0
 20
-201.53333333333279
 30
0.0
 40
63.199998819007902
  0
CIRCLE
  5
4E3
  8
DATA
  6
CONTINUOUS
 62
     7
 10
1200.0
 20
-201.53333333333279
 30
0.0
 40
77.999999992201452
  0
CIRCLE
  5
4E4
  8
DATA
  6
CONTINUOUS
 62
     7
 10
1200.0
 20
-201.53333333333279
 30
0.0
 40
95.999999990401633
  0
LINE
  5
4E5
  8
DATA
  6
CONTINUOUS
 62
     7
 10
1219.199999998076
 20
-141.320377922766
 30
0.0
 11
1219.199999998076
 21
-141.32037915570979
 31
0.0
  0
LINE
  5
4E6
  8
DATA
  6
CONTINUOUS
 62
     7
 10
1177.200000002267
 20
-142.58929333922791
 30
0.0
 11
1177.200000002267
 21
-142.5892945987143
 31
0.0
  0
ARC
  5
4E7
  8
DATA
  6
CONTINUOUS
 62
     7
 10
1164.0000000035941
 20
-201.53333333333279
 30
0.0
 40
15.999999998394591
 50
32.089183874064723
 51
327.9108161259353
  0
ARC
  5
4E8
  8
DATA
  6
CONTINUOUS
 62
     7
 10
1235.9999999963909
 20
-201.53333333333279
 30
0.0
 40
15.999999998394591
 50
212.0891838740647
 51
147.9108161259353
  0
ARC
  5
4E9
  8
DATA
  6
CONTINUOUS
 62
     7
 10
1200.0
 20
-233.13333333017729
 30
0.0
 40
15.99999999841155
 50
137.85228408990631
 51
42.147715910128099
  0
ARC
  5
4EA
  8
DATA
  6
CONTINUOUS
 62
     7
 10
1156.442221337682
 20
-157.97555733768971
 30
0.0
 40
6.3999999993656864
 50
56.612913999968789
 51
213.38708600002261
  0
ARC
  5
4EB
  8
DATA
  6
CONTINUOUS
 62
     7
 10
1200.0
 20
-201.53333333333279
 30
0.0
 40
23.99999999999795
 50
20.741916485081301
 51
159.258083514931
  0
ARC
  5
4EC
  8
DATA
  6
CONTINUOUS
 62
     7
 10
1200.0
 20
-201.53333333333279
 30
0.0
 40
24.000000000011561
 50
200.741916485069
 51
240.37783679917641
  0
ARC
  5
4ED
  8
DATA
  6
CONTINUOUS
 62
     7
 10
1200.0
 20
-201.53333333333279
 30
0.0
 40
23.999999999997151
 50
299.6221632007933
 51
339.25808351491861
  0
CIRCLE
  5
4EE
  8
DATA
  6
CONTINUOUS
 62
     7
 10
1275.9999999923889
 20
-297.53333332373228
 30
0.0
 40
20.0
  0
LINE
  5
4EF
  8
DATA
  6
STYLE_11
 62
     7
 10
1263.9795266590661
 20
-297.53333332373228
 30
0.0
 11
1287.9795266590661
 21
-297.53333332373228
 31
0.0
  0
LINE
  5
4F0
  8
DATA
  6
STYLE_11
 62
     7
 10
1275.9999999923889
 20
-285.52395999040158
 30
0.0
 11
1275.9999999923889
 21
-309.52395999040158
 31
0.0
  0
CIRCLE
  5
4F1
  8
DATA
  6
CONTINUOUS
 62
     7
 10
1123.9795266742581
 20
-105.52396000959919
 30
0.0
 40
20.0
  0
LINE
  5
4F2
  8
DATA
  6
STYLE_11
 62
     7
 10
1111.959053340936
 20
-105.52396000959919
 30
0.0
 11
1135.959053340935
 21
-105.52396000959919
 31
0.0
  0
LINE
  5
4F3
  8
DATA
  6
STYLE_11
 62
     7
 10
1123.9795266742581
 20
-93.514586676268635
 30
0.0
 11
1123.9795266742581
 21
-117.51458667626861
 31
0.0
  0
LINE
  5
4F4
  8
DATA
  6
CONTINUOUS
 62
     7
 10
1180.800000001909
 20
-125.933333340894
 30
0.0
 11
1180.800000001909
 21
-107.90342359206809
 31
0.0
  0
LINE
  5
4F5
  8
DATA
  6
CONTINUOUS
 62
     7
 10
1219.199999998076
 20
-125.9333333408922
 30
0.0
 11
1219.199999998076
 21
-107.90342359206809
 31
0.0
  0
CIRCLE
  5
4F6
  8
DATA
  6
CONTINUOUS
 62
     7
 10
920.01023666666913
 20
-201.53801999999999
 30
0.0
 40
63.199998819007902
  0
CIRCLE
  5
4F7
  8
DATA
  6
CONTINUOUS
 62
     7
 10
920.01023666666913
 20
-201.53801999999999
 30
0.0
 40
77.999999992201452
  0
CIRCLE
  5
4F8
  8
DATA
  6
CONTINUOUS
 62
     7
 10
920.01023666666913
 20
-201.53801999999999
 30
0.0
 40
95.999999990401633
  0
LINE
  5
4F9
  8
DATA
  6
CONTINUOUS
 62
     7
 10
939.21023666474491
 20
-141.32506458943311
 30
0.0
 11
939.21023666474491
 21
-141.3250658223769
 31
0.0
  0
LINE
  5
4FA
  8
DATA
  6
CONTINUOUS
 62
     7
 10
897.21023666893586
 20
-142.59398000589499
 30
0.0
 11
897.21023666893586
 21
-142.59398126538139
 31
0.0
  0
ARC
  5
4FB
  8
DATA
  6
CONTINUOUS
 62
     7
 10
884.010236670263
 20
-201.53801999999999
 30
0.0
 40
15.999999998394591
 50
32.089183874064723
 51
327.9108161259353
  0
ARC
  5
4FC
  8
DATA
  6
CONTINUOUS
 62
     7
 10
956.01023666306003
 20
-201.53801999999999
 30
0.0
 40
15.999999998394591
 50
212.0891838740647
 51
147.9108161259353
  0
ARC
  5
4FD
  8
DATA
  6
CONTINUOUS
 62
     7
 10
920.01023666666913
 20
-233.13801999684441
 30
0.0
 40
15.99999999841155
 50
137.85228408990631
 51
42.147715910128099
  0
ARC
  5
4FE
  8
DATA
  6
CONTINUOUS
 62
     7
 10
876.45245800435077
 20
-157.98024400435679
 30
0.0
 40
6.3999999993656864
 50
56.612913999968789
 51
213.38708600002261
  0
ARC
  5
4FF
  8
DATA
  6
CONTINUOUS
 62
     7
 10
920.01023666666913
 20
-201.53801999999999
 30
0.0
 40
23.99999999999795
 50
20.741916485081301
 51
159.258083514931
  0
ARC
  5
500
  8
DATA
  6
CONTINUOUS
 62
     7
 10
920.01023666666913
 20
-201.53801999999999
 30
0.0
 40
24.000000000011561
 50
200.741916485069
 51
240.37783679917641
  0
ARC
  5
501
  8
DATA
  6
CONTINUOUS
 62
     7
 10
920.01023666666913
 20
-201.53801999999999
 30
0.0
 40
23.999999999997151
 50
299.6221632007933
 51
339.25808351491861
  0
CIRCLE
  5
502
  8
DATA
  6
CONTINUOUS
 62
     7
 10
996.01023665905791
 20
-297.53801999039928
 30
0.0
 40
20.0
  0
LINE
  5
503
  8
DATA
  6
STYLE_11
 62
     7
 10
983.98976332573523
 20
-297.53801999039928
 30
0.0
 11
1007.989763325735
 21
-297.53801999039928
 31
0.0
  0
LINE
  5
504
  8
DATA
  6
STYLE_11
 62
     7
 10
996.01023665905791
 20
-285.52864665706869
 30
0.0
 11
996.01023665905791
 21
-309.5286466570688
 31
0.0
  0
CIRCLE
  5
505
  8
DATA
  6
CONTINUOUS
 62
     7
 10
843.98976334092731
 20
-105.52864667626631
 30
0.0
 40
20.0
  0
LINE
  5
506
  8
DATA
  6
STYLE_11
 62
     7
 10
831.96929000760429
 20
-105.52864667626631
 30
0.0
 11
855.96929000760429
 21
-105.52864667626631
 31
0.0
  0
LINE
  5
507
  8
DATA
  6
STYLE_11
 62
     7
 10
843.98976334092731
 20
-93.519273342935776
 30
0.0
 11
843.98976334092731
 21
-117.5192733429357
 31
0.0
  0
LINE
  5
508
  8
DATA
  6
CONTINUOUS
 62
     7
 10
900.81023666857789
 20
-125.93802000756109
 30
0.0
 11
900.81023666857789
 21
-107.90811025873521
 31
0.0
  0
LINE
  5
509
  8
DATA
  6
CONTINUOUS
 62
     7
 10
939.21023666474491
 20
-125.9380200075593
 30
0.0
 11
939.21023666474491
 21
-107.90811025873521
 31
0.0
  0
CIRCLE
  5
50A
  8
DATA
  6
CONTINUOUS
 62
     7
 10
1120.0100729514379
 20
-409.5356766666664
 30
0.0
 40
14.0
  0
CIRCLE
  5
50B
  8
DATA
  6
CONTINUOUS
 62
     7
 10
1120.0100729514379
 20
-409.5356766666664
 30
0.0
 40
24.0
  0
CIRCLE
  5
50C
  8
DATA
  6
CONTINUOUS
 62
     7
 10
1120.0100729514379
 20
-409.5356766666664
 30
0.0
 40
31.999999999998661
  0
CIRCLE
  5
50D
  8
DATA
  6
CONTINUOUS
 62
     7
 10
1120.0100729514379
 20
-409.5356766666664
 30
0.0
 40
40.000000000004007
  0
CIRCLE
  5
50E
  8
DATA
  6
CONTINUOUS
 62
     7
 10
1000.010072951438
 20
-409.5356766666664
 30
0.0
 40
14.0
  0
CIRCLE
  5
50F
  8
DATA
  6
CONTINUOUS
 62
     7
 10
1000.010072951438
 20
-409.5356766666664
 30
0.0
 40
24.0
  0
CIRCLE
  5
510
  8
DATA
  6
CONTINUOUS
 62
     7
 10
1000.010072951438
 20
-409.5356766666664
 30
0.0
 40
31.999999999998661
  0
CIRCLE
  5
511
  8
DATA
  6
CONTINUOUS
 62
     7
 10
1000.010072951438
 20
-409.5356766666664
 30
0.0
 40
40.000000000004007
  0
CIRCLE
  5
512
  8
DATA
  6
CONTINUOUS
 62
     7
 10
920.01023666666913
 20
30.466666666667152
 30
0.0
 40
20.000000000000071
  0
CIRCLE
  5
513
  8
DATA
  6
CONTINUOUS
 62
     7
 10
1200.0
 20
30.466666666667152
 30
0.0
 40
20.000000000000071
  0
CIRCLE
  5
514
  8
DATA
  6
CONTINUOUS
 62
     7
 10
920.01023666666913
 20
270.46666666666721
 30
0.0
 40
12.0
  0
CIRCLE
  5
515
  8
DATA
  6
CONTINUOUS
 62
     7
 10
1060.0051183333269
 20
270.46666666666721
 30
0.0
 40
12.0
  0
CIRCLE
  5
516
  8
DATA
  6
CONTINUOUS
 62
     7
 10
1200.0
 20
270.46666666666721
 30
0.0
 40
11.99999999999882
  0
CIRCLE
  5
517
  8
DATA
  6
CONTINUOUS
 62
     7
 10
1028.0
 20
30.466666666667152
 30
0.0
 40
12.00000000000256
  0
CIRCLE
  5
518
  8
DATA
  6
CONTINUOUS
 62
     7
 10
920.01023666666913
 20
470.46666666666709
 30
0.0
 40
31.999999999999989
  0
CIRCLE
  5
519
  8
DATA
  6
CONTINUOUS
 62
     7
 10
920.01023666666913
 20
574.46666666666715
 30
0.0
 40
16.004686666663218
  0
LINE
  5
51A
  8
DATA
  6
CONTINUOUS
 62
     7
 10
1415.9999999903951
 20
174.46666666666721
 30
0.0
 11
1415.9999999903951
 21
214.46666666666721
 31
0.0
  0
LINE
  5
51B
  8
DATA
  6
CONTINUOUS
 62
     7
 10
1503.9999999903951
 20
174.46666666666721
 30
0.0
 11
1415.9999999903951
 21
174.46666666666721
 31
0.0
  0
LINE
  5
51C
  8
DATA
  6
CONTINUOUS
 62
     7
 10
1503.9999999903951
 20
214.46666666666721
 30
0.0
 11
1503.9999999903951
 21
174.46666666666721
 31
0.0
  0
LINE
  5
51D
  8
DATA
  6
CONTINUOUS
 62
     7
 10
1415.9999999903951
 20
214.46666666666721
 30
0.0
 11
1503.9999999903951
 21
214.46666666666721
 31
0.0
  0
LINE
  5
51E
  8
DATA
  6
CONTINUOUS
 62
     7
 10
1439.9999999903951
 20
178.46666666666709
 30
0.0
 11
1439.9999999903951
 21
210.46666666666721
 31
0.0
  0
LINE
  5
51F
  8
DATA
  6
CONTINUOUS
 62
     7
 10
1479.9999999903951
 20
178.46666666666709
 30
0.0
 11
1439.9999999903951
 21
178.46666666666709
 31
0.0
  0
LINE
  5
520
  8
DATA
  6
CONTINUOUS
 62
     7
 10
1479.9999999903951
 20
210.46666666666721
 30
0.0
 11
1479.9999999903951
 21
178.46666666666709
 31
0.0
  0
LINE
  5
521
  8
DATA
  6
CONTINUOUS
 62
     7
 10
1439.9999999903951
 20
210.46666666666721
 30
0.0
 11
1479.9999999903951
 21
210.46666666666721
 31
0.0
  0
LINE
  5
522
  8
DATA
  6
CONTINUOUS
 62
     7
 10
1415.9999999903951
 20
38.466666666667152
 30
0.0
 11
1415.9999999903951
 21
78.466666666667152
 31
0.0
  0
LINE
  5
523
  8
DATA
  6
CONTINUOUS
 62
     7
 10
1503.9999999903951
 20
38.466666666667152
 30
0.0
 11
1415.9999999903951
 21
38.466666666667152
 31
0.0
  0
LINE
  5
524
  8
DATA
  6
CONTINUOUS
 62
     7
 10
1503.9999999903951
 20
78.466666666667152
 30
0.0
 11
1503.9999999903951
 21
38.466666666667152
 31
0.0
  0
LINE
  5
525
  8
DATA
  6
CONTINUOUS
 62
     7
 10
1415.9999999903951
 20
78.466666666667152
 30
0.0
 11
1503.9999999903951
 21
78.466666666667152
 31
0.0
  0
LINE
  5
526
  8
DATA
  6
CONTINUOUS
 62
     7
 10
1439.9999999903951
 20
42.466666666667138
 30
0.0
 11
1439.9999999903951
 21
74.466666666667152
 31
0.0
  0
LINE
  5
527
  8
DATA
  6
CONTINUOUS
 62
     7
 10
1479.9999999903951
 20
42.466666666667138
 30
0.0
 11
1439.9999999903951
 21
42.466666666667138
 31
0.0
  0
LINE
  5
528
  8
DATA
  6
CONTINUOUS
 62
     7
 10
1479.9999999903951
 20
74.466666666667152
 30
0.0
 11
1479.9999999903951
 21
42.466666666667138
 31
0.0
  0
LINE
  5
529
  8
DATA
  6
CONTINUOUS
 62
     7
 10
1439.9999999903951
 20
74.466666666667152
 30
0.0
 11
1479.9999999903951
 21
74.466666666667152
 31
0.0
  0
CIRCLE
  5
52A
  8
DATA
  6
CONTINUOUS
 62
     7
 10
1556.0
 20
470.46666666666709
 30
0.0
 40
31.999999999999989
  0
CIRCLE
  5
52B
  8
DATA
  6
CONTINUOUS
 62
     7
 10
1556.0
 20
574.46666666666715
 30
0.0
 40
16.004686666663218
  0
LINE
  5
52C
  8
DATA
  6
STYLE_11
 62
     7
 10
788.81023678586644
 20
51.633333333333198
 30
0.0
 11
788.81023678586644
 21
322.46666666666721
 31
0.0
  0
LINE
  5
52D
  8
DATA
  6
STYLE_11
 62
     7
 10
920.0
 20
-529.53333333333285
 30
0.0
 11
1040.0100729514379
 21
-529.53333333333285
 31
0.0
  0
LINE
  5
52E
  8
DATA
  6
STYLE_11
 62
     7
 10
880.0
 20
-449.5356766666664
 30
0.0
 11
880.0
 21
-489.53333333333279
 31
0.0
  0
LINE
  5
52F
  8
DATA
  6
STYLE_11
 62
     7
 10
840.0
 20
-409.5356766666664
 30
0.0
 11
828.81023678586644
 21
-409.5356766666664
 31
0.0
  0
CIRCLE
  5
530
  8
DATA
  6
CONTINUOUS
 62
     7
 10
1060.025591723868
 20
-350.33333333333201
 30
0.0
 40
20.0
  0
LINE
  5
531
  8
DATA
  6
STYLE_11
 62
     7
 10
1048.0051183905309
 20
-350.33333333333201
 30
0.0
 11
1072.0051183905309
 21
-350.33333333333201
 31
0.0
  0
LINE
  5
532
  8
DATA
  6
STYLE_11
 62
     7
 10
1060.025591723868
 20
-338.32396000000159
 30
0.0
 11
1060.025591723868
 21
-362.32396000000148
 31
0.0
  0
LINE
  5
533
  8
DATA
  6
STYLE_11
 62
     7
 10
828.81023678586644
 20
362.46666666666721
 30
0.0
 11
972.01023666666902
 21
362.46666666666721
 31
0.0
  0
ARC
  5
534
  8
DATA
  6
STYLE_11
 62
     7
 10
828.81023678586644
 20
322.46666666666721
 30
0.0
 40
40.0
 50
90.0
 51
180.0
  0
ARC
  5
535
  8
DATA
  6
STYLE_11
 62
     7
 10
828.81023678586644
 20
-369.5356766666664
 30
0.0
 40
40.0
 50
180.0
 51
270.0
  0
ARC
  5
536
  8
DATA
  6
STYLE_11
 62
     7
 10
840.0
 20
-449.5356766666664
 30
0.0
 40
40.0
 50
0.0
 51
90.0
  0
ARC
  5
537
  8
DATA
  6
STYLE_11
 62
     7
 10
920.0
 20
-489.53333333333279
 30
0.0
 40
40.0
 50
180.0
 51
270.0
  0
CIRCLE
  5
538
  8
DATA
  6
CONTINUOUS
 62
     7
 10
920.01023666666913
 20
158.46666666666709
 30
0.0
 40
51.999999999995062
  0
LINE
  5
539
  8
DATA
  6
CONTINUOUS
 62
     7
 10
950.57506978587469
 20
116.3977829591622
 30
0.0
 11
967.03305685006467
 21
93.745307116667405
 31
0.0
  0
LINE
  5
53A
  8
DATA
  6
CONTINUOUS
 62
     7
 10
969.46517551402201
 20
174.53555037416481
 30
0.0
 11
996.09475797027699
 21
183.1880262166633
 31
0.0
  0
LINE
  5
53B
  8
DATA
  6
CONTINUOUS
 62
     7
 10
920.01023666666913
 20
210.46666666666721
 30
0.0
 11
920.01023666666913
 21
238.46666666666721
 31
0.0
  0
LINE
  5
53C
  8
DATA
  6
CONTINUOUS
 62
     7
 10
870.55529781931534
 20
174.53555037416481
 30
0.0
 11
843.92571536306059
 21
183.1880262166633
 31
0.0
  0
LINE
  5
53D
  8
DATA
  6
CONTINUOUS
 62
     7
 10
889.44540355175559
 20
116.3977829651066
 30
0.0
 11
872.98741648327245
 21
93.745307116674667
 31
0.0
  0
LINE
  5
53E
  8
DATA
  6
CONTINUOUS
 62
     7
 10
899.9724080267041
 20
124.0817551343425
 30
0.0
 11
895.1307474126952
 21
117.41778100016739
 31
0.0
  0
LINE
  5
53F
  8
DATA
  6
CONTINUOUS
 62
     7
 10
916.77416868956084
 20
160.81780767645799
 30
0.0
 11
916.53665521494975
 21
160.49089842414099
 31
0.0
  0
LINE
  5
540
  8
DATA
  6
CONTINUOUS
 62
     7
 10
893.50027207170206
 20
128.78403715267629
 30
0.0
 11
888.65861145769304
 21
122.1200630185085
 31
0.0
  0
LINE
  5
541
  8
DATA
  6
CONTINUOUS
 62
     7
 10
868.80023351003194
 20
167.4963719053485
 30
0.0
 11
856.98254047388036
 21
169.5801500373509
 31
0.0
  0
LINE
  5
542
  8
DATA
  6
CONTINUOUS
 62
     7
 10
868.04191366166913
 20
160.2814404951969
 30
0.0
 11
856.04922373744182
 21
160.70023445562759
 31
0.0
  0
LINE
  5
543
  8
DATA
  6
CONTINUOUS
 62
     7
 10
868.2950981075121
 20
153.03118657674889
 30
0.0
 11
856.36083536309911
 21
151.77684501753899
 31
0.0
  0
LINE
  5
544
  8
DATA
  6
CONTINUOUS
 62
     7
 10
869.55485890031559
 20
145.8867280954837
 30
0.0
 11
857.91131018500903
 21
142.98366534828889
 31
0.0
  0
LINE
  5
545
  8
DATA
  6
CONTINUOUS
 62
     7
 10
871.79667622919055
 20
138.98712380903811
 30
0.0
 11
860.67046997440025
 21
134.49184468804921
 31
0.0
  0
LINE
  5
546
  8
DATA
  6
CONTINUOUS
 62
     7
 10
874.97691566987476
 20
132.46666666667079
 30
0.0
 11
864.58461082445831
 21
126.46666666666709
 31
0.0
  0
LINE
  5
547
  8
DATA
  6
CONTINUOUS
 62
     7
 10
879.03367747912125
 20
126.45226994973559
 30
0.0
 11
869.57754843584542
 21
119.0643322458254
 31
0.0
  0
LINE
  5
548
  8
DATA
  6
CONTINUOUS
 62
     7
 10
883.88800140279636
 20
121.06099704905679
 30
0.0
 11
875.55210095729842
 21
112.4289194449957
 31
0.0
  0
LINE
  5
549
  8
DATA
  6
CONTINUOUS
 62
     7
 10
956.13247193052655
 20
121.06099704906229
 30
0.0
 11
964.46837237603893
 21
112.428919444992
 31
0.0
  0
LINE
  5
54A
  8
DATA
  6
CONTINUOUS
 62
     7
 10
960.98679585421644
 20
126.45226994973559
 30
0.0
 11
970.44292489749193
 21
119.0643322458272
 31
0.0
  0
LINE
  5
54B
  8
DATA
  6
CONTINUOUS
 62
     7
 10
965.04355766346271
 20
132.46666666666351
 30
0.0
 11
975.4358625088787
 21
126.46666666666709
 31
0.0
  0
LINE
  5
54C
  8
DATA
  6
CONTINUOUS
 62
     7
 10
968.22379710414657
 20
138.98712380903811
 30
0.0
 11
979.35000335895154
 21
134.49184468804739
 31
0.0
  0
LINE
  5
54D
  8
DATA
  6
CONTINUOUS
 62
     7
 10
970.46561443302221
 20
145.88672809548009
 30
0.0
 11
982.10916314832855
 21
142.98366534828889
 31
0.0
  0
LINE
  5
54E
  8
DATA
  6
CONTINUOUS
 62
     7
 10
971.72537522581126
 20
153.0311865767471
 30
0.0
 11
983.6596379702388
 21
151.77684501753899
 31
0.0
  0
LINE
  5
54F
  8
DATA
  6
CONTINUOUS
 62
     7
 10
971.97855967165367
 20
160.28144049520051
 30
0.0
 11
983.97124959589564
 21
160.70023445562759
 31
0.0
  0
LINE
  5
550
  8
DATA
  6
CONTINUOUS
 62
     7
 10
971.22023982330563
 20
167.4963719053485
 30
0.0
 11
983.03793285944255
 21
169.58015003734911
 31
0.0
  0
LINE
  5
551
  8
DATA
  6
CONTINUOUS
 62
     7
 10
966.74752707422886
 20
181.26196629969851
 30
0.0
 11
977.53305562981416
 21
186.5224200611664
 31
0.0
  0
LINE
  5
552
  8
DATA
  6
CONTINUOUS
 62
     7
 10
963.12019043952751
 20
187.54469764715029
 30
0.0
 11
973.06864131017926
 21
194.255012488793
 31
0.0
  0
LINE
  5
553
  8
DATA
  6
CONTINUOUS
 62
     7
 10
958.65376759150229
 20
193.26145819732841
 30
0.0
 11
967.57150549722428
 21
201.29102547363439
 31
0.0
  0
LINE
  5
554
  8
DATA
  6
CONTINUOUS
 62
     7
 10
953.43519237036514
 20
198.3009777088518
 30
0.0
 11
961.14864368661085
 21
207.49351102628501
 31
0.0
  0
LINE
  5
555
  8
DATA
  6
CONTINUOUS
 62
     7
 10
947.56603840680327
 20
202.5651676668021
 30
0.0
 11
953.9250695775844
 21
212.7417448206761
 31
0.0
  0
LINE
  5
556
  8
DATA
  6
CONTINUOUS
 62
     7
 10
941.16054210660513
 20
205.97103046407571
 30
0.0
 11
946.04138182351005
 21
216.9335759557944
 31
0.0
  0
LINE
  5
557
  8
DATA
  6
CONTINUOUS
 62
     7
 10
934.34337916914967
 20
208.45227485545911
 30
0.0
 11
937.65102743895841
 21
219.9874152067168
 31
0.0
  0
LINE
  5
558
  8
DATA
  6
CONTINUOUS
 62
     7
 10
927.24723791658471
 20
209.96060624122759
 30
0.0
 11
928.91731512811361
 21
221.84382306611951
 31
0.0
  0
LINE
  5
559
  8
DATA
  6
CONTINUOUS
 62
     7
 10
912.77323541675275
 20
209.960606241184
 30
0.0
 11
911.10315820522385
 21
221.84382306612679
 31
0.0
  0
LINE
  5
55A
  8
DATA
  6
CONTINUOUS
 62
     7
 10
905.67709416417347
 20
208.45227485546641
 30
0.0
 11
902.36944589437917
 21
219.98741520671319
 31
0.0
  0
LINE
  5
55B
  8
DATA
  6
CONTINUOUS
 62
     7
 10
898.85993122671789
 20
205.9710304640866
 30
0.0
 11
893.97909150981275
 21
216.9335759557907
 31
0.0
  0
LINE
  5
55C
  8
DATA
  6
CONTINUOUS
 62
     7
 10
892.45443492654863
 20
202.5651676668021
 30
0.0
 11
886.09540375573863
 21
212.74174482068341
 31
0.0
  0
LINE
  5
55D
  8
DATA
  6
CONTINUOUS
 62
     7
 10
886.58528096297255
 20
198.3009777088555
 30
0.0
 11
878.87182964672672
 21
207.49351102628131
 31
0.0
  0
LINE
  5
55E
  8
DATA
  6
CONTINUOUS
 62
     7
 10
881.36670574184984
 20
193.26145819732841
 30
0.0
 11
872.44896783611318
 21
201.29102547363439
 31
0.0
  0
LINE
  5
55F
  8
DATA
  6
CONTINUOUS
 62
     7
 10
876.90028289379552
 20
187.54469764714301
 30
0.0
 11
866.95183202314365
 21
194.255012488793
 31
0.0
  0
LINE
  5
560
  8
DATA
  6
CONTINUOUS
 62
     7
 10
873.27294625910861
 20
181.26196629969851
 30
0.0
 11
862.48741770352365
 21
186.52242006116279
 31
0.0
  0
ARC
  5
561
  8
DATA
  6
CONTINUOUS
 62
     7
 10
925.02760290351569
 20
206.20371764434279
 30
0.0
 40
3.999999999992089
 50
351.61198453549321
 51
176.388015464445
  0
ARC
  5
562
  8
DATA
  6
CONTINUOUS
 62
     7
 10
920.01023666663957
 20
158.46666666662901
 30
0.0
 40
47.999999999951747
 50
238.78019184717519
 51
229.21980815276439
  0
ARC
  5
563
  8
DATA
  6
CONTINUOUS
 62
     7
 10
920.0102366670618
 20
158.46666666728919
 30
0.0
 40
40.000000000737572
 50
239.73026269141241
 51
228.26082952287089
  0
ARC
  5
564
  8
DATA
  6
CONTINUOUS
 62
     7
 10
908.2545316208417
 20
142.2863267792381
 30
0.0
 40
20.000000000073641
 50
245.5369590327395
 51
222.46304096722579
  0
ARC
  5
565
  8
DATA
  6
CONTINUOUS
 62
     7
 10
900.48687779900513
 20
202.3168486335162
 30
0.0
 40
4.0000000000037881
 50
21.61198453550028
 51
206.3880154644375
  0
ARC
  5
566
  8
DATA
  6
CONTINUOUS
 62
     7
 10
881.17742093662685
 20
186.6803587767044
 30
0.0
 40
3.9999999999969109
 50
51.611984535568602
 51
236.38801546444861
  0
ARC
  5
567
  8
DATA
  6
CONTINUOUS
 62
     7
 10
872.27318568892952
 20
163.48403290349779
 30
0.0
 40
3.999999999996692
 50
81.611984535581826
 51
266.3880154644167
  0
ARC
  5
568
  8
DATA
  6
CONTINUOUS
 62
     7
 10
876.16005469975039
 20
138.94330779899059
 30
0.0
 40
3.9999999999990652
 50
111.611984535471
 51
296.38801546444893
  0
ARC
  5
569
  8
DATA
  6
CONTINUOUS
 62
     7
 10
891.7965445565643
 20
119.6338509366105
 30
0.0
 40
3.9999999999971432
 50
144.00000000008771
 51
324.00000000004491
  0
ARC
  5
56A
  8
DATA
  6
CONTINUOUS
 62
     7
 10
914.99287042977778
 20
110.7296156889151
 30
0.0
 40
4.0000000000064864
 50
171.6119845355235
 51
356.38801546443221
  0
ARC
  5
56B
  8
DATA
  6
CONTINUOUS
 62
     7
 10
939.53359553427435
 20
114.61648469974349
 30
0.0
 40
4.0000000000044569
 50
201.6119845355245
 51
26.388015464389468
  0
ARC
  5
56C
  8
DATA
  6
CONTINUOUS
 62
     7
 10
958.84305239665252
 20
130.2529745565534
 30
0.0
 40
3.9999999999940599
 50
231.61198453553621
 51
56.388015464436073
  0
ARC
  5
56D
  8
DATA
  6
CONTINUOUS
 62
     7
 10
967.74728764434985
 20
153.44930042976009
 30
0.0
 40
3.999999999998491
 50
261.61198453558558
 51
86.388015464418316
  0
ARC
  5
56E
  8
DATA
  6
CONTINUOUS
 62
     7
 10
963.86041863352875
 20
177.9900255342672
 30
0.0
 40
3.9999999999990652
 50
291.61198453547092
 51
116.3880154644489
  0
ARC
  5
56F
  8
DATA
  6
CONTINUOUS
 62
     7
 10
948.2239287767153
 20
197.29948239664731
 30
0.0
 40
4.000000000006299
 50
321.6119845356086
 51
146.38801546444981
  0
TEXT
  5
570
  8
DATA
 62
     7
 10
901.00708996527999
 20
507.34492187500058
 30
0.0
 40
32.576822916666671
  1
EQ
 41
0.7
 72
     1
 11
920.01023666666913
 21
523.63333333333401
 31
0.0
 73
     2
  0
TEXT
  5
571
  8
DATA
 62
     7
 10
1461.7443923611111
 20
507.34492187500058
 30
0.0
 40
32.576822916666671
  1
FRONT LED
 41
0.7
 72
     1
 11
1556.0
 21
523.63333333333401
 31
0.0
 73
     2
  0
TEXT
  5
572
  8
DATA
 62
     7
 10
783.20239583333171
 20
416.94452173116179
 30
0.0
 40
23.393750000000001
  1
NORMAL
 41
0.7
 72
     1
 11
829.59999999999854
 21
428.64139673116171
 31
0.0
 73
     2
  0
LINE
  5
573
  8
DATA
  6
CONTINUOUS
 62
     7
 10
861.59999999999116
 20
454.46666666666709
 30
0.0
 11
797.59999999999116
 21
454.46666666666709
 31
0.0
  0
LINE
  5
574
  8
DATA
  6
CONTINUOUS
 62
     7
 10
809.59999999999127
 20
454.46666666666709
 30
0.0
 11
809.59999999999127
 21
470.46666666666709
 31
0.0
  0
LINE
  5
575
  8
DATA
  6
CONTINUOUS
 62
     7
 10
849.59999999999127
 20
470.46666666666709
 30
0.0
 11
849.59999999999127
 21
454.46666666666709
 31
0.0
  0
LINE
  5
576
  8
DATA
  6
CONTINUOUS
 62
     7
 10
809.59999999999127
 20
470.46666666666709
 30
0.0
 11
849.59999999999127
 21
470.46666666666709
 31
0.0
  0
TEXT
  5
577
  8
DATA
 62
     7
 10
972.21068166667214
 20
416.94452173116179
 30
0.0
 40
23.393750000000001
  1
BOOST
 41
0.7
 72
     1
 11
1010.420473333339
 21
428.64139673116171
 31
0.0
 73
     2
  0
LINE
  5
578
  8
DATA
  6
CONTINUOUS
 62
     7
 10
1042.4204733333311
 20
454.46666666666709
 30
0.0
 11
978.42047333333142
 21
454.46666666666709
 31
0.0
  0
LINE
  5
579
  8
DATA
  6
CONTINUOUS
 62
     7
 10
990.42047333333142
 20
454.46666666666709
 30
0.0
 11
990.42047333333142
 21
494.46666666666709
 31
0.0
  0
LINE
  5
57A
  8
DATA
  6
CONTINUOUS
 62
     7
 10
1030.4204733333311
 20
494.46666666666709
 30
0.0
 11
1030.4204733333311
 21
454.46666666666709
 31
0.0
  0
LINE
  5
57B
  8
DATA
  6
CONTINUOUS
 62
     7
 10
990.42047333333142
 20
478.46666666666709
 30
0.0
 11
1030.4204733333311
 21
478.46666666666709
 31
0.0
  0
LINE
  5
57C
  8
DATA
  6
CONTINUOUS
 62
     7
 10
990.42047333333142
 20
494.46666666666709
 30
0.0
 11
1030.4204733333311
 21
494.46666666666709
 31
0.0
  0
TEXT
  5
57D
  8
DATA
 62
     7
 10
1451.9434091666631
 20
416.94452173116179
 30
0.0
 40
23.393750000000001
  1
ON
 41
0.7
 72
     1
 11
1465.58976333333
 21
428.64139673116171
 31
0.0
 73
     2
  0
LINE
  5
57E
  8
DATA
  6
CONTINUOUS
 62
     7
 10
1497.589763333322
 20
454.46666666666709
 30
0.0
 11
1433.589763333322
 21
454.46666666666709
 31
0.0
  0
LINE
  5
57F
  8
DATA
  6
CONTINUOUS
 62
     7
 10
1445.589763333322
 20
454.46666666666709
 30
0.0
 11
1445.589763333322
 21
470.46666666666709
 31
0.0
  0
LINE
  5
580
  8
DATA
  6
CONTINUOUS
 62
     7
 10
1485.589763333322
 20
470.46666666666709
 30
0.0
 11
1485.589763333322
 21
454.46666666666709
 31
0.0
  0
LINE
  5
581
  8
DATA
  6
CONTINUOUS
 62
     7
 10
1445.589763333322
 20
470.46666666666709
 30
0.0
 11
1485.589763333322
 21
470.46666666666709
 31
0.0
  0
TEXT
  5
582
  8
DATA
 62
     7
 10
1624.576070000003
 20
422.06979166666719
 30
0.0
 40
23.393750000000001
  1
OFF
 41
0.7
 72
     1
 11
1646.41023666667
 21
433.76666666666722
 31
0.0
 73
     2
  0
LINE
  5
583
  8
DATA
  6
CONTINUOUS
 62
     7
 10
1678.410236666663
 20
454.46666666666709
 30
0.0
 11
1614.410236666663
 21
454.46666666666709
 31
0.0
  0
LINE
  5
584
  8
DATA
  6
CONTINUOUS
 62
     7
 10
1626.410236666663
 20
454.46666666666709
 30
0.0
 11
1626.410236666663
 21
494.46666666666709
 31
0.0
  0
LINE
  5
585
  8
DATA
  6
CONTINUOUS
 62
     7
 10
1666.410236666663
 20
494.46666666666709
 30
0.0
 11
1666.410236666663
 21
454.46666666666709
 31
0.0
  0
LINE
  5
586
  8
DATA
  6
CONTINUOUS
 62
     7
 10
1626.410236666663
 20
478.46666666666709
 30
0.0
 11
1666.410236666663
 21
478.46666666666709
 31
0.0
  0
LINE
  5
587
  8
DATA
  6
CONTINUOUS
 62
     7
 10
1626.410236666663
 20
494.46666666666709
 30
0.0
 11
1666.410236666663
 21
494.46666666666709
 31
0.0
  0
TEXT
  5
588
  8
DATA
 62
     7
 10
1464.7848958333329
 20
595.34960854166604
 30
0.0
 40
32.576822916666671
  1
PWR/STBY
 41
0.7
 72
     1
 11
1556.0
 21
611.63801999999941
 31
0.0
 73
     2
  0
CIRCLE
  5
589
  8
DATA
  6
CONTINUOUS
 62
     7
 10
1707.3599999999999
 20
670.46666666666715
 30
0.0
 40
20.000000000001769
  0
LINE
  5
58A
  8
DATA
  6
CONTINUOUS
 62
     7
 10
1719.360000000001
 20
670.46666666666715
 30
0.0
 11
1695.3599999999999
 21
670.46666666666715
 31
0.0
  0
LINE
  5
58B
  8
DATA
  6
CONTINUOUS
 62
     7
 10
1708.0
 20
682.46666666666715
 30
0.0
 11
1708.0
 21
658.46666666666715
 31
0.0
  0
CIRCLE
  5
58C
  8
DATA
  6
CONTINUOUS
 62
     7
 10
1707.3599999999999
 20
-193.533333333331
 30
0.0
 40
20.000000000003411
  0
LINE
  5
58D
  8
DATA
  6
CONTINUOUS
 62
     7
 10
1719.360000000001
 20
-193.533333333331
 30
0.0
 11
1695.3599999999999
 21
-193.533333333331
 31
0.0
  0
LINE
  5
58E
  8
DATA
  6
CONTINUOUS
 62
     7
 10
1708.0
 20
-181.533333333331
 30
0.0
 11
1708.0
 21
-205.533333333331
 31
0.0
  0
CIRCLE
  5
58F
  8
DATA
  6
CONTINUOUS
 62
     7
 10
692.6399999999993
 20
670.46666666666715
 30
0.0
 40
20.000000000001769
  0
LINE
  5
590
  8
DATA
  6
CONTINUOUS
 62
     7
 10
680.63999999999942
 20
670.46666666666715
 30
0.0
 11
704.63999999999942
 21
670.46666666666715
 31
0.0
  0
LINE
  5
591
  8
DATA
  6
CONTINUOUS
 62
     7
 10
692.0
 20
682.46666666666715
 30
0.0
 11
692.0
 21
658.46666666666715
 31
0.0
  0
CIRCLE
  5
592
  8
DATA
  6
CONTINUOUS
 62
     7
 10
692.6399999999993
 20
-193.533333333331
 30
0.0
 40
20.000000000003411
  0
LINE
  5
593
  8
DATA
  6
CONTINUOUS
 62
     7
 10
680.63999999999942
 20
-193.533333333331
 30
0.0
 11
704.63999999999942
 21
-193.533333333331
 31
0.0
  0
LINE
  5
594
  8
DATA
  6
CONTINUOUS
 62
     7
 10
692.0
 20
-181.533333333331
 30
0.0
 11
692.0
 21
-205.533333333331
 31
0.0
  0
TEXT
  5
595
  8
DATA
 62
     7
 10
993.36790364583055
 20
651.13476562499989
 30
0.0
 40
97.73046875
  1
PRX735
 41
0.7
 72
     1
 11
1187.1999999999971
 21
700.0
 31
0.0
 73
     2
  0
TEXT
  5
596
  8
DATA
 62
     7
 10
905.86923908392384
 20
-406.12089802083301
 30
0.0
 40
22.803776041666669
  1
-10
 41
0.7
 72
     1
 11
923.1621025821878
 21
-394.71900999999968
 31
0.0
 73
     2
  0
TEXT
  5
597
  8
DATA
 62
     7
 10
901.8785782766322
 20
-435.75423135416639
 30
0.0
 40
22.803776041666669
  1
dBv
 41
0.7
 72
     1
 11
923.1621025821878
 21
-424.35234333333301
 31
0.0
 73
     2
  0
ARC
  5
598
  8
DATA
  6
CONTINUOUS
 62
     7
 10
912.5
 20
1625.0
 30
0.0
 40
850.09190679596531
 50
250.23283132320839
 51
289.76716867679158
  0
ARC
  5
599
  8
DATA
  6
CONTINUOUS
 62
     7
 10
1487.5
 20
25.0
 30
0.0
 40
850.09190679596531
 50
70.232831323208359
 51
109.7671686767917
  0
ARC
  5
59A
  8
DATA
  6
CONTINUOUS
 62
     7
 10
912.5
 20
200.0
 30
0.0
 40
850.09190679596531
 50
250.23283132320839
 51
289.76716867679158
  0
ARC
  5
59B
  8
DATA
  6
CONTINUOUS
 62
     7
 10
1487.5
 20
-1400.0
 30
0.0
 40
850.09190679596531
 50
70.232831323208359
 51
109.7671686767917
  0
ENDSEC
  0
EOF
