  0
SECTION
  2
HEADER
  9
$ACADVER
  1
AC1015
  9
$ACADMAINTVER
 70
    20
  9
$DWGCODEPAGE
  3
ANSI_932
  9
$INSBASE
 10
0.0
 20
0.0
 30
0.0
  9
$EXTMIN
 10
-1350.082391174605
 20
-1996.471312898438
 30
-0.0033049047496831
  9
$EXTMAX
 10
1350.082403747462
 20
2017.781336355125
 30
0.000000075646156
  9
$LIMMIN
 10
0.0
 20
0.0
  9
$LIMMAX
 10
0.0
 20
0.0
  9
$ORTHOMODE
 70
     0
  9
$REGENMODE
 70
     1
  9
$FILLMODE
 70
     1
  9
$QTEXTMODE
 70
     0
  9
$MIRRTEXT
 70
     1
  9
$LTSCALE
 40
190.5
  9
$ATTMODE
 70
     1
  9
$TEXTSIZE
 40
0.0
  9
$TRACEWID
 40
1.0
  9
$TEXTSTYLE
  7
STANDARD
  9
$CLAYER
  8
DATA
  9
$CELTYPE
  6
ByLayer
  9
$CECOLOR
 62
   256
  9
$CELTSCALE
 40
1.0
  9
$DISPSILH
 70
     0
  9
$DIMSCALE
 40
1.0
  9
$DIMASZ
 40
0.18
  9
$DIMEXO
 40
0.0625
  9
$DIMDLI
 40
0.38
  9
$DIMRND
 40
0.0
  9
$DIMDLE
 40
0.0
  9
$DIMEXE
 40
0.18
  9
$DIMTP
 40
0.0
  9
$DIMTM
 40
0.0
  9
$DIMTXT
 40
0.18
  9
$DIMCEN
 40
0.09
  9
$DIMTSZ
 40
0.0
  9
$DIMTOL
 70
     0
  9
$DIMLIM
 70
     0
  9
$DIMTIH
 70
     1
  9
$DIMTOH
 70
     1
  9
$DIMSE1
 70
     0
  9
$DIMSE2
 70
     0
  9
$DIMTAD
 70
     0
  9
$DIMZIN
 70
     0
  9
$DIMBLK
  1

  9
$DIMASO
 70
     1
  9
$DIMSHO
 70
     1
  9
$DIMPOST
  1

  9
$DIMAPOST
  1

  9
$DIMALT
 70
     0
  9
$DIMALTD
 70
     2
  9
$DIMALTF
 40
25.4
  9
$DIMLFAC
 40
1.0
  9
$DIMTOFL
 70
     0
  9
$DIMTVP
 40
0.0
  9
$DIMTIX
 70
     0
  9
$DIMSOXD
 70
     0
  9
$DIMSAH
 70
     0
  9
$DIMBLK1
  1

  9
$DIMBLK2
  1

  9
$DIMSTYLE
  2
STANDARD
  9
$DIMCLRD
 70
     0
  9
$DIMCLRE
 70
     0
  9
$DIMCLRT
 70
     0
  9
$DIMTFAC
 40
1.0
  9
$DIMGAP
 40
0.09
  9
$DIMJUST
 70
     0
  9
$DIMSD1
 70
     0
  9
$DIMSD2
 70
     0
  9
$DIMTOLJ
 70
     1
  9
$DIMTZIN
 70
     0
  9
$DIMALTZ
 70
     0
  9
$DIMALTTZ
 70
     0
  9
$DIMUPT
 70
     0
  9
$DIMDEC
 70
     4
  9
$DIMTDEC
 70
     4
  9
$DIMALTU
 70
     2
  9
$DIMALTTD
 70
     2
  9
$DIMTXSTY
  7
STANDARD
  9
$DIMAUNIT
 70
     0
  9
$DIMADEC
 70
     0
  9
$DIMALTRND
 40
0.0
  9
$DIMAZIN
 70
     0
  9
$DIMDSEP
 70
    46
  9
$DIMATFIT
 70
     3
  9
$DIMFRAC
 70
     0
  9
$DIMLDRBLK
  1

  9
$DIMLUNIT
 70
     2
  9
$DIMLWD
 70
    -2
  9
$DIMLWE
 70
    -2
  9
$DIMTMOVE
 70
     0
  9
$LUNITS
 70
     2
  9
$LUPREC
 70
     4
  9
$SKETCHINC
 40
0.1
  9
$FILLETRAD
 40
0.0
  9
$AUNITS
 70
     0
  9
$AUPREC
 70
     0
  9
$MENU
  1
acad
  9
$ELEVATION
 40
0.0
  9
$PELEVATION
 40
0.0
  9
$THICKNESS
 40
0.0
  9
$LIMCHECK
 70
     0
  9
$CHAMFERA
 40
0.0
  9
$CHAMFERB
 40
0.0
  9
$CHAMFERC
 40
0.0
  9
$CHAMFERD
 40
0.0
  9
$SKPOLY
 70
     0
  9
$TDCREATE
 40
2457042.780706019
  9
$TDUCREATE
 40
2457042.405706019
  9
$TDUPDATE
 40
2457042.785950533
  9
$TDUUPDATE
 40
2457042.410950532
  9
$TDINDWG
 40
0.0003654398
  9
$TDUSRTIMER
 40
0.0003654167
  9
$USRTIMER
 70
     1
  9
$ANGBASE
 50
0.0
  9
$ANGDIR
 70
     0
  9
$PDMODE
 70
     1
  9
$PDSIZE
 40
-2.0
  9
$PLINEWID
 40
0.0
  9
$SPLFRAME
 70
     0
  9
$SPLINETYPE
 70
     6
  9
$SPLINESEGS
 70
     8
  9
$HANDSEED
  5
39D
  9
$SURFTAB1
 70
     6
  9
$SURFTAB2
 70
     6
  9
$SURFTYPE
 70
     6
  9
$SURFU
 70
     6
  9
$SURFV
 70
     6
  9
$UCSBASE
  2

  9
$UCSNAME
  2

  9
$UCSORG
 10
0.0
 20
0.0
 30
0.0
  9
$UCSXDIR
 10
1.0
 20
0.0
 30
0.0
  9
$UCSYDIR
 10
0.0
 20
1.0
 30
0.0
  9
$UCSORTHOREF
  2

  9
$UCSORTHOVIEW
 70
     0
  9
$UCSORGTOP
 10
0.0
 20
0.0
 30
0.0
  9
$UCSORGBOTTOM
 10
0.0
 20
0.0
 30
0.0
  9
$UCSORGLEFT
 10
0.0
 20
0.0
 30
0.0
  9
$UCSORGRIGHT
 10
0.0
 20
0.0
 30
0.0
  9
$UCSORGFRONT
 10
0.0
 20
0.0
 30
0.0
  9
$UCSORGBACK
 10
0.0
 20
0.0
 30
0.0
  9
$PUCSBASE
  2

  9
$PUCSNAME
  2

  9
$PUCSORG
 10
0.0
 20
0.0
 30
0.0
  9
$PUCSXDIR
 10
1.0
 20
0.0
 30
0.0
  9
$PUCSYDIR
 10
0.0
 20
1.0
 30
0.0
  9
$PUCSORTHOREF
  2

  9
$PUCSORTHOVIEW
 70
     0
  9
$PUCSORGTOP
 10
0.0
 20
0.0
 30
0.0
  9
$PUCSORGBOTTOM
 10
0.0
 20
0.0
 30
0.0
  9
$PUCSORGLEFT
 10
0.0
 20
0.0
 30
0.0
  9
$PUCSORGRIGHT
 10
0.0
 20
0.0
 30
0.0
  9
$PUCSORGFRONT
 10
0.0
 20
0.0
 30
0.0
  9
$PUCSORGBACK
 10
0.0
 20
0.0
 30
0.0
  9
$USERI1
 70
     0
  9
$USERI2
 70
     0
  9
$USERI3
 70
     0
  9
$USERI4
 70
     0
  9
$USERI5
 70
     0
  9
$USERR1
 40
0.0
  9
$USERR2
 40
0.0
  9
$USERR3
 40
0.0
  9
$USERR4
 40
0.0
  9
$USERR5
 40
0.0
  9
$WORLDVIEW
 70
     1
  9
$SHADEDGE
 70
     3
  9
$SHADEDIF
 70
    70
  9
$TILEMODE
 70
     1
  9
$MAXACTVP
 70
    64
  9
$PINSBASE
 10
0.0
 20
0.0
 30
0.0
  9
$PLIMCHECK
 70
     0
  9
$PEXTMIN
 10
1.000000000000000E+20
 20
1.000000000000000E+20
 30
1.000000000000000E+20
  9
$PEXTMAX
 10
-1.000000000000000E+20
 20
-1.000000000000000E+20
 30
-1.000000000000000E+20
  9
$PLIMMIN
 10
0.0
 20
0.0
  9
$PLIMMAX
 10
12.0
 20
9.0
  9
$UNITMODE
 70
     0
  9
$VISRETAIN
 70
     0
  9
$PLINEGEN
 70
     1
  9
$PSLTSCALE
 70
     0
  9
$TREEDEPTH
 70
  3020
  9
$CMLSTYLE
  2
Standard
  9
$CMLJUST
 70
     0
  9
$CMLSCALE
 40
1.0
  9
$PROXYGRAPHICS
 70
     1
  9
$MEASUREMENT
 70
     0
  9
$CELWEIGHT
370
    -1
  9
$ENDCAPS
280
     0
  9
$JOINSTYLE
280
     0
  9
$LWDISPLAY
290
     0
  9
$INSUNITS
 70
     0
  9
$HYPERLINKBASE
  1

  9
$STYLESHEET
  1

  9
$XEDIT
290
     1
  9
$CEPSNTYPE
380
     0
  9
$PSTYLEMODE
290
     1
  9
$FINGERPRINTGUID
  2
{6719DE7E-111E-4CDB-943F-4D25792C6EB2}
  9
$VERSIONGUID
  2
{334F19F5-4581-42CA-A3DD-757025D70C40}
  9
$EXTNAMES
290
     1
  9
$PSVPSCALE
 40
0.0
  9
$OLESTARTUP
290
     0
  0
ENDSEC
  0
SECTION
  2
CLASSES
  0
CLASS
  1
ACDBDICTIONARYWDFLT
  2
AcDbDictionaryWithDefault
  3
ObjectDBX Classes
 90
        0
280
     0
281
     0
  0
CLASS
  1
MATERIAL
  2
AcDbMaterial
  3
ObjectDBX Classes
 90
     1153
280
     0
281
     0
  0
CLASS
  1
VISUALSTYLE
  2
AcDbVisualStyle
  3
ObjectDBX Classes
 90
     4095
280
     0
281
     0
  0
CLASS
  1
SCALE
  2
AcDbScale
  3
ObjectDBX Classes
 90
     1153
280
     0
281
     0
  0
CLASS
  1
TABLESTYLE
  2
AcDbTableStyle
  3
ObjectDBX Classes
 90
     4095
280
     0
281
     0
  0
CLASS
  1
MLEADERSTYLE
  2
AcDbMLeaderStyle
  3
ACDB_MLEADERSTYLE_CLASS
 90
     4095
280
     0
281
     0
  0
CLASS
  1
ACDBSECTIONVIEWSTYLE
  2
AcDbSectionViewStyle
  3
ObjectDBX Classes
 90
     1025
280
     0
281
     0
  0
CLASS
  1
ACDBDETAILVIEWSTYLE
  2
AcDbDetailViewStyle
  3
ObjectDBX Classes
 90
     1025
280
     0
281
     0
  0
CLASS
  1
DICTIONARYVAR
  2
AcDbDictionaryVar
  3
ObjectDBX Classes
 90
        0
280
     0
281
     0
  0
CLASS
  1
CELLSTYLEMAP
  2
AcDbCellStyleMap
  3
ObjectDBX Classes
 90
     1152
280
     0
281
     0
  0
CLASS
  1
ACDBPLACEHOLDER
  2
AcDbPlaceHolder
  3
ObjectDBX Classes
 90
        0
280
     0
281
     0
  0
CLASS
  1
LAYOUT
  2
AcDbLayout
  3
ObjectDBX Classes
 90
        0
280
     0
281
     0
  0
ENDSEC
  0
SECTION
  2
TABLES
  0
TABLE
  2
VPORT
  5
2C4
330
0
100
AcDbSymbolTable
 70
     1
  0
VPORT
  5
330
330
2C4
100
AcDbSymbolTableRecord
100
AcDbViewportTableRecord
  2
*ACTIVE
 70
     0
 10
0.0
 20
0.0
 11
1.0
 21
1.0
 12
0.0000062864287429
 22
14.68185932708911
 13
0.0
 23
0.0
 14
1.0
 24
1.0
 15
0.0
 25
0.0
 16
0.0
 26
0.0
 36
1.0
 17
0.0
 27
0.0
 37
0.0
 40
4035.512604939408
 41
2.322344322344322
 42
50.0
 43
0.0
 44
0.0
 50
0.0
 51
0.0
 71
     0
 72
  2000
 73
     1
 74
     1
 75
     0
 76
     0
 77
     0
 78
     0
281
     0
 65
     1
110
0.0
120
0.0
130
0.0
111
1.0
121
0.0
131
0.0
112
0.0
122
1.0
132
0.0
 79
     0
146
0.0
1001
ACAD_NAV_VCDISPLAY
1070
     3
  0
ENDTAB
  0
TABLE
  2
LTYPE
  5
2C1
330
0
100
AcDbSymbolTable
 70
    13
  0
LTYPE
  5
316
330
2C1
100
AcDbSymbolTableRecord
100
AcDbLinetypeTableRecord
  2
ByBlock
 70
     0
  3

 72
    65
 73
     0
 40
0.0
  0
LTYPE
  5
317
330
2C1
100
AcDbSymbolTableRecord
100
AcDbLinetypeTableRecord
  2
ByLayer
 70
     0
  3

 72
    65
 73
     0
 40
0.0
  0
LTYPE
  5
318
330
2C1
100
AcDbSymbolTableRecord
100
AcDbLinetypeTableRecord
  2
CONTINUOUS
 70
     0
  3
Solid line
 72
    65
 73
     0
 40
0.0
  0
ENDTAB
  0
TABLE
  2
LAYER
  5
2BE
330
0
100
AcDbSymbolTable
 70
     5
  0
LAYER
  5
310
102
{ACAD_XDICTIONARY
360
347
102
}
330
2BE
100
AcDbSymbolTableRecord
100
AcDbLayerTableRecord
  2
0
 70
     0
 62
     7
  6
CONTINUOUS
370
    -3
390
2CB
  0
LAYER
  5
32F
102
{ACAD_XDICTIONARY
360
349
102
}
330
2BE
100
AcDbSymbolTableRecord
100
AcDbLayerTableRecord
  2
DATA
 70
     0
 62
     7
  6
CONTINUOUS
370
    -3
390
2CB
  0
LAYER
  5
33D
102
{ACAD_XDICTIONARY
360
34B
102
}
330
2BE
100
AcDbSymbolTableRecord
100
AcDbLayerTableRecord
  2
HIBINO-BASE
 70
     0
 62
     7
  6
CONTINUOUS
370
    -3
390
2CB
  0
LAYER
  5
33E
102
{ACAD_XDICTIONARY
360
34D
102
}
330
2BE
100
AcDbSymbolTableRecord
100
AcDbLayerTableRecord
  2
SPEC
 70
     0
 62
     7
  6
CONTINUOUS
370
    -3
390
2CB
  0
LAYER
  5
33F
102
{ACAD_XDICTIONARY
360
34F
102
}
330
2BE
100
AcDbSymbolTableRecord
100
AcDbLayerTableRecord
  2
DIMNSIONS
 70
     0
 62
     7
  6
CONTINUOUS
370
    -3
390
2CB
  0
ENDTAB
  0
TABLE
  2
STYLE
  5
2BF
330
0
100
AcDbSymbolTable
 70
     3
  0
STYLE
  5
311
330
2BF
100
AcDbSymbolTableRecord
100
AcDbTextStyleTableRecord
  2
STANDARD
 70
     0
 40
0.0
 41
1.0
 50
0.0
 71
     0
 42
0.0
  3
txt
  4
BIGFONT.SHX
  0
STYLE
  5
340
330
2BF
100
AcDbSymbolTableRecord
100
AcDbTextStyleTableRecord
  2
_______
 70
     0
 40
0.0
 41
1.0
 50
0.0
 71
     0
 42
0.0
  3

  4
ＭＳ ゴシック
  0
ENDTAB
  0
TABLE
  2
VIEW
  5
2C2
330
0
100
AcDbSymbolTable
 70
     0
  0
ENDTAB
  0
TABLE
  2
UCS
  5
2C3
330
0
100
AcDbSymbolTable
 70
     0
  0
ENDTAB
  0
TABLE
  2
APPID
  5
2C5
330
0
100
AcDbSymbolTable
 70
     4
  0
APPID
  5
312
330
2C5
100
AcDbSymbolTableRecord
100
AcDbRegAppTableRecord
  2
ACAD
 70
     0
  0
APPID
  5
319
330
2C5
100
AcDbSymbolTableRecord
100
AcDbRegAppTableRecord
  2
AcadAnnotative
 70
     0
  0
APPID
  5
35B
330
2C5
100
AcDbSymbolTableRecord
100
AcDbRegAppTableRecord
  2
ACAD_NAV_VCDISPLAY
 70
     0
  0
APPID
  5
394
330
2C5
100
AcDbSymbolTableRecord
100
AcDbRegAppTableRecord
  2
ACAD_MLEADERVER
 70
     0
  0
ENDTAB
  0
TABLE
  2
DIMSTYLE
  5
2C6
330
0
100
AcDbSymbolTable
 70
     2
100
AcDbDimStyleTable
 71
     0
  0
DIMSTYLE
105
313
330
2C6
100
AcDbSymbolTableRecord
100
AcDbDimStyleTableRecord
  2
STANDARD
 70
     0
279
     2
340
311
  0
ENDTAB
  0
TABLE
  2
BLOCK_RECORD
  5
2BD
330
0
100
AcDbSymbolTable
 70
     1
  0
BLOCK_RECORD
  5
32B
330
2BD
100
AcDbSymbolTableRecord
100
AcDbBlockTableRecord
  2
*Model_Space
340
32E
  0
BLOCK_RECORD
  5
327
330
2BD
100
AcDbSymbolTableRecord
100
AcDbBlockTableRecord
  2
*Paper_Space
340
32A
  0
BLOCK_RECORD
  5
344
330
2BD
100
AcDbSymbolTableRecord
100
AcDbBlockTableRecord
  2
____
340
0
102
{BLKREFS
331
2BA
102
}
  0
ENDTAB
  0
ENDSEC
  0
SECTION
  2
BLOCKS
  0
BLOCK
  5
32C
330
32B
100
AcDbEntity
  8
0
100
AcDbBlockBegin
  2
*Model_Space
 70
     0
 10
0.0
 20
0.0
 30
0.0
  3
*Model_Space
  1

  0
ENDBLK
  5
32D
330
32B
100
AcDbEntity
  8
0
100
AcDbBlockEnd
  0
BLOCK
  5
328
330
327
100
AcDbEntity
 67
     1
  8
0
100
AcDbBlockBegin
  2
*Paper_Space
 70
     0
 10
0.0
 20
0.0
 30
0.0
  3
*Paper_Space
  1

  0
ENDBLK
  5
329
330
327
100
AcDbEntity
 67
     1
  8
0
100
AcDbBlockEnd
  0
BLOCK
  5
2F
330
344
100
AcDbEntity
  8
DATA
100
AcDbBlockBegin
  2
____
 70
     0
 10
0.0
 20
0.0
 30
0.0
  3
____
  1

  0
TEXT
  5
30
330
344
100
AcDbEntity
  8
0
 62
     7
100
AcDbText
 10
930.8250000000001
 20
716.3404296875
 30
0.0
 40
29.319140625
  1
IN/THRU
  7
_______
 72
     1
 11
997.4999999999999
 21
731.0
 31
0.0
100
AcDbText
 73
     2
  0
TEXT
  5
31
330
344
100
AcDbEntity
  8
0
 62
     7
100
AcDbText
 10
739.2749999999999
 20
257.3404296875
 30
0.0
 40
29.319140625
  1
INPUT:8\U+03A9
  7
_______
 72
     1
 11
825.0
 21
272.0
 31
0.0
100
AcDbText
 73
     2
  0
LINE
  5
32
330
344
100
AcDbEntity
  8
0
  6
Continuous
 62
     7
100
AcDbLine
 10
712.5
 20
35.0
 30
0.0
 11
712.5
 21
995.0
 31
0.0
  0
LINE
  5
33
330
344
100
AcDbEntity
  8
0
  6
Continuous
 62
     7
100
AcDbLine
 10
1252.5
 20
5.0
 30
0.0
 11
742.4999999999999
 21
5.0
 31
0.0
  0
LINE
  5
34
330
344
100
AcDbEntity
  8
0
  6
Continuous
 62
     7
100
AcDbLine
 10
1282.5
 20
995.0
 30
0.0
 11
1282.5
 21
35.0
 31
0.0
  0
LINE
  5
35
330
344
100
AcDbEntity
  8
0
  6
Continuous
 62
     7
100
AcDbLine
 10
742.4999999999999
 20
1025.0
 30
0.0
 11
1252.5
 21
1025.0
 31
0.0
  0
ARC
  5
36
330
344
100
AcDbEntity
  8
0
  6
Continuous
 62
     7
100
AcDbCircle
 10
742.4999999999999
 20
995.0
 30
0.0
 40
30.0
100
AcDbArc
 50
90.0
 51
180.0
  0
ARC
  5
37
330
344
100
AcDbEntity
  8
0
  6
Continuous
 62
     7
100
AcDbCircle
 10
1252.5
 20
995.0
 30
0.0
 40
30.0
100
AcDbArc
 50
0.0
 51
90.0
  0
ARC
  5
38
330
344
100
AcDbEntity
  8
0
  6
Continuous
 62
     7
100
AcDbCircle
 10
1252.5
 20
35.0
 30
0.0
 40
30.0
100
AcDbArc
 50
270.0
 51
0.0
  0
ARC
  5
39
330
344
100
AcDbEntity
  8
0
  6
Continuous
 62
     7
100
AcDbCircle
 10
742.4999999999999
 20
35.0
 30
0.0
 40
30.0
100
AcDbArc
 50
180.0
 51
270.0
  0
CIRCLE
  5
3A
330
344
100
AcDbEntity
  8
0
  6
Continuous
 62
     7
100
AcDbCircle
 10
997.4999999999999
 20
845.0
 30
0.0
 40
70.5
  0
LINE
  5
3B
330
344
100
AcDbEntity
  8
0
  6
Continuous
 62
     7
100
AcDbLine
 10
979.4999999999999
 20
905.0
 30
0.0
 11
1015.5
 21
905.0
 31
0.0
  0
LINE
  5
3C
330
344
100
AcDbEntity
  8
0
  6
Continuous
 62
     7
100
AcDbLine
 10
985.5
 20
785.0
 30
0.0
 11
1009.5
 21
785.0
 31
0.0
  0
LINE
  5
3D
330
344
100
AcDbEntity
  8
0
  6
Continuous
 62
     7
100
AcDbLine
 10
985.5
 20
785.0
 30
0.0
 11
985.5
 21
792.1999999999989
 31
0.0
  0
LINE
  5
3E
330
344
100
AcDbEntity
  8
0
  6
Continuous
 62
     7
100
AcDbLine
 10
1009.5
 20
785.0
 30
0.0
 11
1009.5
 21
792.1999999999989
 31
0.0
  0
LINE
  5
3F
330
344
100
AcDbEntity
  8
0
  6
Continuous
 62
     7
100
AcDbLine
 10
979.4999999999999
 20
905.0
 30
0.0
 11
979.4999999999999
 21
894.6371000000016
 31
0.0
  0
LINE
  5
40
330
344
100
AcDbEntity
  8
0
  6
Continuous
 62
     7
100
AcDbLine
 10
1015.5
 20
905.0
 30
0.0
 11
1015.5
 21
894.6371000000016
 31
0.0
  0
ARC
  5
41
330
344
100
AcDbEntity
  8
0
  6
Continuous
 62
     7
100
AcDbCircle
 10
997.4999999999999
 20
845.0
 30
0.0
 40
52.80001606448783
100
AcDbArc
 50
109.9322641506783
 51
257.196166819699
  0
ARC
  5
42
330
344
100
AcDbEntity
  8
0
  6
Continuous
 62
     7
100
AcDbCircle
 10
997.4999999999999
 20
845.0
 30
0.0
 40
52.80002102607424
100
AcDbArc
 50
282.9999995554215
 51
69.99999423796177
  0
ARC
  5
43
330
344
100
AcDbEntity
  8
0
  6
Continuous
 62
     7
100
AcDbCircle
 10
997.4999999999999
 20
845.0
 30
0.0
 40
37.20001297238294
100
AcDbArc
 50
60.00001153556008
 51
150.0000115355621
  0
LINE
  5
44
330
344
100
AcDbEntity
  8
0
  6
Continuous
 62
     7
100
AcDbLine
 10
965.2839599999987
 20
863.6001800000002
 30
0.0
 11
968.2717199999997
 21
861.875180000001
 31
0.0
  0
LINE
  5
45
330
344
100
AcDbEntity
  8
0
  6
Continuous
 62
     7
100
AcDbLine
 10
1016.099820000001
 20
877.2162800000003
 30
0.0
 11
1014.374819999999
 21
874.2284599999983
 31
0.0
  0
ARC
  5
46
330
344
100
AcDbEntity
  8
0
  6
Continuous
 62
     7
100
AcDbCircle
 10
997.4999999999999
 20
845.0
 30
0.0
 40
37.20001297238294
100
AcDbArc
 50
240.0000115355601
 51
330.0000115355623
  0
LINE
  5
47
330
344
100
AcDbEntity
  8
0
  6
Continuous
 62
     7
100
AcDbLine
 10
978.9000000000003
 20
812.7838400000015
 30
0.0
 11
980.625
 21
815.7716599999984
 31
0.0
  0
LINE
  5
48
330
344
100
AcDbEntity
  8
0
  6
Continuous
 62
     7
100
AcDbLine
 10
1029.716219999999
 20
826.40012
 30
0.0
 11
1026.7284
 21
828.1251199999996
 31
0.0
  0
ARC
  5
49
330
344
100
AcDbEntity
  8
0
  6
Continuous
 62
     7
100
AcDbCircle
 10
997.4999999999999
 20
845.0
 30
0.0
 40
33.75002298948619
100
AcDbArc
 50
149.9996696821013
 51
240.0002126043052
  0
ARC
  5
4A
330
344
100
AcDbEntity
  8
0
  6
Continuous
 62
     7
100
AcDbCircle
 10
997.4999999999999
 20
845.0
 30
0.0
 40
33.74997691220555
100
AcDbArc
 50
330.0002126043024
 51
60.00071824312144
  0
ARC
  5
4B
330
344
100
AcDbEntity
  8
0
  6
Continuous
 62
     7
100
AcDbCircle
 10
997.4999999999999
 20
845.0
 30
0.0
 40
21.5999404852534
100
AcDbArc
 50
59.99990885470507
 51
149.9999088547012
  0
ARC
  5
4C
330
344
100
AcDbEntity
  8
0
  6
Continuous
 62
     7
100
AcDbCircle
 10
997.4999999999999
 20
845.0
 30
0.0
 40
21.5999404852534
100
AcDbArc
 50
239.999908854705
 51
329.9999088547012
  0
LINE
  5
4D
330
344
100
AcDbEntity
  8
0
  6
Continuous
 62
     7
100
AcDbLine
 10
1008.299879999999
 20
863.7061400000002
 30
0.0
 11
1006.19994
 21
860.0688800000005
 31
0.0
  0
LINE
  5
4E
330
344
100
AcDbEntity
  8
0
  6
Continuous
 62
     7
100
AcDbLine
 10
978.7939799999993
 20
855.8000599999997
 30
0.0
 11
982.4311800000002
 21
853.70006
 31
0.0
  0
LINE
  5
4F
330
344
100
AcDbEntity
  8
0
  6
Continuous
 62
     7
100
AcDbLine
 10
986.6999999999988
 20
826.2939199999983
 30
0.0
 11
988.800000000001
 21
829.9311800000005
 31
0.0
  0
LINE
  5
50
330
344
100
AcDbEntity
  8
0
  6
Continuous
 62
     7
100
AcDbLine
 10
1016.20614
 20
834.2001200000012
 30
0.0
 11
1012.568880000001
 21
836.3000599999997
 31
0.0
  0
ARC
  5
51
330
344
100
AcDbEntity
  8
0
  6
Continuous
 62
     7
100
AcDbCircle
 10
997.4999999999999
 20
845.0
 30
0.0
 40
17.40001092516861
100
AcDbArc
 50
149.9997926340292
 51
240.0002336238322
  0
ARC
  5
52
330
344
100
AcDbEntity
  8
0
  6
Continuous
 62
     7
100
AcDbCircle
 10
997.4999999999999
 20
845.0
 30
0.0
 40
17.40000288672473
100
AcDbArc
 50
330.0002336238303
 51
59.99979263402765
  0
CIRCLE
  5
53
330
344
100
AcDbEntity
  8
0
  6
Continuous
 62
     7
100
AcDbCircle
 10
997.4999999999999
 20
617.0
 30
0.0
 40
70.5
  0
LINE
  5
54
330
344
100
AcDbEntity
  8
0
  6
Continuous
 62
     7
100
AcDbLine
 10
979.4999999999999
 20
677.0
 30
0.0
 11
1015.5
 21
677.0
 31
0.0
  0
LINE
  5
55
330
344
100
AcDbEntity
  8
0
  6
Continuous
 62
     7
100
AcDbLine
 10
985.5
 20
557.0
 30
0.0
 11
1009.5
 21
557.0
 31
0.0
  0
LINE
  5
56
330
344
100
AcDbEntity
  8
0
  6
Continuous
 62
     7
100
AcDbLine
 10
985.5
 20
557.0
 30
0.0
 11
985.5
 21
564.1999999999988
 31
0.0
  0
LINE
  5
57
330
344
100
AcDbEntity
  8
0
  6
Continuous
 62
     7
100
AcDbLine
 10
1009.5
 20
557.0
 30
0.0
 11
1009.5
 21
564.1999999999988
 31
0.0
  0
LINE
  5
58
330
344
100
AcDbEntity
  8
0
  6
Continuous
 62
     7
100
AcDbLine
 10
979.4999999999999
 20
677.0
 30
0.0
 11
979.4999999999999
 21
666.6371000000017
 31
0.0
  0
LINE
  5
59
330
344
100
AcDbEntity
  8
0
  6
Continuous
 62
     7
100
AcDbLine
 10
1015.5
 20
677.0
 30
0.0
 11
1015.5
 21
666.6371000000017
 31
0.0
  0
ARC
  5
5A
330
344
100
AcDbEntity
  8
0
  6
Continuous
 62
     7
100
AcDbCircle
 10
997.4999999999999
 20
617.0
 30
0.0
 40
52.80001606448783
100
AcDbArc
 50
109.9322641506783
 51
257.196166819699
  0
ARC
  5
5B
330
344
100
AcDbEntity
  8
0
  6
Continuous
 62
     7
100
AcDbCircle
 10
997.4999999999999
 20
617.0
 30
0.0
 40
52.80002102607424
100
AcDbArc
 50
282.9999995554215
 51
69.99999423796177
  0
ARC
  5
5C
330
344
100
AcDbEntity
  8
0
  6
Continuous
 62
     7
100
AcDbCircle
 10
997.4999999999999
 20
617.0
 30
0.0
 40
37.20001297238294
100
AcDbArc
 50
60.00001153556008
 51
150.0000115355621
  0
LINE
  5
5D
330
344
100
AcDbEntity
  8
0
  6
Continuous
 62
     7
100
AcDbLine
 10
965.2839599999987
 20
635.6001800000004
 30
0.0
 11
968.2717199999997
 21
633.8751800000007
 31
0.0
  0
LINE
  5
5E
330
344
100
AcDbEntity
  8
0
  6
Continuous
 62
     7
100
AcDbLine
 10
1016.099820000001
 20
649.2162800000005
 30
0.0
 11
1014.374819999999
 21
646.2284599999984
 31
0.0
  0
ARC
  5
5F
330
344
100
AcDbEntity
  8
0
  6
Continuous
 62
     7
100
AcDbCircle
 10
997.4999999999999
 20
617.0
 30
0.0
 40
37.20001297238294
100
AcDbArc
 50
240.0000115355601
 51
330.0000115355623
  0
LINE
  5
60
330
344
100
AcDbEntity
  8
0
  6
Continuous
 62
     7
100
AcDbLine
 10
978.9000000000003
 20
584.7838400000019
 30
0.0
 11
980.625
 21
587.7716599999985
 31
0.0
  0
LINE
  5
61
330
344
100
AcDbEntity
  8
0
  6
Continuous
 62
     7
100
AcDbLine
 10
1029.716219999999
 20
598.4001200000001
 30
0.0
 11
1026.7284
 21
600.1251199999998
 31
0.0
  0
ARC
  5
62
330
344
100
AcDbEntity
  8
0
  6
Continuous
 62
     7
100
AcDbCircle
 10
997.4999999999999
 20
617.0
 30
0.0
 40
33.75002298948619
100
AcDbArc
 50
149.9996696821013
 51
240.0002126043052
  0
ARC
  5
63
330
344
100
AcDbEntity
  8
0
  6
Continuous
 62
     7
100
AcDbCircle
 10
997.4999999999999
 20
617.0
 30
0.0
 40
33.74997691220555
100
AcDbArc
 50
330.0002126043024
 51
60.00071824312152
  0
ARC
  5
64
330
344
100
AcDbEntity
  8
0
  6
Continuous
 62
     7
100
AcDbCircle
 10
997.4999999999999
 20
617.0
 30
0.0
 40
21.5999404852534
100
AcDbArc
 50
59.99990885470507
 51
149.9999088547012
  0
ARC
  5
65
330
344
100
AcDbEntity
  8
0
  6
Continuous
 62
     7
100
AcDbCircle
 10
997.4999999999999
 20
617.0
 30
0.0
 40
21.5999404852534
100
AcDbArc
 50
239.999908854705
 51
329.9999088547012
  0
LINE
  5
66
330
344
100
AcDbEntity
  8
0
  6
Continuous
 62
     7
100
AcDbLine
 10
1008.299879999999
 20
635.70614
 30
0.0
 11
1006.19994
 21
632.0688800000007
 31
0.0
  0
LINE
  5
67
330
344
100
AcDbEntity
  8
0
  6
Continuous
 62
     7
100
AcDbLine
 10
978.7939799999993
 20
627.8000599999995
 30
0.0
 11
982.4311800000002
 21
625.7000600000001
 31
0.0
  0
LINE
  5
68
330
344
100
AcDbEntity
  8
0
  6
Continuous
 62
     7
100
AcDbLine
 10
986.6999999999988
 20
598.2939199999983
 30
0.0
 11
988.800000000001
 21
601.9311800000004
 31
0.0
  0
LINE
  5
69
330
344
100
AcDbEntity
  8
0
  6
Continuous
 62
     7
100
AcDbLine
 10
1016.20614
 20
606.2001200000012
 30
0.0
 11
1012.568880000001
 21
608.3000599999995
 31
0.0
  0
ARC
  5
6A
330
344
100
AcDbEntity
  8
0
  6
Continuous
 62
     7
100
AcDbCircle
 10
997.4999999999999
 20
617.0
 30
0.0
 40
17.40001092516861
100
AcDbArc
 50
149.9997926340292
 51
240.0002336238322
  0
ARC
  5
6B
330
344
100
AcDbEntity
  8
0
  6
Continuous
 62
     7
100
AcDbCircle
 10
997.4999999999999
 20
617.0
 30
0.0
 40
17.40000288672473
100
AcDbArc
 50
330.0002336238303
 51
59.99979263402781
  0
LINE
  5
6C
330
344
100
AcDbEntity
  8
0
  6
Continuous
 62
     7
100
AcDbLine
 10
937.5
 20
215.0
 30
0.0
 11
937.5
 21
329.0
 31
0.0
  0
LINE
  5
6D
330
344
100
AcDbEntity
  8
0
  6
Continuous
 62
     7
100
AcDbLine
 10
1039.5
 20
197.0
 30
0.0
 11
955.4999999999999
 21
197.0
 31
0.0
  0
LINE
  5
6E
330
344
100
AcDbEntity
  8
0
  6
Continuous
 62
     7
100
AcDbLine
 10
1057.5
 20
329.0
 30
0.0
 11
1057.5
 21
215.0
 31
0.0
  0
LINE
  5
6F
330
344
100
AcDbEntity
  8
0
  6
Continuous
 62
     7
100
AcDbLine
 10
955.4999999999999
 20
347.0
 30
0.0
 11
1039.5
 21
347.0
 31
0.0
  0
ARC
  5
70
330
344
100
AcDbEntity
  8
0
  6
Continuous
 62
     7
100
AcDbCircle
 10
955.4999999999999
 20
329.0
 30
0.0
 40
18.0
100
AcDbArc
 50
90.0
 51
180.0
  0
ARC
  5
71
330
344
100
AcDbEntity
  8
0
  6
Continuous
 62
     7
100
AcDbCircle
 10
1039.5
 20
329.0
 30
0.0
 40
18.0
100
AcDbArc
 50
0.0
 51
90.0
  0
ARC
  5
72
330
344
100
AcDbEntity
  8
0
  6
Continuous
 62
     7
100
AcDbCircle
 10
955.4999999999999
 20
215.0
 30
0.0
 40
18.0
100
AcDbArc
 50
180.0
 51
270.0
  0
ARC
  5
73
330
344
100
AcDbEntity
  8
0
  6
Continuous
 62
     7
100
AcDbCircle
 10
1039.5
 20
215.0
 30
0.0
 40
18.0
100
AcDbArc
 50
270.0
 51
0.0
  0
LINE
  5
74
330
344
100
AcDbEntity
  8
0
  6
Continuous
 62
     7
100
AcDbLine
 10
952.5
 20
257.0
 30
0.0
 11
952.5
 21
317.0
 31
0.0
  0
LINE
  5
75
330
344
100
AcDbEntity
  8
0
  6
Continuous
 62
     7
100
AcDbLine
 10
1042.5
 20
257.0
 30
0.0
 11
952.5
 21
257.0
 31
0.0
  0
LINE
  5
76
330
344
100
AcDbEntity
  8
0
  6
Continuous
 62
     7
100
AcDbLine
 10
1042.5
 20
317.0
 30
0.0
 11
1042.5
 21
257.0
 31
0.0
  0
LINE
  5
77
330
344
100
AcDbEntity
  8
0
  6
Continuous
 62
     7
100
AcDbLine
 10
952.5
 20
317.0
 30
0.0
 11
1042.5
 21
317.0
 31
0.0
  0
TEXT
  5
78
330
344
100
AcDbEntity
  8
0
 62
     7
100
AcDbText
 10
940.3500000000001
 20
352.3578125
 30
0.0
 40
29.319140625
  1
NL4\U+00B11
  7
_______
 72
     1
 11
997.4999999999999
 21
347.0
 31
0.0
100
AcDbText
 73
     1
  0
TEXT
  5
79
330
344
100
AcDbEntity
  8
0
 62
     7
100
AcDbText
 10
940.3500000000001
 20
164.234
 30
0.0
 40
29.319140625
  1
NL4\U+00B12
  7
_______
 72
     1
 11
997.4999999999999
 21
193.553140625
 31
0.0
100
AcDbText
 73
     3
  0
LINE
  5
7A
330
344
100
AcDbEntity
  8
0
  6
Continuous
 62
     7
100
AcDbLine
 10
997.4999999999999
 20
750.0500000000011
 30
0.0
 11
997.4999999999999
 21
767.0
 31
0.0
  0
LINE
  5
7B
330
344
100
AcDbEntity
  8
0
  6
Continuous
 62
     7
100
AcDbLine
 10
997.4999999999999
 20
695.0
 30
0.0
 11
997.4999999999999
 21
711.9499999999988
 31
0.0
  0
TEXT
  5
7C
330
344
100
AcDbEntity
  8
0
 62
     7
100
AcDbText
 10
743.6249999999984
 20
876.5404296875017
 30
0.0
 40
29.319140625
  1
STX818S
  7
_______
 72
     1
 11
810.2999999999983
 21
891.2000000000016
 31
0.0
100
AcDbText
 73
     2
  0
ENDBLK
  5
7D
330
344
100
AcDbEntity
  8
DATA
100
AcDbBlockEnd
  0
ENDSEC
  0
SECTION
  2
ENTITIES
  0
LINE
  5
7E
330
32B
100
AcDbEntity
  8
HIBINO-BASE
  6
Continuous
 62
     7
100
AcDbLine
 10
-1349.999999999999
 20
2017.659075
 30
0.0
 11
1350.0
 21
2017.659075
 31
0.0
  0
LINE
  5
7F
330
32B
100
AcDbEntity
  8
HIBINO-BASE
  6
Continuous
 62
     7
100
AcDbLine
 10
1350.0
 20
-1882.340925
 30
0.0
 11
-1349.999999999999
 21
-1882.340925
 31
0.0
  0
LINE
  5
80
330
32B
100
AcDbEntity
  8
HIBINO-BASE
  6
Continuous
 62
     7
100
AcDbLine
 10
-1349.999999999999
 20
-1882.340925
 30
0.0
 11
-1349.999999999999
 21
2017.659075
 31
0.0
  0
LINE
  5
81
330
32B
100
AcDbEntity
  8
HIBINO-BASE
  6
Continuous
 62
     7
100
AcDbLine
 10
1350.0
 20
2017.659075
 30
0.0
 11
1350.0
 21
-1882.340925
 31
0.0
  0
LINE
  5
82
330
32B
100
AcDbEntity
  8
HIBINO-BASE
  6
Continuous
 62
     7
100
AcDbLine
 10
0.0000000000002203
 20
-1544.840925
 30
0.0
 11
1350.0
 21
-1544.840925
 31
0.0
  0
LINE
  5
83
330
32B
100
AcDbEntity
  8
HIBINO-BASE
  6
Continuous
 62
     7
100
AcDbLine
 10
0.0000000000002203
 20
-1882.340925
 30
0.0
 11
0.0000000000002203
 21
-1544.840925
 31
0.0
  0
TEXT
  5
84
330
32B
100
AcDbEntity
  8
HIBINO-BASE
 62
     7
100
AcDbText
 10
13.5000000000003
 20
-1582.471325
 30
0.0
 40
24.4326171875
  1
NOTE
 41
0.7
 11
13.5000000000003
 21
-1558.0387078125
 31
0.0
100
AcDbText
 73
     3
  0
LINE
  5
85
330
32B
100
AcDbEntity
  8
HIBINO-BASE
  6
Continuous
 62
     7
100
AcDbLine
 10
525.0000000000006
 20
-1882.340925
 30
0.0
 11
525.0000000000006
 21
-1544.840925
 31
0.0
  0
TEXT
  5
86
330
32B
100
AcDbEntity
  8
HIBINO-BASE
 62
     7
100
AcDbText
 10
538.5000000000001
 20
-1582.471325
 30
0.0
 40
24.4326171875
  1
TITLE
 41
0.7
 11
538.5000000000001
 21
-1558.0387078125
 31
0.0
100
AcDbText
 73
     3
  0
LINE
  5
87
330
32B
100
AcDbEntity
  8
HIBINO-BASE
  6
Continuous
 62
     7
100
AcDbLine
 10
0.0000000000002203
 20
-1732.340925
 30
0.0
 11
1350.0
 21
-1732.340925
 31
0.0
  0
TEXT
  5
88
330
32B
100
AcDbEntity
  8
HIBINO-BASE
 62
     7
100
AcDbText
 10
726.0
 20
-1769.126525
 30
0.0
 40
24.4326171875
  1
DRAWN
 41
0.7
 11
726.0
 21
-1744.6939078125
 31
0.0
100
AcDbText
 73
     3
  0
TEXT
  5
89
330
32B
100
AcDbEntity
  8
HIBINO-BASE
 62
     7
100
AcDbText
 10
351.0000000000001
 20
-1769.126525
 30
0.0
 40
24.4326171875
  1
DATE
 41
0.7
 11
351.0000000000001
 21
-1744.6939078125
 31
0.0
100
AcDbText
 73
     3
  0
TEXT
  5
8A
330
32B
100
AcDbEntity
  8
HIBINO-BASE
 62
     7
100
AcDbText
 10
201.0000000000001
 20
-1769.126525
 30
0.0
 40
24.4326171875
  1
SCALE
 41
0.7
 11
201.0000000000001
 21
-1744.6939078125
 31
0.0
100
AcDbText
 73
     3
  0
TEXT
  5
8B
330
32B
100
AcDbEntity
  8
HIBINO-BASE
 62
     7
100
AcDbText
 10
538.5000000000001
 20
-1769.126525
 30
0.0
 40
24.4326171875
  1
DESIGN
 41
0.7
 11
538.5000000000001
 21
-1744.6939078125
 31
0.0
100
AcDbText
 73
     3
  0
TEXT
  5
8C
330
32B
100
AcDbEntity
  8
HIBINO-BASE
 62
     7
100
AcDbText
 10
1101.0
 20
-1769.126525
 30
0.0
 40
24.4326171875
  1
DRAWING NO.
 41
0.7
 11
1101.0
 21
-1744.6939078125
 31
0.0
100
AcDbText
 73
     3
  0
TEXT
  5
8D
330
32B
100
AcDbEntity
  8
HIBINO-BASE
 62
     7
100
AcDbText
 10
913.4999999999999
 20
-1769.126525
 30
0.0
 40
24.4326171875
  1
CHECK
 41
0.7
 11
913.4999999999999
 21
-1744.6939078125
 31
0.0
100
AcDbText
 73
     3
  0
LINE
  5
8E
330
32B
100
AcDbEntity
  8
HIBINO-BASE
  6
Continuous
 62
     7
100
AcDbLine
 10
215.6250000000002
 20
-1863.590925
 30
0.0
 11
271.8750000000004
 21
-1807.340925
 31
0.0
  0
TEXT
  5
8F
330
32B
100
AcDbEntity
  8
HIBINO-BASE
 62
     7
100
AcDbText
 10
206.2500000000002
 20
-1823.975075
 30
0.0
 40
24.4326171875
  1
1
 41
0.7
 11
206.2500000000002
 21
-1799.5424578125
 31
0.0
100
AcDbText
 73
     3
  0
LINE
  5
90
330
32B
100
AcDbEntity
  8
HIBINO-BASE
  6
Continuous
 62
     7
100
AcDbLine
 10
187.5000000000002
 20
-1882.340925
 30
0.0
 11
187.5000000000002
 21
-1732.340925
 31
0.0
  0
LINE
  5
91
330
32B
100
AcDbEntity
  8
HIBINO-BASE
  6
Continuous
 62
     7
100
AcDbLine
 10
337.5
 20
-1882.340925
 30
0.0
 11
337.5
 21
-1732.340925
 31
0.0
  0
LINE
  5
92
330
32B
100
AcDbEntity
  8
HIBINO-BASE
  6
Continuous
 62
     7
100
AcDbLine
 10
712.4999999999999
 20
-1732.340925
 30
0.0
 11
712.4999999999999
 21
-1882.340925
 31
0.0
  0
LINE
  5
93
330
32B
100
AcDbEntity
  8
HIBINO-BASE
  6
Continuous
 62
     7
100
AcDbLine
 10
1087.5
 20
-1732.340925
 30
0.0
 11
1087.5
 21
-1882.340925
 31
0.0
  0
LINE
  5
94
330
32B
100
AcDbEntity
  8
HIBINO-BASE
  6
Continuous
 62
     7
100
AcDbLine
 10
900.0
 20
-1882.340925
 30
0.0
 11
900.0
 21
-1732.340925
 31
0.0
  0
TEXT
  5
95
330
32B
100
AcDbEntity
  8
HIBINO-BASE
 62
     7
100
AcDbText
 10
350.3481000000004
 20
-1839.386224999999
 30
0.0
 40
24.4326171875
  1
'15.01.
 41
0.7
 11
350.3481000000004
 21
-1814.953607812499
 31
0.0
100
AcDbText
 73
     3
  0
TEXT
  5
96
330
32B
100
AcDbEntity
  8
HIBINO-BASE
 62
     7
100
AcDbText
 10
262.5000000000003
 20
-1852.100075
 30
0.0
 40
24.4326171875
  1
15
 41
0.7
 11
262.5000000000003
 21
-1827.6674578125
 31
0.0
100
AcDbText
 73
     3
  0
TEXT
  5
97
330
32B
100
AcDbEntity
  8
HIBINO-BASE
 62
     7
100
AcDbText
 10
735.0871501655194
 20
-1839.386224999999
 30
0.0
 40
24.4326171875
  1
N.Sasaki
 41
0.7
 11
735.0871501655194
 21
-1814.953607812499
 31
0.0
100
AcDbText
 73
     3
  0
TEXT
  5
98
330
32B
100
AcDbEntity
  8
HIBINO-BASE
 62
     7
100
AcDbText
 10
58.25000000000053
 20
-1852.700925
 30
0.0
 40
48.865234375
  1
A4
 41
0.7
 11
58.25000000000053
 21
-1803.835690625
 31
0.0
100
AcDbText
 73
     3
  0
TEXT
  5
99
330
32B
100
AcDbEntity
  8
HIBINO-BASE
 62
     7
100
AcDbText
 10
14.37500000000014
 20
-1771.63275
 30
0.0
 40
24.4326171875
  1
PAPER SIZE
 41
0.7
 11
14.37500000000015
 21
-1747.2001328125
 31
0.0
100
AcDbText
 73
     3
  0
TEXT
  5
9A
330
32B
100
AcDbEntity
  8
HIBINO-BASE
 62
     7
100
AcDbText
 10
-1242.239999999999
 20
-1978.471092
 30
0.0
 40
54.00066269531249
  1
Hibino Corporation
 41
0.7
 11
-1242.239999999999
 21
-1924.470429304688
 31
0.0
100
AcDbText
 73
     3
  0
TEXT
  5
9B
330
32B
100
AcDbEntity
  8
HIBINO-BASE
 62
     7
100
AcDbText
 10
751.0258500000003
 20
-1978.471092
 30
0.0
 40
54.00066269531249
  1
ヒビノ株式会社
 41
0.7
 11
751.0258500000003
 21
-1924.470429304688
 31
0.0
100
AcDbText
 73
     3
  0
TEXT
  5
9C
330
32B
100
AcDbEntity
  8
SPEC
 62
     7
100
AcDbText
 10
-1218.75
 20
1870.344459999999
 30
0.0
 40
36.64892578125
  1
仕様
 41
0.7
 11
-1218.75
 21
1906.993385781249
 31
0.0
100
AcDbText
 73
     3
  0
TEXT
  5
9D
330
32B
100
AcDbEntity
  8
SPEC
 62
     7
100
AcDbText
 10
-1224.0
 20
1636.264176666666
 30
0.0
 40
28.50472005208333
  1
感度(1W、1m)
 41
0.7
 11
-1224.0
 21
1664.768896718749
 31
0.0
100
AcDbText
 73
     3
  0
TEXT
  5
9E
330
32B
100
AcDbEntity
  8
SPEC
 62
     7
100
AcDbText
 10
-1224.0
 20
1692.514176666666
 30
0.0
 40
28.50472005208333
  1
最大音圧レベル
 41
0.7
 11
-1224.0
 21
1721.018896718749
 31
0.0
100
AcDbText
 73
     3
  0
LINE
  5
9F
330
32B
100
AcDbEntity
  8
SPEC
  6
Continuous
 62
     7
100
AcDbLine
 10
-1237.5
 20
1849.44541
 30
0.0
 11
975.0000000000003
 21
1849.44541
 31
0.0
  0
LINE
  5
A0
330
32B
100
AcDbEntity
  8
SPEC
  6
Continuous
 62
     7
100
AcDbLine
 10
-1237.5
 20
1793.195409999999
 30
0.0
 11
975.0000000000003
 21
1793.195409999999
 31
0.0
  0
LINE
  5
A1
330
32B
100
AcDbEntity
  8
SPEC
  6
Continuous
 62
     7
100
AcDbLine
 10
-1237.5
 20
1624.445409999999
 30
0.0
 11
975.0000000000003
 21
1624.445409999999
 31
0.0
  0
LINE
  5
A2
330
32B
100
AcDbEntity
  8
SPEC
  6
Continuous
 62
     7
100
AcDbLine
 10
-1237.5
 20
1680.695409999999
 30
0.0
 11
975.0000000000003
 21
1680.695409999999
 31
0.0
  0
LINE
  5
A3
330
32B
100
AcDbEntity
  8
SPEC
  6
Continuous
 62
     7
100
AcDbLine
 10
-1237.5
 20
1736.945409999998
 30
0.0
 11
975.0000000000003
 21
1736.945409999998
 31
0.0
  0
TEXT
  5
A4
330
32B
100
AcDbEntity
  8
SPEC
 62
     7
100
AcDbText
 10
-736.5
 20
1805.014176666665
 30
0.0
 40
28.50472005208333
  1
サブウーファー
 41
0.7
 11
-736.5
 21
1833.518896718748
 31
0.0
100
AcDbText
 73
     3
  0
LINE
  5
A5
330
32B
100
AcDbEntity
  8
SPEC
  6
Continuous
 62
     7
100
AcDbLine
 10
-1237.5
 20
1849.44541
 30
0.0
 11
-1237.5
 21
1174.445410000001
 31
0.0
  0
LINE
  5
A6
330
32B
100
AcDbEntity
  8
SPEC
  6
Continuous
 62
     7
100
AcDbLine
 10
-750.0
 20
1849.44541
 30
0.0
 11
-750.0
 21
1174.445410000001
 31
0.0
  0
LINE
  5
A7
330
32B
100
AcDbEntity
  8
SPEC
  6
Continuous
 62
     7
100
AcDbLine
 10
975.0000000000003
 20
1849.44541
 30
0.0
 11
975.0000000000003
 21
1174.445410000001
 31
0.0
  0
TEXT
  5
A8
330
32B
100
AcDbEntity
  8
SPEC
 62
     7
100
AcDbText
 10
-1224.0
 20
1805.014176666665
 30
0.0
 40
28.50472005208333
  1
形式
 41
0.7
 11
-1224.0
 21
1833.518896718748
 31
0.0
100
AcDbText
 73
     3
  0
TEXT
  5
A9
330
32B
100
AcDbEntity
  8
SPEC
 62
     7
100
AcDbText
 10
-1224.0
 20
1748.764176666666
 30
0.0
 40
28.50472005208333
  1
周波数レンジ(-10dB)
 41
0.7
 11
-1224.0
 21
1777.268896718749
 31
0.0
100
AcDbText
 73
     3
  0
TEXT
  5
AA
330
32B
100
AcDbEntity
  8
SPEC
 62
     7
100
AcDbText
 10
-736.5
 20
1636.264176666666
 30
0.0
 40
28.50472005208333
  1
96dB SPL
 41
0.7
 11
-736.5
 21
1664.768896718749
 31
0.0
100
AcDbText
 73
     3
  0
TEXT
  5
AB
330
32B
100
AcDbEntity
  8
SPEC
 62
     7
100
AcDbText
 10
-736.5
 20
1748.764176666666
 30
0.0
 40
28.50472005208333
  1
35Hz～250Hz
 41
0.7
 11
-736.5
 21
1777.268896718749
 31
0.0
100
AcDbText
 73
     3
  0
TEXT
  5
AC
330
32B
100
AcDbEntity
  8
SPEC
 62
     7
100
AcDbText
 10
-736.5
 20
1580.014176666666
 30
0.0
 40
28.50472005208333
  1
8\U+03A9
 41
0.7
 11
-736.5
 21
1608.518896718749
 31
0.0
100
AcDbText
 73
     3
  0
LINE
  5
AD
330
32B
100
AcDbEntity
  8
SPEC
  6
Continuous
 62
     7
100
AcDbLine
 10
-1237.5
 20
1511.945409999998
 30
0.0
 11
975.0000000000003
 21
1511.945409999998
 31
0.0
  0
TEXT
  5
AE
330
32B
100
AcDbEntity
  8
SPEC
 62
     7
100
AcDbText
 10
-736.5
 20
1467.514176666665
 30
0.0
 40
28.50472005208333
  1
460mm(2242H)
 41
0.7
 11
-736.5
 21
1496.018896718749
 31
0.0
100
AcDbText
 73
     3
  0
TEXT
  5
AF
330
32B
100
AcDbEntity
  8
SPEC
 62
     7
100
AcDbText
 10
-736.5
 20
1523.764176666666
 30
0.0
 40
28.50472005208333
  1
1,000W(連続)、4,000W(ピーク)
 41
0.7
 11
-736.5
 21
1552.268896718749
 31
0.0
100
AcDbText
 73
     3
  0
LINE
  5
B0
330
32B
100
AcDbEntity
  8
SPEC
  6
Continuous
 62
     7
100
AcDbLine
 10
-1237.5
 20
1568.195409999999
 30
0.0
 11
975.0000000000003
 21
1568.195409999999
 31
0.0
  0
TEXT
  5
B1
330
32B
100
AcDbEntity
  8
SPEC
 62
     7
100
AcDbText
 10
-1225.0
 20
1579.455343806403
 30
0.0
 40
28.50472005208333
  1
公称インピーダンス
 41
0.7
 11
-1225.0
 21
1607.960063858486
 31
0.0
100
AcDbText
 73
     3
  0
TEXT
  5
B2
330
32B
100
AcDbEntity
  8
SPEC
 62
     7
100
AcDbText
 10
-1225.0
 20
1527.002694155994
 30
0.0
 40
28.50472005208333
  1
許容入力
 41
0.7
 11
-1225.0
 21
1555.507414208077
 31
0.0
100
AcDbText
 73
     3
  0
TEXT
  5
B3
330
32B
100
AcDbEntity
  8
SPEC
 62
     7
100
AcDbText
 10
-1225.0
 20
1468.144166666666
 30
0.0
 40
28.50472005208333
  1
ドライバー構成
 41
0.7
 11
-1225.0
 21
1496.648886718749
 31
0.0
100
AcDbText
 73
     3
  0
TEXT
  5
B4
330
32B
100
AcDbEntity
  8
SPEC
 62
     7
100
AcDbText
 10
-736.5
 20
1692.514176666665
 30
0.0
 40
28.50472005208333
  1
132dB SPL(ピーク)
 41
0.7
 11
-736.5
 21
1721.018896718749
 31
0.0
100
AcDbText
 73
     3
  0
LINE
  5
B5
330
32B
100
AcDbEntity
  8
SPEC
  6
Continuous
 62
     7
100
AcDbLine
 10
-1237.5
 20
1455.695409999998
 30
0.0
 11
975.0000000000003
 21
1455.695409999998
 31
0.0
  0
LINE
  5
B6
330
32B
100
AcDbEntity
  8
SPEC
  6
Continuous
 62
     7
100
AcDbLine
 10
-1237.5
 20
1399.445409999998
 30
0.0
 11
975.0000000000003
 21
1399.445409999998
 31
0.0
  0
LINE
  5
B7
330
32B
100
AcDbEntity
  8
SPEC
  6
Continuous
 62
     7
100
AcDbLine
 10
-1237.5
 20
1286.945409999999
 30
0.0
 11
975.0000000000003
 21
1286.945409999999
 31
0.0
  0
TEXT
  5
B8
330
32B
100
AcDbEntity
  8
SPEC
 62
     7
100
AcDbText
 10
-1224.0
 20
1298.764176666666
 30
0.0
 40
28.50472005208333
  1
エンクロージャー
 41
0.7
 11
-1224.0
 21
1327.26889671875
 31
0.0
100
AcDbText
 73
     3
  0
TEXT
  5
B9
330
32B
100
AcDbEntity
  8
SPEC
 62
     7
100
AcDbText
 10
-732.5274495273446
 20
1303.894166666667
 30
0.0
 40
28.50472005208333
  1
18mmカバ/ポプラ合板、黒、DuraFlex仕上げ
 41
0.7
 11
-732.5274495273446
 21
1332.39888671875
 31
0.0
100
AcDbText
 73
     3
  0
LINE
  5
BA
330
32B
100
AcDbEntity
  8
SPEC
  6
Continuous
 62
     7
100
AcDbLine
 10
-1237.5
 20
1230.69541
 30
0.0
 11
975.0000000000003
 21
1230.69541
 31
0.0
  0
TEXT
  5
BB
330
32B
100
AcDbEntity
  8
SPEC
 62
     7
100
AcDbText
 10
-732.5274495273446
 20
1247.644166666667
 30
0.0
 40
28.50472005208333
  1
570\U+00D7560\U+00D7720mm(除突起部)
 41
0.7
 11
-732.5274495273446
 21
1276.14888671875
 31
0.0
100
AcDbText
 73
     3
  0
LINE
  5
BC
330
32B
100
AcDbEntity
  8
SPEC
  6
Continuous
 62
     7
100
AcDbLine
 10
-1237.5
 20
1174.445410000001
 30
0.0
 11
975.0000000000003
 21
1174.445410000001
 31
0.0
  0
TEXT
  5
BD
330
32B
100
AcDbEntity
  8
SPEC
 62
     7
100
AcDbText
 10
-1224.0
 20
1186.264176666667
 30
0.0
 40
28.50472005208333
  1
質量
 41
0.7
 11
-1224.0
 21
1214.76889671875
 31
0.0
100
AcDbText
 73
     3
  0
TEXT
  5
BE
330
32B
100
AcDbEntity
  8
SPEC
 62
     7
100
AcDbText
 10
-736.4999999999995
 20
1355.014209999999
 30
0.0
 40
28.50472005208333
  1
4Pスピコン\U+00D72
 41
0.7
 11
-736.4999999999995
 21
1383.518930052082
 31
0.0
100
AcDbText
 73
     3
  0
TEXT
  5
BF
330
32B
100
AcDbEntity
  8
SPEC
 62
     7
100
AcDbText
 10
-1223.999999999999
 20
1355.414999999999
 30
0.0
 40
28.50472005208333
  1
入力端子
 41
0.7
 11
-1223.999999999999
 21
1383.919720052082
 31
0.0
100
AcDbText
 73
     3
  0
LINE
  5
C0
330
32B
100
AcDbEntity
  8
SPEC
  6
Continuous
 62
     7
100
AcDbLine
 10
-1237.5
 20
1343.19541
 30
0.0
 11
975.0000000000003
 21
1343.19541
 31
0.0
  0
TEXT
  5
C1
330
32B
100
AcDbEntity
  8
SPEC
 62
     7
100
AcDbText
 10
-732.5274495273453
 20
1191.394166666667
 30
0.0
 40
28.50472005208333
  1
47kg
 41
0.7
 11
-732.5274495273453
 21
1219.89888671875
 31
0.0
100
AcDbText
 73
     3
  0
TEXT
  5
C2
330
32B
100
AcDbEntity
  8
SPEC
 62
     7
100
AcDbText
 10
-1224.0
 20
1242.514176666667
 30
0.0
 40
28.50472005208333
  1
寸法(W\U+00D7H\U+00D7D)
 41
0.7
 11
-1224.0
 21
1271.01889671875
 31
0.0
100
AcDbText
 73
     3
  0
TEXT
  5
C3
330
32B
100
AcDbEntity
  8
SPEC
 62
     7
100
AcDbText
 10
-1223.999999999999
 20
1411.664999999999
 30
0.0
 40
28.50472005208333
  1
金具用取付穴
 41
0.7
 11
-1223.999999999999
 21
1440.169720052082
 31
0.0
100
AcDbText
 73
     3
  0
TEXT
  5
C4
330
32B
100
AcDbEntity
  8
SPEC
 62
     7
100
AcDbText
 10
-736.4999999999995
 20
1411.264209999998
 30
0.0
 40
28.50472005208333
  1
M20ねじ込み式ポールソケット
 41
0.7
 11
-736.4999999999995
 21
1439.768930052082
 31
0.0
100
AcDbText
 73
     3
  0
LINE
  5
C5
330
32B
100
AcDbEntity
  8
DIMNSIONS
  6
Continuous
 62
     7
100
AcDbLine
 10
-1185.0
 20
-610.7294901687516
 30
0.0
 11
-1185.0
 21
-730.0
 31
0.0
  0
LINE
  5
C6
330
32B
100
AcDbEntity
  8
DIMNSIONS
  6
Continuous
 62
     7
100
AcDbLine
 10
-615.0
 20
-610.7294901687516
 30
0.0
 11
-615.0
 21
-730.0
 31
0.0
  0
LINE
  5
C7
330
32B
100
AcDbEntity
  8
DIMNSIONS
  6
Continuous
 62
     7
100
AcDbLine
 10
-1185.0
 20
-700.0
 30
0.0
 11
-615.0
 21
-700.0
 31
0.0
  0
LINE
  5
C8
330
32B
100
AcDbEntity
  8
DIMNSIONS
  6
Continuous
 62
     7
100
AcDbLine
 10
-1185.0
 20
-700.0
 30
0.0
 11
-1147.490661621093
 21
-689.9494030727464
 31
0.0
  0
LINE
  5
C9
330
32B
100
AcDbEntity
  8
DIMNSIONS
  6
Continuous
 62
     7
100
AcDbLine
 10
-1185.0
 20
-700.0
 30
0.0
 11
-1147.490661621093
 21
-710.0505969272535
 31
0.0
  0
LINE
  5
CA
330
32B
100
AcDbEntity
  8
DIMNSIONS
  6
Continuous
 62
     7
100
AcDbLine
 10
-615.0
 20
-700.0
 30
0.0
 11
-652.5093383789063
 21
-710.0505969272535
 31
0.0
  0
LINE
  5
CB
330
32B
100
AcDbEntity
  8
DIMNSIONS
  6
Continuous
 62
     7
100
AcDbLine
 10
-615.0
 20
-700.0
 30
0.0
 11
-652.5093383789063
 21
-689.9494030727464
 31
0.0
  0
TEXT
  5
CC
330
32B
100
AcDbEntity
  8
DIMNSIONS
 62
     7
100
AcDbText
 10
-939.6874999999999
 20
-685.0916666666667
 30
0.0
 40
40.72102864583334
  1
570
 41
0.7
 11
-939.6874999999999
 21
-644.3706380208332
 31
0.0
100
AcDbText
 73
     3
  0
LINE
  5
CD
330
32B
100
AcDbEntity
  8
DIMNSIONS
  6
Continuous
 62
     7
100
AcDbLine
 10
-360.0
 20
-605.0
 30
0.0
 11
-360.0
 21
-730.0
 31
0.0
  0
LINE
  5
CE
330
32B
100
AcDbEntity
  8
DIMNSIONS
  6
Continuous
 62
     7
100
AcDbLine
 10
360.0
 20
-605.0
 30
0.0
 11
360.0
 21
-730.0
 31
0.0
  0
LINE
  5
CF
330
32B
100
AcDbEntity
  8
DIMNSIONS
  6
Continuous
 62
     7
100
AcDbLine
 10
-360.0
 20
-700.0
 30
0.0
 11
360.0
 21
-700.0
 31
0.0
  0
LINE
  5
D0
330
32B
100
AcDbEntity
  8
DIMNSIONS
  6
Continuous
 62
     7
100
AcDbLine
 10
-360.0
 20
-700.0
 30
0.0
 11
-322.4906616210938
 21
-689.9494030727464
 31
0.0
  0
LINE
  5
D1
330
32B
100
AcDbEntity
  8
DIMNSIONS
  6
Continuous
 62
     7
100
AcDbLine
 10
-360.0
 20
-700.0
 30
0.0
 11
-322.4906616210938
 21
-710.0505969272535
 31
0.0
  0
LINE
  5
D2
330
32B
100
AcDbEntity
  8
DIMNSIONS
  6
Continuous
 62
     7
100
AcDbLine
 10
360.0
 20
-700.0
 30
0.0
 11
322.4906616210938
 21
-710.0505969272535
 31
0.0
  0
LINE
  5
D3
330
32B
100
AcDbEntity
  8
DIMNSIONS
  6
Continuous
 62
     7
100
AcDbLine
 10
360.0
 20
-700.0
 30
0.0
 11
322.4906616210938
 21
-689.9494030727464
 31
0.0
  0
TEXT
  5
D4
330
32B
100
AcDbEntity
  8
DIMNSIONS
 62
     7
100
AcDbText
 10
-39.6875
 20
-685.0916666666667
 30
0.0
 40
40.72102864583334
  1
720
 41
0.7
 11
-39.6875
 21
-644.3706380208332
 31
0.0
100
AcDbText
 73
     3
  0
LINE
  5
D5
330
32B
100
AcDbEntity
  8
DIMNSIONS
  6
Continuous
 62
     7
100
AcDbLine
 10
-655.4946177717176
 20
100.0
 30
0.0
 11
-470.0
 21
100.0
 31
0.0
  0
LINE
  5
D6
330
32B
100
AcDbEntity
  8
DIMNSIONS
  6
Continuous
 62
     7
100
AcDbLine
 10
-600.0
 20
820.0
 30
0.0
 11
-470.0
 21
820.0
 31
0.0
  0
LINE
  5
D7
330
32B
100
AcDbEntity
  8
DIMNSIONS
  6
Continuous
 62
     7
100
AcDbLine
 10
-500.0
 20
100.0
 30
0.0
 11
-500.0
 21
820.0
 31
0.0
  0
LINE
  5
D8
330
32B
100
AcDbEntity
  8
DIMNSIONS
  6
Continuous
 62
     7
100
AcDbLine
 10
-500.0
 20
100.0
 30
0.0
 11
-510.0505969272536
 21
137.5093383789062
 31
0.0
  0
LINE
  5
D9
330
32B
100
AcDbEntity
  8
DIMNSIONS
  6
Continuous
 62
     7
100
AcDbLine
 10
-500.0
 20
100.0
 30
0.0
 11
-489.9494030727463
 21
137.5093383789062
 31
0.0
  0
LINE
  5
DA
330
32B
100
AcDbEntity
  8
DIMNSIONS
  6
Continuous
 62
     7
100
AcDbLine
 10
-500.0
 20
820.0
 30
0.0
 11
-489.9494030727463
 21
782.4906616210937
 31
0.0
  0
LINE
  5
DB
330
32B
100
AcDbEntity
  8
DIMNSIONS
  6
Continuous
 62
     7
100
AcDbLine
 10
-500.0
 20
820.0
 30
0.0
 11
-510.0505969272536
 21
782.4906616210937
 31
0.0
  0
TEXT
  5
DC
330
32B
100
AcDbEntity
  8
DIMNSIONS
 62
     7
100
AcDbText
 10
-514.9083333333334
 20
420.3125
 30
0.0
 40
40.72102864583334
  1
720
 50
90.0
 41
0.7
 11
-555.6293619791667
 21
420.3125
 31
0.0
100
AcDbText
 73
     3
  0
LINE
  5
DD
330
32B
100
AcDbEntity
  8
DIMNSIONS
  6
Continuous
 62
     7
100
AcDbLine
 10
-608.541019662497
 20
-600.0
 30
0.0
 11
-470.0
 21
-600.0
 31
0.0
  0
LINE
  5
DE
330
32B
100
AcDbEntity
  8
DIMNSIONS
  6
Continuous
 62
     7
100
AcDbLine
 10
-608.541019662497
 20
-40.0
 30
0.0
 11
-470.0
 21
-40.0
 31
0.0
  0
LINE
  5
DF
330
32B
100
AcDbEntity
  8
DIMNSIONS
  6
Continuous
 62
     7
100
AcDbLine
 10
-500.0
 20
-600.0
 30
0.0
 11
-500.0
 21
-40.0
 31
0.0
  0
LINE
  5
E0
330
32B
100
AcDbEntity
  8
DIMNSIONS
  6
Continuous
 62
     7
100
AcDbLine
 10
-500.0
 20
-600.0
 30
0.0
 11
-510.0505969272536
 21
-562.4906616210937
 31
0.0
  0
LINE
  5
E1
330
32B
100
AcDbEntity
  8
DIMNSIONS
  6
Continuous
 62
     7
100
AcDbLine
 10
-500.0
 20
-600.0
 30
0.0
 11
-489.9494030727463
 21
-562.4906616210937
 31
0.0
  0
LINE
  5
E2
330
32B
100
AcDbEntity
  8
DIMNSIONS
  6
Continuous
 62
     7
100
AcDbLine
 10
-500.0
 20
-40.0
 30
0.0
 11
-489.9494030727463
 21
-77.50933837890625
 31
0.0
  0
LINE
  5
E3
330
32B
100
AcDbEntity
  8
DIMNSIONS
  6
Continuous
 62
     7
100
AcDbLine
 10
-500.0
 20
-40.0
 30
0.0
 11
-510.0505969272536
 21
-77.50933837890625
 31
0.0
  0
TEXT
  5
E4
330
32B
100
AcDbEntity
  8
DIMNSIONS
 62
     7
100
AcDbText
 10
-514.9083333333334
 20
-359.6875
 30
0.0
 40
40.72102864583334
  1
560
 50
90.0
 41
0.7
 11
-555.6293619791667
 21
-359.6875
 31
0.0
100
AcDbText
 73
     3
  0
TEXT
  5
E5
330
32B
100
AcDbEntity
  8
DIMNSIONS
 62
     7
100
AcDbText
 10
-299.9999999999997
 20
-1698.298574999999
 30
0.0
 40
36.64892578125
  1
(単位：mm)
 41
0.7
 11
-299.9999999999997
 21
-1661.649649218749
 31
0.0
100
AcDbText
 73
     3
  0
LINE
  5
E6
330
32B
100
AcDbEntity
  8
DIMNSIONS
  6
Continuous
 62
     7
100
AcDbLine
 10
-608.541019662497
 20
-600.0
 30
0.0
 11
-470.0
 21
-600.0
 31
0.0
  0
LINE
  5
E7
330
32B
100
AcDbEntity
  8
DIMNSIONS
  6
Continuous
 62
     7
100
AcDbLine
 10
-620.0
 20
-604.0
 30
0.0
 11
-470.0
 21
-604.0
 31
0.0
  0
LINE
  5
E8
330
32B
100
AcDbEntity
  8
DIMNSIONS
  6
Continuous
 62
     7
100
AcDbLine
 10
-500.0
 20
-604.0
 30
0.0
 11
-500.0
 21
-600.0
 31
0.0
  0
LINE
  5
E9
330
32B
100
AcDbEntity
  8
DIMNSIONS
  6
Continuous
 62
     7
100
AcDbLine
 10
-500.0
 20
-600.0
 30
0.0
 11
-500.0
 21
-525.0
 31
0.0
  0
LINE
  5
EA
330
32B
100
AcDbEntity
  8
DIMNSIONS
  6
Continuous
 62
     7
100
AcDbLine
 10
-500.0
 20
-600.0
 30
0.0
 11
-510.0505969272536
 21
-562.4906616210937
 31
0.0
  0
LINE
  5
EB
330
32B
100
AcDbEntity
  8
DIMNSIONS
  6
Continuous
 62
     7
100
AcDbLine
 10
-500.0
 20
-600.0
 30
0.0
 11
-489.9494030727463
 21
-562.4906616210937
 31
0.0
  0
LINE
  5
EC
330
32B
100
AcDbEntity
  8
DIMNSIONS
  6
Continuous
 62
     7
100
AcDbLine
 10
-500.0
 20
-604.0
 30
0.0
 11
-500.0
 21
-725.375
 31
0.0
  0
LINE
  5
ED
330
32B
100
AcDbEntity
  8
DIMNSIONS
  6
Continuous
 62
     7
100
AcDbLine
 10
-500.0
 20
-604.0
 30
0.0
 11
-489.9494030727463
 21
-641.5093383789063
 31
0.0
  0
LINE
  5
EE
330
32B
100
AcDbEntity
  8
DIMNSIONS
  6
Continuous
 62
     7
100
AcDbLine
 10
-500.0
 20
-604.0
 30
0.0
 11
-510.0505969272536
 21
-641.5093383789063
 31
0.0
  0
TEXT
  5
EF
330
32B
100
AcDbEntity
  8
DIMNSIONS
 62
     7
100
AcDbText
 10
-514.9083333333334
 20
-725.375
 30
0.0
 40
40.72102864583334
  1
4.0
 50
90.0
 41
0.7
 11
-555.6293619791667
 21
-725.375
 31
0.0
100
AcDbText
 73
     3
  0
LINE
  5
F0
330
32B
100
AcDbEntity
  8
DIMNSIONS
  6
Continuous
 62
     7
100
AcDbLine
 10
-890.2985749985456
 20
422.5746437496363
 30
0.0
 11
-400.0
 21
300.0
 31
0.0
  0
LINE
  5
F1
330
32B
100
AcDbEntity
  8
DIMNSIONS
  6
Continuous
 62
     7
100
AcDbLine
 10
-890.2985749985456
 20
422.5746437496363
 30
0.0
 11
-851.4719648135029
 21
423.2523647513589
 31
0.0
  0
LINE
  5
F2
330
32B
100
AcDbEntity
  8
DIMNSIONS
  6
Continuous
 62
     7
100
AcDbLine
 10
-890.2985749985456
 20
422.5746437496363
 30
0.0
 11
-856.3348837346019
 21
403.7482622612851
 31
0.0
  0
LINE
  5
F3
330
32B
100
AcDbEntity
  8
DIMNSIONS
  6
Continuous
 62
     7
100
AcDbLine
 10
-400.0
 20
300.0
 30
0.0
 11
344.375
 21
300.0
 31
0.0
  0
TEXT
  5
F4
330
32B
100
AcDbEntity
  8
DIMNSIONS
 62
     7
100
AcDbText
 10
-370.0
 20
314.9083333333334
 30
0.0
 40
40.72102864583334
  1
M20ねじ込み式ポールソケット
 41
0.7
 11
-370.0
 21
355.6293619791667
 31
0.0
100
AcDbText
 73
     3
  0
TEXT
  5
F5
330
32B
100
AcDbEntity
  8
DATA
 62
     7
100
AcDbText
 10
792.2032713688245
 20
-418.44326171875
 30
0.0
 40
4.8865234375
  1
IN/THRU
 41
0.7
 72
     1
 11
803.0350649886162
 21
-416.0
 31
0.0
100
AcDbText
 73
     2
  0
TEXT
  5
F6
330
32B
100
AcDbEntity
  8
DATA
 62
     7
100
AcDbText
 10
762.5411203271578
 20
-494.94326171875
 30
0.0
 40
4.8865234375
  1
INPUT:8\U+03A9
 41
0.7
 72
     1
 11
774.2850649886162
 21
-492.4999999999999
 31
0.0
100
AcDbText
 73
     2
  0
TEXT
  5
F7
330
32B
100
AcDbEntity
  8
DATA
 62
     7
100
AcDbText
 10
708.9582929611205
 20
1080.95
 30
0.0
 40
40.72102864583334
  1
コネクターパネル拡大図
 41
0.7
 11
708.9582929611205
 21
1121.671028645833
 31
0.0
100
AcDbText
 73
     3
  0
LINE
  5
F8
330
32B
100
AcDbEntity
  8
DATA
  6
Continuous
 62
     7
100
AcDbLine
 10
708.9582929611205
 20
1050.0
 30
0.0
 11
1291.041707038879
 21
1050.0
 31
0.0
  0
LINE
  5
F9
330
32B
100
AcDbEntity
  8
DATA
  6
Continuous
 62
     7
100
AcDbLine
 10
-1185.0
 20
-580.7294901687515
 30
0.0
 11
-1185.0
 21
-59.27050983124855
 31
0.0
  0
LINE
  5
FA
330
32B
100
AcDbEntity
  8
DATA
  6
Continuous
 62
     7
100
AcDbLine
 10
-1180.0
 20
-575.0
 30
0.0
 11
-1180.0
 21
-65.0
 31
0.0
  0
LINE
  5
FB
330
32B
100
AcDbEntity
  8
DATA
  6
Continuous
 62
     7
100
AcDbLine
 10
-615.0
 20
-580.7294901687515
 30
0.0
 11
-615.0
 21
-59.27050983124855
 31
0.0
  0
LINE
  5
FC
330
32B
100
AcDbEntity
  8
DATA
  6
Continuous
 62
     7
100
AcDbLine
 10
-620.0
 20
-575.0
 30
0.0
 11
-620.0
 21
-65.0
 31
0.0
  0
LINE
  5
FD
330
32B
100
AcDbEntity
  8
DATA
  6
Continuous
 62
     7
100
AcDbLine
 10
-1161.458980337503
 20
-40.0
 30
0.0
 11
-638.5410196624969
 21
-40.0
 31
0.0
  0
LINE
  5
FE
330
32B
100
AcDbEntity
  8
DATA
  6
Continuous
 62
     7
100
AcDbLine
 10
-631.8328157299974
 20
-41.58359213500125
 30
0.0
 11
-623.2917960675004
 21
-45.85410196624979
 31
0.0
  0
LINE
  5
FF
330
32B
100
AcDbEntity
  8
DATA
  6
Continuous
 62
     7
100
AcDbLine
 10
-1168.167184270002
 20
-41.58359213500125
 30
0.0
 11
-1176.708203932499
 21
-45.85410196624979
 31
0.0
  0
LINE
  5
100
330
32B
100
AcDbEntity
  8
DATA
  6
Continuous
 62
     7
100
AcDbLine
 10
-1185.0
 20
-65.0
 30
0.0
 11
-615.0
 21
-65.0
 31
0.0
  0
LINE
  5
101
330
32B
100
AcDbEntity
  8
DATA
  6
Continuous
 62
     7
100
AcDbLine
 10
-360.0
 20
-65.0
 30
0.0
 11
360.0
 21
-65.0
 31
0.0
  0
LINE
  5
102
330
32B
100
AcDbEntity
  8
DATA
  6
Continuous
 62
     7
100
AcDbLine
 10
-1181.792270666361
 20
-50.0
 30
0.0
 11
-618.2077293336387
 21
-50.0
 31
0.0
  0
LINE
  5
103
330
32B
100
AcDbEntity
  8
DATA
  6
Continuous
 62
     7
100
AcDbLine
 10
-356.7922706663612
 20
-50.0
 30
0.0
 11
356.7922706663612
 21
-50.0
 31
0.0
  0
LINE
  5
104
330
32B
100
AcDbEntity
  8
DATA
  6
Continuous
 62
     7
100
AcDbLine
 10
-1161.458980337503
 20
-600.0
 30
0.0
 11
-638.5410196624969
 21
-600.0
 31
0.0
  0
LINE
  5
105
330
32B
100
AcDbEntity
  8
DATA
  6
Continuous
 62
     7
100
AcDbLine
 10
-1168.167184270002
 20
-598.4164078649987
 30
0.0
 11
-1176.708203932499
 21
-594.1458980337501
 31
0.0
  0
LINE
  5
106
330
32B
100
AcDbEntity
  8
DATA
  6
Continuous
 62
     7
100
AcDbLine
 10
-631.8328157299974
 20
-598.4164078649987
 30
0.0
 11
-623.2917960675004
 21
-594.1458980337501
 31
0.0
  0
LINE
  5
107
330
32B
100
AcDbEntity
  8
DATA
  6
Continuous
 62
     7
100
AcDbLine
 10
-1185.0
 20
-575.0
 30
0.0
 11
-615.0
 21
-575.0
 31
0.0
  0
LINE
  5
108
330
32B
100
AcDbEntity
  8
DATA
  6
Continuous
 62
     7
100
AcDbLine
 10
-1181.792270666361
 20
-590.0
 30
0.0
 11
-618.2077293336387
 21
-590.0
 31
0.0
  0
ARC
  5
109
330
32B
100
AcDbEntity
  8
DATA
  6
Continuous
 62
     7
100
AcDbCircle
 10
-1170.0
 20
-59.27050983124832
 30
0.0
 40
14.99999999999991
100
AcDbArc
 50
116.5650511770791
 51
180.0000000000009
  0
ARC
  5
10A
330
32B
100
AcDbEntity
  8
DATA
  6
Continuous
 62
     7
100
AcDbCircle
 10
-1161.458980337503
 20
-55.0
 30
0.0
 40
15.0
100
AcDbArc
 50
90.0
 51
116.5650511770788
  0
ARC
  5
10B
330
32B
100
AcDbEntity
  8
DATA
  6
Continuous
 62
     7
100
AcDbCircle
 10
-638.5410196624969
 20
-55.0
 30
0.0
 40
15.00000000000011
100
AcDbArc
 50
63.43494882292123
 51
90.0
  0
ARC
  5
10C
330
32B
100
AcDbEntity
  8
DATA
  6
Continuous
 62
     7
100
AcDbCircle
 10
-630.0
 20
-59.27050983124832
 30
0.0
 40
15.0
100
AcDbArc
 50
359.9999999999992
 51
63.43494882292085
  0
ARC
  5
10D
330
32B
100
AcDbEntity
  8
DATA
  6
Continuous
 62
     7
100
AcDbCircle
 10
-630.0
 20
-580.7294901687515
 30
0.0
 40
14.99999999999991
100
AcDbArc
 50
296.5650511770792
 51
0.0000000000008527
  0
ARC
  5
10E
330
32B
100
AcDbEntity
  8
DATA
  6
Continuous
 62
     7
100
AcDbCircle
 10
-638.5410196624969
 20
-585.0
 30
0.0
 40
15.0
100
AcDbArc
 50
270.0
 51
296.5650511770789
  0
ARC
  5
10F
330
32B
100
AcDbEntity
  8
DATA
  6
Continuous
 62
     7
100
AcDbCircle
 10
-1170.0
 20
-580.7294901687515
 30
0.0
 40
15.0
100
AcDbArc
 50
179.9999999999992
 51
243.4349488229209
  0
ARC
  5
110
330
32B
100
AcDbEntity
  8
DATA
  6
Continuous
 62
     7
100
AcDbCircle
 10
-1161.458980337503
 20
-585.0
 30
0.0
 40
15.00000000000011
100
AcDbArc
 50
243.4349488229213
 51
270.0
  0
LINE
  5
111
330
32B
100
AcDbEntity
  8
DATA
  6
Continuous
 62
     7
100
AcDbLine
 10
-923.0
 20
-475.0
 30
0.0
 11
-923.0
 21
-437.0
 31
0.0
  0
LINE
  5
112
330
32B
100
AcDbEntity
  8
DATA
  6
Continuous
 62
     7
100
AcDbLine
 10
-923.0
 20
-437.0
 30
0.0
 11
-877.0
 21
-437.0
 31
0.0
  0
LINE
  5
113
330
32B
100
AcDbEntity
  8
DATA
  6
Continuous
 62
     7
100
AcDbLine
 10
-877.0
 20
-437.0
 30
0.0
 11
-877.0
 21
-475.0
 31
0.0
  0
LINE
  5
114
330
32B
100
AcDbEntity
  8
DATA
  6
Continuous
 62
     7
100
AcDbLine
 10
-877.0
 20
-475.0
 30
0.0
 11
-923.0
 21
-475.0
 31
0.0
  0
LINE
  5
115
330
32B
100
AcDbEntity
  8
DATA
  6
Continuous
 62
     7
100
AcDbLine
 10
-866.0
 20
-486.0
 30
0.0
 11
-866.0
 21
-426.0
 31
0.0
  0
LINE
  5
116
330
32B
100
AcDbEntity
  8
DATA
  6
Continuous
 62
     7
100
AcDbLine
 10
-866.0
 20
-426.0
 30
0.0
 11
-934.0
 21
-426.0
 31
0.0
  0
LINE
  5
117
330
32B
100
AcDbEntity
  8
DATA
  6
Continuous
 62
     7
100
AcDbLine
 10
-934.0
 20
-426.0
 30
0.0
 11
-934.0
 21
-486.0
 31
0.0
  0
LINE
  5
118
330
32B
100
AcDbEntity
  8
DATA
  6
Continuous
 62
     7
100
AcDbLine
 10
-934.0
 20
-486.0
 30
0.0
 11
-866.0
 21
-486.0
 31
0.0
  0
LINE
  5
119
330
32B
100
AcDbEntity
  8
DATA
  6
Continuous
 62
     7
100
AcDbLine
 10
-1120.0
 20
-600.0
 30
0.0
 11
-1120.0
 21
-40.0
 31
0.0
  0
LINE
  5
11A
330
32B
100
AcDbEntity
  8
DATA
  6
Continuous
 62
     7
100
AcDbLine
 10
-680.0
 20
-600.0
 30
0.0
 11
-680.0
 21
-40.0
 31
0.0
  0
LINE
  5
11B
330
32B
100
AcDbEntity
  8
DATA
  6
Continuous
 62
     7
100
AcDbLine
 10
-650.0
 20
-600.0
 30
0.0
 11
-650.0
 21
-604.0
 31
0.0
  0
LINE
  5
11C
330
32B
100
AcDbEntity
  8
DATA
  6
Continuous
 62
     7
100
AcDbLine
 10
-650.0
 20
-604.0
 30
0.0
 11
-690.0
 21
-604.0
 31
0.0
  0
LINE
  5
11D
330
32B
100
AcDbEntity
  8
DATA
  6
Continuous
 62
     7
100
AcDbLine
 10
-690.0
 20
-604.0
 30
0.0
 11
-690.0
 21
-600.0
 31
0.0
  0
LINE
  5
11E
330
32B
100
AcDbEntity
  8
DATA
  6
Continuous
 62
     7
100
AcDbLine
 10
-1150.0
 20
-600.0
 30
0.0
 11
-1150.0
 21
-604.0
 31
0.0
  0
LINE
  5
11F
330
32B
100
AcDbEntity
  8
DATA
  6
Continuous
 62
     7
100
AcDbLine
 10
-1150.0
 20
-604.0
 30
0.0
 11
-1110.0
 21
-604.0
 31
0.0
  0
LINE
  5
120
330
32B
100
AcDbEntity
  8
DATA
  6
Continuous
 62
     7
100
AcDbLine
 10
-1110.0
 20
-604.0
 30
0.0
 11
-1110.0
 21
-600.0
 31
0.0
  0
LINE
  5
121
330
32B
100
AcDbEntity
  8
DATA
  6
Continuous
 62
     7
100
AcDbLine
 10
-1114.505382228282
 20
100.0
 30
0.0
 11
-685.4946177717176
 21
100.0
 31
0.0
  0
LINE
  5
122
330
32B
100
AcDbEntity
  8
DATA
  6
Continuous
 62
     7
100
AcDbLine
 10
-1107.179225199325
 20
120.0
 30
0.0
 11
-692.8207748006744
 21
120.0
 31
0.0
  0
LINE
  5
123
330
32B
100
AcDbEntity
  8
DATA
  6
Continuous
 62
     7
100
AcDbLine
 10
-675.805484149725
 20
103.5492057194633
 30
0.0
 11
-620.3108663780076
 21
150.5061899878396
 31
0.0
  0
LINE
  5
124
330
32B
100
AcDbEntity
  8
DATA
  6
Continuous
 62
     7
100
AcDbLine
 10
-683.1316411786819
 20
123.5492057194633
 30
0.0
 11
-640.3108663780076
 21
159.7821690123419
 31
0.0
  0
LINE
  5
125
330
32B
100
AcDbEntity
  8
DATA
  6
Continuous
 62
     7
100
AcDbLine
 10
-1124.194515850275
 20
103.5492057194633
 30
0.0
 11
-1179.689133621993
 21
150.5061899878396
 31
0.0
  0
LINE
  5
126
330
32B
100
AcDbEntity
  8
DATA
  6
Continuous
 62
     7
100
AcDbLine
 10
-1116.868358821318
 20
123.5492057194633
 30
0.0
 11
-1159.689133621992
 21
159.7821690123419
 31
0.0
  0
LINE
  5
127
330
32B
100
AcDbEntity
  8
DATA
  6
Continuous
 62
     7
100
AcDbLine
 10
-1170.0
 20
820.0
 30
0.0
 11
-630.0
 21
820.0
 31
0.0
  0
LINE
  5
128
330
32B
100
AcDbEntity
  8
DATA
  6
Continuous
 62
     7
100
AcDbLine
 10
-1150.0
 20
800.0
 30
0.0
 11
-650.0
 21
800.0
 31
0.0
  0
LINE
  5
129
330
32B
100
AcDbEntity
  8
DATA
  6
Continuous
 62
     7
100
AcDbLine
 10
-1185.0
 20
805.0
 30
0.0
 11
-1185.0
 21
161.9569842683763
 31
0.0
  0
LINE
  5
12A
330
32B
100
AcDbEntity
  8
DATA
  6
Continuous
 62
     7
100
AcDbLine
 10
-1165.0
 20
785.0
 30
0.0
 11
-1165.0
 21
171.2329632928786
 31
0.0
  0
LINE
  5
12B
330
32B
100
AcDbEntity
  8
DATA
  6
Continuous
 62
     7
100
AcDbLine
 10
-615.0
 20
805.0
 30
0.0
 11
-615.0
 21
161.9569842683763
 31
0.0
  0
LINE
  5
12C
330
32B
100
AcDbEntity
  8
DATA
  6
Continuous
 62
     7
100
AcDbLine
 10
-635.0
 20
785.0
 30
0.0
 11
-635.0
 21
171.2329632928786
 31
0.0
  0
ARC
  5
12D
330
32B
100
AcDbEntity
  8
DATA
  6
Continuous
 62
     7
100
AcDbCircle
 10
-1114.505382228282
 20
115.0
 30
0.0
 40
14.99999999999982
100
AcDbArc
 50
229.7636416907268
 51
270.0
  0
ARC
  5
12E
330
32B
100
AcDbEntity
  8
DATA
  6
Continuous
 62
     7
100
AcDbCircle
 10
-1170.0
 20
161.9569842683768
 30
0.0
 40
15.0
100
AcDbArc
 50
180.0000000000017
 51
229.7636416907279
  0
ARC
  5
12F
330
32B
100
AcDbEntity
  8
DATA
  6
Continuous
 62
     7
100
AcDbCircle
 10
-685.4946177717176
 20
115.0
 30
0.0
 40
15.0
100
AcDbArc
 50
270.0
 51
310.2363583092732
  0
ARC
  5
130
330
32B
100
AcDbEntity
  8
DATA
  6
Continuous
 62
     7
100
AcDbCircle
 10
-630.0
 20
161.9569842683768
 30
0.0
 40
15.00000000000017
100
AcDbArc
 50
310.2363583092721
 51
359.9999999999982
  0
ARC
  5
131
330
32B
100
AcDbEntity
  8
DATA
  6
Continuous
 62
     7
100
AcDbCircle
 10
-630.0
 20
805.0
 30
0.0
 40
15.0
100
AcDbArc
 50
0.0
 51
90.0
  0
ARC
  5
132
330
32B
100
AcDbEntity
  8
DATA
  6
Continuous
 62
     7
100
AcDbCircle
 10
-1170.0
 20
805.0
 30
0.0
 40
15.0
100
AcDbArc
 50
90.0
 51
180.0
  0
ARC
  5
133
330
32B
100
AcDbEntity
  8
DATA
  6
Continuous
 62
     7
100
AcDbCircle
 10
-1107.179225199325
 20
135.0
 30
0.0
 40
14.99999999999982
100
AcDbArc
 50
229.7636416907268
 51
270.0
  0
ARC
  5
134
330
32B
100
AcDbEntity
  8
DATA
  6
Continuous
 62
     7
100
AcDbCircle
 10
-1150.0
 20
171.232963292879
 30
0.0
 40
15.0
100
AcDbArc
 50
180.0000000000017
 51
229.7636416907279
  0
ARC
  5
135
330
32B
100
AcDbEntity
  8
DATA
  6
Continuous
 62
     7
100
AcDbCircle
 10
-1150.0
 20
785.0
 30
0.0
 40
15.0
100
AcDbArc
 50
90.0
 51
180.0
  0
ARC
  5
136
330
32B
100
AcDbEntity
  8
DATA
  6
Continuous
 62
     7
100
AcDbCircle
 10
-650.0
 20
785.0
 30
0.0
 40
15.0
100
AcDbArc
 50
0.0
 51
90.0
  0
LINE
  5
137
330
32B
100
AcDbEntity
  8
DATA
  6
Continuous
 62
     7
100
AcDbLine
 10
-1117.5
 20
194.8062484748657
 30
0.0
 11
-1117.5
 21
333.0
 31
0.0
  0
LINE
  5
138
330
32B
100
AcDbEntity
  8
DATA
  6
Continuous
 62
     7
100
AcDbLine
 10
-1107.5
 20
199.6124969497314
 30
0.0
 11
-1107.5
 21
323.0
 31
0.0
  0
LINE
  5
139
330
32B
100
AcDbEntity
  8
DATA
  6
Continuous
 62
     7
100
AcDbLine
 10
-1095.239139881962
 20
172.1913119055698
 30
0.0
 11
-1113.746950475544
 21
186.9975603804355
 31
0.0
  0
LINE
  5
13A
330
32B
100
AcDbEntity
  8
DATA
  6
Continuous
 62
     7
100
AcDbLine
 10
-1091.73132928838
 20
182.1913119055698
 30
0.0
 11
-1103.746950475544
 21
191.8038088553011
 31
0.0
  0
LINE
  5
13B
330
32B
100
AcDbEntity
  8
DATA
  6
Continuous
 62
     7
100
AcDbLine
 10
-711.0078105935817
 20
170.0
 30
0.0
 11
-1088.992189406417
 21
170.0
 31
0.0
  0
LINE
  5
13C
330
32B
100
AcDbEntity
  8
DATA
  6
Continuous
 62
     7
100
AcDbLine
 10
-714.5156211871644
 20
180.0
 30
0.0
 11
-1085.484378812836
 21
180.0
 31
0.0
  0
LINE
  5
13D
330
32B
100
AcDbEntity
  8
DATA
  6
Continuous
 62
     7
100
AcDbLine
 10
-686.2530495244555
 20
186.9975603804355
 30
0.0
 11
-704.7608601180372
 21
172.1913119055698
 31
0.0
  0
LINE
  5
13E
330
32B
100
AcDbEntity
  8
DATA
  6
Continuous
 62
     7
100
AcDbLine
 10
-696.2530495244556
 20
191.8038088553011
 30
0.0
 11
-708.26867071162
 21
182.1913119055698
 31
0.0
  0
LINE
  5
13F
330
32B
100
AcDbEntity
  8
DATA
  6
Continuous
 62
     7
100
AcDbLine
 10
-682.5
 20
333.0
 30
0.0
 11
-682.5
 21
194.8062484748657
 31
0.0
  0
LINE
  5
140
330
32B
100
AcDbEntity
  8
DATA
  6
Continuous
 62
     7
100
AcDbLine
 10
-692.4999999999999
 20
323.0
 30
0.0
 11
-692.4999999999999
 21
199.6124969497314
 31
0.0
  0
LINE
  5
141
330
32B
100
AcDbEntity
  8
DATA
  6
Continuous
 62
     7
100
AcDbLine
 10
-1107.5
 20
343.0
 30
0.0
 11
-692.4999999999999
 21
343.0
 31
0.0
  0
LINE
  5
142
330
32B
100
AcDbEntity
  8
DATA
  6
Continuous
 62
     7
100
AcDbLine
 10
-1097.5
 20
333.0
 30
0.0
 11
-702.5
 21
333.0
 31
0.0
  0
ARC
  5
143
330
32B
100
AcDbEntity
  8
DATA
  6
Continuous
 62
     7
100
AcDbCircle
 10
-692.4999999999999
 20
333.0
 30
0.0
 40
10.0
100
AcDbArc
 50
0.0
 51
90.0
  0
ARC
  5
144
330
32B
100
AcDbEntity
  8
DATA
  6
Continuous
 62
     7
100
AcDbCircle
 10
-1107.5
 20
333.0
 30
0.0
 40
10.0
100
AcDbArc
 50
90.0
 51
180.0
  0
ARC
  5
145
330
32B
100
AcDbEntity
  8
DATA
  6
Continuous
 62
     7
100
AcDbCircle
 10
-1097.5
 20
323.0
 30
0.0
 40
10.0
100
AcDbArc
 50
90.0
 51
180.0
  0
ARC
  5
146
330
32B
100
AcDbEntity
  8
DATA
  6
Continuous
 62
     7
100
AcDbCircle
 10
-702.5
 20
323.0
 30
0.0
 40
10.0
100
AcDbArc
 50
0.0
 51
90.0
  0
ARC
  5
147
330
32B
100
AcDbEntity
  8
DATA
  6
Continuous
 62
     7
100
AcDbCircle
 10
-692.4999999999999
 20
194.8062484748657
 30
0.0
 40
10.00000000000007
100
AcDbArc
 50
308.6598082540918
 51
0.0
  0
ARC
  5
148
330
32B
100
AcDbEntity
  8
DATA
  6
Continuous
 62
     7
100
AcDbCircle
 10
-711.0078105935817
 20
180.0
 30
0.0
 40
10.0
100
AcDbArc
 50
270.0
 51
308.6598082540918
  0
ARC
  5
149
330
32B
100
AcDbEntity
  8
DATA
  6
Continuous
 62
     7
100
AcDbCircle
 10
-1088.992189406417
 20
180.0
 30
0.0
 40
10.00000000000007
100
AcDbArc
 50
231.3401917459084
 51
270.0
  0
ARC
  5
14A
330
32B
100
AcDbEntity
  8
DATA
  6
Continuous
 62
     7
100
AcDbCircle
 10
-1107.5
 20
194.8062484748657
 30
0.0
 40
10.0
100
AcDbArc
 50
180.0
 51
231.3401917459084
  0
ARC
  5
14B
330
32B
100
AcDbEntity
  8
DATA
  6
Continuous
 62
     7
100
AcDbCircle
 10
-1097.5
 20
199.6124969497314
 30
0.0
 40
10.0
100
AcDbArc
 50
180.0
 51
231.3401917459084
  0
ARC
  5
14C
330
32B
100
AcDbEntity
  8
DATA
  6
Continuous
 62
     7
100
AcDbCircle
 10
-1085.484378812836
 20
190.0
 30
0.0
 40
10.00000000000007
100
AcDbArc
 50
231.3401917459084
 51
270.0
  0
ARC
  5
14D
330
32B
100
AcDbEntity
  8
DATA
  6
Continuous
 62
     7
100
AcDbCircle
 10
-702.5
 20
199.6124969497314
 30
0.0
 40
10.00000000000007
100
AcDbArc
 50
308.6598082540918
 51
0.0
  0
ARC
  5
14E
330
32B
100
AcDbEntity
  8
DATA
  6
Continuous
 62
     7
100
AcDbCircle
 10
-714.5156211871644
 20
190.0
 30
0.0
 40
10.0
100
AcDbArc
 50
270.0
 51
308.6598082540918
  0
ARC
  5
14F
330
32B
100
AcDbEntity
  8
DATA
  6
Continuous
 62
     7
100
AcDbCircle
 10
-650.0
 20
171.232963292879
 30
0.0
 40
15.00000000000017
100
AcDbArc
 50
310.2363583092721
 51
359.9999999999982
  0
ARC
  5
150
330
32B
100
AcDbEntity
  8
DATA
  6
Continuous
 62
     7
100
AcDbCircle
 10
-692.8207748006744
 20
135.0
 30
0.0
 40
15.0
100
AcDbArc
 50
270.0
 51
310.2363583092732
  0
LINE
  5
151
330
32B
100
AcDbEntity
  8
DATA
  6
Continuous
 62
     7
100
AcDbLine
 10
-1117.5
 20
580.1937515251343
 30
0.0
 11
-1117.5
 21
520.0
 31
0.0
  0
LINE
  5
152
330
32B
100
AcDbEntity
  8
DATA
  6
Continuous
 62
     7
100
AcDbLine
 10
-1107.5
 20
575.3875030502686
 30
0.0
 11
-1107.5
 21
530.0
 31
0.0
  0
LINE
  5
153
330
32B
100
AcDbEntity
  8
DATA
  6
Continuous
 62
     7
100
AcDbLine
 10
-1095.239139881962
 20
602.8086880944301
 30
0.0
 11
-1113.746950475544
 21
588.0024396195644
 31
0.0
  0
LINE
  5
154
330
32B
100
AcDbEntity
  8
DATA
  6
Continuous
 62
     7
100
AcDbLine
 10
-1091.73132928838
 20
592.8086880944301
 30
0.0
 11
-1103.746950475544
 21
583.1961911446986
 31
0.0
  0
LINE
  5
155
330
32B
100
AcDbEntity
  8
DATA
  6
Continuous
 62
     7
100
AcDbLine
 10
-711.0078105935817
 20
605.0
 30
0.0
 11
-1088.992189406417
 21
605.0
 31
0.0
  0
LINE
  5
156
330
32B
100
AcDbEntity
  8
DATA
  6
Continuous
 62
     7
100
AcDbLine
 10
-714.5156211871644
 20
595.0
 30
0.0
 11
-1085.484378812836
 21
595.0
 31
0.0
  0
LINE
  5
157
330
32B
100
AcDbEntity
  8
DATA
  6
Continuous
 62
     7
100
AcDbLine
 10
-686.2530495244555
 20
588.0024396195644
 30
0.0
 11
-704.7608601180372
 21
602.8086880944301
 31
0.0
  0
LINE
  5
158
330
32B
100
AcDbEntity
  8
DATA
  6
Continuous
 62
     7
100
AcDbLine
 10
-696.2530495244556
 20
583.1961911446986
 30
0.0
 11
-708.26867071162
 21
592.8086880944301
 31
0.0
  0
LINE
  5
159
330
32B
100
AcDbEntity
  8
DATA
  6
Continuous
 62
     7
100
AcDbLine
 10
-682.5
 20
520.0
 30
0.0
 11
-682.5
 21
580.1937515251343
 31
0.0
  0
LINE
  5
15A
330
32B
100
AcDbEntity
  8
DATA
  6
Continuous
 62
     7
100
AcDbLine
 10
-692.4999999999999
 20
530.0
 30
0.0
 11
-692.4999999999999
 21
575.3875030502686
 31
0.0
  0
LINE
  5
15B
330
32B
100
AcDbEntity
  8
DATA
  6
Continuous
 62
     7
100
AcDbLine
 10
-1107.5
 20
510.0
 30
0.0
 11
-692.4999999999999
 21
510.0
 31
0.0
  0
LINE
  5
15C
330
32B
100
AcDbEntity
  8
DATA
  6
Continuous
 62
     7
100
AcDbLine
 10
-1097.5
 20
520.0
 30
0.0
 11
-702.5
 21
520.0
 31
0.0
  0
ARC
  5
15D
330
32B
100
AcDbEntity
  8
DATA
  6
Continuous
 62
     7
100
AcDbCircle
 10
-692.4999999999999
 20
520.0
 30
0.0
 40
10.0
100
AcDbArc
 50
270.0
 51
0.0
  0
ARC
  5
15E
330
32B
100
AcDbEntity
  8
DATA
  6
Continuous
 62
     7
100
AcDbCircle
 10
-1107.5
 20
520.0
 30
0.0
 40
10.0
100
AcDbArc
 50
180.0
 51
270.0
  0
ARC
  5
15F
330
32B
100
AcDbEntity
  8
DATA
  6
Continuous
 62
     7
100
AcDbCircle
 10
-1097.5
 20
530.0
 30
0.0
 40
10.0
100
AcDbArc
 50
180.0
 51
270.0
  0
ARC
  5
160
330
32B
100
AcDbEntity
  8
DATA
  6
Continuous
 62
     7
100
AcDbCircle
 10
-702.5
 20
530.0
 30
0.0
 40
10.0
100
AcDbArc
 50
270.0
 51
0.0
  0
ARC
  5
161
330
32B
100
AcDbEntity
  8
DATA
  6
Continuous
 62
     7
100
AcDbCircle
 10
-692.4999999999999
 20
580.1937515251343
 30
0.0
 40
10.0
100
AcDbArc
 50
0.0
 51
51.34019174590827
  0
ARC
  5
162
330
32B
100
AcDbEntity
  8
DATA
  6
Continuous
 62
     7
100
AcDbCircle
 10
-711.0078105935817
 20
595.0
 30
0.0
 40
10.00000000000007
100
AcDbArc
 50
51.34019174590828
 51
90.0
  0
ARC
  5
163
330
32B
100
AcDbEntity
  8
DATA
  6
Continuous
 62
     7
100
AcDbCircle
 10
-1088.992189406417
 20
595.0
 30
0.0
 40
10.0
100
AcDbArc
 50
90.0
 51
128.6598082540917
  0
ARC
  5
164
330
32B
100
AcDbEntity
  8
DATA
  6
Continuous
 62
     7
100
AcDbCircle
 10
-1107.5
 20
580.1937515251343
 30
0.0
 40
10.00000000000007
100
AcDbArc
 50
128.6598082540917
 51
180.0
  0
ARC
  5
165
330
32B
100
AcDbEntity
  8
DATA
  6
Continuous
 62
     7
100
AcDbCircle
 10
-1097.5
 20
575.3875030502686
 30
0.0
 40
10.00000000000007
100
AcDbArc
 50
128.6598082540917
 51
180.0
  0
ARC
  5
166
330
32B
100
AcDbEntity
  8
DATA
  6
Continuous
 62
     7
100
AcDbCircle
 10
-1085.484378812836
 20
585.0
 30
0.0
 40
10.0
100
AcDbArc
 50
90.0
 51
128.6598082540917
  0
ARC
  5
167
330
32B
100
AcDbEntity
  8
DATA
  6
Continuous
 62
     7
100
AcDbCircle
 10
-702.5
 20
575.3875030502686
 30
0.0
 40
10.0
100
AcDbArc
 50
0.0
 51
51.34019174590827
  0
ARC
  5
168
330
32B
100
AcDbEntity
  8
DATA
  6
Continuous
 62
     7
100
AcDbCircle
 10
-714.5156211871644
 20
585.0
 30
0.0
 40
10.00000000000007
100
AcDbArc
 50
51.34019174590828
 51
90.0
  0
CIRCLE
  5
169
330
32B
100
AcDbEntity
  8
DATA
  6
Continuous
 62
     7
100
AcDbCircle
 10
-900.0
 20
425.0
 30
0.0
 40
53.50000000000028
  0
CIRCLE
  5
16A
330
32B
100
AcDbEntity
  8
DATA
  6
Continuous
 62
     7
100
AcDbCircle
 10
-900.0
 20
425.0
 30
0.0
 40
51.49999999999891
  0
CIRCLE
  5
16B
330
32B
100
AcDbEntity
  8
DATA
  6
Continuous
 62
     7
100
AcDbCircle
 10
-900.0
 20
425.0
 30
0.0
 40
10.99999999999972
  0
CIRCLE
  5
16C
330
32B
100
AcDbEntity
  8
DATA
  6
Continuous
 62
     7
100
AcDbCircle
 10
-860.0
 20
425.0
 30
0.0
 40
6.0
  0
CIRCLE
  5
16D
330
32B
100
AcDbEntity
  8
DATA
  6
Continuous
 62
     7
100
AcDbCircle
 10
-940.0
 20
425.0
 30
0.0
 40
6.0
  0
CIRCLE
  5
16E
330
32B
100
AcDbEntity
  8
DATA
  6
Continuous
 62
     7
100
AcDbCircle
 10
-900.0
 20
385.0
 30
0.0
 40
6.0
  0
CIRCLE
  5
16F
330
32B
100
AcDbEntity
  8
DATA
  6
Continuous
 62
     7
100
AcDbCircle
 10
-900.0
 20
465.0
 30
0.0
 40
6.0
  0
LWPOLYLINE
  5
170
330
32B
100
AcDbEntity
  8
DATA
  6
Continuous
 62
     7
100
AcDbPolyline
 90
        6
 70
     1
 43
0.0
 10
-898.1265006004816
 20
464.2999999999997
 10
-898.4570325175919
 20
466.272498073959
 10
-900.3305319171104
 20
466.9724980739588
 10
-901.8734993995204
 20
465.7000000000002
 10
-901.5429674824098
 20
463.7275019260409
 10
-899.6694680828895
 20
463.0275019260412
  0
LWPOLYLINE
  5
179
330
32B
100
AcDbEntity
  8
DATA
  6
Continuous
 62
     7
100
AcDbPolyline
 90
        6
 70
     1
 43
0.0
 10
-858.1265006004816
 20
424.2999999999996
 10
-858.4570325175919
 20
426.272498073959
 10
-860.3305319171104
 20
426.9724980739588
 10
-861.8734993995204
 20
425.7000000000002
 10
-861.5429674824097
 20
423.7275019260409
 10
-859.6694680828896
 20
423.0275019260411
  0
LWPOLYLINE
  5
182
330
32B
100
AcDbEntity
  8
DATA
  6
Continuous
 62
     7
100
AcDbPolyline
 90
        6
 70
     1
 43
0.0
 10
-898.1265006004816
 20
384.2999999999997
 10
-898.4570325175919
 20
386.2724980739591
 10
-900.3305319171104
 20
386.9724980739588
 10
-901.8734993995204
 20
385.7000000000002
 10
-901.5429674824098
 20
383.7275019260409
 10
-899.6694680828895
 20
383.0275019260412
  0
LWPOLYLINE
  5
18B
330
32B
100
AcDbEntity
  8
DATA
  6
Continuous
 62
     7
100
AcDbPolyline
 90
        6
 70
     1
 43
0.0
 10
-938.1265006004815
 20
424.2999999999996
 10
-938.4570325175918
 20
426.272498073959
 10
-940.3305319171105
 20
426.9724980739588
 10
-941.8734993995203
 20
425.7000000000002
 10
-941.5429674824098
 20
423.7275019260409
 10
-939.6694680828895
 20
423.0275019260411
  0
CIRCLE
  5
194
330
32B
100
AcDbEntity
  8
DATA
  6
Continuous
 62
     7
100
AcDbCircle
 10
-900.0
 20
425.0
 30
0.0
 40
9.999999999999438
  0
LINE
  5
195
330
32B
100
AcDbEntity
  8
DATA
  6
Continuous
 62
     7
100
AcDbLine
 10
-360.0
 20
-580.7294901687515
 30
0.0
 11
-360.0
 21
-59.27050983124855
 31
0.0
  0
LINE
  5
196
330
32B
100
AcDbEntity
  8
DATA
  6
Continuous
 62
     7
100
AcDbLine
 10
336.4589803375029
 20
-600.0
 30
0.0
 11
-336.4589803375029
 21
-600.0
 31
0.0
  0
LINE
  5
197
330
32B
100
AcDbEntity
  8
DATA
  6
Continuous
 62
     7
100
AcDbLine
 10
343.1671842700025
 20
-598.4164078649987
 30
0.0
 11
351.7082039324996
 21
-594.1458980337501
 31
0.0
  0
LINE
  5
198
330
32B
100
AcDbEntity
  8
DATA
  6
Continuous
 62
     7
100
AcDbLine
 10
-343.1671842700025
 20
-598.4164078649987
 30
0.0
 11
-351.7082039324996
 21
-594.1458980337501
 31
0.0
  0
LINE
  5
199
330
32B
100
AcDbEntity
  8
DATA
  6
Continuous
 62
     7
100
AcDbLine
 10
360.0
 20
-59.27050983124855
 30
0.0
 11
360.0
 21
-580.7294901687515
 31
0.0
  0
LINE
  5
19A
330
32B
100
AcDbEntity
  8
DATA
  6
Continuous
 62
     7
100
AcDbLine
 10
-336.4589803375029
 20
-40.0
 30
0.0
 11
336.4589803375029
 21
-40.0
 31
0.0
  0
LINE
  5
19B
330
32B
100
AcDbEntity
  8
DATA
  6
Continuous
 62
     7
100
AcDbLine
 10
343.1671842700025
 20
-41.58359213500125
 30
0.0
 11
351.7082039324996
 21
-45.85410196624979
 31
0.0
  0
LINE
  5
19C
330
32B
100
AcDbEntity
  8
DATA
  6
Continuous
 62
     7
100
AcDbLine
 10
-343.1671842700025
 20
-41.58359213500125
 30
0.0
 11
-351.7082039324996
 21
-45.85410196624979
 31
0.0
  0
LINE
  5
19D
330
32B
100
AcDbEntity
  8
DATA
  6
Continuous
 62
     7
100
AcDbLine
 10
-305.0
 20
-40.0
 30
0.0
 11
-305.0
 21
-600.0
 31
0.0
  0
ARC
  5
19E
330
32B
100
AcDbEntity
  8
DATA
  6
Continuous
 62
     7
100
AcDbCircle
 10
336.4589803375029
 20
-55.0
 30
0.0
 40
15.00000000000011
100
AcDbArc
 50
63.43494882292123
 51
90.0
  0
ARC
  5
19F
330
32B
100
AcDbEntity
  8
DATA
  6
Continuous
 62
     7
100
AcDbCircle
 10
345.0
 20
-59.27050983124832
 30
0.0
 40
15.0
100
AcDbArc
 50
359.9999999999992
 51
63.43494882292085
  0
ARC
  5
1A0
330
32B
100
AcDbEntity
  8
DATA
  6
Continuous
 62
     7
100
AcDbCircle
 10
345.0
 20
-580.7294901687515
 30
0.0
 40
14.99999999999991
100
AcDbArc
 50
296.5650511770792
 51
0.0000000000008527
  0
ARC
  5
1A1
330
32B
100
AcDbEntity
  8
DATA
  6
Continuous
 62
     7
100
AcDbCircle
 10
336.4589803375029
 20
-585.0
 30
0.0
 40
15.0
100
AcDbArc
 50
270.0
 51
296.5650511770789
  0
ARC
  5
1A2
330
32B
100
AcDbEntity
  8
DATA
  6
Continuous
 62
     7
100
AcDbCircle
 10
-336.4589803375029
 20
-585.0
 30
0.0
 40
15.00000000000011
100
AcDbArc
 50
243.4349488229213
 51
270.0
  0
ARC
  5
1A3
330
32B
100
AcDbEntity
  8
DATA
  6
Continuous
 62
     7
100
AcDbCircle
 10
-345.0
 20
-580.7294901687515
 30
0.0
 40
15.0
100
AcDbArc
 50
179.9999999999992
 51
243.4349488229209
  0
ARC
  5
1A4
330
32B
100
AcDbEntity
  8
DATA
  6
Continuous
 62
     7
100
AcDbCircle
 10
-336.4589803375029
 20
-55.0
 30
0.0
 40
15.0
100
AcDbArc
 50
90.0
 51
116.5650511770788
  0
ARC
  5
1A5
330
32B
100
AcDbEntity
  8
DATA
  6
Continuous
 62
     7
100
AcDbCircle
 10
-345.0
 20
-59.27050983124832
 30
0.0
 40
14.99999999999991
100
AcDbArc
 50
116.5650511770791
 51
180.0000000000009
  0
LINE
  5
1A6
330
32B
100
AcDbEntity
  8
DATA
  6
Continuous
 62
     7
100
AcDbLine
 10
290.0
 20
-604.0
 30
0.0
 11
290.0
 21
-600.0
 31
0.0
  0
LINE
  5
1A7
330
32B
100
AcDbEntity
  8
DATA
  6
Continuous
 62
     7
100
AcDbLine
 10
330.0
 20
-604.0
 30
0.0
 11
290.0
 21
-604.0
 31
0.0
  0
LINE
  5
1A8
330
32B
100
AcDbEntity
  8
DATA
  6
Continuous
 62
     7
100
AcDbLine
 10
330.0
 20
-600.0
 30
0.0
 11
330.0
 21
-604.0
 31
0.0
  0
LINE
  5
1A9
330
32B
100
AcDbEntity
  8
DATA
  6
Continuous
 62
     7
100
AcDbLine
 10
-300.0
 20
-604.0
 30
0.0
 11
-300.0
 21
-600.0
 31
0.0
  0
LINE
  5
1AA
330
32B
100
AcDbEntity
  8
DATA
  6
Continuous
 62
     7
100
AcDbLine
 10
-260.0
 20
-604.0
 30
0.0
 11
-300.0
 21
-604.0
 31
0.0
  0
LINE
  5
1AB
330
32B
100
AcDbEntity
  8
DATA
  6
Continuous
 62
     7
100
AcDbLine
 10
-260.0
 20
-600.0
 30
0.0
 11
-260.0
 21
-604.0
 31
0.0
  0
LINE
  5
1AC
330
32B
100
AcDbEntity
  8
DATA
  6
Continuous
 62
     7
100
AcDbLine
 10
1088.035064988616
 20
-580.7294901687515
 30
0.0
 11
1088.035064988616
 21
-59.27050983124855
 31
0.0
  0
LINE
  5
1AD
330
32B
100
AcDbEntity
  8
DATA
  6
Continuous
 62
     7
100
AcDbLine
 10
518.0350649886159
 20
-580.7294901687515
 30
0.0
 11
518.0350649886159
 21
-59.27050983124855
 31
0.0
  0
LINE
  5
1AE
330
32B
100
AcDbEntity
  8
DATA
  6
Continuous
 62
     7
100
AcDbLine
 10
1064.494045326119
 20
-40.0
 30
0.0
 11
541.5760846511131
 21
-40.0
 31
0.0
  0
LINE
  5
1AF
330
32B
100
AcDbEntity
  8
DATA
  6
Continuous
 62
     7
100
AcDbLine
 10
534.8678807186137
 20
-41.58359213500125
 30
0.0
 11
526.3268610561165
 21
-45.85410196624979
 31
0.0
  0
LINE
  5
1B0
330
32B
100
AcDbEntity
  8
DATA
  6
Continuous
 62
     7
100
AcDbLine
 10
1071.202249258618
 20
-41.58359213500125
 30
0.0
 11
1079.743268921115
 21
-45.85410196624979
 31
0.0
  0
LINE
  5
1B1
330
32B
100
AcDbEntity
  8
DATA
  6
Continuous
 62
     7
100
AcDbLine
 10
1064.494045326119
 20
-600.0
 30
0.0
 11
541.5760846511131
 21
-600.0
 31
0.0
  0
LINE
  5
1B2
330
32B
100
AcDbEntity
  8
DATA
  6
Continuous
 62
     7
100
AcDbLine
 10
1071.202249258618
 20
-598.4164078649987
 30
0.0
 11
1079.743268921115
 21
-594.1458980337501
 31
0.0
  0
LINE
  5
1B3
330
32B
100
AcDbEntity
  8
DATA
  6
Continuous
 62
     7
100
AcDbLine
 10
534.8678807186137
 20
-598.4164078649987
 30
0.0
 11
526.3268610561165
 21
-594.1458980337501
 31
0.0
  0
LINE
  5
1B4
330
32B
100
AcDbEntity
  8
DATA
  6
Continuous
 62
     7
100
AcDbLine
 10
1088.035064988616
 20
-575.0
 30
0.0
 11
518.0350649886159
 21
-575.0
 31
0.0
  0
LINE
  5
1B5
330
32B
100
AcDbEntity
  8
DATA
  6
Continuous
 62
     7
100
AcDbLine
 10
1084.827335654977
 20
-590.0
 30
0.0
 11
521.2427943222548
 21
-590.0
 31
0.0
  0
ARC
  5
1B6
330
32B
100
AcDbEntity
  8
DATA
  6
Continuous
 62
     7
100
AcDbCircle
 10
1073.035064988616
 20
-59.27050983124832
 30
0.0
 40
15.0
100
AcDbArc
 50
359.9999999999992
 51
63.43494882292085
  0
ARC
  5
1B7
330
32B
100
AcDbEntity
  8
DATA
  6
Continuous
 62
     7
100
AcDbCircle
 10
1064.494045326119
 20
-55.0
 30
0.0
 40
15.00000000000011
100
AcDbArc
 50
63.43494882292123
 51
90.0
  0
ARC
  5
1B8
330
32B
100
AcDbEntity
  8
DATA
  6
Continuous
 62
     7
100
AcDbCircle
 10
541.5760846511131
 20
-55.0
 30
0.0
 40
15.0
100
AcDbArc
 50
90.0
 51
116.5650511770788
  0
ARC
  5
1B9
330
32B
100
AcDbEntity
  8
DATA
  6
Continuous
 62
     7
100
AcDbCircle
 10
533.035064988616
 20
-59.27050983124832
 30
0.0
 40
14.99999999999991
100
AcDbArc
 50
116.5650511770791
 51
180.0000000000009
  0
ARC
  5
1BA
330
32B
100
AcDbEntity
  8
DATA
  6
Continuous
 62
     7
100
AcDbCircle
 10
533.035064988616
 20
-580.7294901687515
 30
0.0
 40
15.0
100
AcDbArc
 50
179.9999999999992
 51
243.4349488229209
  0
ARC
  5
1BB
330
32B
100
AcDbEntity
  8
DATA
  6
Continuous
 62
     7
100
AcDbCircle
 10
541.5760846511131
 20
-585.0
 30
0.0
 40
15.00000000000011
100
AcDbArc
 50
243.4349488229213
 51
270.0
  0
ARC
  5
1BC
330
32B
100
AcDbEntity
  8
DATA
  6
Continuous
 62
     7
100
AcDbCircle
 10
1073.035064988616
 20
-580.7294901687515
 30
0.0
 40
14.99999999999991
100
AcDbArc
 50
296.5650511770792
 51
0.0000000000008527
  0
ARC
  5
1BD
330
32B
100
AcDbEntity
  8
DATA
  6
Continuous
 62
     7
100
AcDbCircle
 10
1064.494045326119
 20
-585.0
 30
0.0
 40
15.0
100
AcDbArc
 50
270.0
 51
296.5650511770789
  0
LINE
  5
1BE
330
32B
100
AcDbEntity
  8
DATA
  6
Continuous
 62
     7
100
AcDbLine
 10
553.035064988616
 20
-600.0
 30
0.0
 11
553.035064988616
 21
-604.0
 31
0.0
  0
LINE
  5
1BF
330
32B
100
AcDbEntity
  8
DATA
  6
Continuous
 62
     7
100
AcDbLine
 10
553.035064988616
 20
-604.0
 30
0.0
 11
593.0350649886161
 21
-604.0
 31
0.0
  0
LINE
  5
1C0
330
32B
100
AcDbEntity
  8
DATA
  6
Continuous
 62
     7
100
AcDbLine
 10
593.0350649886161
 20
-604.0
 30
0.0
 11
593.0350649886161
 21
-600.0
 31
0.0
  0
LINE
  5
1C1
330
32B
100
AcDbEntity
  8
DATA
  6
Continuous
 62
     7
100
AcDbLine
 10
1053.035064988616
 20
-600.0
 30
0.0
 11
1053.035064988616
 21
-604.0
 31
0.0
  0
LINE
  5
1C2
330
32B
100
AcDbEntity
  8
DATA
  6
Continuous
 62
     7
100
AcDbLine
 10
1053.035064988616
 20
-604.0
 30
0.0
 11
1013.035064988616
 21
-604.0
 31
0.0
  0
LINE
  5
1C3
330
32B
100
AcDbEntity
  8
DATA
  6
Continuous
 62
     7
100
AcDbLine
 10
1013.035064988616
 20
-604.0
 30
0.0
 11
1013.035064988616
 21
-600.0
 31
0.0
  0
LINE
  5
1C4
330
32B
100
AcDbEntity
  8
DATA
  6
Continuous
 62
     7
100
AcDbLine
 10
1088.035064988616
 20
-65.0
 30
0.0
 11
518.0350649886159
 21
-65.0
 31
0.0
  0
LINE
  5
1C5
330
32B
100
AcDbEntity
  8
DATA
  6
Continuous
 62
     7
100
AcDbLine
 10
1084.827335654977
 20
-50.0
 30
0.0
 11
521.2427943222548
 21
-50.0
 31
0.0
  0
CIRCLE
  5
1C6
330
32B
100
AcDbEntity
  8
DATA
  6
Continuous
 62
     7
100
AcDbCircle
 10
966.035064988616
 20
-155.0
 30
0.0
 40
4.000000000000353
  0
CIRCLE
  5
1C7
330
32B
100
AcDbEntity
  8
DATA
  6
Continuous
 62
     7
100
AcDbCircle
 10
1046.035064988616
 20
-155.0
 30
0.0
 40
3.999999999999903
  0
CIRCLE
  5
1C8
330
32B
100
AcDbEntity
  8
DATA
  6
Continuous
 62
     7
100
AcDbCircle
 10
966.035064988616
 20
-95.0
 30
0.0
 40
4.000000000000353
  0
CIRCLE
  5
1C9
330
32B
100
AcDbEntity
  8
DATA
  6
Continuous
 62
     7
100
AcDbCircle
 10
1046.035064988616
 20
-95.0
 30
0.0
 40
3.999999999999903
  0
CIRCLE
  5
1CA
330
32B
100
AcDbEntity
  8
DATA
  6
Continuous
 62
     7
100
AcDbCircle
 10
640.0350649886161
 20
-155.0
 30
0.0
 40
4.000000000000353
  0
CIRCLE
  5
1CB
330
32B
100
AcDbEntity
  8
DATA
  6
Continuous
 62
     7
100
AcDbCircle
 10
560.0350649886159
 20
-155.0
 30
0.0
 40
3.999999999999903
  0
CIRCLE
  5
1CC
330
32B
100
AcDbEntity
  8
DATA
  6
Continuous
 62
     7
100
AcDbCircle
 10
640.0350649886161
 20
-95.0
 30
0.0
 40
4.000000000000353
  0
CIRCLE
  5
1CD
330
32B
100
AcDbEntity
  8
DATA
  6
Continuous
 62
     7
100
AcDbCircle
 10
560.0350649886159
 20
-95.0
 30
0.0
 40
3.999999999999903
  0
CIRCLE
  5
1CE
330
32B
100
AcDbEntity
  8
DATA
  6
Continuous
 62
     7
100
AcDbCircle
 10
966.035064988616
 20
-490.0
 30
0.0
 40
4.000000000000353
  0
CIRCLE
  5
1CF
330
32B
100
AcDbEntity
  8
DATA
  6
Continuous
 62
     7
100
AcDbCircle
 10
1046.035064988616
 20
-490.0
 30
0.0
 40
3.999999999999903
  0
CIRCLE
  5
1D0
330
32B
100
AcDbEntity
  8
DATA
  6
Continuous
 62
     7
100
AcDbCircle
 10
966.035064988616
 20
-550.0
 30
0.0
 40
4.000000000000353
  0
CIRCLE
  5
1D1
330
32B
100
AcDbEntity
  8
DATA
  6
Continuous
 62
     7
100
AcDbCircle
 10
1046.035064988616
 20
-550.0
 30
0.0
 40
3.999999999999903
  0
CIRCLE
  5
1D2
330
32B
100
AcDbEntity
  8
DATA
  6
Continuous
 62
     7
100
AcDbCircle
 10
640.0350649886161
 20
-490.0
 30
0.0
 40
4.000000000000353
  0
CIRCLE
  5
1D3
330
32B
100
AcDbEntity
  8
DATA
  6
Continuous
 62
     7
100
AcDbCircle
 10
560.0350649886159
 20
-490.0
 30
0.0
 40
3.999999999999903
  0
CIRCLE
  5
1D4
330
32B
100
AcDbEntity
  8
DATA
  6
Continuous
 62
     7
100
AcDbCircle
 10
640.0350649886161
 20
-550.0
 30
0.0
 40
4.000000000000353
  0
CIRCLE
  5
1D5
330
32B
100
AcDbEntity
  8
DATA
  6
Continuous
 62
     7
100
AcDbCircle
 10
560.0350649886159
 20
-550.0
 30
0.0
 40
3.999999999999903
  0
LINE
  5
1D6
330
32B
100
AcDbEntity
  8
DATA
  6
Continuous
 62
     7
100
AcDbLine
 10
-360.0
 20
-575.0
 30
0.0
 11
360.0
 21
-575.0
 31
0.0
  0
LINE
  5
1D7
330
32B
100
AcDbEntity
  8
DATA
  6
Continuous
 62
     7
100
AcDbLine
 10
-356.7922706663612
 20
-590.0
 30
0.0
 11
356.7922706663612
 21
-590.0
 31
0.0
  0
LINE
  5
1D8
330
32B
100
AcDbEntity
  8
DATA
  6
Continuous
 62
     7
100
AcDbLine
 10
-1114.505382228282
 20
-800.0
 30
0.0
 11
-685.4946177717176
 21
-800.0
 31
0.0
  0
LINE
  5
1D9
330
32B
100
AcDbEntity
  8
DATA
  6
Continuous
 62
     7
100
AcDbLine
 10
-1107.179225199325
 20
-820.0
 30
0.0
 11
-692.8207748006744
 21
-820.0
 31
0.0
  0
LINE
  5
1DA
330
32B
100
AcDbEntity
  8
DATA
  6
Continuous
 62
     7
100
AcDbLine
 10
-675.805484149725
 20
-803.5492057194632
 30
0.0
 11
-620.3108663780076
 21
-850.5061899878397
 31
0.0
  0
LINE
  5
1DB
330
32B
100
AcDbEntity
  8
DATA
  6
Continuous
 62
     7
100
AcDbLine
 10
-683.1316411786819
 20
-823.5492057194633
 30
0.0
 11
-640.3108663780076
 21
-859.7821690123419
 31
0.0
  0
LINE
  5
1DC
330
32B
100
AcDbEntity
  8
DATA
  6
Continuous
 62
     7
100
AcDbLine
 10
-1124.194515850275
 20
-803.5492057194632
 30
0.0
 11
-1179.689133621993
 21
-850.5061899878397
 31
0.0
  0
LINE
  5
1DD
330
32B
100
AcDbEntity
  8
DATA
  6
Continuous
 62
     7
100
AcDbLine
 10
-1116.868358821318
 20
-823.5492057194633
 30
0.0
 11
-1159.689133621992
 21
-859.7821690123419
 31
0.0
  0
LINE
  5
1DE
330
32B
100
AcDbEntity
  8
DATA
  6
Continuous
 62
     7
100
AcDbLine
 10
-1170.0
 20
-1520.0
 30
0.0
 11
-630.0
 21
-1520.0
 31
0.0
  0
LINE
  5
1DF
330
32B
100
AcDbEntity
  8
DATA
  6
Continuous
 62
     7
100
AcDbLine
 10
-1150.0
 20
-1500.0
 30
0.0
 11
-650.0
 21
-1500.0
 31
0.0
  0
LINE
  5
1E0
330
32B
100
AcDbEntity
  8
DATA
  6
Continuous
 62
     7
100
AcDbLine
 10
-1185.0
 20
-1505.0
 30
0.0
 11
-1185.0
 21
-861.9569842683763
 31
0.0
  0
LINE
  5
1E1
330
32B
100
AcDbEntity
  8
DATA
  6
Continuous
 62
     7
100
AcDbLine
 10
-1165.0
 20
-1485.0
 30
0.0
 11
-1165.0
 21
-871.2329632928787
 31
0.0
  0
LINE
  5
1E2
330
32B
100
AcDbEntity
  8
DATA
  6
Continuous
 62
     7
100
AcDbLine
 10
-615.0
 20
-1505.0
 30
0.0
 11
-615.0
 21
-861.9569842683763
 31
0.0
  0
LINE
  5
1E3
330
32B
100
AcDbEntity
  8
DATA
  6
Continuous
 62
     7
100
AcDbLine
 10
-635.0
 20
-1485.0
 30
0.0
 11
-635.0
 21
-871.2329632928787
 31
0.0
  0
ARC
  5
1E4
330
32B
100
AcDbEntity
  8
DATA
  6
Continuous
 62
     7
100
AcDbCircle
 10
-1114.505382228282
 20
-815.0
 30
0.0
 40
15.0
100
AcDbArc
 50
90.0
 51
130.2363583092732
  0
ARC
  5
1E5
330
32B
100
AcDbEntity
  8
DATA
  6
Continuous
 62
     7
100
AcDbCircle
 10
-1170.0
 20
-861.9569842683768
 30
0.0
 40
15.00000000000017
100
AcDbArc
 50
130.236358309272
 51
179.9999999999983
  0
ARC
  5
1E6
330
32B
100
AcDbEntity
  8
DATA
  6
Continuous
 62
     7
100
AcDbCircle
 10
-685.4946177717176
 20
-815.0
 30
0.0
 40
14.99999999999982
100
AcDbArc
 50
49.76364169072678
 51
90.0
  0
ARC
  5
1E7
330
32B
100
AcDbEntity
  8
DATA
  6
Continuous
 62
     7
100
AcDbCircle
 10
-630.0
 20
-861.9569842683768
 30
0.0
 40
15.0
100
AcDbArc
 50
0.0000000000017053
 51
49.76364169072787
  0
ARC
  5
1E8
330
32B
100
AcDbEntity
  8
DATA
  6
Continuous
 62
     7
100
AcDbCircle
 10
-630.0
 20
-1505.0
 30
0.0
 40
15.0
100
AcDbArc
 50
270.0
 51
0.0
  0
ARC
  5
1E9
330
32B
100
AcDbEntity
  8
DATA
  6
Continuous
 62
     7
100
AcDbCircle
 10
-1170.0
 20
-1505.0
 30
0.0
 40
15.0
100
AcDbArc
 50
180.0
 51
270.0
  0
ARC
  5
1EA
330
32B
100
AcDbEntity
  8
DATA
  6
Continuous
 62
     7
100
AcDbCircle
 10
-1107.179225199325
 20
-835.0
 30
0.0
 40
15.0
100
AcDbArc
 50
90.0
 51
130.2363583092732
  0
ARC
  5
1EB
330
32B
100
AcDbEntity
  8
DATA
  6
Continuous
 62
     7
100
AcDbCircle
 10
-1150.0
 20
-871.232963292879
 30
0.0
 40
15.00000000000017
100
AcDbArc
 50
130.236358309272
 51
179.9999999999983
  0
ARC
  5
1EC
330
32B
100
AcDbEntity
  8
DATA
  6
Continuous
 62
     7
100
AcDbCircle
 10
-1150.0
 20
-1485.0
 30
0.0
 40
15.0
100
AcDbArc
 50
180.0
 51
270.0
  0
ARC
  5
1ED
330
32B
100
AcDbEntity
  8
DATA
  6
Continuous
 62
     7
100
AcDbCircle
 10
-650.0
 20
-1485.0
 30
0.0
 40
15.0
100
AcDbArc
 50
270.0
 51
0.0
  0
ARC
  5
1EE
330
32B
100
AcDbEntity
  8
DATA
  6
Continuous
 62
     7
100
AcDbCircle
 10
-650.0
 20
-871.232963292879
 30
0.0
 40
15.0
100
AcDbArc
 50
0.0000000000017053
 51
49.76364169072787
  0
ARC
  5
1EF
330
32B
100
AcDbEntity
  8
DATA
  6
Continuous
 62
     7
100
AcDbCircle
 10
-692.8207748006744
 20
-835.0
 30
0.0
 40
14.99999999999982
100
AcDbArc
 50
49.76364169072678
 51
90.0
  0
CIRCLE
  5
1F0
330
32B
100
AcDbEntity
  8
DATA
  6
Continuous
 62
     7
100
AcDbCircle
 10
-1130.0
 20
-880.0
 30
0.0
 40
20.0
  0
CIRCLE
  5
1F1
330
32B
100
AcDbEntity
  8
DATA
  6
Continuous
 62
     7
100
AcDbCircle
 10
-1130.0
 20
-880.0
 30
0.0
 40
9.999999999999666
  0
CIRCLE
  5
1F2
330
32B
100
AcDbEntity
  8
DATA
  6
Continuous
 62
     7
100
AcDbCircle
 10
-1130.0
 20
-880.0
 30
0.0
 40
5.5
  0
CIRCLE
  5
1F3
330
32B
100
AcDbEntity
  8
DATA
  6
Continuous
 62
     7
100
AcDbCircle
 10
-1130.0
 20
-1465.0
 30
0.0
 40
20.0
  0
CIRCLE
  5
1F4
330
32B
100
AcDbEntity
  8
DATA
  6
Continuous
 62
     7
100
AcDbCircle
 10
-1130.0
 20
-1465.0
 30
0.0
 40
9.999999999999666
  0
CIRCLE
  5
1F5
330
32B
100
AcDbEntity
  8
DATA
  6
Continuous
 62
     7
100
AcDbCircle
 10
-1130.0
 20
-1465.0
 30
0.0
 40
5.5
  0
CIRCLE
  5
1F6
330
32B
100
AcDbEntity
  8
DATA
  6
Continuous
 62
     7
100
AcDbCircle
 10
-670.0
 20
-880.0
 30
0.0
 40
20.0
  0
CIRCLE
  5
1F7
330
32B
100
AcDbEntity
  8
DATA
  6
Continuous
 62
     7
100
AcDbCircle
 10
-670.0
 20
-880.0
 30
0.0
 40
9.999999999999666
  0
CIRCLE
  5
1F8
330
32B
100
AcDbEntity
  8
DATA
  6
Continuous
 62
     7
100
AcDbCircle
 10
-670.0
 20
-880.0
 30
0.0
 40
5.5
  0
CIRCLE
  5
1F9
330
32B
100
AcDbEntity
  8
DATA
  6
Continuous
 62
     7
100
AcDbCircle
 10
-670.0
 20
-1465.0
 30
0.0
 40
20.0
  0
CIRCLE
  5
1FA
330
32B
100
AcDbEntity
  8
DATA
  6
Continuous
 62
     7
100
AcDbCircle
 10
-670.0
 20
-1465.0
 30
0.0
 40
9.999999999999666
  0
CIRCLE
  5
1FB
330
32B
100
AcDbEntity
  8
DATA
  6
Continuous
 62
     7
100
AcDbCircle
 10
-670.0
 20
-1465.0
 30
0.0
 40
5.5
  0
LINE
  5
1FC
330
32B
100
AcDbEntity
  8
DATA
  6
Continuous
 62
     7
100
AcDbLine
 10
740.5350649886162
 20
-547.0
 30
0.0
 11
740.5350649886162
 21
-357.0
 31
0.0
  0
LINE
  5
1FD
330
32B
100
AcDbEntity
  8
DATA
  6
Continuous
 62
     7
100
AcDbLine
 10
755.5350649886162
 20
-532.0
 30
0.0
 11
755.5350649886162
 21
-372.0
 31
0.0
  0
LINE
  5
1FE
330
32B
100
AcDbEntity
  8
DATA
  6
Continuous
 62
     7
100
AcDbLine
 10
860.5350649886162
 20
-552.0
 30
0.0
 11
745.5350649886162
 21
-552.0
 31
0.0
  0
LINE
  5
1FF
330
32B
100
AcDbEntity
  8
DATA
  6
Continuous
 62
     7
100
AcDbLine
 10
845.5350649886161
 20
-537.0
 30
0.0
 11
760.5350649886162
 21
-537.0
 31
0.0
  0
LINE
  5
200
330
32B
100
AcDbEntity
  8
DATA
  6
Continuous
 62
     7
100
AcDbLine
 10
865.5350649886162
 20
-357.0
 30
0.0
 11
865.5350649886162
 21
-547.0
 31
0.0
  0
LINE
  5
201
330
32B
100
AcDbEntity
  8
DATA
  6
Continuous
 62
     7
100
AcDbLine
 10
850.5350649886162
 20
-372.0
 30
0.0
 11
850.5350649886162
 21
-532.0
 31
0.0
  0
LINE
  5
202
330
32B
100
AcDbEntity
  8
DATA
  6
Continuous
 62
     7
100
AcDbLine
 10
745.5350649886162
 20
-352.0
 30
0.0
 11
860.5350649886162
 21
-352.0
 31
0.0
  0
LINE
  5
203
330
32B
100
AcDbEntity
  8
DATA
  6
Continuous
 62
     7
100
AcDbLine
 10
760.5350649886162
 20
-367.0
 30
0.0
 11
845.5350649886161
 21
-367.0
 31
0.0
  0
ARC
  5
204
330
32B
100
AcDbEntity
  8
DATA
  6
Continuous
 62
     7
100
AcDbCircle
 10
745.5350649886162
 20
-357.0
 30
0.0
 40
5.0
100
AcDbArc
 50
90.0
 51
180.0
  0
ARC
  5
205
330
32B
100
AcDbEntity
  8
DATA
  6
Continuous
 62
     7
100
AcDbCircle
 10
745.5350649886162
 20
-547.0
 30
0.0
 40
5.0
100
AcDbArc
 50
180.0
 51
270.0
  0
ARC
  5
206
330
32B
100
AcDbEntity
  8
DATA
  6
Continuous
 62
     7
100
AcDbCircle
 10
860.5350649886162
 20
-547.0
 30
0.0
 40
5.0
100
AcDbArc
 50
270.0
 51
0.0
  0
ARC
  5
207
330
32B
100
AcDbEntity
  8
DATA
  6
Continuous
 62
     7
100
AcDbCircle
 10
860.5350649886162
 20
-357.0
 30
0.0
 40
5.0
100
AcDbArc
 50
0.0
 51
90.0
  0
ARC
  5
208
330
32B
100
AcDbEntity
  8
DATA
  6
Continuous
 62
     7
100
AcDbCircle
 10
760.5350649886162
 20
-372.0
 30
0.0
 40
5.0
100
AcDbArc
 50
90.0
 51
180.0
  0
ARC
  5
209
330
32B
100
AcDbEntity
  8
DATA
  6
Continuous
 62
     7
100
AcDbCircle
 10
845.5350649886161
 20
-372.0
 30
0.0
 40
5.0
100
AcDbArc
 50
0.0
 51
90.0
  0
ARC
  5
20A
330
32B
100
AcDbEntity
  8
DATA
  6
Continuous
 62
     7
100
AcDbCircle
 10
845.5350649886161
 20
-532.0
 30
0.0
 40
5.0
100
AcDbArc
 50
270.0
 51
0.0
  0
ARC
  5
20B
330
32B
100
AcDbEntity
  8
DATA
  6
Continuous
 62
     7
100
AcDbCircle
 10
760.5350649886162
 20
-532.0
 30
0.0
 40
5.0
100
AcDbArc
 50
180.0
 51
270.0
  0
CIRCLE
  5
20C
330
32B
100
AcDbEntity
  8
DATA
  6
Continuous
 62
     7
100
AcDbCircle
 10
803.0350649886162
 20
-397.0
 30
0.0
 40
11.75
  0
LINE
  5
20D
330
32B
100
AcDbEntity
  8
DATA
  6
Continuous
 62
     7
100
AcDbLine
 10
800.0350649886161
 20
-387.0
 30
0.0
 11
806.0350649886162
 21
-387.0
 31
0.0
  0
LINE
  5
20E
330
32B
100
AcDbEntity
  8
DATA
  6
Continuous
 62
     7
100
AcDbLine
 10
801.0350649886161
 20
-407.0
 30
0.0
 11
805.0350649886162
 21
-407.0
 31
0.0
  0
LINE
  5
20F
330
32B
100
AcDbEntity
  8
DATA
  6
Continuous
 62
     7
100
AcDbLine
 10
801.0350649886161
 20
-407.0
 30
0.0
 11
801.0350649886161
 21
-405.8000000000001
 31
0.0
  0
LINE
  5
210
330
32B
100
AcDbEntity
  8
DATA
  6
Continuous
 62
     7
100
AcDbLine
 10
805.0350649886162
 20
-407.0
 30
0.0
 11
805.0350649886162
 21
-405.8000000000001
 31
0.0
  0
LINE
  5
211
330
32B
100
AcDbEntity
  8
DATA
  6
Continuous
 62
     7
100
AcDbLine
 10
800.0350649886161
 20
-387.0
 30
0.0
 11
800.0350649886161
 21
-388.7271499999997
 31
0.0
  0
LINE
  5
212
330
32B
100
AcDbEntity
  8
DATA
  6
Continuous
 62
     7
100
AcDbLine
 10
806.0350649886162
 20
-387.0
 30
0.0
 11
806.0350649886162
 21
-388.7271499999997
 31
0.0
  0
ARC
  5
213
330
32B
100
AcDbEntity
  8
DATA
  6
Continuous
 62
     7
100
AcDbCircle
 10
803.0350649886162
 20
-397.0
 30
0.0
 40
8.800002677414637
100
AcDbArc
 50
109.9322641506783
 51
257.1961668196989
  0
ARC
  5
214
330
32B
100
AcDbEntity
  8
DATA
  6
Continuous
 62
     7
100
AcDbCircle
 10
803.0350649886162
 20
-397.0
 30
0.0
 40
8.800003504345708
100
AcDbArc
 50
282.9999995554215
 51
69.9999942379616
  0
ARC
  5
215
330
32B
100
AcDbEntity
  8
DATA
  6
Continuous
 62
     7
100
AcDbCircle
 10
803.0350649886162
 20
-397.0
 30
0.0
 40
6.200002162063823
100
AcDbArc
 50
60.00001153556008
 51
150.0000115355622
  0
LINE
  5
216
330
32B
100
AcDbEntity
  8
DATA
  6
Continuous
 62
     7
100
AcDbLine
 10
797.6657249886159
 20
-393.89997
 30
0.0
 11
798.163684988616
 21
-394.1874699999999
 31
0.0
  0
LINE
  5
217
330
32B
100
AcDbEntity
  8
DATA
  6
Continuous
 62
     7
100
AcDbLine
 10
806.1350349886163
 20
-391.6306199999999
 30
0.0
 11
805.8475349886158
 21
-392.1285900000002
 31
0.0
  0
ARC
  5
218
330
32B
100
AcDbEntity
  8
DATA
  6
Continuous
 62
     7
100
AcDbCircle
 10
803.0350649886162
 20
-397.0
 30
0.0
 40
6.200002162063823
100
AcDbArc
 50
240.0000115355601
 51
330.0000115355623
  0
LINE
  5
219
330
32B
100
AcDbEntity
  8
DATA
  6
Continuous
 62
     7
100
AcDbLine
 10
799.9350649886162
 20
-402.3693599999996
 30
0.0
 11
800.2225649886161
 21
-401.8713900000002
 31
0.0
  0
LINE
  5
21A
330
32B
100
AcDbEntity
  8
DATA
  6
Continuous
 62
     7
100
AcDbLine
 10
808.4044349886159
 20
-400.09998
 30
0.0
 11
807.9064649886161
 21
-399.8124800000001
 31
0.0
  0
ARC
  5
21B
330
32B
100
AcDbEntity
  8
DATA
  6
Continuous
 62
     7
100
AcDbCircle
 10
803.0350649886162
 20
-397.0
 30
0.0
 40
5.625003831581032
100
AcDbArc
 50
149.9996696821013
 51
240.0002126043052
  0
ARC
  5
21C
330
32B
100
AcDbEntity
  8
DATA
  6
Continuous
 62
     7
100
AcDbCircle
 10
803.0350649886162
 20
-397.0
 30
0.0
 40
5.624996152034259
100
AcDbArc
 50
330.0002126043024
 51
60.00071824312165
  0
ARC
  5
21D
330
32B
100
AcDbEntity
  8
DATA
  6
Continuous
 62
     7
100
AcDbCircle
 10
803.0350649886162
 20
-397.0
 30
0.0
 40
3.599990080875567
100
AcDbArc
 50
59.99990885470507
 51
149.9999088547014
  0
ARC
  5
21E
330
32B
100
AcDbEntity
  8
DATA
  6
Continuous
 62
     7
100
AcDbCircle
 10
803.0350649886162
 20
-397.0
 30
0.0
 40
3.599990080875567
100
AcDbArc
 50
239.999908854705
 51
329.9999088547014
  0
LINE
  5
21F
330
32B
100
AcDbEntity
  8
DATA
  6
Continuous
 62
     7
100
AcDbLine
 10
804.8350449886159
 20
-393.88231
 30
0.0
 11
804.4850549886163
 21
-394.4885199999999
 31
0.0
  0
LINE
  5
220
330
32B
100
AcDbEntity
  8
DATA
  6
Continuous
 62
     7
100
AcDbLine
 10
799.917394988616
 20
-395.1999900000001
 30
0.0
 11
800.5235949886161
 21
-395.54999
 31
0.0
  0
LINE
  5
221
330
32B
100
AcDbEntity
  8
DATA
  6
Continuous
 62
     7
100
AcDbLine
 10
801.2350649886158
 20
-400.1176800000002
 30
0.0
 11
801.5850649886161
 21
-399.5114699999999
 31
0.0
  0
LINE
  5
222
330
32B
100
AcDbEntity
  8
DATA
  6
Continuous
 62
     7
100
AcDbLine
 10
806.1527549886161
 20
-398.7999799999998
 30
0.0
 11
805.5465449886161
 21
-398.4499900000001
 31
0.0
  0
ARC
  5
223
330
32B
100
AcDbEntity
  8
DATA
  6
Continuous
 62
     7
100
AcDbCircle
 10
803.0350649886162
 20
-397.0
 30
0.0
 40
2.900001820861436
100
AcDbArc
 50
149.9997926340292
 51
240.0002336238326
  0
ARC
  5
224
330
32B
100
AcDbEntity
  8
DATA
  6
Continuous
 62
     7
100
AcDbCircle
 10
803.0350649886162
 20
-397.0
 30
0.0
 40
2.900000481120788
100
AcDbArc
 50
330.0002336238303
 51
59.99979263402815
  0
CIRCLE
  5
225
330
32B
100
AcDbEntity
  8
DATA
  6
Continuous
 62
     7
100
AcDbCircle
 10
803.0350649886162
 20
-435.0
 30
0.0
 40
11.75
  0
LINE
  5
226
330
32B
100
AcDbEntity
  8
DATA
  6
Continuous
 62
     7
100
AcDbLine
 10
800.0350649886161
 20
-425.0
 30
0.0
 11
806.0350649886162
 21
-425.0
 31
0.0
  0
LINE
  5
227
330
32B
100
AcDbEntity
  8
DATA
  6
Continuous
 62
     7
100
AcDbLine
 10
801.0350649886161
 20
-445.0
 30
0.0
 11
805.0350649886162
 21
-445.0
 31
0.0
  0
LINE
  5
228
330
32B
100
AcDbEntity
  8
DATA
  6
Continuous
 62
     7
100
AcDbLine
 10
801.0350649886161
 20
-445.0
 30
0.0
 11
801.0350649886161
 21
-443.8000000000001
 31
0.0
  0
LINE
  5
229
330
32B
100
AcDbEntity
  8
DATA
  6
Continuous
 62
     7
100
AcDbLine
 10
805.0350649886162
 20
-445.0
 30
0.0
 11
805.0350649886162
 21
-443.8000000000001
 31
0.0
  0
LINE
  5
22A
330
32B
100
AcDbEntity
  8
DATA
  6
Continuous
 62
     7
100
AcDbLine
 10
800.0350649886161
 20
-425.0
 30
0.0
 11
800.0350649886161
 21
-426.7271499999996
 31
0.0
  0
LINE
  5
22B
330
32B
100
AcDbEntity
  8
DATA
  6
Continuous
 62
     7
100
AcDbLine
 10
806.0350649886162
 20
-425.0
 30
0.0
 11
806.0350649886162
 21
-426.7271499999996
 31
0.0
  0
ARC
  5
22C
330
32B
100
AcDbEntity
  8
DATA
  6
Continuous
 62
     7
100
AcDbCircle
 10
803.0350649886162
 20
-435.0
 30
0.0
 40
8.800002677414637
100
AcDbArc
 50
109.9322641506783
 51
257.1961668196989
  0
ARC
  5
22D
330
32B
100
AcDbEntity
  8
DATA
  6
Continuous
 62
     7
100
AcDbCircle
 10
803.0350649886162
 20
-435.0
 30
0.0
 40
8.800003504345708
100
AcDbArc
 50
282.9999995554215
 51
69.9999942379616
  0
ARC
  5
22E
330
32B
100
AcDbEntity
  8
DATA
  6
Continuous
 62
     7
100
AcDbCircle
 10
803.0350649886162
 20
-435.0
 30
0.0
 40
6.200002162063823
100
AcDbArc
 50
60.00001153556008
 51
150.0000115355622
  0
LINE
  5
22F
330
32B
100
AcDbEntity
  8
DATA
  6
Continuous
 62
     7
100
AcDbLine
 10
797.6657249886159
 20
-431.8999699999999
 30
0.0
 11
798.163684988616
 21
-432.1874699999999
 31
0.0
  0
LINE
  5
230
330
32B
100
AcDbEntity
  8
DATA
  6
Continuous
 62
     7
100
AcDbLine
 10
806.1350349886163
 20
-429.6306199999999
 30
0.0
 11
805.8475349886158
 21
-430.1285900000002
 31
0.0
  0
ARC
  5
231
330
32B
100
AcDbEntity
  8
DATA
  6
Continuous
 62
     7
100
AcDbCircle
 10
803.0350649886162
 20
-435.0
 30
0.0
 40
6.200002162063823
100
AcDbArc
 50
240.0000115355601
 51
330.0000115355623
  0
LINE
  5
232
330
32B
100
AcDbEntity
  8
DATA
  6
Continuous
 62
     7
100
AcDbLine
 10
799.9350649886162
 20
-440.3693599999996
 30
0.0
 11
800.2225649886161
 21
-439.8713900000002
 31
0.0
  0
LINE
  5
233
330
32B
100
AcDbEntity
  8
DATA
  6
Continuous
 62
     7
100
AcDbLine
 10
808.4044349886159
 20
-438.09998
 30
0.0
 11
807.9064649886161
 21
-437.8124800000001
 31
0.0
  0
ARC
  5
234
330
32B
100
AcDbEntity
  8
DATA
  6
Continuous
 62
     7
100
AcDbCircle
 10
803.0350649886162
 20
-435.0
 30
0.0
 40
5.625003831581032
100
AcDbArc
 50
149.9996696821013
 51
240.0002126043052
  0
ARC
  5
235
330
32B
100
AcDbEntity
  8
DATA
  6
Continuous
 62
     7
100
AcDbCircle
 10
803.0350649886162
 20
-435.0
 30
0.0
 40
5.624996152034259
100
AcDbArc
 50
330.0002126043024
 51
60.00071824312165
  0
ARC
  5
236
330
32B
100
AcDbEntity
  8
DATA
  6
Continuous
 62
     7
100
AcDbCircle
 10
803.0350649886162
 20
-435.0
 30
0.0
 40
3.599990080875567
100
AcDbArc
 50
59.99990885470507
 51
149.9999088547014
  0
ARC
  5
237
330
32B
100
AcDbEntity
  8
DATA
  6
Continuous
 62
     7
100
AcDbCircle
 10
803.0350649886162
 20
-435.0
 30
0.0
 40
3.599990080875567
100
AcDbArc
 50
239.999908854705
 51
329.9999088547014
  0
LINE
  5
238
330
32B
100
AcDbEntity
  8
DATA
  6
Continuous
 62
     7
100
AcDbLine
 10
804.8350449886159
 20
-431.88231
 30
0.0
 11
804.4850549886163
 21
-432.4885199999999
 31
0.0
  0
LINE
  5
239
330
32B
100
AcDbEntity
  8
DATA
  6
Continuous
 62
     7
100
AcDbLine
 10
799.917394988616
 20
-433.19999
 30
0.0
 11
800.5235949886161
 21
-433.54999
 31
0.0
  0
LINE
  5
23A
330
32B
100
AcDbEntity
  8
DATA
  6
Continuous
 62
     7
100
AcDbLine
 10
801.2350649886158
 20
-438.1176800000002
 30
0.0
 11
801.5850649886161
 21
-437.5114699999999
 31
0.0
  0
LINE
  5
23B
330
32B
100
AcDbEntity
  8
DATA
  6
Continuous
 62
     7
100
AcDbLine
 10
806.1527549886161
 20
-436.7999799999997
 30
0.0
 11
805.5465449886161
 21
-436.4499900000001
 31
0.0
  0
ARC
  5
23C
330
32B
100
AcDbEntity
  8
DATA
  6
Continuous
 62
     7
100
AcDbCircle
 10
803.0350649886162
 20
-435.0
 30
0.0
 40
2.900001820861436
100
AcDbArc
 50
149.9997926340292
 51
240.0002336238326
  0
ARC
  5
23D
330
32B
100
AcDbEntity
  8
DATA
  6
Continuous
 62
     7
100
AcDbCircle
 10
803.0350649886162
 20
-435.0
 30
0.0
 40
2.900000481120788
100
AcDbArc
 50
330.0002336238303
 51
59.99979263402815
  0
LINE
  5
23E
330
32B
100
AcDbEntity
  8
DATA
  6
Continuous
 62
     7
100
AcDbLine
 10
793.0350649886162
 20
-502.0
 30
0.0
 11
793.0350649886162
 21
-483.0
 31
0.0
  0
LINE
  5
23F
330
32B
100
AcDbEntity
  8
DATA
  6
Continuous
 62
     7
100
AcDbLine
 10
810.0350649886163
 20
-505.0
 30
0.0
 11
796.0350649886162
 21
-505.0
 31
0.0
  0
LINE
  5
240
330
32B
100
AcDbEntity
  8
DATA
  6
Continuous
 62
     7
100
AcDbLine
 10
813.0350649886162
 20
-483.0
 30
0.0
 11
813.0350649886162
 21
-502.0
 31
0.0
  0
LINE
  5
241
330
32B
100
AcDbEntity
  8
DATA
  6
Continuous
 62
     7
100
AcDbLine
 10
796.0350649886162
 20
-480.0
 30
0.0
 11
810.0350649886163
 21
-480.0
 31
0.0
  0
ARC
  5
242
330
32B
100
AcDbEntity
  8
DATA
  6
Continuous
 62
     7
100
AcDbCircle
 10
796.0350649886162
 20
-483.0
 30
0.0
 40
3.0
100
AcDbArc
 50
90.0
 51
180.0
  0
ARC
  5
243
330
32B
100
AcDbEntity
  8
DATA
  6
Continuous
 62
     7
100
AcDbCircle
 10
810.0350649886163
 20
-483.0
 30
0.0
 40
3.0
100
AcDbArc
 50
0.0
 51
90.0
  0
ARC
  5
244
330
32B
100
AcDbEntity
  8
DATA
  6
Continuous
 62
     7
100
AcDbCircle
 10
796.0350649886162
 20
-502.0
 30
0.0
 40
3.0
100
AcDbArc
 50
180.0
 51
270.0
  0
ARC
  5
245
330
32B
100
AcDbEntity
  8
DATA
  6
Continuous
 62
     7
100
AcDbCircle
 10
810.0350649886163
 20
-502.0
 30
0.0
 40
3.0
100
AcDbArc
 50
270.0
 51
0.0
  0
LINE
  5
246
330
32B
100
AcDbEntity
  8
DATA
  6
Continuous
 62
     7
100
AcDbLine
 10
795.5350649886162
 20
-495.0
 30
0.0
 11
795.5350649886162
 21
-485.0
 31
0.0
  0
LINE
  5
247
330
32B
100
AcDbEntity
  8
DATA
  6
Continuous
 62
     7
100
AcDbLine
 10
810.5350649886162
 20
-495.0
 30
0.0
 11
795.5350649886162
 21
-495.0
 31
0.0
  0
LINE
  5
248
330
32B
100
AcDbEntity
  8
DATA
  6
Continuous
 62
     7
100
AcDbLine
 10
810.5350649886162
 20
-485.0
 30
0.0
 11
810.5350649886162
 21
-495.0
 31
0.0
  0
LINE
  5
249
330
32B
100
AcDbEntity
  8
DATA
  6
Continuous
 62
     7
100
AcDbLine
 10
795.5350649886162
 20
-485.0
 30
0.0
 11
810.5350649886162
 21
-485.0
 31
0.0
  0
TEXT
  5
24A
330
32B
100
AcDbEntity
  8
DATA
 62
     7
100
AcDbText
 10
795.6238377750745
 20
-479.3484635416667
 30
0.0
 40
4.8865234375
  1
NL4\U+00B11
 41
0.7
 72
     1
 11
803.0350649886162
 21
-480.0
 31
0.0
100
AcDbText
 73
     1
  0
TEXT
  5
24B
330
32B
100
AcDbEntity
  8
DATA
 62
     7
100
AcDbText
 10
795.0537433740329
 20
-510.461
 30
0.0
 40
4.8865234375
  1
NL4\U+00B12
 41
0.7
 72
     1
 11
803.0350649886162
 21
-505.5744765625
 31
0.0
100
AcDbText
 73
     3
  0
LINE
  5
24C
330
32B
100
AcDbEntity
  8
DATA
  6
Continuous
 62
     7
100
AcDbLine
 10
803.0350649886162
 20
-412.8249999999998
 30
0.0
 11
803.0350649886162
 21
-410.0
 31
0.0
  0
LINE
  5
24D
330
32B
100
AcDbEntity
  8
DATA
  6
Continuous
 62
     7
100
AcDbLine
 10
803.0350649886162
 20
-422.0
 30
0.0
 11
803.0350649886162
 21
-419.1750000000001
 31
0.0
  0
TEXT
  5
24E
330
32B
100
AcDbEntity
  8
DATA
 62
     7
100
AcDbText
 10
761.0032713688241
 20
-391.7432617187497
 30
0.0
 40
4.8865234375
  1
STX818S
 41
0.7
 72
     1
 11
771.8350649886158
 21
-389.2999999999997
 31
0.0
100
AcDbText
 73
     2
  0
LINE
  5
24F
330
32B
100
AcDbEntity
  8
DATA
  6
Continuous
 62
     7
100
AcDbLine
 10
-103.0683879452099
 20
-438.0
 30
0.0
 11
-236.93161205479
 21
-438.0
 31
0.0
  0
LINE
  5
250
330
32B
100
AcDbEntity
  8
DATA
  6
Continuous
 62
     7
100
AcDbLine
 10
-114.0755710416106
 20
-423.0
 30
0.0
 11
-225.9244289583894
 21
-423.0
 31
0.0
  0
LINE
  5
251
330
32B
100
AcDbEntity
  8
DATA
  6
Continuous
 62
     7
100
AcDbLine
 10
-114.0755710416106
 20
-415.0
 30
0.0
 11
-225.9244289583894
 21
-415.0
 31
0.0
  0
LINE
  5
252
330
32B
100
AcDbEntity
  8
DATA
  6
Continuous
 62
     7
100
AcDbLine
 10
-236.93161205479
 20
-232.0
 30
0.0
 11
-103.0683879452099
 21
-232.0
 31
0.0
  0
LINE
  5
253
330
32B
100
AcDbEntity
  8
DATA
  6
Continuous
 62
     7
100
AcDbLine
 10
-225.9244289583894
 20
-247.0
 30
0.0
 11
-114.0755710416106
 21
-247.0
 31
0.0
  0
LINE
  5
254
330
32B
100
AcDbEntity
  8
DATA
  6
Continuous
 62
     7
100
AcDbLine
 10
-225.9244289583894
 20
-255.0
 30
0.0
 11
-114.0755710416106
 21
-255.0
 31
0.0
  0
LINE
  5
255
330
32B
100
AcDbEntity
  8
DATA
  6
Continuous
 62
     7
100
AcDbLine
 10
-230.0055272747486
 20
-338.0
 30
0.0
 11
-109.9944727252514
 21
-338.0
 31
0.0
  0
LINE
  5
256
330
32B
100
AcDbEntity
  8
DATA
  6
Continuous
 62
     7
100
AcDbLine
 10
-230.0055272747486
 20
-330.0
 30
0.0
 11
-109.9944727252514
 21
-330.0
 31
0.0
  0
LINE
  5
257
330
32B
100
AcDbEntity
  8
DATA
  6
Continuous
 62
     7
100
AcDbLine
 10
-257.5
 20
-352.0
 30
0.0
 11
-257.3658209668392
 21
-352.0
 31
0.0
  0
LINE
  5
258
330
32B
100
AcDbEntity
  8
DATA
  6
Continuous
 62
     7
100
AcDbLine
 10
-229.4395491253089
 20
-352.0
 30
0.0
 11
-110.560450874691
 21
-352.0
 31
0.0
  0
LINE
  5
259
330
32B
100
AcDbEntity
  8
DATA
  6
Continuous
 62
     7
100
AcDbLine
 10
-229.4395491253089
 20
-360.0
 30
0.0
 11
-110.560450874691
 21
-360.0
 31
0.0
  0
LINE
  5
25A
330
32B
100
AcDbEntity
  8
DATA
  6
Continuous
 62
     7
100
AcDbLine
 10
-82.63417903316076
 20
-352.0
 30
0.0
 11
-82.5
 21
-352.0
 31
0.0
  0
ARC
  5
25B
330
32B
100
AcDbEntity
  8
DATA
  6
Continuous
 62
     7
100
AcDbCircle
 10
-786.8500000000002
 20
-335.0
 30
0.0
 40
704.4209838583745
100
AcDbArc
 50
352.66656866709
 51
7.333431332909979
  0
ARC
  5
25C
330
32B
100
AcDbEntity
  8
DATA
  6
Continuous
 62
     7
100
AcDbCircle
 10
-786.8500000000002
 20
-335.0
 30
0.0
 40
689.4209838583743
100
AcDbArc
 50
353.4810973740143
 51
357.547596129156
  0
ARC
  5
25D
330
32B
100
AcDbEntity
  8
DATA
  6
Continuous
 62
     7
100
AcDbCircle
 10
-786.8500000000002
 20
-335.0
 30
0.0
 40
681.4209838583734
100
AcDbArc
 50
353.4810973740143
 51
357.547596129156
  0
ARC
  5
25E
330
32B
100
AcDbEntity
  8
DATA
  6
Continuous
 62
     7
100
AcDbCircle
 10
-786.8500000000002
 20
-335.0
 30
0.0
 40
689.4209838583744
100
AcDbArc
 50
0.7895566874362966
 51
6.518902625988912
  0
ARC
  5
25F
330
32B
100
AcDbEntity
  8
DATA
  6
Continuous
 62
     7
100
AcDbCircle
 10
-786.8500000000002
 20
-335.0
 30
0.0
 40
681.4209838583739
100
AcDbArc
 50
0.7895566874362952
 51
6.518902625988923
  0
ARC
  5
260
330
32B
100
AcDbEntity
  8
DATA
  6
Continuous
 62
     7
100
AcDbCircle
 10
446.8500000000004
 20
-335.0
 30
0.0
 40
704.4209838583745
100
AcDbArc
 50
172.66656866709
 51
187.33343133291
  0
ARC
  5
261
330
32B
100
AcDbEntity
  8
DATA
  6
Continuous
 62
     7
100
AcDbCircle
 10
446.8500000000004
 20
-335.0
 30
0.0
 40
689.4209838583735
100
AcDbArc
 50
173.4810973740108
 51
179.2104866720847
  0
ARC
  5
262
330
32B
100
AcDbEntity
  8
DATA
  6
Continuous
 62
     7
100
AcDbCircle
 10
446.8500000000004
 20
-335.0
 30
0.0
 40
681.4209838583744
100
AcDbArc
 50
173.4810973740108
 51
179.2104866720848
  0
ARC
  5
263
330
32B
100
AcDbEntity
  8
DATA
  6
Continuous
 62
     7
100
AcDbCircle
 10
446.8500000000004
 20
-335.0
 30
0.0
 40
689.4209838583744
100
AcDbArc
 50
182.4523973684436
 51
186.5189026259773
  0
ARC
  5
264
330
32B
100
AcDbEntity
  8
DATA
  6
Continuous
 62
     7
100
AcDbCircle
 10
446.8500000000004
 20
-335.0
 30
0.0
 40
681.4209838583743
100
AcDbArc
 50
182.4523973684436
 51
186.5189026259771
  0
ARC
  5
265
330
32B
100
AcDbEntity
  8
DATA
  6
Continuous
 62
     7
100
AcDbCircle
 10
-103.0683879452099
 20
-422.9999999999985
 30
0.0
 40
15.00000000000136
100
AcDbArc
 50
270.0
 51
352.6665686670847
  0
ARC
  5
266
330
32B
100
AcDbEntity
  8
DATA
  6
Continuous
 62
     7
100
AcDbCircle
 10
-236.93161205479
 20
-422.9999999999985
 30
0.0
 40
15.00000000000096
100
AcDbArc
 50
187.3334313329153
 51
270.0
  0
ARC
  5
267
330
32B
100
AcDbEntity
  8
DATA
  6
Continuous
 62
     7
100
AcDbCircle
 10
-236.93161205479
 20
-247.0000000000013
 30
0.0
 40
15.00000000000136
100
AcDbArc
 50
90.0
 51
172.6665686670846
  0
ARC
  5
268
330
32B
100
AcDbEntity
  8
DATA
  6
Continuous
 62
     7
100
AcDbCircle
 10
-103.0683879452099
 20
-247.0000000000013
 30
0.0
 40
15.00000000000096
100
AcDbArc
 50
7.333431332915358
 51
90.0
  0
ARC
  5
269
330
32B
100
AcDbEntity
  8
DATA
  6
Continuous
 62
     7
100
AcDbCircle
 10
-225.9244289583894
 20
-259.4999999999997
 30
0.0
 40
12.49999999999977
100
AcDbArc
 50
90.0
 51
180.0000000214938
  0
ARC
  5
26A
330
32B
100
AcDbEntity
  8
DATA
  6
Continuous
 62
     7
100
AcDbCircle
 10
-225.9244289583894
 20
-259.4999999999997
 30
0.0
 40
4.5
100
AcDbArc
 50
90.0
 51
180.000000021494
  0
ARC
  5
26B
330
32B
100
AcDbEntity
  8
DATA
  6
Continuous
 62
     7
100
AcDbCircle
 10
-114.0755710416106
 20
-259.4999999999997
 30
0.0
 40
12.5
100
AcDbArc
 50
0.0000000090895836
 51
90.00000000000003
  0
ARC
  5
26C
330
32B
100
AcDbEntity
  8
DATA
  6
Continuous
 62
     7
100
AcDbCircle
 10
-114.0755710416106
 20
-259.4999999999997
 30
0.0
 40
4.5
100
AcDbArc
 50
0.0000000090888888
 51
90.0
  0
ARC
  5
26D
330
32B
100
AcDbEntity
  8
DATA
  6
Continuous
 62
     7
100
AcDbCircle
 10
-225.9244289583894
 20
-410.4999999999988
 30
0.0
 40
12.5
100
AcDbArc
 50
180.0000000090922
 51
270.0
  0
ARC
  5
26E
330
32B
100
AcDbEntity
  8
DATA
  6
Continuous
 62
     7
100
AcDbCircle
 10
-114.0755710416106
 20
-410.4999999999988
 30
0.0
 40
12.49999999999977
100
AcDbArc
 50
270.0
 51
0.0000000112995622
  0
ARC
  5
26F
330
32B
100
AcDbEntity
  8
DATA
  6
Continuous
 62
     7
100
AcDbCircle
 10
-114.0755710416106
 20
-410.4999999999988
 30
0.0
 40
4.5
100
AcDbArc
 50
270.0
 51
0.0000000112992211
  0
ARC
  5
270
330
32B
100
AcDbEntity
  8
DATA
  6
Continuous
 62
     7
100
AcDbCircle
 10
-229.4395491253089
 20
-364.4999999999998
 30
0.0
 40
12.49999999999977
100
AcDbArc
 50
90.0
 51
184.9953597590015
  0
ARC
  5
271
330
32B
100
AcDbEntity
  8
DATA
  6
Continuous
 62
     7
100
AcDbCircle
 10
-229.4395491253089
 20
-364.4999999999998
 30
0.0
 40
4.5
100
AcDbArc
 50
90.0
 51
184.9953597590003
  0
ARC
  5
272
330
32B
100
AcDbEntity
  8
DATA
  6
Continuous
 62
     7
100
AcDbCircle
 10
-110.560450874691
 20
-364.4999999999998
 30
0.0
 40
12.49999999999976
100
AcDbArc
 50
355.0046404066653
 51
90.0
  0
ARC
  5
273
330
32B
100
AcDbEntity
  8
DATA
  6
Continuous
 62
     7
100
AcDbCircle
 10
-230.0055272747486
 20
-325.5000000000003
 30
0.0
 40
12.49999999999973
100
AcDbArc
 50
178.3917598544397
 51
270.0
  0
ARC
  5
274
330
32B
100
AcDbEntity
  8
DATA
  6
Continuous
 62
     7
100
AcDbCircle
 10
-230.0055272747486
 20
-325.5000000000003
 30
0.0
 40
4.499999999999757
100
AcDbArc
 50
178.3917598544403
 51
270.0
  0
ARC
  5
275
330
32B
100
AcDbEntity
  8
DATA
  6
Continuous
 62
     7
100
AcDbCircle
 10
-109.9944727252514
 20
-325.5000000000003
 30
0.0
 40
12.49999999999977
100
AcDbArc
 50
270.0
 51
1.608245109610265
  0
ARC
  5
276
330
32B
100
AcDbEntity
  8
DATA
  6
Continuous
 62
     7
100
AcDbCircle
 10
-109.9944727252514
 20
-325.5000000000003
 30
0.0
 40
4.5
100
AcDbArc
 50
270.0
 51
1.608240145559705
  0
ARC
  5
277
330
32B
100
AcDbEntity
  8
DATA
  6
Continuous
 62
     7
100
AcDbCircle
 10
-110.560450874691
 20
-364.5
 30
0.0
 40
4.500000000000597
100
AcDbArc
 50
355.0046402409996
 51
90.0
  0
ARC
  5
278
330
32B
100
AcDbEntity
  8
DATA
  6
Continuous
 62
     7
100
AcDbCircle
 10
-225.9244289583894
 20
-410.4999999999988
 30
0.0
 40
4.5
100
AcDbArc
 50
179.9999999887007
 51
270.0
  0
LINE
  5
279
330
32B
100
AcDbEntity
  8
DATA
  6
Continuous
 62
     7
100
AcDbLine
 10
300.9316120547901
 20
-438.0
 30
0.0
 11
167.0683879452099
 21
-438.0
 31
0.0
  0
LINE
  5
27A
330
32B
100
AcDbEntity
  8
DATA
  6
Continuous
 62
     7
100
AcDbLine
 10
289.9244289583894
 20
-423.0
 30
0.0
 11
178.0755710416106
 21
-423.0
 31
0.0
  0
LINE
  5
27B
330
32B
100
AcDbEntity
  8
DATA
  6
Continuous
 62
     7
100
AcDbLine
 10
289.9244289583894
 20
-415.0
 30
0.0
 11
178.0755710416106
 21
-415.0
 31
0.0
  0
LINE
  5
27C
330
32B
100
AcDbEntity
  8
DATA
  6
Continuous
 62
     7
100
AcDbLine
 10
167.0683879452099
 20
-232.0
 30
0.0
 11
300.9316120547901
 21
-232.0
 31
0.0
  0
LINE
  5
27D
330
32B
100
AcDbEntity
  8
DATA
  6
Continuous
 62
     7
100
AcDbLine
 10
178.0755710416106
 20
-247.0
 30
0.0
 11
289.9244289583894
 21
-247.0
 31
0.0
  0
LINE
  5
27E
330
32B
100
AcDbEntity
  8
DATA
  6
Continuous
 62
     7
100
AcDbLine
 10
178.0755710416106
 20
-255.0
 30
0.0
 11
289.9244289583894
 21
-255.0
 31
0.0
  0
LINE
  5
27F
330
32B
100
AcDbEntity
  8
DATA
  6
Continuous
 62
     7
100
AcDbLine
 10
173.9944727252514
 20
-338.0
 30
0.0
 11
294.0055272747486
 21
-338.0
 31
0.0
  0
LINE
  5
280
330
32B
100
AcDbEntity
  8
DATA
  6
Continuous
 62
     7
100
AcDbLine
 10
173.9944727252514
 20
-330.0
 30
0.0
 11
294.0055272747486
 21
-330.0
 31
0.0
  0
LINE
  5
281
330
32B
100
AcDbEntity
  8
DATA
  6
Continuous
 62
     7
100
AcDbLine
 10
146.5
 20
-352.0
 30
0.0
 11
146.6341790331607
 21
-352.0
 31
0.0
  0
LINE
  5
282
330
32B
100
AcDbEntity
  8
DATA
  6
Continuous
 62
     7
100
AcDbLine
 10
174.560450874691
 20
-352.0
 30
0.0
 11
293.4395491253089
 21
-352.0
 31
0.0
  0
LINE
  5
283
330
32B
100
AcDbEntity
  8
DATA
  6
Continuous
 62
     7
100
AcDbLine
 10
174.560450874691
 20
-360.0
 30
0.0
 11
293.4395491253089
 21
-360.0
 31
0.0
  0
LINE
  5
284
330
32B
100
AcDbEntity
  8
DATA
  6
Continuous
 62
     7
100
AcDbLine
 10
321.3658209668392
 20
-352.0
 30
0.0
 11
321.5
 21
-352.0
 31
0.0
  0
ARC
  5
285
330
32B
100
AcDbEntity
  8
DATA
  6
Continuous
 62
     7
100
AcDbCircle
 10
-382.8500000000003
 20
-335.0
 30
0.0
 40
704.4209838583745
100
AcDbArc
 50
352.66656866709
 51
7.333431332909979
  0
ARC
  5
286
330
32B
100
AcDbEntity
  8
DATA
  6
Continuous
 62
     7
100
AcDbCircle
 10
-382.8500000000003
 20
-335.0
 30
0.0
 40
689.4209838583743
100
AcDbArc
 50
353.4810973740143
 51
357.547596129156
  0
ARC
  5
287
330
32B
100
AcDbEntity
  8
DATA
  6
Continuous
 62
     7
100
AcDbCircle
 10
-382.8500000000003
 20
-335.0
 30
0.0
 40
681.4209838583734
100
AcDbArc
 50
353.4810973740143
 51
357.547596129156
  0
ARC
  5
288
330
32B
100
AcDbEntity
  8
DATA
  6
Continuous
 62
     7
100
AcDbCircle
 10
-382.8500000000003
 20
-335.0
 30
0.0
 40
689.4209838583744
100
AcDbArc
 50
0.7895566874362966
 51
6.518902625988912
  0
ARC
  5
289
330
32B
100
AcDbEntity
  8
DATA
  6
Continuous
 62
     7
100
AcDbCircle
 10
-382.8500000000003
 20
-335.0
 30
0.0
 40
681.4209838583739
100
AcDbArc
 50
0.7895566874362952
 51
6.518902625988923
  0
ARC
  5
28A
330
32B
100
AcDbEntity
  8
DATA
  6
Continuous
 62
     7
100
AcDbCircle
 10
850.8500000000003
 20
-335.0
 30
0.0
 40
704.4209838583745
100
AcDbArc
 50
172.66656866709
 51
187.33343133291
  0
ARC
  5
28B
330
32B
100
AcDbEntity
  8
DATA
  6
Continuous
 62
     7
100
AcDbCircle
 10
850.8500000000003
 20
-335.0
 30
0.0
 40
689.4209838583735
100
AcDbArc
 50
173.4810973740108
 51
179.2104866720847
  0
ARC
  5
28C
330
32B
100
AcDbEntity
  8
DATA
  6
Continuous
 62
     7
100
AcDbCircle
 10
850.8500000000003
 20
-335.0
 30
0.0
 40
681.4209838583744
100
AcDbArc
 50
173.4810973740108
 51
179.2104866720848
  0
ARC
  5
28D
330
32B
100
AcDbEntity
  8
DATA
  6
Continuous
 62
     7
100
AcDbCircle
 10
850.8500000000003
 20
-335.0
 30
0.0
 40
689.4209838583744
100
AcDbArc
 50
182.4523973684436
 51
186.5189026259773
  0
ARC
  5
28E
330
32B
100
AcDbEntity
  8
DATA
  6
Continuous
 62
     7
100
AcDbCircle
 10
850.8500000000003
 20
-335.0
 30
0.0
 40
681.4209838583743
100
AcDbArc
 50
182.4523973684436
 51
186.5189026259771
  0
ARC
  5
28F
330
32B
100
AcDbEntity
  8
DATA
  6
Continuous
 62
     7
100
AcDbCircle
 10
300.9316120547901
 20
-422.9999999999985
 30
0.0
 40
15.00000000000136
100
AcDbArc
 50
270.0
 51
352.6665686670847
  0
ARC
  5
290
330
32B
100
AcDbEntity
  8
DATA
  6
Continuous
 62
     7
100
AcDbCircle
 10
167.0683879452099
 20
-422.9999999999985
 30
0.0
 40
15.00000000000096
100
AcDbArc
 50
187.3334313329153
 51
270.0
  0
ARC
  5
291
330
32B
100
AcDbEntity
  8
DATA
  6
Continuous
 62
     7
100
AcDbCircle
 10
167.0683879452099
 20
-247.0000000000013
 30
0.0
 40
15.00000000000136
100
AcDbArc
 50
90.0
 51
172.6665686670846
  0
ARC
  5
292
330
32B
100
AcDbEntity
  8
DATA
  6
Continuous
 62
     7
100
AcDbCircle
 10
300.9316120547901
 20
-247.0000000000013
 30
0.0
 40
15.00000000000096
100
AcDbArc
 50
7.333431332915358
 51
90.0
  0
ARC
  5
293
330
32B
100
AcDbEntity
  8
DATA
  6
Continuous
 62
     7
100
AcDbCircle
 10
178.0755710416106
 20
-259.4999999999997
 30
0.0
 40
12.49999999999977
100
AcDbArc
 50
90.0
 51
180.0000000214938
  0
ARC
  5
294
330
32B
100
AcDbEntity
  8
DATA
  6
Continuous
 62
     7
100
AcDbCircle
 10
178.0755710416106
 20
-259.4999999999997
 30
0.0
 40
4.5
100
AcDbArc
 50
90.0
 51
180.000000021494
  0
ARC
  5
295
330
32B
100
AcDbEntity
  8
DATA
  6
Continuous
 62
     7
100
AcDbCircle
 10
289.9244289583894
 20
-259.4999999999997
 30
0.0
 40
12.5
100
AcDbArc
 50
0.0000000090895836
 51
90.00000000000003
  0
ARC
  5
296
330
32B
100
AcDbEntity
  8
DATA
  6
Continuous
 62
     7
100
AcDbCircle
 10
289.9244289583894
 20
-259.4999999999997
 30
0.0
 40
4.5
100
AcDbArc
 50
0.0000000090888888
 51
90.0
  0
ARC
  5
297
330
32B
100
AcDbEntity
  8
DATA
  6
Continuous
 62
     7
100
AcDbCircle
 10
178.0755710416106
 20
-410.4999999999988
 30
0.0
 40
12.5
100
AcDbArc
 50
180.0000000090922
 51
270.0
  0
ARC
  5
298
330
32B
100
AcDbEntity
  8
DATA
  6
Continuous
 62
     7
100
AcDbCircle
 10
289.9244289583894
 20
-410.4999999999988
 30
0.0
 40
12.49999999999977
100
AcDbArc
 50
270.0
 51
0.0000000112995622
  0
ARC
  5
299
330
32B
100
AcDbEntity
  8
DATA
  6
Continuous
 62
     7
100
AcDbCircle
 10
289.9244289583894
 20
-410.4999999999988
 30
0.0
 40
4.5
100
AcDbArc
 50
270.0
 51
0.0000000112992211
  0
ARC
  5
29A
330
32B
100
AcDbEntity
  8
DATA
  6
Continuous
 62
     7
100
AcDbCircle
 10
174.560450874691
 20
-364.4999999999998
 30
0.0
 40
12.49999999999977
100
AcDbArc
 50
90.0
 51
184.9953597590015
  0
ARC
  5
29B
330
32B
100
AcDbEntity
  8
DATA
  6
Continuous
 62
     7
100
AcDbCircle
 10
174.560450874691
 20
-364.4999999999998
 30
0.0
 40
4.5
100
AcDbArc
 50
90.0
 51
184.9953597590003
  0
ARC
  5
29C
330
32B
100
AcDbEntity
  8
DATA
  6
Continuous
 62
     7
100
AcDbCircle
 10
293.4395491253089
 20
-364.4999999999998
 30
0.0
 40
12.49999999999976
100
AcDbArc
 50
355.0046404066653
 51
90.0
  0
ARC
  5
29D
330
32B
100
AcDbEntity
  8
DATA
  6
Continuous
 62
     7
100
AcDbCircle
 10
173.9944727252514
 20
-325.5000000000003
 30
0.0
 40
12.49999999999973
100
AcDbArc
 50
178.3917598544397
 51
270.0
  0
ARC
  5
29E
330
32B
100
AcDbEntity
  8
DATA
  6
Continuous
 62
     7
100
AcDbCircle
 10
173.9944727252514
 20
-325.5000000000003
 30
0.0
 40
4.499999999999757
100
AcDbArc
 50
178.3917598544403
 51
270.0
  0
ARC
  5
29F
330
32B
100
AcDbEntity
  8
DATA
  6
Continuous
 62
     7
100
AcDbCircle
 10
294.0055272747486
 20
-325.5000000000003
 30
0.0
 40
12.49999999999977
100
AcDbArc
 50
270.0
 51
1.608245109610265
  0
ARC
  5
2A0
330
32B
100
AcDbEntity
  8
DATA
  6
Continuous
 62
     7
100
AcDbCircle
 10
294.0055272747486
 20
-325.5000000000003
 30
0.0
 40
4.5
100
AcDbArc
 50
270.0
 51
1.608240145559705
  0
ARC
  5
2A1
330
32B
100
AcDbEntity
  8
DATA
  6
Continuous
 62
     7
100
AcDbCircle
 10
293.4395491253089
 20
-364.5
 30
0.0
 40
4.500000000000597
100
AcDbArc
 50
355.0046402409996
 51
90.0
  0
ARC
  5
2A2
330
32B
100
AcDbEntity
  8
DATA
  6
Continuous
 62
     7
100
AcDbCircle
 10
178.0755710416106
 20
-410.4999999999988
 30
0.0
 40
4.5
100
AcDbArc
 50
179.9999999887007
 51
270.0
  0
TEXT
  5
2A3
330
32B
100
AcDbEntity
  8
DATA
 62
     7
100
AcDbText
 10
-1312.5
 20
-1764.196758333333
 30
0.0
 40
28.50472005208334
  1
※仕様及び外観は予告なく変更されることがあります。
 41
0.7
 11
-1312.5
 21
-1735.69203828125
 31
0.0
100
AcDbText
 73
     3
  0
TEXT
  5
2A4
330
32B
100
AcDbEntity
  8
DATA
 62
     7
100
AcDbText
 10
-1312.5
 20
-1801.238425
 30
0.0
 40
28.50472005208334
  1
　また、同一商品でも若干の個体差があることがあります。ご了承ください。
 41
0.7
 11
-1312.5
 21
-1772.733704947916
 31
0.0
100
AcDbText
 73
     3
  0
TEXT
  5
2A5
330
32B
100
AcDbEntity
  8
DATA
 62
     7
100
AcDbText
 10
750.0
 20
-1715.377574999999
 30
0.0
 40
36.64892578125
  1
STX818S
 41
0.7
 11
750.0
 21
-1678.728649218749
 31
0.0
100
AcDbText
 73
     3
  0
TEXT
  5
2A6
330
32B
100
AcDbEntity
  8
DATA
 62
     7
100
AcDbText
 10
750.0
 20
-1606.627574999999
 30
0.0
 40
36.64892578125
  1
JBL PROFESSIONAL
 41
0.7
 11
750.0
 21
-1569.978649218749
 31
0.0
100
AcDbText
 73
     3
  0
TEXT
  5
2A7
330
32B
100
AcDbEntity
  8
DATA
 62
     7
100
AcDbText
 10
712.5
 20
-1658.7819
 30
0.0
 40
24.4326171875
  1
サブウーファー
 41
0.7
 11
712.5
 21
-1634.3492828125
 31
0.0
100
AcDbText
 73
     3
  0
CIRCLE
  5
2A8
330
32B
100
AcDbEntity
  8
DATA
  6
Continuous
 62
     7
100
AcDbCircle
 10
749.5350649886162
 20
-359.0
 30
0.0
 40
4.0
  0
LINE
  5
2A9
330
32B
100
AcDbEntity
  8
DATA
  6
Continuous
 62
     7
100
AcDbLine
 10
747.5350649886162
 20
-359.0
 30
0.0
 11
751.5350649886162
 21
-359.0
 31
0.0
  0
LINE
  5
2AA
330
32B
100
AcDbEntity
  8
DATA
  6
Continuous
 62
     7
100
AcDbLine
 10
749.5350649886162
 20
-361.0
 30
0.0
 11
749.5350649886162
 21
-357.0
 31
0.0
  0
CIRCLE
  5
2AB
330
32B
100
AcDbEntity
  8
DATA
  6
Continuous
 62
     7
100
AcDbCircle
 10
856.5350649886163
 20
-359.0
 30
0.0
 40
4.0
  0
LINE
  5
2AC
330
32B
100
AcDbEntity
  8
DATA
  6
Continuous
 62
     7
100
AcDbLine
 10
854.5350649886161
 20
-359.0
 30
0.0
 11
858.5350649886162
 21
-359.0
 31
0.0
  0
LINE
  5
2AD
330
32B
100
AcDbEntity
  8
DATA
  6
Continuous
 62
     7
100
AcDbLine
 10
856.5350649886163
 20
-361.0
 30
0.0
 11
856.5350649886163
 21
-357.0
 31
0.0
  0
CIRCLE
  5
2AE
330
32B
100
AcDbEntity
  8
DATA
  6
Continuous
 62
     7
100
AcDbCircle
 10
749.5350649886162
 20
-452.0
 30
0.0
 40
4.0
  0
LINE
  5
2AF
330
32B
100
AcDbEntity
  8
DATA
  6
Continuous
 62
     7
100
AcDbLine
 10
747.5350649886162
 20
-452.0
 30
0.0
 11
751.5350649886162
 21
-452.0
 31
0.0
  0
LINE
  5
2B0
330
32B
100
AcDbEntity
  8
DATA
  6
Continuous
 62
     7
100
AcDbLine
 10
749.5350649886162
 20
-454.0
 30
0.0
 11
749.5350649886162
 21
-450.0
 31
0.0
  0
CIRCLE
  5
2B1
330
32B
100
AcDbEntity
  8
DATA
  6
Continuous
 62
     7
100
AcDbCircle
 10
856.5350649886163
 20
-452.0
 30
0.0
 40
4.0
  0
LINE
  5
2B2
330
32B
100
AcDbEntity
  8
DATA
  6
Continuous
 62
     7
100
AcDbLine
 10
854.5350649886161
 20
-452.0
 30
0.0
 11
858.5350649886162
 21
-452.0
 31
0.0
  0
LINE
  5
2B3
330
32B
100
AcDbEntity
  8
DATA
  6
Continuous
 62
     7
100
AcDbLine
 10
856.5350649886163
 20
-454.0
 30
0.0
 11
856.5350649886163
 21
-450.0
 31
0.0
  0
CIRCLE
  5
2B4
330
32B
100
AcDbEntity
  8
DATA
  6
Continuous
 62
     7
100
AcDbCircle
 10
749.5350649886162
 20
-545.0
 30
0.0
 40
4.0
  0
LINE
  5
2B5
330
32B
100
AcDbEntity
  8
DATA
  6
Continuous
 62
     7
100
AcDbLine
 10
747.5350649886162
 20
-545.0
 30
0.0
 11
751.5350649886162
 21
-545.0
 31
0.0
  0
LINE
  5
2B6
330
32B
100
AcDbEntity
  8
DATA
  6
Continuous
 62
     7
100
AcDbLine
 10
749.5350649886162
 20
-547.0
 30
0.0
 11
749.5350649886162
 21
-543.0
 31
0.0
  0
CIRCLE
  5
2B7
330
32B
100
AcDbEntity
  8
DATA
  6
Continuous
 62
     7
100
AcDbCircle
 10
856.5350649886163
 20
-545.0
 30
0.0
 40
4.0
  0
LINE
  5
2B8
330
32B
100
AcDbEntity
  8
DATA
  6
Continuous
 62
     7
100
AcDbLine
 10
854.5350649886161
 20
-545.0
 30
0.0
 11
858.5350649886162
 21
-545.0
 31
0.0
  0
LINE
  5
2B9
330
32B
100
AcDbEntity
  8
DATA
  6
Continuous
 62
     7
100
AcDbLine
 10
856.5350649886163
 20
-547.0
 30
0.0
 11
856.5350649886163
 21
-543.0
 31
0.0
  0
INSERT
  5
2BA
330
32B
100
AcDbEntity
  8
DATA
 62
     7
100
AcDbBlockReference
  2
____
 10
0.0
 20
0.0
 30
0.0
  0
ENDSEC
  0
SECTION
  2
OBJECTS
  0
DICTIONARY
  5
2C8
330
0
100
AcDbDictionary
281
     1
  3
ACAD_CIP_PREVIOUS_PRODUCT_INFO
350
346
  3
ACAD_COLOR
350
31E
  3
ACAD_DETAILVIEWSTYLE
350
325
  3
ACAD_GROUP
350
2C9
  3
ACAD_LAYOUT
350
31D
  3
ACAD_MATERIAL
350
2CC
  3
ACAD_MLEADERSTYLE
350
321
  3
ACAD_MLINESTYLE
350
31A
  3
ACAD_PLOTSETTINGS
350
31C
  3
ACAD_PLOTSTYLENAME
350
2CA
  3
ACAD_SCALELIST
350
2FE
  3
ACAD_SECTIONVIEWSTYLE
350
323
  3
ACAD_TABLESTYLE
350
31F
  3
ACAD_VISUALSTYLE
350
2E5
  3
ACDB_RECOMPOSE_DATA
350
35E
  3
AcDbVariableDictionary
350
351
  3
DWGPROPS
350
35F
  0
DICTIONARY
  5
347
330
310
100
AcDbDictionary
280
     1
281
     1
  3
ADSK_XREC_LAYER_RECONCILED
360
348
  0
DICTIONARY
  5
349
330
32F
100
AcDbDictionary
280
     1
281
     1
  3
ADSK_XREC_LAYER_RECONCILED
360
34A
  0
DICTIONARY
  5
34B
330
33D
100
AcDbDictionary
280
     1
281
     1
  3
ADSK_XREC_LAYER_RECONCILED
360
34C
  0
DICTIONARY
  5
34D
330
33E
100
AcDbDictionary
280
     1
281
     1
  3
ADSK_XREC_LAYER_RECONCILED
360
34E
  0
DICTIONARY
  5
34F
330
33F
100
AcDbDictionary
280
     1
281
     1
  3
ADSK_XREC_LAYER_RECONCILED
360
350
  0
XRECORD
  5
346
102
{ACAD_REACTORS
330
2C8
102
}
330
2C8
100
AcDbXrecord
280
     1
300
ACDLT
300
2015
300
ACDLT_F_S
  0
DICTIONARY
  5
31E
102
{ACAD_REACTORS
330
2C8
102
}
330
2C8
100
AcDbDictionary
281
     1
  0
DICTIONARY
  5
325
102
{ACAD_REACTORS
330
2C8
102
}
330
2C8
100
AcDbDictionary
281
     1
  3
Imperial24
350
326
  0
DICTIONARY
  5
2C9
102
{ACAD_REACTORS
330
2C8
102
}
330
2C8
100
AcDbDictionary
281
     1
  0
DICTIONARY
  5
31D
102
{ACAD_REACTORS
330
2C8
102
}
330
2C8
100
AcDbDictionary
281
     1
  3
Model
350
32E
  3
レイアウト1
350
32A
  0
DICTIONARY
  5
2CC
102
{ACAD_REACTORS
330
2C8
102
}
330
2C8
100
AcDbDictionary
281
     1
  3
ByBlock
350
2D5
  3
ByLayer
350
2CD
  3
Global
350
2DD
  0
DICTIONARY
  5
321
102
{ACAD_REACTORS
330
2C8
102
}
330
2C8
100
AcDbDictionary
281
     1
  3
Standard
350
322
  0
DICTIONARY
  5
31A
102
{ACAD_REACTORS
330
2C8
102
}
330
2C8
100
AcDbDictionary
281
     1
  3
Standard
350
31B
  0
DICTIONARY
  5
31C
102
{ACAD_REACTORS
330
2C8
102
}
330
2C8
100
AcDbDictionary
281
     1
  0
ACDBDICTIONARYWDFLT
  5
2CA
102
{ACAD_REACTORS
330
2C8
102
}
330
2C8
100
AcDbDictionary
281
     1
  3
Normal
350
2CB
100
AcDbDictionaryWithDefault
340
2CB
  0
DICTIONARY
  5
2FE
102
{ACAD_REACTORS
330
2C8
102
}
330
2C8
100
AcDbDictionary
281
     1
  3
A0
350
2FF
  3
A1
350
300
  3
A2
350
301
  3
A3
350
302
  3
A4
350
303
  3
A5
350
304
  3
A6
350
305
  3
A7
350
306
  3
A8
350
307
  3
A9
350
308
  3
B0
350
309
  3
B1
350
30A
  3
B2
350
30B
  3
B3
350
30C
  3
B4
350
30D
  3
B5
350
30E
  3
B6
350
30F
  0
DICTIONARY
  5
323
102
{ACAD_REACTORS
330
2C8
102
}
330
2C8
100
AcDbDictionary
281
     1
  3
Imperial24
350
324
  0
DICTIONARY
  5
31F
102
{ACAD_REACTORS
330
2C8
102
}
330
2C8
100
AcDbDictionary
281
     1
  3
Standard
350
320
  0
DICTIONARY
  5
2E5
102
{ACAD_REACTORS
330
2C8
102
}
330
2C8
100
AcDbDictionary
281
     1
  3
2dWireframe
350
2EB
  3
Basic
350
2EA
  3
Brighten
350
2F1
  3
ColorChange
350
2F5
  3
Conceptual
350
2EE
  3
Dim
350
2F0
  3
EdgeColorOff
350
2FD
  3
Facepattern
350
2F4
  3
Flat
350
2E6
  3
FlatWithEdges
350
2E7
  3
Gouraud
350
2E8
  3
GouraudWithEdges
350
2E9
  3
Hidden
350
2ED
  3
JitterOff
350
2FB
  3
Linepattern
350
2F3
  3
OverhangOff
350
2FC
  3
Realistic
350
2EF
  3
Shaded
350
2FA
  3
Shaded with edges
350
2F9
  3
Shades of Gray
350
2F6
  3
Sketchy
350
2F7
  3
Thicken
350
2F2
  3
Wireframe
350
2EC
  3
X-Ray
350
2F8
  0
XRECORD
  5
35E
102
{ACAD_REACTORS
330
2C8
102
}
330
2C8
100
AcDbXrecord
280
     1
 90
        1
330
320
  0
DICTIONARY
  5
351
102
{ACAD_REACTORS
330
2C8
102
}
330
2C8
100
AcDbDictionary
281
     1
  3
CANNOSCALE
350
356
  3
CMLEADERSTYLE
350
353
  3
CTABLESTYLE
350
352
  3
CVIEWDETAILSTYLE
350
354
  3
CVIEWSECTIONSTYLE
350
355
  3
DIMASSOC
350
359
  3
INDEXCTL
350
358
  3
SORTENTS
350
357
  3
XCLIPFRAME
350
35A
  0
XRECORD
  5
35F
102
{ACAD_REACTORS
330
2C8
102
}
330
2C8
100
AcDbXrecord
280
     1
  1
DWGPROPS COOKIE
  2

  3

  4

  6

  7

  8
sasaki_n
  9

300
=
301
=
302
=
303
=
304
=
305
=
306
=
307
=
308
=
309
=
 40
0.0003640393518519
 41
2457042.780706019
 42
2457042.785950533
  1

 90
        0
  0
XRECORD
  5
348
102
{ACAD_REACTORS
330
347
102
}
330
347
100
AcDbXrecord
280
     1
290
     1
  0
XRECORD
  5
34A
102
{ACAD_REACTORS
330
349
102
}
330
349
100
AcDbXrecord
280
     1
290
     1
  0
XRECORD
  5
34C
102
{ACAD_REACTORS
330
34B
102
}
330
34B
100
AcDbXrecord
280
     1
290
     1
  0
XRECORD
  5
34E
102
{ACAD_REACTORS
330
34D
102
}
330
34D
100
AcDbXrecord
280
     1
290
     1
  0
XRECORD
  5
350
102
{ACAD_REACTORS
330
34F
102
}
330
34F
100
AcDbXrecord
280
     1
290
     1
  0
ACDBDETAILVIEWSTYLE
  5
326
102
{ACAD_XDICTIONARY
360
397
102
}
102
{ACAD_REACTORS
330
325
102
}
330
325
100
AcDbModelDocViewStyle
 70
     0
  3
Imperial24
290
     0
100
AcDbDetailViewStyle
 70
     0
 71
     0
 90
        3
 71
     1
340
311
 40
0.24
340
0
 40
0.24
300

 40
0.36
280
     3
 71
     2
340
318
 90
       25
 71
     3
340
311
 40
0.24
 90
        1
 40
0.75
 90
        1
300
%<\AcVar ViewType \f "%tc1">% %<\AcVar ViewDetailId>%\PSCALE %<\AcVar ViewScale \f "%sn">%
 71
     4
340
318
 90
       25
340
318
 90
       25
280
     0
  0
LAYOUT
  5
32E
102
{ACAD_XDICTIONARY
360
39B
102
}
102
{ACAD_REACTORS
330
31D
102
}
330
31D
100
AcDbPlotSettings
  1

  2
Microsoft XPS Document Writer
  4

  6

 40
0.0
 41
0.0
 42
0.0
 43
0.0
 44
0.0
 45
0.0
 46
0.0
 47
0.0
 48
0.0
 49
0.0
140
0.0
141
0.0
142
1.0
143
1.0
 70
  1712
 72
     0
 73
     0
 74
     0
  7

 75
     0
147
1.0
148
0.0
149
0.0
100
AcDbLayout
  1
Model
 70
     1
 71
     0
 10
0.0
 20
0.0
 11
12.0
 21
9.0
 12
0.0
 22
0.0
 32
0.0
 14
0.0
 24
0.0
 34
0.0
 15
0.0
 25
0.0
 35
0.0
146
0.0
 13
0.0
 23
0.0
 33
0.0
 16
1.0
 26
0.0
 36
0.0
 17
0.0
 27
1.0
 37
0.0
 76
     0
330
32B
331
330
  0
LAYOUT
  5
32A
102
{ACAD_XDICTIONARY
360
399
102
}
102
{ACAD_REACTORS
330
31D
102
}
330
31D
100
AcDbPlotSettings
  1

  2
Microsoft XPS Document Writer
  4

  6

 40
0.0
 41
0.0
 42
0.0
 43
0.0
 44
0.0
 45
0.0
 46
0.0
 47
0.0
 48
0.0
 49
0.0
140
0.0
141
0.0
142
1.0
143
1.0
 70
   688
 72
     0
 73
     0
 74
     5
  7

 75
    16
147
1.0
148
0.0
149
0.0
100
AcDbLayout
  1
レイアウト1
 70
     0
 71
     1
 10
0.0
 20
0.0
 11
12.0
 21
9.0
 12
0.0
 22
0.0
 32
0.0
 14
1.000000000000000E+20
 24
1.000000000000000E+20
 34
1.000000000000000E+20
 15
-1.000000000000000E+20
 25
-1.000000000000000E+20
 35
-1.000000000000000E+20
146
0.0
 13
0.0
 23
0.0
 33
0.0
 16
1.0
 26
0.0
 36
0.0
 17
0.0
 27
1.0
 37
0.0
 76
     0
330
327
  0
MATERIAL
  5
2D5
102
{ACAD_XDICTIONARY
360
2D6
102
}
102
{ACAD_REACTORS
330
2CC
102
}
330
2CC
100
AcDbMaterial
  1
ByBlock
 72
     0
 43
0.0208333333333333
 43
0.0
 43
0.0
 43
0.0
 43
0.0
 43
0.0208333333333333
 43
0.0
 43
0.0
 43
0.0
 43
0.0
 43
1.0
 43
0.0
 43
0.0
 43
0.0
 43
0.0
 43
1.0
 77
     0
 47
0.0208333333333333
 47
0.0
 47
0.0
 47
0.0
 47
0.0
 47
0.0208333333333333
 47
0.0
 47
0.0
 47
0.0
 47
0.0
 47
1.0
 47
0.0
 47
0.0
 47
0.0
 47
0.0
 47
1.0
171
     0
 49
0.0208333333333333
 49
0.0
 49
0.0
 49
0.0
 49
0.0
 49
0.0208333333333333
 49
0.0
 49
0.0
 49
0.0
 49
0.0
 49
1.0
 49
0.0
 49
0.0
 49
0.0
 49
0.0
 49
1.0
175
     0
142
0.0208333333333333
142
0.0
142
0.0
142
0.0
142
0.0
142
0.0208333333333333
142
0.0
142
0.0
142
0.0
142
0.0
142
1.0
142
0.0
142
0.0
142
0.0
142
0.0
142
1.0
179
     0
144
0.0208333333333333
144
0.0
144
0.0
144
0.0
144
0.0
144
0.0208333333333333
144
0.0
144
0.0
144
0.0
144
0.0
144
1.0
144
0.0
144
0.0
144
0.0
144
0.0
144
1.0
147
0.0208333333333333
147
0.0
147
0.0
147
0.0
147
0.0
147
0.0208333333333333
147
0.0
147
0.0
147
0.0
147
0.0
147
1.0
147
0.0
147
0.0
147
0.0
147
0.0
147
1.0
  0
MATERIAL
  5
2CD
102
{ACAD_XDICTIONARY
360
2CE
102
}
102
{ACAD_REACTORS
330
2CC
102
}
330
2CC
100
AcDbMaterial
  1
ByLayer
 72
     0
 43
0.0208333333333333
 43
0.0
 43
0.0
 43
0.0
 43
0.0
 43
0.0208333333333333
 43
0.0
 43
0.0
 43
0.0
 43
0.0
 43
1.0
 43
0.0
 43
0.0
 43
0.0
 43
0.0
 43
1.0
 77
     0
 47
0.0208333333333333
 47
0.0
 47
0.0
 47
0.0
 47
0.0
 47
0.0208333333333333
 47
0.0
 47
0.0
 47
0.0
 47
0.0
 47
1.0
 47
0.0
 47
0.0
 47
0.0
 47
0.0
 47
1.0
171
     0
 49
0.0208333333333333
 49
0.0
 49
0.0
 49
0.0
 49
0.0
 49
0.0208333333333333
 49
0.0
 49
0.0
 49
0.0
 49
0.0
 49
1.0
 49
0.0
 49
0.0
 49
0.0
 49
0.0
 49
1.0
175
     0
142
0.0208333333333333
142
0.0
142
0.0
142
0.0
142
0.0
142
0.0208333333333333
142
0.0
142
0.0
142
0.0
142
0.0
142
1.0
142
0.0
142
0.0
142
0.0
142
0.0
142
1.0
179
     0
144
0.0208333333333333
144
0.0
144
0.0
144
0.0
144
0.0
144
0.0208333333333333
144
0.0
144
0.0
144
0.0
144
0.0
144
1.0
144
0.0
144
0.0
144
0.0
144
0.0
144
1.0
147
0.0208333333333333
147
0.0
147
0.0
147
0.0
147
0.0
147
0.0208333333333333
147
0.0
147
0.0
147
0.0
147
0.0
147
1.0
147
0.0
147
0.0
147
0.0
147
0.0
147
1.0
  0
MATERIAL
  5
2DD
102
{ACAD_XDICTIONARY
360
2DE
102
}
102
{ACAD_REACTORS
330
2CC
102
}
330
2CC
100
AcDbMaterial
  1
Global
 72
     0
 43
0.0208333333333333
 43
0.0
 43
0.0
 43
0.0
 43
0.0
 43
0.0208333333333333
 43
0.0
 43
0.0
 43
0.0
 43
0.0
 43
1.0
 43
0.0
 43
0.0
 43
0.0
 43
0.0
 43
1.0
 77
     0
 47
0.0208333333333333
 47
0.0
 47
0.0
 47
0.0
 47
0.0
 47
0.0208333333333333
 47
0.0
 47
0.0
 47
0.0
 47
0.0
 47
1.0
 47
0.0
 47
0.0
 47
0.0
 47
0.0
 47
1.0
171
     0
 49
0.0208333333333333
 49
0.0
 49
0.0
 49
0.0
 49
0.0
 49
0.0208333333333333
 49
0.0
 49
0.0
 49
0.0
 49
0.0
 49
1.0
 49
0.0
 49
0.0
 49
0.0
 49
0.0
 49
1.0
175
     0
142
0.0208333333333333
142
0.0
142
0.0
142
0.0
142
0.0
142
0.0208333333333333
142
0.0
142
0.0
142
0.0
142
0.0
142
1.0
142
0.0
142
0.0
142
0.0
142
0.0
142
1.0
179
     0
144
0.0208333333333333
144
0.0
144
0.0
144
0.0
144
0.0
144
0.0208333333333333
144
0.0
144
0.0
144
0.0
144
0.0
144
1.0
144
0.0
144
0.0
144
0.0
144
0.0
144
1.0
147
0.0208333333333333
147
0.0
147
0.0
147
0.0
147
0.0
147
0.0208333333333333
147
0.0
147
0.0
147
0.0
147
0.0
147
1.0
147
0.0
147
0.0
147
0.0
147
0.0
147
1.0
  0
MLEADERSTYLE
  5
322
102
{ACAD_REACTORS
330
321
102
}
330
321
100
AcDbMLeaderStyle
170
     2
171
     1
172
     0
 90
        2
 40
0.0
 41
0.0
173
     1
 91
-1056964608
340
316
 92
       -2
290
     1
 42
0.09
291
     1
 43
0.36
  3
Standard
 44
0.18
300

342
311
174
     1
178
     6
175
     1
176
     0
 93
-1056964608
 45
0.18
292
     0
297
     0
 46
0.18
 94
-1056964608
 47
1.0
 49
1.0
140
1.0
293
     1
141
0.0
294
     1
177
     0
142
1.0
295
     0
296
     0
143
0.125
1001
ACAD_MLEADERVER
1070
     2
  0
MLINESTYLE
  5
31B
102
{ACAD_REACTORS
330
31A
102
}
330
31A
100
AcDbMlineStyle
  2
STANDARD
 70
     0
  3

 62
   256
 51
90.0
 52
90.0
 71
     2
 49
0.5
 62
   256
  6
BYLAYER
 49
-0.5
 62
   256
  6
BYLAYER
  0
ACDBPLACEHOLDER
  5
2CB
102
{ACAD_REACTORS
330
2CA
102
}
330
2CA
  0
SCALE
  5
2FF
102
{ACAD_REACTORS
330
2FE
102
}
330
2FE
100
AcDbScale
 70
     0
300
1:1
140
1.0
141
1.0
290
     1
  0
SCALE
  5
300
102
{ACAD_REACTORS
330
2FE
102
}
330
2FE
100
AcDbScale
 70
     0
300
1/128" = 1'-0"
140
0.0078125
141
12.0
290
     0
  0
SCALE
  5
301
102
{ACAD_REACTORS
330
2FE
102
}
330
2FE
100
AcDbScale
 70
     0
300
1/64" = 1'-0"
140
0.015625
141
12.0
290
     0
  0
SCALE
  5
302
102
{ACAD_REACTORS
330
2FE
102
}
330
2FE
100
AcDbScale
 70
     0
300
1/32" = 1'-0"
140
0.03125
141
12.0
290
     0
  0
SCALE
  5
303
102
{ACAD_REACTORS
330
2FE
102
}
330
2FE
100
AcDbScale
 70
     0
300
1/16" = 1'-0"
140
0.0625
141
12.0
290
     0
  0
SCALE
  5
304
102
{ACAD_REACTORS
330
2FE
102
}
330
2FE
100
AcDbScale
 70
     0
300
3/32" = 1'-0"
140
0.09375
141
12.0
290
     0
  0
SCALE
  5
305
102
{ACAD_REACTORS
330
2FE
102
}
330
2FE
100
AcDbScale
 70
     0
300
1/8" = 1'-0"
140
0.125
141
12.0
290
     0
  0
SCALE
  5
306
102
{ACAD_REACTORS
330
2FE
102
}
330
2FE
100
AcDbScale
 70
     0
300
3/16" = 1'-0"
140
0.1875
141
12.0
290
     0
  0
SCALE
  5
307
102
{ACAD_REACTORS
330
2FE
102
}
330
2FE
100
AcDbScale
 70
     0
300
1/4" = 1'-0"
140
0.25
141
12.0
290
     0
  0
SCALE
  5
308
102
{ACAD_REACTORS
330
2FE
102
}
330
2FE
100
AcDbScale
 70
     0
300
3/8" = 1'-0"
140
0.375
141
12.0
290
     0
  0
SCALE
  5
309
102
{ACAD_REACTORS
330
2FE
102
}
330
2FE
100
AcDbScale
 70
     0
300
1/2" = 1'-0"
140
0.5
141
12.0
290
     0
  0
SCALE
  5
30A
102
{ACAD_REACTORS
330
2FE
102
}
330
2FE
100
AcDbScale
 70
     0
300
3/4" = 1'-0"
140
0.75
141
12.0
290
     0
  0
SCALE
  5
30B
102
{ACAD_REACTORS
330
2FE
102
}
330
2FE
100
AcDbScale
 70
     0
300
1" = 1'-0"
140
1.0
141
12.0
290
     0
  0
SCALE
  5
30C
102
{ACAD_REACTORS
330
2FE
102
}
330
2FE
100
AcDbScale
 70
     0
300
1-1/2" = 1'-0"
140
1.5
141
12.0
290
     0
  0
SCALE
  5
30D
102
{ACAD_REACTORS
330
2FE
102
}
330
2FE
100
AcDbScale
 70
     0
300
3" = 1'-0"
140
3.0
141
12.0
290
     0
  0
SCALE
  5
30E
102
{ACAD_REACTORS
330
2FE
102
}
330
2FE
100
AcDbScale
 70
     0
300
6" = 1'-0"
140
6.0
141
12.0
290
     0
  0
SCALE
  5
30F
102
{ACAD_REACTORS
330
2FE
102
}
330
2FE
100
AcDbScale
 70
     0
300
1'-0" = 1'-0"
140
12.0
141
12.0
290
     0
  0
ACDBSECTIONVIEWSTYLE
  5
324
102
{ACAD_XDICTIONARY
360
395
102
}
102
{ACAD_REACTORS
330
323
102
}
330
323
100
AcDbModelDocViewStyle
 70
     0
  3
Imperial24
290
     0
100
AcDbSectionViewStyle
 70
     0
 71
     0
 90
       78
 71
     1
340
311
 40
0.24
340
0
340
0
 40
0.24
300
I, O, Q, S, X, Z
 40
0.48
 90
        3
 40
0.18
 90
        1
 71
     2
340
318
 90
       25
340
318
 90
       50
 40
0.24
 40
0.0
 40
0.24
 71
     3
340
311
 40
0.24
 90
        1
 40
0.75
 90
        1
300
%<\AcVar ViewType \f "%tc1">% %<\AcVar ViewSectionStartId>%-%<\AcVar ViewSectionEndId>%\PSCALE %<\AcVar ViewScale \f "%sn">%
 71
     4
300
ANSI31
 40
1.0
 90
        0
290
     0
290
     0
 90
        6
 40
0.0
 40
1.570796326794896
 40
0.2617993877991494
 40
1.308996938995747
 40
-0.2617993877991494
 40
1.832595714594046
  0
TABLESTYLE
  5
320
102
{ACAD_XDICTIONARY
360
35C
102
}
102
{ACAD_REACTORS
330
31F
102
}
330
31F
100
AcDbTableStyle
  3
Standard
 70
     0
 71
     0
 40
0.06
 41
0.06
280
     0
281
     0
  7
STANDARD
140
0.18
170
     2
 62
     0
 63
     7
283
     0
274
    -2
284
     1
 64
     0
275
    -2
285
     1
 65
     0
276
    -2
286
     1
 66
     0
277
    -2
287
     1
 67
     0
278
    -2
288
     1
 68
     0
279
    -2
289
     1
 69
     0
  7
STANDARD
140
0.25
170
     5
 62
     0
 63
     7
283
     0
274
    -2
284
     1
 64
     0
275
    -2
285
     1
 65
     0
276
    -2
286
     1
 66
     0
277
    -2
287
     1
 67
     0
278
    -2
288
     1
 68
     0
279
    -2
289
     1
 69
     0
  7
STANDARD
140
0.18
170
     5
 62
     0
 63
     7
283
     0
274
    -2
284
     1
 64
     0
275
    -2
285
     1
 65
     0
276
    -2
286
     1
 66
     0
277
    -2
287
     1
 67
     0
278
    -2
288
     1
 68
     0
279
    -2
289
     1
 69
     0
  0
VISUALSTYLE
  5
2EB
102
{ACAD_XDICTIONARY
360
36D
102
}
102
{ACAD_REACTORS
330
2E5
102
}
330
2E5
100
AcDbVisualStyle
  2
2dWireframe
 70
     4
 71
     0
 72
     2
 73
     0
 90
        0
 40
-0.6
 41
-30.0
 62
     5
 63
     7
 74
     1
 91
        4
 64
     7
 65
   257
 75
     1
175
     1
 42
1.0
 92
        0
 66
   257
 43
1.0
 76
     1
 77
     6
 78
     2
 67
     7
 79
     5
170
     0
171
     0
290
     0
174
     0
 93
        1
 44
0.0
173
     0
291
     0
 45
0.0
1001
ACAD
1000
AcDbSavedByObjectVersion
1070
     0
  0
VISUALSTYLE
  5
2EA
102
{ACAD_XDICTIONARY
360
36B
102
}
102
{ACAD_REACTORS
330
2E5
102
}
330
2E5
100
AcDbVisualStyle
  2
Basic
 70
     7
 71
     1
 72
     0
 73
     1
 90
        0
 40
-0.6
 41
-30.0
 62
     5
 63
     7
 74
     0
 91
        4
 64
     7
 65
   257
 75
     1
175
     1
 42
1.0
 92
        8
 66
     7
 43
1.0
 76
     1
 77
     6
 78
     2
 67
     7
 79
     5
170
     0
171
     0
290
     0
174
     0
 93
        1
 44
0.0
173
     0
291
     1
 45
0.0
1001
ACAD
1000
AcDbSavedByObjectVersion
1070
     0
  0
VISUALSTYLE
  5
2F1
102
{ACAD_XDICTIONARY
360
379
102
}
102
{ACAD_REACTORS
330
2E5
102
}
330
2E5
100
AcDbVisualStyle
  2
Brighten
 70
    12
 71
     2
 72
     2
 73
     0
 90
        0
 40
-0.6
 41
-30.0
 62
     5
 63
     7
 74
     1
 91
        4
 64
     7
 65
   257
 75
     1
175
     1
 42
1.0
 92
        8
 66
     7
 43
1.0
 76
     1
 77
     6
 78
     2
 67
     7
 79
     5
170
     0
171
     0
290
     0
174
     0
 93
        1
 44
50.0
173
     0
291
     1
 45
0.0
1001
ACAD
1000
AcDbSavedByObjectVersion
1070
     0
  0
VISUALSTYLE
  5
2F5
102
{ACAD_XDICTIONARY
360
381
102
}
102
{ACAD_REACTORS
330
2E5
102
}
330
2E5
100
AcDbVisualStyle
  2
ColorChange
 70
    16
 71
     2
 72
     2
 73
     3
 90
        0
 40
-0.6
 41
-30.0
 62
     5
 63
     8
 74
     1
 91
        4
 64
     7
 65
   257
 75
     1
175
     1
 42
1.0
 92
        8
 66
     8
 43
1.0
 76
     1
 77
     6
 78
     2
 67
     7
 79
     5
170
     0
171
     0
290
     0
174
     0
 93
        1
 44
0.0
173
     0
291
     1
 45
0.0
1001
ACAD
1000
AcDbSavedByObjectVersion
1070
     0
  0
VISUALSTYLE
  5
2EE
102
{ACAD_XDICTIONARY
360
373
102
}
102
{ACAD_REACTORS
330
2E5
102
}
330
2E5
100
AcDbVisualStyle
  2
Conceptual
 70
     9
 71
     3
 72
     2
 73
     0
 90
        0
 40
-0.6
 41
-30.0
 62
     5
 63
     7
 74
     2
 91
        2
 64
     7
 65
   257
 75
     1
175
     1
 42
179.0
 92
        8
 66
     7
 43
1.0
 76
     1
 77
     6
 78
     2
 67
     7
 79
     3
170
     0
171
     0
290
     0
174
     0
 93
        1
 44
0.0
173
     0
291
     0
 45
0.0
1001
ACAD
1000
AcDbSavedByObjectVersion
1070
     0
  0
VISUALSTYLE
  5
2F0
102
{ACAD_XDICTIONARY
360
377
102
}
102
{ACAD_REACTORS
330
2E5
102
}
330
2E5
100
AcDbVisualStyle
  2
Dim
 70
    11
 71
     2
 72
     2
 73
     0
 90
        0
 40
-0.6
 41
-30.0
 62
     5
 63
     7
 74
     1
 91
        4
 64
     7
 65
   257
 75
     1
175
     1
 42
1.0
 92
        8
 66
     7
 43
1.0
 76
     1
 77
     6
 78
     2
 67
     7
 79
     5
170
     0
171
     0
290
     0
174
     0
 93
        1
 44
-50.0
173
     0
291
     1
 45
0.0
1001
ACAD
1000
AcDbSavedByObjectVersion
1070
     0
  0
VISUALSTYLE
  5
2FD
102
{ACAD_XDICTIONARY
360
391
102
}
102
{ACAD_REACTORS
330
2E5
102
}
330
2E5
100
AcDbVisualStyle
  2
EdgeColorOff
 70
    22
 71
     2
 72
     2
 73
     0
 90
        0
 40
-0.6
 41
-30.0
 62
     5
 63
     7
 74
     1
 91
        4
 64
     7
 65
   257
 75
     1
175
     1
 42
1.0
 92
        8
 66
     7
 43
1.0
 76
     1
 77
     6
 78
     2
 67
     7
 79
     5
170
     0
171
     0
290
     0
174
     0
 93
        1
 44
0.0
173
     0
291
     1
 45
0.0
1001
ACAD
1000
AcDbSavedByObjectVersion
1070
     0
  0
VISUALSTYLE
  5
2F4
102
{ACAD_XDICTIONARY
360
37F
102
}
102
{ACAD_REACTORS
330
2E5
102
}
330
2E5
100
AcDbVisualStyle
  2
Facepattern
 70
    15
 71
     2
 72
     2
 73
     0
 90
        0
 40
-0.6
 41
-30.0
 62
     5
 63
     7
 74
     1
 91
        4
 64
     7
 65
   257
 75
     1
175
     1
 42
1.0
 92
        8
 66
     7
 43
1.0
 76
     1
 77
     6
 78
     2
 67
     7
 79
     5
170
     0
171
     0
290
     0
174
     0
 93
        1
 44
0.0
173
     0
291
     1
 45
0.0
1001
ACAD
1000
AcDbSavedByObjectVersion
1070
     0
  0
VISUALSTYLE
  5
2E6
102
{ACAD_XDICTIONARY
360
363
102
}
102
{ACAD_REACTORS
330
2E5
102
}
330
2E5
100
AcDbVisualStyle
  2
Flat
 70
     0
 71
     2
 72
     1
 73
     1
 90
        2
 40
-0.6
 41
30.0
 62
     5
 63
     7
 74
     0
 91
        0
 64
     7
 65
   257
 75
     1
175
     1
 42
1.0
 92
        8
 66
     7
 43
1.0
 76
     1
 77
     6
 78
     2
 67
     7
 79
     5
170
     0
171
     0
290
     0
174
     0
 93
       13
 44
0.0
173
     0
291
     1
 45
0.0
1001
ACAD
1000
AcDbSavedByObjectVersion
1070
     0
  0
VISUALSTYLE
  5
2E7
102
{ACAD_XDICTIONARY
360
365
102
}
102
{ACAD_REACTORS
330
2E5
102
}
330
2E5
100
AcDbVisualStyle
  2
FlatWithEdges
 70
     1
 71
     2
 72
     1
 73
     1
 90
        2
 40
-0.6
 41
30.0
 62
     5
 63
     7
 74
     1
 91
        0
 64
     7
 65
   257
 75
     1
175
     1
 42
1.0
 92
        0
 66
   257
 43
1.0
 76
     1
 77
     6
 78
     2
 67
     7
 79
     5
170
     0
171
     0
290
     0
174
     0
 93
       13
 44
0.0
173
     0
291
     1
 45
0.0
1001
ACAD
1000
AcDbSavedByObjectVersion
1070
     0
  0
VISUALSTYLE
  5
2E8
102
{ACAD_XDICTIONARY
360
367
102
}
102
{ACAD_REACTORS
330
2E5
102
}
330
2E5
100
AcDbVisualStyle
  2
Gouraud
 70
     2
 71
     2
 72
     2
 73
     1
 90
        2
 40
-0.6
 41
30.0
 62
     5
 63
     7
 74
     0
 91
        0
 64
     7
 65
   257
 75
     1
175
     1
 42
1.0
 92
        0
 66
     7
 43
1.0
 76
     1
 77
     6
 78
     2
 67
     7
 79
     5
170
     0
171
     0
290
     0
174
     0
 93
       13
 44
0.0
173
     0
291
     1
 45
0.0
1001
ACAD
1000
AcDbSavedByObjectVersion
1070
     0
  0
VISUALSTYLE
  5
2E9
102
{ACAD_XDICTIONARY
360
369
102
}
102
{ACAD_REACTORS
330
2E5
102
}
330
2E5
100
AcDbVisualStyle
  2
GouraudWithEdges
 70
     3
 71
     2
 72
     2
 73
     1
 90
        2
 40
-0.6
 41
30.0
 62
     5
 63
     7
 74
     1
 91
        0
 64
     7
 65
   257
 75
     1
175
     1
 42
1.0
 92
        0
 66
   257
 43
1.0
 76
     1
 77
     6
 78
     2
 67
     7
 79
     5
170
     0
171
     0
290
     0
174
     0
 93
       13
 44
0.0
173
     0
291
     1
 45
0.0
1001
ACAD
1000
AcDbSavedByObjectVersion
1070
     0
  0
VISUALSTYLE
  5
2ED
102
{ACAD_XDICTIONARY
360
371
102
}
102
{ACAD_REACTORS
330
2E5
102
}
330
2E5
100
AcDbVisualStyle
  2
Hidden
 70
     6
 71
     1
 72
     2
 73
     2
 90
        0
 40
-0.6
 41
-30.0
 62
     5
 63
     7
 74
     2
 91
        2
 64
     7
 65
   257
 75
     2
175
     1
 42
40.0
 92
        0
 66
   257
 43
1.0
 76
     1
 77
     6
 78
     2
 67
     7
 79
     3
170
     0
171
     0
290
     0
174
     0
 93
        1
 44
0.0
173
     0
291
     0
 45
0.0
1001
ACAD
1000
AcDbSavedByObjectVersion
1070
     0
  0
VISUALSTYLE
  5
2FB
102
{ACAD_XDICTIONARY
360
38D
102
}
102
{ACAD_REACTORS
330
2E5
102
}
330
2E5
100
AcDbVisualStyle
  2
JitterOff
 70
    20
 71
     2
 72
     2
 73
     0
 90
        0
 40
-0.6
 41
-30.0
 62
     5
 63
     7
 74
     1
 91
        4
 64
     7
 65
   257
 75
     1
175
     1
 42
1.0
 92
       10
 66
     7
 43
1.0
 76
     1
 77
     6
 78
     2
 67
     7
 79
     5
170
     0
171
     0
290
     0
174
     0
 93
        1
 44
0.0
173
     0
291
     1
 45
0.0
1001
ACAD
1000
AcDbSavedByObjectVersion
1070
     0
  0
VISUALSTYLE
  5
2F3
102
{ACAD_XDICTIONARY
360
37D
102
}
102
{ACAD_REACTORS
330
2E5
102
}
330
2E5
100
AcDbVisualStyle
  2
Linepattern
 70
    14
 71
     2
 72
     2
 73
     0
 90
        0
 40
-0.6
 41
-30.0
 62
     5
 63
     7
 74
     1
 91
        4
 64
     7
 65
   257
 75
     7
175
     7
 42
1.0
 92
        8
 66
     7
 43
1.0
 76
     1
 77
     6
 78
     2
 67
     7
 79
     5
170
     0
171
     0
290
     0
174
     0
 93
        1
 44
0.0
173
     0
291
     1
 45
0.0
1001
ACAD
1000
AcDbSavedByObjectVersion
1070
     0
  0
VISUALSTYLE
  5
2FC
102
{ACAD_XDICTIONARY
360
38F
102
}
102
{ACAD_REACTORS
330
2E5
102
}
330
2E5
100
AcDbVisualStyle
  2
OverhangOff
 70
    21
 71
     2
 72
     2
 73
     0
 90
        0
 40
-0.6
 41
-30.0
 62
     5
 63
     7
 74
     1
 91
        4
 64
     7
 65
   257
 75
     1
175
     1
 42
1.0
 92
        9
 66
     7
 43
1.0
 76
     1
 77
     6
 78
     2
 67
     7
 79
     5
170
     0
171
     0
290
     0
174
     0
 93
        1
 44
0.0
173
     0
291
     1
 45
0.0
1001
ACAD
1000
AcDbSavedByObjectVersion
1070
     0
  0
VISUALSTYLE
  5
2EF
102
{ACAD_XDICTIONARY
360
375
102
}
102
{ACAD_REACTORS
330
2E5
102
}
330
2E5
100
AcDbVisualStyle
  2
Realistic
 70
     8
 71
     2
 72
     3
 73
     0
 90
        2
 40
-0.6
 41
30.0
 62
     5
 63
     7
 74
     0
 91
        0
 64
     7
 65
   257
 75
     1
175
     1
 42
1.0
 92
        8
 66
   257
 43
1.0
 76
     1
 77
     6
 78
     2
 67
     7
 79
     3
170
     0
171
     0
290
     0
174
     0
 93
       13
 44
0.0
173
     0
291
     0
 45
0.0
1001
ACAD
1000
AcDbSavedByObjectVersion
1070
     0
  0
VISUALSTYLE
  5
2FA
102
{ACAD_XDICTIONARY
360
38B
102
}
102
{ACAD_REACTORS
330
2E5
102
}
330
2E5
100
AcDbVisualStyle
  2
Shaded
 70
    27
 71
     2
 72
     2
 73
     1
 90
        2
 40
-0.6
 41
30.0
 62
     5
 63
     7
 74
     0
 91
        4
 64
     7
 65
   257
 75
     1
175
     1
 42
1.0
 92
        8
 66
   257
 43
1.0
 76
     1
 77
     6
 78
     2
 67
     8
 79
     3
170
     0
171
     0
290
     0
174
     0
 93
        5
 44
0.0
173
     0
291
     0
 45
0.0
1001
ACAD
1000
AcDbSavedByObjectVersion
1070
     0
  0
VISUALSTYLE
  5
2F9
102
{ACAD_XDICTIONARY
360
389
102
}
102
{ACAD_REACTORS
330
2E5
102
}
330
2E5
100
AcDbVisualStyle
  2
Shaded with edges
 70
    26
 71
     2
 72
     2
 73
     1
 90
        2
 40
-0.6
 41
30.0
 62
     5
 63
     7
 74
     1
 91
       10
 64
     7
 65
   257
 75
     2
175
     1
 42
1.0
 92
        8
 66
   257
 43
1.0
 76
     1
 77
     6
 78
     2
 67
     7
 79
     3
170
     0
171
     0
290
     0
174
     0
 93
        5
 44
0.0
173
     0
291
     0
 45
0.0
1001
ACAD
1000
AcDbSavedByObjectVersion
1070
     0
  0
VISUALSTYLE
  5
2F6
102
{ACAD_XDICTIONARY
360
383
102
}
102
{ACAD_REACTORS
330
2E5
102
}
330
2E5
100
AcDbVisualStyle
  2
Shades of Gray
 70
    23
 71
     2
 72
     2
 73
     3
 90
        0
 40
-0.6
 41
-30.0
 62
     5
 63
     7
 74
     2
 91
        2
 64
     7
 65
     7
 75
     1
175
     1
 42
40.0
 92
        8
 66
     7
 43
1.0
 76
     1
 77
     6
 78
     2
 67
     7
 79
     3
170
     0
171
     0
290
     0
174
     0
 93
        1
 44
0.0
173
     0
291
     0
 45
0.0
1001
ACAD
1000
AcDbSavedByObjectVersion
1070
     0
  0
VISUALSTYLE
  5
2F7
102
{ACAD_XDICTIONARY
360
385
102
}
102
{ACAD_REACTORS
330
2E5
102
}
330
2E5
100
AcDbVisualStyle
  2
Sketchy
 70
    24
 71
     1
 72
     2
 73
     2
 90
        0
 40
-0.6
 41
-30.0
 62
     5
 63
     7
 74
     2
 91
        2
 64
     7
 65
     7
 75
     1
175
     1
 42
40.0
 92
       11
 66
     7
 43
1.0
 76
     1
 77
     6
 78
     2
 67
     7
 79
     6
170
     0
171
     0
290
     0
174
     0
 93
        1
 44
0.0
173
     0
291
     0
 45
0.0
1001
ACAD
1000
AcDbSavedByObjectVersion
1070
     0
  0
VISUALSTYLE
  5
2F2
102
{ACAD_XDICTIONARY
360
37B
102
}
102
{ACAD_REACTORS
330
2E5
102
}
330
2E5
100
AcDbVisualStyle
  2
Thicken
 70
    13
 71
     2
 72
     2
 73
     0
 90
        0
 40
-0.6
 41
-30.0
 62
     5
 63
     7
 74
     1
 91
        4
 64
     7
 65
   257
 75
     1
175
     1
 42
1.0
 92
       12
 66
     7
 43
1.0
 76
     1
 77
     6
 78
     2
 67
     7
 79
     5
170
     0
171
     0
290
     0
174
     0
 93
        1
 44
0.0
173
     0
291
     1
 45
0.0
1001
ACAD
1000
AcDbSavedByObjectVersion
1070
     0
  0
VISUALSTYLE
  5
2EC
102
{ACAD_XDICTIONARY
360
36F
102
}
102
{ACAD_REACTORS
330
2E5
102
}
330
2E5
100
AcDbVisualStyle
  2
Wireframe
 70
     5
 71
     0
 72
     2
 73
     0
 90
        0
 40
-0.6
 41
-30.0
 62
     5
 63
     7
 74
     1
 91
        4
 64
     7
 65
   257
 75
     1
175
     1
 42
1.0
 92
        0
 66
   257
 43
1.0
 76
     1
 77
     6
 78
     2
 67
     7
 79
     3
170
     0
171
     0
290
     0
174
     0
 93
        1
 44
0.0
173
     0
291
     0
 45
0.0
1001
ACAD
1000
AcDbSavedByObjectVersion
1070
     0
  0
VISUALSTYLE
  5
2F8
102
{ACAD_XDICTIONARY
360
387
102
}
102
{ACAD_REACTORS
330
2E5
102
}
330
2E5
100
AcDbVisualStyle
  2
X-Ray
 70
    25
 71
     2
 72
     2
 73
     1
 90
        1
 40
0.5
 41
-30.0
 62
     5
 63
     7
 74
     1
 91
        0
 64
     7
 65
   257
 75
     1
175
     1
 42
1.0
 92
        8
 66
     7
 43
1.0
 76
     1
 77
     6
 78
     2
 67
     7
 79
     3
170
     0
171
     0
290
     0
174
     0
 93
       13
 44
0.0
173
     0
291
     0
 45
0.0
1001
ACAD
1000
AcDbSavedByObjectVersion
1070
     0
  0
DICTIONARYVAR
  5
356
102
{ACAD_REACTORS
330
351
102
}
330
351
100
DictionaryVariables
280
     0
  1
1:1
  0
DICTIONARYVAR
  5
353
102
{ACAD_REACTORS
330
351
102
}
330
351
100
DictionaryVariables
280
     0
  1
STANDARD
  0
DICTIONARYVAR
  5
352
102
{ACAD_REACTORS
330
351
102
}
330
351
100
DictionaryVariables
280
     0
  1
STANDARD
  0
DICTIONARYVAR
  5
354
102
{ACAD_REACTORS
330
351
102
}
330
351
100
DictionaryVariables
280
     0
  1
Imperial24
  0
DICTIONARYVAR
  5
355
102
{ACAD_REACTORS
330
351
102
}
330
351
100
DictionaryVariables
280
     0
  1
Imperial24
  0
DICTIONARYVAR
  5
359
102
{ACAD_REACTORS
330
351
102
}
330
351
100
DictionaryVariables
280
     0
  1
1
  0
DICTIONARYVAR
  5
358
102
{ACAD_REACTORS
330
351
102
}
330
351
100
DictionaryVariables
280
     0
  1
0
  0
DICTIONARYVAR
  5
357
102
{ACAD_REACTORS
330
351
102
}
330
351
100
DictionaryVariables
280
     0
  1
127
  0
DICTIONARYVAR
  5
35A
102
{ACAD_REACTORS
330
351
102
}
330
351
100
DictionaryVariables
280
     0
  1
2
  0
DICTIONARY
  5
397
330
326
100
AcDbDictionary
280
     1
281
     1
  3
ACAD_XREC_ROUNDTRIP
360
398
  0
DICTIONARY
  5
39B
330
32E
100
AcDbDictionary
280
     1
281
     1
  3
ACAD_XREC_ROUNDTRIP
360
39C
  0
DICTIONARY
  5
399
330
32A
100
AcDbDictionary
280
     1
281
     1
  3
ACAD_XREC_ROUNDTRIP
360
39A
  0
DICTIONARY
  5
2D6
330
2D5
100
AcDbDictionary
280
     1
281
     1
  3
ACAD_XREC_ROUNDTRIP
360
361
  3
BUMPTILE
360
2D8
  3
DIFFUSETILE
360
2D7
  3
OPACITYTILE
360
2DB
  3
REFLECTIONTILE
360
2DA
  3
REFRACTIONTILE
360
2DC
  3
SPECULARTILE
360
2D9
  0
DICTIONARY
  5
2CE
330
2CD
100
AcDbDictionary
280
     1
281
     1
  3
ACAD_XREC_ROUNDTRIP
360
360
  3
BUMPTILE
360
2D0
  3
DIFFUSETILE
360
2CF
  3
OPACITYTILE
360
2D3
  3
REFLECTIONTILE
360
2D2
  3
REFRACTIONTILE
360
2D4
  3
SPECULARTILE
360
2D1
  0
DICTIONARY
  5
2DE
330
2DD
100
AcDbDictionary
280
     1
281
     1
  3
ACAD_XREC_ROUNDTRIP
360
362
  3
BUMPTILE
360
2E0
  3
DIFFUSETILE
360
2DF
  3
OPACITYTILE
360
2E3
  3
REFLECTIONTILE
360
2E2
  3
REFRACTIONTILE
360
2E4
  3
SPECULARTILE
360
2E1
  0
DICTIONARY
  5
395
330
324
100
AcDbDictionary
280
     1
281
     1
  3
ACAD_XREC_ROUNDTRIP
360
396
  0
DICTIONARY
  5
35C
330
320
100
AcDbDictionary
280
     1
281
     1
  3
ACAD_ROUNDTRIP_2008_TABLESTYLE_CELLSTYLEMAP
360
35D
  3
ACAD_XREC_ROUNDTRIP
360
393
  0
DICTIONARY
  5
36D
330
2EB
100
AcDbDictionary
280
     1
281
     1
  3
ACAD_XREC_ROUNDTRIP
360
36E
  0
DICTIONARY
  5
36B
330
2EA
100
AcDbDictionary
280
     1
281
     1
  3
ACAD_XREC_ROUNDTRIP
360
36C
  0
DICTIONARY
  5
379
330
2F1
100
AcDbDictionary
280
     1
281
     1
  3
ACAD_XREC_ROUNDTRIP
360
37A
  0
DICTIONARY
  5
381
330
2F5
100
AcDbDictionary
280
     1
281
     1
  3
ACAD_XREC_ROUNDTRIP
360
382
  0
DICTIONARY
  5
373
330
2EE
100
AcDbDictionary
280
     1
281
     1
  3
ACAD_XREC_ROUNDTRIP
360
374
  0
DICTIONARY
  5
377
330
2F0
100
AcDbDictionary
280
     1
281
     1
  3
ACAD_XREC_ROUNDTRIP
360
378
  0
DICTIONARY
  5
391
330
2FD
100
AcDbDictionary
280
     1
281
     1
  3
ACAD_XREC_ROUNDTRIP
360
392
  0
DICTIONARY
  5
37F
330
2F4
100
AcDbDictionary
280
     1
281
     1
  3
ACAD_XREC_ROUNDTRIP
360
380
  0
DICTIONARY
  5
363
330
2E6
100
AcDbDictionary
280
     1
281
     1
  3
ACAD_XREC_ROUNDTRIP
360
364
  0
DICTIONARY
  5
365
330
2E7
100
AcDbDictionary
280
     1
281
     1
  3
ACAD_XREC_ROUNDTRIP
360
366
  0
DICTIONARY
  5
367
330
2E8
100
AcDbDictionary
280
     1
281
     1
  3
ACAD_XREC_ROUNDTRIP
360
368
  0
DICTIONARY
  5
369
330
2E9
100
AcDbDictionary
280
     1
281
     1
  3
ACAD_XREC_ROUNDTRIP
360
36A
  0
DICTIONARY
  5
371
330
2ED
100
AcDbDictionary
280
     1
281
     1
  3
ACAD_XREC_ROUNDTRIP
360
372
  0
DICTIONARY
  5
38D
330
2FB
100
AcDbDictionary
280
     1
281
     1
  3
ACAD_XREC_ROUNDTRIP
360
38E
  0
DICTIONARY
  5
37D
330
2F3
100
AcDbDictionary
280
     1
281
     1
  3
ACAD_XREC_ROUNDTRIP
360
37E
  0
DICTIONARY
  5
38F
330
2FC
100
AcDbDictionary
280
     1
281
     1
  3
ACAD_XREC_ROUNDTRIP
360
390
  0
DICTIONARY
  5
375
330
2EF
100
AcDbDictionary
280
     1
281
     1
  3
ACAD_XREC_ROUNDTRIP
360
376
  0
DICTIONARY
  5
38B
330
2FA
100
AcDbDictionary
280
     1
281
     1
  3
ACAD_XREC_ROUNDTRIP
360
38C
  0
DICTIONARY
  5
389
330
2F9
100
AcDbDictionary
280
     1
281
     1
  3
ACAD_XREC_ROUNDTRIP
360
38A
  0
DICTIONARY
  5
383
330
2F6
100
AcDbDictionary
280
     1
281
     1
  3
ACAD_XREC_ROUNDTRIP
360
384
  0
DICTIONARY
  5
385
330
2F7
100
AcDbDictionary
280
     1
281
     1
  3
ACAD_XREC_ROUNDTRIP
360
386
  0
DICTIONARY
  5
37B
330
2F2
100
AcDbDictionary
280
     1
281
     1
  3
ACAD_XREC_ROUNDTRIP
360
37C
  0
DICTIONARY
  5
36F
330
2EC
100
AcDbDictionary
280
     1
281
     1
  3
ACAD_XREC_ROUNDTRIP
360
370
  0
DICTIONARY
  5
387
330
2F8
100
AcDbDictionary
280
     1
281
     1
  3
ACAD_XREC_ROUNDTRIP
360
388
  0
XRECORD
  5
398
102
{ACAD_REACTORS
330
397
102
}
330
397
100
AcDbXrecord
280
     1
102
DISPLAYNAME
  1
Imperial24
102
FLAGS
 90
        0
  0
XRECORD
  5
39C
102
{ACAD_REACTORS
330
39B
102
}
330
39B
100
AcDbXrecord
280
     1
102
SHADEPLOT
 70
     0
102
SHADEPLOTRESLEVEL
 70
     2
102
SHADEPLOTCUSTOMDPI
 70
   300
  0
XRECORD
  5
39A
102
{ACAD_REACTORS
330
399
102
}
330
399
100
AcDbXrecord
280
     1
102
SHADEPLOT
 70
     0
102
SHADEPLOTRESLEVEL
 70
     2
102
SHADEPLOTCUSTOMDPI
 70
   300
  0
XRECORD
  5
361
102
{ACAD_REACTORS
330
2D6
102
}
330
2D6
100
AcDbXrecord
280
     1
102
MATERIAL
148
0.0
149
0.0
149
0.0
 93
        0
 94
      127
282
     0
 72
     0
 77
     0
171
     0
175
     0
179
     0
273
     0
  0
XRECORD
  5
2D8
102
{ACAD_REACTORS
330
2D6
102
}
330
2D6
100
AcDbXrecord
280
     1
270
     1
271
     1
  0
XRECORD
  5
2D7
102
{ACAD_REACTORS
330
2D6
102
}
330
2D6
100
AcDbXrecord
280
     1
270
     1
271
     1
  0
XRECORD
  5
2DB
102
{ACAD_REACTORS
330
2D6
102
}
330
2D6
100
AcDbXrecord
280
     1
270
     1
271
     1
  0
XRECORD
  5
2DA
102
{ACAD_REACTORS
330
2D6
102
}
330
2D6
100
AcDbXrecord
280
     1
270
     1
271
     1
  0
XRECORD
  5
2DC
102
{ACAD_REACTORS
330
2D6
102
}
330
2D6
100
AcDbXrecord
280
     1
270
     1
271
     1
  0
XRECORD
  5
2D9
102
{ACAD_REACTORS
330
2D6
102
}
330
2D6
100
AcDbXrecord
280
     1
270
     1
271
     1
  0
XRECORD
  5
360
102
{ACAD_REACTORS
330
2CE
102
}
330
2CE
100
AcDbXrecord
280
     1
102
MATERIAL
148
0.0
149
0.0
149
0.0
 93
        0
 94
      127
282
     0
 72
     0
 77
     0
171
     0
175
     0
179
     0
273
     0
  0
XRECORD
  5
2D0
102
{ACAD_REACTORS
330
2CE
102
}
330
2CE
100
AcDbXrecord
280
     1
270
     1
271
     1
  0
XRECORD
  5
2CF
102
{ACAD_REACTORS
330
2CE
102
}
330
2CE
100
AcDbXrecord
280
     1
270
     1
271
     1
  0
XRECORD
  5
2D3
102
{ACAD_REACTORS
330
2CE
102
}
330
2CE
100
AcDbXrecord
280
     1
270
     1
271
     1
  0
XRECORD
  5
2D2
102
{ACAD_REACTORS
330
2CE
102
}
330
2CE
100
AcDbXrecord
280
     1
270
     1
271
     1
  0
XRECORD
  5
2D4
102
{ACAD_REACTORS
330
2CE
102
}
330
2CE
100
AcDbXrecord
280
     1
270
     1
271
     1
  0
XRECORD
  5
2D1
102
{ACAD_REACTORS
330
2CE
102
}
330
2CE
100
AcDbXrecord
280
     1
270
     1
271
     1
  0
XRECORD
  5
362
102
{ACAD_REACTORS
330
2DE
102
}
330
2DE
100
AcDbXrecord
280
     1
102
MATERIAL
148
0.0
149
0.0
149
0.0
 93
        0
 94
      127
282
     0
 72
     0
 77
     0
171
     0
175
     0
179
     0
273
     0
  0
XRECORD
  5
2E0
102
{ACAD_REACTORS
330
2DE
102
}
330
2DE
100
AcDbXrecord
280
     1
270
     1
271
     1
  0
XRECORD
  5
2DF
102
{ACAD_REACTORS
330
2DE
102
}
330
2DE
100
AcDbXrecord
280
     1
270
     1
271
     1
  0
XRECORD
  5
2E3
102
{ACAD_REACTORS
330
2DE
102
}
330
2DE
100
AcDbXrecord
280
     1
270
     1
271
     1
  0
XRECORD
  5
2E2
102
{ACAD_REACTORS
330
2DE
102
}
330
2DE
100
AcDbXrecord
280
     1
270
     1
271
     1
  0
XRECORD
  5
2E4
102
{ACAD_REACTORS
330
2DE
102
}
330
2DE
100
AcDbXrecord
280
     1
270
     1
271
     1
  0
XRECORD
  5
2E1
102
{ACAD_REACTORS
330
2DE
102
}
330
2DE
100
AcDbXrecord
280
     1
270
     1
271
     1
  0
XRECORD
  5
396
102
{ACAD_REACTORS
330
395
102
}
330
395
100
AcDbXrecord
280
     1
102
DISPLAYNAME
  1
Imperial24
102
FLAGS
 90
        0
  0
CELLSTYLEMAP
  5
35D
102
{ACAD_REACTORS
330
35C
102
}
330
35C
100
AcDbCellStyleMap
 90
        3
300
CELLSTYLE
  1
TABLEFORMAT_BEGIN
 90
        5
170
     1
 91
        0
 92
    32768
 62
   257
 93
        1
300
CONTENTFORMAT
  1
CONTENTFORMAT_BEGIN
 90
        0
 91
        0
 92
      512
 93
        0
300

 40
0.0
140
1.0
 94
        5
 62
     0
340
311
144
0.25
309
CONTENTFORMAT_END
171
     0
 94
        0
309
TABLEFORMAT_END
  1
CELLSTYLE_BEGIN
 90
        1
 91
        1
300
_TITLE
309
CELLSTYLE_END
300
CELLSTYLE
  1
TABLEFORMAT_BEGIN
 90
        5
170
     1
 91
        0
 92
        0
 62
   257
 93
        1
300
CONTENTFORMAT
  1
CONTENTFORMAT_BEGIN
 90
        0
 91
        0
 92
      512
 93
        0
300

 40
0.0
140
1.0
 94
        5
 62
     0
340
311
144
0.18
309
CONTENTFORMAT_END
171
     0
 94
        0
309
TABLEFORMAT_END
  1
CELLSTYLE_BEGIN
 90
        2
 91
        1
300
_HEADER
309
CELLSTYLE_END
300
CELLSTYLE
  1
TABLEFORMAT_BEGIN
 90
        5
170
     1
 91
        0
 92
        0
 62
   257
 93
        1
300
CONTENTFORMAT
  1
CONTENTFORMAT_BEGIN
 90
        0
 91
        0
 92
      512
 93
        0
300

 40
0.0
140
1.0
 94
        2
 62
     0
340
311
144
0.18
309
CONTENTFORMAT_END
171
     0
 94
        0
309
TABLEFORMAT_END
  1
CELLSTYLE_BEGIN
 90
        3
 91
        2
300
_DATA
309
CELLSTYLE_END
  0
XRECORD
  5
393
102
{ACAD_REACTORS
330
35C
102
}
330
35C
100
AcDbXrecord
280
     1
102
ACAD_ROUNDTRIP_PRE2007_TABLESTYLE
 90
      512
 91
        0
  1

 92
      512
 93
        0
  2

 94
      512
 95
        0
  3

  0
XRECORD
  5
36E
102
{ACAD_REACTORS
330
36D
102
}
330
36D
100
AcDbXrecord
280
     1
102
RTVSPost2010Prop28
280
     1
102
RTVSPost2010PropOp28
 70
     1
102
RTVSPost2010Prop29
280
     1
102
RTVSPost2010PropOp29
 70
     1
102
RTVSPost2010Prop30
280
     0
102
RTVSPost2010PropOp30
 70
     1
102
RTVSPost2010Prop31
280
     0
102
RTVSPost2010PropOp31
 70
     1
102
RTVSPost2010Prop32
280
     0
102
RTVSPost2010PropOp32
 70
     1
102
RTVSPost2010Prop33
280
     0
102
RTVSPost2010PropOp33
 70
     1
102
RTVSPost2010Prop34
280
     0
102
RTVSPost2010PropOp34
 70
     1
102
RTVSPost2010Prop35
280
     0
102
RTVSPost2010PropOp35
 70
     1
102
RTVSPost2010Prop36
280
     0
102
RTVSPost2010PropOp36
 70
     1
102
RTVSPost2010Prop37
 90
       50
102
RTVSPost2010PropOp37
 70
     1
102
RTVSPost2010Prop38
140
0.0
102
RTVSPost2010PropOp38
 70
     1
102
RTVSPost2010Prop39
140
1.0
102
RTVSPost2010PropOp39
 70
     1
102
RTVSPost2010Prop40
 90
        0
102
RTVSPost2010PropOp40
 70
     1
102
RTVSPost2010Prop41ColorIndex
 90
       18
102
RTVSPost2010Prop41ColorRGB
 90
        0
102
RTVSPost2010PropOp41
 70
     1
102
RTVSPost2010Prop42
 90
       50
102
RTVSPost2010PropOp42
 70
     1
102
RTVSPost2010Prop43
 90
        3
102
RTVSPost2010PropOp43
 70
     1
102
RTVSPost2010Prop44ColorIndex
 90
        5
102
RTVSPost2010Prop44ColorRGB
 90
      255
102
RTVSPost2010PropOp44
 70
     1
102
RTVSPost2010Prop45
280
     0
102
RTVSPost2010PropOp45
 70
     1
102
RTVSPost2010Prop46
 90
       50
102
RTVSPost2010PropOp46
 70
     1
102
RTVSPost2010Prop47
 90
       50
102
RTVSPost2010PropOp47
 70
     1
102
RTVSPost2010Prop48
 90
       50
102
RTVSPost2010PropOp48
 70
     1
102
RTVSPost2010Prop49
280
     0
102
RTVSPost2010PropOp49
 70
     1
102
RTVSPost2010Prop50
 90
       50
102
RTVSPost2010PropOp50
 70
     1
102
RTVSPost2010Prop51ColorIndex
 90
      256
102
RTVSPost2010Prop51ColorRGB
 90
-16777216
102
RTVSPost2010PropOp51
 70
     0
102
RTVSPost2010Prop52
140
1.0
102
RTVSPost2010PropOp52
 70
     0
102
RTVSPost2010Prop53
 90
        2
102
RTVSPost2010PropOp53
 70
     1
102
RTVSPost2010Prop54
  1
strokes_ogs.tif
102
RTVSPost2010PropOp54
 70
     1
102
RTVSPost2010Prop55
280
     0
102
RTVSPost2010PropOp55
 70
     1
102
RTVSPost2010Prop56
140
1.0
102
RTVSPost2010PropOp56
 70
     1
102
RTVSPost2010Prop57
140
1.0
102
RTVSPost2010PropOp57
 70
     1
102
RTVSPropertyOp0
 70
     1
102
RTVSPropertyOp1
 70
     1
102
RTVSPropertyOp2
 70
     1
102
RTVSPropertyOp3
 70
     1
102
RTVSPropertyOp4
 70
     1
102
RTVSPropertyOp5
 70
     1
102
RTVSPropertyOp6
 70
     1
102
RTVSPropertyOp7
 70
     1
102
RTVSPropertyOp8
 70
     1
102
RTVSPropertyOp9
 70
     1
102
RTVSPropertyOp10
 70
     1
102
RTVSPropertyOp11
 70
     1
102
RTVSPropertyOp12
 70
     1
102
RTVSPropertyOp13
 70
     1
102
RTVSPropertyOp14
 70
     1
102
RTVSPropertyOp15
 70
     1
102
RTVSPropertyOp16
 70
     1
102
RTVSPropertyOp17
 70
     1
102
RTVSPropertyOp18
 70
     1
102
RTVSPropertyOp19
 70
     1
102
RTVSPropertyOp20
 70
     1
102
RTVSPropertyOp21
 70
     1
102
RTVSPropertyOp22
 70
     1
102
RTVSPropertyOp23
 70
     1
102
RTVSPropertyOp24
 70
     1
102
RTVSPropertyOp25
 70
     1
102
RTVSPropertyOp26
 70
     1
102
RTVSPropertyOp27
 70
     1
102
RTVSPropertyOp28
 70
     1
102
RTVSPropertyOp29
 70
     1
102
RTVSPropertyOp30
 70
     1
102
RTVSPropertyOp31
 70
     1
102
RTVSPropertyOp32
 70
     1
102
RTVSPropertyOp33
 70
     1
102
RTVSPropertyOp34
 70
     1
102
RTVSPropertyOp35
 70
     1
102
RTVSPropertyOp36
 70
     1
102
RTVSPropertyOp37
 70
     1
102
RTVSPropertyOp38
 70
     1
102
RTVSPropertyOp39
 70
     1
102
RTVSPropertyOp40
 70
     1
102
RTVSPropertyOp41
 70
     1
102
RTVSPropertyOp42
 70
     1
102
RTVSPropertyOp43
 70
     1
102
RTVSPropertyOp44
 70
     1
102
RTVSPropertyOp45
 70
     1
102
RTVSPropertyOp46
 70
     1
102
RTVSPropertyOp47
 70
     1
102
RTVSPropertyOp48
 70
     1
102
RTVSPropertyOp49
 70
     1
102
RTVSPropertyOp50
 70
     1
102
RTVSPropertyOp51
 70
     0
102
RTVSPropertyOp52
 70
     0
102
RTVSPropertyOp53
 70
     1
102
RTVSPropertyOp54
 70
     1
102
RTVSPropertyOp55
 70
     1
102
RTVSPropertyOp56
 70
     1
102
RTVSPropertyOp57
 70
     1
102
RTVSPropertyOp58
 70
     1
102
RTVSPropertyOp59
 70
     1
102
RTVSPropertyOp60
 70
     1
102
RTVSPropertyOp61
 70
     1
102
RTVSPropertyOp62
 70
     1
  0
XRECORD
  5
36C
102
{ACAD_REACTORS
330
36B
102
}
330
36B
100
AcDbXrecord
280
     1
102
RTVSPost2010Prop28
280
     0
102
RTVSPost2010PropOp28
 70
     1
102
RTVSPost2010Prop29
280
     1
102
RTVSPost2010PropOp29
 70
     1
102
RTVSPost2010Prop30
280
     1
102
RTVSPost2010PropOp30
 70
     1
102
RTVSPost2010Prop31
280
     0
102
RTVSPost2010PropOp31
 70
     1
102
RTVSPost2010Prop32
280
     0
102
RTVSPost2010PropOp32
 70
     1
102
RTVSPost2010Prop33
280
     0
102
RTVSPost2010PropOp33
 70
     1
102
RTVSPost2010Prop34
280
     0
102
RTVSPost2010PropOp34
 70
     1
102
RTVSPost2010Prop35
280
     0
102
RTVSPost2010PropOp35
 70
     1
102
RTVSPost2010Prop36
280
     0
102
RTVSPost2010PropOp36
 70
     1
102
RTVSPost2010Prop37
 90
       50
102
RTVSPost2010PropOp37
 70
     1
102
RTVSPost2010Prop38
140
0.0
102
RTVSPost2010PropOp38
 70
     1
102
RTVSPost2010Prop39
140
1.0
102
RTVSPost2010PropOp39
 70
     1
102
RTVSPost2010Prop40
 90
        0
102
RTVSPost2010PropOp40
 70
     1
102
RTVSPost2010Prop41ColorIndex
 90
       18
102
RTVSPost2010Prop41ColorRGB
 90
        0
102
RTVSPost2010PropOp41
 70
     1
102
RTVSPost2010Prop42
 90
       50
102
RTVSPost2010PropOp42
 70
     1
102
RTVSPost2010Prop43
 90
        3
102
RTVSPost2010PropOp43
 70
     1
102
RTVSPost2010Prop44ColorIndex
 90
        5
102
RTVSPost2010Prop44ColorRGB
 90
      255
102
RTVSPost2010PropOp44
 70
     1
102
RTVSPost2010Prop45
280
     0
102
RTVSPost2010PropOp45
 70
     1
102
RTVSPost2010Prop46
 90
       50
102
RTVSPost2010PropOp46
 70
     1
102
RTVSPost2010Prop47
 90
       50
102
RTVSPost2010PropOp47
 70
     1
102
RTVSPost2010Prop48
 90
       50
102
RTVSPost2010PropOp48
 70
     1
102
RTVSPost2010Prop49
280
     0
102
RTVSPost2010PropOp49
 70
     1
102
RTVSPost2010Prop50
 90
       50
102
RTVSPost2010PropOp50
 70
     1
102
RTVSPost2010Prop51ColorIndex
 90
      256
102
RTVSPost2010Prop51ColorRGB
 90
-16777216
102
RTVSPost2010PropOp51
 70
     0
102
RTVSPost2010Prop52
140
1.0
102
RTVSPost2010PropOp52
 70
     0
102
RTVSPost2010Prop53
 90
        2
102
RTVSPost2010PropOp53
 70
     1
102
RTVSPost2010Prop54
  1
strokes_ogs.tif
102
RTVSPost2010PropOp54
 70
     1
102
RTVSPost2010Prop55
280
     0
102
RTVSPost2010PropOp55
 70
     1
102
RTVSPost2010Prop56
140
1.0
102
RTVSPost2010PropOp56
 70
     1
102
RTVSPost2010Prop57
140
1.0
102
RTVSPost2010PropOp57
 70
     1
102
RTVSPropertyOp0
 70
     1
102
RTVSPropertyOp1
 70
     1
102
RTVSPropertyOp2
 70
     1
102
RTVSPropertyOp3
 70
     1
102
RTVSPropertyOp4
 70
     1
102
RTVSPropertyOp5
 70
     1
102
RTVSPropertyOp6
 70
     1
102
RTVSPropertyOp7
 70
     1
102
RTVSPropertyOp8
 70
     1
102
RTVSPropertyOp9
 70
     1
102
RTVSPropertyOp10
 70
     1
102
RTVSPropertyOp11
 70
     1
102
RTVSPropertyOp12
 70
     1
102
RTVSPropertyOp13
 70
     1
102
RTVSPropertyOp14
 70
     1
102
RTVSPropertyOp15
 70
     1
102
RTVSPropertyOp16
 70
     1
102
RTVSPropertyOp17
 70
     1
102
RTVSPropertyOp18
 70
     1
102
RTVSPropertyOp19
 70
     1
102
RTVSPropertyOp20
 70
     1
102
RTVSPropertyOp21
 70
     1
102
RTVSPropertyOp22
 70
     1
102
RTVSPropertyOp23
 70
     1
102
RTVSPropertyOp24
 70
     1
102
RTVSPropertyOp25
 70
     1
102
RTVSPropertyOp26
 70
     1
102
RTVSPropertyOp27
 70
     1
102
RTVSPropertyOp28
 70
     1
102
RTVSPropertyOp29
 70
     1
102
RTVSPropertyOp30
 70
     1
102
RTVSPropertyOp31
 70
     1
102
RTVSPropertyOp32
 70
     1
102
RTVSPropertyOp33
 70
     1
102
RTVSPropertyOp34
 70
     1
102
RTVSPropertyOp35
 70
     1
102
RTVSPropertyOp36
 70
     1
102
RTVSPropertyOp37
 70
     1
102
RTVSPropertyOp38
 70
     1
102
RTVSPropertyOp39
 70
     1
102
RTVSPropertyOp40
 70
     1
102
RTVSPropertyOp41
 70
     1
102
RTVSPropertyOp42
 70
     1
102
RTVSPropertyOp43
 70
     1
102
RTVSPropertyOp44
 70
     1
102
RTVSPropertyOp45
 70
     1
102
RTVSPropertyOp46
 70
     1
102
RTVSPropertyOp47
 70
     1
102
RTVSPropertyOp48
 70
     1
102
RTVSPropertyOp49
 70
     1
102
RTVSPropertyOp50
 70
     1
102
RTVSPropertyOp51
 70
     0
102
RTVSPropertyOp52
 70
     0
102
RTVSPropertyOp53
 70
     1
102
RTVSPropertyOp54
 70
     1
102
RTVSPropertyOp55
 70
     1
102
RTVSPropertyOp56
 70
     1
102
RTVSPropertyOp57
 70
     1
102
RTVSPropertyOp58
 70
     1
102
RTVSPropertyOp59
 70
     1
102
RTVSPropertyOp60
 70
     1
102
RTVSPropertyOp61
 70
     1
102
RTVSPropertyOp62
 70
     1
  0
XRECORD
  5
37A
102
{ACAD_REACTORS
330
379
102
}
330
379
100
AcDbXrecord
280
     1
102
RTVSPost2010Prop28
280
     0
102
RTVSPost2010PropOp28
 70
     1
102
RTVSPost2010Prop29
280
     1
102
RTVSPost2010PropOp29
 70
     1
102
RTVSPost2010Prop30
280
     1
102
RTVSPost2010PropOp30
 70
     1
102
RTVSPost2010Prop31
280
     0
102
RTVSPost2010PropOp31
 70
     1
102
RTVSPost2010Prop32
280
     0
102
RTVSPost2010PropOp32
 70
     1
102
RTVSPost2010Prop33
280
     0
102
RTVSPost2010PropOp33
 70
     1
102
RTVSPost2010Prop34
280
     0
102
RTVSPost2010PropOp34
 70
     1
102
RTVSPost2010Prop35
280
     0
102
RTVSPost2010PropOp35
 70
     1
102
RTVSPost2010Prop36
280
     0
102
RTVSPost2010PropOp36
 70
     1
102
RTVSPost2010Prop37
 90
       50
102
RTVSPost2010PropOp37
 70
     1
102
RTVSPost2010Prop38
140
0.0
102
RTVSPost2010PropOp38
 70
     1
102
RTVSPost2010Prop39
140
1.0
102
RTVSPost2010PropOp39
 70
     1
102
RTVSPost2010Prop40
 90
        0
102
RTVSPost2010PropOp40
 70
     1
102
RTVSPost2010Prop41ColorIndex
 90
       18
102
RTVSPost2010Prop41ColorRGB
 90
        0
102
RTVSPost2010PropOp41
 70
     1
102
RTVSPost2010Prop42
 90
       50
102
RTVSPost2010PropOp42
 70
     1
102
RTVSPost2010Prop43
 90
        3
102
RTVSPost2010PropOp43
 70
     1
102
RTVSPost2010Prop44ColorIndex
 90
        5
102
RTVSPost2010Prop44ColorRGB
 90
      255
102
RTVSPost2010PropOp44
 70
     1
102
RTVSPost2010Prop45
280
     0
102
RTVSPost2010PropOp45
 70
     1
102
RTVSPost2010Prop46
 90
       50
102
RTVSPost2010PropOp46
 70
     1
102
RTVSPost2010Prop47
 90
       50
102
RTVSPost2010PropOp47
 70
     1
102
RTVSPost2010Prop48
 90
       50
102
RTVSPost2010PropOp48
 70
     1
102
RTVSPost2010Prop49
280
     0
102
RTVSPost2010PropOp49
 70
     1
102
RTVSPost2010Prop50
 90
       50
102
RTVSPost2010PropOp50
 70
     1
102
RTVSPost2010Prop51ColorIndex
 90
      256
102
RTVSPost2010Prop51ColorRGB
 90
-16777216
102
RTVSPost2010PropOp51
 70
     0
102
RTVSPost2010Prop52
140
1.0
102
RTVSPost2010PropOp52
 70
     0
102
RTVSPost2010Prop53
 90
        2
102
RTVSPost2010PropOp53
 70
     1
102
RTVSPost2010Prop54
  1
strokes_ogs.tif
102
RTVSPost2010PropOp54
 70
     1
102
RTVSPost2010Prop55
280
     0
102
RTVSPost2010PropOp55
 70
     1
102
RTVSPost2010Prop56
140
1.0
102
RTVSPost2010PropOp56
 70
     1
102
RTVSPost2010Prop57
140
1.0
102
RTVSPost2010PropOp57
 70
     1
102
RTVSPropertyOp0
 70
     1
102
RTVSPropertyOp1
 70
     1
102
RTVSPropertyOp2
 70
     1
102
RTVSPropertyOp3
 70
     1
102
RTVSPropertyOp4
 70
     1
102
RTVSPropertyOp5
 70
     1
102
RTVSPropertyOp6
 70
     1
102
RTVSPropertyOp7
 70
     1
102
RTVSPropertyOp8
 70
     1
102
RTVSPropertyOp9
 70
     1
102
RTVSPropertyOp10
 70
     1
102
RTVSPropertyOp11
 70
     1
102
RTVSPropertyOp12
 70
     1
102
RTVSPropertyOp13
 70
     1
102
RTVSPropertyOp14
 70
     1
102
RTVSPropertyOp15
 70
     1
102
RTVSPropertyOp16
 70
     1
102
RTVSPropertyOp17
 70
     1
102
RTVSPropertyOp18
 70
     1
102
RTVSPropertyOp19
 70
     1
102
RTVSPropertyOp20
 70
     1
102
RTVSPropertyOp21
 70
     1
102
RTVSPropertyOp22
 70
     1
102
RTVSPropertyOp23
 70
     1
102
RTVSPropertyOp24
 70
     1
102
RTVSPropertyOp25
 70
     1
102
RTVSPropertyOp26
 70
     1
102
RTVSPropertyOp27
 70
     1
102
RTVSPropertyOp28
 70
     1
102
RTVSPropertyOp29
 70
     1
102
RTVSPropertyOp30
 70
     1
102
RTVSPropertyOp31
 70
     1
102
RTVSPropertyOp32
 70
     1
102
RTVSPropertyOp33
 70
     1
102
RTVSPropertyOp34
 70
     1
102
RTVSPropertyOp35
 70
     1
102
RTVSPropertyOp36
 70
     1
102
RTVSPropertyOp37
 70
     1
102
RTVSPropertyOp38
 70
     1
102
RTVSPropertyOp39
 70
     1
102
RTVSPropertyOp40
 70
     1
102
RTVSPropertyOp41
 70
     1
102
RTVSPropertyOp42
 70
     1
102
RTVSPropertyOp43
 70
     1
102
RTVSPropertyOp44
 70
     1
102
RTVSPropertyOp45
 70
     1
102
RTVSPropertyOp46
 70
     1
102
RTVSPropertyOp47
 70
     1
102
RTVSPropertyOp48
 70
     1
102
RTVSPropertyOp49
 70
     1
102
RTVSPropertyOp50
 70
     1
102
RTVSPropertyOp51
 70
     0
102
RTVSPropertyOp52
 70
     0
102
RTVSPropertyOp53
 70
     1
102
RTVSPropertyOp54
 70
     1
102
RTVSPropertyOp55
 70
     1
102
RTVSPropertyOp56
 70
     1
102
RTVSPropertyOp57
 70
     1
102
RTVSPropertyOp58
 70
     1
102
RTVSPropertyOp59
 70
     1
102
RTVSPropertyOp60
 70
     1
102
RTVSPropertyOp61
 70
     1
102
RTVSPropertyOp62
 70
     1
  0
XRECORD
  5
382
102
{ACAD_REACTORS
330
381
102
}
330
381
100
AcDbXrecord
280
     1
102
RTVSPost2010Prop28
280
     0
102
RTVSPost2010PropOp28
 70
     1
102
RTVSPost2010Prop29
280
     1
102
RTVSPost2010PropOp29
 70
     1
102
RTVSPost2010Prop30
280
     1
102
RTVSPost2010PropOp30
 70
     1
102
RTVSPost2010Prop31
280
     0
102
RTVSPost2010PropOp31
 70
     1
102
RTVSPost2010Prop32
280
     0
102
RTVSPost2010PropOp32
 70
     1
102
RTVSPost2010Prop33
280
     0
102
RTVSPost2010PropOp33
 70
     1
102
RTVSPost2010Prop34
280
     0
102
RTVSPost2010PropOp34
 70
     1
102
RTVSPost2010Prop35
280
     0
102
RTVSPost2010PropOp35
 70
     1
102
RTVSPost2010Prop36
280
     0
102
RTVSPost2010PropOp36
 70
     1
102
RTVSPost2010Prop37
 90
       50
102
RTVSPost2010PropOp37
 70
     1
102
RTVSPost2010Prop38
140
0.0
102
RTVSPost2010PropOp38
 70
     1
102
RTVSPost2010Prop39
140
1.0
102
RTVSPost2010PropOp39
 70
     1
102
RTVSPost2010Prop40
 90
        0
102
RTVSPost2010PropOp40
 70
     1
102
RTVSPost2010Prop41ColorIndex
 90
       18
102
RTVSPost2010Prop41ColorRGB
 90
        0
102
RTVSPost2010PropOp41
 70
     1
102
RTVSPost2010Prop42
 90
       50
102
RTVSPost2010PropOp42
 70
     1
102
RTVSPost2010Prop43
 90
        3
102
RTVSPost2010PropOp43
 70
     1
102
RTVSPost2010Prop44ColorIndex
 90
        5
102
RTVSPost2010Prop44ColorRGB
 90
      255
102
RTVSPost2010PropOp44
 70
     1
102
RTVSPost2010Prop45
280
     0
102
RTVSPost2010PropOp45
 70
     1
102
RTVSPost2010Prop46
 90
       50
102
RTVSPost2010PropOp46
 70
     1
102
RTVSPost2010Prop47
 90
       50
102
RTVSPost2010PropOp47
 70
     1
102
RTVSPost2010Prop48
 90
       50
102
RTVSPost2010PropOp48
 70
     1
102
RTVSPost2010Prop49
280
     0
102
RTVSPost2010PropOp49
 70
     1
102
RTVSPost2010Prop50
 90
       50
102
RTVSPost2010PropOp50
 70
     1
102
RTVSPost2010Prop51ColorIndex
 90
      256
102
RTVSPost2010Prop51ColorRGB
 90
-16777216
102
RTVSPost2010PropOp51
 70
     0
102
RTVSPost2010Prop52
140
1.0
102
RTVSPost2010PropOp52
 70
     0
102
RTVSPost2010Prop53
 90
        2
102
RTVSPost2010PropOp53
 70
     1
102
RTVSPost2010Prop54
  1
strokes_ogs.tif
102
RTVSPost2010PropOp54
 70
     1
102
RTVSPost2010Prop55
280
     0
102
RTVSPost2010PropOp55
 70
     1
102
RTVSPost2010Prop56
140
1.0
102
RTVSPost2010PropOp56
 70
     1
102
RTVSPost2010Prop57
140
1.0
102
RTVSPost2010PropOp57
 70
     1
102
RTVSPropertyOp0
 70
     1
102
RTVSPropertyOp1
 70
     1
102
RTVSPropertyOp2
 70
     1
102
RTVSPropertyOp3
 70
     1
102
RTVSPropertyOp4
 70
     1
102
RTVSPropertyOp5
 70
     1
102
RTVSPropertyOp6
 70
     1
102
RTVSPropertyOp7
 70
     1
102
RTVSPropertyOp8
 70
     1
102
RTVSPropertyOp9
 70
     1
102
RTVSPropertyOp10
 70
     1
102
RTVSPropertyOp11
 70
     1
102
RTVSPropertyOp12
 70
     1
102
RTVSPropertyOp13
 70
     1
102
RTVSPropertyOp14
 70
     1
102
RTVSPropertyOp15
 70
     1
102
RTVSPropertyOp16
 70
     1
102
RTVSPropertyOp17
 70
     1
102
RTVSPropertyOp18
 70
     1
102
RTVSPropertyOp19
 70
     1
102
RTVSPropertyOp20
 70
     1
102
RTVSPropertyOp21
 70
     1
102
RTVSPropertyOp22
 70
     1
102
RTVSPropertyOp23
 70
     1
102
RTVSPropertyOp24
 70
     1
102
RTVSPropertyOp25
 70
     1
102
RTVSPropertyOp26
 70
     1
102
RTVSPropertyOp27
 70
     1
102
RTVSPropertyOp28
 70
     1
102
RTVSPropertyOp29
 70
     1
102
RTVSPropertyOp30
 70
     1
102
RTVSPropertyOp31
 70
     1
102
RTVSPropertyOp32
 70
     1
102
RTVSPropertyOp33
 70
     1
102
RTVSPropertyOp34
 70
     1
102
RTVSPropertyOp35
 70
     1
102
RTVSPropertyOp36
 70
     1
102
RTVSPropertyOp37
 70
     1
102
RTVSPropertyOp38
 70
     1
102
RTVSPropertyOp39
 70
     1
102
RTVSPropertyOp40
 70
     1
102
RTVSPropertyOp41
 70
     1
102
RTVSPropertyOp42
 70
     1
102
RTVSPropertyOp43
 70
     1
102
RTVSPropertyOp44
 70
     1
102
RTVSPropertyOp45
 70
     1
102
RTVSPropertyOp46
 70
     1
102
RTVSPropertyOp47
 70
     1
102
RTVSPropertyOp48
 70
     1
102
RTVSPropertyOp49
 70
     1
102
RTVSPropertyOp50
 70
     1
102
RTVSPropertyOp51
 70
     0
102
RTVSPropertyOp52
 70
     0
102
RTVSPropertyOp53
 70
     1
102
RTVSPropertyOp54
 70
     1
102
RTVSPropertyOp55
 70
     1
102
RTVSPropertyOp56
 70
     1
102
RTVSPropertyOp57
 70
     1
102
RTVSPropertyOp58
 70
     1
102
RTVSPropertyOp59
 70
     1
102
RTVSPropertyOp60
 70
     1
102
RTVSPropertyOp61
 70
     1
102
RTVSPropertyOp62
 70
     1
  0
XRECORD
  5
374
102
{ACAD_REACTORS
330
373
102
}
330
373
100
AcDbXrecord
280
     1
102
RTVSPost2010Prop28
280
     0
102
RTVSPost2010PropOp28
 70
     1
102
RTVSPost2010Prop29
280
     1
102
RTVSPost2010PropOp29
 70
     1
102
RTVSPost2010Prop30
280
     1
102
RTVSPost2010PropOp30
 70
     1
102
RTVSPost2010Prop31
280
     0
102
RTVSPost2010PropOp31
 70
     1
102
RTVSPost2010Prop32
280
     0
102
RTVSPost2010PropOp32
 70
     1
102
RTVSPost2010Prop33
280
     0
102
RTVSPost2010PropOp33
 70
     1
102
RTVSPost2010Prop34
280
     0
102
RTVSPost2010PropOp34
 70
     1
102
RTVSPost2010Prop35
280
     0
102
RTVSPost2010PropOp35
 70
     1
102
RTVSPost2010Prop36
280
     0
102
RTVSPost2010PropOp36
 70
     1
102
RTVSPost2010Prop37
 90
       50
102
RTVSPost2010PropOp37
 70
     1
102
RTVSPost2010Prop38
140
0.0
102
RTVSPost2010PropOp38
 70
     1
102
RTVSPost2010Prop39
140
1.0
102
RTVSPost2010PropOp39
 70
     1
102
RTVSPost2010Prop40
 90
        0
102
RTVSPost2010PropOp40
 70
     1
102
RTVSPost2010Prop41ColorIndex
 90
       18
102
RTVSPost2010Prop41ColorRGB
 90
        0
102
RTVSPost2010PropOp41
 70
     1
102
RTVSPost2010Prop42
 90
       50
102
RTVSPost2010PropOp42
 70
     1
102
RTVSPost2010Prop43
 90
        3
102
RTVSPost2010PropOp43
 70
     1
102
RTVSPost2010Prop44ColorIndex
 90
        5
102
RTVSPost2010Prop44ColorRGB
 90
      255
102
RTVSPost2010PropOp44
 70
     1
102
RTVSPost2010Prop45
280
     0
102
RTVSPost2010PropOp45
 70
     1
102
RTVSPost2010Prop46
 90
       50
102
RTVSPost2010PropOp46
 70
     1
102
RTVSPost2010Prop47
 90
       50
102
RTVSPost2010PropOp47
 70
     1
102
RTVSPost2010Prop48
 90
       50
102
RTVSPost2010PropOp48
 70
     1
102
RTVSPost2010Prop49
280
     0
102
RTVSPost2010PropOp49
 70
     1
102
RTVSPost2010Prop50
 90
       50
102
RTVSPost2010PropOp50
 70
     1
102
RTVSPost2010Prop51ColorIndex
 90
      256
102
RTVSPost2010Prop51ColorRGB
 90
-16777216
102
RTVSPost2010PropOp51
 70
     0
102
RTVSPost2010Prop52
140
1.0
102
RTVSPost2010PropOp52
 70
     0
102
RTVSPost2010Prop53
 90
        2
102
RTVSPost2010PropOp53
 70
     1
102
RTVSPost2010Prop54
  1
strokes_ogs.tif
102
RTVSPost2010PropOp54
 70
     1
102
RTVSPost2010Prop55
280
     0
102
RTVSPost2010PropOp55
 70
     1
102
RTVSPost2010Prop56
140
1.0
102
RTVSPost2010PropOp56
 70
     1
102
RTVSPost2010Prop57
140
1.0
102
RTVSPost2010PropOp57
 70
     1
102
RTVSPropertyOp0
 70
     1
102
RTVSPropertyOp1
 70
     1
102
RTVSPropertyOp2
 70
     1
102
RTVSPropertyOp3
 70
     1
102
RTVSPropertyOp4
 70
     1
102
RTVSPropertyOp5
 70
     1
102
RTVSPropertyOp6
 70
     1
102
RTVSPropertyOp7
 70
     1
102
RTVSPropertyOp8
 70
     1
102
RTVSPropertyOp9
 70
     1
102
RTVSPropertyOp10
 70
     1
102
RTVSPropertyOp11
 70
     1
102
RTVSPropertyOp12
 70
     1
102
RTVSPropertyOp13
 70
     1
102
RTVSPropertyOp14
 70
     1
102
RTVSPropertyOp15
 70
     1
102
RTVSPropertyOp16
 70
     1
102
RTVSPropertyOp17
 70
     1
102
RTVSPropertyOp18
 70
     1
102
RTVSPropertyOp19
 70
     1
102
RTVSPropertyOp20
 70
     1
102
RTVSPropertyOp21
 70
     1
102
RTVSPropertyOp22
 70
     1
102
RTVSPropertyOp23
 70
     1
102
RTVSPropertyOp24
 70
     1
102
RTVSPropertyOp25
 70
     1
102
RTVSPropertyOp26
 70
     1
102
RTVSPropertyOp27
 70
     1
102
RTVSPropertyOp28
 70
     1
102
RTVSPropertyOp29
 70
     1
102
RTVSPropertyOp30
 70
     1
102
RTVSPropertyOp31
 70
     1
102
RTVSPropertyOp32
 70
     1
102
RTVSPropertyOp33
 70
     1
102
RTVSPropertyOp34
 70
     1
102
RTVSPropertyOp35
 70
     1
102
RTVSPropertyOp36
 70
     1
102
RTVSPropertyOp37
 70
     1
102
RTVSPropertyOp38
 70
     1
102
RTVSPropertyOp39
 70
     1
102
RTVSPropertyOp40
 70
     1
102
RTVSPropertyOp41
 70
     1
102
RTVSPropertyOp42
 70
     1
102
RTVSPropertyOp43
 70
     1
102
RTVSPropertyOp44
 70
     1
102
RTVSPropertyOp45
 70
     1
102
RTVSPropertyOp46
 70
     1
102
RTVSPropertyOp47
 70
     1
102
RTVSPropertyOp48
 70
     1
102
RTVSPropertyOp49
 70
     1
102
RTVSPropertyOp50
 70
     1
102
RTVSPropertyOp51
 70
     0
102
RTVSPropertyOp52
 70
     0
102
RTVSPropertyOp53
 70
     1
102
RTVSPropertyOp54
 70
     1
102
RTVSPropertyOp55
 70
     1
102
RTVSPropertyOp56
 70
     1
102
RTVSPropertyOp57
 70
     1
102
RTVSPropertyOp58
 70
     1
102
RTVSPropertyOp59
 70
     1
102
RTVSPropertyOp60
 70
     1
102
RTVSPropertyOp61
 70
     1
102
RTVSPropertyOp62
 70
     1
  0
XRECORD
  5
378
102
{ACAD_REACTORS
330
377
102
}
330
377
100
AcDbXrecord
280
     1
102
RTVSPost2010Prop28
280
     0
102
RTVSPost2010PropOp28
 70
     1
102
RTVSPost2010Prop29
280
     1
102
RTVSPost2010PropOp29
 70
     1
102
RTVSPost2010Prop30
280
     1
102
RTVSPost2010PropOp30
 70
     1
102
RTVSPost2010Prop31
280
     0
102
RTVSPost2010PropOp31
 70
     1
102
RTVSPost2010Prop32
280
     0
102
RTVSPost2010PropOp32
 70
     1
102
RTVSPost2010Prop33
280
     0
102
RTVSPost2010PropOp33
 70
     1
102
RTVSPost2010Prop34
280
     0
102
RTVSPost2010PropOp34
 70
     1
102
RTVSPost2010Prop35
280
     0
102
RTVSPost2010PropOp35
 70
     1
102
RTVSPost2010Prop36
280
     0
102
RTVSPost2010PropOp36
 70
     1
102
RTVSPost2010Prop37
 90
       50
102
RTVSPost2010PropOp37
 70
     1
102
RTVSPost2010Prop38
140
0.0
102
RTVSPost2010PropOp38
 70
     1
102
RTVSPost2010Prop39
140
1.0
102
RTVSPost2010PropOp39
 70
     1
102
RTVSPost2010Prop40
 90
        0
102
RTVSPost2010PropOp40
 70
     1
102
RTVSPost2010Prop41ColorIndex
 90
       18
102
RTVSPost2010Prop41ColorRGB
 90
        0
102
RTVSPost2010PropOp41
 70
     1
102
RTVSPost2010Prop42
 90
       50
102
RTVSPost2010PropOp42
 70
     1
102
RTVSPost2010Prop43
 90
        3
102
RTVSPost2010PropOp43
 70
     1
102
RTVSPost2010Prop44ColorIndex
 90
        5
102
RTVSPost2010Prop44ColorRGB
 90
      255
102
RTVSPost2010PropOp44
 70
     1
102
RTVSPost2010Prop45
280
     0
102
RTVSPost2010PropOp45
 70
     1
102
RTVSPost2010Prop46
 90
       50
102
RTVSPost2010PropOp46
 70
     1
102
RTVSPost2010Prop47
 90
       50
102
RTVSPost2010PropOp47
 70
     1
102
RTVSPost2010Prop48
 90
       50
102
RTVSPost2010PropOp48
 70
     1
102
RTVSPost2010Prop49
280
     0
102
RTVSPost2010PropOp49
 70
     1
102
RTVSPost2010Prop50
 90
       50
102
RTVSPost2010PropOp50
 70
     1
102
RTVSPost2010Prop51ColorIndex
 90
      256
102
RTVSPost2010Prop51ColorRGB
 90
-16777216
102
RTVSPost2010PropOp51
 70
     0
102
RTVSPost2010Prop52
140
1.0
102
RTVSPost2010PropOp52
 70
     0
102
RTVSPost2010Prop53
 90
        2
102
RTVSPost2010PropOp53
 70
     1
102
RTVSPost2010Prop54
  1
strokes_ogs.tif
102
RTVSPost2010PropOp54
 70
     1
102
RTVSPost2010Prop55
280
     0
102
RTVSPost2010PropOp55
 70
     1
102
RTVSPost2010Prop56
140
1.0
102
RTVSPost2010PropOp56
 70
     1
102
RTVSPost2010Prop57
140
1.0
102
RTVSPost2010PropOp57
 70
     1
102
RTVSPropertyOp0
 70
     1
102
RTVSPropertyOp1
 70
     1
102
RTVSPropertyOp2
 70
     1
102
RTVSPropertyOp3
 70
     1
102
RTVSPropertyOp4
 70
     1
102
RTVSPropertyOp5
 70
     1
102
RTVSPropertyOp6
 70
     1
102
RTVSPropertyOp7
 70
     1
102
RTVSPropertyOp8
 70
     1
102
RTVSPropertyOp9
 70
     1
102
RTVSPropertyOp10
 70
     1
102
RTVSPropertyOp11
 70
     1
102
RTVSPropertyOp12
 70
     1
102
RTVSPropertyOp13
 70
     1
102
RTVSPropertyOp14
 70
     1
102
RTVSPropertyOp15
 70
     1
102
RTVSPropertyOp16
 70
     1
102
RTVSPropertyOp17
 70
     1
102
RTVSPropertyOp18
 70
     1
102
RTVSPropertyOp19
 70
     1
102
RTVSPropertyOp20
 70
     1
102
RTVSPropertyOp21
 70
     1
102
RTVSPropertyOp22
 70
     1
102
RTVSPropertyOp23
 70
     1
102
RTVSPropertyOp24
 70
     1
102
RTVSPropertyOp25
 70
     1
102
RTVSPropertyOp26
 70
     1
102
RTVSPropertyOp27
 70
     1
102
RTVSPropertyOp28
 70
     1
102
RTVSPropertyOp29
 70
     1
102
RTVSPropertyOp30
 70
     1
102
RTVSPropertyOp31
 70
     1
102
RTVSPropertyOp32
 70
     1
102
RTVSPropertyOp33
 70
     1
102
RTVSPropertyOp34
 70
     1
102
RTVSPropertyOp35
 70
     1
102
RTVSPropertyOp36
 70
     1
102
RTVSPropertyOp37
 70
     1
102
RTVSPropertyOp38
 70
     1
102
RTVSPropertyOp39
 70
     1
102
RTVSPropertyOp40
 70
     1
102
RTVSPropertyOp41
 70
     1
102
RTVSPropertyOp42
 70
     1
102
RTVSPropertyOp43
 70
     1
102
RTVSPropertyOp44
 70
     1
102
RTVSPropertyOp45
 70
     1
102
RTVSPropertyOp46
 70
     1
102
RTVSPropertyOp47
 70
     1
102
RTVSPropertyOp48
 70
     1
102
RTVSPropertyOp49
 70
     1
102
RTVSPropertyOp50
 70
     1
102
RTVSPropertyOp51
 70
     0
102
RTVSPropertyOp52
 70
     0
102
RTVSPropertyOp53
 70
     1
102
RTVSPropertyOp54
 70
     1
102
RTVSPropertyOp55
 70
     1
102
RTVSPropertyOp56
 70
     1
102
RTVSPropertyOp57
 70
     1
102
RTVSPropertyOp58
 70
     1
102
RTVSPropertyOp59
 70
     1
102
RTVSPropertyOp60
 70
     1
102
RTVSPropertyOp61
 70
     1
102
RTVSPropertyOp62
 70
     1
  0
XRECORD
  5
392
102
{ACAD_REACTORS
330
391
102
}
330
391
100
AcDbXrecord
280
     1
102
RTVSPost2010Prop28
280
     0
102
RTVSPost2010PropOp28
 70
     1
102
RTVSPost2010Prop29
280
     1
102
RTVSPost2010PropOp29
 70
     1
102
RTVSPost2010Prop30
280
     1
102
RTVSPost2010PropOp30
 70
     1
102
RTVSPost2010Prop31
280
     0
102
RTVSPost2010PropOp31
 70
     1
102
RTVSPost2010Prop32
280
     0
102
RTVSPost2010PropOp32
 70
     1
102
RTVSPost2010Prop33
280
     0
102
RTVSPost2010PropOp33
 70
     1
102
RTVSPost2010Prop34
280
     0
102
RTVSPost2010PropOp34
 70
     1
102
RTVSPost2010Prop35
280
     0
102
RTVSPost2010PropOp35
 70
     1
102
RTVSPost2010Prop36
280
     0
102
RTVSPost2010PropOp36
 70
     1
102
RTVSPost2010Prop37
 90
       50
102
RTVSPost2010PropOp37
 70
     0
102
RTVSPost2010Prop38
140
0.0
102
RTVSPost2010PropOp38
 70
     0
102
RTVSPost2010Prop39
140
1.0
102
RTVSPost2010PropOp39
 70
     0
102
RTVSPost2010Prop40
 90
        0
102
RTVSPost2010PropOp40
 70
     0
102
RTVSPost2010Prop41ColorIndex
 90
       18
102
RTVSPost2010Prop41ColorRGB
 90
        0
102
RTVSPost2010PropOp41
 70
     0
102
RTVSPost2010Prop42
 90
       50
102
RTVSPost2010PropOp42
 70
     0
102
RTVSPost2010Prop43
 90
        3
102
RTVSPost2010PropOp43
 70
     0
102
RTVSPost2010Prop44ColorIndex
 90
        5
102
RTVSPost2010Prop44ColorRGB
 90
      255
102
RTVSPost2010PropOp44
 70
     0
102
RTVSPost2010Prop45
280
     0
102
RTVSPost2010PropOp45
 70
     1
102
RTVSPost2010Prop46
 90
       50
102
RTVSPost2010PropOp46
 70
     0
102
RTVSPost2010Prop47
 90
       50
102
RTVSPost2010PropOp47
 70
     0
102
RTVSPost2010Prop48
 90
       50
102
RTVSPost2010PropOp48
 70
     0
102
RTVSPost2010Prop49
280
     0
102
RTVSPost2010PropOp49
 70
     1
102
RTVSPost2010Prop50
 90
       50
102
RTVSPost2010PropOp50
 70
     0
102
RTVSPost2010Prop51ColorIndex
 90
      256
102
RTVSPost2010Prop51ColorRGB
 90
-16777216
102
RTVSPost2010PropOp51
 70
     0
102
RTVSPost2010Prop52
140
1.0
102
RTVSPost2010PropOp52
 70
     0
102
RTVSPost2010Prop53
 90
        2
102
RTVSPost2010PropOp53
 70
     0
102
RTVSPost2010Prop54
  1
strokes_ogs.tif
102
RTVSPost2010PropOp54
 70
     0
102
RTVSPost2010Prop55
280
     0
102
RTVSPost2010PropOp55
 70
     1
102
RTVSPost2010Prop56
140
1.0
102
RTVSPost2010PropOp56
 70
     0
102
RTVSPost2010Prop57
140
1.0
102
RTVSPost2010PropOp57
 70
     0
102
RTVSPropertyOp0
 70
     0
102
RTVSPropertyOp1
 70
     0
102
RTVSPropertyOp2
 70
     0
102
RTVSPropertyOp3
 70
     0
102
RTVSPropertyOp4
 70
     0
102
RTVSPropertyOp5
 70
     0
102
RTVSPropertyOp6
 70
     0
102
RTVSPropertyOp7
 70
     0
102
RTVSPropertyOp8
 70
     0
102
RTVSPropertyOp9
 70
     0
102
RTVSPropertyOp10
 70
     0
102
RTVSPropertyOp11
 70
     0
102
RTVSPropertyOp12
 70
     0
102
RTVSPropertyOp13
 70
     0
102
RTVSPropertyOp14
 70
     2
102
RTVSPropertyOp15
 70
     0
102
RTVSPropertyOp16
 70
     0
102
RTVSPropertyOp17
 70
     0
102
RTVSPropertyOp18
 70
     0
102
RTVSPropertyOp19
 70
     0
102
RTVSPropertyOp20
 70
     0
102
RTVSPropertyOp21
 70
     0
102
RTVSPropertyOp22
 70
     0
102
RTVSPropertyOp23
 70
     0
102
RTVSPropertyOp24
 70
     0
102
RTVSPropertyOp25
 70
     0
102
RTVSPropertyOp26
 70
     0
102
RTVSPropertyOp27
 70
     0
102
RTVSPropertyOp28
 70
     1
102
RTVSPropertyOp29
 70
     1
102
RTVSPropertyOp30
 70
     1
102
RTVSPropertyOp31
 70
     1
102
RTVSPropertyOp32
 70
     1
102
RTVSPropertyOp33
 70
     1
102
RTVSPropertyOp34
 70
     1
102
RTVSPropertyOp35
 70
     1
102
RTVSPropertyOp36
 70
     1
102
RTVSPropertyOp37
 70
     0
102
RTVSPropertyOp38
 70
     0
102
RTVSPropertyOp39
 70
     0
102
RTVSPropertyOp40
 70
     0
102
RTVSPropertyOp41
 70
     0
102
RTVSPropertyOp42
 70
     0
102
RTVSPropertyOp43
 70
     0
102
RTVSPropertyOp44
 70
     0
102
RTVSPropertyOp45
 70
     1
102
RTVSPropertyOp46
 70
     0
102
RTVSPropertyOp47
 70
     0
102
RTVSPropertyOp48
 70
     0
102
RTVSPropertyOp49
 70
     1
102
RTVSPropertyOp50
 70
     0
102
RTVSPropertyOp51
 70
     0
102
RTVSPropertyOp52
 70
     0
102
RTVSPropertyOp53
 70
     0
102
RTVSPropertyOp54
 70
     0
102
RTVSPropertyOp55
 70
     1
102
RTVSPropertyOp56
 70
     0
102
RTVSPropertyOp57
 70
     0
102
RTVSPropertyOp58
 70
     0
102
RTVSPropertyOp59
 70
     0
102
RTVSPropertyOp60
 70
     0
102
RTVSPropertyOp61
 70
     0
102
RTVSPropertyOp62
 70
     0
  0
XRECORD
  5
380
102
{ACAD_REACTORS
330
37F
102
}
330
37F
100
AcDbXrecord
280
     1
102
RTVSPost2010Prop28
280
     0
102
RTVSPost2010PropOp28
 70
     1
102
RTVSPost2010Prop29
280
     1
102
RTVSPost2010PropOp29
 70
     1
102
RTVSPost2010Prop30
280
     1
102
RTVSPost2010PropOp30
 70
     1
102
RTVSPost2010Prop31
280
     0
102
RTVSPost2010PropOp31
 70
     1
102
RTVSPost2010Prop32
280
     0
102
RTVSPost2010PropOp32
 70
     1
102
RTVSPost2010Prop33
280
     0
102
RTVSPost2010PropOp33
 70
     1
102
RTVSPost2010Prop34
280
     0
102
RTVSPost2010PropOp34
 70
     1
102
RTVSPost2010Prop35
280
     0
102
RTVSPost2010PropOp35
 70
     1
102
RTVSPost2010Prop36
280
     0
102
RTVSPost2010PropOp36
 70
     1
102
RTVSPost2010Prop37
 90
       50
102
RTVSPost2010PropOp37
 70
     1
102
RTVSPost2010Prop38
140
0.0
102
RTVSPost2010PropOp38
 70
     1
102
RTVSPost2010Prop39
140
1.0
102
RTVSPost2010PropOp39
 70
     1
102
RTVSPost2010Prop40
 90
        0
102
RTVSPost2010PropOp40
 70
     1
102
RTVSPost2010Prop41ColorIndex
 90
       18
102
RTVSPost2010Prop41ColorRGB
 90
        0
102
RTVSPost2010PropOp41
 70
     1
102
RTVSPost2010Prop42
 90
       50
102
RTVSPost2010PropOp42
 70
     1
102
RTVSPost2010Prop43
 90
        3
102
RTVSPost2010PropOp43
 70
     1
102
RTVSPost2010Prop44ColorIndex
 90
        5
102
RTVSPost2010Prop44ColorRGB
 90
      255
102
RTVSPost2010PropOp44
 70
     1
102
RTVSPost2010Prop45
280
     0
102
RTVSPost2010PropOp45
 70
     1
102
RTVSPost2010Prop46
 90
       50
102
RTVSPost2010PropOp46
 70
     1
102
RTVSPost2010Prop47
 90
       50
102
RTVSPost2010PropOp47
 70
     1
102
RTVSPost2010Prop48
 90
       50
102
RTVSPost2010PropOp48
 70
     1
102
RTVSPost2010Prop49
280
     0
102
RTVSPost2010PropOp49
 70
     1
102
RTVSPost2010Prop50
 90
       50
102
RTVSPost2010PropOp50
 70
     1
102
RTVSPost2010Prop51ColorIndex
 90
      256
102
RTVSPost2010Prop51ColorRGB
 90
-16777216
102
RTVSPost2010PropOp51
 70
     0
102
RTVSPost2010Prop52
140
1.0
102
RTVSPost2010PropOp52
 70
     0
102
RTVSPost2010Prop53
 90
        2
102
RTVSPost2010PropOp53
 70
     1
102
RTVSPost2010Prop54
  1
strokes_ogs.tif
102
RTVSPost2010PropOp54
 70
     1
102
RTVSPost2010Prop55
280
     0
102
RTVSPost2010PropOp55
 70
     1
102
RTVSPost2010Prop56
140
1.0
102
RTVSPost2010PropOp56
 70
     1
102
RTVSPost2010Prop57
140
1.0
102
RTVSPost2010PropOp57
 70
     1
102
RTVSPropertyOp0
 70
     1
102
RTVSPropertyOp1
 70
     1
102
RTVSPropertyOp2
 70
     1
102
RTVSPropertyOp3
 70
     1
102
RTVSPropertyOp4
 70
     1
102
RTVSPropertyOp5
 70
     1
102
RTVSPropertyOp6
 70
     1
102
RTVSPropertyOp7
 70
     1
102
RTVSPropertyOp8
 70
     1
102
RTVSPropertyOp9
 70
     1
102
RTVSPropertyOp10
 70
     1
102
RTVSPropertyOp11
 70
     1
102
RTVSPropertyOp12
 70
     1
102
RTVSPropertyOp13
 70
     1
102
RTVSPropertyOp14
 70
     1
102
RTVSPropertyOp15
 70
     1
102
RTVSPropertyOp16
 70
     1
102
RTVSPropertyOp17
 70
     1
102
RTVSPropertyOp18
 70
     1
102
RTVSPropertyOp19
 70
     1
102
RTVSPropertyOp20
 70
     1
102
RTVSPropertyOp21
 70
     1
102
RTVSPropertyOp22
 70
     1
102
RTVSPropertyOp23
 70
     1
102
RTVSPropertyOp24
 70
     1
102
RTVSPropertyOp25
 70
     1
102
RTVSPropertyOp26
 70
     1
102
RTVSPropertyOp27
 70
     1
102
RTVSPropertyOp28
 70
     1
102
RTVSPropertyOp29
 70
     1
102
RTVSPropertyOp30
 70
     1
102
RTVSPropertyOp31
 70
     1
102
RTVSPropertyOp32
 70
     1
102
RTVSPropertyOp33
 70
     1
102
RTVSPropertyOp34
 70
     1
102
RTVSPropertyOp35
 70
     1
102
RTVSPropertyOp36
 70
     1
102
RTVSPropertyOp37
 70
     1
102
RTVSPropertyOp38
 70
     1
102
RTVSPropertyOp39
 70
     1
102
RTVSPropertyOp40
 70
     1
102
RTVSPropertyOp41
 70
     1
102
RTVSPropertyOp42
 70
     1
102
RTVSPropertyOp43
 70
     1
102
RTVSPropertyOp44
 70
     1
102
RTVSPropertyOp45
 70
     1
102
RTVSPropertyOp46
 70
     1
102
RTVSPropertyOp47
 70
     1
102
RTVSPropertyOp48
 70
     1
102
RTVSPropertyOp49
 70
     1
102
RTVSPropertyOp50
 70
     1
102
RTVSPropertyOp51
 70
     0
102
RTVSPropertyOp52
 70
     0
102
RTVSPropertyOp53
 70
     1
102
RTVSPropertyOp54
 70
     1
102
RTVSPropertyOp55
 70
     1
102
RTVSPropertyOp56
 70
     1
102
RTVSPropertyOp57
 70
     1
102
RTVSPropertyOp58
 70
     1
102
RTVSPropertyOp59
 70
     1
102
RTVSPropertyOp60
 70
     1
102
RTVSPropertyOp61
 70
     1
102
RTVSPropertyOp62
 70
     1
  0
XRECORD
  5
364
102
{ACAD_REACTORS
330
363
102
}
330
363
100
AcDbXrecord
280
     1
102
RTVSPost2010Prop28
280
     0
102
RTVSPost2010PropOp28
 70
     1
102
RTVSPost2010Prop29
280
     1
102
RTVSPost2010PropOp29
 70
     1
102
RTVSPost2010Prop30
280
     1
102
RTVSPost2010PropOp30
 70
     1
102
RTVSPost2010Prop31
280
     0
102
RTVSPost2010PropOp31
 70
     1
102
RTVSPost2010Prop32
280
     0
102
RTVSPost2010PropOp32
 70
     1
102
RTVSPost2010Prop33
280
     0
102
RTVSPost2010PropOp33
 70
     1
102
RTVSPost2010Prop34
280
     0
102
RTVSPost2010PropOp34
 70
     1
102
RTVSPost2010Prop35
280
     0
102
RTVSPost2010PropOp35
 70
     1
102
RTVSPost2010Prop36
280
     0
102
RTVSPost2010PropOp36
 70
     1
102
RTVSPost2010Prop37
 90
       50
102
RTVSPost2010PropOp37
 70
     1
102
RTVSPost2010Prop38
140
0.0
102
RTVSPost2010PropOp38
 70
     1
102
RTVSPost2010Prop39
140
1.0
102
RTVSPost2010PropOp39
 70
     1
102
RTVSPost2010Prop40
 90
        0
102
RTVSPost2010PropOp40
 70
     1
102
RTVSPost2010Prop41ColorIndex
 90
       18
102
RTVSPost2010Prop41ColorRGB
 90
        0
102
RTVSPost2010PropOp41
 70
     1
102
RTVSPost2010Prop42
 90
       50
102
RTVSPost2010PropOp42
 70
     1
102
RTVSPost2010Prop43
 90
        3
102
RTVSPost2010PropOp43
 70
     1
102
RTVSPost2010Prop44ColorIndex
 90
        5
102
RTVSPost2010Prop44ColorRGB
 90
      255
102
RTVSPost2010PropOp44
 70
     1
102
RTVSPost2010Prop45
280
     0
102
RTVSPost2010PropOp45
 70
     1
102
RTVSPost2010Prop46
 90
       50
102
RTVSPost2010PropOp46
 70
     1
102
RTVSPost2010Prop47
 90
       50
102
RTVSPost2010PropOp47
 70
     1
102
RTVSPost2010Prop48
 90
       50
102
RTVSPost2010PropOp48
 70
     1
102
RTVSPost2010Prop49
280
     0
102
RTVSPost2010PropOp49
 70
     1
102
RTVSPost2010Prop50
 90
       50
102
RTVSPost2010PropOp50
 70
     1
102
RTVSPost2010Prop51ColorIndex
 90
      256
102
RTVSPost2010Prop51ColorRGB
 90
-16777216
102
RTVSPost2010PropOp51
 70
     0
102
RTVSPost2010Prop52
140
1.0
102
RTVSPost2010PropOp52
 70
     0
102
RTVSPost2010Prop53
 90
        2
102
RTVSPost2010PropOp53
 70
     1
102
RTVSPost2010Prop54
  1
strokes_ogs.tif
102
RTVSPost2010PropOp54
 70
     1
102
RTVSPost2010Prop55
280
     0
102
RTVSPost2010PropOp55
 70
     1
102
RTVSPost2010Prop56
140
1.0
102
RTVSPost2010PropOp56
 70
     1
102
RTVSPost2010Prop57
140
1.0
102
RTVSPost2010PropOp57
 70
     1
102
RTVSPropertyOp0
 70
     1
102
RTVSPropertyOp1
 70
     1
102
RTVSPropertyOp2
 70
     1
102
RTVSPropertyOp3
 70
     1
102
RTVSPropertyOp4
 70
     1
102
RTVSPropertyOp5
 70
     1
102
RTVSPropertyOp6
 70
     1
102
RTVSPropertyOp7
 70
     1
102
RTVSPropertyOp8
 70
     1
102
RTVSPropertyOp9
 70
     1
102
RTVSPropertyOp10
 70
     1
102
RTVSPropertyOp11
 70
     1
102
RTVSPropertyOp12
 70
     1
102
RTVSPropertyOp13
 70
     1
102
RTVSPropertyOp14
 70
     1
102
RTVSPropertyOp15
 70
     1
102
RTVSPropertyOp16
 70
     1
102
RTVSPropertyOp17
 70
     1
102
RTVSPropertyOp18
 70
     1
102
RTVSPropertyOp19
 70
     1
102
RTVSPropertyOp20
 70
     1
102
RTVSPropertyOp21
 70
     1
102
RTVSPropertyOp22
 70
     1
102
RTVSPropertyOp23
 70
     1
102
RTVSPropertyOp24
 70
     1
102
RTVSPropertyOp25
 70
     1
102
RTVSPropertyOp26
 70
     1
102
RTVSPropertyOp27
 70
     1
102
RTVSPropertyOp28
 70
     1
102
RTVSPropertyOp29
 70
     1
102
RTVSPropertyOp30
 70
     1
102
RTVSPropertyOp31
 70
     1
102
RTVSPropertyOp32
 70
     1
102
RTVSPropertyOp33
 70
     1
102
RTVSPropertyOp34
 70
     1
102
RTVSPropertyOp35
 70
     1
102
RTVSPropertyOp36
 70
     1
102
RTVSPropertyOp37
 70
     1
102
RTVSPropertyOp38
 70
     1
102
RTVSPropertyOp39
 70
     1
102
RTVSPropertyOp40
 70
     1
102
RTVSPropertyOp41
 70
     1
102
RTVSPropertyOp42
 70
     1
102
RTVSPropertyOp43
 70
     1
102
RTVSPropertyOp44
 70
     1
102
RTVSPropertyOp45
 70
     1
102
RTVSPropertyOp46
 70
     1
102
RTVSPropertyOp47
 70
     1
102
RTVSPropertyOp48
 70
     1
102
RTVSPropertyOp49
 70
     1
102
RTVSPropertyOp50
 70
     1
102
RTVSPropertyOp51
 70
     0
102
RTVSPropertyOp52
 70
     0
102
RTVSPropertyOp53
 70
     1
102
RTVSPropertyOp54
 70
     1
102
RTVSPropertyOp55
 70
     1
102
RTVSPropertyOp56
 70
     1
102
RTVSPropertyOp57
 70
     1
102
RTVSPropertyOp58
 70
     1
102
RTVSPropertyOp59
 70
     1
102
RTVSPropertyOp60
 70
     1
102
RTVSPropertyOp61
 70
     1
102
RTVSPropertyOp62
 70
     1
  0
XRECORD
  5
366
102
{ACAD_REACTORS
330
365
102
}
330
365
100
AcDbXrecord
280
     1
102
RTVSPost2010Prop28
280
     0
102
RTVSPost2010PropOp28
 70
     1
102
RTVSPost2010Prop29
280
     1
102
RTVSPost2010PropOp29
 70
     1
102
RTVSPost2010Prop30
280
     1
102
RTVSPost2010PropOp30
 70
     1
102
RTVSPost2010Prop31
280
     0
102
RTVSPost2010PropOp31
 70
     1
102
RTVSPost2010Prop32
280
     0
102
RTVSPost2010PropOp32
 70
     1
102
RTVSPost2010Prop33
280
     0
102
RTVSPost2010PropOp33
 70
     1
102
RTVSPost2010Prop34
280
     0
102
RTVSPost2010PropOp34
 70
     1
102
RTVSPost2010Prop35
280
     0
102
RTVSPost2010PropOp35
 70
     1
102
RTVSPost2010Prop36
280
     0
102
RTVSPost2010PropOp36
 70
     1
102
RTVSPost2010Prop37
 90
       50
102
RTVSPost2010PropOp37
 70
     1
102
RTVSPost2010Prop38
140
0.0
102
RTVSPost2010PropOp38
 70
     1
102
RTVSPost2010Prop39
140
1.0
102
RTVSPost2010PropOp39
 70
     1
102
RTVSPost2010Prop40
 90
        0
102
RTVSPost2010PropOp40
 70
     1
102
RTVSPost2010Prop41ColorIndex
 90
       18
102
RTVSPost2010Prop41ColorRGB
 90
        0
102
RTVSPost2010PropOp41
 70
     1
102
RTVSPost2010Prop42
 90
       50
102
RTVSPost2010PropOp42
 70
     1
102
RTVSPost2010Prop43
 90
        3
102
RTVSPost2010PropOp43
 70
     1
102
RTVSPost2010Prop44ColorIndex
 90
        5
102
RTVSPost2010Prop44ColorRGB
 90
      255
102
RTVSPost2010PropOp44
 70
     1
102
RTVSPost2010Prop45
280
     0
102
RTVSPost2010PropOp45
 70
     1
102
RTVSPost2010Prop46
 90
       50
102
RTVSPost2010PropOp46
 70
     1
102
RTVSPost2010Prop47
 90
       50
102
RTVSPost2010PropOp47
 70
     1
102
RTVSPost2010Prop48
 90
       50
102
RTVSPost2010PropOp48
 70
     1
102
RTVSPost2010Prop49
280
     0
102
RTVSPost2010PropOp49
 70
     1
102
RTVSPost2010Prop50
 90
       50
102
RTVSPost2010PropOp50
 70
     1
102
RTVSPost2010Prop51ColorIndex
 90
      256
102
RTVSPost2010Prop51ColorRGB
 90
-16777216
102
RTVSPost2010PropOp51
 70
     0
102
RTVSPost2010Prop52
140
1.0
102
RTVSPost2010PropOp52
 70
     0
102
RTVSPost2010Prop53
 90
        2
102
RTVSPost2010PropOp53
 70
     1
102
RTVSPost2010Prop54
  1
strokes_ogs.tif
102
RTVSPost2010PropOp54
 70
     1
102
RTVSPost2010Prop55
280
     0
102
RTVSPost2010PropOp55
 70
     1
102
RTVSPost2010Prop56
140
1.0
102
RTVSPost2010PropOp56
 70
     1
102
RTVSPost2010Prop57
140
1.0
102
RTVSPost2010PropOp57
 70
     1
102
RTVSPropertyOp0
 70
     1
102
RTVSPropertyOp1
 70
     1
102
RTVSPropertyOp2
 70
     1
102
RTVSPropertyOp3
 70
     1
102
RTVSPropertyOp4
 70
     1
102
RTVSPropertyOp5
 70
     1
102
RTVSPropertyOp6
 70
     1
102
RTVSPropertyOp7
 70
     1
102
RTVSPropertyOp8
 70
     1
102
RTVSPropertyOp9
 70
     1
102
RTVSPropertyOp10
 70
     1
102
RTVSPropertyOp11
 70
     1
102
RTVSPropertyOp12
 70
     1
102
RTVSPropertyOp13
 70
     1
102
RTVSPropertyOp14
 70
     1
102
RTVSPropertyOp15
 70
     1
102
RTVSPropertyOp16
 70
     1
102
RTVSPropertyOp17
 70
     1
102
RTVSPropertyOp18
 70
     1
102
RTVSPropertyOp19
 70
     1
102
RTVSPropertyOp20
 70
     1
102
RTVSPropertyOp21
 70
     1
102
RTVSPropertyOp22
 70
     1
102
RTVSPropertyOp23
 70
     1
102
RTVSPropertyOp24
 70
     1
102
RTVSPropertyOp25
 70
     1
102
RTVSPropertyOp26
 70
     1
102
RTVSPropertyOp27
 70
     1
102
RTVSPropertyOp28
 70
     1
102
RTVSPropertyOp29
 70
     1
102
RTVSPropertyOp30
 70
     1
102
RTVSPropertyOp31
 70
     1
102
RTVSPropertyOp32
 70
     1
102
RTVSPropertyOp33
 70
     1
102
RTVSPropertyOp34
 70
     1
102
RTVSPropertyOp35
 70
     1
102
RTVSPropertyOp36
 70
     1
102
RTVSPropertyOp37
 70
     1
102
RTVSPropertyOp38
 70
     1
102
RTVSPropertyOp39
 70
     1
102
RTVSPropertyOp40
 70
     1
102
RTVSPropertyOp41
 70
     1
102
RTVSPropertyOp42
 70
     1
102
RTVSPropertyOp43
 70
     1
102
RTVSPropertyOp44
 70
     1
102
RTVSPropertyOp45
 70
     1
102
RTVSPropertyOp46
 70
     1
102
RTVSPropertyOp47
 70
     1
102
RTVSPropertyOp48
 70
     1
102
RTVSPropertyOp49
 70
     1
102
RTVSPropertyOp50
 70
     1
102
RTVSPropertyOp51
 70
     0
102
RTVSPropertyOp52
 70
     0
102
RTVSPropertyOp53
 70
     1
102
RTVSPropertyOp54
 70
     1
102
RTVSPropertyOp55
 70
     1
102
RTVSPropertyOp56
 70
     1
102
RTVSPropertyOp57
 70
     1
102
RTVSPropertyOp58
 70
     1
102
RTVSPropertyOp59
 70
     1
102
RTVSPropertyOp60
 70
     1
102
RTVSPropertyOp61
 70
     1
102
RTVSPropertyOp62
 70
     1
  0
XRECORD
  5
368
102
{ACAD_REACTORS
330
367
102
}
330
367
100
AcDbXrecord
280
     1
102
RTVSPost2010Prop28
280
     0
102
RTVSPost2010PropOp28
 70
     1
102
RTVSPost2010Prop29
280
     1
102
RTVSPost2010PropOp29
 70
     1
102
RTVSPost2010Prop30
280
     1
102
RTVSPost2010PropOp30
 70
     1
102
RTVSPost2010Prop31
280
     0
102
RTVSPost2010PropOp31
 70
     1
102
RTVSPost2010Prop32
280
     0
102
RTVSPost2010PropOp32
 70
     1
102
RTVSPost2010Prop33
280
     0
102
RTVSPost2010PropOp33
 70
     1
102
RTVSPost2010Prop34
280
     0
102
RTVSPost2010PropOp34
 70
     1
102
RTVSPost2010Prop35
280
     0
102
RTVSPost2010PropOp35
 70
     1
102
RTVSPost2010Prop36
280
     0
102
RTVSPost2010PropOp36
 70
     1
102
RTVSPost2010Prop37
 90
       50
102
RTVSPost2010PropOp37
 70
     1
102
RTVSPost2010Prop38
140
0.0
102
RTVSPost2010PropOp38
 70
     1
102
RTVSPost2010Prop39
140
1.0
102
RTVSPost2010PropOp39
 70
     1
102
RTVSPost2010Prop40
 90
        0
102
RTVSPost2010PropOp40
 70
     1
102
RTVSPost2010Prop41ColorIndex
 90
       18
102
RTVSPost2010Prop41ColorRGB
 90
        0
102
RTVSPost2010PropOp41
 70
     1
102
RTVSPost2010Prop42
 90
       50
102
RTVSPost2010PropOp42
 70
     1
102
RTVSPost2010Prop43
 90
        3
102
RTVSPost2010PropOp43
 70
     1
102
RTVSPost2010Prop44ColorIndex
 90
        5
102
RTVSPost2010Prop44ColorRGB
 90
      255
102
RTVSPost2010PropOp44
 70
     1
102
RTVSPost2010Prop45
280
     0
102
RTVSPost2010PropOp45
 70
     1
102
RTVSPost2010Prop46
 90
       50
102
RTVSPost2010PropOp46
 70
     1
102
RTVSPost2010Prop47
 90
       50
102
RTVSPost2010PropOp47
 70
     1
102
RTVSPost2010Prop48
 90
       50
102
RTVSPost2010PropOp48
 70
     1
102
RTVSPost2010Prop49
280
     0
102
RTVSPost2010PropOp49
 70
     1
102
RTVSPost2010Prop50
 90
       50
102
RTVSPost2010PropOp50
 70
     1
102
RTVSPost2010Prop51ColorIndex
 90
      256
102
RTVSPost2010Prop51ColorRGB
 90
-16777216
102
RTVSPost2010PropOp51
 70
     0
102
RTVSPost2010Prop52
140
1.0
102
RTVSPost2010PropOp52
 70
     0
102
RTVSPost2010Prop53
 90
        2
102
RTVSPost2010PropOp53
 70
     1
102
RTVSPost2010Prop54
  1
strokes_ogs.tif
102
RTVSPost2010PropOp54
 70
     1
102
RTVSPost2010Prop55
280
     0
102
RTVSPost2010PropOp55
 70
     1
102
RTVSPost2010Prop56
140
1.0
102
RTVSPost2010PropOp56
 70
     1
102
RTVSPost2010Prop57
140
1.0
102
RTVSPost2010PropOp57
 70
     1
102
RTVSPropertyOp0
 70
     1
102
RTVSPropertyOp1
 70
     1
102
RTVSPropertyOp2
 70
     1
102
RTVSPropertyOp3
 70
     1
102
RTVSPropertyOp4
 70
     1
102
RTVSPropertyOp5
 70
     1
102
RTVSPropertyOp6
 70
     1
102
RTVSPropertyOp7
 70
     1
102
RTVSPropertyOp8
 70
     1
102
RTVSPropertyOp9
 70
     1
102
RTVSPropertyOp10
 70
     1
102
RTVSPropertyOp11
 70
     1
102
RTVSPropertyOp12
 70
     1
102
RTVSPropertyOp13
 70
     1
102
RTVSPropertyOp14
 70
     1
102
RTVSPropertyOp15
 70
     1
102
RTVSPropertyOp16
 70
     1
102
RTVSPropertyOp17
 70
     1
102
RTVSPropertyOp18
 70
     1
102
RTVSPropertyOp19
 70
     1
102
RTVSPropertyOp20
 70
     1
102
RTVSPropertyOp21
 70
     1
102
RTVSPropertyOp22
 70
     1
102
RTVSPropertyOp23
 70
     1
102
RTVSPropertyOp24
 70
     1
102
RTVSPropertyOp25
 70
     1
102
RTVSPropertyOp26
 70
     1
102
RTVSPropertyOp27
 70
     1
102
RTVSPropertyOp28
 70
     1
102
RTVSPropertyOp29
 70
     1
102
RTVSPropertyOp30
 70
     1
102
RTVSPropertyOp31
 70
     1
102
RTVSPropertyOp32
 70
     1
102
RTVSPropertyOp33
 70
     1
102
RTVSPropertyOp34
 70
     1
102
RTVSPropertyOp35
 70
     1
102
RTVSPropertyOp36
 70
     1
102
RTVSPropertyOp37
 70
     1
102
RTVSPropertyOp38
 70
     1
102
RTVSPropertyOp39
 70
     1
102
RTVSPropertyOp40
 70
     1
102
RTVSPropertyOp41
 70
     1
102
RTVSPropertyOp42
 70
     1
102
RTVSPropertyOp43
 70
     1
102
RTVSPropertyOp44
 70
     1
102
RTVSPropertyOp45
 70
     1
102
RTVSPropertyOp46
 70
     1
102
RTVSPropertyOp47
 70
     1
102
RTVSPropertyOp48
 70
     1
102
RTVSPropertyOp49
 70
     1
102
RTVSPropertyOp50
 70
     1
102
RTVSPropertyOp51
 70
     0
102
RTVSPropertyOp52
 70
     0
102
RTVSPropertyOp53
 70
     1
102
RTVSPropertyOp54
 70
     1
102
RTVSPropertyOp55
 70
     1
102
RTVSPropertyOp56
 70
     1
102
RTVSPropertyOp57
 70
     1
102
RTVSPropertyOp58
 70
     1
102
RTVSPropertyOp59
 70
     1
102
RTVSPropertyOp60
 70
     1
102
RTVSPropertyOp61
 70
     1
102
RTVSPropertyOp62
 70
     1
  0
XRECORD
  5
36A
102
{ACAD_REACTORS
330
369
102
}
330
369
100
AcDbXrecord
280
     1
102
RTVSPost2010Prop28
280
     0
102
RTVSPost2010PropOp28
 70
     1
102
RTVSPost2010Prop29
280
     1
102
RTVSPost2010PropOp29
 70
     1
102
RTVSPost2010Prop30
280
     1
102
RTVSPost2010PropOp30
 70
     1
102
RTVSPost2010Prop31
280
     0
102
RTVSPost2010PropOp31
 70
     1
102
RTVSPost2010Prop32
280
     0
102
RTVSPost2010PropOp32
 70
     1
102
RTVSPost2010Prop33
280
     0
102
RTVSPost2010PropOp33
 70
     1
102
RTVSPost2010Prop34
280
     0
102
RTVSPost2010PropOp34
 70
     1
102
RTVSPost2010Prop35
280
     0
102
RTVSPost2010PropOp35
 70
     1
102
RTVSPost2010Prop36
280
     0
102
RTVSPost2010PropOp36
 70
     1
102
RTVSPost2010Prop37
 90
       50
102
RTVSPost2010PropOp37
 70
     1
102
RTVSPost2010Prop38
140
0.0
102
RTVSPost2010PropOp38
 70
     1
102
RTVSPost2010Prop39
140
1.0
102
RTVSPost2010PropOp39
 70
     1
102
RTVSPost2010Prop40
 90
        0
102
RTVSPost2010PropOp40
 70
     1
102
RTVSPost2010Prop41ColorIndex
 90
       18
102
RTVSPost2010Prop41ColorRGB
 90
        0
102
RTVSPost2010PropOp41
 70
     1
102
RTVSPost2010Prop42
 90
       50
102
RTVSPost2010PropOp42
 70
     1
102
RTVSPost2010Prop43
 90
        3
102
RTVSPost2010PropOp43
 70
     1
102
RTVSPost2010Prop44ColorIndex
 90
        5
102
RTVSPost2010Prop44ColorRGB
 90
      255
102
RTVSPost2010PropOp44
 70
     1
102
RTVSPost2010Prop45
280
     0
102
RTVSPost2010PropOp45
 70
     1
102
RTVSPost2010Prop46
 90
       50
102
RTVSPost2010PropOp46
 70
     1
102
RTVSPost2010Prop47
 90
       50
102
RTVSPost2010PropOp47
 70
     1
102
RTVSPost2010Prop48
 90
       50
102
RTVSPost2010PropOp48
 70
     1
102
RTVSPost2010Prop49
280
     0
102
RTVSPost2010PropOp49
 70
     1
102
RTVSPost2010Prop50
 90
       50
102
RTVSPost2010PropOp50
 70
     1
102
RTVSPost2010Prop51ColorIndex
 90
      256
102
RTVSPost2010Prop51ColorRGB
 90
-16777216
102
RTVSPost2010PropOp51
 70
     0
102
RTVSPost2010Prop52
140
1.0
102
RTVSPost2010PropOp52
 70
     0
102
RTVSPost2010Prop53
 90
        2
102
RTVSPost2010PropOp53
 70
     1
102
RTVSPost2010Prop54
  1
strokes_ogs.tif
102
RTVSPost2010PropOp54
 70
     1
102
RTVSPost2010Prop55
280
     0
102
RTVSPost2010PropOp55
 70
     1
102
RTVSPost2010Prop56
140
1.0
102
RTVSPost2010PropOp56
 70
     1
102
RTVSPost2010Prop57
140
1.0
102
RTVSPost2010PropOp57
 70
     1
102
RTVSPropertyOp0
 70
     1
102
RTVSPropertyOp1
 70
     1
102
RTVSPropertyOp2
 70
     1
102
RTVSPropertyOp3
 70
     1
102
RTVSPropertyOp4
 70
     1
102
RTVSPropertyOp5
 70
     1
102
RTVSPropertyOp6
 70
     1
102
RTVSPropertyOp7
 70
     1
102
RTVSPropertyOp8
 70
     1
102
RTVSPropertyOp9
 70
     1
102
RTVSPropertyOp10
 70
     1
102
RTVSPropertyOp11
 70
     1
102
RTVSPropertyOp12
 70
     1
102
RTVSPropertyOp13
 70
     1
102
RTVSPropertyOp14
 70
     1
102
RTVSPropertyOp15
 70
     1
102
RTVSPropertyOp16
 70
     1
102
RTVSPropertyOp17
 70
     1
102
RTVSPropertyOp18
 70
     1
102
RTVSPropertyOp19
 70
     1
102
RTVSPropertyOp20
 70
     1
102
RTVSPropertyOp21
 70
     1
102
RTVSPropertyOp22
 70
     1
102
RTVSPropertyOp23
 70
     1
102
RTVSPropertyOp24
 70
     1
102
RTVSPropertyOp25
 70
     1
102
RTVSPropertyOp26
 70
     1
102
RTVSPropertyOp27
 70
     1
102
RTVSPropertyOp28
 70
     1
102
RTVSPropertyOp29
 70
     1
102
RTVSPropertyOp30
 70
     1
102
RTVSPropertyOp31
 70
     1
102
RTVSPropertyOp32
 70
     1
102
RTVSPropertyOp33
 70
     1
102
RTVSPropertyOp34
 70
     1
102
RTVSPropertyOp35
 70
     1
102
RTVSPropertyOp36
 70
     1
102
RTVSPropertyOp37
 70
     1
102
RTVSPropertyOp38
 70
     1
102
RTVSPropertyOp39
 70
     1
102
RTVSPropertyOp40
 70
     1
102
RTVSPropertyOp41
 70
     1
102
RTVSPropertyOp42
 70
     1
102
RTVSPropertyOp43
 70
     1
102
RTVSPropertyOp44
 70
     1
102
RTVSPropertyOp45
 70
     1
102
RTVSPropertyOp46
 70
     1
102
RTVSPropertyOp47
 70
     1
102
RTVSPropertyOp48
 70
     1
102
RTVSPropertyOp49
 70
     1
102
RTVSPropertyOp50
 70
     1
102
RTVSPropertyOp51
 70
     0
102
RTVSPropertyOp52
 70
     0
102
RTVSPropertyOp53
 70
     1
102
RTVSPropertyOp54
 70
     1
102
RTVSPropertyOp55
 70
     1
102
RTVSPropertyOp56
 70
     1
102
RTVSPropertyOp57
 70
     1
102
RTVSPropertyOp58
 70
     1
102
RTVSPropertyOp59
 70
     1
102
RTVSPropertyOp60
 70
     1
102
RTVSPropertyOp61
 70
     1
102
RTVSPropertyOp62
 70
     1
  0
XRECORD
  5
372
102
{ACAD_REACTORS
330
371
102
}
330
371
100
AcDbXrecord
280
     1
102
RTVSPost2010Prop28
280
     0
102
RTVSPost2010PropOp28
 70
     1
102
RTVSPost2010Prop29
280
     1
102
RTVSPost2010PropOp29
 70
     1
102
RTVSPost2010Prop30
280
     1
102
RTVSPost2010PropOp30
 70
     1
102
RTVSPost2010Prop31
280
     0
102
RTVSPost2010PropOp31
 70
     1
102
RTVSPost2010Prop32
280
     0
102
RTVSPost2010PropOp32
 70
     1
102
RTVSPost2010Prop33
280
     0
102
RTVSPost2010PropOp33
 70
     1
102
RTVSPost2010Prop34
280
     0
102
RTVSPost2010PropOp34
 70
     1
102
RTVSPost2010Prop35
280
     0
102
RTVSPost2010PropOp35
 70
     1
102
RTVSPost2010Prop36
280
     0
102
RTVSPost2010PropOp36
 70
     1
102
RTVSPost2010Prop37
 90
       50
102
RTVSPost2010PropOp37
 70
     1
102
RTVSPost2010Prop38
140
0.0
102
RTVSPost2010PropOp38
 70
     1
102
RTVSPost2010Prop39
140
1.0
102
RTVSPost2010PropOp39
 70
     1
102
RTVSPost2010Prop40
 90
        0
102
RTVSPost2010PropOp40
 70
     1
102
RTVSPost2010Prop41ColorIndex
 90
       18
102
RTVSPost2010Prop41ColorRGB
 90
        0
102
RTVSPost2010PropOp41
 70
     1
102
RTVSPost2010Prop42
 90
       50
102
RTVSPost2010PropOp42
 70
     1
102
RTVSPost2010Prop43
 90
        3
102
RTVSPost2010PropOp43
 70
     1
102
RTVSPost2010Prop44ColorIndex
 90
        5
102
RTVSPost2010Prop44ColorRGB
 90
      255
102
RTVSPost2010PropOp44
 70
     1
102
RTVSPost2010Prop45
280
     0
102
RTVSPost2010PropOp45
 70
     1
102
RTVSPost2010Prop46
 90
       50
102
RTVSPost2010PropOp46
 70
     1
102
RTVSPost2010Prop47
 90
       50
102
RTVSPost2010PropOp47
 70
     1
102
RTVSPost2010Prop48
 90
       50
102
RTVSPost2010PropOp48
 70
     1
102
RTVSPost2010Prop49
280
     0
102
RTVSPost2010PropOp49
 70
     1
102
RTVSPost2010Prop50
 90
       50
102
RTVSPost2010PropOp50
 70
     1
102
RTVSPost2010Prop51ColorIndex
 90
      256
102
RTVSPost2010Prop51ColorRGB
 90
-16777216
102
RTVSPost2010PropOp51
 70
     0
102
RTVSPost2010Prop52
140
1.0
102
RTVSPost2010PropOp52
 70
     0
102
RTVSPost2010Prop53
 90
        2
102
RTVSPost2010PropOp53
 70
     1
102
RTVSPost2010Prop54
  1
strokes_ogs.tif
102
RTVSPost2010PropOp54
 70
     1
102
RTVSPost2010Prop55
280
     0
102
RTVSPost2010PropOp55
 70
     1
102
RTVSPost2010Prop56
140
1.0
102
RTVSPost2010PropOp56
 70
     1
102
RTVSPost2010Prop57
140
1.0
102
RTVSPost2010PropOp57
 70
     1
102
RTVSPropertyOp0
 70
     1
102
RTVSPropertyOp1
 70
     1
102
RTVSPropertyOp2
 70
     1
102
RTVSPropertyOp3
 70
     1
102
RTVSPropertyOp4
 70
     1
102
RTVSPropertyOp5
 70
     1
102
RTVSPropertyOp6
 70
     1
102
RTVSPropertyOp7
 70
     1
102
RTVSPropertyOp8
 70
     1
102
RTVSPropertyOp9
 70
     1
102
RTVSPropertyOp10
 70
     1
102
RTVSPropertyOp11
 70
     1
102
RTVSPropertyOp12
 70
     1
102
RTVSPropertyOp13
 70
     1
102
RTVSPropertyOp14
 70
     1
102
RTVSPropertyOp15
 70
     1
102
RTVSPropertyOp16
 70
     1
102
RTVSPropertyOp17
 70
     1
102
RTVSPropertyOp18
 70
     1
102
RTVSPropertyOp19
 70
     1
102
RTVSPropertyOp20
 70
     1
102
RTVSPropertyOp21
 70
     1
102
RTVSPropertyOp22
 70
     1
102
RTVSPropertyOp23
 70
     1
102
RTVSPropertyOp24
 70
     1
102
RTVSPropertyOp25
 70
     1
102
RTVSPropertyOp26
 70
     1
102
RTVSPropertyOp27
 70
     1
102
RTVSPropertyOp28
 70
     1
102
RTVSPropertyOp29
 70
     1
102
RTVSPropertyOp30
 70
     1
102
RTVSPropertyOp31
 70
     1
102
RTVSPropertyOp32
 70
     1
102
RTVSPropertyOp33
 70
     1
102
RTVSPropertyOp34
 70
     1
102
RTVSPropertyOp35
 70
     1
102
RTVSPropertyOp36
 70
     1
102
RTVSPropertyOp37
 70
     1
102
RTVSPropertyOp38
 70
     1
102
RTVSPropertyOp39
 70
     1
102
RTVSPropertyOp40
 70
     1
102
RTVSPropertyOp41
 70
     1
102
RTVSPropertyOp42
 70
     1
102
RTVSPropertyOp43
 70
     1
102
RTVSPropertyOp44
 70
     1
102
RTVSPropertyOp45
 70
     1
102
RTVSPropertyOp46
 70
     1
102
RTVSPropertyOp47
 70
     1
102
RTVSPropertyOp48
 70
     1
102
RTVSPropertyOp49
 70
     1
102
RTVSPropertyOp50
 70
     1
102
RTVSPropertyOp51
 70
     0
102
RTVSPropertyOp52
 70
     0
102
RTVSPropertyOp53
 70
     1
102
RTVSPropertyOp54
 70
     1
102
RTVSPropertyOp55
 70
     1
102
RTVSPropertyOp56
 70
     1
102
RTVSPropertyOp57
 70
     1
102
RTVSPropertyOp58
 70
     1
102
RTVSPropertyOp59
 70
     1
102
RTVSPropertyOp60
 70
     1
102
RTVSPropertyOp61
 70
     1
102
RTVSPropertyOp62
 70
     1
  0
XRECORD
  5
38E
102
{ACAD_REACTORS
330
38D
102
}
330
38D
100
AcDbXrecord
280
     1
102
RTVSPost2010Prop28
280
     0
102
RTVSPost2010PropOp28
 70
     1
102
RTVSPost2010Prop29
280
     1
102
RTVSPost2010PropOp29
 70
     1
102
RTVSPost2010Prop30
280
     1
102
RTVSPost2010PropOp30
 70
     1
102
RTVSPost2010Prop31
280
     0
102
RTVSPost2010PropOp31
 70
     1
102
RTVSPost2010Prop32
280
     0
102
RTVSPost2010PropOp32
 70
     1
102
RTVSPost2010Prop33
280
     0
102
RTVSPost2010PropOp33
 70
     1
102
RTVSPost2010Prop34
280
     0
102
RTVSPost2010PropOp34
 70
     1
102
RTVSPost2010Prop35
280
     0
102
RTVSPost2010PropOp35
 70
     1
102
RTVSPost2010Prop36
280
     0
102
RTVSPost2010PropOp36
 70
     1
102
RTVSPost2010Prop37
 90
       50
102
RTVSPost2010PropOp37
 70
     0
102
RTVSPost2010Prop38
140
0.0
102
RTVSPost2010PropOp38
 70
     0
102
RTVSPost2010Prop39
140
1.0
102
RTVSPost2010PropOp39
 70
     0
102
RTVSPost2010Prop40
 90
        0
102
RTVSPost2010PropOp40
 70
     0
102
RTVSPost2010Prop41ColorIndex
 90
       18
102
RTVSPost2010Prop41ColorRGB
 90
        0
102
RTVSPost2010PropOp41
 70
     0
102
RTVSPost2010Prop42
 90
       50
102
RTVSPost2010PropOp42
 70
     0
102
RTVSPost2010Prop43
 90
        3
102
RTVSPost2010PropOp43
 70
     0
102
RTVSPost2010Prop44ColorIndex
 90
        5
102
RTVSPost2010Prop44ColorRGB
 90
      255
102
RTVSPost2010PropOp44
 70
     0
102
RTVSPost2010Prop45
280
     0
102
RTVSPost2010PropOp45
 70
     1
102
RTVSPost2010Prop46
 90
       50
102
RTVSPost2010PropOp46
 70
     0
102
RTVSPost2010Prop47
 90
       50
102
RTVSPost2010PropOp47
 70
     0
102
RTVSPost2010Prop48
 90
       50
102
RTVSPost2010PropOp48
 70
     0
102
RTVSPost2010Prop49
280
     0
102
RTVSPost2010PropOp49
 70
     1
102
RTVSPost2010Prop50
 90
       50
102
RTVSPost2010PropOp50
 70
     0
102
RTVSPost2010Prop51ColorIndex
 90
      256
102
RTVSPost2010Prop51ColorRGB
 90
-16777216
102
RTVSPost2010PropOp51
 70
     0
102
RTVSPost2010Prop52
140
1.0
102
RTVSPost2010PropOp52
 70
     0
102
RTVSPost2010Prop53
 90
        2
102
RTVSPost2010PropOp53
 70
     0
102
RTVSPost2010Prop54
  1
strokes_ogs.tif
102
RTVSPost2010PropOp54
 70
     0
102
RTVSPost2010Prop55
280
     0
102
RTVSPost2010PropOp55
 70
     1
102
RTVSPost2010Prop56
140
1.0
102
RTVSPost2010PropOp56
 70
     0
102
RTVSPost2010Prop57
140
1.0
102
RTVSPost2010PropOp57
 70
     0
102
RTVSPropertyOp0
 70
     0
102
RTVSPropertyOp1
 70
     0
102
RTVSPropertyOp2
 70
     0
102
RTVSPropertyOp3
 70
     0
102
RTVSPropertyOp4
 70
     0
102
RTVSPropertyOp5
 70
     0
102
RTVSPropertyOp6
 70
     0
102
RTVSPropertyOp7
 70
     0
102
RTVSPropertyOp8
 70
     0
102
RTVSPropertyOp9
 70
     0
102
RTVSPropertyOp10
 70
     0
102
RTVSPropertyOp11
 70
     0
102
RTVSPropertyOp12
 70
     0
102
RTVSPropertyOp13
 70
     0
102
RTVSPropertyOp14
 70
     2
102
RTVSPropertyOp15
 70
     0
102
RTVSPropertyOp16
 70
     0
102
RTVSPropertyOp17
 70
     0
102
RTVSPropertyOp18
 70
     0
102
RTVSPropertyOp19
 70
     0
102
RTVSPropertyOp20
 70
     0
102
RTVSPropertyOp21
 70
     0
102
RTVSPropertyOp22
 70
     0
102
RTVSPropertyOp23
 70
     0
102
RTVSPropertyOp24
 70
     0
102
RTVSPropertyOp25
 70
     0
102
RTVSPropertyOp26
 70
     0
102
RTVSPropertyOp27
 70
     0
102
RTVSPropertyOp28
 70
     1
102
RTVSPropertyOp29
 70
     1
102
RTVSPropertyOp30
 70
     1
102
RTVSPropertyOp31
 70
     1
102
RTVSPropertyOp32
 70
     1
102
RTVSPropertyOp33
 70
     1
102
RTVSPropertyOp34
 70
     1
102
RTVSPropertyOp35
 70
     1
102
RTVSPropertyOp36
 70
     1
102
RTVSPropertyOp37
 70
     0
102
RTVSPropertyOp38
 70
     0
102
RTVSPropertyOp39
 70
     0
102
RTVSPropertyOp40
 70
     0
102
RTVSPropertyOp41
 70
     0
102
RTVSPropertyOp42
 70
     0
102
RTVSPropertyOp43
 70
     0
102
RTVSPropertyOp44
 70
     0
102
RTVSPropertyOp45
 70
     1
102
RTVSPropertyOp46
 70
     0
102
RTVSPropertyOp47
 70
     0
102
RTVSPropertyOp48
 70
     0
102
RTVSPropertyOp49
 70
     1
102
RTVSPropertyOp50
 70
     0
102
RTVSPropertyOp51
 70
     0
102
RTVSPropertyOp52
 70
     0
102
RTVSPropertyOp53
 70
     0
102
RTVSPropertyOp54
 70
     0
102
RTVSPropertyOp55
 70
     1
102
RTVSPropertyOp56
 70
     0
102
RTVSPropertyOp57
 70
     0
102
RTVSPropertyOp58
 70
     0
102
RTVSPropertyOp59
 70
     0
102
RTVSPropertyOp60
 70
     0
102
RTVSPropertyOp61
 70
     0
102
RTVSPropertyOp62
 70
     0
  0
XRECORD
  5
37E
102
{ACAD_REACTORS
330
37D
102
}
330
37D
100
AcDbXrecord
280
     1
102
RTVSPost2010Prop28
280
     0
102
RTVSPost2010PropOp28
 70
     1
102
RTVSPost2010Prop29
280
     1
102
RTVSPost2010PropOp29
 70
     1
102
RTVSPost2010Prop30
280
     1
102
RTVSPost2010PropOp30
 70
     1
102
RTVSPost2010Prop31
280
     0
102
RTVSPost2010PropOp31
 70
     1
102
RTVSPost2010Prop32
280
     0
102
RTVSPost2010PropOp32
 70
     1
102
RTVSPost2010Prop33
280
     0
102
RTVSPost2010PropOp33
 70
     1
102
RTVSPost2010Prop34
280
     0
102
RTVSPost2010PropOp34
 70
     1
102
RTVSPost2010Prop35
280
     0
102
RTVSPost2010PropOp35
 70
     1
102
RTVSPost2010Prop36
280
     0
102
RTVSPost2010PropOp36
 70
     1
102
RTVSPost2010Prop37
 90
       50
102
RTVSPost2010PropOp37
 70
     1
102
RTVSPost2010Prop38
140
0.0
102
RTVSPost2010PropOp38
 70
     1
102
RTVSPost2010Prop39
140
1.0
102
RTVSPost2010PropOp39
 70
     1
102
RTVSPost2010Prop40
 90
        0
102
RTVSPost2010PropOp40
 70
     1
102
RTVSPost2010Prop41ColorIndex
 90
       18
102
RTVSPost2010Prop41ColorRGB
 90
        0
102
RTVSPost2010PropOp41
 70
     1
102
RTVSPost2010Prop42
 90
       50
102
RTVSPost2010PropOp42
 70
     1
102
RTVSPost2010Prop43
 90
        3
102
RTVSPost2010PropOp43
 70
     1
102
RTVSPost2010Prop44ColorIndex
 90
        5
102
RTVSPost2010Prop44ColorRGB
 90
      255
102
RTVSPost2010PropOp44
 70
     1
102
RTVSPost2010Prop45
280
     0
102
RTVSPost2010PropOp45
 70
     1
102
RTVSPost2010Prop46
 90
       50
102
RTVSPost2010PropOp46
 70
     1
102
RTVSPost2010Prop47
 90
       50
102
RTVSPost2010PropOp47
 70
     1
102
RTVSPost2010Prop48
 90
       50
102
RTVSPost2010PropOp48
 70
     1
102
RTVSPost2010Prop49
280
     0
102
RTVSPost2010PropOp49
 70
     1
102
RTVSPost2010Prop50
 90
       50
102
RTVSPost2010PropOp50
 70
     1
102
RTVSPost2010Prop51ColorIndex
 90
      256
102
RTVSPost2010Prop51ColorRGB
 90
-16777216
102
RTVSPost2010PropOp51
 70
     0
102
RTVSPost2010Prop52
140
1.0
102
RTVSPost2010PropOp52
 70
     0
102
RTVSPost2010Prop53
 90
        2
102
RTVSPost2010PropOp53
 70
     1
102
RTVSPost2010Prop54
  1
strokes_ogs.tif
102
RTVSPost2010PropOp54
 70
     1
102
RTVSPost2010Prop55
280
     0
102
RTVSPost2010PropOp55
 70
     1
102
RTVSPost2010Prop56
140
1.0
102
RTVSPost2010PropOp56
 70
     1
102
RTVSPost2010Prop57
140
1.0
102
RTVSPost2010PropOp57
 70
     1
102
RTVSPropertyOp0
 70
     1
102
RTVSPropertyOp1
 70
     1
102
RTVSPropertyOp2
 70
     1
102
RTVSPropertyOp3
 70
     1
102
RTVSPropertyOp4
 70
     1
102
RTVSPropertyOp5
 70
     1
102
RTVSPropertyOp6
 70
     1
102
RTVSPropertyOp7
 70
     1
102
RTVSPropertyOp8
 70
     1
102
RTVSPropertyOp9
 70
     1
102
RTVSPropertyOp10
 70
     1
102
RTVSPropertyOp11
 70
     1
102
RTVSPropertyOp12
 70
     1
102
RTVSPropertyOp13
 70
     1
102
RTVSPropertyOp14
 70
     1
102
RTVSPropertyOp15
 70
     1
102
RTVSPropertyOp16
 70
     1
102
RTVSPropertyOp17
 70
     1
102
RTVSPropertyOp18
 70
     1
102
RTVSPropertyOp19
 70
     1
102
RTVSPropertyOp20
 70
     1
102
RTVSPropertyOp21
 70
     1
102
RTVSPropertyOp22
 70
     1
102
RTVSPropertyOp23
 70
     1
102
RTVSPropertyOp24
 70
     1
102
RTVSPropertyOp25
 70
     1
102
RTVSPropertyOp26
 70
     1
102
RTVSPropertyOp27
 70
     1
102
RTVSPropertyOp28
 70
     1
102
RTVSPropertyOp29
 70
     1
102
RTVSPropertyOp30
 70
     1
102
RTVSPropertyOp31
 70
     1
102
RTVSPropertyOp32
 70
     1
102
RTVSPropertyOp33
 70
     1
102
RTVSPropertyOp34
 70
     1
102
RTVSPropertyOp35
 70
     1
102
RTVSPropertyOp36
 70
     1
102
RTVSPropertyOp37
 70
     1
102
RTVSPropertyOp38
 70
     1
102
RTVSPropertyOp39
 70
     1
102
RTVSPropertyOp40
 70
     1
102
RTVSPropertyOp41
 70
     1
102
RTVSPropertyOp42
 70
     1
102
RTVSPropertyOp43
 70
     1
102
RTVSPropertyOp44
 70
     1
102
RTVSPropertyOp45
 70
     1
102
RTVSPropertyOp46
 70
     1
102
RTVSPropertyOp47
 70
     1
102
RTVSPropertyOp48
 70
     1
102
RTVSPropertyOp49
 70
     1
102
RTVSPropertyOp50
 70
     1
102
RTVSPropertyOp51
 70
     0
102
RTVSPropertyOp52
 70
     0
102
RTVSPropertyOp53
 70
     1
102
RTVSPropertyOp54
 70
     1
102
RTVSPropertyOp55
 70
     1
102
RTVSPropertyOp56
 70
     1
102
RTVSPropertyOp57
 70
     1
102
RTVSPropertyOp58
 70
     1
102
RTVSPropertyOp59
 70
     1
102
RTVSPropertyOp60
 70
     1
102
RTVSPropertyOp61
 70
     1
102
RTVSPropertyOp62
 70
     1
  0
XRECORD
  5
390
102
{ACAD_REACTORS
330
38F
102
}
330
38F
100
AcDbXrecord
280
     1
102
RTVSPost2010Prop28
280
     0
102
RTVSPost2010PropOp28
 70
     1
102
RTVSPost2010Prop29
280
     1
102
RTVSPost2010PropOp29
 70
     1
102
RTVSPost2010Prop30
280
     1
102
RTVSPost2010PropOp30
 70
     1
102
RTVSPost2010Prop31
280
     0
102
RTVSPost2010PropOp31
 70
     1
102
RTVSPost2010Prop32
280
     0
102
RTVSPost2010PropOp32
 70
     1
102
RTVSPost2010Prop33
280
     0
102
RTVSPost2010PropOp33
 70
     1
102
RTVSPost2010Prop34
280
     0
102
RTVSPost2010PropOp34
 70
     1
102
RTVSPost2010Prop35
280
     0
102
RTVSPost2010PropOp35
 70
     1
102
RTVSPost2010Prop36
280
     0
102
RTVSPost2010PropOp36
 70
     1
102
RTVSPost2010Prop37
 90
       50
102
RTVSPost2010PropOp37
 70
     0
102
RTVSPost2010Prop38
140
0.0
102
RTVSPost2010PropOp38
 70
     0
102
RTVSPost2010Prop39
140
1.0
102
RTVSPost2010PropOp39
 70
     0
102
RTVSPost2010Prop40
 90
        0
102
RTVSPost2010PropOp40
 70
     0
102
RTVSPost2010Prop41ColorIndex
 90
       18
102
RTVSPost2010Prop41ColorRGB
 90
        0
102
RTVSPost2010PropOp41
 70
     0
102
RTVSPost2010Prop42
 90
       50
102
RTVSPost2010PropOp42
 70
     0
102
RTVSPost2010Prop43
 90
        3
102
RTVSPost2010PropOp43
 70
     0
102
RTVSPost2010Prop44ColorIndex
 90
        5
102
RTVSPost2010Prop44ColorRGB
 90
      255
102
RTVSPost2010PropOp44
 70
     0
102
RTVSPost2010Prop45
280
     0
102
RTVSPost2010PropOp45
 70
     1
102
RTVSPost2010Prop46
 90
       50
102
RTVSPost2010PropOp46
 70
     0
102
RTVSPost2010Prop47
 90
       50
102
RTVSPost2010PropOp47
 70
     0
102
RTVSPost2010Prop48
 90
       50
102
RTVSPost2010PropOp48
 70
     0
102
RTVSPost2010Prop49
280
     0
102
RTVSPost2010PropOp49
 70
     1
102
RTVSPost2010Prop50
 90
       50
102
RTVSPost2010PropOp50
 70
     0
102
RTVSPost2010Prop51ColorIndex
 90
      256
102
RTVSPost2010Prop51ColorRGB
 90
-16777216
102
RTVSPost2010PropOp51
 70
     0
102
RTVSPost2010Prop52
140
1.0
102
RTVSPost2010PropOp52
 70
     0
102
RTVSPost2010Prop53
 90
        2
102
RTVSPost2010PropOp53
 70
     0
102
RTVSPost2010Prop54
  1
strokes_ogs.tif
102
RTVSPost2010PropOp54
 70
     0
102
RTVSPost2010Prop55
280
     0
102
RTVSPost2010PropOp55
 70
     1
102
RTVSPost2010Prop56
140
1.0
102
RTVSPost2010PropOp56
 70
     0
102
RTVSPost2010Prop57
140
1.0
102
RTVSPost2010PropOp57
 70
     0
102
RTVSPropertyOp0
 70
     0
102
RTVSPropertyOp1
 70
     0
102
RTVSPropertyOp2
 70
     0
102
RTVSPropertyOp3
 70
     0
102
RTVSPropertyOp4
 70
     0
102
RTVSPropertyOp5
 70
     0
102
RTVSPropertyOp6
 70
     0
102
RTVSPropertyOp7
 70
     0
102
RTVSPropertyOp8
 70
     0
102
RTVSPropertyOp9
 70
     0
102
RTVSPropertyOp10
 70
     0
102
RTVSPropertyOp11
 70
     0
102
RTVSPropertyOp12
 70
     0
102
RTVSPropertyOp13
 70
     0
102
RTVSPropertyOp14
 70
     2
102
RTVSPropertyOp15
 70
     0
102
RTVSPropertyOp16
 70
     0
102
RTVSPropertyOp17
 70
     0
102
RTVSPropertyOp18
 70
     0
102
RTVSPropertyOp19
 70
     0
102
RTVSPropertyOp20
 70
     0
102
RTVSPropertyOp21
 70
     0
102
RTVSPropertyOp22
 70
     0
102
RTVSPropertyOp23
 70
     0
102
RTVSPropertyOp24
 70
     0
102
RTVSPropertyOp25
 70
     0
102
RTVSPropertyOp26
 70
     0
102
RTVSPropertyOp27
 70
     0
102
RTVSPropertyOp28
 70
     1
102
RTVSPropertyOp29
 70
     1
102
RTVSPropertyOp30
 70
     1
102
RTVSPropertyOp31
 70
     1
102
RTVSPropertyOp32
 70
     1
102
RTVSPropertyOp33
 70
     1
102
RTVSPropertyOp34
 70
     1
102
RTVSPropertyOp35
 70
     1
102
RTVSPropertyOp36
 70
     1
102
RTVSPropertyOp37
 70
     0
102
RTVSPropertyOp38
 70
     0
102
RTVSPropertyOp39
 70
     0
102
RTVSPropertyOp40
 70
     0
102
RTVSPropertyOp41
 70
     0
102
RTVSPropertyOp42
 70
     0
102
RTVSPropertyOp43
 70
     0
102
RTVSPropertyOp44
 70
     0
102
RTVSPropertyOp45
 70
     1
102
RTVSPropertyOp46
 70
     0
102
RTVSPropertyOp47
 70
     0
102
RTVSPropertyOp48
 70
     0
102
RTVSPropertyOp49
 70
     1
102
RTVSPropertyOp50
 70
     0
102
RTVSPropertyOp51
 70
     0
102
RTVSPropertyOp52
 70
     0
102
RTVSPropertyOp53
 70
     0
102
RTVSPropertyOp54
 70
     0
102
RTVSPropertyOp55
 70
     1
102
RTVSPropertyOp56
 70
     0
102
RTVSPropertyOp57
 70
     0
102
RTVSPropertyOp58
 70
     0
102
RTVSPropertyOp59
 70
     0
102
RTVSPropertyOp60
 70
     0
102
RTVSPropertyOp61
 70
     0
102
RTVSPropertyOp62
 70
     0
  0
XRECORD
  5
376
102
{ACAD_REACTORS
330
375
102
}
330
375
100
AcDbXrecord
280
     1
102
RTVSPost2010Prop28
280
     0
102
RTVSPost2010PropOp28
 70
     1
102
RTVSPost2010Prop29
280
     1
102
RTVSPost2010PropOp29
 70
     1
102
RTVSPost2010Prop30
280
     1
102
RTVSPost2010PropOp30
 70
     1
102
RTVSPost2010Prop31
280
     0
102
RTVSPost2010PropOp31
 70
     1
102
RTVSPost2010Prop32
280
     0
102
RTVSPost2010PropOp32
 70
     1
102
RTVSPost2010Prop33
280
     0
102
RTVSPost2010PropOp33
 70
     1
102
RTVSPost2010Prop34
280
     0
102
RTVSPost2010PropOp34
 70
     1
102
RTVSPost2010Prop35
280
     0
102
RTVSPost2010PropOp35
 70
     1
102
RTVSPost2010Prop36
280
     0
102
RTVSPost2010PropOp36
 70
     1
102
RTVSPost2010Prop37
 90
       50
102
RTVSPost2010PropOp37
 70
     1
102
RTVSPost2010Prop38
140
0.0
102
RTVSPost2010PropOp38
 70
     1
102
RTVSPost2010Prop39
140
1.0
102
RTVSPost2010PropOp39
 70
     1
102
RTVSPost2010Prop40
 90
        0
102
RTVSPost2010PropOp40
 70
     1
102
RTVSPost2010Prop41ColorIndex
 90
       18
102
RTVSPost2010Prop41ColorRGB
 90
        0
102
RTVSPost2010PropOp41
 70
     1
102
RTVSPost2010Prop42
 90
       50
102
RTVSPost2010PropOp42
 70
     1
102
RTVSPost2010Prop43
 90
        3
102
RTVSPost2010PropOp43
 70
     1
102
RTVSPost2010Prop44ColorIndex
 90
        5
102
RTVSPost2010Prop44ColorRGB
 90
      255
102
RTVSPost2010PropOp44
 70
     1
102
RTVSPost2010Prop45
280
     0
102
RTVSPost2010PropOp45
 70
     1
102
RTVSPost2010Prop46
 90
       50
102
RTVSPost2010PropOp46
 70
     1
102
RTVSPost2010Prop47
 90
       50
102
RTVSPost2010PropOp47
 70
     1
102
RTVSPost2010Prop48
 90
       50
102
RTVSPost2010PropOp48
 70
     1
102
RTVSPost2010Prop49
280
     0
102
RTVSPost2010PropOp49
 70
     1
102
RTVSPost2010Prop50
 90
       50
102
RTVSPost2010PropOp50
 70
     1
102
RTVSPost2010Prop51ColorIndex
 90
      256
102
RTVSPost2010Prop51ColorRGB
 90
-16777216
102
RTVSPost2010PropOp51
 70
     0
102
RTVSPost2010Prop52
140
1.0
102
RTVSPost2010PropOp52
 70
     0
102
RTVSPost2010Prop53
 90
        2
102
RTVSPost2010PropOp53
 70
     1
102
RTVSPost2010Prop54
  1
strokes_ogs.tif
102
RTVSPost2010PropOp54
 70
     1
102
RTVSPost2010Prop55
280
     0
102
RTVSPost2010PropOp55
 70
     1
102
RTVSPost2010Prop56
140
1.0
102
RTVSPost2010PropOp56
 70
     1
102
RTVSPost2010Prop57
140
1.0
102
RTVSPost2010PropOp57
 70
     1
102
RTVSPropertyOp0
 70
     1
102
RTVSPropertyOp1
 70
     1
102
RTVSPropertyOp2
 70
     1
102
RTVSPropertyOp3
 70
     1
102
RTVSPropertyOp4
 70
     1
102
RTVSPropertyOp5
 70
     1
102
RTVSPropertyOp6
 70
     1
102
RTVSPropertyOp7
 70
     1
102
RTVSPropertyOp8
 70
     1
102
RTVSPropertyOp9
 70
     1
102
RTVSPropertyOp10
 70
     1
102
RTVSPropertyOp11
 70
     1
102
RTVSPropertyOp12
 70
     1
102
RTVSPropertyOp13
 70
     1
102
RTVSPropertyOp14
 70
     1
102
RTVSPropertyOp15
 70
     1
102
RTVSPropertyOp16
 70
     1
102
RTVSPropertyOp17
 70
     1
102
RTVSPropertyOp18
 70
     1
102
RTVSPropertyOp19
 70
     1
102
RTVSPropertyOp20
 70
     1
102
RTVSPropertyOp21
 70
     1
102
RTVSPropertyOp22
 70
     1
102
RTVSPropertyOp23
 70
     1
102
RTVSPropertyOp24
 70
     1
102
RTVSPropertyOp25
 70
     1
102
RTVSPropertyOp26
 70
     1
102
RTVSPropertyOp27
 70
     1
102
RTVSPropertyOp28
 70
     1
102
RTVSPropertyOp29
 70
     1
102
RTVSPropertyOp30
 70
     1
102
RTVSPropertyOp31
 70
     1
102
RTVSPropertyOp32
 70
     1
102
RTVSPropertyOp33
 70
     1
102
RTVSPropertyOp34
 70
     1
102
RTVSPropertyOp35
 70
     1
102
RTVSPropertyOp36
 70
     1
102
RTVSPropertyOp37
 70
     1
102
RTVSPropertyOp38
 70
     1
102
RTVSPropertyOp39
 70
     1
102
RTVSPropertyOp40
 70
     1
102
RTVSPropertyOp41
 70
     1
102
RTVSPropertyOp42
 70
     1
102
RTVSPropertyOp43
 70
     1
102
RTVSPropertyOp44
 70
     1
102
RTVSPropertyOp45
 70
     1
102
RTVSPropertyOp46
 70
     1
102
RTVSPropertyOp47
 70
     1
102
RTVSPropertyOp48
 70
     1
102
RTVSPropertyOp49
 70
     1
102
RTVSPropertyOp50
 70
     1
102
RTVSPropertyOp51
 70
     0
102
RTVSPropertyOp52
 70
     0
102
RTVSPropertyOp53
 70
     1
102
RTVSPropertyOp54
 70
     1
102
RTVSPropertyOp55
 70
     1
102
RTVSPropertyOp56
 70
     1
102
RTVSPropertyOp57
 70
     1
102
RTVSPropertyOp58
 70
     1
102
RTVSPropertyOp59
 70
     1
102
RTVSPropertyOp60
 70
     1
102
RTVSPropertyOp61
 70
     1
102
RTVSPropertyOp62
 70
     1
  0
XRECORD
  5
38C
102
{ACAD_REACTORS
330
38B
102
}
330
38B
100
AcDbXrecord
280
     1
102
RTVSPost2010Prop28
280
     0
102
RTVSPost2010PropOp28
 70
     1
102
RTVSPost2010Prop29
280
     1
102
RTVSPost2010PropOp29
 70
     1
102
RTVSPost2010Prop30
280
     1
102
RTVSPost2010PropOp30
 70
     1
102
RTVSPost2010Prop31
280
     0
102
RTVSPost2010PropOp31
 70
     1
102
RTVSPost2010Prop32
280
     0
102
RTVSPost2010PropOp32
 70
     1
102
RTVSPost2010Prop33
280
     0
102
RTVSPost2010PropOp33
 70
     1
102
RTVSPost2010Prop34
280
     0
102
RTVSPost2010PropOp34
 70
     1
102
RTVSPost2010Prop35
280
     0
102
RTVSPost2010PropOp35
 70
     1
102
RTVSPost2010Prop36
280
     0
102
RTVSPost2010PropOp36
 70
     1
102
RTVSPost2010Prop37
 90
       50
102
RTVSPost2010PropOp37
 70
     1
102
RTVSPost2010Prop38
140
0.0
102
RTVSPost2010PropOp38
 70
     1
102
RTVSPost2010Prop39
140
1.0
102
RTVSPost2010PropOp39
 70
     1
102
RTVSPost2010Prop40
 90
        0
102
RTVSPost2010PropOp40
 70
     1
102
RTVSPost2010Prop41ColorIndex
 90
       18
102
RTVSPost2010Prop41ColorRGB
 90
        0
102
RTVSPost2010PropOp41
 70
     1
102
RTVSPost2010Prop42
 90
       50
102
RTVSPost2010PropOp42
 70
     1
102
RTVSPost2010Prop43
 90
        3
102
RTVSPost2010PropOp43
 70
     1
102
RTVSPost2010Prop44ColorIndex
 90
        5
102
RTVSPost2010Prop44ColorRGB
 90
      255
102
RTVSPost2010PropOp44
 70
     1
102
RTVSPost2010Prop45
280
     0
102
RTVSPost2010PropOp45
 70
     1
102
RTVSPost2010Prop46
 90
       50
102
RTVSPost2010PropOp46
 70
     1
102
RTVSPost2010Prop47
 90
       50
102
RTVSPost2010PropOp47
 70
     1
102
RTVSPost2010Prop48
 90
       50
102
RTVSPost2010PropOp48
 70
     1
102
RTVSPost2010Prop49
280
     0
102
RTVSPost2010PropOp49
 70
     1
102
RTVSPost2010Prop50
 90
       50
102
RTVSPost2010PropOp50
 70
     1
102
RTVSPost2010Prop51ColorIndex
 90
      256
102
RTVSPost2010Prop51ColorRGB
 90
-16777216
102
RTVSPost2010PropOp51
 70
     0
102
RTVSPost2010Prop52
140
1.0
102
RTVSPost2010PropOp52
 70
     0
102
RTVSPost2010Prop53
 90
        2
102
RTVSPost2010PropOp53
 70
     1
102
RTVSPost2010Prop54
  1
strokes_ogs.tif
102
RTVSPost2010PropOp54
 70
     1
102
RTVSPost2010Prop55
280
     0
102
RTVSPost2010PropOp55
 70
     1
102
RTVSPost2010Prop56
140
1.0
102
RTVSPost2010PropOp56
 70
     1
102
RTVSPost2010Prop57
140
1.0
102
RTVSPost2010PropOp57
 70
     1
102
RTVSPropertyOp0
 70
     1
102
RTVSPropertyOp1
 70
     1
102
RTVSPropertyOp2
 70
     1
102
RTVSPropertyOp3
 70
     1
102
RTVSPropertyOp4
 70
     1
102
RTVSPropertyOp5
 70
     1
102
RTVSPropertyOp6
 70
     1
102
RTVSPropertyOp7
 70
     1
102
RTVSPropertyOp8
 70
     1
102
RTVSPropertyOp9
 70
     1
102
RTVSPropertyOp10
 70
     1
102
RTVSPropertyOp11
 70
     1
102
RTVSPropertyOp12
 70
     1
102
RTVSPropertyOp13
 70
     1
102
RTVSPropertyOp14
 70
     1
102
RTVSPropertyOp15
 70
     1
102
RTVSPropertyOp16
 70
     1
102
RTVSPropertyOp17
 70
     1
102
RTVSPropertyOp18
 70
     1
102
RTVSPropertyOp19
 70
     1
102
RTVSPropertyOp20
 70
     1
102
RTVSPropertyOp21
 70
     1
102
RTVSPropertyOp22
 70
     1
102
RTVSPropertyOp23
 70
     1
102
RTVSPropertyOp24
 70
     1
102
RTVSPropertyOp25
 70
     1
102
RTVSPropertyOp26
 70
     1
102
RTVSPropertyOp27
 70
     1
102
RTVSPropertyOp28
 70
     1
102
RTVSPropertyOp29
 70
     1
102
RTVSPropertyOp30
 70
     1
102
RTVSPropertyOp31
 70
     1
102
RTVSPropertyOp32
 70
     1
102
RTVSPropertyOp33
 70
     1
102
RTVSPropertyOp34
 70
     1
102
RTVSPropertyOp35
 70
     1
102
RTVSPropertyOp36
 70
     1
102
RTVSPropertyOp37
 70
     1
102
RTVSPropertyOp38
 70
     1
102
RTVSPropertyOp39
 70
     1
102
RTVSPropertyOp40
 70
     1
102
RTVSPropertyOp41
 70
     1
102
RTVSPropertyOp42
 70
     1
102
RTVSPropertyOp43
 70
     1
102
RTVSPropertyOp44
 70
     1
102
RTVSPropertyOp45
 70
     1
102
RTVSPropertyOp46
 70
     1
102
RTVSPropertyOp47
 70
     1
102
RTVSPropertyOp48
 70
     1
102
RTVSPropertyOp49
 70
     1
102
RTVSPropertyOp50
 70
     1
102
RTVSPropertyOp51
 70
     0
102
RTVSPropertyOp52
 70
     0
102
RTVSPropertyOp53
 70
     1
102
RTVSPropertyOp54
 70
     1
102
RTVSPropertyOp55
 70
     1
102
RTVSPropertyOp56
 70
     1
102
RTVSPropertyOp57
 70
     1
102
RTVSPropertyOp58
 70
     1
102
RTVSPropertyOp59
 70
     1
102
RTVSPropertyOp60
 70
     1
102
RTVSPropertyOp61
 70
     1
102
RTVSPropertyOp62
 70
     1
  0
XRECORD
  5
38A
102
{ACAD_REACTORS
330
389
102
}
330
389
100
AcDbXrecord
280
     1
102
RTVSPost2010Prop28
280
     0
102
RTVSPost2010PropOp28
 70
     1
102
RTVSPost2010Prop29
280
     1
102
RTVSPost2010PropOp29
 70
     1
102
RTVSPost2010Prop30
280
     1
102
RTVSPost2010PropOp30
 70
     1
102
RTVSPost2010Prop31
280
     0
102
RTVSPost2010PropOp31
 70
     1
102
RTVSPost2010Prop32
280
     0
102
RTVSPost2010PropOp32
 70
     1
102
RTVSPost2010Prop33
280
     0
102
RTVSPost2010PropOp33
 70
     1
102
RTVSPost2010Prop34
280
     0
102
RTVSPost2010PropOp34
 70
     1
102
RTVSPost2010Prop35
280
     0
102
RTVSPost2010PropOp35
 70
     1
102
RTVSPost2010Prop36
280
     0
102
RTVSPost2010PropOp36
 70
     1
102
RTVSPost2010Prop37
 90
       50
102
RTVSPost2010PropOp37
 70
     1
102
RTVSPost2010Prop38
140
0.0
102
RTVSPost2010PropOp38
 70
     1
102
RTVSPost2010Prop39
140
1.0
102
RTVSPost2010PropOp39
 70
     1
102
RTVSPost2010Prop40
 90
        0
102
RTVSPost2010PropOp40
 70
     1
102
RTVSPost2010Prop41ColorIndex
 90
       18
102
RTVSPost2010Prop41ColorRGB
 90
        0
102
RTVSPost2010PropOp41
 70
     1
102
RTVSPost2010Prop42
 90
       50
102
RTVSPost2010PropOp42
 70
     1
102
RTVSPost2010Prop43
 90
        3
102
RTVSPost2010PropOp43
 70
     1
102
RTVSPost2010Prop44ColorIndex
 90
        5
102
RTVSPost2010Prop44ColorRGB
 90
      255
102
RTVSPost2010PropOp44
 70
     1
102
RTVSPost2010Prop45
280
     0
102
RTVSPost2010PropOp45
 70
     1
102
RTVSPost2010Prop46
 90
       50
102
RTVSPost2010PropOp46
 70
     1
102
RTVSPost2010Prop47
 90
       50
102
RTVSPost2010PropOp47
 70
     1
102
RTVSPost2010Prop48
 90
       50
102
RTVSPost2010PropOp48
 70
     1
102
RTVSPost2010Prop49
280
     0
102
RTVSPost2010PropOp49
 70
     1
102
RTVSPost2010Prop50
 90
       50
102
RTVSPost2010PropOp50
 70
     1
102
RTVSPost2010Prop51ColorIndex
 90
      256
102
RTVSPost2010Prop51ColorRGB
 90
-16777216
102
RTVSPost2010PropOp51
 70
     0
102
RTVSPost2010Prop52
140
1.0
102
RTVSPost2010PropOp52
 70
     0
102
RTVSPost2010Prop53
 90
        2
102
RTVSPost2010PropOp53
 70
     1
102
RTVSPost2010Prop54
  1
strokes_ogs.tif
102
RTVSPost2010PropOp54
 70
     1
102
RTVSPost2010Prop55
280
     0
102
RTVSPost2010PropOp55
 70
     1
102
RTVSPost2010Prop56
140
1.0
102
RTVSPost2010PropOp56
 70
     1
102
RTVSPost2010Prop57
140
1.0
102
RTVSPost2010PropOp57
 70
     1
102
RTVSPropertyOp0
 70
     1
102
RTVSPropertyOp1
 70
     1
102
RTVSPropertyOp2
 70
     1
102
RTVSPropertyOp3
 70
     1
102
RTVSPropertyOp4
 70
     1
102
RTVSPropertyOp5
 70
     1
102
RTVSPropertyOp6
 70
     1
102
RTVSPropertyOp7
 70
     1
102
RTVSPropertyOp8
 70
     1
102
RTVSPropertyOp9
 70
     1
102
RTVSPropertyOp10
 70
     1
102
RTVSPropertyOp11
 70
     1
102
RTVSPropertyOp12
 70
     1
102
RTVSPropertyOp13
 70
     1
102
RTVSPropertyOp14
 70
     1
102
RTVSPropertyOp15
 70
     1
102
RTVSPropertyOp16
 70
     1
102
RTVSPropertyOp17
 70
     1
102
RTVSPropertyOp18
 70
     1
102
RTVSPropertyOp19
 70
     1
102
RTVSPropertyOp20
 70
     1
102
RTVSPropertyOp21
 70
     1
102
RTVSPropertyOp22
 70
     1
102
RTVSPropertyOp23
 70
     1
102
RTVSPropertyOp24
 70
     1
102
RTVSPropertyOp25
 70
     1
102
RTVSPropertyOp26
 70
     1
102
RTVSPropertyOp27
 70
     1
102
RTVSPropertyOp28
 70
     1
102
RTVSPropertyOp29
 70
     1
102
RTVSPropertyOp30
 70
     1
102
RTVSPropertyOp31
 70
     1
102
RTVSPropertyOp32
 70
     1
102
RTVSPropertyOp33
 70
     1
102
RTVSPropertyOp34
 70
     1
102
RTVSPropertyOp35
 70
     1
102
RTVSPropertyOp36
 70
     1
102
RTVSPropertyOp37
 70
     1
102
RTVSPropertyOp38
 70
     1
102
RTVSPropertyOp39
 70
     1
102
RTVSPropertyOp40
 70
     1
102
RTVSPropertyOp41
 70
     1
102
RTVSPropertyOp42
 70
     1
102
RTVSPropertyOp43
 70
     1
102
RTVSPropertyOp44
 70
     1
102
RTVSPropertyOp45
 70
     1
102
RTVSPropertyOp46
 70
     1
102
RTVSPropertyOp47
 70
     1
102
RTVSPropertyOp48
 70
     1
102
RTVSPropertyOp49
 70
     1
102
RTVSPropertyOp50
 70
     1
102
RTVSPropertyOp51
 70
     0
102
RTVSPropertyOp52
 70
     0
102
RTVSPropertyOp53
 70
     1
102
RTVSPropertyOp54
 70
     1
102
RTVSPropertyOp55
 70
     1
102
RTVSPropertyOp56
 70
     1
102
RTVSPropertyOp57
 70
     1
102
RTVSPropertyOp58
 70
     1
102
RTVSPropertyOp59
 70
     1
102
RTVSPropertyOp60
 70
     1
102
RTVSPropertyOp61
 70
     1
102
RTVSPropertyOp62
 70
     1
  0
XRECORD
  5
384
102
{ACAD_REACTORS
330
383
102
}
330
383
100
AcDbXrecord
280
     1
102
RTVSPost2010Prop28
280
     0
102
RTVSPost2010PropOp28
 70
     1
102
RTVSPost2010Prop29
280
     1
102
RTVSPost2010PropOp29
 70
     1
102
RTVSPost2010Prop30
280
     1
102
RTVSPost2010PropOp30
 70
     1
102
RTVSPost2010Prop31
280
     0
102
RTVSPost2010PropOp31
 70
     1
102
RTVSPost2010Prop32
280
     0
102
RTVSPost2010PropOp32
 70
     1
102
RTVSPost2010Prop33
280
     0
102
RTVSPost2010PropOp33
 70
     1
102
RTVSPost2010Prop34
280
     0
102
RTVSPost2010PropOp34
 70
     1
102
RTVSPost2010Prop35
280
     0
102
RTVSPost2010PropOp35
 70
     1
102
RTVSPost2010Prop36
280
     0
102
RTVSPost2010PropOp36
 70
     1
102
RTVSPost2010Prop37
 90
       50
102
RTVSPost2010PropOp37
 70
     1
102
RTVSPost2010Prop38
140
0.0
102
RTVSPost2010PropOp38
 70
     1
102
RTVSPost2010Prop39
140
1.0
102
RTVSPost2010PropOp39
 70
     1
102
RTVSPost2010Prop40
 90
        0
102
RTVSPost2010PropOp40
 70
     1
102
RTVSPost2010Prop41ColorIndex
 90
       18
102
RTVSPost2010Prop41ColorRGB
 90
        0
102
RTVSPost2010PropOp41
 70
     1
102
RTVSPost2010Prop42
 90
       50
102
RTVSPost2010PropOp42
 70
     1
102
RTVSPost2010Prop43
 90
        3
102
RTVSPost2010PropOp43
 70
     1
102
RTVSPost2010Prop44ColorIndex
 90
        5
102
RTVSPost2010Prop44ColorRGB
 90
      255
102
RTVSPost2010PropOp44
 70
     1
102
RTVSPost2010Prop45
280
     0
102
RTVSPost2010PropOp45
 70
     1
102
RTVSPost2010Prop46
 90
       50
102
RTVSPost2010PropOp46
 70
     1
102
RTVSPost2010Prop47
 90
       50
102
RTVSPost2010PropOp47
 70
     1
102
RTVSPost2010Prop48
 90
       50
102
RTVSPost2010PropOp48
 70
     1
102
RTVSPost2010Prop49
280
     0
102
RTVSPost2010PropOp49
 70
     1
102
RTVSPost2010Prop50
 90
       50
102
RTVSPost2010PropOp50
 70
     1
102
RTVSPost2010Prop51ColorIndex
 90
      256
102
RTVSPost2010Prop51ColorRGB
 90
-16777216
102
RTVSPost2010PropOp51
 70
     0
102
RTVSPost2010Prop52
140
1.0
102
RTVSPost2010PropOp52
 70
     0
102
RTVSPost2010Prop53
 90
        2
102
RTVSPost2010PropOp53
 70
     1
102
RTVSPost2010Prop54
  1
strokes_ogs.tif
102
RTVSPost2010PropOp54
 70
     1
102
RTVSPost2010Prop55
280
     0
102
RTVSPost2010PropOp55
 70
     1
102
RTVSPost2010Prop56
140
1.0
102
RTVSPost2010PropOp56
 70
     1
102
RTVSPost2010Prop57
140
1.0
102
RTVSPost2010PropOp57
 70
     1
102
RTVSPropertyOp0
 70
     1
102
RTVSPropertyOp1
 70
     1
102
RTVSPropertyOp2
 70
     1
102
RTVSPropertyOp3
 70
     1
102
RTVSPropertyOp4
 70
     1
102
RTVSPropertyOp5
 70
     1
102
RTVSPropertyOp6
 70
     1
102
RTVSPropertyOp7
 70
     1
102
RTVSPropertyOp8
 70
     1
102
RTVSPropertyOp9
 70
     1
102
RTVSPropertyOp10
 70
     1
102
RTVSPropertyOp11
 70
     1
102
RTVSPropertyOp12
 70
     1
102
RTVSPropertyOp13
 70
     1
102
RTVSPropertyOp14
 70
     1
102
RTVSPropertyOp15
 70
     1
102
RTVSPropertyOp16
 70
     1
102
RTVSPropertyOp17
 70
     1
102
RTVSPropertyOp18
 70
     1
102
RTVSPropertyOp19
 70
     1
102
RTVSPropertyOp20
 70
     1
102
RTVSPropertyOp21
 70
     1
102
RTVSPropertyOp22
 70
     1
102
RTVSPropertyOp23
 70
     1
102
RTVSPropertyOp24
 70
     1
102
RTVSPropertyOp25
 70
     1
102
RTVSPropertyOp26
 70
     1
102
RTVSPropertyOp27
 70
     1
102
RTVSPropertyOp28
 70
     1
102
RTVSPropertyOp29
 70
     1
102
RTVSPropertyOp30
 70
     1
102
RTVSPropertyOp31
 70
     1
102
RTVSPropertyOp32
 70
     1
102
RTVSPropertyOp33
 70
     1
102
RTVSPropertyOp34
 70
     1
102
RTVSPropertyOp35
 70
     1
102
RTVSPropertyOp36
 70
     1
102
RTVSPropertyOp37
 70
     1
102
RTVSPropertyOp38
 70
     1
102
RTVSPropertyOp39
 70
     1
102
RTVSPropertyOp40
 70
     1
102
RTVSPropertyOp41
 70
     1
102
RTVSPropertyOp42
 70
     1
102
RTVSPropertyOp43
 70
     1
102
RTVSPropertyOp44
 70
     1
102
RTVSPropertyOp45
 70
     1
102
RTVSPropertyOp46
 70
     1
102
RTVSPropertyOp47
 70
     1
102
RTVSPropertyOp48
 70
     1
102
RTVSPropertyOp49
 70
     1
102
RTVSPropertyOp50
 70
     1
102
RTVSPropertyOp51
 70
     0
102
RTVSPropertyOp52
 70
     0
102
RTVSPropertyOp53
 70
     1
102
RTVSPropertyOp54
 70
     1
102
RTVSPropertyOp55
 70
     1
102
RTVSPropertyOp56
 70
     1
102
RTVSPropertyOp57
 70
     1
102
RTVSPropertyOp58
 70
     1
102
RTVSPropertyOp59
 70
     1
102
RTVSPropertyOp60
 70
     1
102
RTVSPropertyOp61
 70
     1
102
RTVSPropertyOp62
 70
     1
  0
XRECORD
  5
386
102
{ACAD_REACTORS
330
385
102
}
330
385
100
AcDbXrecord
280
     1
102
RTVSPost2010Prop28
280
     0
102
RTVSPost2010PropOp28
 70
     1
102
RTVSPost2010Prop29
280
     1
102
RTVSPost2010PropOp29
 70
     1
102
RTVSPost2010Prop30
280
     1
102
RTVSPost2010PropOp30
 70
     1
102
RTVSPost2010Prop31
280
     0
102
RTVSPost2010PropOp31
 70
     1
102
RTVSPost2010Prop32
280
     0
102
RTVSPost2010PropOp32
 70
     1
102
RTVSPost2010Prop33
280
     0
102
RTVSPost2010PropOp33
 70
     1
102
RTVSPost2010Prop34
280
     0
102
RTVSPost2010PropOp34
 70
     1
102
RTVSPost2010Prop35
280
     0
102
RTVSPost2010PropOp35
 70
     1
102
RTVSPost2010Prop36
280
     0
102
RTVSPost2010PropOp36
 70
     1
102
RTVSPost2010Prop37
 90
       50
102
RTVSPost2010PropOp37
 70
     1
102
RTVSPost2010Prop38
140
0.0
102
RTVSPost2010PropOp38
 70
     1
102
RTVSPost2010Prop39
140
1.0
102
RTVSPost2010PropOp39
 70
     1
102
RTVSPost2010Prop40
 90
        0
102
RTVSPost2010PropOp40
 70
     1
102
RTVSPost2010Prop41ColorIndex
 90
       18
102
RTVSPost2010Prop41ColorRGB
 90
        0
102
RTVSPost2010PropOp41
 70
     1
102
RTVSPost2010Prop42
 90
       50
102
RTVSPost2010PropOp42
 70
     1
102
RTVSPost2010Prop43
 90
        3
102
RTVSPost2010PropOp43
 70
     1
102
RTVSPost2010Prop44ColorIndex
 90
        5
102
RTVSPost2010Prop44ColorRGB
 90
      255
102
RTVSPost2010PropOp44
 70
     1
102
RTVSPost2010Prop45
280
     0
102
RTVSPost2010PropOp45
 70
     1
102
RTVSPost2010Prop46
 90
       50
102
RTVSPost2010PropOp46
 70
     1
102
RTVSPost2010Prop47
 90
       50
102
RTVSPost2010PropOp47
 70
     1
102
RTVSPost2010Prop48
 90
       50
102
RTVSPost2010PropOp48
 70
     1
102
RTVSPost2010Prop49
280
     0
102
RTVSPost2010PropOp49
 70
     1
102
RTVSPost2010Prop50
 90
       50
102
RTVSPost2010PropOp50
 70
     1
102
RTVSPost2010Prop51ColorIndex
 90
      256
102
RTVSPost2010Prop51ColorRGB
 90
-16777216
102
RTVSPost2010PropOp51
 70
     0
102
RTVSPost2010Prop52
140
1.0
102
RTVSPost2010PropOp52
 70
     0
102
RTVSPost2010Prop53
 90
        2
102
RTVSPost2010PropOp53
 70
     1
102
RTVSPost2010Prop54
  1
strokes_ogs.tif
102
RTVSPost2010PropOp54
 70
     1
102
RTVSPost2010Prop55
280
     0
102
RTVSPost2010PropOp55
 70
     1
102
RTVSPost2010Prop56
140
1.0
102
RTVSPost2010PropOp56
 70
     1
102
RTVSPost2010Prop57
140
1.0
102
RTVSPost2010PropOp57
 70
     1
102
RTVSPropertyOp0
 70
     1
102
RTVSPropertyOp1
 70
     1
102
RTVSPropertyOp2
 70
     1
102
RTVSPropertyOp3
 70
     1
102
RTVSPropertyOp4
 70
     1
102
RTVSPropertyOp5
 70
     1
102
RTVSPropertyOp6
 70
     1
102
RTVSPropertyOp7
 70
     1
102
RTVSPropertyOp8
 70
     1
102
RTVSPropertyOp9
 70
     1
102
RTVSPropertyOp10
 70
     1
102
RTVSPropertyOp11
 70
     1
102
RTVSPropertyOp12
 70
     1
102
RTVSPropertyOp13
 70
     1
102
RTVSPropertyOp14
 70
     1
102
RTVSPropertyOp15
 70
     1
102
RTVSPropertyOp16
 70
     1
102
RTVSPropertyOp17
 70
     1
102
RTVSPropertyOp18
 70
     1
102
RTVSPropertyOp19
 70
     1
102
RTVSPropertyOp20
 70
     1
102
RTVSPropertyOp21
 70
     1
102
RTVSPropertyOp22
 70
     1
102
RTVSPropertyOp23
 70
     1
102
RTVSPropertyOp24
 70
     1
102
RTVSPropertyOp25
 70
     1
102
RTVSPropertyOp26
 70
     1
102
RTVSPropertyOp27
 70
     1
102
RTVSPropertyOp28
 70
     1
102
RTVSPropertyOp29
 70
     1
102
RTVSPropertyOp30
 70
     1
102
RTVSPropertyOp31
 70
     1
102
RTVSPropertyOp32
 70
     1
102
RTVSPropertyOp33
 70
     1
102
RTVSPropertyOp34
 70
     1
102
RTVSPropertyOp35
 70
     1
102
RTVSPropertyOp36
 70
     1
102
RTVSPropertyOp37
 70
     1
102
RTVSPropertyOp38
 70
     1
102
RTVSPropertyOp39
 70
     1
102
RTVSPropertyOp40
 70
     1
102
RTVSPropertyOp41
 70
     1
102
RTVSPropertyOp42
 70
     1
102
RTVSPropertyOp43
 70
     1
102
RTVSPropertyOp44
 70
     1
102
RTVSPropertyOp45
 70
     1
102
RTVSPropertyOp46
 70
     1
102
RTVSPropertyOp47
 70
     1
102
RTVSPropertyOp48
 70
     1
102
RTVSPropertyOp49
 70
     1
102
RTVSPropertyOp50
 70
     1
102
RTVSPropertyOp51
 70
     0
102
RTVSPropertyOp52
 70
     0
102
RTVSPropertyOp53
 70
     1
102
RTVSPropertyOp54
 70
     1
102
RTVSPropertyOp55
 70
     1
102
RTVSPropertyOp56
 70
     1
102
RTVSPropertyOp57
 70
     1
102
RTVSPropertyOp58
 70
     1
102
RTVSPropertyOp59
 70
     1
102
RTVSPropertyOp60
 70
     1
102
RTVSPropertyOp61
 70
     1
102
RTVSPropertyOp62
 70
     1
  0
XRECORD
  5
37C
102
{ACAD_REACTORS
330
37B
102
}
330
37B
100
AcDbXrecord
280
     1
102
RTVSPost2010Prop28
280
     0
102
RTVSPost2010PropOp28
 70
     1
102
RTVSPost2010Prop29
280
     1
102
RTVSPost2010PropOp29
 70
     1
102
RTVSPost2010Prop30
280
     1
102
RTVSPost2010PropOp30
 70
     1
102
RTVSPost2010Prop31
280
     0
102
RTVSPost2010PropOp31
 70
     1
102
RTVSPost2010Prop32
280
     0
102
RTVSPost2010PropOp32
 70
     1
102
RTVSPost2010Prop33
280
     0
102
RTVSPost2010PropOp33
 70
     1
102
RTVSPost2010Prop34
280
     0
102
RTVSPost2010PropOp34
 70
     1
102
RTVSPost2010Prop35
280
     0
102
RTVSPost2010PropOp35
 70
     1
102
RTVSPost2010Prop36
280
     0
102
RTVSPost2010PropOp36
 70
     1
102
RTVSPost2010Prop37
 90
       50
102
RTVSPost2010PropOp37
 70
     1
102
RTVSPost2010Prop38
140
0.0
102
RTVSPost2010PropOp38
 70
     1
102
RTVSPost2010Prop39
140
1.0
102
RTVSPost2010PropOp39
 70
     1
102
RTVSPost2010Prop40
 90
        0
102
RTVSPost2010PropOp40
 70
     1
102
RTVSPost2010Prop41ColorIndex
 90
       18
102
RTVSPost2010Prop41ColorRGB
 90
        0
102
RTVSPost2010PropOp41
 70
     1
102
RTVSPost2010Prop42
 90
       50
102
RTVSPost2010PropOp42
 70
     1
102
RTVSPost2010Prop43
 90
        3
102
RTVSPost2010PropOp43
 70
     1
102
RTVSPost2010Prop44ColorIndex
 90
        5
102
RTVSPost2010Prop44ColorRGB
 90
      255
102
RTVSPost2010PropOp44
 70
     1
102
RTVSPost2010Prop45
280
     0
102
RTVSPost2010PropOp45
 70
     1
102
RTVSPost2010Prop46
 90
       50
102
RTVSPost2010PropOp46
 70
     1
102
RTVSPost2010Prop47
 90
       50
102
RTVSPost2010PropOp47
 70
     1
102
RTVSPost2010Prop48
 90
       50
102
RTVSPost2010PropOp48
 70
     1
102
RTVSPost2010Prop49
280
     0
102
RTVSPost2010PropOp49
 70
     1
102
RTVSPost2010Prop50
 90
       50
102
RTVSPost2010PropOp50
 70
     1
102
RTVSPost2010Prop51ColorIndex
 90
      256
102
RTVSPost2010Prop51ColorRGB
 90
-16777216
102
RTVSPost2010PropOp51
 70
     0
102
RTVSPost2010Prop52
140
1.0
102
RTVSPost2010PropOp52
 70
     0
102
RTVSPost2010Prop53
 90
        2
102
RTVSPost2010PropOp53
 70
     1
102
RTVSPost2010Prop54
  1
strokes_ogs.tif
102
RTVSPost2010PropOp54
 70
     1
102
RTVSPost2010Prop55
280
     0
102
RTVSPost2010PropOp55
 70
     1
102
RTVSPost2010Prop56
140
1.0
102
RTVSPost2010PropOp56
 70
     1
102
RTVSPost2010Prop57
140
1.0
102
RTVSPost2010PropOp57
 70
     1
102
RTVSPropertyOp0
 70
     1
102
RTVSPropertyOp1
 70
     1
102
RTVSPropertyOp2
 70
     1
102
RTVSPropertyOp3
 70
     1
102
RTVSPropertyOp4
 70
     1
102
RTVSPropertyOp5
 70
     1
102
RTVSPropertyOp6
 70
     1
102
RTVSPropertyOp7
 70
     1
102
RTVSPropertyOp8
 70
     1
102
RTVSPropertyOp9
 70
     1
102
RTVSPropertyOp10
 70
     1
102
RTVSPropertyOp11
 70
     1
102
RTVSPropertyOp12
 70
     1
102
RTVSPropertyOp13
 70
     1
102
RTVSPropertyOp14
 70
     1
102
RTVSPropertyOp15
 70
     1
102
RTVSPropertyOp16
 70
     1
102
RTVSPropertyOp17
 70
     1
102
RTVSPropertyOp18
 70
     1
102
RTVSPropertyOp19
 70
     1
102
RTVSPropertyOp20
 70
     1
102
RTVSPropertyOp21
 70
     1
102
RTVSPropertyOp22
 70
     1
102
RTVSPropertyOp23
 70
     1
102
RTVSPropertyOp24
 70
     1
102
RTVSPropertyOp25
 70
     1
102
RTVSPropertyOp26
 70
     1
102
RTVSPropertyOp27
 70
     1
102
RTVSPropertyOp28
 70
     1
102
RTVSPropertyOp29
 70
     1
102
RTVSPropertyOp30
 70
     1
102
RTVSPropertyOp31
 70
     1
102
RTVSPropertyOp32
 70
     1
102
RTVSPropertyOp33
 70
     1
102
RTVSPropertyOp34
 70
     1
102
RTVSPropertyOp35
 70
     1
102
RTVSPropertyOp36
 70
     1
102
RTVSPropertyOp37
 70
     1
102
RTVSPropertyOp38
 70
     1
102
RTVSPropertyOp39
 70
     1
102
RTVSPropertyOp40
 70
     1
102
RTVSPropertyOp41
 70
     1
102
RTVSPropertyOp42
 70
     1
102
RTVSPropertyOp43
 70
     1
102
RTVSPropertyOp44
 70
     1
102
RTVSPropertyOp45
 70
     1
102
RTVSPropertyOp46
 70
     1
102
RTVSPropertyOp47
 70
     1
102
RTVSPropertyOp48
 70
     1
102
RTVSPropertyOp49
 70
     1
102
RTVSPropertyOp50
 70
     1
102
RTVSPropertyOp51
 70
     0
102
RTVSPropertyOp52
 70
     0
102
RTVSPropertyOp53
 70
     1
102
RTVSPropertyOp54
 70
     1
102
RTVSPropertyOp55
 70
     1
102
RTVSPropertyOp56
 70
     1
102
RTVSPropertyOp57
 70
     1
102
RTVSPropertyOp58
 70
     1
102
RTVSPropertyOp59
 70
     1
102
RTVSPropertyOp60
 70
     1
102
RTVSPropertyOp61
 70
     1
102
RTVSPropertyOp62
 70
     1
  0
XRECORD
  5
370
102
{ACAD_REACTORS
330
36F
102
}
330
36F
100
AcDbXrecord
280
     1
102
RTVSPost2010Prop28
280
     0
102
RTVSPost2010PropOp28
 70
     1
102
RTVSPost2010Prop29
280
     1
102
RTVSPost2010PropOp29
 70
     1
102
RTVSPost2010Prop30
280
     1
102
RTVSPost2010PropOp30
 70
     1
102
RTVSPost2010Prop31
280
     0
102
RTVSPost2010PropOp31
 70
     1
102
RTVSPost2010Prop32
280
     0
102
RTVSPost2010PropOp32
 70
     1
102
RTVSPost2010Prop33
280
     0
102
RTVSPost2010PropOp33
 70
     1
102
RTVSPost2010Prop34
280
     0
102
RTVSPost2010PropOp34
 70
     1
102
RTVSPost2010Prop35
280
     0
102
RTVSPost2010PropOp35
 70
     1
102
RTVSPost2010Prop36
280
     0
102
RTVSPost2010PropOp36
 70
     1
102
RTVSPost2010Prop37
 90
       50
102
RTVSPost2010PropOp37
 70
     1
102
RTVSPost2010Prop38
140
0.0
102
RTVSPost2010PropOp38
 70
     1
102
RTVSPost2010Prop39
140
1.0
102
RTVSPost2010PropOp39
 70
     1
102
RTVSPost2010Prop40
 90
        0
102
RTVSPost2010PropOp40
 70
     1
102
RTVSPost2010Prop41ColorIndex
 90
       18
102
RTVSPost2010Prop41ColorRGB
 90
        0
102
RTVSPost2010PropOp41
 70
     1
102
RTVSPost2010Prop42
 90
       50
102
RTVSPost2010PropOp42
 70
     1
102
RTVSPost2010Prop43
 90
        3
102
RTVSPost2010PropOp43
 70
     1
102
RTVSPost2010Prop44ColorIndex
 90
        5
102
RTVSPost2010Prop44ColorRGB
 90
      255
102
RTVSPost2010PropOp44
 70
     1
102
RTVSPost2010Prop45
280
     0
102
RTVSPost2010PropOp45
 70
     1
102
RTVSPost2010Prop46
 90
       50
102
RTVSPost2010PropOp46
 70
     1
102
RTVSPost2010Prop47
 90
       50
102
RTVSPost2010PropOp47
 70
     1
102
RTVSPost2010Prop48
 90
       50
102
RTVSPost2010PropOp48
 70
     1
102
RTVSPost2010Prop49
280
     0
102
RTVSPost2010PropOp49
 70
     1
102
RTVSPost2010Prop50
 90
       50
102
RTVSPost2010PropOp50
 70
     1
102
RTVSPost2010Prop51ColorIndex
 90
      256
102
RTVSPost2010Prop51ColorRGB
 90
-16777216
102
RTVSPost2010PropOp51
 70
     0
102
RTVSPost2010Prop52
140
1.0
102
RTVSPost2010PropOp52
 70
     0
102
RTVSPost2010Prop53
 90
        2
102
RTVSPost2010PropOp53
 70
     1
102
RTVSPost2010Prop54
  1
strokes_ogs.tif
102
RTVSPost2010PropOp54
 70
     1
102
RTVSPost2010Prop55
280
     0
102
RTVSPost2010PropOp55
 70
     1
102
RTVSPost2010Prop56
140
1.0
102
RTVSPost2010PropOp56
 70
     1
102
RTVSPost2010Prop57
140
1.0
102
RTVSPost2010PropOp57
 70
     1
102
RTVSPropertyOp0
 70
     1
102
RTVSPropertyOp1
 70
     1
102
RTVSPropertyOp2
 70
     1
102
RTVSPropertyOp3
 70
     1
102
RTVSPropertyOp4
 70
     1
102
RTVSPropertyOp5
 70
     1
102
RTVSPropertyOp6
 70
     1
102
RTVSPropertyOp7
 70
     1
102
RTVSPropertyOp8
 70
     1
102
RTVSPropertyOp9
 70
     1
102
RTVSPropertyOp10
 70
     1
102
RTVSPropertyOp11
 70
     1
102
RTVSPropertyOp12
 70
     1
102
RTVSPropertyOp13
 70
     1
102
RTVSPropertyOp14
 70
     1
102
RTVSPropertyOp15
 70
     1
102
RTVSPropertyOp16
 70
     1
102
RTVSPropertyOp17
 70
     1
102
RTVSPropertyOp18
 70
     1
102
RTVSPropertyOp19
 70
     1
102
RTVSPropertyOp20
 70
     1
102
RTVSPropertyOp21
 70
     1
102
RTVSPropertyOp22
 70
     1
102
RTVSPropertyOp23
 70
     1
102
RTVSPropertyOp24
 70
     1
102
RTVSPropertyOp25
 70
     1
102
RTVSPropertyOp26
 70
     1
102
RTVSPropertyOp27
 70
     1
102
RTVSPropertyOp28
 70
     1
102
RTVSPropertyOp29
 70
     1
102
RTVSPropertyOp30
 70
     1
102
RTVSPropertyOp31
 70
     1
102
RTVSPropertyOp32
 70
     1
102
RTVSPropertyOp33
 70
     1
102
RTVSPropertyOp34
 70
     1
102
RTVSPropertyOp35
 70
     1
102
RTVSPropertyOp36
 70
     1
102
RTVSPropertyOp37
 70
     1
102
RTVSPropertyOp38
 70
     1
102
RTVSPropertyOp39
 70
     1
102
RTVSPropertyOp40
 70
     1
102
RTVSPropertyOp41
 70
     1
102
RTVSPropertyOp42
 70
     1
102
RTVSPropertyOp43
 70
     1
102
RTVSPropertyOp44
 70
     1
102
RTVSPropertyOp45
 70
     1
102
RTVSPropertyOp46
 70
     1
102
RTVSPropertyOp47
 70
     1
102
RTVSPropertyOp48
 70
     1
102
RTVSPropertyOp49
 70
     1
102
RTVSPropertyOp50
 70
     1
102
RTVSPropertyOp51
 70
     0
102
RTVSPropertyOp52
 70
     0
102
RTVSPropertyOp53
 70
     1
102
RTVSPropertyOp54
 70
     1
102
RTVSPropertyOp55
 70
     1
102
RTVSPropertyOp56
 70
     1
102
RTVSPropertyOp57
 70
     1
102
RTVSPropertyOp58
 70
     1
102
RTVSPropertyOp59
 70
     1
102
RTVSPropertyOp60
 70
     1
102
RTVSPropertyOp61
 70
     1
102
RTVSPropertyOp62
 70
     1
  0
XRECORD
  5
388
102
{ACAD_REACTORS
330
387
102
}
330
387
100
AcDbXrecord
280
     1
102
RTVSPost2010Prop28
280
     0
102
RTVSPost2010PropOp28
 70
     1
102
RTVSPost2010Prop29
280
     1
102
RTVSPost2010PropOp29
 70
     1
102
RTVSPost2010Prop30
280
     1
102
RTVSPost2010PropOp30
 70
     1
102
RTVSPost2010Prop31
280
     0
102
RTVSPost2010PropOp31
 70
     1
102
RTVSPost2010Prop32
280
     0
102
RTVSPost2010PropOp32
 70
     1
102
RTVSPost2010Prop33
280
     0
102
RTVSPost2010PropOp33
 70
     1
102
RTVSPost2010Prop34
280
     0
102
RTVSPost2010PropOp34
 70
     1
102
RTVSPost2010Prop35
280
     0
102
RTVSPost2010PropOp35
 70
     1
102
RTVSPost2010Prop36
280
     0
102
RTVSPost2010PropOp36
 70
     1
102
RTVSPost2010Prop37
 90
       50
102
RTVSPost2010PropOp37
 70
     1
102
RTVSPost2010Prop38
140
0.0
102
RTVSPost2010PropOp38
 70
     1
102
RTVSPost2010Prop39
140
1.0
102
RTVSPost2010PropOp39
 70
     1
102
RTVSPost2010Prop40
 90
        0
102
RTVSPost2010PropOp40
 70
     1
102
RTVSPost2010Prop41ColorIndex
 90
       18
102
RTVSPost2010Prop41ColorRGB
 90
        0
102
RTVSPost2010PropOp41
 70
     1
102
RTVSPost2010Prop42
 90
       50
102
RTVSPost2010PropOp42
 70
     1
102
RTVSPost2010Prop43
 90
        3
102
RTVSPost2010PropOp43
 70
     1
102
RTVSPost2010Prop44ColorIndex
 90
        5
102
RTVSPost2010Prop44ColorRGB
 90
      255
102
RTVSPost2010PropOp44
 70
     1
102
RTVSPost2010Prop45
280
     0
102
RTVSPost2010PropOp45
 70
     1
102
RTVSPost2010Prop46
 90
       50
102
RTVSPost2010PropOp46
 70
     1
102
RTVSPost2010Prop47
 90
       50
102
RTVSPost2010PropOp47
 70
     1
102
RTVSPost2010Prop48
 90
       50
102
RTVSPost2010PropOp48
 70
     1
102
RTVSPost2010Prop49
280
     0
102
RTVSPost2010PropOp49
 70
     1
102
RTVSPost2010Prop50
 90
       50
102
RTVSPost2010PropOp50
 70
     1
102
RTVSPost2010Prop51ColorIndex
 90
      256
102
RTVSPost2010Prop51ColorRGB
 90
-16777216
102
RTVSPost2010PropOp51
 70
     0
102
RTVSPost2010Prop52
140
1.0
102
RTVSPost2010PropOp52
 70
     0
102
RTVSPost2010Prop53
 90
        2
102
RTVSPost2010PropOp53
 70
     1
102
RTVSPost2010Prop54
  1
strokes_ogs.tif
102
RTVSPost2010PropOp54
 70
     1
102
RTVSPost2010Prop55
280
     0
102
RTVSPost2010PropOp55
 70
     1
102
RTVSPost2010Prop56
140
1.0
102
RTVSPost2010PropOp56
 70
     1
102
RTVSPost2010Prop57
140
1.0
102
RTVSPost2010PropOp57
 70
     1
102
RTVSPropertyOp0
 70
     1
102
RTVSPropertyOp1
 70
     1
102
RTVSPropertyOp2
 70
     1
102
RTVSPropertyOp3
 70
     1
102
RTVSPropertyOp4
 70
     1
102
RTVSPropertyOp5
 70
     1
102
RTVSPropertyOp6
 70
     1
102
RTVSPropertyOp7
 70
     1
102
RTVSPropertyOp8
 70
     1
102
RTVSPropertyOp9
 70
     1
102
RTVSPropertyOp10
 70
     1
102
RTVSPropertyOp11
 70
     1
102
RTVSPropertyOp12
 70
     1
102
RTVSPropertyOp13
 70
     1
102
RTVSPropertyOp14
 70
     1
102
RTVSPropertyOp15
 70
     1
102
RTVSPropertyOp16
 70
     1
102
RTVSPropertyOp17
 70
     1
102
RTVSPropertyOp18
 70
     1
102
RTVSPropertyOp19
 70
     1
102
RTVSPropertyOp20
 70
     1
102
RTVSPropertyOp21
 70
     1
102
RTVSPropertyOp22
 70
     1
102
RTVSPropertyOp23
 70
     1
102
RTVSPropertyOp24
 70
     1
102
RTVSPropertyOp25
 70
     1
102
RTVSPropertyOp26
 70
     1
102
RTVSPropertyOp27
 70
     1
102
RTVSPropertyOp28
 70
     1
102
RTVSPropertyOp29
 70
     1
102
RTVSPropertyOp30
 70
     1
102
RTVSPropertyOp31
 70
     1
102
RTVSPropertyOp32
 70
     1
102
RTVSPropertyOp33
 70
     1
102
RTVSPropertyOp34
 70
     1
102
RTVSPropertyOp35
 70
     1
102
RTVSPropertyOp36
 70
     1
102
RTVSPropertyOp37
 70
     1
102
RTVSPropertyOp38
 70
     1
102
RTVSPropertyOp39
 70
     1
102
RTVSPropertyOp40
 70
     1
102
RTVSPropertyOp41
 70
     1
102
RTVSPropertyOp42
 70
     1
102
RTVSPropertyOp43
 70
     1
102
RTVSPropertyOp44
 70
     1
102
RTVSPropertyOp45
 70
     1
102
RTVSPropertyOp46
 70
     1
102
RTVSPropertyOp47
 70
     1
102
RTVSPropertyOp48
 70
     1
102
RTVSPropertyOp49
 70
     1
102
RTVSPropertyOp50
 70
     1
102
RTVSPropertyOp51
 70
     0
102
RTVSPropertyOp52
 70
     0
102
RTVSPropertyOp53
 70
     1
102
RTVSPropertyOp54
 70
     1
102
RTVSPropertyOp55
 70
     1
102
RTVSPropertyOp56
 70
     1
102
RTVSPropertyOp57
 70
     1
102
RTVSPropertyOp58
 70
     1
102
RTVSPropertyOp59
 70
     1
102
RTVSPropertyOp60
 70
     1
102
RTVSPropertyOp61
 70
     1
102
RTVSPropertyOp62
 70
     1
  0
ENDSEC
  0
EOF
