  0
SECTION
  2
HEADER
  9
$ACADVER
  1
AC1009
  9
$INSBASE
 10
0.0
 20
0.0
 30
0.0
  9
$EXTMIN
 10
-1800.1098548994739
 20
-2667.1201227911129
 30
-0.0015258207003583
  9
$EXTMAX
 10
1800.109871663281
 20
2685.4811651401669
 30
0.0000000349246037
  9
$LIMMIN
 10
0.0
 20
0.0
  9
$LIMMAX
 10
0.0
 20
0.0
  9
$ORTHOMODE
 70
     0
  9
$REGENMODE
 70
     1
  9
$FILLMODE
 70
     1
  9
$QTEXTMODE
 70
     0
  9
$MIRRTEXT
 70
     1
  9
$DRAGMODE
 70
     2
  9
$LTSCALE
 40
254.0
  9
$OSMODE
 70
   231
  9
$ATTMODE
 70
     1
  9
$TEXTSIZE
 40
0.0
  9
$TRACEWID
 40
1.0
  9
$TEXTSTYLE
  7
STANDARD
  9
$CLAYER
  8
DATA
  9
$CELTYPE
  6
BYLAYER
  9
$CECOLOR
 62
   256
  9
$DIMSCALE
 40
1.0
  9
$DIMASZ
 40
0.18
  9
$DIMEXO
 40
0.0625
  9
$DIMDLI
 40
0.38
  9
$DIMRND
 40
0.0
  9
$DIMDLE
 40
0.0
  9
$DIMEXE
 40
0.18
  9
$DIMTP
 40
0.0
  9
$DIMTM
 40
0.0
  9
$DIMTXT
 40
0.18
  9
$DIMCEN
 40
0.09
  9
$DIMTSZ
 40
0.0
  9
$DIMTOL
 70
     0
  9
$DIMLIM
 70
     0
  9
$DIMTIH
 70
     1
  9
$DIMTOH
 70
     1
  9
$DIMSE1
 70
     0
  9
$DIMSE2
 70
     0
  9
$DIMTAD
 70
     0
  9
$DIMZIN
 70
     0
  9
$DIMBLK
  1

  9
$DIMASO
 70
     1
  9
$DIMSHO
 70
     1
  9
$DIMPOST
  1

  9
$DIMAPOST
  1

  9
$DIMALT
 70
     0
  9
$DIMALTD
 70
     2
  9
$DIMALTF
 40
25.399999999999999
  9
$DIMLFAC
 40
1.0
  9
$DIMTOFL
 70
     0
  9
$DIMTVP
 40
0.0
  9
$DIMTIX
 70
     0
  9
$DIMSOXD
 70
     0
  9
$DIMSAH
 70
     0
  9
$DIMBLK1
  1

  9
$DIMBLK2
  1

  9
$DIMSTYLE
  2
STANDARD
  9
$DIMCLRD
 70
     0
  9
$DIMCLRE
 70
     0
  9
$DIMCLRT
 70
     0
  9
$DIMTFAC
 40
1.0
  9
$DIMGAP
 40
0.09
  9
$LUNITS
 70
     2
  9
$LUPREC
 70
     4
  9
$SKETCHINC
 40
0.1
  9
$FILLETRAD
 40
0.0
  9
$AUNITS
 70
     0
  9
$AUPREC
 70
     0
  9
$MENU
  1
acad
  9
$ELEVATION
 40
0.0
  9
$PELEVATION
 40
0.0
  9
$THICKNESS
 40
0.0
  9
$LIMCHECK
 70
     0
  9
$BLIPMODE
 70
     0
  9
$CHAMFERA
 40
0.0
  9
$CHAMFERB
 40
0.0
  9
$SKPOLY
 70
     0
  9
$TDCREATE
 40
2456479.6625231481
  9
$TDUPDATE
 40
2456479.6630248502
  9
$TDINDWG
 40
0.0003392014
  9
$TDUSRTIMER
 40
0.0003391319
  9
$USRTIMER
 70
     1
  9
$ANGBASE
 50
0.0
  9
$ANGDIR
 70
     0
  9
$PDMODE
 70
     1
  9
$PDSIZE
 40
-2.0
  9
$PLINEWID
 40
0.0
  9
$COORDS
 70
     2
  9
$SPLFRAME
 70
     0
  9
$SPLINETYPE
 70
     6
  9
$SPLINESEGS
 70
     8
  9
$ATTDIA
 70
     0
  9
$ATTREQ
 70
     1
  9
$HANDLING
 70
     1
  9
$HANDSEED
  5
3A2
  9
$SURFTAB1
 70
     6
  9
$SURFTAB2
 70
     6
  9
$SURFTYPE
 70
     6
  9
$SURFU
 70
     6
  9
$SURFV
 70
     6
  9
$UCSNAME
  2

  9
$UCSORG
 10
0.0
 20
0.0
 30
0.0
  9
$UCSXDIR
 10
1.0
 20
0.0
 30
0.0
  9
$UCSYDIR
 10
0.0
 20
1.0
 30
0.0
  9
$PUCSNAME
  2

  9
$PUCSORG
 10
0.0
 20
0.0
 30
0.0
  9
$PUCSXDIR
 10
1.0
 20
0.0
 30
0.0
  9
$PUCSYDIR
 10
0.0
 20
1.0
 30
0.0
  9
$USERI1
 70
     0
  9
$USERI2
 70
     0
  9
$USERI3
 70
     0
  9
$USERI4
 70
     0
  9
$USERI5
 70
     0
  9
$USERR1
 40
0.0
  9
$USERR2
 40
0.0
  9
$USERR3
 40
0.0
  9
$USERR4
 40
0.0
  9
$USERR5
 40
0.0
  9
$WORLDVIEW
 70
     1
  9
$SHADEDGE
 70
     3
  9
$SHADEDIF
 70
    70
  9
$TILEMODE
 70
     1
  9
$MAXACTVP
 70
    64
  9
$PLIMCHECK
 70
     0
  9
$PEXTMIN
 10
1.0000000000000000E+020
 20
1.0000000000000000E+020
 30
1.0000000000000000E+020
  9
$PEXTMAX
 10
-1.0000000000000000E+020
 20
-1.0000000000000000E+020
 30
-1.0000000000000000E+020
  9
$PLIMMIN
 10
0.0
 20
0.0
  9
$PLIMMAX
 10
12.0
 20
9.0
  9
$UNITMODE
 70
     0
  9
$VISRETAIN
 70
     0
  9
$PLINEGEN
 70
     1
  9
$PSLTSCALE
 70
     0
  0
ENDSEC
  0
SECTION
  2
TABLES
  0
TABLE
  2
VPORT
 70
     1
  0
VPORT
  2
*ACTIVE
 70
     0
 10
0.0
 20
0.0
 11
1.0
 21
1.0
 12
0.0000083819031715
 22
9.1805211745268025
 13
0.0
 23
0.0
 14
1.0
 24
1.0
 15
0.0
 25
0.0
 16
0.0
 26
0.0
 36
1.0
 17
0.0
 27
0.0
 37
0.0
 40
5393.934116409514
 41
2.1585051546391751
 42
50.0
 43
0.0
 44
0.0
 50
0.0
 51
0.0
 71
     0
 72
  2000
 73
     1
 74
     1
 75
     0
 76
     0
 77
     0
 78
     0
  0
ENDTAB
  0
TABLE
  2
LTYPE
 70
    13
  0
LTYPE
  2
CONTINUOUS
 70
     0
  3
Solid line
 72
    65
 73
     0
 40
0.0
  0
ENDTAB
  0
TABLE
  2
LAYER
 70
     5
  0
LAYER
  2
0
 70
     0
 62
     7
  6
CONTINUOUS
  0
LAYER
  2
DATA
 70
     0
 62
     7
  6
CONTINUOUS
  0
LAYER
  2
HIBINO-BASE
 70
     0
 62
     7
  6
CONTINUOUS
  0
LAYER
  2
SPEC
 70
     0
 62
     7
  6
CONTINUOUS
  0
LAYER
  2
DIMNSIONS
 70
     0
 62
     7
  6
CONTINUOUS
  0
ENDTAB
  0
TABLE
  2
STYLE
 70
     3
  0
STYLE
  2
STANDARD
 70
     0
 40
0.0
 41
1.0
 50
0.0
 71
     0
 42
0.0
  3
txt
  4
BIGFONT.SHX
  0
ENDTAB
  0
TABLE
  2
VIEW
 70
     0
  0
ENDTAB
  0
TABLE
  2
UCS
 70
     0
  0
ENDTAB
  0
TABLE
  2
APPID
 70
     4
  0
APPID
  2
ACAD
 70
     0
  0
APPID
  2
ACADANNOTATIVE
 70
     0
  0
APPID
  2
ACAD_NAV_VCDISPLAY
 70
     0
  0
APPID
  2
ACAD_MLEADERVER
 70
     0
  0
ENDTAB
  0
TABLE
  2
DIMSTYLE
 70
     2
  0
DIMSTYLE
  2
STANDARD
 70
     0
  3

  4

  5

  6

  7

 40
1.0
 41
0.18
 42
0.0625
 43
0.38
 44
0.18
 45
0.0
 46
0.0
 47
0.0
 48
0.0
140
0.18
141
0.09
142
0.0
143
25.399999999999999
144
1.0
145
0.0
146
1.0
147
0.09
 71
     0
 72
     0
 73
     1
 74
     1
 75
     0
 76
     0
 77
     0
 78
     0
170
     0
171
     2
172
     0
173
     0
174
     0
175
     0
176
     0
177
     0
178
     0
  0
ENDTAB
  0
ENDSEC
  0
SECTION
  2
BLOCKS
  0
BLOCK
  8
0
  2
$MODEL_SPACE
 70
     0
 10
0.0
 20
0.0
 30
0.0
  3
$MODEL_SPACE
  1

  0
ENDBLK
  5
32F
  8
0
  0
BLOCK
 67
     1
  8
0
  2
$PAPER_SPACE
 70
     0
 10
0.0
 20
0.0
 30
0.0
  3
$PAPER_SPACE
  1

  0
ENDBLK
  5
32B
 67
     1
  8
0
  0
ENDSEC
  0
SECTION
  2
ENTITIES
  0
LINE
  5
2E
  8
HIBINO-BASE
  6
CONTINUOUS
 62
     7
 10
-1799.9999999999991
 20
2685.3181500000001
 30
0.0
 11
1800.0
 21
2685.3181500000001
 31
0.0
  0
LINE
  5
2F
  8
HIBINO-BASE
  6
CONTINUOUS
 62
     7
 10
1800.0
 20
-2514.6818499999999
 30
0.0
 11
-1799.9999999999991
 21
-2514.6818499999999
 31
0.0
  0
LINE
  5
30
  8
HIBINO-BASE
  6
CONTINUOUS
 62
     7
 10
-1799.9999999999991
 20
-2514.6818499999999
 30
0.0
 11
-1799.9999999999991
 21
2685.3181500000001
 31
0.0
  0
LINE
  5
31
  8
HIBINO-BASE
  6
CONTINUOUS
 62
     7
 10
1800.0
 20
2685.3181500000001
 30
0.0
 11
1800.0
 21
-2514.6818499999999
 31
0.0
  0
LINE
  5
32
  8
HIBINO-BASE
  6
CONTINUOUS
 62
     7
 10
0.0000000000002179
 20
-2064.6818499999999
 30
0.0
 11
1800.0
 21
-2064.6818499999999
 31
0.0
  0
LINE
  5
33
  8
HIBINO-BASE
  6
CONTINUOUS
 62
     7
 10
0.0000000000002179
 20
-2514.6818499999999
 30
0.0
 11
0.0000000000002179
 21
-2064.6818499999999
 31
0.0
  0
TEXT
  5
34
  8
HIBINO-BASE
 62
     7
 10
18.00000000000032
 20
-2114.8557166666669
 30
0.0
 40
32.576822916666671
  1
NOTE
 41
0.7
 11
18.00000000000033
 21
-2082.27889375
 31
0.0
 73
     3
  0
LINE
  5
35
  8
HIBINO-BASE
  6
CONTINUOUS
 62
     7
 10
700.00000000000045
 20
-2514.6818499999999
 30
0.0
 11
700.00000000000045
 21
-2064.6818499999999
 31
0.0
  0
TEXT
  5
36
  8
HIBINO-BASE
 62
     7
 10
718.0
 20
-2114.8557166666669
 30
0.0
 40
32.576822916666671
  1
TITLE
 41
0.7
 11
718.0
 21
-2082.27889375
 31
0.0
 73
     3
  0
LINE
  5
37
  8
HIBINO-BASE
  6
CONTINUOUS
 62
     7
 10
0.0000000000002179
 20
-2314.6818499999999
 30
0.0
 11
1800.0
 21
-2314.6818499999999
 31
0.0
  0
TEXT
  5
38
  8
HIBINO-BASE
 62
     7
 10
967.99999999999955
 20
-2363.7293166666659
 30
0.0
 40
32.576822916666671
  1
DRAWN
 41
0.7
 11
967.99999999999955
 21
-2331.1524937499989
 31
0.0
 73
     3
  0
TEXT
  5
39
  8
HIBINO-BASE
 62
     7
 10
468.0
 20
-2363.7293166666659
 30
0.0
 40
32.576822916666671
  1
DATE
 41
0.7
 11
468.0
 21
-2331.1524937499989
 31
0.0
 73
     3
  0
TEXT
  5
3A
  8
HIBINO-BASE
 62
     7
 10
268.00000000000011
 20
-2363.7293166666659
 30
0.0
 40
32.576822916666671
  1
SCALE
 41
0.7
 11
268.00000000000011
 21
-2331.1524937499989
 31
0.0
 73
     3
  0
TEXT
  5
3B
  8
HIBINO-BASE
 62
     7
 10
718.0
 20
-2363.7293166666659
 30
0.0
 40
32.576822916666671
  1
DESIGN
 41
0.7
 11
718.0
 21
-2331.1524937499989
 31
0.0
 73
     3
  0
TEXT
  5
3C
  8
HIBINO-BASE
 62
     7
 10
1468.0
 20
-2363.7293166666659
 30
0.0
 40
32.576822916666671
  1
DRAWING NO.
 41
0.7
 11
1468.0
 21
-2331.1524937499989
 31
0.0
 73
     3
  0
TEXT
  5
3D
  8
HIBINO-BASE
 62
     7
 10
1218.0
 20
-2363.7293166666659
 30
0.0
 40
32.576822916666671
  1
CHECK
 41
0.7
 11
1218.0
 21
-2331.1524937499989
 31
0.0
 73
     3
  0
LINE
  5
3E
  8
HIBINO-BASE
  6
CONTINUOUS
 62
     7
 10
287.50000000000023
 20
-2489.6818499999999
 30
0.0
 11
362.50000000000051
 21
-2414.6818499999999
 31
0.0
  0
TEXT
  5
3F
  8
HIBINO-BASE
 62
     7
 10
275.00000000000023
 20
-2436.860716666667
 30
0.0
 40
32.576822916666671
  1
1
 41
0.7
 11
275.00000000000023
 21
-2404.2838937500001
 31
0.0
 73
     3
  0
LINE
  5
40
  8
HIBINO-BASE
  6
CONTINUOUS
 62
     7
 10
250.00000000000031
 20
-2514.6818499999999
 30
0.0
 11
250.00000000000031
 21
-2314.6818499999999
 31
0.0
  0
LINE
  5
41
  8
HIBINO-BASE
  6
CONTINUOUS
 62
     7
 10
449.99999999999989
 20
-2514.6818499999999
 30
0.0
 11
449.99999999999989
 21
-2314.6818499999999
 31
0.0
  0
LINE
  5
42
  8
HIBINO-BASE
  6
CONTINUOUS
 62
     7
 10
949.99999999999955
 20
-2314.6818499999999
 30
0.0
 11
949.99999999999955
 21
-2514.6818499999999
 31
0.0
  0
LINE
  5
43
  8
HIBINO-BASE
  6
CONTINUOUS
 62
     7
 10
1450.0000000000009
 20
-2314.6818499999999
 30
0.0
 11
1450.0000000000009
 21
-2514.6818499999999
 31
0.0
  0
LINE
  5
44
  8
HIBINO-BASE
  6
CONTINUOUS
 62
     7
 10
1200.0
 20
-2514.6818499999999
 30
0.0
 11
1200.0
 21
-2314.6818499999999
 31
0.0
  0
TEXT
  5
45
  8
HIBINO-BASE
 62
     7
 10
467.13080000000031
 20
-2457.4089166666649
 30
0.0
 40
32.576822916666671
  1
'13.07.
 41
0.7
 11
467.13080000000031
 21
-2424.8320937499989
 31
0.0
 73
     3
  0
TEXT
  5
46
  8
HIBINO-BASE
 62
     7
 10
350.00000000000023
 20
-2474.360716666667
 30
0.0
 40
32.576822916666671
  1
20
 41
0.7
 11
350.00000000000023
 21
-2441.7838937500001
 31
0.0
 73
     3
  0
TEXT
  5
47
  8
HIBINO-BASE
 62
     7
 10
980.11620022069235
 20
-2457.4089166666649
 30
0.0
 40
32.576822916666671
  1
N.Sasaki
 41
0.7
 11
980.11620022069235
 21
-2424.8320937499989
 31
0.0
 73
     3
  0
TEXT
  5
48
  8
HIBINO-BASE
 62
     7
 10
77.666666666667297
 20
-2475.16185
 30
0.0
 40
65.153645833333329
  1
A4
 41
0.7
 11
77.666666666667297
 21
-2410.0082041666669
 31
0.0
 73
     3
  0
TEXT
  5
49
  8
HIBINO-BASE
 62
     7
 10
19.166666666666782
 20
-2367.0709499999998
 30
0.0
 40
32.576822916666671
  1
PAPER SIZE
 41
0.7
 11
19.166666666666789
 21
-2334.4941270833328
 31
0.0
 73
     3
  0
TEXT
  5
4A
  8
HIBINO-BASE
 62
     7
 10
-1656.319999999999
 20
-2642.855406000001
 30
0.0
 40
72.000883593749975
  1
Hibino Corporation
 41
0.7
 11
-1656.319999999999
 21
-2570.85452240625
 31
0.0
 73
     3
  0
TEXT
  5
4B
  8
HIBINO-BASE
 62
     7
 10
1001.3678
 20
-2642.855406000001
 30
0.0
 40
72.000883593749975
  1
ヒビノ株式会社
 41
0.7
 11
1001.3678
 21
-2570.85452240625
 31
0.0
 73
     3
  0
LINE
  5
4C
  8
SPEC
  6
CONTINUOUS
 62
     7
 10
-1649.9999999999991
 20
2461.0332633333328
 30
0.0
 11
1300.0
 21
2461.0332633333328
 31
0.0
  0
LINE
  5
4D
  8
SPEC
  6
CONTINUOUS
 62
     7
 10
-1649.9999999999991
 20
2386.0332633333328
 30
0.0
 11
1300.0
 21
2386.0332633333328
 31
0.0
  0
LINE
  5
4E
  8
SPEC
  6
CONTINUOUS
 62
     7
 10
-1649.9999999999991
 20
2086.0332633333319
 30
0.0
 11
1300.0
 21
2086.0332633333319
 31
0.0
  0
LINE
  5
4F
  8
SPEC
  6
CONTINUOUS
 62
     7
 10
-1649.9999999999991
 20
2161.0332633333328
 30
0.0
 11
1300.0
 21
2161.0332633333328
 31
0.0
  0
LINE
  5
50
  8
SPEC
  6
CONTINUOUS
 62
     7
 10
-1649.9999999999991
 20
2236.0332633333319
 30
0.0
 11
1300.0
 21
2236.0332633333319
 31
0.0
  0
LINE
  5
51
  8
SPEC
  6
CONTINUOUS
 62
     7
 10
-1649.9999999999991
 20
2311.0332633333328
 30
0.0
 11
1300.0
 21
2311.0332633333328
 31
0.0
  0
LINE
  5
52
  8
SPEC
  6
CONTINUOUS
 62
     7
 10
-1649.9999999999991
 20
2461.0332633333328
 30
0.0
 11
-1649.9999999999991
 21
1636.0332633333319
 31
0.0
  0
TEXT
  5
53
  8
SPEC
 62
     7
 10
-1624.9999999999991
 20
2488.898663333332
 30
0.0
 40
48.865234375000007
  1
仕様
 41
0.7
 11
-1624.9999999999991
 21
2537.763897708332
 31
0.0
 73
     3
  0
LINE
  5
54
  8
SPEC
  6
CONTINUOUS
 62
     7
 10
-999.99999999999943
 20
2461.0332633333328
 30
0.0
 11
-999.99999999999943
 21
1636.0332633333319
 31
0.0
  0
LINE
  5
55
  8
SPEC
  6
CONTINUOUS
 62
     7
 10
1300.0
 20
2461.0332633333328
 30
0.0
 11
1300.0
 21
1636.0332633333319
 31
0.0
  0
LINE
  5
56
  8
SPEC
  6
CONTINUOUS
 62
     7
 10
-1649.9999999999991
 20
2011.033263333333
 30
0.0
 11
1300.0
 21
2011.033263333333
 31
0.0
  0
LINE
  5
57
  8
SPEC
  6
CONTINUOUS
 62
     7
 10
-1649.9999999999991
 20
1711.0332633333319
 30
0.0
 11
1300.0
 21
1711.0332633333319
 31
0.0
  0
LINE
  5
58
  8
SPEC
  6
CONTINUOUS
 62
     7
 10
-1649.9999999999991
 20
1786.0332633333319
 30
0.0
 11
1300.0
 21
1786.0332633333319
 31
0.0
  0
LINE
  5
59
  8
SPEC
  6
CONTINUOUS
 62
     7
 10
-1649.9999999999991
 20
1636.0332633333319
 30
0.0
 11
1300.0
 21
1636.0332633333319
 31
0.0
  0
LINE
  5
5A
  8
SPEC
  6
CONTINUOUS
 62
     7
 10
-1649.9999999999991
 20
1936.033263333333
 30
0.0
 11
1300.0
 21
1936.033263333333
 31
0.0
  0
LINE
  5
5B
  8
SPEC
  6
CONTINUOUS
 62
     7
 10
-1649.9999999999991
 20
1861.033263333333
 30
0.0
 11
1300.0
 21
1861.033263333333
 31
0.0
  0
TEXT
  5
5C
  8
SPEC
 62
     7
 10
-976.70326603645913
 20
1658.631681999999
 30
0.0
 40
38.006224999999993
  1
78kg
 41
0.7
 11
-976.70326603645913
 21
1696.6379069999989
 31
0.0
 73
     3
  0
TEXT
  5
5D
  8
SPEC
 62
     7
 10
-1631.9999999999991
 20
2176.791618888888
 30
0.0
 40
38.006293402777779
  1
感度(1W、1m)
 41
0.7
 11
-1631.9999999999991
 21
2214.7979122916659
 31
0.0
 73
     3
  0
TEXT
  5
5E
  8
SPEC
 62
     7
 10
-1631.9999999999991
 20
2251.7916188888871
 30
0.0
 40
38.006293402777779
  1
最大音圧レベル
 41
0.7
 11
-1631.9999999999991
 21
2289.7979122916649
 31
0.0
 73
     3
  0
TEXT
  5
5F
  8
SPEC
 62
     7
 10
-981.99999999999909
 20
2401.7916188888871
 30
0.0
 40
38.006293402777779
  1
サブウーファー
 41
0.7
 11
-981.99999999999909
 21
2439.7979122916649
 31
0.0
 73
     3
  0
TEXT
  5
60
  8
SPEC
 62
     7
 10
-1631.9999999999991
 20
2401.7916188888871
 30
0.0
 40
38.006293402777779
  1
形式
 41
0.7
 11
-1631.9999999999991
 21
2439.7979122916649
 31
0.0
 73
     3
  0
TEXT
  5
61
  8
SPEC
 62
     7
 10
-1631.9999999999991
 20
2326.7916188888871
 30
0.0
 40
38.006293402777779
  1
周波数レンジ(-10dB)
 41
0.7
 11
-1631.9999999999991
 21
2364.7979122916649
 31
0.0
 73
     3
  0
TEXT
  5
62
  8
SPEC
 62
     7
 10
-981.99999999999909
 20
2176.791618888888
 30
0.0
 40
38.006293402777779
  1
99dB SPL
 41
0.7
 11
-981.99999999999909
 21
2214.7979122916659
 31
0.0
 73
     3
  0
TEXT
  5
63
  8
SPEC
 62
     7
 10
-981.99999999999909
 20
2326.7916188888871
 30
0.0
 40
38.006293402777779
  1
32Hz～250Hz
 41
0.7
 11
-981.99999999999909
 21
2364.7979122916649
 31
0.0
 73
     3
  0
TEXT
  5
64
  8
SPEC
 62
     7
 10
-981.99999999999909
 20
2101.791618888888
 30
0.0
 40
38.006293402777779
  1
4\U+03A9/8\U+03A9\U+00D72(内部ジャンパー切替で2個のドライバーを個別にドライブ可能)
 41
0.7
 11
-981.99999999999909
 21
2139.7979122916649
 31
0.0
 73
     3
  0
TEXT
  5
65
  8
SPEC
 62
     7
 10
-981.99999999999909
 20
1951.7916188888869
 30
0.0
 40
38.006293402777779
  1
460mm(2242H)\U+00D72
 41
0.7
 11
-981.99999999999909
 21
1989.7979122916649
 31
0.0
 73
     3
  0
TEXT
  5
66
  8
SPEC
 62
     7
 10
-981.99999999999909
 20
2026.7916188888869
 30
0.0
 40
38.006293402777779
  1
2,000W(連続)、8,000W(ピーク)
 41
0.7
 11
-981.99999999999909
 21
2064.7979122916659
 31
0.0
 73
     3
  0
TEXT
  5
67
  8
SPEC
 62
     7
 10
-1631.9999999999991
 20
2101.791618888888
 30
0.0
 40
38.006293402777779
  1
公称インピーダンス
 41
0.7
 11
-1631.9999999999991
 21
2139.7979122916649
 31
0.0
 73
     3
  0
TEXT
  5
68
  8
SPEC
 62
     7
 10
-1631.9999999999991
 20
2026.7916188888869
 30
0.0
 40
38.006293402777779
  1
許容入力
 41
0.7
 11
-1631.9999999999991
 21
2064.7979122916659
 31
0.0
 73
     3
  0
TEXT
  5
69
  8
SPEC
 62
     7
 10
-1631.9999999999991
 20
1951.7916188888869
 30
0.0
 40
38.006293402777779
  1
ドライバー構成
 41
0.7
 11
-1631.9999999999991
 21
1989.7979122916649
 31
0.0
 73
     3
  0
TEXT
  5
6A
  8
SPEC
 62
     7
 10
-981.99999999999909
 20
2251.7916188888871
 30
0.0
 40
38.006293402777779
  1
138dB SPL(ピーク)
 41
0.7
 11
-981.99999999999909
 21
2289.7979122916649
 31
0.0
 73
     3
  0
TEXT
  5
6B
  8
SPEC
 62
     7
 10
-1631.9999999999991
 20
1801.791618888888
 30
0.0
 40
38.006293402777779
  1
エンクロージャー
 41
0.7
 11
-1631.9999999999991
 21
1839.7979122916649
 31
0.0
 73
     3
  0
TEXT
  5
6C
  8
SPEC
 62
     7
 10
-981.99999999999909
 20
1801.791618888888
 30
0.0
 40
38.006293402777779
  1
18mmカバ/ポプラ合板、黒、DuraFlex仕上げ
 41
0.7
 11
-981.99999999999909
 21
1839.7979122916649
 31
0.0
 73
     3
  0
TEXT
  5
6D
  8
SPEC
 62
     7
 10
-981.99999999999909
 20
1726.791618888888
 30
0.0
 40
38.006293402777779
  1
1135\U+00D7565\U+00D7710mm(除突起部)
 41
0.7
 11
-981.99999999999909
 21
1764.7979122916649
 31
0.0
 73
     3
  0
TEXT
  5
6E
  8
SPEC
 62
     7
 10
-1632.0
 20
1651.7916633333321
 30
0.0
 40
38.006293402777779
  1
質量
 41
0.7
 11
-1632.0
 21
1689.7979567361101
 31
0.0
 73
     3
  0
TEXT
  5
6F
  8
SPEC
 62
     7
 10
-981.99999999999909
 20
1876.7916188888869
 30
0.0
 40
38.006293402777779
  1
4Pスピコン\U+00D72
 41
0.7
 11
-981.99999999999909
 21
1914.7979122916649
 31
0.0
 73
     3
  0
TEXT
  5
70
  8
SPEC
 62
     7
 10
-1631.9999999999991
 20
1876.7916188888869
 30
0.0
 40
38.006293402777779
  1
入力端子
 41
0.7
 11
-1631.9999999999991
 21
1914.7979122916649
 31
0.0
 73
     3
  0
TEXT
  5
71
  8
SPEC
 62
     7
 10
-1631.9999999999991
 20
1726.791618888888
 30
0.0
 40
38.006293402777779
  1
寸法(W\U+00D7H\U+00D7D)
 41
0.7
 11
-1631.9999999999991
 21
1764.7979122916649
 31
0.0
 73
     3
  0
LINE
  5
72
  8
DIMNSIONS
  6
CONTINUOUS
 62
     7
 10
-448.54101966249698
 20
-435.0
 30
0.0
 11
-310.0
 21
-435.0
 31
0.0
  0
LINE
  5
73
  8
DIMNSIONS
  6
CONTINUOUS
 62
     7
 10
-448.54101966249698
 20
-1000.0
 30
0.0
 11
-310.0
 21
-1000.0
 31
0.0
  0
LINE
  5
74
  8
DIMNSIONS
  6
CONTINUOUS
 62
     7
 10
-350.0
 20
-435.0
 30
0.0
 11
-350.0
 21
-1000.0
 31
0.0
  0
LINE
  5
75
  8
DIMNSIONS
  6
CONTINUOUS
 62
     7
 10
-350.0
 20
-435.0
 30
0.0
 11
-336.59920409699521
 21
-485.012451171875
 31
0.0
  0
LINE
  5
76
  8
DIMNSIONS
  6
CONTINUOUS
 62
     7
 10
-350.0
 20
-435.0
 30
0.0
 11
-363.40079590300491
 21
-485.012451171875
 31
0.0
  0
LINE
  5
77
  8
DIMNSIONS
  6
CONTINUOUS
 62
     7
 10
-350.0
 20
-1000.0
 30
0.0
 11
-363.40079590300491
 21
-949.98754882812489
 31
0.0
  0
LINE
  5
78
  8
DIMNSIONS
  6
CONTINUOUS
 62
     7
 10
-350.0
 20
-1000.0
 30
0.0
 11
-336.59920409699521
 21
-949.98754882812489
 31
0.0
  0
TEXT
  5
79
  8
DIMNSIONS
 62
     7
 10
-369.87777777777768
 20
-770.41666666666674
 30
0.0
 40
54.294704861111107
  1
565
 50
90.0
 41
0.7
 11
-424.17248263888882
 21
-770.41666666666674
 31
0.0
 73
     3
  0
LINE
  5
7A
  8
DIMNSIONS
  6
CONTINUOUS
 62
     7
 10
-460.5
 20
-1004.0
 30
0.0
 11
-310.0
 21
-1004.0
 31
0.0
  0
LINE
  5
7B
  8
DIMNSIONS
  6
CONTINUOUS
 62
     7
 10
-448.54101966249698
 20
-1000.0
 30
0.0
 11
-310.0
 21
-1000.0
 31
0.0
  0
LINE
  5
7C
  8
DIMNSIONS
  6
CONTINUOUS
 62
     7
 10
-350.0
 20
-1000.0
 30
0.0
 11
-350.0
 21
-1004.0
 31
0.0
  0
LINE
  5
7D
  8
DIMNSIONS
  6
CONTINUOUS
 62
     7
 10
-350.0
 20
-1004.0
 30
0.0
 11
-350.0
 21
-1160.75
 31
0.0
  0
LINE
  5
7E
  8
DIMNSIONS
  6
CONTINUOUS
 62
     7
 10
-350.0
 20
-1004.0
 30
0.0
 11
-336.59920409699521
 21
-1054.012451171875
 31
0.0
  0
LINE
  5
7F
  8
DIMNSIONS
  6
CONTINUOUS
 62
     7
 10
-350.0
 20
-1004.0
 30
0.0
 11
-363.40079590300491
 21
-1054.012451171875
 31
0.0
  0
LINE
  5
80
  8
DIMNSIONS
  6
CONTINUOUS
 62
     7
 10
-350.0
 20
-1000.0
 30
0.0
 11
-350.0
 21
-900.0
 31
0.0
  0
LINE
  5
81
  8
DIMNSIONS
  6
CONTINUOUS
 62
     7
 10
-350.0
 20
-1000.0
 30
0.0
 11
-363.40079590300491
 21
-949.98754882812489
 31
0.0
  0
LINE
  5
82
  8
DIMNSIONS
  6
CONTINUOUS
 62
     7
 10
-350.0
 20
-1000.0
 30
0.0
 11
-336.59920409699521
 21
-949.98754882812489
 31
0.0
  0
TEXT
  5
83
  8
DIMNSIONS
 62
     7
 10
-369.87777777777768
 20
-1160.75
 30
0.0
 40
54.294704861111107
  1
4.0
 50
90.0
 41
0.7
 11
-424.17248263888882
 21
-1160.75
 31
0.0
 73
     3
  0
LINE
  5
84
  8
DIMNSIONS
  6
CONTINUOUS
 62
     7
 10
-1600.0
 20
-1015.0
 30
0.0
 11
-1600.0
 21
-1190.0
 31
0.0
  0
LINE
  5
85
  8
DIMNSIONS
  6
CONTINUOUS
 62
     7
 10
-465.0
 20
-1015.0
 30
0.0
 11
-465.0
 21
-1190.0
 31
0.0
  0
LINE
  5
86
  8
DIMNSIONS
  6
CONTINUOUS
 62
     7
 10
-1600.0
 20
-1150.0
 30
0.0
 11
-465.0
 21
-1150.0
 31
0.0
  0
LINE
  5
87
  8
DIMNSIONS
  6
CONTINUOUS
 62
     7
 10
-1600.0
 20
-1150.0
 30
0.0
 11
-1549.987548828125
 21
-1136.599204096995
 31
0.0
  0
LINE
  5
88
  8
DIMNSIONS
  6
CONTINUOUS
 62
     7
 10
-1600.0
 20
-1150.0
 30
0.0
 11
-1549.987548828125
 21
-1163.400795903005
 31
0.0
  0
LINE
  5
89
  8
DIMNSIONS
  6
CONTINUOUS
 62
     7
 10
-465.0
 20
-1150.0
 30
0.0
 11
-515.01245117187489
 21
-1163.400795903005
 31
0.0
  0
LINE
  5
8A
  8
DIMNSIONS
  6
CONTINUOUS
 62
     7
 10
-465.0
 20
-1150.0
 30
0.0
 11
-515.01245117187489
 21
-1136.599204096995
 31
0.0
  0
TEXT
  5
8B
  8
DIMNSIONS
 62
     7
 10
-1103.055555555555
 20
-1130.122222222222
 30
0.0
 40
54.294704861111107
  1
1135
 41
0.7
 11
-1103.055555555555
 21
-1075.82751736111
 31
0.0
 73
     3
  0
LINE
  5
8C
  8
DIMNSIONS
  6
CONTINUOUS
 62
     7
 10
-250.0
 20
-1015.0
 30
0.0
 11
-250.0
 21
-1190.0
 31
0.0
  0
LINE
  5
8D
  8
DIMNSIONS
  6
CONTINUOUS
 62
     7
 10
460.0
 20
-1015.0
 30
0.0
 11
460.0
 21
-1190.0
 31
0.0
  0
LINE
  5
8E
  8
DIMNSIONS
  6
CONTINUOUS
 62
     7
 10
-250.0
 20
-1150.0
 30
0.0
 11
460.0
 21
-1150.0
 31
0.0
  0
LINE
  5
8F
  8
DIMNSIONS
  6
CONTINUOUS
 62
     7
 10
-250.0
 20
-1150.0
 30
0.0
 11
-199.987548828125
 21
-1136.599204096995
 31
0.0
  0
LINE
  5
90
  8
DIMNSIONS
  6
CONTINUOUS
 62
     7
 10
-250.0
 20
-1150.0
 30
0.0
 11
-199.987548828125
 21
-1163.400795903005
 31
0.0
  0
LINE
  5
91
  8
DIMNSIONS
  6
CONTINUOUS
 62
     7
 10
460.0
 20
-1150.0
 30
0.0
 11
409.987548828125
 21
-1163.400795903005
 31
0.0
  0
LINE
  5
92
  8
DIMNSIONS
  6
CONTINUOUS
 62
     7
 10
460.0
 20
-1150.0
 30
0.0
 11
409.987548828125
 21
-1136.599204096995
 31
0.0
  0
TEXT
  5
93
  8
DIMNSIONS
 62
     7
 10
52.083333333333329
 20
-1130.122222222222
 30
0.0
 40
54.294704861111107
  1
710
 41
0.7
 11
52.083333333333329
 21
-1075.82751736111
 31
0.0
 73
     3
  0
LINE
  5
94
  8
DIMNSIONS
  6
CONTINUOUS
 62
     7
 10
-495.4946177717174
 20
-200.0
 30
0.0
 11
-310.0
 21
-200.0
 31
0.0
  0
LINE
  5
95
  8
DIMNSIONS
  6
CONTINUOUS
 62
     7
 10
-485.0
 20
510.0
 30
0.0
 11
-310.0
 21
510.0
 31
0.0
  0
LINE
  5
96
  8
DIMNSIONS
  6
CONTINUOUS
 62
     7
 10
-350.0
 20
-200.0
 30
0.0
 11
-350.0
 21
510.0
 31
0.0
  0
LINE
  5
97
  8
DIMNSIONS
  6
CONTINUOUS
 62
     7
 10
-350.0
 20
-200.0
 30
0.0
 11
-363.40079590300491
 21
-149.987548828125
 31
0.0
  0
LINE
  5
98
  8
DIMNSIONS
  6
CONTINUOUS
 62
     7
 10
-350.0
 20
-200.0
 30
0.0
 11
-336.59920409699521
 21
-149.987548828125
 31
0.0
  0
LINE
  5
99
  8
DIMNSIONS
  6
CONTINUOUS
 62
     7
 10
-350.0
 20
510.0
 30
0.0
 11
-336.59920409699521
 21
459.987548828125
 31
0.0
  0
LINE
  5
9A
  8
DIMNSIONS
  6
CONTINUOUS
 62
     7
 10
-350.0
 20
510.0
 30
0.0
 11
-363.40079590300491
 21
459.987548828125
 31
0.0
  0
TEXT
  5
9B
  8
DIMNSIONS
 62
     7
 10
-369.87777777777768
 20
102.0833333333333
 30
0.0
 40
54.294704861111107
  1
710
 50
90.0
 41
0.7
 11
-424.17248263888882
 21
102.0833333333333
 31
0.0
 73
     3
  0
TEXT
  5
9C
  8
DIMNSIONS
 62
     7
 10
-399.99999999999977
 20
-2269.29205
 30
0.0
 40
48.865234375000007
  1
(単位：mm)
 41
0.7
 11
-399.99999999999977
 21
-2220.426815625
 31
0.0
 73
     3
  0
TEXT
  5
9D
  8
DATA
 62
     7
 10
911.94444444444446
 20
1224.5999999999999
 30
0.0
 40
54.294704861111107
  1
コネクターパネル拡大図
 41
0.7
 11
911.94444444444446
 21
1278.894704861111
 31
0.0
 73
     3
  0
LINE
  5
9E
  8
DATA
  6
CONTINUOUS
 62
     7
 10
900.0
 20
1200.0
 30
0.0
 11
1700.0
 21
1200.0
 31
0.0
  0
LINE
  5
9F
  8
DATA
  6
CONTINUOUS
 62
     7
 10
-1600.0
 20
-1351.9569842683759
 30
0.0
 11
-1600.0
 21
-1985.0
 31
0.0
  0
LINE
  5
A0
  8
DATA
  6
CONTINUOUS
 62
     7
 10
-1575.0
 20
-1363.551958049004
 30
0.0
 11
-1575.0
 21
-1960.0
 31
0.0
  0
LINE
  5
A1
  8
DATA
  6
CONTINUOUS
 62
     7
 10
-535.49461777171757
 20
-1290.0
 30
0.0
 11
-1529.5053822282821
 21
-1290.0
 31
0.0
  0
LINE
  5
A2
  8
DATA
  6
CONTINUOUS
 62
     7
 10
-544.65231405791371
 20
-1315.0
 30
0.0
 11
-1520.3476859420859
 21
-1315.0
 31
0.0
  0
LINE
  5
A3
  8
DATA
  6
CONTINUOUS
 62
     7
 10
-1539.194515850274
 20
-1293.5492057194631
 30
0.0
 11
-1594.6891336219919
 21
-1340.506189987839
 31
0.0
  0
LINE
  5
A4
  8
DATA
  6
CONTINUOUS
 62
     7
 10
-1530.0368195640781
 20
-1318.5492057194631
 30
0.0
 11
-1569.6891336219919
 21
-1352.1011637684669
 31
0.0
  0
LINE
  5
A5
  8
DATA
  6
CONTINUOUS
 62
     7
 10
-525.80548414972498
 20
-1293.5492057194631
 30
0.0
 11
-470.31086637800769
 21
-1340.506189987839
 31
0.0
  0
LINE
  5
A6
  8
DATA
  6
CONTINUOUS
 62
     7
 10
-534.96318043592134
 20
-1318.5492057194631
 30
0.0
 11
-495.31086637800769
 21
-1352.1011637684669
 31
0.0
  0
LINE
  5
A7
  8
DATA
  6
CONTINUOUS
 62
     7
 10
-465.0
 20
-1985.0
 30
0.0
 11
-465.0
 21
-1351.9569842683759
 31
0.0
  0
LINE
  5
A8
  8
DATA
  6
CONTINUOUS
 62
     7
 10
-490.0
 20
-1960.0
 30
0.0
 11
-490.0
 21
-1363.551958049004
 31
0.0
  0
LINE
  5
A9
  8
DATA
  6
CONTINUOUS
 62
     7
 10
-1585.0
 20
-2000.0
 30
0.0
 11
-480.0
 21
-2000.0
 31
0.0
  0
LINE
  5
AA
  8
DATA
  6
CONTINUOUS
 62
     7
 10
-1560.0
 20
-1975.0
 30
0.0
 11
-505.0
 21
-1975.0
 31
0.0
  0
ARC
  5
AB
  8
DATA
  6
CONTINUOUS
 62
     7
 10
-1585.0
 20
-1985.0
 30
0.0
 40
15.0
 50
180.0
 51
270.0
  0
ARC
  5
AC
  8
DATA
  6
CONTINUOUS
 62
     7
 10
-1585.0
 20
-1351.9569842683759
 30
0.0
 40
14.999999999999989
 50
130.23635830927259
 51
179.9999999999992
  0
ARC
  5
AD
  8
DATA
  6
CONTINUOUS
 62
     7
 10
-1529.5053822282821
 20
-1305.0
 30
0.0
 40
15.0
 50
90.0
 51
130.23635830927319
  0
ARC
  5
AE
  8
DATA
  6
CONTINUOUS
 62
     7
 10
-535.49461777171757
 20
-1305.0
 30
0.0
 40
14.999999999999821
 50
49.763641690726779
 51
90.0
  0
ARC
  5
AF
  8
DATA
  6
CONTINUOUS
 62
     7
 10
-480.0
 20
-1351.9569842683759
 30
0.0
 40
15.0
 50
0.0000000000008527
 51
49.763641690727361
  0
ARC
  5
B0
  8
DATA
  6
CONTINUOUS
 62
     7
 10
-480.0
 20
-1985.0
 30
0.0
 40
15.0
 50
270.0
 51
0.0
  0
ARC
  5
B1
  8
DATA
  6
CONTINUOUS
 62
     7
 10
-505.0
 20
-1960.0
 30
0.0
 40
15.0
 50
270.0
 51
0.0
  0
ARC
  5
B2
  8
DATA
  6
CONTINUOUS
 62
     7
 10
-1560.0
 20
-1960.0
 30
0.0
 40
15.0
 50
180.0
 51
270.0
  0
ARC
  5
B3
  8
DATA
  6
CONTINUOUS
 62
     7
 10
-1560.0
 20
-1363.551958049004
 30
0.0
 40
14.999999999999989
 50
130.23635830927259
 51
179.9999999999992
  0
ARC
  5
B4
  8
DATA
  6
CONTINUOUS
 62
     7
 10
-1520.3476859420859
 20
-1330.0
 30
0.0
 40
15.0
 50
90.0
 51
130.23635830927319
  0
ARC
  5
B5
  8
DATA
  6
CONTINUOUS
 62
     7
 10
-544.65231405791371
 20
-1330.0
 30
0.0
 40
14.999999999999821
 50
49.763641690726779
 51
90.0
  0
ARC
  5
B6
  8
DATA
  6
CONTINUOUS
 62
     7
 10
-505.0
 20
-1363.551958049004
 30
0.0
 40
15.0
 50
0.0000000000008527
 51
49.763641690727361
  0
CIRCLE
  5
B7
  8
DATA
  6
CONTINUOUS
 62
     7
 10
-1545.0
 20
-1940.0
 30
0.0
 40
20.000000000000071
  0
CIRCLE
  5
B8
  8
DATA
  6
CONTINUOUS
 62
     7
 10
-1545.0
 20
-1940.0
 30
0.0
 40
10.00000000000021
  0
CIRCLE
  5
B9
  8
DATA
  6
CONTINUOUS
 62
     7
 10
-1545.0
 20
-1940.0
 30
0.0
 40
5.4999999999996518
  0
CIRCLE
  5
BA
  8
DATA
  6
CONTINUOUS
 62
     7
 10
-520.0
 20
-1940.0
 30
0.0
 40
20.000000000000071
  0
CIRCLE
  5
BB
  8
DATA
  6
CONTINUOUS
 62
     7
 10
-520.0
 20
-1940.0
 30
0.0
 40
10.00000000000021
  0
CIRCLE
  5
BC
  8
DATA
  6
CONTINUOUS
 62
     7
 10
-520.0
 20
-1940.0
 30
0.0
 40
5.4999999999996518
  0
CIRCLE
  5
BD
  8
DATA
  6
CONTINUOUS
 62
     7
 10
-1544.5
 20
-1368.0
 30
0.0
 40
20.000000000000071
  0
CIRCLE
  5
BE
  8
DATA
  6
CONTINUOUS
 62
     7
 10
-1544.5
 20
-1368.0
 30
0.0
 40
10.00000000000021
  0
CIRCLE
  5
BF
  8
DATA
  6
CONTINUOUS
 62
     7
 10
-1544.5
 20
-1368.0
 30
0.0
 40
5.4999999999996518
  0
CIRCLE
  5
C0
  8
DATA
  6
CONTINUOUS
 62
     7
 10
-520.5
 20
-1368.0
 30
0.0
 40
20.000000000000071
  0
CIRCLE
  5
C1
  8
DATA
  6
CONTINUOUS
 62
     7
 10
-520.5
 20
-1368.0
 30
0.0
 40
10.00000000000021
  0
CIRCLE
  5
C2
  8
DATA
  6
CONTINUOUS
 62
     7
 10
-520.5
 20
-1368.0
 30
0.0
 40
5.4999999999996518
  0
LINE
  5
C3
  8
DATA
  6
CONTINUOUS
 62
     7
 10
-1600.0
 20
-138.0430157316236
 30
0.0
 11
-1600.0
 21
495.0
 31
0.0
  0
LINE
  5
C4
  8
DATA
  6
CONTINUOUS
 62
     7
 10
-1535.0
 20
-103.66531467122149
 30
0.0
 11
-1535.0
 21
15.0
 31
0.0
  0
LINE
  5
C5
  8
DATA
  6
CONTINUOUS
 62
     7
 10
-1535.0
 20
265.0
 30
0.0
 11
-1535.0
 21
320.19375152513408
 31
0.0
  0
LINE
  5
C6
  8
DATA
  6
CONTINUOUS
 62
     7
 10
-1575.0
 20
-126.4480419509955
 30
0.0
 11
-1575.0
 21
470.0
 31
0.0
  0
LINE
  5
C7
  8
DATA
  6
CONTINUOUS
 62
     7
 10
-535.49461777171757
 20
-200.0
 30
0.0
 11
-1529.5053822282821
 21
-200.0
 31
0.0
  0
LINE
  5
C8
  8
DATA
  6
CONTINUOUS
 62
     7
 10
-565.21371902491956
 20
-135.0
 30
0.0
 11
-955.0
 21
-135.0
 31
0.0
  0
LINE
  5
C9
  8
DATA
  6
CONTINUOUS
 62
     7
 10
-1110.0
 20
-135.0
 30
0.0
 11
-1499.78628097508
 21
-135.0
 31
0.0
  0
LINE
  5
CA
  8
DATA
  6
CONTINUOUS
 62
     7
 10
-544.65231405791371
 20
-175.0
 30
0.0
 11
-1520.3476859420859
 21
-175.0
 31
0.0
  0
LINE
  5
CB
  8
DATA
  6
CONTINUOUS
 62
     7
 10
-1539.194515850274
 20
-196.45079428053671
 30
0.0
 11
-1594.6891336219919
 21
-149.49381001216031
 31
0.0
  0
LINE
  5
CC
  8
DATA
  6
CONTINUOUS
 62
     7
 10
-1506.2457033897419
 20
-132.63386285369111
 30
0.0
 11
-1531.459422414662
 21
-111.29917752491259
 31
0.0
  0
LINE
  5
CD
  8
DATA
  6
CONTINUOUS
 62
     7
 10
-1530.0368195640781
 20
-171.45079428053671
 30
0.0
 11
-1569.6891336219919
 21
-137.89883623153219
 31
0.0
  0
LINE
  5
CE
  8
DATA
  6
CONTINUOUS
 62
     7
 10
-525.80548414972498
 20
-196.45079428053671
 30
0.0
 11
-470.31086637800769
 21
-149.49381001216031
 31
0.0
  0
LINE
  5
CF
  8
DATA
  6
CONTINUOUS
 62
     7
 10
-558.75429661025726
 20
-132.63386285369111
 30
0.0
 11
-533.54057758533759
 21
-111.29917752491281
 31
0.0
  0
LINE
  5
D0
  8
DATA
  6
CONTINUOUS
 62
     7
 10
-534.96318043592134
 20
-171.45079428053671
 30
0.0
 11
-495.31086637800769
 21
-137.89883623153219
 31
0.0
  0
LINE
  5
D1
  8
DATA
  6
CONTINUOUS
 62
     7
 10
-465.0
 20
495.0
 30
0.0
 11
-465.0
 21
-138.0430157316236
 31
0.0
  0
LINE
  5
D2
  8
DATA
  6
CONTINUOUS
 62
     7
 10
-530.0
 20
320.19375152513408
 30
0.0
 11
-530.0
 21
265.0
 31
0.0
  0
LINE
  5
D3
  8
DATA
  6
CONTINUOUS
 62
     7
 10
-530.0
 20
15.0
 30
0.0
 11
-530.0
 21
-103.66531467122169
 31
0.0
  0
LINE
  5
D4
  8
DATA
  6
CONTINUOUS
 62
     7
 10
-490.0
 20
470.0
 30
0.0
 11
-490.0
 21
-126.4480419509955
 31
0.0
  0
LINE
  5
D5
  8
DATA
  6
CONTINUOUS
 62
     7
 10
-1585.0
 20
510.0
 30
0.0
 11
-480.0
 21
510.0
 31
0.0
  0
LINE
  5
D6
  8
DATA
  6
CONTINUOUS
 62
     7
 10
-1560.0
 20
485.0
 30
0.0
 11
-505.0
 21
485.0
 31
0.0
  0
ARC
  5
D7
  8
DATA
  6
CONTINUOUS
 62
     7
 10
-1585.0
 20
495.0
 30
0.0
 40
15.0
 50
90.0
 51
180.0
  0
ARC
  5
D8
  8
DATA
  6
CONTINUOUS
 62
     7
 10
-1585.0
 20
-138.0430157316232
 30
0.0
 40
15.0
 50
180.00000000000171
 51
229.76364169072789
  0
ARC
  5
D9
  8
DATA
  6
CONTINUOUS
 62
     7
 10
-1529.5053822282821
 20
-185.0
 30
0.0
 40
14.999999999999821
 50
229.76364169072681
 51
270.0
  0
ARC
  5
DA
  8
DATA
  6
CONTINUOUS
 62
     7
 10
-535.49461777171757
 20
-185.0
 30
0.0
 40
15.0
 50
270.0
 51
310.23635830927321
  0
ARC
  5
DB
  8
DATA
  6
CONTINUOUS
 62
     7
 10
-480.0
 20
-138.0430157316232
 30
0.0
 40
15.000000000000171
 50
310.23635830927208
 51
359.99999999999818
  0
ARC
  5
DC
  8
DATA
  6
CONTINUOUS
 62
     7
 10
-480.0
 20
495.0
 30
0.0
 40
15.0
 50
0.0
 51
90.0
  0
ARC
  5
DD
  8
DATA
  6
CONTINUOUS
 62
     7
 10
-505.0
 20
470.0
 30
0.0
 40
15.0
 50
0.0
 51
90.0
  0
ARC
  5
DE
  8
DATA
  6
CONTINUOUS
 62
     7
 10
-1560.0
 20
470.0
 30
0.0
 40
15.0
 50
90.0
 51
180.0
  0
ARC
  5
DF
  8
DATA
  6
CONTINUOUS
 62
     7
 10
-1560.0
 20
-126.4480419509955
 30
0.0
 40
15.0
 50
180.0
 51
229.76364169072681
  0
ARC
  5
E0
  8
DATA
  6
CONTINUOUS
 62
     7
 10
-1520.3476859420859
 20
-160.0
 30
0.0
 40
14.999999999999821
 50
229.76364169072681
 51
270.0
  0
ARC
  5
E1
  8
DATA
  6
CONTINUOUS
 62
     7
 10
-544.65231405791371
 20
-160.0
 30
0.0
 40
15.0
 50
270.0
 51
310.23635830927321
  0
ARC
  5
E2
  8
DATA
  6
CONTINUOUS
 62
     7
 10
-505.0
 20
-126.4480419509955
 30
0.0
 40
14.999999999999821
 50
310.23635830927321
 51
0.0
  0
LINE
  5
E3
  8
DATA
  6
CONTINUOUS
 62
     7
 10
-540.0
 20
25.0
 30
0.0
 11
-955.0
 21
25.0
 31
0.0
  0
LINE
  5
E4
  8
DATA
  6
CONTINUOUS
 62
     7
 10
-1110.0
 20
25.0
 30
0.0
 11
-1525.0
 21
25.0
 31
0.0
  0
LINE
  5
E5
  8
DATA
  6
CONTINUOUS
 62
     7
 10
-1525.0
 20
255.0
 30
0.0
 11
-1110.0
 21
255.0
 31
0.0
  0
LINE
  5
E6
  8
DATA
  6
CONTINUOUS
 62
     7
 10
-955.0
 20
255.0
 30
0.0
 11
-540.0
 21
255.0
 31
0.0
  0
LINE
  5
E7
  8
DATA
  6
CONTINUOUS
 62
     7
 10
-1100.0
 20
-125.0
 30
0.0
 11
-1100.0
 21
15.0
 31
0.0
  0
LINE
  5
E8
  8
DATA
  6
CONTINUOUS
 62
     7
 10
-1100.0
 20
265.0
 30
0.0
 11
-1100.0
 21
355.0
 31
0.0
  0
LINE
  5
E9
  8
DATA
  6
CONTINUOUS
 62
     7
 10
-965.0
 20
355.0
 30
0.0
 11
-965.0
 21
265.0
 31
0.0
  0
LINE
  5
EA
  8
DATA
  6
CONTINUOUS
 62
     7
 10
-965.0
 20
15.0
 30
0.0
 11
-965.0
 21
-125.0
 31
0.0
  0
LINE
  5
EB
  8
DATA
  6
CONTINUOUS
 62
     7
 10
-1481.4921894064171
 20
365.0
 30
0.0
 11
-1110.0
 21
365.0
 31
0.0
  0
LINE
  5
EC
  8
DATA
  6
CONTINUOUS
 62
     7
 10
-1487.7391398819609
 20
362.80868809443041
 30
0.0
 11
-1531.2469504755441
 21
328.0024396195646
 31
0.0
  0
LINE
  5
ED
  8
DATA
  6
CONTINUOUS
 62
     7
 10
-955.0
 20
365.0
 30
0.0
 11
-583.50781059358246
 21
365.0
 31
0.0
  0
LINE
  5
EE
  8
DATA
  6
CONTINUOUS
 62
     7
 10
-577.26086011803795
 20
362.80868809443041
 30
0.0
 11
-533.75304952445526
 21
328.0024396195646
 31
0.0
  0
ARC
  5
EF
  8
DATA
  6
CONTINUOUS
 62
     7
 10
-583.50781059358246
 20
355.0
 30
0.0
 40
10.00000000000025
 50
51.340191745909102
 51
90.0
  0
ARC
  5
F0
  8
DATA
  6
CONTINUOUS
 62
     7
 10
-540.0
 20
320.1937515251343
 30
0.0
 40
10.0
 50
359.99999999999869
 51
51.340191745908349
  0
ARC
  5
F1
  8
DATA
  6
CONTINUOUS
 62
     7
 10
-540.0
 20
265.0
 30
0.0
 40
10.0
 50
270.0
 51
0.0
  0
ARC
  5
F2
  8
DATA
  6
CONTINUOUS
 62
     7
 10
-955.0
 20
355.0
 30
0.0
 40
10.0
 50
90.0
 51
180.0
  0
ARC
  5
F3
  8
DATA
  6
CONTINUOUS
 62
     7
 10
-955.0
 20
265.0
 30
0.0
 40
10.0
 50
180.0
 51
270.0
  0
ARC
  5
F4
  8
DATA
  6
CONTINUOUS
 62
     7
 10
-1110.0
 20
355.0
 30
0.0
 40
10.0
 50
0.0
 51
90.0
  0
ARC
  5
F5
  8
DATA
  6
CONTINUOUS
 62
     7
 10
-1110.0
 20
265.0
 30
0.0
 40
10.0
 50
270.0
 51
0.0
  0
ARC
  5
F6
  8
DATA
  6
CONTINUOUS
 62
     7
 10
-1481.492189406418
 20
354.99999999999977
 30
0.0
 40
10.000000000000229
 50
89.99999999999477
 51
128.65980825408599
  0
ARC
  5
F7
  8
DATA
  6
CONTINUOUS
 62
     7
 10
-1525.0
 20
320.19375152513447
 30
0.0
 40
9.9999999999998916
 50
128.6598082540925
 51
180.0000000000025
  0
ARC
  5
F8
  8
DATA
  6
CONTINUOUS
 62
     7
 10
-1525.0
 20
265.0
 30
0.0
 40
10.0
 50
180.0
 51
270.0
  0
ARC
  5
F9
  8
DATA
  6
CONTINUOUS
 62
     7
 10
-1525.0
 20
15.0
 30
0.0
 40
10.0
 50
90.0
 51
180.0
  0
ARC
  5
FA
  8
DATA
  6
CONTINUOUS
 62
     7
 10
-1525.0
 20
-103.66531467122179
 30
0.0
 40
10.0
 50
179.99999999999801
 51
229.76364169072269
  0
ARC
  5
FB
  8
DATA
  6
CONTINUOUS
 62
     7
 10
-1499.78628097508
 20
-125.0
 30
0.0
 40
10.00000000000024
 50
229.763641690724
 51
270.0
  0
ARC
  5
FC
  8
DATA
  6
CONTINUOUS
 62
     7
 10
-1110.0
 20
-125.0
 30
0.0
 40
10.0
 50
270.0
 51
0.0
  0
ARC
  5
FD
  8
DATA
  6
CONTINUOUS
 62
     7
 10
-1110.0
 20
15.0
 30
0.0
 40
10.0
 50
0.0
 51
90.0
  0
ARC
  5
FE
  8
DATA
  6
CONTINUOUS
 62
     7
 10
-955.0
 20
15.0
 30
0.0
 40
10.0
 50
90.0
 51
180.0
  0
ARC
  5
FF
  8
DATA
  6
CONTINUOUS
 62
     7
 10
-955.0
 20
-125.0
 30
0.0
 40
10.0
 50
180.0
 51
270.0
  0
ARC
  5
100
  8
DATA
  6
CONTINUOUS
 62
     7
 10
-565.21371902491865
 20
-124.9999999999998
 30
0.0
 40
10.00000000000011
 50
269.99999999999483
 51
310.23635830927162
  0
ARC
  5
101
  8
DATA
  6
CONTINUOUS
 62
     7
 10
-540.0
 20
-103.66531467122191
 30
0.0
 40
10.000000000000069
 50
310.2363583092768
 51
0.0000000000013074
  0
ARC
  5
102
  8
DATA
  6
CONTINUOUS
 62
     7
 10
-540.0
 20
15.0
 30
0.0
 40
10.0
 50
0.0
 51
90.0
  0
LINE
  5
103
  8
DATA
  6
CONTINUOUS
 62
     7
 10
-1600.0
 20
-980.72949016875123
 30
0.0
 11
-1600.0
 21
-454.27050983124849
 31
0.0
  0
LINE
  5
104
  8
DATA
  6
CONTINUOUS
 62
     7
 10
-1535.0
 20
-1000.0
 30
0.0
 11
-1535.0
 21
-435.0
 31
0.0
  0
LINE
  5
105
  8
DATA
  6
CONTINUOUS
 62
     7
 10
-1595.0
 20
-975.0
 30
0.0
 11
-1595.0
 21
-460.0
 31
0.0
  0
LINE
  5
106
  8
DATA
  6
CONTINUOUS
 62
     7
 10
-488.54101966249698
 20
-1000.0
 30
0.0
 11
-1576.4589803375029
 21
-1000.0
 31
0.0
  0
LINE
  5
107
  8
DATA
  6
CONTINUOUS
 62
     7
 10
-1583.1671842700021
 20
-998.41640786499875
 30
0.0
 11
-1591.7082039324989
 21
-994.1458980337502
 31
0.0
  0
LINE
  5
108
  8
DATA
  6
CONTINUOUS
 62
     7
 10
-481.83281572999738
 20
-998.41640786499875
 30
0.0
 11
-473.2917960675004
 21
-994.1458980337502
 31
0.0
  0
LINE
  5
109
  8
DATA
  6
CONTINUOUS
 62
     7
 10
-465.0
 20
-975.0
 30
0.0
 11
-1600.0
 21
-975.0
 31
0.0
  0
LINE
  5
10A
  8
DATA
  6
CONTINUOUS
 62
     7
 10
-465.0
 20
-454.27050983124849
 30
0.0
 11
-465.0
 21
-980.72949016875123
 31
0.0
  0
LINE
  5
10B
  8
DATA
  6
CONTINUOUS
 62
     7
 10
-530.0
 20
-435.0
 30
0.0
 11
-530.0
 21
-1000.0
 31
0.0
  0
LINE
  5
10C
  8
DATA
  6
CONTINUOUS
 62
     7
 10
-470.0
 20
-460.0
 30
0.0
 11
-470.0
 21
-975.0
 31
0.0
  0
LINE
  5
10D
  8
DATA
  6
CONTINUOUS
 62
     7
 10
-1576.4589803375029
 20
-435.0
 30
0.0
 11
-488.54101966249698
 21
-435.0
 31
0.0
  0
LINE
  5
10E
  8
DATA
  6
CONTINUOUS
 62
     7
 10
-481.83281572999738
 20
-436.58359213500108
 30
0.0
 11
-473.2917960675004
 21
-440.8541019662498
 31
0.0
  0
LINE
  5
10F
  8
DATA
  6
CONTINUOUS
 62
     7
 10
-1583.1671842700021
 20
-436.58359213500108
 30
0.0
 11
-1591.7082039324989
 21
-440.8541019662498
 31
0.0
  0
LINE
  5
110
  8
DATA
  6
CONTINUOUS
 62
     7
 10
-1600.0
 20
-460.0
 30
0.0
 11
-465.0
 21
-460.0
 31
0.0
  0
ARC
  5
111
  8
DATA
  6
CONTINUOUS
 62
     7
 10
-1576.4589803375029
 20
-985.0
 30
0.0
 40
15.00000000000011
 50
243.43494882292131
 51
270.0
  0
ARC
  5
112
  8
DATA
  6
CONTINUOUS
 62
     7
 10
-1585.0
 20
-980.72949016875157
 30
0.0
 40
15.0
 50
179.9999999999996
 51
243.434948822921
  0
ARC
  5
113
  8
DATA
  6
CONTINUOUS
 62
     7
 10
-488.54101966249698
 20
-985.0
 30
0.0
 40
15.0
 50
270.0
 51
296.56505117707889
  0
ARC
  5
114
  8
DATA
  6
CONTINUOUS
 62
     7
 10
-480.0
 20
-980.72949016875157
 30
0.0
 40
15.000000000000011
 50
296.565051177079
 51
0.0000000000004547
  0
ARC
  5
115
  8
DATA
  6
CONTINUOUS
 62
     7
 10
-480.0
 20
-454.27050983124838
 30
0.0
 40
15.0
 50
359.9999999999996
 51
63.434948822921051
  0
ARC
  5
116
  8
DATA
  6
CONTINUOUS
 62
     7
 10
-488.54101966249698
 20
-450.0
 30
0.0
 40
15.00000000000011
 50
63.434948822921228
 51
90.0
  0
ARC
  5
117
  8
DATA
  6
CONTINUOUS
 62
     7
 10
-1576.4589803375029
 20
-450.0
 30
0.0
 40
15.0
 50
90.0
 51
116.5650511770788
  0
ARC
  5
118
  8
DATA
  6
CONTINUOUS
 62
     7
 10
-1585.0
 20
-454.27050983124838
 30
0.0
 40
15.000000000000011
 50
116.5650511770789
 51
180.0000000000004
  0
LINE
  5
119
  8
DATA
  6
CONTINUOUS
 62
     7
 10
-468.20772933363878
 20
-990.0
 30
0.0
 11
-1596.5999999999999
 21
-990.0
 31
0.0
  0
LINE
  5
11A
  8
DATA
  6
CONTINUOUS
 62
     7
 10
-468.20772933363878
 20
-445.0
 30
0.0
 11
-1596.5999999999999
 21
-445.0
 31
0.0
  0
LINE
  5
11B
  8
DATA
  6
CONTINUOUS
 62
     7
 10
-1055.5
 20
-875.0
 30
0.0
 11
-1055.5
 21
-837.0
 31
0.0
  0
LINE
  5
11C
  8
DATA
  6
CONTINUOUS
 62
     7
 10
-1009.5
 20
-875.0
 30
0.0
 11
-1055.5
 21
-875.0
 31
0.0
  0
LINE
  5
11D
  8
DATA
  6
CONTINUOUS
 62
     7
 10
-1009.5
 20
-837.0
 30
0.0
 11
-1009.5
 21
-875.0
 31
0.0
  0
LINE
  5
11E
  8
DATA
  6
CONTINUOUS
 62
     7
 10
-1055.5
 20
-837.0
 30
0.0
 11
-1009.5
 21
-837.0
 31
0.0
  0
LINE
  5
11F
  8
DATA
  6
CONTINUOUS
 62
     7
 10
-250.0
 20
-980.72949016875157
 30
0.0
 11
-250.0
 21
-454.27050983124838
 31
0.0
  0
LINE
  5
120
  8
DATA
  6
CONTINUOUS
 62
     7
 10
436.45898033750291
 20
-999.99999999999955
 30
0.0
 11
-226.45898033750379
 21
-999.99999999999955
 31
0.0
  0
LINE
  5
121
  8
DATA
  6
CONTINUOUS
 62
     7
 10
443.16718427000251
 20
-998.41640786499818
 30
0.0
 11
451.70820393249949
 21
-994.1458980337502
 31
0.0
  0
LINE
  5
122
  8
DATA
  6
CONTINUOUS
 62
     7
 10
-233.1671842700035
 20
-998.41640786499818
 30
0.0
 11
-241.7082039324996
 21
-994.1458980337502
 31
0.0
  0
LINE
  5
123
  8
DATA
  6
CONTINUOUS
 62
     7
 10
460.0
 20
-454.27050983124838
 30
0.0
 11
460.0
 21
-980.72949016875123
 31
0.0
  0
LINE
  5
124
  8
DATA
  6
CONTINUOUS
 62
     7
 10
-226.458980337502
 20
-434.99999999999977
 30
0.0
 11
436.45898033750291
 21
-434.99999999999977
 31
0.0
  0
LINE
  5
125
  8
DATA
  6
CONTINUOUS
 62
     7
 10
-233.1671842700016
 20
-436.58359213500108
 30
0.0
 11
-241.7082039324996
 21
-440.85410196624957
 31
0.0
  0
LINE
  5
126
  8
DATA
  6
CONTINUOUS
 62
     7
 10
443.16718427000251
 20
-436.58359213500108
 30
0.0
 11
451.70820393249949
 21
-440.85410196624957
 31
0.0
  0
LINE
  5
127
  8
DATA
  6
CONTINUOUS
 62
     7
 10
115.0
 20
-911.67893218813401
 30
0.0
 11
115.0
 21
-805.82106781186599
 31
0.0
  0
LINE
  5
128
  8
DATA
  6
CONTINUOUS
 62
     7
 10
110.0
 20
-913.75000000000011
 30
0.0
 11
110.0
 21
-803.74999999999989
 31
0.0
  0
LINE
  5
129
  8
DATA
  6
CONTINUOUS
 62
     7
 10
116.46446609406669
 20
-915.21446609406632
 30
0.0
 11
133.53553390593331
 21
-932.28553390593265
 31
0.0
  0
LINE
  5
12A
  8
DATA
  6
CONTINUOUS
 62
     7
 10
111.46446609406669
 20
-917.28553390593265
 30
0.0
 11
131.46446609406669
 21
-937.28553390593254
 31
0.0
  0
LINE
  5
12B
  8
DATA
  6
CONTINUOUS
 62
     7
 10
152.9289321881333
 20
-933.75
 30
0.0
 11
137.0710678118667
 21
-933.75
 31
0.0
  0
LINE
  5
12C
  8
DATA
  6
CONTINUOUS
 62
     7
 10
155.0
 20
-938.75000000000011
 30
0.0
 11
135.0
 21
-938.75000000000011
 31
0.0
  0
LINE
  5
12D
  8
DATA
  6
CONTINUOUS
 62
     7
 10
175.0
 20
-805.82106781186644
 30
0.0
 11
175.0
 21
-911.67893218813356
 31
0.0
  0
LINE
  5
12E
  8
DATA
  6
CONTINUOUS
 62
     7
 10
180.0
 20
-803.7500000000008
 30
0.0
 11
180.0
 21
-913.7499999999992
 31
0.0
  0
LINE
  5
12F
  8
DATA
  6
CONTINUOUS
 62
     7
 10
173.53553390593331
 20
-915.21446609406632
 30
0.0
 11
156.46446609406669
 21
-932.28553390593265
 31
0.0
  0
LINE
  5
130
  8
DATA
  6
CONTINUOUS
 62
     7
 10
178.5355339059324
 20
-917.28553390593152
 30
0.0
 11
158.53553390593331
 21
-937.28553390593243
 31
0.0
  0
LINE
  5
131
  8
DATA
  6
CONTINUOUS
 62
     7
 10
137.0710678118667
 20
-783.75
 30
0.0
 11
152.9289321881333
 21
-783.75
 31
0.0
  0
LINE
  5
132
  8
DATA
  6
CONTINUOUS
 62
     7
 10
135.0
 20
-778.75
 30
0.0
 11
155.0
 21
-778.75
 31
0.0
  0
LINE
  5
133
  8
DATA
  6
CONTINUOUS
 62
     7
 10
133.53553390593331
 20
-785.21446609406689
 30
0.0
 11
116.46446609406669
 21
-802.28553390593311
 31
0.0
  0
LINE
  5
134
  8
DATA
  6
CONTINUOUS
 62
     7
 10
131.46446609406669
 20
-780.21446609406723
 30
0.0
 11
111.46446609406669
 21
-800.21446609406678
 31
0.0
  0
LINE
  5
135
  8
DATA
  6
CONTINUOUS
 62
     7
 10
156.46446609406669
 20
-785.21446609406723
 30
0.0
 11
173.53553390593331
 21
-802.28553390593311
 31
0.0
  0
LINE
  5
136
  8
DATA
  6
CONTINUOUS
 62
     7
 10
158.53553390593331
 20
-780.21446609406735
 30
0.0
 11
178.5355339059324
 21
-800.21446609406814
 31
0.0
  0
ARC
  5
137
  8
DATA
  6
CONTINUOUS
 62
     7
 10
135.0
 20
-783.75
 30
0.0
 40
5.0
 50
90.0
 51
135.0000000000046
  0
ARC
  5
138
  8
DATA
  6
CONTINUOUS
 62
     7
 10
115.0
 20
-803.75000000000102
 30
0.0
 40
5.0000000000013261
 50
134.99999999999449
 51
179.99999999998701
  0
ARC
  5
139
  8
DATA
  6
CONTINUOUS
 62
     7
 10
120.0
 20
-805.8210678118669
 30
0.0
 40
5.0000000000011662
 50
134.99999999999631
 51
179.99999999998701
  0
ARC
  5
13A
  8
DATA
  6
CONTINUOUS
 62
     7
 10
137.0710678118667
 20
-788.75
 30
0.0
 40
5.0
 50
90.0
 51
135.00000000000369
  0
ARC
  5
13B
  8
DATA
  6
CONTINUOUS
 62
     7
 10
154.99999999999821
 20
-783.75
 30
0.0
 40
5.0000000000016476
 50
44.999999999979742
 51
89.999999999979195
  0
ARC
  5
13C
  8
DATA
  6
CONTINUOUS
 62
     7
 10
152.92893218813151
 20
-788.75
 30
0.0
 40
5.0000000000017284
 50
44.999999999980659
 51
89.999999999979195
  0
ARC
  5
13D
  8
DATA
  6
CONTINUOUS
 62
     7
 10
175.0
 20
-803.75000000000011
 30
0.0
 40
5.0
 50
359.99999999999352
 51
44.999999999997222
  0
ARC
  5
13E
  8
DATA
  6
CONTINUOUS
 62
     7
 10
169.9999999999981
 20
-805.82106781186349
 30
0.0
 40
5.0000000000018181
 50
359.99999999997129
 51
44.999999999961346
  0
ARC
  5
13F
  8
DATA
  6
CONTINUOUS
 62
     7
 10
120.0000000000018
 20
-911.6789321881364
 30
0.0
 40
5.0000000000018181
 50
179.99999999997269
 51
224.99999999996129
  0
ARC
  5
140
  8
DATA
  6
CONTINUOUS
 62
     7
 10
115.0000000000018
 20
-913.75000000000239
 30
0.0
 40
5.0000000000018181
 50
179.99999999997269
 51
224.99999999996041
  0
ARC
  5
141
  8
DATA
  6
CONTINUOUS
 62
     7
 10
135.00000000000179
 20
-933.75
 30
0.0
 40
5.0000000000016476
 50
224.99999999997971
 51
269.9999999999792
  0
ARC
  5
142
  8
DATA
  6
CONTINUOUS
 62
     7
 10
137.07106781186849
 20
-928.74999999999989
 30
0.0
 40
5.0000000000016476
 50
224.99999999997971
 51
269.9999999999792
  0
ARC
  5
143
  8
DATA
  6
CONTINUOUS
 62
     7
 10
152.9289321881333
 20
-928.74999999999989
 30
0.0
 40
5.0000000000001128
 50
270.0
 51
315.0000000000046
  0
ARC
  5
144
  8
DATA
  6
CONTINUOUS
 62
     7
 10
155.0
 20
-933.75
 30
0.0
 40
5.0
 50
270.0
 51
315.00000000000648
  0
ARC
  5
145
  8
DATA
  6
CONTINUOUS
 62
     7
 10
175.0
 20
-913.74999999999761
 30
0.0
 40
5.000000000000683
 50
314.99999999998721
 51
359.99999999998442
  0
ARC
  5
146
  8
DATA
  6
CONTINUOUS
 62
     7
 10
170.0
 20
-911.67893218813253
 30
0.0
 40
5.0000000000012461
 50
314.9999999999954
 51
359.99999999998693
  0
ARC
  5
147
  8
DATA
  6
CONTINUOUS
 62
     7
 10
445.0
 20
-454.27050983124821
 30
0.0
 40
15.0
 50
359.9999999999996
 51
63.434948822921051
  0
ARC
  5
148
  8
DATA
  6
CONTINUOUS
 62
     7
 10
436.45898033750291
 20
-449.99999999999977
 30
0.0
 40
15.00000000000011
 50
63.434948822921228
 51
90.0
  0
ARC
  5
149
  8
DATA
  6
CONTINUOUS
 62
     7
 10
445.0
 20
-980.72949016875123
 30
0.0
 40
14.999999999999909
 50
296.56505117707923
 51
0.0000000000008527
  0
ARC
  5
14A
  8
DATA
  6
CONTINUOUS
 62
     7
 10
436.45898033750291
 20
-984.99999999999955
 30
0.0
 40
15.0
 50
270.0
 51
296.56505117707889
  0
ARC
  5
14B
  8
DATA
  6
CONTINUOUS
 62
     7
 10
-226.45898033750379
 20
-984.99999999999955
 30
0.0
 40
15.00000000000011
 50
243.43494882292131
 51
270.0
  0
ARC
  5
14C
  8
DATA
  6
CONTINUOUS
 62
     7
 10
-235.0
 20
-980.72949016875157
 30
0.0
 40
15.0
 50
180.0
 51
243.4349488229208
  0
ARC
  5
14D
  8
DATA
  6
CONTINUOUS
 62
     7
 10
-235.0
 20
-454.27050983124821
 30
0.0
 40
15.000000000000011
 50
116.5650511770789
 51
180.0000000000004
  0
ARC
  5
14E
  8
DATA
  6
CONTINUOUS
 62
     7
 10
-226.458980337502
 20
-449.99999999999977
 30
0.0
 40
15.0
 50
90.0
 51
116.5650511770788
  0
LINE
  5
14F
  8
DATA
  6
CONTINUOUS
 62
     7
 10
-246.79227066636119
 20
-444.99999999999977
 30
0.0
 11
456.79227066636111
 21
-444.99999999999977
 31
0.0
  0
LINE
  5
150
  8
DATA
  6
CONTINUOUS
 62
     7
 10
-250.0
 20
-459.99999999999977
 30
0.0
 11
460.0
 21
-459.99999999999977
 31
0.0
  0
LINE
  5
151
  8
DATA
  6
CONTINUOUS
 62
     7
 10
-246.79227066636119
 20
-990.00000000000023
 30
0.0
 11
456.79227066636111
 21
-990.00000000000023
 31
0.0
  0
LINE
  5
152
  8
DATA
  6
CONTINUOUS
 62
     7
 10
-250.0
 20
-975.00000000000011
 30
0.0
 11
460.0
 21
-975.00000000000011
 31
0.0
  0
LINE
  5
153
  8
DATA
  6
CONTINUOUS
 62
     7
 10
-185.0
 20
-999.99999999999955
 30
0.0
 11
-185.0
 21
-434.99999999999977
 31
0.0
  0
LINE
  5
154
  8
DATA
  6
CONTINUOUS
 62
     7
 10
115.0
 20
-523.32106781186565
 30
0.0
 11
115.0
 21
-629.17893218813379
 31
0.0
  0
LINE
  5
155
  8
DATA
  6
CONTINUOUS
 62
     7
 10
110.0
 20
-521.24999999999966
 30
0.0
 11
110.0
 21
-631.24999999999977
 31
0.0
  0
LINE
  5
156
  8
DATA
  6
CONTINUOUS
 62
     7
 10
116.46446609406669
 20
-519.78553390593311
 30
0.0
 11
133.53553390593331
 21
-502.71446609406712
 31
0.0
  0
LINE
  5
157
  8
DATA
  6
CONTINUOUS
 62
     7
 10
111.46446609406669
 20
-517.71446609406712
 30
0.0
 11
131.46446609406669
 21
-497.71446609406712
 31
0.0
  0
LINE
  5
158
  8
DATA
  6
CONTINUOUS
 62
     7
 10
152.9289321881333
 20
-501.24999999999977
 30
0.0
 11
137.0710678118667
 21
-501.24999999999977
 31
0.0
  0
LINE
  5
159
  8
DATA
  6
CONTINUOUS
 62
     7
 10
155.0
 20
-496.24999999999977
 30
0.0
 11
135.0
 21
-496.24999999999977
 31
0.0
  0
LINE
  5
15A
  8
DATA
  6
CONTINUOUS
 62
     7
 10
175.0
 20
-629.17893218813367
 30
0.0
 11
175.0
 21
-523.32106781186587
 31
0.0
  0
LINE
  5
15B
  8
DATA
  6
CONTINUOUS
 62
     7
 10
180.0
 20
-631.24999999999898
 30
0.0
 11
180.0
 21
-521.2500000000008
 31
0.0
  0
LINE
  5
15C
  8
DATA
  6
CONTINUOUS
 62
     7
 10
173.53553390593331
 20
-519.78553390593311
 30
0.0
 11
156.46446609406669
 21
-502.71446609406712
 31
0.0
  0
LINE
  5
15D
  8
DATA
  6
CONTINUOUS
 62
     7
 10
178.5355339059324
 20
-517.71446609406803
 30
0.0
 11
158.53553390593331
 21
-497.71446609406712
 31
0.0
  0
LINE
  5
15E
  8
DATA
  6
CONTINUOUS
 62
     7
 10
137.0710678118667
 20
-651.24999999999966
 30
0.0
 11
152.9289321881333
 21
-651.24999999999966
 31
0.0
  0
LINE
  5
15F
  8
DATA
  6
CONTINUOUS
 62
     7
 10
135.0
 20
-656.24999999999977
 30
0.0
 11
155.0
 21
-656.24999999999977
 31
0.0
  0
LINE
  5
160
  8
DATA
  6
CONTINUOUS
 62
     7
 10
133.53553390593331
 20
-649.78553390593265
 30
0.0
 11
116.46446609406669
 21
-632.71446609406644
 31
0.0
  0
LINE
  5
161
  8
DATA
  6
CONTINUOUS
 62
     7
 10
131.46446609406669
 20
-654.78553390593243
 30
0.0
 11
111.46446609406669
 21
-634.78553390593277
 31
0.0
  0
LINE
  5
162
  8
DATA
  6
CONTINUOUS
 62
     7
 10
156.46446609406669
 20
-649.78553390593243
 30
0.0
 11
173.53553390593331
 21
-632.71446609406644
 31
0.0
  0
LINE
  5
163
  8
DATA
  6
CONTINUOUS
 62
     7
 10
158.53553390593331
 20
-654.78553390593243
 30
0.0
 11
178.5355339059324
 21
-634.78553390593163
 31
0.0
  0
ARC
  5
164
  8
DATA
  6
CONTINUOUS
 62
     7
 10
135.0
 20
-651.24999999999966
 30
0.0
 40
5.0000000000004414
 50
224.9999999999954
 51
270.0
  0
ARC
  5
165
  8
DATA
  6
CONTINUOUS
 62
     7
 10
115.0
 20
-631.24999999999852
 30
0.0
 40
5.0
 50
180.0000000000131
 51
225.00000000000551
  0
ARC
  5
166
  8
DATA
  6
CONTINUOUS
 62
     7
 10
120.0
 20
-629.17893218813265
 30
0.0
 40
5.0
 50
180.0000000000131
 51
225.00000000000369
  0
ARC
  5
167
  8
DATA
  6
CONTINUOUS
 62
     7
 10
137.0710678118667
 20
-646.24999999999966
 30
0.0
 40
5.0000000000005214
 50
224.99999999999631
 51
270.0
  0
ARC
  5
168
  8
DATA
  6
CONTINUOUS
 62
     7
 10
154.99999999999821
 20
-651.24999999999966
 30
0.0
 40
5.0
 50
270.0000000000208
 51
315.00000000002018
  0
ARC
  5
169
  8
DATA
  6
CONTINUOUS
 62
     7
 10
152.92893218813151
 20
-646.24999999999966
 30
0.0
 40
5.0
 50
270.0000000000208
 51
315.00000000001933
  0
ARC
  5
16A
  8
DATA
  6
CONTINUOUS
 62
     7
 10
175.0
 20
-631.24999999999955
 30
0.0
 40
4.9999999999993161
 50
315.00000000000267
 51
0.0000000000064801
  0
ARC
  5
16B
  8
DATA
  6
CONTINUOUS
 62
     7
 10
169.9999999999981
 20
-629.17893218813617
 30
0.0
 40
5.00000000000004
 50
315.00000000003871
 51
0.0000000000286491
  0
ARC
  5
16C
  8
DATA
  6
CONTINUOUS
 62
     7
 10
120.0000000000018
 20
-523.32106781186326
 30
0.0
 40
5.00000000000004
 50
135.00000000003871
 51
180.00000000002601
  0
ARC
  5
16D
  8
DATA
  6
CONTINUOUS
 62
     7
 10
115.0000000000018
 20
-521.24999999999716
 30
0.0
 40
4.9999999999998792
 50
135.0000000000405
 51
180.00000000002859
  0
ARC
  5
16E
  8
DATA
  6
CONTINUOUS
 62
     7
 10
135.00000000000179
 20
-501.24999999999977
 30
0.0
 40
5.0
 50
90.000000000020833
 51
135.00000000002021
  0
ARC
  5
16F
  8
DATA
  6
CONTINUOUS
 62
     7
 10
137.07106781186849
 20
-506.24999999999977
 30
0.0
 40
5.0
 50
90.000000000020833
 51
135.0000000000193
  0
ARC
  5
170
  8
DATA
  6
CONTINUOUS
 62
     7
 10
152.9289321881333
 20
-506.24999999999977
 30
0.0
 40
5.0000000000003606
 50
44.999999999994472
 51
90.0
  0
ARC
  5
171
  8
DATA
  6
CONTINUOUS
 62
     7
 10
155.0
 20
-501.24999999999977
 30
0.0
 40
5.0000000000003606
 50
44.999999999994472
 51
90.0
  0
ARC
  5
172
  8
DATA
  6
CONTINUOUS
 62
     7
 10
175.0
 20
-521.25000000000205
 30
0.0
 40
5.0
 50
0.0000000000156331
 51
45.000000000012882
  0
ARC
  5
173
  8
DATA
  6
CONTINUOUS
 62
     7
 10
170.0
 20
-523.32106781186712
 30
0.0
 40
5.0
 50
0.0000000000130276
 51
45.000000000005528
  0
LINE
  5
174
  8
DATA
  6
CONTINUOUS
 62
     7
 10
13.93161205479009
 20
-767.99999999999966
 30
0.0
 11
-119.93161205479009
 21
-767.99999999999966
 31
0.0
  0
LINE
  5
175
  8
DATA
  6
CONTINUOUS
 62
     7
 10
2.9244289583893979
 20
-752.99999999999955
 30
0.0
 11
-108.9244289583894
 21
-752.99999999999955
 31
0.0
  0
LINE
  5
176
  8
DATA
  6
CONTINUOUS
 62
     7
 10
2.9244289583893979
 20
-744.99999999999955
 30
0.0
 11
-108.9244289583894
 21
-744.99999999999955
 31
0.0
  0
LINE
  5
177
  8
DATA
  6
CONTINUOUS
 62
     7
 10
-119.93161205479009
 20
-561.99999999999966
 30
0.0
 11
13.93161205479009
 21
-561.99999999999966
 31
0.0
  0
LINE
  5
178
  8
DATA
  6
CONTINUOUS
 62
     7
 10
-108.9244289583894
 20
-576.99999999999966
 30
0.0
 11
2.9244289583893979
 21
-576.99999999999966
 31
0.0
  0
LINE
  5
179
  8
DATA
  6
CONTINUOUS
 62
     7
 10
-108.9244289583894
 20
-584.99999999999966
 30
0.0
 11
2.9244289583893979
 21
-584.99999999999966
 31
0.0
  0
LINE
  5
17A
  8
DATA
  6
CONTINUOUS
 62
     7
 10
-113.0055272747486
 20
-667.99999999999966
 30
0.0
 11
7.0055272747486006
 21
-667.99999999999966
 31
0.0
  0
LINE
  5
17B
  8
DATA
  6
CONTINUOUS
 62
     7
 10
-113.0055272747486
 20
-659.99999999999966
 30
0.0
 11
7.0055272747486006
 21
-659.99999999999966
 31
0.0
  0
LINE
  5
17C
  8
DATA
  6
CONTINUOUS
 62
     7
 10
-140.5
 20
-681.99999999999966
 30
0.0
 11
-140.36582096683921
 21
-681.99999999999966
 31
0.0
  0
LINE
  5
17D
  8
DATA
  6
CONTINUOUS
 62
     7
 10
-112.439549125309
 20
-681.99999999999966
 30
0.0
 11
6.4395491253089849
 21
-681.99999999999966
 31
0.0
  0
LINE
  5
17E
  8
DATA
  6
CONTINUOUS
 62
     7
 10
-112.439549125309
 20
-689.99999999999955
 30
0.0
 11
6.4395491253089849
 21
-689.99999999999955
 31
0.0
  0
LINE
  5
17F
  8
DATA
  6
CONTINUOUS
 62
     7
 10
34.365820966839237
 20
-681.99999999999966
 30
0.0
 11
34.5
 21
-681.99999999999966
 31
0.0
  0
ARC
  5
180
  8
DATA
  6
CONTINUOUS
 62
     7
 10
-669.85000000000025
 20
-664.99999999999966
 30
0.0
 40
704.42098385837448
 50
352.66656866709002
 51
7.3334313329099787
  0
ARC
  5
181
  8
DATA
  6
CONTINUOUS
 62
     7
 10
-669.85000000000025
 20
-664.99999999999966
 30
0.0
 40
689.42098385837426
 50
353.48109737401433
 51
357.54759612915598
  0
ARC
  5
182
  8
DATA
  6
CONTINUOUS
 62
     7
 10
-669.85000000000025
 20
-664.99999999999966
 30
0.0
 40
681.42098385837335
 50
353.48109737401433
 51
357.54759612915598
  0
ARC
  5
183
  8
DATA
  6
CONTINUOUS
 62
     7
 10
-669.85000000000025
 20
-664.99999999999966
 30
0.0
 40
689.42098385837437
 50
0.7895566874362966
 51
6.5189026259889022
  0
ARC
  5
184
  8
DATA
  6
CONTINUOUS
 62
     7
 10
-669.85000000000025
 20
-664.99999999999966
 30
0.0
 40
681.42098385837392
 50
0.7895566874362857
 51
6.5189026259889227
  0
ARC
  5
185
  8
DATA
  6
CONTINUOUS
 62
     7
 10
563.85000000000036
 20
-664.99999999999966
 30
0.0
 40
704.42098385837448
 50
172.66656866708999
 51
187.33343133291001
  0
ARC
  5
186
  8
DATA
  6
CONTINUOUS
 62
     7
 10
563.85000000000036
 20
-664.99999999999966
 30
0.0
 40
689.42098385837346
 50
173.4810973740108
 51
179.2104866720847
  0
ARC
  5
187
  8
DATA
  6
CONTINUOUS
 62
     7
 10
563.85000000000036
 20
-664.99999999999966
 30
0.0
 40
681.42098385837437
 50
173.4810973740108
 51
179.21048667208481
  0
ARC
  5
188
  8
DATA
  6
CONTINUOUS
 62
     7
 10
563.85000000000036
 20
-664.99999999999966
 30
0.0
 40
689.42098385837437
 50
182.4523973684436
 51
186.51890262597729
  0
ARC
  5
189
  8
DATA
  6
CONTINUOUS
 62
     7
 10
563.85000000000036
 20
-664.99999999999966
 30
0.0
 40
681.42098385837426
 50
182.4523973684436
 51
186.51890262597709
  0
ARC
  5
18A
  8
DATA
  6
CONTINUOUS
 62
     7
 10
13.93161205479009
 20
-752.99999999999829
 30
0.0
 40
15.000000000001361
 50
270.0
 51
352.66656866708468
  0
ARC
  5
18B
  8
DATA
  6
CONTINUOUS
 62
     7
 10
-119.93161205479009
 20
-752.99999999999829
 30
0.0
 40
15.000000000000959
 50
187.3334313329153
 51
270.0
  0
ARC
  5
18C
  8
DATA
  6
CONTINUOUS
 62
     7
 10
-119.93161205479009
 20
-577.00000000000114
 30
0.0
 40
15.000000000001361
 50
90.0
 51
172.66656866708459
  0
ARC
  5
18D
  8
DATA
  6
CONTINUOUS
 62
     7
 10
13.93161205479009
 20
-577.00000000000114
 30
0.0
 40
15.000000000000959
 50
7.3334313329153584
 51
90.0
  0
ARC
  5
18E
  8
DATA
  6
CONTINUOUS
 62
     7
 10
-108.9244289583894
 20
-589.49999999999955
 30
0.0
 40
12.499999999999771
 50
90.0
 51
180.00000002149449
  0
ARC
  5
18F
  8
DATA
  6
CONTINUOUS
 62
     7
 10
-108.9244289583894
 20
-589.49999999999955
 30
0.0
 40
4.5
 50
90.0
 51
180.0000000214954
  0
ARC
  5
190
  8
DATA
  6
CONTINUOUS
 62
     7
 10
2.9244289583893979
 20
-589.49999999999955
 30
0.0
 40
12.5
 50
0.0000000090890625
 51
90.0
  0
ARC
  5
191
  8
DATA
  6
CONTINUOUS
 62
     7
 10
2.9244289583893979
 20
-589.49999999999955
 30
0.0
 40
4.5
 50
0.0000000090874413
 51
90.0
  0
ARC
  5
192
  8
DATA
  6
CONTINUOUS
 62
     7
 10
-108.9244289583894
 20
-740.49999999999852
 30
0.0
 40
12.5
 50
180.00000000909219
 51
270.0
  0
ARC
  5
193
  8
DATA
  6
CONTINUOUS
 62
     7
 10
2.9244289583893979
 20
-740.49999999999852
 30
0.0
 40
12.499999999999771
 50
270.0
 51
0.0000000112995622
  0
ARC
  5
194
  8
DATA
  6
CONTINUOUS
 62
     7
 10
2.9244289583893979
 20
-740.49999999999852
 30
0.0
 40
4.5
 50
270.0
 51
0.0000000112992211
  0
ARC
  5
195
  8
DATA
  6
CONTINUOUS
 62
     7
 10
-112.439549125309
 20
-694.49999999999955
 30
0.0
 40
12.499999999999771
 50
90.0
 51
184.99535975900201
  0
ARC
  5
196
  8
DATA
  6
CONTINUOUS
 62
     7
 10
-112.439549125309
 20
-694.49999999999955
 30
0.0
 40
4.5
 50
90.0
 51
184.99535975900031
  0
ARC
  5
197
  8
DATA
  6
CONTINUOUS
 62
     7
 10
6.4395491253089849
 20
-694.49999999999955
 30
0.0
 40
12.49999999999976
 50
355.00464040666532
 51
90.0
  0
ARC
  5
198
  8
DATA
  6
CONTINUOUS
 62
     7
 10
-113.0055272747486
 20
-655.49999999999989
 30
0.0
 40
12.49999999999973
 50
178.39175985444021
 51
270.0
  0
ARC
  5
199
  8
DATA
  6
CONTINUOUS
 62
     7
 10
-113.0055272747486
 20
-655.49999999999989
 30
0.0
 40
4.4999999999997566
 50
178.39175985444029
 51
270.0
  0
ARC
  5
19A
  8
DATA
  6
CONTINUOUS
 62
     7
 10
7.0055272747486006
 20
-655.49999999999989
 30
0.0
 40
12.499999999999771
 50
270.0
 51
1.6082451096097541
  0
ARC
  5
19B
  8
DATA
  6
CONTINUOUS
 62
     7
 10
7.0055272747486006
 20
-655.49999999999989
 30
0.0
 40
4.5
 50
270.0
 51
1.6082401455597051
  0
ARC
  5
19C
  8
DATA
  6
CONTINUOUS
 62
     7
 10
6.4395491253089849
 20
-694.49999999999955
 30
0.0
 40
4.5000000000005969
 50
355.00464024099961
 51
90.0
  0
ARC
  5
19D
  8
DATA
  6
CONTINUOUS
 62
     7
 10
-108.9244289583894
 20
-740.49999999999852
 30
0.0
 40
4.5
 50
179.99999998870069
 51
270.0
  0
LINE
  5
19E
  8
DATA
  6
CONTINUOUS
 62
     7
 10
399.93161205478998
 20
-767.99999999999966
 30
0.0
 11
266.06838794520991
 21
-767.99999999999966
 31
0.0
  0
LINE
  5
19F
  8
DATA
  6
CONTINUOUS
 62
     7
 10
388.92442895838929
 20
-752.99999999999955
 30
0.0
 11
277.0755710416106
 21
-752.99999999999955
 31
0.0
  0
LINE
  5
1A0
  8
DATA
  6
CONTINUOUS
 62
     7
 10
388.92442895838929
 20
-744.99999999999955
 30
0.0
 11
277.0755710416106
 21
-744.99999999999955
 31
0.0
  0
LINE
  5
1A1
  8
DATA
  6
CONTINUOUS
 62
     7
 10
266.06838794520991
 20
-561.99999999999966
 30
0.0
 11
399.93161205478998
 21
-561.99999999999966
 31
0.0
  0
LINE
  5
1A2
  8
DATA
  6
CONTINUOUS
 62
     7
 10
277.0755710416106
 20
-576.99999999999966
 30
0.0
 11
388.92442895838929
 21
-576.99999999999966
 31
0.0
  0
LINE
  5
1A3
  8
DATA
  6
CONTINUOUS
 62
     7
 10
277.0755710416106
 20
-584.99999999999966
 30
0.0
 11
388.92442895838929
 21
-584.99999999999966
 31
0.0
  0
LINE
  5
1A4
  8
DATA
  6
CONTINUOUS
 62
     7
 10
272.9944727252514
 20
-667.99999999999966
 30
0.0
 11
393.0055272747486
 21
-667.99999999999966
 31
0.0
  0
LINE
  5
1A5
  8
DATA
  6
CONTINUOUS
 62
     7
 10
272.9944727252514
 20
-659.99999999999966
 30
0.0
 11
393.0055272747486
 21
-659.99999999999966
 31
0.0
  0
LINE
  5
1A6
  8
DATA
  6
CONTINUOUS
 62
     7
 10
245.5
 20
-681.99999999999966
 30
0.0
 11
245.63417903316079
 21
-681.99999999999966
 31
0.0
  0
LINE
  5
1A7
  8
DATA
  6
CONTINUOUS
 62
     7
 10
273.56045087469101
 20
-681.99999999999966
 30
0.0
 11
392.43954912530887
 21
-681.99999999999966
 31
0.0
  0
LINE
  5
1A8
  8
DATA
  6
CONTINUOUS
 62
     7
 10
273.56045087469101
 20
-689.99999999999955
 30
0.0
 11
392.43954912530887
 21
-689.99999999999955
 31
0.0
  0
LINE
  5
1A9
  8
DATA
  6
CONTINUOUS
 62
     7
 10
420.36582096683918
 20
-681.99999999999966
 30
0.0
 11
420.5
 21
-681.99999999999966
 31
0.0
  0
ARC
  5
1AA
  8
DATA
  6
CONTINUOUS
 62
     7
 10
-283.85000000000042
 20
-664.99999999999966
 30
0.0
 40
704.42098385837448
 50
352.66656866709002
 51
7.3334313329099787
  0
ARC
  5
1AB
  8
DATA
  6
CONTINUOUS
 62
     7
 10
-283.85000000000042
 20
-664.99999999999966
 30
0.0
 40
689.42098385837426
 50
353.48109737401433
 51
357.54759612915598
  0
ARC
  5
1AC
  8
DATA
  6
CONTINUOUS
 62
     7
 10
-283.85000000000042
 20
-664.99999999999966
 30
0.0
 40
681.42098385837335
 50
353.48109737401433
 51
357.54759612915598
  0
ARC
  5
1AD
  8
DATA
  6
CONTINUOUS
 62
     7
 10
-283.85000000000042
 20
-664.99999999999966
 30
0.0
 40
689.42098385837437
 50
0.7895566874362966
 51
6.5189026259889022
  0
ARC
  5
1AE
  8
DATA
  6
CONTINUOUS
 62
     7
 10
-283.85000000000042
 20
-664.99999999999966
 30
0.0
 40
681.42098385837392
 50
0.7895566874362857
 51
6.5189026259889227
  0
ARC
  5
1AF
  8
DATA
  6
CONTINUOUS
 62
     7
 10
949.85000000000025
 20
-664.99999999999966
 30
0.0
 40
704.42098385837448
 50
172.66656866708999
 51
187.33343133291001
  0
ARC
  5
1B0
  8
DATA
  6
CONTINUOUS
 62
     7
 10
949.85000000000025
 20
-664.99999999999966
 30
0.0
 40
689.42098385837346
 50
173.4810973740108
 51
179.2104866720847
  0
ARC
  5
1B1
  8
DATA
  6
CONTINUOUS
 62
     7
 10
949.85000000000025
 20
-664.99999999999966
 30
0.0
 40
681.42098385837437
 50
173.4810973740108
 51
179.21048667208481
  0
ARC
  5
1B2
  8
DATA
  6
CONTINUOUS
 62
     7
 10
949.85000000000025
 20
-664.99999999999966
 30
0.0
 40
689.42098385837437
 50
182.4523973684436
 51
186.51890262597729
  0
ARC
  5
1B3
  8
DATA
  6
CONTINUOUS
 62
     7
 10
949.85000000000025
 20
-664.99999999999966
 30
0.0
 40
681.42098385837426
 50
182.4523973684436
 51
186.51890262597709
  0
ARC
  5
1B4
  8
DATA
  6
CONTINUOUS
 62
     7
 10
399.93161205478998
 20
-752.99999999999829
 30
0.0
 40
15.000000000001361
 50
270.0
 51
352.66656866708468
  0
ARC
  5
1B5
  8
DATA
  6
CONTINUOUS
 62
     7
 10
266.06838794520991
 20
-752.99999999999829
 30
0.0
 40
15.000000000000959
 50
187.3334313329153
 51
270.0
  0
ARC
  5
1B6
  8
DATA
  6
CONTINUOUS
 62
     7
 10
266.06838794520991
 20
-577.00000000000114
 30
0.0
 40
15.000000000001361
 50
90.0
 51
172.66656866708459
  0
ARC
  5
1B7
  8
DATA
  6
CONTINUOUS
 62
     7
 10
399.93161205478998
 20
-577.00000000000114
 30
0.0
 40
15.000000000000959
 50
7.3334313329153584
 51
90.0
  0
ARC
  5
1B8
  8
DATA
  6
CONTINUOUS
 62
     7
 10
277.0755710416106
 20
-589.49999999999955
 30
0.0
 40
12.499999999999771
 50
90.0
 51
180.00000002149449
  0
ARC
  5
1B9
  8
DATA
  6
CONTINUOUS
 62
     7
 10
277.0755710416106
 20
-589.49999999999955
 30
0.0
 40
4.5
 50
90.0
 51
180.0000000214954
  0
ARC
  5
1BA
  8
DATA
  6
CONTINUOUS
 62
     7
 10
388.92442895838929
 20
-589.49999999999955
 30
0.0
 40
12.5
 50
0.0000000090890625
 51
90.0
  0
ARC
  5
1BB
  8
DATA
  6
CONTINUOUS
 62
     7
 10
388.92442895838929
 20
-589.49999999999955
 30
0.0
 40
4.5
 50
0.0000000090874413
 51
90.0
  0
ARC
  5
1BC
  8
DATA
  6
CONTINUOUS
 62
     7
 10
277.0755710416106
 20
-740.49999999999852
 30
0.0
 40
12.5
 50
180.00000000909219
 51
270.0
  0
ARC
  5
1BD
  8
DATA
  6
CONTINUOUS
 62
     7
 10
388.92442895838929
 20
-740.49999999999852
 30
0.0
 40
12.499999999999771
 50
270.0
 51
0.0000000112995622
  0
ARC
  5
1BE
  8
DATA
  6
CONTINUOUS
 62
     7
 10
388.92442895838929
 20
-740.49999999999852
 30
0.0
 40
4.5
 50
270.0
 51
0.0000000112992211
  0
ARC
  5
1BF
  8
DATA
  6
CONTINUOUS
 62
     7
 10
273.56045087469101
 20
-694.49999999999955
 30
0.0
 40
12.499999999999771
 50
90.0
 51
184.99535975900201
  0
ARC
  5
1C0
  8
DATA
  6
CONTINUOUS
 62
     7
 10
273.56045087469101
 20
-694.49999999999955
 30
0.0
 40
4.5
 50
90.0
 51
184.99535975900031
  0
ARC
  5
1C1
  8
DATA
  6
CONTINUOUS
 62
     7
 10
392.43954912530887
 20
-694.49999999999955
 30
0.0
 40
12.49999999999976
 50
355.00464040666532
 51
90.0
  0
ARC
  5
1C2
  8
DATA
  6
CONTINUOUS
 62
     7
 10
272.9944727252514
 20
-655.49999999999989
 30
0.0
 40
12.49999999999973
 50
178.39175985444021
 51
270.0
  0
ARC
  5
1C3
  8
DATA
  6
CONTINUOUS
 62
     7
 10
272.9944727252514
 20
-655.49999999999989
 30
0.0
 40
4.4999999999997566
 50
178.39175985444029
 51
270.0
  0
ARC
  5
1C4
  8
DATA
  6
CONTINUOUS
 62
     7
 10
393.0055272747486
 20
-655.49999999999989
 30
0.0
 40
12.499999999999771
 50
270.0
 51
1.6082451096097541
  0
ARC
  5
1C5
  8
DATA
  6
CONTINUOUS
 62
     7
 10
393.0055272747486
 20
-655.49999999999989
 30
0.0
 40
4.5
 50
270.0
 51
1.6082401455597051
  0
ARC
  5
1C6
  8
DATA
  6
CONTINUOUS
 62
     7
 10
392.43954912530887
 20
-694.49999999999955
 30
0.0
 40
4.5000000000005969
 50
355.00464024099961
 51
90.0
  0
ARC
  5
1C7
  8
DATA
  6
CONTINUOUS
 62
     7
 10
277.0755710416106
 20
-740.49999999999852
 30
0.0
 40
4.5
 50
179.99999998870069
 51
270.0
  0
CIRCLE
  5
1C8
  8
DATA
  6
CONTINUOUS
 62
     7
 10
-155.0
 20
-529.99999999999977
 30
0.0
 40
20.0
  0
CIRCLE
  5
1C9
  8
DATA
  6
CONTINUOUS
 62
     7
 10
-155.0
 20
-905.0
 30
0.0
 40
20.0
  0
CIRCLE
  5
1CA
  8
DATA
  6
CONTINUOUS
 62
     7
 10
215.0
 20
-618.99999999999966
 30
0.0
 40
19.999999999999972
  0
CIRCLE
  5
1CB
  8
DATA
  6
CONTINUOUS
 62
     7
 10
215.0
 20
-817.99999999999955
 30
0.0
 40
20.0
  0
LINE
  5
1CC
  8
DATA
  6
CONTINUOUS
 62
     7
 10
-1564.5
 20
-1004.0
 30
0.0
 11
-1564.5
 21
-1000.0
 31
0.0
  0
LINE
  5
1CD
  8
DATA
  6
CONTINUOUS
 62
     7
 10
-1524.5
 20
-1004.0
 30
0.0
 11
-1564.5
 21
-1004.0
 31
0.0
  0
LINE
  5
1CE
  8
DATA
  6
CONTINUOUS
 62
     7
 10
-1524.5
 20
-1000.0
 30
0.0
 11
-1524.5
 21
-1004.0
 31
0.0
  0
LINE
  5
1CF
  8
DATA
  6
CONTINUOUS
 62
     7
 10
-1564.5
 20
-1000.0
 30
0.0
 11
-1524.5
 21
-1000.0
 31
0.0
  0
LINE
  5
1D0
  8
DATA
  6
CONTINUOUS
 62
     7
 10
-500.49999999999989
 20
-1004.0
 30
0.0
 11
-500.49999999999989
 21
-1000.0
 31
0.0
  0
LINE
  5
1D1
  8
DATA
  6
CONTINUOUS
 62
     7
 10
-540.5
 20
-1004.0
 30
0.0
 11
-500.49999999999989
 21
-1004.0
 31
0.0
  0
LINE
  5
1D2
  8
DATA
  6
CONTINUOUS
 62
     7
 10
-540.5
 20
-1000.0
 30
0.0
 11
-540.5
 21
-1004.0
 31
0.0
  0
LINE
  5
1D3
  8
DATA
  6
CONTINUOUS
 62
     7
 10
-500.49999999999989
 20
-1000.0
 30
0.0
 11
-540.5
 21
-1000.0
 31
0.0
  0
LINE
  5
1D4
  8
DATA
  6
CONTINUOUS
 62
     7
 10
-152.0
 20
-1004.0
 30
0.0
 11
-152.0
 21
-999.99999999999955
 31
0.0
  0
LINE
  5
1D5
  8
DATA
  6
CONTINUOUS
 62
     7
 10
-192.0
 20
-1004.0
 30
0.0
 11
-152.0
 21
-1004.0
 31
0.0
  0
LINE
  5
1D6
  8
DATA
  6
CONTINUOUS
 62
     7
 10
-192.0
 20
-999.99999999999955
 30
0.0
 11
-192.0
 21
-1004.0
 31
0.0
  0
LINE
  5
1D7
  8
DATA
  6
CONTINUOUS
 62
     7
 10
-152.0
 20
-999.99999999999955
 30
0.0
 11
-192.0
 21
-999.99999999999955
 31
0.0
  0
LINE
  5
1D8
  8
DATA
  6
CONTINUOUS
 62
     7
 10
420.0
 20
-1004.0
 30
0.0
 11
420.0
 21
-999.99999999999955
 31
0.0
  0
LINE
  5
1D9
  8
DATA
  6
CONTINUOUS
 62
     7
 10
380.0
 20
-1004.0
 30
0.0
 11
420.0
 21
-1004.0
 31
0.0
  0
LINE
  5
1DA
  8
DATA
  6
CONTINUOUS
 62
     7
 10
380.0
 20
-999.99999999999955
 30
0.0
 11
380.0
 21
-1004.0
 31
0.0
  0
LINE
  5
1DB
  8
DATA
  6
CONTINUOUS
 62
     7
 10
420.0
 20
-999.99999999999955
 30
0.0
 11
380.0
 21
-999.99999999999955
 31
0.0
  0
LINE
  5
1DC
  8
DATA
  6
CONTINUOUS
 62
     7
 10
1735.0
 20
-980.72949016875123
 30
0.0
 11
1735.0
 21
-454.27050983124849
 31
0.0
  0
LINE
  5
1DD
  8
DATA
  6
CONTINUOUS
 62
     7
 10
623.54101966249686
 20
-1000.0
 30
0.0
 11
1711.458980337502
 21
-1000.0
 31
0.0
  0
LINE
  5
1DE
  8
DATA
  6
CONTINUOUS
 62
     7
 10
1718.167184270003
 20
-998.41640786499875
 30
0.0
 11
1726.7082039324989
 21
-994.1458980337502
 31
0.0
  0
LINE
  5
1DF
  8
DATA
  6
CONTINUOUS
 62
     7
 10
616.83281572999738
 20
-998.41640786499875
 30
0.0
 11
608.2917960675004
 21
-994.1458980337502
 31
0.0
  0
LINE
  5
1E0
  8
DATA
  6
CONTINUOUS
 62
     7
 10
600.0
 20
-975.0
 30
0.0
 11
1735.0
 21
-975.0
 31
0.0
  0
LINE
  5
1E1
  8
DATA
  6
CONTINUOUS
 62
     7
 10
600.0
 20
-454.27050983124849
 30
0.0
 11
600.0
 21
-980.72949016875123
 31
0.0
  0
LINE
  5
1E2
  8
DATA
  6
CONTINUOUS
 62
     7
 10
1711.458980337502
 20
-435.0
 30
0.0
 11
623.54101966249686
 21
-435.0
 31
0.0
  0
LINE
  5
1E3
  8
DATA
  6
CONTINUOUS
 62
     7
 10
616.83281572999738
 20
-436.58359213500108
 30
0.0
 11
608.2917960675004
 21
-440.8541019662498
 31
0.0
  0
LINE
  5
1E4
  8
DATA
  6
CONTINUOUS
 62
     7
 10
1718.167184270003
 20
-436.58359213500108
 30
0.0
 11
1726.7082039324989
 21
-440.8541019662498
 31
0.0
  0
LINE
  5
1E5
  8
DATA
  6
CONTINUOUS
 62
     7
 10
1735.0
 20
-460.0
 30
0.0
 11
600.0
 21
-460.0
 31
0.0
  0
ARC
  5
1E6
  8
DATA
  6
CONTINUOUS
 62
     7
 10
1711.458980337502
 20
-985.0
 30
0.0
 40
15.0
 50
270.0
 51
296.56505117707889
  0
ARC
  5
1E7
  8
DATA
  6
CONTINUOUS
 62
     7
 10
1720.0
 20
-980.72949016875157
 30
0.0
 40
15.000000000000011
 50
296.565051177079
 51
0.0000000000004547
  0
ARC
  5
1E8
  8
DATA
  6
CONTINUOUS
 62
     7
 10
623.54101966249686
 20
-985.0
 30
0.0
 40
15.00000000000011
 50
243.43494882292131
 51
270.0
  0
ARC
  5
1E9
  8
DATA
  6
CONTINUOUS
 62
     7
 10
615.0
 20
-980.72949016875157
 30
0.0
 40
15.0
 50
179.9999999999996
 51
243.434948822921
  0
ARC
  5
1EA
  8
DATA
  6
CONTINUOUS
 62
     7
 10
615.0
 20
-454.27050983124838
 30
0.0
 40
15.000000000000011
 50
116.5650511770789
 51
180.0000000000004
  0
ARC
  5
1EB
  8
DATA
  6
CONTINUOUS
 62
     7
 10
623.54101966249686
 20
-450.0
 30
0.0
 40
15.0
 50
90.0
 51
116.5650511770788
  0
ARC
  5
1EC
  8
DATA
  6
CONTINUOUS
 62
     7
 10
1711.458980337502
 20
-450.0
 30
0.0
 40
15.00000000000011
 50
63.434948822921228
 51
90.0
  0
ARC
  5
1ED
  8
DATA
  6
CONTINUOUS
 62
     7
 10
1720.0
 20
-454.27050983124838
 30
0.0
 40
15.0
 50
359.9999999999996
 51
63.434948822921051
  0
LINE
  5
1EE
  8
DATA
  6
CONTINUOUS
 62
     7
 10
603.20772933363878
 20
-990.0
 30
0.0
 11
1731.5999999999999
 21
-990.0
 31
0.0
  0
LINE
  5
1EF
  8
DATA
  6
CONTINUOUS
 62
     7
 10
603.20772933363878
 20
-445.0
 30
0.0
 11
1731.5999999999999
 21
-445.0
 31
0.0
  0
LINE
  5
1F0
  8
DATA
  6
CONTINUOUS
 62
     7
 10
1699.5
 20
-1004.0
 30
0.0
 11
1699.5
 21
-1000.0
 31
0.0
  0
LINE
  5
1F1
  8
DATA
  6
CONTINUOUS
 62
     7
 10
1659.5
 20
-1004.0
 30
0.0
 11
1699.5
 21
-1004.0
 31
0.0
  0
LINE
  5
1F2
  8
DATA
  6
CONTINUOUS
 62
     7
 10
1659.5
 20
-1000.0
 30
0.0
 11
1659.5
 21
-1004.0
 31
0.0
  0
LINE
  5
1F3
  8
DATA
  6
CONTINUOUS
 62
     7
 10
1699.5
 20
-1000.0
 30
0.0
 11
1659.5
 21
-1000.0
 31
0.0
  0
LINE
  5
1F4
  8
DATA
  6
CONTINUOUS
 62
     7
 10
635.5
 20
-1004.0
 30
0.0
 11
635.5
 21
-1000.0
 31
0.0
  0
LINE
  5
1F5
  8
DATA
  6
CONTINUOUS
 62
     7
 10
675.49999999999989
 20
-1004.0
 30
0.0
 11
635.5
 21
-1004.0
 31
0.0
  0
LINE
  5
1F6
  8
DATA
  6
CONTINUOUS
 62
     7
 10
675.49999999999989
 20
-1000.0
 30
0.0
 11
675.49999999999989
 21
-1004.0
 31
0.0
  0
LINE
  5
1F7
  8
DATA
  6
CONTINUOUS
 62
     7
 10
635.5
 20
-1000.0
 30
0.0
 11
675.49999999999989
 21
-1000.0
 31
0.0
  0
CIRCLE
  5
1F8
  8
DATA
  6
CONTINUOUS
 62
     7
 10
645.0
 20
-485.0
 30
0.0
 40
3.9999999999998388
  0
CIRCLE
  5
1F9
  8
DATA
  6
CONTINUOUS
 62
     7
 10
725.0
 20
-485.0
 30
0.0
 40
4.0000000000003046
  0
CIRCLE
  5
1FA
  8
DATA
  6
CONTINUOUS
 62
     7
 10
725.0
 20
-545.0
 30
0.0
 40
4.0
  0
CIRCLE
  5
1FB
  8
DATA
  6
CONTINUOUS
 62
     7
 10
645.0
 20
-545.0
 30
0.0
 40
4.0000000000003073
  0
CIRCLE
  5
1FC
  8
DATA
  6
CONTINUOUS
 62
     7
 10
645.0
 20
-945.0
 30
0.0
 40
3.9999999999998241
  0
CIRCLE
  5
1FD
  8
DATA
  6
CONTINUOUS
 62
     7
 10
725.0
 20
-945.0
 30
0.0
 40
4.0000000000003046
  0
CIRCLE
  5
1FE
  8
DATA
  6
CONTINUOUS
 62
     7
 10
725.0
 20
-885.0
 30
0.0
 40
4.0
  0
CIRCLE
  5
1FF
  8
DATA
  6
CONTINUOUS
 62
     7
 10
645.0
 20
-885.0
 30
0.0
 40
4.0000000000003073
  0
CIRCLE
  5
200
  8
DATA
  6
CONTINUOUS
 62
     7
 10
1690.0
 20
-485.0
 30
0.0
 40
3.9999999999998388
  0
CIRCLE
  5
201
  8
DATA
  6
CONTINUOUS
 62
     7
 10
1610.0
 20
-485.0
 30
0.0
 40
4.0000000000003046
  0
CIRCLE
  5
202
  8
DATA
  6
CONTINUOUS
 62
     7
 10
1610.0
 20
-545.0
 30
0.0
 40
4.0
  0
CIRCLE
  5
203
  8
DATA
  6
CONTINUOUS
 62
     7
 10
1690.0
 20
-545.0
 30
0.0
 40
4.0000000000003073
  0
CIRCLE
  5
204
  8
DATA
  6
CONTINUOUS
 62
     7
 10
1690.0
 20
-945.0
 30
0.0
 40
3.9999999999998241
  0
CIRCLE
  5
205
  8
DATA
  6
CONTINUOUS
 62
     7
 10
1610.0
 20
-945.0
 30
0.0
 40
4.0000000000003046
  0
CIRCLE
  5
206
  8
DATA
  6
CONTINUOUS
 62
     7
 10
1610.0
 20
-885.0
 30
0.0
 40
4.0
  0
CIRCLE
  5
207
  8
DATA
  6
CONTINUOUS
 62
     7
 10
1690.0
 20
-885.0
 30
0.0
 40
4.0000000000003073
  0
TEXT
  5
208
  8
DATA
 62
     7
 10
887.16820638020829
 20
-686.44326171875002
 30
0.0
 40
4.8865234375000002
  1
IN/THRU
 41
0.7
 72
     1
 11
898.0
 21
-684.0
 31
0.0
 73
     2
  0
TEXT
  5
209
  8
DATA
 62
     7
 10
857.50605533854161
 20
-762.94326171875002
 30
0.0
 40
4.8865234375000002
  1
INPUT:4\U+03A9
 41
0.7
 72
     1
 11
869.25
 21
-760.5
 31
0.0
 73
     2
  0
LINE
  5
20A
  8
DATA
  6
CONTINUOUS
 62
     7
 10
835.5
 20
-815.0
 30
0.0
 11
835.5
 21
-625.0
 31
0.0
  0
LINE
  5
20B
  8
DATA
  6
CONTINUOUS
 62
     7
 10
850.5
 20
-800.0
 30
0.0
 11
850.5
 21
-640.0
 31
0.0
  0
LINE
  5
20C
  8
DATA
  6
CONTINUOUS
 62
     7
 10
955.49999999999989
 20
-820.0
 30
0.0
 11
840.49999999999989
 21
-820.0
 31
0.0
  0
LINE
  5
20D
  8
DATA
  6
CONTINUOUS
 62
     7
 10
940.49999999999989
 20
-805.0
 30
0.0
 11
855.49999999999989
 21
-805.0
 31
0.0
  0
LINE
  5
20E
  8
DATA
  6
CONTINUOUS
 62
     7
 10
960.5
 20
-625.0
 30
0.0
 11
960.5
 21
-815.0
 31
0.0
  0
LINE
  5
20F
  8
DATA
  6
CONTINUOUS
 62
     7
 10
945.5
 20
-640.0
 30
0.0
 11
945.5
 21
-800.0
 31
0.0
  0
LINE
  5
210
  8
DATA
  6
CONTINUOUS
 62
     7
 10
840.49999999999989
 20
-620.0
 30
0.0
 11
955.49999999999989
 21
-620.0
 31
0.0
  0
LINE
  5
211
  8
DATA
  6
CONTINUOUS
 62
     7
 10
855.49999999999989
 20
-635.0
 30
0.0
 11
940.49999999999989
 21
-635.0
 31
0.0
  0
ARC
  5
212
  8
DATA
  6
CONTINUOUS
 62
     7
 10
840.49999999999989
 20
-625.0
 30
0.0
 40
5.0
 50
90.0
 51
180.0
  0
ARC
  5
213
  8
DATA
  6
CONTINUOUS
 62
     7
 10
840.49999999999989
 20
-815.0
 30
0.0
 40
5.0
 50
180.0
 51
270.0
  0
ARC
  5
214
  8
DATA
  6
CONTINUOUS
 62
     7
 10
955.49999999999989
 20
-815.0
 30
0.0
 40
5.0
 50
270.0
 51
0.0
  0
ARC
  5
215
  8
DATA
  6
CONTINUOUS
 62
     7
 10
955.49999999999989
 20
-625.0
 30
0.0
 40
5.0
 50
0.0
 51
90.0
  0
ARC
  5
216
  8
DATA
  6
CONTINUOUS
 62
     7
 10
855.49999999999989
 20
-640.0
 30
0.0
 40
5.0
 50
90.0
 51
180.0
  0
ARC
  5
217
  8
DATA
  6
CONTINUOUS
 62
     7
 10
940.49999999999989
 20
-640.0
 30
0.0
 40
5.0
 50
0.0
 51
90.0
  0
ARC
  5
218
  8
DATA
  6
CONTINUOUS
 62
     7
 10
940.49999999999989
 20
-800.0
 30
0.0
 40
5.0
 50
270.0
 51
0.0
  0
ARC
  5
219
  8
DATA
  6
CONTINUOUS
 62
     7
 10
855.49999999999989
 20
-800.0
 30
0.0
 40
5.0
 50
180.0
 51
270.0
  0
CIRCLE
  5
21A
  8
DATA
  6
CONTINUOUS
 62
     7
 10
898.0
 20
-665.0
 30
0.0
 40
11.75
  0
LINE
  5
21B
  8
DATA
  6
CONTINUOUS
 62
     7
 10
895.0
 20
-655.0
 30
0.0
 11
901.0
 21
-655.0
 31
0.0
  0
LINE
  5
21C
  8
DATA
  6
CONTINUOUS
 62
     7
 10
896.0
 20
-675.0
 30
0.0
 11
900.0
 21
-675.0
 31
0.0
  0
LINE
  5
21D
  8
DATA
  6
CONTINUOUS
 62
     7
 10
896.0
 20
-675.0
 30
0.0
 11
896.0
 21
-673.80000000000018
 31
0.0
  0
LINE
  5
21E
  8
DATA
  6
CONTINUOUS
 62
     7
 10
900.0
 20
-675.0
 30
0.0
 11
900.0
 21
-673.80000000000018
 31
0.0
  0
LINE
  5
21F
  8
DATA
  6
CONTINUOUS
 62
     7
 10
895.0
 20
-655.0
 30
0.0
 11
895.0
 21
-656.72714999999948
 31
0.0
  0
LINE
  5
220
  8
DATA
  6
CONTINUOUS
 62
     7
 10
901.0
 20
-655.0
 30
0.0
 11
901.0
 21
-656.72714999999948
 31
0.0
  0
ARC
  5
221
  8
DATA
  6
CONTINUOUS
 62
     7
 10
898.0
 20
-665.0
 30
0.0
 40
8.8000026774146374
 50
109.93226415067829
 51
257.19616681970177
  0
ARC
  5
222
  8
DATA
  6
CONTINUOUS
 62
     7
 10
898.0
 20
-665.0
 30
0.0
 40
8.8000035043456055
 50
282.99999955541853
 51
69.999994237961545
  0
ARC
  5
223
  8
DATA
  6
CONTINUOUS
 62
     7
 10
898.0
 20
-665.0
 30
0.0
 40
6.2000021620640497
 50
60.000011535556453
 51
150.00001153556431
  0
LINE
  5
224
  8
DATA
  6
CONTINUOUS
 62
     7
 10
892.63065999999981
 20
-661.89997000000005
 30
0.0
 11
893.1286199999995
 21
-662.18746999999985
 31
0.0
  0
LINE
  5
225
  8
DATA
  6
CONTINUOUS
 62
     7
 10
901.0999700000001
 20
-659.63061999999979
 30
0.0
 11
900.81246999999973
 21
-660.12859000000014
 31
0.0
  0
ARC
  5
226
  8
DATA
  6
CONTINUOUS
 62
     7
 10
898.0
 20
-665.0
 30
0.0
 40
6.2000021620640497
 50
240.0000115355565
 51
330.0000115355644
  0
LINE
  5
227
  8
DATA
  6
CONTINUOUS
 62
     7
 10
894.89999999999975
 20
-670.36935999999946
 30
0.0
 11
895.18749999999989
 21
-669.87139000000025
 31
0.0
  0
LINE
  5
228
  8
DATA
  6
CONTINUOUS
 62
     7
 10
903.36937000000034
 20
-668.09997999999985
 30
0.0
 11
902.87139999999999
 21
-667.81248000000005
 31
0.0
  0
ARC
  5
229
  8
DATA
  6
CONTINUOUS
 62
     7
 10
898.0
 20
-665.0
 30
0.0
 40
5.6250038315814246
 50
149.9996696821037
 51
240.000212604301
  0
ARC
  5
22A
  8
DATA
  6
CONTINUOUS
 62
     7
 10
898.0
 20
-665.0
 30
0.0
 40
5.6249961520342593
 50
330.00021260430242
 51
60.000718243117603
  0
ARC
  5
22B
  8
DATA
  6
CONTINUOUS
 62
     7
 10
898.0
 20
-665.0
 30
0.0
 40
3.5999900808755672
 50
59.999908854705069
 51
149.99990885469779
  0
ARC
  5
22C
  8
DATA
  6
CONTINUOUS
 62
     7
 10
898.0
 20
-665.0
 30
0.0
 40
3.5999900808755672
 50
239.99990885470501
 51
329.99990885469782
  0
LINE
  5
22D
  8
DATA
  6
CONTINUOUS
 62
     7
 10
899.79997999999955
 20
-661.88230999999996
 30
0.0
 11
899.44998999999984
 21
-662.48851999999977
 31
0.0
  0
LINE
  5
22E
  8
DATA
  6
CONTINUOUS
 62
     7
 10
894.88233000000025
 20
-663.19999000000018
 30
0.0
 11
895.48853000000042
 21
-663.54998999999998
 31
0.0
  0
LINE
  5
22F
  8
DATA
  6
CONTINUOUS
 62
     7
 10
896.1999999999997
 20
-668.11768000000018
 30
0.0
 11
896.55000000000041
 21
-667.5114699999998
 31
0.0
  0
LINE
  5
230
  8
DATA
  6
CONTINUOUS
 62
     7
 10
901.11769000000004
 20
-666.79997999999966
 30
0.0
 11
900.51148000000012
 21
-666.44999000000007
 31
0.0
  0
ARC
  5
231
  8
DATA
  6
CONTINUOUS
 62
     7
 10
898.0
 20
-665.0
 30
0.0
 40
2.9000018208610419
 50
149.9997926340248
 51
240.0002336238326
  0
ARC
  5
232
  8
DATA
  6
CONTINUOUS
 62
     7
 10
898.0
 20
-665.0
 30
0.0
 40
2.900000481120788
 50
330.0002336238303
 51
59.999792634035941
  0
CIRCLE
  5
233
  8
DATA
  6
CONTINUOUS
 62
     7
 10
898.0
 20
-703.0
 30
0.0
 40
11.75
  0
LINE
  5
234
  8
DATA
  6
CONTINUOUS
 62
     7
 10
895.0
 20
-693.0
 30
0.0
 11
901.0
 21
-693.0
 31
0.0
  0
LINE
  5
235
  8
DATA
  6
CONTINUOUS
 62
     7
 10
896.0
 20
-713.0
 30
0.0
 11
900.0
 21
-713.0
 31
0.0
  0
LINE
  5
236
  8
DATA
  6
CONTINUOUS
 62
     7
 10
896.0
 20
-713.0
 30
0.0
 11
896.0
 21
-711.80000000000018
 31
0.0
  0
LINE
  5
237
  8
DATA
  6
CONTINUOUS
 62
     7
 10
900.0
 20
-713.0
 30
0.0
 11
900.0
 21
-711.80000000000018
 31
0.0
  0
LINE
  5
238
  8
DATA
  6
CONTINUOUS
 62
     7
 10
895.0
 20
-693.0
 30
0.0
 11
895.0
 21
-694.72714999999971
 31
0.0
  0
LINE
  5
239
  8
DATA
  6
CONTINUOUS
 62
     7
 10
901.0
 20
-693.0
 30
0.0
 11
901.0
 21
-694.72714999999971
 31
0.0
  0
ARC
  5
23A
  8
DATA
  6
CONTINUOUS
 62
     7
 10
898.0
 20
-703.0
 30
0.0
 40
8.8000026774146374
 50
109.93226415067829
 51
257.19616681970177
  0
ARC
  5
23B
  8
DATA
  6
CONTINUOUS
 62
     7
 10
898.0
 20
-703.0
 30
0.0
 40
8.8000035043456055
 50
282.99999955541853
 51
69.999994237961545
  0
ARC
  5
23C
  8
DATA
  6
CONTINUOUS
 62
     7
 10
898.0
 20
-703.0
 30
0.0
 40
6.2000021620640497
 50
60.000011535556453
 51
150.00001153556431
  0
LINE
  5
23D
  8
DATA
  6
CONTINUOUS
 62
     7
 10
892.63065999999981
 20
-699.89997000000005
 30
0.0
 11
893.1286199999995
 21
-700.18746999999985
 31
0.0
  0
LINE
  5
23E
  8
DATA
  6
CONTINUOUS
 62
     7
 10
901.0999700000001
 20
-697.63061999999979
 30
0.0
 11
900.81246999999973
 21
-698.12859000000026
 31
0.0
  0
ARC
  5
23F
  8
DATA
  6
CONTINUOUS
 62
     7
 10
898.0
 20
-703.0
 30
0.0
 40
6.2000021620640497
 50
240.0000115355565
 51
330.0000115355644
  0
LINE
  5
240
  8
DATA
  6
CONTINUOUS
 62
     7
 10
894.89999999999975
 20
-708.36935999999957
 30
0.0
 11
895.18749999999989
 21
-707.87139000000025
 31
0.0
  0
LINE
  5
241
  8
DATA
  6
CONTINUOUS
 62
     7
 10
903.36937000000034
 20
-706.09997999999985
 30
0.0
 11
902.87139999999999
 21
-705.81248000000005
 31
0.0
  0
ARC
  5
242
  8
DATA
  6
CONTINUOUS
 62
     7
 10
898.0
 20
-703.0
 30
0.0
 40
5.6250038315814246
 50
149.9996696821037
 51
240.000212604301
  0
ARC
  5
243
  8
DATA
  6
CONTINUOUS
 62
     7
 10
898.0
 20
-703.0
 30
0.0
 40
5.6249961520342593
 50
330.00021260430242
 51
60.000718243117603
  0
ARC
  5
244
  8
DATA
  6
CONTINUOUS
 62
     7
 10
898.0
 20
-703.0
 30
0.0
 40
3.5999900808755672
 50
59.999908854705069
 51
149.99990885469779
  0
ARC
  5
245
  8
DATA
  6
CONTINUOUS
 62
     7
 10
898.0
 20
-703.0
 30
0.0
 40
3.5999900808755672
 50
239.99990885470501
 51
329.99990885469782
  0
LINE
  5
246
  8
DATA
  6
CONTINUOUS
 62
     7
 10
899.79997999999955
 20
-699.88230999999996
 30
0.0
 11
899.44998999999984
 21
-700.48851999999977
 31
0.0
  0
LINE
  5
247
  8
DATA
  6
CONTINUOUS
 62
     7
 10
894.88233000000025
 20
-701.19999000000007
 30
0.0
 11
895.48853000000042
 21
-701.54998999999998
 31
0.0
  0
LINE
  5
248
  8
DATA
  6
CONTINUOUS
 62
     7
 10
896.1999999999997
 20
-706.11768000000018
 30
0.0
 11
896.55000000000041
 21
-705.5114699999998
 31
0.0
  0
LINE
  5
249
  8
DATA
  6
CONTINUOUS
 62
     7
 10
901.11769000000004
 20
-704.79997999999955
 30
0.0
 11
900.51148000000012
 21
-704.44999000000007
 31
0.0
  0
ARC
  5
24A
  8
DATA
  6
CONTINUOUS
 62
     7
 10
898.0
 20
-703.0
 30
0.0
 40
2.9000018208610419
 50
149.9997926340248
 51
240.0002336238326
  0
ARC
  5
24B
  8
DATA
  6
CONTINUOUS
 62
     7
 10
898.0
 20
-703.0
 30
0.0
 40
2.900000481120788
 50
330.0002336238303
 51
59.999792634035941
  0
LINE
  5
24C
  8
DATA
  6
CONTINUOUS
 62
     7
 10
888.0
 20
-770.0
 30
0.0
 11
888.0
 21
-751.0
 31
0.0
  0
LINE
  5
24D
  8
DATA
  6
CONTINUOUS
 62
     7
 10
905.0
 20
-773.0
 30
0.0
 11
891.0
 21
-773.0
 31
0.0
  0
LINE
  5
24E
  8
DATA
  6
CONTINUOUS
 62
     7
 10
908.0
 20
-751.0
 30
0.0
 11
908.0
 21
-770.0
 31
0.0
  0
LINE
  5
24F
  8
DATA
  6
CONTINUOUS
 62
     7
 10
891.0
 20
-748.0
 30
0.0
 11
905.0
 21
-748.0
 31
0.0
  0
ARC
  5
250
  8
DATA
  6
CONTINUOUS
 62
     7
 10
891.0
 20
-751.0
 30
0.0
 40
3.0
 50
90.0
 51
180.0
  0
ARC
  5
251
  8
DATA
  6
CONTINUOUS
 62
     7
 10
905.0
 20
-751.0
 30
0.0
 40
3.0
 50
0.0
 51
90.0
  0
ARC
  5
252
  8
DATA
  6
CONTINUOUS
 62
     7
 10
891.0
 20
-770.0
 30
0.0
 40
3.0
 50
180.0
 51
270.0
  0
ARC
  5
253
  8
DATA
  6
CONTINUOUS
 62
     7
 10
905.0
 20
-770.0
 30
0.0
 40
3.0
 50
270.0
 51
0.0
  0
LINE
  5
254
  8
DATA
  6
CONTINUOUS
 62
     7
 10
890.49999999999989
 20
-763.0
 30
0.0
 11
890.49999999999989
 21
-753.0
 31
0.0
  0
LINE
  5
255
  8
DATA
  6
CONTINUOUS
 62
     7
 10
905.49999999999989
 20
-763.0
 30
0.0
 11
890.49999999999989
 21
-763.0
 31
0.0
  0
LINE
  5
256
  8
DATA
  6
CONTINUOUS
 62
     7
 10
905.49999999999989
 20
-753.0
 30
0.0
 11
905.49999999999989
 21
-763.0
 31
0.0
  0
LINE
  5
257
  8
DATA
  6
CONTINUOUS
 62
     7
 10
890.49999999999989
 20
-753.0
 30
0.0
 11
905.49999999999989
 21
-753.0
 31
0.0
  0
TEXT
  5
258
  8
DATA
 62
     7
 10
890.58877278645821
 20
-747.34846354166655
 30
0.0
 40
4.8865234375000002
  1
NL4\U+00B11
 41
0.7
 72
     1
 11
898.0
 21
-748.0
 31
0.0
 73
     1
  0
TEXT
  5
259
  8
DATA
 62
     7
 10
890.01867838541671
 20
-778.46099999999979
 30
0.0
 40
4.8865234375000002
  1
NL4\U+00B12
 41
0.7
 72
     1
 11
898.0
 21
-773.57447656249985
 31
0.0
 73
     3
  0
TEXT
  5
25A
  8
DATA
 62
     7
 10
855.39811197916595
 20
-659.74326171874964
 30
0.0
 40
4.8865234375000002
  1
STX828S
 41
0.7
 72
     1
 11
866.79999999999916
 21
-657.2999999999995
 31
0.0
 73
     2
  0
CIRCLE
  5
25B
  8
DATA
  6
CONTINUOUS
 62
     7
 10
844.5
 20
-627.0
 30
0.0
 40
4.0
  0
LINE
  5
25C
  8
DATA
  6
CONTINUOUS
 62
     7
 10
842.5
 20
-627.0
 30
0.0
 11
846.49999999999989
 21
-627.0
 31
0.0
  0
LINE
  5
25D
  8
DATA
  6
CONTINUOUS
 62
     7
 10
844.5
 20
-629.0
 30
0.0
 11
844.5
 21
-625.0
 31
0.0
  0
CIRCLE
  5
25E
  8
DATA
  6
CONTINUOUS
 62
     7
 10
951.5
 20
-627.0
 30
0.0
 40
4.0
  0
LINE
  5
25F
  8
DATA
  6
CONTINUOUS
 62
     7
 10
949.5
 20
-627.0
 30
0.0
 11
953.5
 21
-627.0
 31
0.0
  0
LINE
  5
260
  8
DATA
  6
CONTINUOUS
 62
     7
 10
951.5
 20
-629.0
 30
0.0
 11
951.5
 21
-625.0
 31
0.0
  0
CIRCLE
  5
261
  8
DATA
  6
CONTINUOUS
 62
     7
 10
844.5
 20
-720.0
 30
0.0
 40
4.0
  0
LINE
  5
262
  8
DATA
  6
CONTINUOUS
 62
     7
 10
842.5
 20
-720.0
 30
0.0
 11
846.49999999999989
 21
-720.0
 31
0.0
  0
LINE
  5
263
  8
DATA
  6
CONTINUOUS
 62
     7
 10
844.5
 20
-722.0
 30
0.0
 11
844.5
 21
-718.0
 31
0.0
  0
CIRCLE
  5
264
  8
DATA
  6
CONTINUOUS
 62
     7
 10
951.5
 20
-720.0
 30
0.0
 40
4.0
  0
LINE
  5
265
  8
DATA
  6
CONTINUOUS
 62
     7
 10
949.5
 20
-720.0
 30
0.0
 11
953.5
 21
-720.0
 31
0.0
  0
LINE
  5
266
  8
DATA
  6
CONTINUOUS
 62
     7
 10
951.5
 20
-722.0
 30
0.0
 11
951.5
 21
-718.0
 31
0.0
  0
CIRCLE
  5
267
  8
DATA
  6
CONTINUOUS
 62
     7
 10
844.5
 20
-813.0
 30
0.0
 40
4.0
  0
LINE
  5
268
  8
DATA
  6
CONTINUOUS
 62
     7
 10
842.5
 20
-813.0
 30
0.0
 11
846.49999999999989
 21
-813.0
 31
0.0
  0
LINE
  5
269
  8
DATA
  6
CONTINUOUS
 62
     7
 10
844.5
 20
-815.0
 30
0.0
 11
844.5
 21
-811.0
 31
0.0
  0
CIRCLE
  5
26A
  8
DATA
  6
CONTINUOUS
 62
     7
 10
951.5
 20
-813.0
 30
0.0
 40
4.0
  0
LINE
  5
26B
  8
DATA
  6
CONTINUOUS
 62
     7
 10
949.5
 20
-813.0
 30
0.0
 11
953.5
 21
-813.0
 31
0.0
  0
LINE
  5
26C
  8
DATA
  6
CONTINUOUS
 62
     7
 10
951.5
 20
-815.0
 30
0.0
 11
951.5
 21
-811.0
 31
0.0
  0
TEXT
  5
26D
  8
DATA
 62
     7
 10
1213.3457048712839
 20
738.45390625000005
 30
0.0
 40
39.092187500000001
  1
IN/THRU
 41
0.7
 72
     1
 11
1300.0000538296169
 21
758.0
 31
0.0
 73
     2
  0
TEXT
  5
26E
  8
DATA
 62
     7
 10
976.04849653795065
 20
126.45390625
 30
0.0
 40
39.092187500000001
  1
INPUT:4\U+03A9
 41
0.7
 72
     1
 11
1070.0000538296169
 21
146.0
 31
0.0
 73
     2
  0
LINE
  5
26F
  8
DATA
  6
CONTINUOUS
 62
     7
 10
920.00005382961729
 20
-170.0
 30
0.0
 11
920.00005382961729
 21
1110.0
 31
0.0
  0
LINE
  5
270
  8
DATA
  6
CONTINUOUS
 62
     7
 10
1640.0000538296169
 20
-210.0
 30
0.0
 11
960.00005382961729
 21
-210.0
 31
0.0
  0
LINE
  5
271
  8
DATA
  6
CONTINUOUS
 62
     7
 10
1680.0000538296169
 20
1110.0
 30
0.0
 11
1680.0000538296169
 21
-170.0
 31
0.0
  0
LINE
  5
272
  8
DATA
  6
CONTINUOUS
 62
     7
 10
960.00005382961729
 20
1150.0
 30
0.0
 11
1640.0000538296169
 21
1150.0
 31
0.0
  0
ARC
  5
273
  8
DATA
  6
CONTINUOUS
 62
     7
 10
960.00005382961729
 20
1110.0
 30
0.0
 40
40.0
 50
90.0
 51
180.0
  0
ARC
  5
274
  8
DATA
  6
CONTINUOUS
 62
     7
 10
1640.0000538296169
 20
1110.0
 30
0.0
 40
40.0
 50
0.0
 51
90.0
  0
ARC
  5
275
  8
DATA
  6
CONTINUOUS
 62
     7
 10
1640.0000538296169
 20
-170.0
 30
0.0
 40
40.0
 50
270.0
 51
0.0
  0
ARC
  5
276
  8
DATA
  6
CONTINUOUS
 62
     7
 10
960.00005382961729
 20
-170.0
 30
0.0
 40
40.0
 50
180.0
 51
270.0
  0
CIRCLE
  5
277
  8
DATA
  6
CONTINUOUS
 62
     7
 10
1300.0000538296169
 20
910.0
 30
0.0
 40
94.0
  0
LINE
  5
278
  8
DATA
  6
CONTINUOUS
 62
     7
 10
1276.0000538296169
 20
990.0
 30
0.0
 11
1324.0000538296169
 21
990.0
 31
0.0
  0
LINE
  5
279
  8
DATA
  6
CONTINUOUS
 62
     7
 10
1284.0000538296169
 20
830.0
 30
0.0
 11
1316.0000538296169
 21
830.0
 31
0.0
  0
LINE
  5
27A
  8
DATA
  6
CONTINUOUS
 62
     7
 10
1284.0000538296169
 20
830.0
 30
0.0
 11
1284.0000538296169
 21
839.59999999999843
 31
0.0
  0
LINE
  5
27B
  8
DATA
  6
CONTINUOUS
 62
     7
 10
1316.0000538296169
 20
830.0
 30
0.0
 11
1316.0000538296169
 21
839.59999999999843
 31
0.0
  0
LINE
  5
27C
  8
DATA
  6
CONTINUOUS
 62
     7
 10
1276.0000538296169
 20
990.0
 30
0.0
 11
1276.0000538296169
 21
976.18280000000243
 31
0.0
  0
LINE
  5
27D
  8
DATA
  6
CONTINUOUS
 62
     7
 10
1324.0000538296169
 20
990.0
 30
0.0
 11
1324.0000538296169
 21
976.18280000000243
 31
0.0
  0
ARC
  5
27E
  8
DATA
  6
CONTINUOUS
 62
     7
 10
1300.0000538296169
 20
910.0
 30
0.0
 40
70.400021419317099
 50
109.93226415067829
 51
257.19616681970189
  0
ARC
  5
27F
  8
DATA
  6
CONTINUOUS
 62
     7
 10
1300.0000538296169
 20
910.0
 30
0.0
 40
70.400028034764844
 50
282.99999955541853
 51
69.999994237961459
  0
ARC
  5
280
  8
DATA
  6
CONTINUOUS
 62
     7
 10
1300.0000538296169
 20
910.0
 30
0.0
 40
49.600017296512398
 50
60.000011535556453
 51
150.00001153556431
  0
LINE
  5
281
  8
DATA
  6
CONTINUOUS
 62
     7
 10
1257.0453338296149
 20
934.80024000000049
 30
0.0
 11
1261.0290138296129
 21
932.50024000000133
 31
0.0
  0
LINE
  5
282
  8
DATA
  6
CONTINUOUS
 62
     7
 10
1324.799813829618
 20
952.95504000000062
 30
0.0
 11
1322.499813829616
 21
948.97127999999805
 31
0.0
  0
ARC
  5
283
  8
DATA
  6
CONTINUOUS
 62
     7
 10
1300.0000538296169
 20
910.0
 30
0.0
 40
49.600017296512398
 50
240.0000115355565
 51
330.0000115355644
  0
LINE
  5
284
  8
DATA
  6
CONTINUOUS
 62
     7
 10
1275.200053829614
 20
867.04512000000227
 30
0.0
 11
1277.5000538296169
 21
871.02887999999814
 31
0.0
  0
LINE
  5
285
  8
DATA
  6
CONTINUOUS
 62
     7
 10
1342.9550138296199
 20
885.20016000000032
 30
0.0
 11
1338.9712538296169
 21
887.50015999999971
 31
0.0
  0
ARC
  5
286
  8
DATA
  6
CONTINUOUS
 62
     7
 10
1300.0000538296169
 20
910.0
 30
0.0
 40
45.000030652651397
 50
149.9996696821037
 51
240.000212604301
  0
ARC
  5
287
  8
DATA
  6
CONTINUOUS
 62
     7
 10
1300.0000538296169
 20
910.0
 30
0.0
 40
44.999969216274081
 50
330.00021260430242
 51
60.000718243117497
  0
ARC
  5
288
  8
DATA
  6
CONTINUOUS
 62
     7
 10
1300.0000538296169
 20
910.0
 30
0.0
 40
28.799920647004541
 50
59.999908854705069
 51
149.99990885469771
  0
ARC
  5
289
  8
DATA
  6
CONTINUOUS
 62
     7
 10
1300.0000538296169
 20
910.0
 30
0.0
 40
28.799920647004541
 50
239.99990885470501
 51
329.99990885469782
  0
LINE
  5
28A
  8
DATA
  6
CONTINUOUS
 62
     7
 10
1314.3998938296149
 20
934.9415200000002
 30
0.0
 11
1311.5999738296171
 21
930.09184000000073
 31
0.0
  0
LINE
  5
28B
  8
DATA
  6
CONTINUOUS
 62
     7
 10
1275.0586938296201
 20
924.40007999999943
 30
0.0
 11
1279.908293829621
 21
921.60008000000005
 31
0.0
  0
LINE
  5
28C
  8
DATA
  6
CONTINUOUS
 62
     7
 10
1285.600053829615
 20
885.05855999999756
 30
0.0
 11
1288.4000538296179
 21
889.90824000000055
 31
0.0
  0
LINE
  5
28D
  8
DATA
  6
CONTINUOUS
 62
     7
 10
1324.941573829617
 20
895.60016000000178
 30
0.0
 11
1320.0918938296179
 21
898.40007999999955
 31
0.0
  0
ARC
  5
28E
  8
DATA
  6
CONTINUOUS
 62
     7
 10
1300.0000538296169
 20
910.0
 30
0.0
 40
23.200014566888338
 50
149.9997926340248
 51
240.0002336238324
  0
ARC
  5
28F
  8
DATA
  6
CONTINUOUS
 62
     7
 10
1300.0000538296169
 20
910.0
 30
0.0
 40
23.200003848966311
 50
330.0002336238303
 51
59.999792634036233
  0
CIRCLE
  5
290
  8
DATA
  6
CONTINUOUS
 62
     7
 10
1300.0000538296169
 20
606.0
 30
0.0
 40
94.0
  0
LINE
  5
291
  8
DATA
  6
CONTINUOUS
 62
     7
 10
1276.0000538296169
 20
686.0
 30
0.0
 11
1324.0000538296169
 21
686.0
 31
0.0
  0
LINE
  5
292
  8
DATA
  6
CONTINUOUS
 62
     7
 10
1284.0000538296169
 20
526.0
 30
0.0
 11
1316.0000538296169
 21
526.0
 31
0.0
  0
LINE
  5
293
  8
DATA
  6
CONTINUOUS
 62
     7
 10
1284.0000538296169
 20
526.0
 30
0.0
 11
1284.0000538296169
 21
535.59999999999854
 31
0.0
  0
LINE
  5
294
  8
DATA
  6
CONTINUOUS
 62
     7
 10
1316.0000538296169
 20
526.0
 30
0.0
 11
1316.0000538296169
 21
535.59999999999854
 31
0.0
  0
LINE
  5
295
  8
DATA
  6
CONTINUOUS
 62
     7
 10
1276.0000538296169
 20
686.0
 30
0.0
 11
1276.0000538296169
 21
672.18280000000232
 31
0.0
  0
LINE
  5
296
  8
DATA
  6
CONTINUOUS
 62
     7
 10
1324.0000538296169
 20
686.0
 30
0.0
 11
1324.0000538296169
 21
672.18280000000232
 31
0.0
  0
ARC
  5
297
  8
DATA
  6
CONTINUOUS
 62
     7
 10
1300.0000538296169
 20
606.0
 30
0.0
 40
70.400021419317099
 50
109.93226415067829
 51
257.19616681970177
  0
ARC
  5
298
  8
DATA
  6
CONTINUOUS
 62
     7
 10
1300.0000538296169
 20
606.0
 30
0.0
 40
70.400028034764844
 50
282.99999955541853
 51
69.999994237961459
  0
ARC
  5
299
  8
DATA
  6
CONTINUOUS
 62
     7
 10
1300.0000538296169
 20
606.0
 30
0.0
 40
49.600017296512398
 50
60.000011535556453
 51
150.00001153556431
  0
LINE
  5
29A
  8
DATA
  6
CONTINUOUS
 62
     7
 10
1257.0453338296149
 20
630.80024000000037
 30
0.0
 11
1261.0290138296129
 21
628.50024000000121
 31
0.0
  0
LINE
  5
29B
  8
DATA
  6
CONTINUOUS
 62
     7
 10
1324.799813829618
 20
648.95504000000074
 30
0.0
 11
1322.499813829616
 21
644.97127999999782
 31
0.0
  0
ARC
  5
29C
  8
DATA
  6
CONTINUOUS
 62
     7
 10
1300.0000538296169
 20
606.0
 30
0.0
 40
49.600017296512398
 50
240.0000115355565
 51
330.0000115355644
  0
LINE
  5
29D
  8
DATA
  6
CONTINUOUS
 62
     7
 10
1275.200053829614
 20
563.0451200000025
 30
0.0
 11
1277.5000538296169
 21
567.02887999999803
 31
0.0
  0
LINE
  5
29E
  8
DATA
  6
CONTINUOUS
 62
     7
 10
1342.9550138296199
 20
581.20016000000044
 30
0.0
 11
1338.9712538296169
 21
583.5001599999996
 31
0.0
  0
ARC
  5
29F
  8
DATA
  6
CONTINUOUS
 62
     7
 10
1300.0000538296169
 20
606.0
 30
0.0
 40
45.000030652651397
 50
149.9996696821037
 51
240.000212604301
  0
ARC
  5
2A0
  8
DATA
  6
CONTINUOUS
 62
     7
 10
1300.0000538296169
 20
606.0
 30
0.0
 40
44.999969216274081
 50
330.00021260430242
 51
60.000718243117497
  0
ARC
  5
2A1
  8
DATA
  6
CONTINUOUS
 62
     7
 10
1300.0000538296169
 20
606.0
 30
0.0
 40
28.799920647004541
 50
59.999908854705069
 51
149.99990885469771
  0
ARC
  5
2A2
  8
DATA
  6
CONTINUOUS
 62
     7
 10
1300.0000538296169
 20
606.0
 30
0.0
 40
28.799920647004541
 50
239.99990885470501
 51
329.99990885469782
  0
LINE
  5
2A3
  8
DATA
  6
CONTINUOUS
 62
     7
 10
1314.3998938296149
 20
630.94152000000042
 30
0.0
 11
1311.5999738296171
 21
626.09184000000084
 31
0.0
  0
LINE
  5
2A4
  8
DATA
  6
CONTINUOUS
 62
     7
 10
1275.0586938296201
 20
620.40007999999943
 30
0.0
 11
1279.908293829621
 21
617.60008000000005
 31
0.0
  0
LINE
  5
2A5
  8
DATA
  6
CONTINUOUS
 62
     7
 10
1285.600053829615
 20
581.05855999999756
 30
0.0
 11
1288.4000538296179
 21
585.90824000000077
 31
0.0
  0
LINE
  5
2A6
  8
DATA
  6
CONTINUOUS
 62
     7
 10
1324.941573829617
 20
591.60016000000178
 30
0.0
 11
1320.0918938296179
 21
594.40007999999943
 31
0.0
  0
ARC
  5
2A7
  8
DATA
  6
CONTINUOUS
 62
     7
 10
1300.0000538296169
 20
606.0
 30
0.0
 40
23.200014566888338
 50
149.9997926340248
 51
240.0002336238324
  0
ARC
  5
2A8
  8
DATA
  6
CONTINUOUS
 62
     7
 10
1300.0000538296169
 20
606.0
 30
0.0
 40
23.200003848966311
 50
330.0002336238303
 51
59.999792634036062
  0
LINE
  5
2A9
  8
DATA
  6
CONTINUOUS
 62
     7
 10
1220.0000538296169
 20
70.0
 30
0.0
 11
1220.0000538296169
 21
222.0
 31
0.0
  0
LINE
  5
2AA
  8
DATA
  6
CONTINUOUS
 62
     7
 10
1356.0000538296169
 20
46.0
 30
0.0
 11
1244.0000538296169
 21
46.0
 31
0.0
  0
LINE
  5
2AB
  8
DATA
  6
CONTINUOUS
 62
     7
 10
1380.0000538296169
 20
222.0
 30
0.0
 11
1380.0000538296169
 21
70.0
 31
0.0
  0
LINE
  5
2AC
  8
DATA
  6
CONTINUOUS
 62
     7
 10
1244.0000538296169
 20
246.0
 30
0.0
 11
1356.0000538296169
 21
246.0
 31
0.0
  0
ARC
  5
2AD
  8
DATA
  6
CONTINUOUS
 62
     7
 10
1244.0000538296169
 20
222.0
 30
0.0
 40
24.0
 50
90.0
 51
180.0
  0
ARC
  5
2AE
  8
DATA
  6
CONTINUOUS
 62
     7
 10
1356.0000538296169
 20
222.0
 30
0.0
 40
24.0
 50
0.0
 51
90.0
  0
ARC
  5
2AF
  8
DATA
  6
CONTINUOUS
 62
     7
 10
1244.0000538296169
 20
70.0
 30
0.0
 40
24.0
 50
180.0
 51
270.0
  0
ARC
  5
2B0
  8
DATA
  6
CONTINUOUS
 62
     7
 10
1356.0000538296169
 20
70.0
 30
0.0
 40
24.0
 50
270.0
 51
0.0
  0
LINE
  5
2B1
  8
DATA
  6
CONTINUOUS
 62
     7
 10
1240.0000538296169
 20
126.0
 30
0.0
 11
1240.0000538296169
 21
206.0
 31
0.0
  0
LINE
  5
2B2
  8
DATA
  6
CONTINUOUS
 62
     7
 10
1360.0000538296169
 20
126.0
 30
0.0
 11
1240.0000538296169
 21
126.0
 31
0.0
  0
LINE
  5
2B3
  8
DATA
  6
CONTINUOUS
 62
     7
 10
1360.0000538296169
 20
206.0
 30
0.0
 11
1360.0000538296169
 21
126.0
 31
0.0
  0
LINE
  5
2B4
  8
DATA
  6
CONTINUOUS
 62
     7
 10
1240.0000538296169
 20
206.0
 30
0.0
 11
1360.0000538296169
 21
206.0
 31
0.0
  0
TEXT
  5
2B5
  8
DATA
 62
     7
 10
1240.710236121284
 20
251.21229166666669
 30
0.0
 40
39.092187500000001
  1
NL4\U+00B11
 41
0.7
 72
     1
 11
1300.0000538296169
 21
246.0
 31
0.0
 73
     1
  0
TEXT
  5
2B6
  8
DATA
 62
     7
 10
1236.149480912951
 20
2.3120000000000038
 30
0.0
 40
39.092187500000001
  1
NL4\U+00B12
 41
0.7
 72
     1
 11
1300.0000538296169
 21
41.404187500000013
 31
0.0
 73
     3
  0
TEXT
  5
2B7
  8
DATA
 62
     7
 10
959.18494966294463
 20
952.05390625000177
 30
0.0
 40
39.092187500000001
  1
STX828S
 41
0.7
 72
     1
 11
1050.4000538296109
 21
971.60000000000184
 31
0.0
 73
     2
  0
TEXT
  5
2B8
  8
DATA
 62
     7
 10
950.0
 20
-2216.6031500000008
 30
0.0
 40
32.576822916666671
  1
サブウーファー
 41
0.7
 11
950.0
 21
-2184.0263270833339
 31
0.0
 73
     3
  0
TEXT
  5
2B9
  8
DATA
 62
     7
 10
-1749.9999999999991
 20
-2357.1562944444449
 30
0.0
 40
38.006293402777779
  1
※仕様及び外観は予告なく変更されることがあります。
 41
0.7
 11
-1749.9999999999991
 21
-2319.1500010416671
 31
0.0
 73
     3
  0
TEXT
  5
2BA
  8
DATA
 62
     7
 10
-1749.9999999999991
 20
-2406.5451833333332
 30
0.0
 40
38.006293402777779
  1
　また、同一商品でも若干の個体差があることがあります。ご了承ください。
 41
0.7
 11
-1749.9999999999991
 21
-2368.5388899305549
 31
0.0
 73
     3
  0
TEXT
  5
2BB
  8
DATA
 62
     7
 10
1000.0
 20
-2292.06405
 30
0.0
 40
48.865234375000007
  1
STX828S
 41
0.7
 11
1000.0
 21
-2243.198815625
 31
0.0
 73
     3
  0
TEXT
  5
2BC
  8
DATA
 62
     7
 10
1000.0
 20
-2147.06405
 30
0.0
 40
48.865234375000007
  1
JBL PROFESSIONAL
 41
0.7
 11
1000.0
 21
-2098.198815625
 31
0.0
 73
     3
  0
ENDSEC
  0
EOF
