  0
SECTION
  2
HEADER
  9
$ACADVER
  1
AC1015
  9
$ACADMAINTVER
 70
    20
  9
$DWGCODEPAGE
  3
ANSI_932
  9
$INSBASE
 10
0.0
 20
0.0
 30
0.0
  9
$EXTMIN
 10
-1350.000000067499
 20
-2014.684977998996
 30
0.0
  9
$EXTMAX
 10
1350.000000067499
 20
1999.445410100149
 30
0.0
  9
$LIMMIN
 10
0.0
 20
0.0
  9
$LIMMAX
 10
0.0
 20
0.0
  9
$ORTHOMODE
 70
     0
  9
$REGENMODE
 70
     1
  9
$FILLMODE
 70
     1
  9
$QTEXTMODE
 70
     0
  9
$MIRRTEXT
 70
     1
  9
$LTSCALE
 40
76.2
  9
$ATTMODE
 70
     1
  9
$TEXTSIZE
 40
0.0
  9
$TRACEWID
 40
1.0
  9
$TEXTSTYLE
  7
STANDARD
  9
$CLAYER
  8
DATA
  9
$CELTYPE
  6
ByLayer
  9
$CECOLOR
 62
   256
  9
$CELTSCALE
 40
1.0
  9
$DISPSILH
 70
     0
  9
$DIMSCALE
 40
1.0
  9
$DIMASZ
 40
0.18
  9
$DIMEXO
 40
0.0625
  9
$DIMDLI
 40
0.38
  9
$DIMRND
 40
0.0
  9
$DIMDLE
 40
0.0
  9
$DIMEXE
 40
0.18
  9
$DIMTP
 40
0.0
  9
$DIMTM
 40
0.0
  9
$DIMTXT
 40
0.18
  9
$DIMCEN
 40
0.09
  9
$DIMTSZ
 40
0.0
  9
$DIMTOL
 70
     0
  9
$DIMLIM
 70
     0
  9
$DIMTIH
 70
     1
  9
$DIMTOH
 70
     1
  9
$DIMSE1
 70
     0
  9
$DIMSE2
 70
     0
  9
$DIMTAD
 70
     0
  9
$DIMZIN
 70
     0
  9
$DIMBLK
  1

  9
$DIMASO
 70
     1
  9
$DIMSHO
 70
     1
  9
$DIMPOST
  1

  9
$DIMAPOST
  1

  9
$DIMALT
 70
     0
  9
$DIMALTD
 70
     2
  9
$DIMALTF
 40
25.4
  9
$DIMLFAC
 40
1.0
  9
$DIMTOFL
 70
     0
  9
$DIMTVP
 40
0.0
  9
$DIMTIX
 70
     0
  9
$DIMSOXD
 70
     0
  9
$DIMSAH
 70
     0
  9
$DIMBLK1
  1

  9
$DIMBLK2
  1

  9
$DIMSTYLE
  2
STANDARD
  9
$DIMCLRD
 70
     0
  9
$DIMCLRE
 70
     0
  9
$DIMCLRT
 70
     0
  9
$DIMTFAC
 40
1.0
  9
$DIMGAP
 40
0.09
  9
$DIMJUST
 70
     0
  9
$DIMSD1
 70
     0
  9
$DIMSD2
 70
     0
  9
$DIMTOLJ
 70
     1
  9
$DIMTZIN
 70
     0
  9
$DIMALTZ
 70
     0
  9
$DIMALTTZ
 70
     0
  9
$DIMUPT
 70
     0
  9
$DIMDEC
 70
     4
  9
$DIMTDEC
 70
     4
  9
$DIMALTU
 70
     2
  9
$DIMALTTD
 70
     2
  9
$DIMTXSTY
  7
STANDARD
  9
$DIMAUNIT
 70
     0
  9
$DIMADEC
 70
     0
  9
$DIMALTRND
 40
0.0
  9
$DIMAZIN
 70
     0
  9
$DIMDSEP
 70
    46
  9
$DIMATFIT
 70
     3
  9
$DIMFRAC
 70
     0
  9
$DIMLDRBLK
  1

  9
$DIMLUNIT
 70
     2
  9
$DIMLWD
 70
    -2
  9
$DIMLWE
 70
    -2
  9
$DIMTMOVE
 70
     0
  9
$LUNITS
 70
     2
  9
$LUPREC
 70
     4
  9
$SKETCHINC
 40
0.1
  9
$FILLETRAD
 40
0.0
  9
$AUNITS
 70
     0
  9
$AUPREC
 70
     0
  9
$MENU
  1
acad
  9
$ELEVATION
 40
0.0
  9
$PELEVATION
 40
0.0
  9
$THICKNESS
 40
0.0
  9
$LIMCHECK
 70
     0
  9
$CHAMFERA
 40
0.0
  9
$CHAMFERB
 40
0.0
  9
$CHAMFERC
 40
0.0
  9
$CHAMFERD
 40
0.0
  9
$SKPOLY
 70
     0
  9
$TDCREATE
 40
2457861.707835649
  9
$TDUCREATE
 40
2457861.332835648
  9
$TDUPDATE
 40
2457861.714097222
  9
$TDUUPDATE
 40
2457861.339097223
  9
$TDINDWG
 40
0.0020833333
  9
$TDUSRTIMER
 40
0.0020833333
  9
$USRTIMER
 70
     1
  9
$ANGBASE
 50
0.0
  9
$ANGDIR
 70
     0
  9
$PDMODE
 70
     1
  9
$PDSIZE
 40
-2.0
  9
$PLINEWID
 40
0.0
  9
$SPLFRAME
 70
     0
  9
$SPLINETYPE
 70
     6
  9
$SPLINESEGS
 70
     8
  9
$HANDSEED
  5
36F
  9
$SURFTAB1
 70
     6
  9
$SURFTAB2
 70
     6
  9
$SURFTYPE
 70
     6
  9
$SURFU
 70
     6
  9
$SURFV
 70
     6
  9
$UCSBASE
  2

  9
$UCSNAME
  2

  9
$UCSORG
 10
0.0
 20
0.0
 30
0.0
  9
$UCSXDIR
 10
1.0
 20
0.0
 30
0.0
  9
$UCSYDIR
 10
0.0
 20
1.0
 30
0.0
  9
$UCSORTHOREF
  2

  9
$UCSORTHOVIEW
 70
     1
  9
$UCSORGTOP
 10
0.0
 20
0.0
 30
0.0
  9
$UCSORGBOTTOM
 10
0.0
 20
0.0
 30
0.0
  9
$UCSORGLEFT
 10
0.0
 20
0.0
 30
0.0
  9
$UCSORGRIGHT
 10
0.0
 20
0.0
 30
0.0
  9
$UCSORGFRONT
 10
0.0
 20
0.0
 30
0.0
  9
$UCSORGBACK
 10
0.0
 20
0.0
 30
0.0
  9
$PUCSBASE
  2

  9
$PUCSNAME
  2

  9
$PUCSORG
 10
0.0
 20
0.0
 30
0.0
  9
$PUCSXDIR
 10
1.0
 20
0.0
 30
0.0
  9
$PUCSYDIR
 10
0.0
 20
1.0
 30
0.0
  9
$PUCSORTHOREF
  2

  9
$PUCSORTHOVIEW
 70
     0
  9
$PUCSORGTOP
 10
0.0
 20
0.0
 30
0.0
  9
$PUCSORGBOTTOM
 10
0.0
 20
0.0
 30
0.0
  9
$PUCSORGLEFT
 10
0.0
 20
0.0
 30
0.0
  9
$PUCSORGRIGHT
 10
0.0
 20
0.0
 30
0.0
  9
$PUCSORGFRONT
 10
0.0
 20
0.0
 30
0.0
  9
$PUCSORGBACK
 10
0.0
 20
0.0
 30
0.0
  9
$USERI1
 70
     0
  9
$USERI2
 70
     0
  9
$USERI3
 70
     0
  9
$USERI4
 70
     0
  9
$USERI5
 70
     0
  9
$USERR1
 40
0.0
  9
$USERR2
 40
0.0
  9
$USERR3
 40
0.0
  9
$USERR4
 40
0.0
  9
$USERR5
 40
0.0
  9
$WORLDVIEW
 70
     1
  9
$SHADEDGE
 70
     3
  9
$SHADEDIF
 70
    70
  9
$TILEMODE
 70
     1
  9
$MAXACTVP
 70
    64
  9
$PINSBASE
 10
0.0
 20
0.0
 30
0.0
  9
$PLIMCHECK
 70
     0
  9
$PEXTMIN
 10
1.000000000000000E+20
 20
1.000000000000000E+20
 30
1.000000000000000E+20
  9
$PEXTMAX
 10
-1.000000000000000E+20
 20
-1.000000000000000E+20
 30
-1.000000000000000E+20
  9
$PLIMMIN
 10
0.0
 20
0.0
  9
$PLIMMAX
 10
12.0
 20
9.0
  9
$UNITMODE
 70
     0
  9
$VISRETAIN
 70
     0
  9
$PLINEGEN
 70
     1
  9
$PSLTSCALE
 70
     0
  9
$TREEDEPTH
 70
  3020
  9
$CMLSTYLE
  2
Standard
  9
$CMLJUST
 70
     0
  9
$CMLSCALE
 40
1.0
  9
$PROXYGRAPHICS
 70
     1
  9
$MEASUREMENT
 70
     0
  9
$CELWEIGHT
370
    -1
  9
$ENDCAPS
280
     0
  9
$JOINSTYLE
280
     0
  9
$LWDISPLAY
290
     0
  9
$INSUNITS
 70
     0
  9
$HYPERLINKBASE
  1

  9
$STYLESHEET
  1

  9
$XEDIT
290
     1
  9
$CEPSNTYPE
380
     0
  9
$PSTYLEMODE
290
     1
  9
$FINGERPRINTGUID
  2
{711736F1-7858-0640-8A33-6219F26E1A57}
  9
$VERSIONGUID
  2
{79D3BBC4-8317-D74B-B503-4E7DAA0D96A6}
  9
$EXTNAMES
290
     1
  9
$PSVPSCALE
 40
0.0
  9
$OLESTARTUP
290
     0
  0
ENDSEC
  0
SECTION
  2
CLASSES
  0
CLASS
  1
ACDBDICTIONARYWDFLT
  2
AcDbDictionaryWithDefault
  3
ObjectDBX Classes
 90
        0
280
     0
281
     0
  0
CLASS
  1
MATERIAL
  2
AcDbMaterial
  3
ObjectDBX Classes
 90
     1153
280
     0
281
     0
  0
CLASS
  1
VISUALSTYLE
  2
AcDbVisualStyle
  3
ObjectDBX Classes
 90
     4095
280
     0
281
     0
  0
CLASS
  1
SCALE
  2
AcDbScale
  3
ObjectDBX Classes
 90
     1153
280
     0
281
     0
  0
CLASS
  1
TABLESTYLE
  2
AcDbTableStyle
  3
ObjectDBX Classes
 90
     4095
280
     0
281
     0
  0
CLASS
  1
MLEADERSTYLE
  2
AcDbMLeaderStyle
  3
ACDB_MLEADERSTYLE_CLASS
 90
     4095
280
     0
281
     0
  0
CLASS
  1
ACDBSECTIONVIEWSTYLE
  2
AcDbSectionViewStyle
  3
ObjectDBX Classes
 90
     1025
280
     0
281
     0
  0
CLASS
  1
ACDBDETAILVIEWSTYLE
  2
AcDbDetailViewStyle
  3
ObjectDBX Classes
 90
     1025
280
     0
281
     0
  0
CLASS
  1
DICTIONARYVAR
  2
AcDbDictionaryVar
  3
ObjectDBX Classes
 90
        0
280
     0
281
     0
  0
CLASS
  1
CELLSTYLEMAP
  2
AcDbCellStyleMap
  3
ObjectDBX Classes
 90
     1152
280
     0
281
     0
  0
CLASS
  1
ACDBPLACEHOLDER
  2
AcDbPlaceHolder
  3
ObjectDBX Classes
 90
        0
280
     0
281
     0
  0
CLASS
  1
LAYOUT
  2
AcDbLayout
  3
ObjectDBX Classes
 90
        0
280
     0
281
     0
  0
ENDSEC
  0
SECTION
  2
TABLES
  0
TABLE
  2
VPORT
  5
291
330
0
100
AcDbSymbolTable
 70
     1
  0
VPORT
  5
2FD
330
291
100
AcDbSymbolTableRecord
100
AcDbViewportTableRecord
  2
*ACTIVE
 70
     0
 10
0.0
 20
0.0
 11
1.0
 21
1.0
 12
624.6949964052191
 22
-137.8441965523711
 13
0.0
 23
0.0
 14
1.0
 24
1.0
 15
0.0
 25
0.0
 16
0.0
 26
0.0
 36
1.0
 17
0.0
 27
0.0
 37
0.0
 40
4958.13551572388
 41
2.362790697674418
 42
50.0
 43
0.0
 44
0.0
 50
0.0
 51
0.0
 71
     0
 72
  2000
 73
     1
 74
     1
 75
     0
 76
     0
 77
     0
 78
     0
281
     0
 65
     1
110
0.0
120
0.0
130
0.0
111
1.0
121
0.0
131
0.0
112
0.0
122
1.0
132
0.0
 79
     0
146
0.0
1001
ACAD_NAV_VCDISPLAY
1070
     3
  0
ENDTAB
  0
TABLE
  2
LTYPE
  5
28E
330
0
100
AcDbSymbolTable
 70
    11
  0
LTYPE
  5
2E3
330
28E
100
AcDbSymbolTableRecord
100
AcDbLinetypeTableRecord
  2
ByBlock
 70
     0
  3

 72
    65
 73
     0
 40
0.0
  0
LTYPE
  5
2E4
330
28E
100
AcDbSymbolTableRecord
100
AcDbLinetypeTableRecord
  2
ByLayer
 70
     0
  3

 72
    65
 73
     0
 40
0.0
  0
LTYPE
  5
2E5
330
28E
100
AcDbSymbolTableRecord
100
AcDbLinetypeTableRecord
  2
CONTINUOUS
 70
     0
  3
Solid line
 72
    65
 73
     0
 40
0.0
  0
ENDTAB
  0
TABLE
  2
LAYER
  5
28B
330
0
100
AcDbSymbolTable
 70
     5
  0
LAYER
  5
2DD
102
{ACAD_XDICTIONARY
360
319
102
}
330
28B
100
AcDbSymbolTableRecord
100
AcDbLayerTableRecord
  2
0
 70
     0
 62
     7
  6
CONTINUOUS
370
    -3
390
298
  0
LAYER
  5
2FC
102
{ACAD_XDICTIONARY
360
31B
102
}
330
28B
100
AcDbSymbolTableRecord
100
AcDbLayerTableRecord
  2
DATA
 70
     0
 62
     7
  6
CONTINUOUS
370
    -3
390
298
  0
LAYER
  5
308
102
{ACAD_XDICTIONARY
360
31D
102
}
330
28B
100
AcDbSymbolTableRecord
100
AcDbLayerTableRecord
  2
HIBINO-BASE
 70
     0
 62
     7
  6
CONTINUOUS
370
    -3
390
298
  0
LAYER
  5
309
102
{ACAD_XDICTIONARY
360
31F
102
}
330
28B
100
AcDbSymbolTableRecord
100
AcDbLayerTableRecord
  2
SPEC
 70
     0
 62
     7
  6
CONTINUOUS
370
    -3
390
298
  0
LAYER
  5
30A
102
{ACAD_XDICTIONARY
360
321
102
}
330
28B
100
AcDbSymbolTableRecord
100
AcDbLayerTableRecord
  2
DIMNSIONS
 70
     0
 62
     7
  6
CONTINUOUS
370
    -3
390
298
  0
ENDTAB
  0
TABLE
  2
STYLE
  5
28C
330
0
100
AcDbSymbolTable
 70
     3
  0
STYLE
  5
2DE
330
28C
100
AcDbSymbolTableRecord
100
AcDbTextStyleTableRecord
  2
STANDARD
 70
     0
 40
0.0
 41
1.0
 50
0.0
 71
     0
 42
0.0
  3
txt
  4
BIGFONT.SHX
  0
ENDTAB
  0
TABLE
  2
VIEW
  5
28F
330
0
100
AcDbSymbolTable
 70
     0
  0
ENDTAB
  0
TABLE
  2
UCS
  5
290
330
0
100
AcDbSymbolTable
 70
     0
  0
ENDTAB
  0
TABLE
  2
APPID
  5
292
330
0
100
AcDbSymbolTable
 70
     4
  0
APPID
  5
2DF
330
292
100
AcDbSymbolTableRecord
100
AcDbRegAppTableRecord
  2
ACAD
 70
     0
  0
APPID
  5
2E6
330
292
100
AcDbSymbolTableRecord
100
AcDbRegAppTableRecord
  2
AcadAnnotative
 70
     0
  0
APPID
  5
32D
330
292
100
AcDbSymbolTableRecord
100
AcDbRegAppTableRecord
  2
ACAD_NAV_VCDISPLAY
 70
     0
  0
APPID
  5
366
330
292
100
AcDbSymbolTableRecord
100
AcDbRegAppTableRecord
  2
ACAD_MLEADERVER
 70
     0
  0
ENDTAB
  0
TABLE
  2
DIMSTYLE
  5
293
330
0
100
AcDbSymbolTable
 70
     2
100
AcDbDimStyleTable
 71
     0
  0
DIMSTYLE
105
2E0
330
293
100
AcDbSymbolTableRecord
100
AcDbDimStyleTableRecord
  2
STANDARD
 70
     0
279
     2
340
2DE
  0
ENDTAB
  0
TABLE
  2
BLOCK_RECORD
  5
28A
330
0
100
AcDbSymbolTable
 70
     0
  0
BLOCK_RECORD
  5
2F8
330
28A
100
AcDbSymbolTableRecord
100
AcDbBlockTableRecord
  2
*Model_Space
340
2FB
  0
BLOCK_RECORD
  5
2F4
330
28A
100
AcDbSymbolTableRecord
100
AcDbBlockTableRecord
  2
*Paper_Space
340
2F7
  0
ENDTAB
  0
ENDSEC
  0
SECTION
  2
BLOCKS
  0
BLOCK
  5
2F9
330
2F8
100
AcDbEntity
  8
0
100
AcDbBlockBegin
  2
*Model_Space
 70
     0
 10
0.0
 20
0.0
 30
0.0
  3
*Model_Space
  1

  0
ENDBLK
  5
2FA
330
2F8
100
AcDbEntity
  8
0
100
AcDbBlockEnd
  0
BLOCK
  5
2F5
330
2F4
100
AcDbEntity
 67
     1
  8
0
100
AcDbBlockBegin
  2
*Paper_Space
 70
     0
 10
0.0
 20
0.0
 30
0.0
  3
*Paper_Space
  1

  0
ENDBLK
  5
2F6
330
2F4
100
AcDbEntity
 67
     1
  8
0
100
AcDbBlockEnd
  0
ENDSEC
  0
SECTION
  2
ENTITIES
  0
LINE
  5
2C
330
2F8
100
AcDbEntity
  8
HIBINO-BASE
  6
Continuous
 62
     7
100
AcDbLine
 10
-1350.000000067499
 20
1999.445410100149
 30
0.0
 11
1350.000000067499
 21
1999.445410100149
 31
0.0
  0
LINE
  5
2D
330
2F8
100
AcDbEntity
  8
HIBINO-BASE
  6
Continuous
 62
     7
100
AcDbLine
 10
1350.000000067499
 20
-1900.554590094852
 30
0.0
 11
-1350.000000067499
 21
-1900.554590094852
 31
0.0
  0
LINE
  5
2E
330
2F8
100
AcDbEntity
  8
HIBINO-BASE
  6
Continuous
 62
     7
100
AcDbLine
 10
-1350.000000067499
 20
-1900.554590094852
 30
0.0
 11
-1350.000000067499
 21
1999.445410100149
 31
0.0
  0
LINE
  5
2F
330
2F8
100
AcDbEntity
  8
HIBINO-BASE
  6
Continuous
 62
     7
100
AcDbLine
 10
1350.000000067499
 20
1999.445410100149
 30
0.0
 11
1350.000000067499
 21
-1900.554590094852
 31
0.0
  0
LINE
  5
30
330
2F8
100
AcDbEntity
  8
HIBINO-BASE
  6
Continuous
 62
     7
100
AcDbLine
 10
0.0000000000001066
 20
-1563.054590077977
 30
0.0
 11
1350.000000067499
 21
-1563.054590077977
 31
0.0
  0
LINE
  5
31
330
2F8
100
AcDbEntity
  8
HIBINO-BASE
  6
Continuous
 62
     7
100
AcDbLine
 10
0.0000000000001066
 20
-1900.554590094852
 30
0.0
 11
0.0000000000001066
 21
-1563.054590077977
 31
0.0
  0
TEXT
  5
32
330
2F8
100
AcDbEntity
  8
HIBINO-BASE
 62
     7
100
AcDbText
 10
13.50000000067519
 20
-1600.684990079858
 30
0.0
 40
24.43261718872162
  1
NOTE
 41
0.7
 11
13.50000000067519
 21
-1576.252372891136
 31
0.0
100
AcDbText
 73
     3
  0
LINE
  5
33
330
2F8
100
AcDbEntity
  8
HIBINO-BASE
  6
Continuous
 62
     7
100
AcDbLine
 10
525.0000000262502
 20
-1900.554590094852
 30
0.0
 11
525.0000000262502
 21
-1563.054590077977
 31
0.0
  0
TEXT
  5
34
330
2F8
100
AcDbEntity
  8
HIBINO-BASE
 62
     7
100
AcDbText
 10
538.5000000269249
 20
-1600.684990079858
 30
0.0
 40
24.43261718872162
  1
TITLE
 41
0.7
 11
538.5000000269249
 21
-1576.252372891136
 31
0.0
100
AcDbText
 73
     3
  0
LINE
  5
35
330
2F8
100
AcDbEntity
  8
HIBINO-BASE
  6
Continuous
 62
     7
100
AcDbLine
 10
0.0000000000001066
 20
-1750.554590087351
 30
0.0
 11
1350.000000067499
 21
-1750.554590087351
 31
0.0
  0
TEXT
  5
36
330
2F8
100
AcDbEntity
  8
HIBINO-BASE
 62
     7
100
AcDbText
 10
726.0000000362999
 20
-1787.340190089191
 30
0.0
 40
24.43261718872162
  1
DRAWN
 41
0.7
 11
726.0000000362999
 21
-1762.907572900469
 31
0.0
100
AcDbText
 73
     3
  0
TEXT
  5
37
330
2F8
100
AcDbEntity
  8
HIBINO-BASE
 62
     7
100
AcDbText
 10
351.0000000175499
 20
-1787.340190089191
 30
0.0
 40
24.43261718872162
  1
DATE
 41
0.7
 11
351.0000000175499
 21
-1762.907572900469
 31
0.0
100
AcDbText
 73
     3
  0
TEXT
  5
38
330
2F8
100
AcDbEntity
  8
HIBINO-BASE
 62
     7
100
AcDbText
 10
201.00000001005
 20
-1787.340190089191
 30
0.0
 40
24.43261718872162
  1
SCALE
 41
0.7
 11
201.00000001005
 21
-1762.907572900469
 31
0.0
100
AcDbText
 73
     3
  0
TEXT
  5
39
330
2F8
100
AcDbEntity
  8
HIBINO-BASE
 62
     7
100
AcDbText
 10
538.5000000269249
 20
-1787.340190089191
 30
0.0
 40
24.43261718872162
  1
DESIGN
 41
0.7
 11
538.5000000269249
 21
-1762.907572900469
 31
0.0
100
AcDbText
 73
     3
  0
TEXT
  5
3A
330
2F8
100
AcDbEntity
  8
HIBINO-BASE
 62
     7
100
AcDbText
 10
1101.000000055049
 20
-1787.340190089191
 30
0.0
 40
24.43261718872162
  1
DRAWING NO.
 41
0.7
 11
1101.000000055049
 21
-1762.907572900469
 31
0.0
100
AcDbText
 73
     3
  0
TEXT
  5
3B
330
2F8
100
AcDbEntity
  8
HIBINO-BASE
 62
     7
100
AcDbText
 10
913.5000000456749
 20
-1787.340190089191
 30
0.0
 40
24.43261718872162
  1
CHECK
 41
0.7
 11
913.5000000456749
 21
-1762.907572900469
 31
0.0
100
AcDbText
 73
     3
  0
LINE
  5
3C
330
2F8
100
AcDbEntity
  8
HIBINO-BASE
  6
Continuous
 62
     7
100
AcDbLine
 10
215.6250000107813
 20
-1881.804590093913
 30
0.0
 11
271.8750000135941
 21
-1825.554590091101
 31
0.0
  0
TEXT
  5
3D
330
2F8
100
AcDbEntity
  8
HIBINO-BASE
 62
     7
100
AcDbText
 10
206.2500000103126
 20
-1842.188740091933
 30
0.0
 40
24.43261718872162
  1
1
 41
0.7
 11
206.2500000103126
 21
-1817.756122903211
 31
0.0
100
AcDbText
 73
     3
  0
LINE
  5
3E
330
2F8
100
AcDbEntity
  8
HIBINO-BASE
  6
Continuous
 62
     7
100
AcDbLine
 10
187.5000000093751
 20
-1900.554590094852
 30
0.0
 11
187.5000000093751
 21
-1750.554590087351
 31
0.0
  0
LINE
  5
3F
330
2F8
100
AcDbEntity
  8
HIBINO-BASE
  6
Continuous
 62
     7
100
AcDbLine
 10
337.5000000168749
 20
-1900.554590094852
 30
0.0
 11
337.5000000168749
 21
-1750.554590087351
 31
0.0
  0
LINE
  5
40
330
2F8
100
AcDbEntity
  8
HIBINO-BASE
  6
Continuous
 62
     7
100
AcDbLine
 10
712.5000000356246
 20
-1750.554590087351
 30
0.0
 11
712.5000000356246
 21
-1900.554590094852
 31
0.0
  0
LINE
  5
41
330
2F8
100
AcDbEntity
  8
HIBINO-BASE
  6
Continuous
 62
     7
100
AcDbLine
 10
1087.500000054375
 20
-1750.554590087351
 30
0.0
 11
1087.500000054375
 21
-1900.554590094852
 31
0.0
  0
LINE
  5
42
330
2F8
100
AcDbEntity
  8
HIBINO-BASE
  6
Continuous
 62
     7
100
AcDbLine
 10
900.0000000449997
 20
-1900.554590094852
 30
0.0
 11
900.0000000449997
 21
-1750.554590087351
 31
0.0
  0
TEXT
  5
43
330
2F8
100
AcDbEntity
  8
HIBINO-BASE
 62
     7
100
AcDbText
 10
350.3481000175177
 20
-1857.599890092703
 30
0.0
 40
24.43261718872162
  1
'17.04.
 41
0.7
 11
350.3481000175177
 21
-1833.167272903981
 31
0.0
100
AcDbText
 73
     3
  0
TEXT
  5
44
330
2F8
100
AcDbEntity
  8
HIBINO-BASE
 62
     7
100
AcDbText
 10
262.5000000131251
 20
-1870.31374009334
 30
0.0
 40
24.43261718872162
  1
15
 41
0.7
 11
262.5000000131251
 21
-1845.881122904618
 31
0.0
100
AcDbText
 73
     3
  0
TEXT
  5
45
330
2F8
100
AcDbEntity
  8
HIBINO-BASE
 62
     7
100
AcDbText
 10
735.0871502022735
 20
-1857.599890092703
 30
0.0
 40
24.43261718872162
  1
N.Sasaki
 41
0.7
 11
735.0871502022735
 21
-1833.167272903981
 31
0.0
100
AcDbText
 73
     3
  0
TEXT
  5
46
330
2F8
100
AcDbEntity
  8
HIBINO-BASE
 62
     7
100
AcDbText
 10
58.2500000029129
 20
-1870.914590093369
 30
0.0
 40
48.86523437744324
  1
A4
 41
0.7
 11
58.2500000029129
 21
-1822.049355715926
 31
0.0
100
AcDbText
 73
     3
  0
TEXT
  5
47
330
2F8
100
AcDbEntity
  8
HIBINO-BASE
 62
     7
100
AcDbText
 10
14.37500000071878
 20
-1789.846415089315
 30
0.0
 40
24.43261718872162
  1
PAPER SIZE
 41
0.7
 11
14.37500000071878
 21
-1765.413797900594
 31
0.0
100
AcDbText
 73
     3
  0
TEXT
  5
48
330
2F8
100
AcDbEntity
  8
HIBINO-BASE
 62
     7
100
AcDbText
 10
-1242.240000062111
 20
-1996.684757099657
 30
0.0
 40
54.00066269801254
  1
Hibino Corporation
 41
0.7
 11
-1242.240000062111
 21
-1942.684094401645
 31
0.0
100
AcDbText
 73
     3
  0
TEXT
  5
49
330
2F8
100
AcDbEntity
  8
HIBINO-BASE
 62
     7
100
AcDbText
 10
751.0258500375514
 20
-1996.684757099657
 30
0.0
 40
54.00066269801254
  1
ヒビノ株式会社
 41
0.7
 11
751.0258500375514
 21
-1942.684094401645
 31
0.0
100
AcDbText
 73
     3
  0
TEXT
  5
4A
330
2F8
100
AcDbEntity
  8
SPEC
 62
     7
100
AcDbText
 10
-1224.000000061199
 20
1805.014176757093
 30
0.0
 40
28.50472005350857
  1
駆動方式
 41
0.7
 11
-1224.000000061199
 21
1833.518896810601
 31
0.0
100
AcDbText
 73
     3
  0
TEXT
  5
4B
330
2F8
100
AcDbEntity
  8
SPEC
 62
     7
100
AcDbText
 10
-1224.000000061199
 20
1748.764176754281
 30
0.0
 40
28.50472005350857
  1
周波数レンジ(-10dB)
 41
0.7
 11
-1224.000000061199
 21
1777.268896807789
 31
0.0
100
AcDbText
 73
     3
  0
TEXT
  5
4C
330
2F8
100
AcDbEntity
  8
SPEC
 62
     7
100
AcDbText
 10
-1224.000000061199
 20
1692.514176751467
 30
0.0
 40
28.50472005350857
  1
指向角度(水平×垂直)
 41
0.7
 11
-1224.000000061199
 21
1721.018896804976
 31
0.0
100
AcDbText
 73
     3
  0
LINE
  5
4D
330
2F8
100
AcDbEntity
  8
SPEC
  6
Continuous
 62
     7
100
AcDbLine
 10
-1237.500000061874
 20
1849.445410092648
 30
0.0
 11
975.0000000487506
 21
1849.445410092648
 31
0.0
  0
LINE
  5
4E
330
2F8
100
AcDbEntity
  8
SPEC
  6
Continuous
 62
     7
100
AcDbLine
 10
-1237.500000061874
 20
1849.445410092648
 30
0.0
 11
-1237.500000061874
 21
1005.695410050461
 31
0.0
  0
TEXT
  5
4F
330
2F8
100
AcDbEntity
  8
SPEC
 62
     7
100
AcDbText
 10
-1218.750000060936
 20
1870.344460093692
 30
0.0
 40
36.64892578308246
  1
仕様
 41
0.7
 11
-1218.750000060936
 21
1906.993385876775
 31
0.0
100
AcDbText
 73
     3
  0
LINE
  5
50
330
2F8
100
AcDbEntity
  8
SPEC
  6
Continuous
 62
     7
100
AcDbLine
 10
975.0000000487506
 20
1849.445410092648
 30
0.0
 11
975.0000000487506
 21
1005.695410050461
 31
0.0
  0
LINE
  5
51
330
2F8
100
AcDbEntity
  8
SPEC
  6
Continuous
 62
     7
100
AcDbLine
 10
-1237.500000061874
 20
1793.195410089836
 30
0.0
 11
975.0000000487506
 21
1793.195410089836
 31
0.0
  0
LINE
  5
52
330
2F8
100
AcDbEntity
  8
SPEC
  6
Continuous
 62
     7
100
AcDbLine
 10
-1237.500000061874
 20
1736.945410087023
 30
0.0
 11
975.0000000487506
 21
1736.945410087023
 31
0.0
  0
LINE
  5
53
330
2F8
100
AcDbEntity
  8
SPEC
  6
Continuous
 62
     7
100
AcDbLine
 10
-1237.500000061874
 20
1680.695410084211
 30
0.0
 11
975.0000000487506
 21
1680.695410084211
 31
0.0
  0
LINE
  5
54
330
2F8
100
AcDbEntity
  8
SPEC
  6
Continuous
 62
     7
100
AcDbLine
 10
-1237.500000061874
 20
1624.445410081398
 30
0.0
 11
975.0000000487506
 21
1624.445410081398
 31
0.0
  0
LINE
  5
55
330
2F8
100
AcDbEntity
  8
SPEC
  6
Continuous
 62
     7
100
AcDbLine
 10
-1237.500000061874
 20
1568.195410078586
 30
0.0
 11
975.0000000487506
 21
1568.195410078586
 31
0.0
  0
LINE
  5
56
330
2F8
100
AcDbEntity
  8
SPEC
  6
Continuous
 62
     7
100
AcDbLine
 10
-1237.500000061874
 20
1511.945410075774
 30
0.0
 11
975.0000000487506
 21
1511.945410075774
 31
0.0
  0
LINE
  5
57
330
2F8
100
AcDbEntity
  8
SPEC
  6
Continuous
 62
     7
100
AcDbLine
 10
-925.0000000462499
 20
1455.695410072961
 30
0.0
 11
975.0000000487506
 21
1455.695410072961
 31
0.0
  0
LINE
  5
58
330
2F8
100
AcDbEntity
  8
SPEC
  6
Continuous
 62
     7
100
AcDbLine
 10
-1237.500000061874
 20
1399.445410070148
 30
0.0
 11
975.0000000487506
 21
1399.445410070148
 31
0.0
  0
LINE
  5
59
330
2F8
100
AcDbEntity
  8
SPEC
  6
Continuous
 62
     7
100
AcDbLine
 10
-925.0000000462499
 20
1343.195410067336
 30
0.0
 11
975.0000000487506
 21
1343.195410067336
 31
0.0
  0
LINE
  5
5A
330
2F8
100
AcDbEntity
  8
SPEC
  6
Continuous
 62
     7
100
AcDbLine
 10
-1237.500000061874
 20
1286.945410064523
 30
0.0
 11
975.0000000487506
 21
1286.945410064523
 31
0.0
  0
LINE
  5
5B
330
2F8
100
AcDbEntity
  8
SPEC
  6
Continuous
 62
     7
100
AcDbLine
 10
-1237.500000061874
 20
1230.695410061711
 30
0.0
 11
975.0000000487506
 21
1230.695410061711
 31
0.0
  0
LINE
  5
5C
330
2F8
100
AcDbEntity
  8
SPEC
  6
Continuous
 62
     7
100
AcDbLine
 10
-1237.500000061874
 20
1174.445410058898
 30
0.0
 11
975.0000000487506
 21
1174.445410058898
 31
0.0
  0
LINE
  5
5D
330
2F8
100
AcDbEntity
  8
SPEC
  6
Continuous
 62
     7
100
AcDbLine
 10
-1237.500000061874
 20
1118.195410056086
 30
0.0
 11
975.0000000487506
 21
1118.195410056086
 31
0.0
  0
LINE
  5
5E
330
2F8
100
AcDbEntity
  8
SPEC
  6
Continuous
 62
     7
100
AcDbLine
 10
-1237.500000061874
 20
1061.945410053273
 30
0.0
 11
975.0000000487506
 21
1061.945410053273
 31
0.0
  0
LINE
  5
5F
330
2F8
100
AcDbEntity
  8
SPEC
  6
Continuous
 62
     7
100
AcDbLine
 10
-1237.500000061874
 20
1005.695410050461
 30
0.0
 11
975.0000000487506
 21
1005.695410050461
 31
0.0
  0
TEXT
  5
60
330
2F8
100
AcDbEntity
  8
SPEC
 62
     7
100
AcDbText
 10
-686.500000034325
 20
1073.764176722123
 30
0.0
 40
28.50472005208333
  1
629×372×459mm(除突起部)
 41
0.7
 11
-686.500000034325
 21
1102.268896774207
 31
0.0
100
AcDbText
 73
     3
  0
TEXT
  5
61
330
2F8
100
AcDbEntity
  8
SPEC
 62
     7
100
AcDbText
 10
-1224.000000061199
 20
1636.264176748654
 30
0.0
 40
28.50472005350857
  1
最大音圧レベル
 41
0.7
 11
-1224.000000061199
 21
1664.768896802163
 31
0.0
100
AcDbText
 73
     3
  0
TEXT
  5
62
330
2F8
100
AcDbEntity
  8
SPEC
 62
     7
100
AcDbText
 10
-1224.000000061199
 20
1580.014176745843
 30
0.0
 40
28.50472005350857
  1
感度(1W、1m)
 41
0.7
 11
-1224.000000061199
 21
1608.518896799351
 31
0.0
100
AcDbText
 73
     3
  0
TEXT
  5
63
330
2F8
100
AcDbEntity
  8
SPEC
 62
     7
100
AcDbText
 10
-1224.000000061199
 20
1523.76417674303
 30
0.0
 40
28.50472005350857
  1
公称インピーダンス
 41
0.7
 11
-1224.000000061199
 21
1552.268896796539
 31
0.0
100
AcDbText
 73
     3
  0
TEXT
  5
64
330
2F8
100
AcDbEntity
  8
SPEC
 62
     7
100
AcDbText
 10
-1224.000000061199
 20
1467.514176740218
 30
0.0
 40
28.50472005350857
  1
許容入力
 41
0.7
 11
-1224.000000061199
 21
1496.018896793726
 31
0.0
100
AcDbText
 73
     3
  0
TEXT
  5
65
330
2F8
100
AcDbEntity
  8
SPEC
 62
     7
100
AcDbText
 10
-686.500000034325
 20
1298.76417673178
 30
0.0
 40
28.50472005350857
  1
100mm(2452H)
 41
0.7
 11
-686.500000034325
 21
1327.268896785289
 31
0.0
100
AcDbText
 73
     3
  0
TEXT
  5
66
330
2F8
100
AcDbEntity
  8
SPEC
 62
     7
100
AcDbText
 10
-1224.000000061199
 20
1355.014176734593
 30
0.0
 40
28.50472005350857
  1
ドライバー構成
 41
0.7
 11
-1224.000000061199
 21
1383.518896788101
 31
0.0
100
AcDbText
 73
     3
  0
TEXT
  5
67
330
2F8
100
AcDbEntity
  8
SPEC
 62
     7
100
AcDbText
 10
-686.500000034325
 20
1805.014176757093
 30
0.0
 40
28.50472005350857
  1
バイアンプ/パッシブ(スイッチ切替)
 41
0.7
 11
-686.500000034325
 21
1833.518896810601
 31
0.0
100
AcDbText
 73
     3
  0
TEXT
  5
68
330
2F8
100
AcDbEntity
  8
SPEC
 62
     7
100
AcDbText
 10
-686.500000034325
 20
1748.764176754281
 30
0.0
 40
28.50472005350857
  1
60Hz～20kHz
 41
0.7
 11
-686.500000034325
 21
1777.268896807789
 31
0.0
100
AcDbText
 73
     3
  0
TEXT
  5
69
330
2F8
100
AcDbEntity
  8
SPEC
 62
     7
100
AcDbText
 10
-686.500000034325
 20
1692.514176751467
 30
0.0
 40
28.50472005350857
  1
50°×90°
 41
0.7
 11
-686.500000034325
 21
1721.018896804976
 31
0.0
100
AcDbText
 73
     3
  0
LINE
  5
6A
330
2F8
100
AcDbEntity
  8
SPEC
  6
Continuous
 62
     7
100
AcDbLine
 10
-700.000000035
 20
1849.445410092648
 30
0.0
 11
-700.000000035
 21
1005.695410050461
 31
0.0
  0
TEXT
  5
6B
330
2F8
100
AcDbEntity
  8
SPEC
 62
     7
100
AcDbText
 10
-686.500000034325
 20
1017.514176717718
 30
0.0
 40
28.50472005350857
  1
21kg
 41
0.7
 11
-686.500000034325
 21
1046.018896771227
 31
0.0
100
AcDbText
 73
     3
  0
TEXT
  5
6C
330
2F8
100
AcDbEntity
  8
SPEC
 62
     7
100
AcDbText
 10
-686.500000034325
 20
1636.264176748654
 30
0.0
 40
28.50472005350857
  1
133dB SPL(ピーク)
 41
0.7
 11
-686.500000034325
 21
1664.768896802163
 31
0.0
100
AcDbText
 73
     3
  0
TEXT
  5
6D
330
2F8
100
AcDbEntity
  8
SPEC
 62
     7
100
AcDbText
 10
-686.500000034325
 20
1580.014176745843
 30
0.0
 40
28.50472005350857
  1
98dB SPL
 41
0.7
 11
-686.500000034325
 21
1608.518896799351
 31
0.0
100
AcDbText
 73
     3
  0
TEXT
  5
6E
330
2F8
100
AcDbEntity
  8
SPEC
 62
     7
100
AcDbText
 10
-686.500000034325
 20
1523.76417674303
 30
0.0
 40
28.50472005350857
  1
8Ω
 41
0.7
 11
-686.500000034325
 21
1552.268896796539
 31
0.0
100
AcDbText
 73
     3
  0
TEXT
  5
6F
330
2F8
100
AcDbEntity
  8
SPEC
 62
     7
100
AcDbText
 10
-911.5000000455749
 20
1468.068766740247
 30
0.0
 40
28.50472005350857
  1
パッシブ
 41
0.7
 11
-911.5000000455749
 21
1496.573486793755
 31
0.0
100
AcDbText
 73
     3
  0
TEXT
  5
70
330
2F8
100
AcDbEntity
  8
SPEC
 62
     7
100
AcDbText
 10
-686.500000034325
 20
1467.514176740218
 30
0.0
 40
28.50472005350857
  1
800W(連続)
 41
0.7
 11
-686.500000034325
 21
1496.018896793726
 31
0.0
100
AcDbText
 73
     3
  0
TEXT
  5
71
330
2F8
100
AcDbEntity
  8
SPEC
 62
     7
100
AcDbText
 10
-911.5000000455749
 20
1411.818766737434
 30
0.0
 40
28.50472005350857
  1
バイアンプ
 41
0.7
 11
-911.5000000455749
 21
1440.323486790943
 31
0.0
100
AcDbText
 73
     3
  0
TEXT
  5
72
330
2F8
100
AcDbEntity
  8
SPEC
 62
     7
100
AcDbText
 10
-686.500000034325
 20
1411.264176737405
 30
0.0
 40
28.50472005350857
  1
LF:800W(連続)、HF:75W(連続)
 41
0.7
 11
-686.500000034325
 21
1439.768896790914
 31
0.0
100
AcDbText
 73
     3
  0
LINE
  5
73
330
2F8
100
AcDbEntity
  8
SPEC
  6
Continuous
 62
     7
100
AcDbLine
 10
-925.0000000462499
 20
1512.500000075802
 30
0.0
 11
-925.0000000462499
 21
1286.945410064523
 31
0.0
  0
TEXT
  5
74
330
2F8
100
AcDbEntity
  8
SPEC
 62
     7
100
AcDbText
 10
-911.5000000455749
 20
1355.568766734621
 30
0.0
 40
28.50472005350857
  1
LF
 41
0.7
 11
-911.5000000455749
 21
1384.07348678813
 31
0.0
100
AcDbText
 73
     3
  0
TEXT
  5
75
330
2F8
100
AcDbEntity
  8
SPEC
 62
     7
100
AcDbText
 10
-686.500000034325
 20
1355.014176734593
 30
0.0
 40
28.50472005350857
  1
380mm(2265H)
 41
0.7
 11
-686.500000034325
 21
1383.518896788101
 31
0.0
100
AcDbText
 73
     3
  0
TEXT
  5
76
330
2F8
100
AcDbEntity
  8
SPEC
 62
     7
100
AcDbText
 10
-911.5000000455749
 20
1299.318766731809
 30
0.0
 40
28.50472005350857
  1
HF
 41
0.7
 11
-911.5000000455749
 21
1327.823486785318
 31
0.0
100
AcDbText
 73
     3
  0
TEXT
  5
77
330
2F8
100
AcDbEntity
  8
SPEC
 62
     7
100
AcDbText
 10
-1224.000000061199
 20
1242.514176728968
 30
0.0
 40
28.50472005350857
  1
クロスオーバー周波数
 41
0.7
 11
-1224.000000061199
 21
1271.018896782476
 31
0.0
100
AcDbText
 73
     3
  0
TEXT
  5
78
330
2F8
100
AcDbEntity
  8
SPEC
 62
     7
100
AcDbText
 10
-1224.000000061199
 20
1186.264176726155
 30
0.0
 40
28.50472005350857
  1
入力端子
 41
0.7
 11
-1224.000000061199
 21
1214.768896779664
 31
0.0
100
AcDbText
 73
     3
  0
TEXT
  5
79
330
2F8
100
AcDbEntity
  8
SPEC
 62
     7
100
AcDbText
 10
-1224.000000061199
 20
1130.014176723343
 30
0.0
 40
28.50472005350857
  1
エンクロージャー
 41
0.7
 11
-1224.000000061199
 21
1158.518896776852
 31
0.0
100
AcDbText
 73
     3
  0
TEXT
  5
7A
330
2F8
100
AcDbEntity
  8
SPEC
 62
     7
100
AcDbText
 10
-686.500000034325
 20
1242.514176728968
 30
0.0
 40
28.50472005350857
  1
1.1kHz
 41
0.7
 11
-686.500000034325
 21
1271.018896782476
 31
0.0
100
AcDbText
 73
     3
  0
TEXT
  5
7B
330
2F8
100
AcDbEntity
  8
SPEC
 62
     7
100
AcDbText
 10
-686.500000034325
 20
1186.264176726155
 30
0.0
 40
28.50472005350857
  1
4Pスピコン×2
 41
0.7
 11
-686.500000034325
 21
1214.768896779664
 31
0.0
100
AcDbText
 73
     3
  0
TEXT
  5
7C
330
2F8
100
AcDbEntity
  8
SPEC
 62
     7
100
AcDbText
 10
-686.500000034325
 20
1130.014176723343
 30
0.0
 40
28.50472005350857
  1
黒、DuraFlex仕上げ
 41
0.7
 11
-686.500000034325
 21
1158.518896776852
 31
0.0
100
AcDbText
 73
     3
  0
TEXT
  5
7D
330
2F8
100
AcDbEntity
  8
SPEC
 62
     7
100
AcDbText
 10
-1224.000000061199
 20
1073.764176720531
 30
0.0
 40
28.50472005350857
  1
寸法(W×H×D)
 41
0.7
 11
-1224.000000061199
 21
1102.268896774039
 31
0.0
100
AcDbText
 73
     3
  0
TEXT
  5
7E
330
2F8
100
AcDbEntity
  8
SPEC
 62
     7
100
AcDbText
 10
-1224.000000061199
 20
1017.514176717718
 30
0.0
 40
28.50472005350857
  1
質量
 41
0.7
 11
-1224.000000061199
 21
1046.018896771227
 31
0.0
100
AcDbText
 73
     3
  0
TEXT
  5
7F
330
2F8
100
AcDbEntity
  8
DIMNSIONS
 62
     7
100
AcDbText
 10
-300.0000000149999
 20
-1716.51224008565
 30
0.0
 40
36.64892578308246
  1
(単位：mm)
 41
0.7
 11
-300.0000000149999
 21
-1679.863314302567
 31
0.0
100
AcDbText
 73
     3
  0
LINE
  5
80
330
2F8
100
AcDbEntity
  8
DIMNSIONS
  6
Continuous
 62
     7
100
AcDbLine
 10
-714.5
 20
-1007.5
 30
0.0
 11
-714.5
 21
-1090.0
 31
0.0
  0
LINE
  5
81
330
2F8
100
AcDbEntity
  8
DIMNSIONS
  6
Continuous
 62
     7
100
AcDbLine
 10
-85.5
 20
-1007.5
 30
0.0
 11
-85.5
 21
-1090.0
 31
0.0
  0
LINE
  5
82
330
2F8
100
AcDbEntity
  8
DIMNSIONS
  6
Continuous
 62
     7
100
AcDbLine
 10
-714.5
 20
-1075.0
 30
0.0
 11
-85.5
 21
-1075.0
 31
0.0
  0
LINE
  5
83
330
2F8
100
AcDbEntity
  8
DIMNSIONS
  6
Continuous
 62
     7
100
AcDbLine
 10
-714.5
 20
-1075.0
 30
0.0
 11
-684.5018310546874
 21
-1066.962014856691
 31
0.0
  0
LINE
  5
84
330
2F8
100
AcDbEntity
  8
DIMNSIONS
  6
Continuous
 62
     7
100
AcDbLine
 10
-714.5
 20
-1075.0
 30
0.0
 11
-684.5018310546874
 21
-1083.037985143309
 31
0.0
  0
LINE
  5
85
330
2F8
100
AcDbEntity
  8
DIMNSIONS
  6
Continuous
 62
     7
100
AcDbLine
 10
-85.5
 20
-1075.0
 30
0.0
 11
-115.4981689453125
 21
-1083.037985143309
 31
0.0
  0
LINE
  5
86
330
2F8
100
AcDbEntity
  8
DIMNSIONS
  6
Continuous
 62
     7
100
AcDbLine
 10
-85.5
 20
-1075.0
 30
0.0
 11
-115.4981689453125
 21
-1066.962014856691
 31
0.0
  0
TEXT
  5
87
330
2F8
100
AcDbEntity
  8
DIMNSIONS
 62
     7
100
AcDbText
 10
-439.6875
 20
-1060.091666666666
 30
0.0
 40
40.72102864583334
  1
629
 41
0.7
 11
-439.6875
 21
-1019.370638020833
 31
0.0
100
AcDbText
 73
     3
  0
LINE
  5
88
330
2F8
100
AcDbEntity
  8
DIMNSIONS
  6
Continuous
 62
     7
100
AcDbLine
 10
-722.0
 20
-1000.0
 30
0.0
 11
-765.0
 21
-1000.0
 31
0.0
  0
LINE
  5
89
330
2F8
100
AcDbEntity
  8
DIMNSIONS
  6
Continuous
 62
     7
100
AcDbLine
 10
-722.0
 20
-628.3764780209263
 30
0.0
 11
-765.0
 21
-628.3764780209263
 31
0.0
  0
LINE
  5
8A
330
2F8
100
AcDbEntity
  8
DIMNSIONS
  6
Continuous
 62
     7
100
AcDbLine
 10
-750.0
 20
-1000.0
 30
0.0
 11
-750.0
 21
-628.3764780209263
 31
0.0
  0
LINE
  5
8B
330
2F8
100
AcDbEntity
  8
DIMNSIONS
  6
Continuous
 62
     7
100
AcDbLine
 10
-750.0
 20
-1000.0
 30
0.0
 11
-758.0379851433089
 21
-970.0018310546877
 31
0.0
  0
LINE
  5
8C
330
2F8
100
AcDbEntity
  8
DIMNSIONS
  6
Continuous
 62
     7
100
AcDbLine
 10
-750.0
 20
-1000.0
 30
0.0
 11
-741.962014856691
 21
-970.0018310546877
 31
0.0
  0
LINE
  5
8D
330
2F8
100
AcDbEntity
  8
DIMNSIONS
  6
Continuous
 62
     7
100
AcDbLine
 10
-750.0
 20
-628.3764780209263
 30
0.0
 11
-741.962014856691
 21
-658.3746469662388
 31
0.0
  0
LINE
  5
8E
330
2F8
100
AcDbEntity
  8
DIMNSIONS
  6
Continuous
 62
     7
100
AcDbLine
 10
-750.0
 20
-628.3764780209263
 30
0.0
 11
-758.0379851433089
 21
-658.3746469662388
 31
0.0
  0
TEXT
  5
8F
330
2F8
100
AcDbEntity
  8
DIMNSIONS
 62
     7
100
AcDbText
 10
-764.9083333333335
 20
-853.8757390104629
 30
0.0
 40
40.72102864583334
  1
372
 50
90.0
 41
0.7
 11
-805.6293619791668
 21
-853.8757390104629
 31
0.0
100
AcDbText
 73
     3
  0
LINE
  5
90
330
2F8
100
AcDbEntity
  8
DIMNSIONS
  6
Continuous
 62
     7
100
AcDbLine
 10
-722.0
 20
-575.0
 30
0.0
 11
-765.0
 21
-575.0
 31
0.0
  0
LINE
  5
91
330
2F8
100
AcDbEntity
  8
DIMNSIONS
  6
Continuous
 62
     7
100
AcDbLine
 10
-722.0
 20
-116.1090623426465
 30
0.0
 11
-765.0
 21
-116.1090623426465
 31
0.0
  0
LINE
  5
92
330
2F8
100
AcDbEntity
  8
DIMNSIONS
  6
Continuous
 62
     7
100
AcDbLine
 10
-750.0
 20
-575.0
 30
0.0
 11
-750.0
 21
-116.1090623426465
 31
0.0
  0
LINE
  5
93
330
2F8
100
AcDbEntity
  8
DIMNSIONS
  6
Continuous
 62
     7
100
AcDbLine
 10
-750.0
 20
-575.0
 30
0.0
 11
-758.0379851433089
 21
-545.0018310546875
 31
0.0
  0
LINE
  5
94
330
2F8
100
AcDbEntity
  8
DIMNSIONS
  6
Continuous
 62
     7
100
AcDbLine
 10
-750.0
 20
-575.0
 30
0.0
 11
-741.962014856691
 21
-545.0018310546875
 31
0.0
  0
LINE
  5
95
330
2F8
100
AcDbEntity
  8
DIMNSIONS
  6
Continuous
 62
     7
100
AcDbLine
 10
-750.0
 20
-116.1090623426465
 30
0.0
 11
-741.962014856691
 21
-146.107231287959
 31
0.0
  0
LINE
  5
96
330
2F8
100
AcDbEntity
  8
DIMNSIONS
  6
Continuous
 62
     7
100
AcDbLine
 10
-750.0
 20
-116.1090623426465
 30
0.0
 11
-758.0379851433089
 21
-146.107231287959
 31
0.0
  0
TEXT
  5
97
330
2F8
100
AcDbEntity
  8
DIMNSIONS
 62
     7
100
AcDbText
 10
-764.9083333333335
 20
-385.2420311713231
 30
0.0
 40
40.72102864583334
  1
459
 50
90.0
 41
0.7
 11
-805.6293619791668
 21
-385.2420311713231
 31
0.0
100
AcDbText
 73
     3
  0
LINE
  5
98
330
2F8
100
AcDbEntity
  8
DIMNSIONS
  6
Continuous
 62
     7
100
AcDbLine
 10
-713.4999999999999
 20
-1007.276106820972
 30
0.0
 11
-765.0
 21
-1007.276106820972
 31
0.0
  0
LINE
  5
99
330
2F8
100
AcDbEntity
  8
DIMNSIONS
  6
Continuous
 62
     7
100
AcDbLine
 10
-722.0
 20
-1000.0
 30
0.0
 11
-765.0
 21
-1000.0
 31
0.0
  0
LINE
  5
9A
330
2F8
100
AcDbEntity
  8
DIMNSIONS
  6
Continuous
 62
     7
100
AcDbLine
 10
-750.0
 20
-1000.0
 30
0.0
 11
-750.0
 21
-1007.276106820972
 31
0.0
  0
LINE
  5
9B
330
2F8
100
AcDbEntity
  8
DIMNSIONS
  6
Continuous
 62
     7
100
AcDbLine
 10
-750.0
 20
-1007.276106820972
 30
0.0
 11
-750.0
 21
-1051.458333333333
 31
0.0
  0
LINE
  5
9C
330
2F8
100
AcDbEntity
  8
DIMNSIONS
  6
Continuous
 62
     7
100
AcDbLine
 10
-750.0
 20
-1007.276106820972
 30
0.0
 11
-741.962014856691
 21
-1037.274275766284
 31
0.0
  0
LINE
  5
9D
330
2F8
100
AcDbEntity
  8
DIMNSIONS
  6
Continuous
 62
     7
100
AcDbLine
 10
-750.0
 20
-1007.276106820972
 30
0.0
 11
-758.0379851433089
 21
-1037.274275766284
 31
0.0
  0
LINE
  5
9E
330
2F8
100
AcDbEntity
  8
DIMNSIONS
  6
Continuous
 62
     7
100
AcDbLine
 10
-750.0
 20
-1000.0
 30
0.0
 11
-750.0
 21
-947.4999999999999
 31
0.0
  0
LINE
  5
9F
330
2F8
100
AcDbEntity
  8
DIMNSIONS
  6
Continuous
 62
     7
100
AcDbLine
 10
-750.0
 20
-1000.0
 30
0.0
 11
-758.0379851433089
 21
-970.0018310546877
 31
0.0
  0
LINE
  5
A0
330
2F8
100
AcDbEntity
  8
DIMNSIONS
  6
Continuous
 62
     7
100
AcDbLine
 10
-750.0
 20
-1000.0
 30
0.0
 11
-741.962014856691
 21
-970.0018310546877
 31
0.0
  0
TEXT
  5
A1
330
2F8
100
AcDbEntity
  8
DIMNSIONS
 62
     7
100
AcDbText
 10
-764.9083333333331
 20
-1051.458333333333
 30
0.0
 40
40.72102864583334
  1
7
 50
90.0
 41
0.7
 11
-805.6293619791665
 21
-1051.458333333333
 31
0.0
100
AcDbText
 73
     3
  0
TEXT
  5
A2
330
2F8
100
AcDbEntity
  8
DATA
 62
     7
100
AcDbText
 10
-1312.500000065625
 20
-1782.410423422278
 30
0.0
 40
28.50472005350857
  1
※仕様及び外観は予告なく変更されることがあります。
 41
0.7
 11
-1312.500000065625
 21
-1753.905703368769
 31
0.0
100
AcDbText
 73
     3
  0
TEXT
  5
A3
330
2F8
100
AcDbEntity
  8
DATA
 62
     7
100
AcDbText
 10
-1312.500000065625
 20
-1819.452090090796
 30
0.0
 40
28.50472005350857
  1
　また、同一商品でも若干の個体差があることがあります。ご了承ください。
 41
0.7
 11
-1312.500000065625
 21
-1790.947370037287
 31
0.0
100
AcDbText
 73
     3
  0
TEXT
  5
A4
330
2F8
100
AcDbEntity
  8
DATA
 62
     7
100
AcDbText
 10
750.0000000374998
 20
-1733.591240086503
 30
0.0
 40
36.64892578308246
  1
VRX915M
 41
0.7
 11
750.0000000374998
 21
-1696.942314303421
 31
0.0
100
AcDbText
 73
     3
  0
TEXT
  5
A5
330
2F8
100
AcDbEntity
  8
DATA
 62
     7
100
AcDbText
 10
675.0
 20
-1678.900565083769
 30
0.0
 40
28.50472005350857
  1
2-Wayフルレンジ・ステージモニタ ー
 41
0.7
 11
675.0
 21
-1650.395845030261
 31
0.0
100
AcDbText
 73
     3
  0
TEXT
  5
A6
330
2F8
100
AcDbEntity
  8
DATA
 62
     7
100
AcDbText
 10
750.0000000374998
 20
-1622.93624008097
 30
0.0
 40
32.57682291829551
  1
JBL PROFESSIONAL
 41
0.7
 11
750.0000000374998
 21
-1590.359417162675
 31
0.0
100
AcDbText
 73
     3
  0
TEXT
  5
A7
330
2F8
100
AcDbEntity
  8
DATA
 62
     7
100
AcDbText
 10
100.8252983940972
 20
29.87945148253438
 30
0.0
 40
40.72102864583334
  1
左側面パネル拡大図
 41
0.7
 72
     1
 11
250.0
 21
50.23996580545105
 31
0.0
100
AcDbText
 73
     2
  0
LINE
  5
A8
330
2F8
100
AcDbEntity
  8
DATA
  6
Continuous
 62
     7
100
AcDbLine
 10
0.0
 20
0.2399658054510496
 30
0.0
 11
500.0
 21
0.2399658054510496
 31
0.0
  0
LINE
  5
A9
330
2F8
100
AcDbEntity
  8
DATA
  6
Continuous
 62
     7
100
AcDbLine
 10
558.2017673744637
 20
413.6530809631351
 30
0.0
 11
96.17721445546571
 21
680.4030809631353
 31
0.0
  0
LINE
  5
AA
330
2F8
100
AcDbEntity
  8
DATA
  6
Continuous
 62
     7
100
AcDbLine
 10
53.04967605870922
 20
118.5459883371646
 30
0.0
 11
-95.3409189848586
 21
395.0259383563266
 31
0.0
  0
LINE
  5
AB
330
2F8
100
AcDbEntity
  8
DATA
  6
Continuous
 62
     7
100
AcDbLine
 10
93.18302106228498
 20
95.37499079587007
 30
0.0
 11
406.816978937715
 21
105.104940815032
 31
0.0
  0
LINE
  5
AC
330
2F8
100
AcDbEntity
  8
DATA
  6
Continuous
 62
     7
100
AcDbLine
 10
36.07209668895035
 20
664.2979631966199
 30
0.0
 11
-94.67705909125609
 21
437.8337823385645
 31
0.0
  0
LINE
  5
AD
330
2F8
100
AcDbEntity
  8
DATA
  6
Continuous
 62
     7
100
AcDbLine
 10
574.3068851409788
 20
353.5479631966199
 30
0.0
 11
443.5577293607726
 21
127.0837823385645
 31
0.0
  0
ARC
  5
AE
330
2F8
100
AcDbEntity
  8
DATA
  6
Continuous
 62
     7
100
AcDbCircle
 10
74.17721445546573
 20
642.29796319662
 30
0.0
 40
44.00000000000006
100
AcDbArc
 50
60.00000000000005
 51
150.0
  0
ARC
  5
AF
330
2F8
100
AcDbEntity
  8
DATA
  6
Continuous
 62
     7
100
AcDbCircle
 10
536.2017673744637
 20
375.54796319662
 30
0.0
 40
43.99999999999987
100
AcDbArc
 50
329.9999999999999
 51
60.0
  0
ARC
  5
B0
330
2F8
100
AcDbEntity
  8
DATA
  6
Continuous
 62
     7
100
AcDbCircle
 10
-56.57194132474068
 20
415.8337823385645
 30
0.0
 40
44.00000000000006
100
AcDbArc
 50
150.0
 51
208.2230676527006
  0
ARC
  5
B1
330
2F8
100
AcDbEntity
  8
DATA
  6
Continuous
 62
     7
100
AcDbCircle
 10
405.4526115942572
 20
149.0837823385645
 30
0.0
 40
43.99999999999862
100
AcDbArc
 50
271.7769323472993
 51
329.9999999999999
  0
ARC
  5
B2
330
2F8
100
AcDbEntity
  8
DATA
  6
Continuous
 62
     7
100
AcDbCircle
 10
91.81865371882969
 20
139.3538323194069
 30
0.0
 40
44.0000000000029
100
AcDbArc
 50
208.2230676527041
 51
271.776932347296
  0
LINE
  5
B3
330
2F8
100
AcDbEntity
  8
DATA
  6
Continuous
 62
     7
100
AcDbLine
 10
311.1238065219348
 20
266.5180308889028
 30
0.0
 11
308.4675104995917
 21
265.806278514858
 31
0.0
  0
LINE
  5
B4
330
2F8
100
AcDbEntity
  8
DATA
  6
Continuous
 62
     7
100
AcDbLine
 10
247.3727019867804
 20
249.4359739121134
 30
0.0
 11
244.7164059644807
 21
248.7242215380839
 31
0.0
  0
LINE
  5
B5
330
2F8
100
AcDbEntity
  8
DATA
  6
Continuous
 62
     7
100
AcDbLine
 10
270.3584699519733
 20
291.1541290852921
 30
0.0
 11
271.0708420514421
 21
288.4955202161763
 31
0.0
  0
LINE
  5
B6
330
2F8
100
AcDbEntity
  8
DATA
  6
Continuous
 62
     7
100
AcDbLine
 10
287.4256664572515
 20
227.4584845848352
 30
0.0
 11
288.1380385567204
 21
224.7998757157193
 31
0.0
  0
CIRCLE
  5
B7
330
2F8
100
AcDbEntity
  8
DATA
  6
Continuous
 62
     7
100
AcDbCircle
 10
277.9201062431992
 20
257.6211262134897
 30
0.0
 40
64.62499999999998
  0
ARC
  5
B8
330
2F8
100
AcDbEntity
  8
DATA
  6
Continuous
 62
     7
100
AcDbCircle
 10
277.9201062431992
 20
257.6211262134897
 30
0.0
 40
49.50000000000073
100
AcDbArc
 50
346.1276202131605
 51
133.8723797868387
  0
ARC
  5
B9
330
2F8
100
AcDbEntity
  8
DATA
  6
Continuous
 62
     7
100
AcDbCircle
 10
277.9201062431992
 20
257.6211262134897
 30
0.0
 40
49.49999999999834
100
AcDbArc
 50
166.1276202131614
 51
313.8723797868395
  0
LINE
  5
BA
330
2F8
100
AcDbEntity
  8
DATA
  6
Continuous
 62
     7
100
AcDbLine
 10
332.1883464653027
 20
242.1664755155256
 30
0.0
 11
318.4383464653028
 21
218.3507769114535
 31
0.0
  0
LINE
  5
BB
330
2F8
100
AcDbEntity
  8
DATA
  6
Continuous
 62
     7
100
AcDbLine
 10
318.4383464653028
 20
218.3507769114535
 30
0.0
 11
312.2262988558476
 21
221.9373042709912
 31
0.0
  0
LINE
  5
BC
330
2F8
100
AcDbEntity
  8
DATA
  6
Continuous
 62
     7
100
AcDbLine
 10
332.1883464653027
 20
242.1664755155256
 30
0.0
 11
325.9762988558476
 21
245.7530028750633
 31
0.0
  0
LINE
  5
BD
330
2F8
100
AcDbEntity
  8
DATA
  6
Continuous
 62
     7
100
AcDbLine
 10
237.4018660210956
 20
296.8914755155259
 30
0.0
 11
223.6518660210956
 21
273.0757769114538
 31
0.0
  0
LINE
  5
BE
330
2F8
100
AcDbEntity
  8
DATA
  6
Continuous
 62
     7
100
AcDbLine
 10
223.6518660210956
 20
273.0757769114538
 30
0.0
 11
229.8639136305506
 21
269.4892495519161
 31
0.0
  0
LINE
  5
BF
330
2F8
100
AcDbEntity
  8
DATA
  6
Continuous
 62
     7
100
AcDbLine
 10
237.4018660210956
 20
296.8914755155259
 30
0.0
 11
243.6139136305506
 21
293.3049481559881
 31
0.0
  0
ARC
  5
C0
330
2F8
100
AcDbEntity
  8
DATA
  6
Continuous
 62
     7
100
AcDbCircle
 10
277.9201062431992
 20
257.6211262134897
 30
0.0
 40
34.37500000000001
100
AcDbArc
 50
102.7075572240407
 51
195.0000000000028
  0
ARC
  5
C1
330
2F8
100
AcDbEntity
  8
DATA
  6
Continuous
 62
     7
100
AcDbCircle
 10
277.9201062431992
 20
257.6211262134897
 30
0.0
 40
34.37500000000175
100
AcDbArc
 50
287.2924427759561
 51
15.00000000000176
  0
ARC
  5
C2
330
2F8
100
AcDbEntity
  8
DATA
  6
Continuous
 62
     7
100
AcDbCircle
 10
277.9201062431992
 20
257.6211262134897
 30
0.0
 40
31.62500000000092
100
AcDbArc
 50
15.00000000000159
 51
102.5080936310166
  0
ARC
  5
C3
330
2F8
100
AcDbEntity
  8
DATA
  6
Continuous
 62
     7
100
AcDbCircle
 10
277.9201062431992
 20
257.6211262134897
 30
0.0
 40
31.62499999999833
100
AcDbArc
 50
194.9999991462214
 51
287.4919063689836
  0
ARC
  5
C4
330
2F8
100
AcDbEntity
  8
DATA
  6
Continuous
 62
     7
100
AcDbCircle
 10
277.9201062431992
 20
257.6211262134897
 30
0.0
 40
16.50000000000104
100
AcDbArc
 50
15.00000000000616
 51
104.9999999999938
  0
ARC
  5
C5
330
2F8
100
AcDbEntity
  8
DATA
  6
Continuous
 62
     7
100
AcDbCircle
 10
277.9201062431992
 20
257.6211262134897
 30
0.0
 40
16.49999999999749
100
AcDbArc
 50
194.9999999999937
 51
285.0000000000062
  0
ARC
  5
C6
330
2F8
100
AcDbEntity
  8
DATA
  6
Continuous
 62
     7
100
AcDbCircle
 10
277.9201062431992
 20
257.6211262134897
 30
0.0
 40
19.25000000000151
100
AcDbArc
 50
104.9999999999947
 51
195.000000000005
  0
ARC
  5
C7
330
2F8
100
AcDbEntity
  8
DATA
  6
Continuous
 62
     7
100
AcDbCircle
 10
277.9201062431992
 20
257.6211262134897
 30
0.0
 40
19.25000000000057
100
AcDbArc
 50
284.9999999999921
 51
15.00000000000546
  0
LINE
  5
C8
330
2F8
100
AcDbEntity
  8
DATA
  6
Continuous
 62
     7
100
AcDbLine
 10
296.5141783992647
 20
262.6033928317152
 30
0.0
 11
293.8578823770488
 21
261.8916404577009
 31
0.0
  0
LINE
  5
C9
330
2F8
100
AcDbEntity
  8
DATA
  6
Continuous
 62
     7
100
AcDbLine
 10
261.9823301093495
 20
253.3506119692785
 30
0.0
 11
259.3260340871336
 21
252.6388595952641
 31
0.0
  0
LINE
  5
CA
330
2F8
100
AcDbEntity
  8
DATA
  6
Continuous
 62
     7
100
AcDbLine
 10
282.9023728614213
 20
239.0270540574233
 30
0.0
 11
282.1906204874038
 21
241.6833500796813
 31
0.0
  0
LINE
  5
CB
330
2F8
100
AcDbEntity
  8
DATA
  6
Continuous
 62
     7
100
AcDbLine
 10
273.6495919989955
 20
273.5589023472974
 30
0.0
 11
272.9378396249769
 21
276.2151983695562
 31
0.0
  0
TEXT
  5
CC
330
2F8
100
AcDbEntity
  8
DATA
 62
     7
100
AcDbText
 10
218.9406357398039
 20
447.0960645307444
 30
0.0
 40
19.0458984375
  1
BI-AMP
 50
329.9999999999999
 41
0.7
 11
228.4635849585539
 21
463.5902964155177
 31
0.0
100
AcDbText
 73
     3
  0
TEXT
  5
CD
330
2F8
100
AcDbEntity
  8
DATA
 62
     7
100
AcDbText
 10
199.0513669631726
 20
422.688003071062
 30
0.0
 40
19.0458984375
  1
±1 LF:8Ω
 50
329.9999999999999
 41
0.7
 11
208.5743161819227
 21
439.1822349558353
 31
0.0
100
AcDbText
 73
     3
  0
TEXT
  5
CE
330
2F8
100
AcDbEntity
  8
DATA
 62
     7
100
AcDbText
 10
184.0619383254417
 20
396.7255510940841
 30
0.0
 40
19.0458984375
  1
±2 HF:8Ω
 50
329.9999999999999
 41
0.7
 11
193.5848875441917
 21
413.2197829788574
 31
0.0
100
AcDbText
 73
     3
  0
TEXT
  5
CF
330
2F8
100
AcDbEntity
  8
DATA
 62
     7
100
AcDbText
 10
339.8568214730194
 20
341.3939360064344
 30
0.0
 40
19.0458984375
  1
±1 IN:8Ω
 50
329.9999999999999
 41
0.7
 11
349.3797706917693
 21
357.8881678912077
 31
0.0
100
AcDbText
 73
     3
  0
TEXT
  5
D0
330
2F8
100
AcDbEntity
  8
DATA
 62
     7
100
AcDbText
 10
324.8673917426832
 20
315.4314846602724
 30
0.0
 40
19.0458984375
  1
±2 N/C
 50
329.9999999999999
 41
0.7
 11
334.3903409614332
 21
331.9257165450457
 31
0.0
100
AcDbText
 73
     3
  0
TEXT
  5
D1
330
2F8
100
AcDbEntity
  8
DATA
 62
     7
100
AcDbText
 10
357.4886951734419
 20
367.1053051210332
 30
0.0
 40
19.0458984375
  1
PASSIVE
 50
329.9999999999999
 41
0.7
 11
367.0116443921918
 21
383.5995370058066
 31
0.0
100
AcDbText
 73
     3
  0
TEXT
  5
D2
330
2F8
100
AcDbEntity
  8
DATA
 62
     7
100
AcDbText
 10
800.8252983940971
 20
29.87945148253438
 30
0.0
 40
40.72102864583334
  1
右側面パネル拡大図
 41
0.7
 72
     1
 11
950.0
 21
50.23996580545105
 31
0.0
100
AcDbText
 73
     2
  0
TEXT
  5
D3
330
2F8
100
AcDbEntity
  8
DATA
 62
     7
100
AcDbText
 10
953.4942733847598
 20
299.4857524827499
 30
0.0
 40
22.39656575520833
  1
PASSIVE
 50
300.0
 41
0.7
 72
     1
 11
989.3215975499392
 21
259.8275724846276
 31
0.0
100
AcDbText
 73
     2
  0
TEXT
  5
D4
330
2F8
100
AcDbEntity
  8
DATA
 62
     7
100
AcDbText
 10
797.7069145076703
 20
200.6277983605575
 30
0.0
 40
22.39656575520833
  1
BI-AMP
 50
300.0
 41
0.7
 72
     1
 11
828.3083733299676
 21
170.0210826498201
 31
0.0
100
AcDbText
 73
     2
  0
TEXT
  5
D5
330
2F8
100
AcDbEntity
  8
DATA
 62
     7
100
AcDbText
 10
828.2351531612253
 20
248.8636214410934
 30
0.0
 40
22.39656575520833
  1
VRX915M
 50
30.00000000000001
 41
0.7
 72
     1
 11
867.8933331593475
 21
284.6909456062727
 31
0.0
100
AcDbText
 73
     2
  0
LINE
  5
D6
330
2F8
100
AcDbEntity
  8
DATA
  6
Continuous
 62
     7
100
AcDbLine
 10
1174.229999236534
 20
395.7743008358626
 30
0.0
 11
1173.51824686249
 21
393.1180048135193
 31
0.0
  0
LINE
  5
D7
330
2F8
100
AcDbEntity
  8
DATA
  6
Continuous
 62
     7
100
AcDbLine
 10
1157.147942259751
 20
332.0231963007068
 30
0.0
 11
1156.436189885714
 21
329.3669002784091
 31
0.0
  0
LINE
  5
D8
330
2F8
100
AcDbEntity
  8
DATA
  6
Continuous
 62
     7
100
AcDbLine
 10
1132.511844063353
 20
372.7885328706479
 30
0.0
 11
1135.170452932468
 21
372.0761607711771
 31
0.0
  0
LINE
  5
D9
330
2F8
100
AcDbEntity
  8
DATA
  6
Continuous
 62
     7
100
AcDbLine
 10
1196.20748856381
 20
355.7213363653709
 30
0.0
 11
1198.866097432925
 21
355.0089642659005
 31
0.0
  0
CIRCLE
  5
DA
330
2F8
100
AcDbEntity
  8
DATA
  6
Continuous
 62
     7
100
AcDbCircle
 10
1165.333094561123
 20
362.5706005571264
 30
0.0
 40
64.62500000000012
  0
ARC
  5
DB
330
2F8
100
AcDbEntity
  8
DATA
  6
Continuous
 62
     7
100
AcDbCircle
 10
1165.333094561123
 20
362.5706005571264
 30
0.0
 40
49.50000000000101
100
AcDbArc
 50
46.12762021316028
 51
193.8723797868389
  0
ARC
  5
DC
330
2F8
100
AcDbEntity
  8
DATA
  6
Continuous
 62
     7
100
AcDbCircle
 10
1165.333094561123
 20
362.5706005571264
 30
0.0
 40
49.49999999999814
100
AcDbArc
 50
226.1276202131615
 51
13.87237978683904
  0
LINE
  5
DD
330
2F8
100
AcDbEntity
  8
DATA
  6
Continuous
 62
     7
100
AcDbLine
 10
1205.851334783227
 20
401.8409498591628
 30
0.0
 11
1219.601334783227
 21
378.0252512550906
 31
0.0
  0
LINE
  5
DE
330
2F8
100
AcDbEntity
  8
DATA
  6
Continuous
 62
     7
100
AcDbLine
 10
1219.601334783227
 20
378.0252512550906
 30
0.0
 11
1213.389287173772
 21
374.4387238955529
 31
0.0
  0
LINE
  5
DF
330
2F8
100
AcDbEntity
  8
DATA
  6
Continuous
 62
     7
100
AcDbLine
 10
1205.851334783227
 20
401.8409498591628
 30
0.0
 11
1199.639287173772
 21
398.2544224996249
 31
0.0
  0
LINE
  5
E0
330
2F8
100
AcDbEntity
  8
DATA
  6
Continuous
 62
     7
100
AcDbLine
 10
1111.06485433902
 20
347.1159498591624
 30
0.0
 11
1124.81485433902
 21
323.3002512550902
 31
0.0
  0
LINE
  5
E1
330
2F8
100
AcDbEntity
  8
DATA
  6
Continuous
 62
     7
100
AcDbLine
 10
1124.81485433902
 20
323.3002512550902
 30
0.0
 11
1131.026901948475
 21
326.886778614628
 31
0.0
  0
LINE
  5
E2
330
2F8
100
AcDbEntity
  8
DATA
  6
Continuous
 62
     7
100
AcDbLine
 10
1111.06485433902
 20
347.1159498591624
 30
0.0
 11
1117.276901948474
 21
350.7024772187001
 31
0.0
  0
ARC
  5
E3
330
2F8
100
AcDbEntity
  8
DATA
  6
Continuous
 62
     7
100
AcDbCircle
 10
1165.333094561123
 20
362.5706005571264
 30
0.0
 40
34.3749999999998
100
AcDbArc
 50
162.70755722404
 51
255.0000000000031
  0
ARC
  5
E4
330
2F8
100
AcDbEntity
  8
DATA
  6
Continuous
 62
     7
100
AcDbCircle
 10
1165.333094561123
 20
362.5706005571264
 30
0.0
 40
34.3750000000016
100
AcDbArc
 50
347.2924427759558
 51
75.00000000000162
  0
ARC
  5
E5
330
2F8
100
AcDbEntity
  8
DATA
  6
Continuous
 62
     7
100
AcDbCircle
 10
1165.333094561123
 20
362.5706005571264
 30
0.0
 40
31.62500000000096
100
AcDbArc
 50
75.00000000000088
 51
162.5080936310171
  0
ARC
  5
E6
330
2F8
100
AcDbEntity
  8
DATA
  6
Continuous
 62
     7
100
AcDbCircle
 10
1165.333094561123
 20
362.5706005571264
 30
0.0
 40
31.62499999999803
100
AcDbArc
 50
254.9999991462219
 51
347.4919063689838
  0
ARC
  5
E7
330
2F8
100
AcDbEntity
  8
DATA
  6
Continuous
 62
     7
100
AcDbCircle
 10
1165.333094561123
 20
362.5706005571264
 30
0.0
 40
16.50000000000101
100
AcDbArc
 50
75.00000000000483
 51
164.9999999999933
  0
ARC
  5
E8
330
2F8
100
AcDbEntity
  8
DATA
  6
Continuous
 62
     7
100
AcDbCircle
 10
1165.333094561123
 20
362.5706005571264
 30
0.0
 40
16.4999999999971
100
AcDbArc
 50
254.9999999999946
 51
345.0000000000065
  0
ARC
  5
E9
330
2F8
100
AcDbEntity
  8
DATA
  6
Continuous
 62
     7
100
AcDbCircle
 10
1165.333094561123
 20
362.5706005571264
 30
0.0
 40
19.25000000000141
100
AcDbArc
 50
164.9999999999954
 51
255.0000000000053
  0
ARC
  5
EA
330
2F8
100
AcDbEntity
  8
DATA
  6
Continuous
 62
     7
100
AcDbCircle
 10
1165.333094561123
 20
362.5706005571264
 30
0.0
 40
19.25000000000076
100
AcDbArc
 50
344.9999999999922
 51
75.00000000000461
  0
LINE
  5
EB
330
2F8
100
AcDbEntity
  8
DATA
  6
Continuous
 62
     7
100
AcDbLine
 10
1170.315361179345
 20
381.1646727131929
 30
0.0
 11
1169.603608805338
 21
378.5083766909752
 31
0.0
  0
LINE
  5
EC
330
2F8
100
AcDbEntity
  8
DATA
  6
Continuous
 62
     7
100
AcDbLine
 10
1161.062580316909
 20
346.6328244232777
 30
0.0
 11
1160.350827942901
 21
343.97652840106
 31
0.0
  0
LINE
  5
ED
330
2F8
100
AcDbEntity
  8
DATA
  6
Continuous
 62
     7
100
AcDbLine
 10
1183.927166717189
 20
357.5883339389012
 30
0.0
 11
1181.270870694932
 21
358.3000863129274
 31
0.0
  0
LINE
  5
EE
330
2F8
100
AcDbEntity
  8
DATA
  6
Continuous
 62
     7
100
AcDbLine
 10
1149.395318427314
 20
366.8411148013271
 30
0.0
 11
1146.739022405057
 21
367.5528671753519
 31
0.0
  0
LINE
  5
EF
330
2F8
100
AcDbEntity
  8
DATA
  6
Continuous
 62
     7
100
AcDbLine
 10
641.7982326255374
 20
413.6530809631331
 30
0.0
 11
1103.822785544535
 21
680.403080963133
 31
0.0
  0
LINE
  5
F0
330
2F8
100
AcDbEntity
  8
DATA
  6
Continuous
 62
     7
100
AcDbLine
 10
1146.950323941289
 20
118.5459883371668
 30
0.0
 11
1295.34091898486
 21
395.0259383563249
 31
0.0
  0
LINE
  5
F1
330
2F8
100
AcDbEntity
  8
DATA
  6
Continuous
 62
     7
100
AcDbLine
 10
1106.816978937714
 20
95.37499079587229
 30
0.0
 11
793.1830210622861
 21
105.1049408150298
 31
0.0
  0
LINE
  5
F2
330
2F8
100
AcDbEntity
  8
DATA
  6
Continuous
 62
     7
100
AcDbLine
 10
1163.927903311051
 20
664.2979631966181
 30
0.0
 11
1294.677059091257
 21
437.8337823385628
 31
0.0
  0
LINE
  5
F3
330
2F8
100
AcDbEntity
  8
DATA
  6
Continuous
 62
     7
100
AcDbLine
 10
625.6931148590223
 20
353.5479631966183
 30
0.0
 11
756.4422706392283
 21
127.0837823385628
 31
0.0
  0
ARC
  5
F4
330
2F8
100
AcDbEntity
  8
DATA
  6
Continuous
 62
     7
100
AcDbCircle
 10
1125.822785544535
 20
642.297963196618
 30
0.0
 40
44.00000000000047
100
AcDbArc
 50
29.99999999999965
 51
120.0000000000002
  0
ARC
  5
F5
330
2F8
100
AcDbEntity
  8
DATA
  6
Continuous
 62
     7
100
AcDbCircle
 10
663.7982326255373
 20
375.5479631966183
 30
0.0
 40
43.99999999999967
100
AcDbArc
 50
120.0000000000002
 51
210.0000000000003
  0
ARC
  5
F6
330
2F8
100
AcDbEntity
  8
DATA
  6
Continuous
 62
     7
100
AcDbCircle
 10
1256.571941324742
 20
415.8337823385627
 30
0.0
 40
43.99999999999852
100
AcDbArc
 50
331.7769323472993
 51
30.00000000000034
  0
ARC
  5
F7
330
2F8
100
AcDbEntity
  8
DATA
  6
Continuous
 62
     7
100
AcDbCircle
 10
794.5473884057443
 20
149.0837823385628
 30
0.0
 40
44.00000000000047
100
AcDbArc
 50
209.9999999999997
 51
268.2230676527003
  0
ARC
  5
F8
330
2F8
100
AcDbEntity
  8
DATA
  6
Continuous
 62
     7
100
AcDbCircle
 10
1108.181346281171
 20
139.3538323194048
 30
0.0
 40
43.99999999999867
100
AcDbArc
 50
268.2230676527008
 51
331.7769323472993
  0
LWPOLYLINE
  5
F9
330
2F8
100
AcDbEntity
  8
DATA
  6
Continuous
 62
     7
100
AcDbPolyline
 90
        8
 70
   129
 43
0.0
 10
931.4591449857939
 20
293.1392145519581
 42
-0.4142135623731046
 10
946.4854244274228
 20
289.1129351103291
 10
990.4854244274227
 20
212.9026995772987
 42
-0.4142135623730948
 10
986.459144985794
 20
197.8764201356698
 10
886.4332108486914
 20
140.1264201356699
 42
-0.4142135623730976
 10
871.4069314070625
 20
144.1526995772987
 10
827.4069314070626
 20
220.3629351103293
 42
-0.4142135623730859
 10
831.4332108486913
 20
235.3892145519582
  0
LWPOLYLINE
  5
103
330
2F8
100
AcDbEntity
  8
DATA
  6
Continuous
 62
     7
100
AcDbPolyline
 90
        8
 70
   129
 43
0.0
 10
940.3324164526088
 20
235.4516522324027
 42
-0.4142135623731151
 10
945.5916142571791
 20
234.0424544278327
 10
963.7416142571787
 20
202.605732270458
 42
-0.4142135623730999
 10
962.3324164526087
 20
197.3465344658878
 10
897.5537162495321
 20
159.9465344658876
 42
-0.4142135623730577
 10
892.2945184449623
 20
161.3557322704577
 10
874.1445184449622
 20
192.7924544278324
 42
-0.4142135623730999
 10
875.5537162495325
 20
198.0516522324026
  0
LINE
  5
10D
330
2F8
100
AcDbEntity
  8
DATA
  6
Continuous
 62
     7
100
AcDbLine
 10
955.4246384177428
 20
196.5337534384985
 30
0.0
 11
950.661498696928
 21
193.7837534384985
 31
0.0
  0
LINE
  5
10E
330
2F8
100
AcDbEntity
  8
DATA
  6
Continuous
 62
     7
100
AcDbLine
 10
943.1483589761134
 20
195.7968931593128
 30
0.0
 11
929.3983589761134
 21
219.612591763385
 31
0.0
  0
LINE
  5
10F
330
2F8
100
AcDbEntity
  8
DATA
  6
Continuous
 62
     7
100
AcDbLine
 10
931.4114986969281
 20
227.1257314841992
 30
0.0
 11
936.1746384177427
 21
229.8757314841992
 31
0.0
  0
LINE
  5
110
330
2F8
100
AcDbEntity
  8
DATA
  6
Continuous
 62
     7
100
AcDbLine
 10
943.6877781385568
 20
227.862591763385
 30
0.0
 11
957.4377781385567
 21
204.0468931593128
 31
0.0
  0
ARC
  5
111
330
2F8
100
AcDbEntity
  8
DATA
  6
Continuous
 62
     7
100
AcDbCircle
 10
934.1614986969281
 20
222.362591763385
 30
0.0
 40
5.49999999999986
100
AcDbArc
 50
120.0000000000008
 51
209.9999999999984
  0
ARC
  5
112
330
2F8
100
AcDbEntity
  8
DATA
  6
Continuous
 62
     7
100
AcDbCircle
 10
938.9246384177427
 20
225.112591763385
 30
0.0
 40
5.49999999999986
100
AcDbArc
 50
30.00000000000084
 51
120.0000000000008
  0
ARC
  5
113
330
2F8
100
AcDbEntity
  8
DATA
  6
Continuous
 62
     7
100
AcDbCircle
 10
952.6746384177428
 20
201.2968931593128
 30
0.0
 40
5.49999999999986
100
AcDbArc
 50
300.0000000000008
 51
30.00000000000085
  0
ARC
  5
114
330
2F8
100
AcDbEntity
  8
DATA
  6
Continuous
 62
     7
100
AcDbCircle
 10
947.911498696928
 20
198.5468931593128
 30
0.0
 40
5.500000000000254
100
AcDbArc
 50
209.9999999999984
 51
300.0000000000008
  0
TEXT
  5
115
330
2F8
100
AcDbEntity
  8
DATA
 62
     7
100
AcDbText
 10
971.7532498924962
 20
406.2303502734666
 30
0.0
 40
19.0458984375
  1
BI-AMP
 50
30.00000000000001
 41
0.7
 11
962.2303006737462
 21
422.7245821582399
 31
0.0
100
AcDbText
 73
     3
  0
TEXT
  5
116
330
2F8
100
AcDbEntity
  8
DATA
 62
     7
100
AcDbText
 10
982.946616239095
 20
376.8017072049582
 30
0.0
 40
19.0458984375
  1
±1 LF:8Ω
 50
30.00000000000001
 41
0.7
 11
973.4236670203449
 21
393.2959390897315
 31
0.0
100
AcDbText
 73
     3
  0
TEXT
  5
117
330
2F8
100
AcDbEntity
  8
DATA
 62
     7
100
AcDbText
 10
997.9360448768257
 20
350.83925522798
 30
0.0
 40
19.0458984375
  1
±2 HF:8Ω
 50
30.00000000000001
 41
0.7
 11
988.4130956580756
 21
367.3334871127533
 31
0.0
100
AcDbText
 73
     3
  0
TEXT
  5
118
330
2F8
100
AcDbEntity
  8
DATA
 62
     7
100
AcDbText
 10
1123.752070748941
 20
458.0957742695857
 30
0.0
 40
19.0458984375
  1
±1 IN:8Ω
 50
30.00000000000001
 41
0.7
 11
1114.229121530192
 21
474.5900061543591
 31
0.0
100
AcDbText
 73
     3
  0
TEXT
  5
119
330
2F8
100
AcDbEntity
  8
DATA
 62
     7
100
AcDbText
 10
1138.741499386672
 20
432.1333222926075
 30
0.0
 40
19.0458984375
  1
±2 N/C
 50
30.00000000000001
 41
0.7
 11
1129.218550167922
 21
448.6275541773808
 31
0.0
100
AcDbText
 73
     3
  0
TEXT
  5
11A
330
2F8
100
AcDbEntity
  8
DATA
 62
     7
100
AcDbText
 10
1110.301309872436
 20
486.2211099985855
 30
0.0
 40
19.0458984375
  1
PASSIVE
 50
30.00000000000001
 41
0.7
 11
1100.778360653686
 21
502.7153418833588
 31
0.0
100
AcDbText
 73
     3
  0
LINE
  5
11B
330
2F8
100
AcDbEntity
  8
DATA
  6
Continuous
 62
     7
100
AcDbLine
 10
-25.77159448763098
 20
-794.917095106613
 30
0.0
 11
253.9863277599717
 21
-633.3987833890293
 31
0.0
  0
LINE
  5
11C
330
2F8
100
AcDbEntity
  8
DATA
  6
Continuous
 62
     7
100
AcDbLine
 10
34.3418432207568
 20
-1000.0
 30
0.0
 11
275.1613333516054
 21
-1000.0
 31
0.0
  0
LINE
  5
11D
330
2F8
100
AcDbEntity
  8
DATA
  6
Continuous
 62
     7
100
AcDbLine
 10
322.3936998437112
 20
-642.9204508855024
 30
0.0
 11
401.2369275104925
 21
-779.480927037088
 31
0.0
  0
LINE
  5
11E
330
2F8
100
AcDbEntity
  8
DATA
  6
Continuous
 62
     7
100
AcDbLine
 10
-51.72927459116682
 20
-858.9204508855015
 30
0.0
 11
27.41363999048129
 21
-996.0
 31
0.0
  0
LINE
  5
11F
330
2F8
100
AcDbEntity
  8
DATA
  6
Continuous
 62
     7
100
AcDbLine
 10
282.1073698218773
 20
-995.968951669352
 30
0.0
 11
401.2547607504889
 21
-787.4498787064396
 31
0.0
  0
ARC
  5
120
330
2F8
100
AcDbEntity
  8
DATA
  6
Continuous
 62
     7
100
AcDbCircle
 10
394.3087242802171
 20
-783.480927037088
 30
0.0
 40
7.999999999999756
100
AcDbArc
 50
330.2564371635302
 51
30.00000000000051
  0
LINE
  5
121
330
2F8
100
AcDbEntity
  8
DATA
  6
Continuous
 62
     7
100
AcDbLine
 10
401.8682777031684
 20
-798.6677872771923
 30
0.0
 11
396.6014719836186
 21
-795.6269955772409
 31
0.0
  0
LINE
  5
122
330
2F8
100
AcDbEntity
  8
DATA
  6
Continuous
 62
     7
100
AcDbLine
 10
383.3682777031684
 20
-830.7107272172164
 30
0.0
 11
378.2448866568513
 21
-827.7527360174618
 31
0.0
  0
LINE
  5
123
330
2F8
100
AcDbEntity
  8
DATA
  6
Continuous
 62
     7
100
AcDbLine
 10
383.3682777031684
 20
-830.7107272172164
 30
0.0
 11
401.8682777031684
 21
-798.6677872771921
 31
0.0
  0
LINE
  5
124
330
2F8
100
AcDbEntity
  8
DATA
  6
Continuous
 62
     7
100
AcDbLine
 10
292.2634173273935
 20
-990.9047511906148
 30
0.0
 11
310.7634173273936
 21
-958.8618112505903
 31
0.0
  0
LINE
  5
125
330
2F8
100
AcDbEntity
  8
DATA
  6
Continuous
 62
     7
100
AcDbLine
 10
310.7634173273936
 20
-958.8618112505903
 30
0.0
 11
305.1735098733349
 21
-955.6344766772447
 31
0.0
  0
LINE
  5
126
330
2F8
100
AcDbEntity
  8
DATA
  6
Continuous
 62
     7
100
AcDbLine
 10
292.2634173273935
 20
-990.9047511906148
 30
0.0
 11
286.8169245465676
 21
-987.7602171174657
 31
0.0
  0
LINE
  5
127
330
2F8
100
AcDbEntity
  8
DATA
  6
Continuous
 62
     7
100
AcDbLine
 10
311.5893921931765
 20
-635.5806030742013
 30
0.0
 11
273.0107309899698
 21
-629.8975403921064
 31
0.0
  0
ARC
  5
128
330
2F8
100
AcDbEntity
  8
DATA
  6
Continuous
 62
     7
100
AcDbCircle
 10
309.4033187869445
 20
-650.4204508855024
 30
0.0
 40
15.00000000000005
100
AcDbArc
 50
29.99999999999989
 51
81.61996938655367
  0
ARC
  5
129
330
2F8
100
AcDbEntity
  8
DATA
  6
Continuous
 62
     7
100
AcDbCircle
 10
268.6385841775055
 20
-659.5772360147075
 30
0.0
 40
29.99999999999996
100
AcDbArc
 50
81.61996938655278
 51
120.0000000000001
  0
LINE
  5
12A
330
2F8
100
AcDbEntity
  8
DATA
  6
Continuous
 62
     7
100
AcDbLine
 10
-52.68361543039737
 20
-845.8937220841862
 30
0.0
 11
-38.31596148278743
 21
-809.6420900971684
 31
0.0
  0
ARC
  5
12B
330
2F8
100
AcDbEntity
  8
DATA
  6
Continuous
 62
     7
100
AcDbCircle
 10
-38.73889353440006
 20
-851.4204508855014
 30
0.0
 40
14.99999999999976
100
AcDbArc
 50
158.380030613449
 51
210.0000000000036
  0
ARC
  5
12C
330
2F8
100
AcDbEntity
  8
DATA
  6
Continuous
 62
     7
100
AcDbCircle
 10
-10.42651769079282
 20
-820.6955476997999
 30
0.0
 40
29.99999999999999
100
AcDbArc
 50
119.9999999999995
 51
158.380030613447
  0
TEXT
  5
12D
330
2F8
100
AcDbEntity
  8
DATA
 62
     7
100
AcDbText
 10
208.7771419633928
 20
-897.7296999406739
 30
0.0
 40
4.072102864583333
  1
PASSIVE
 50
300.0
 41
0.7
 72
     1
 11
215.2912009025163
 21
-904.9402781221505
 31
0.0
100
AcDbText
 73
     2
  0
TEXT
  5
12E
330
2F8
100
AcDbEntity
  8
DATA
 62
     7
100
AcDbText
 10
180.4521676221038
 20
-915.7038734174362
 30
0.0
 40
4.072102864583333
  1
BI-AMP
 50
300.0
 41
0.7
 72
     1
 11
186.0160692261579
 21
-921.2687308193885
 31
0.0
100
AcDbText
 73
     2
  0
TEXT
  5
12F
330
2F8
100
AcDbEntity
  8
DATA
 62
     7
100
AcDbText
 10
186.0027564682049
 20
-906.9337237664294
 30
0.0
 40
4.072102864583333
  1
VRX915M
 50
30.00000000000001
 41
0.7
 72
     1
 11
193.2133346496817
 21
-900.419664827306
 31
0.0
100
AcDbText
 73
     2
  0
LINE
  5
130
330
2F8
100
AcDbEntity
  8
DATA
  6
Continuous
 62
     7
100
AcDbLine
 10
248.9109103000792
 20
-880.2226911491988
 30
0.0
 11
248.7815007775257
 21
-880.705654062352
 31
0.0
  0
LINE
  5
131
330
2F8
100
AcDbEntity
  8
DATA
  6
Continuous
 62
     7
100
AcDbLine
 10
245.8050817588457
 20
-891.8138010646815
 30
0.0
 11
245.6756722362936
 21
-892.2967639778267
 31
0.0
  0
LINE
  5
132
330
2F8
100
AcDbEntity
  8
DATA
  6
Continuous
 62
     7
100
AcDbLine
 10
241.3257911776825
 20
-884.4019216883285
 30
0.0
 11
241.8091746084308
 21
-884.5314438882326
 31
0.0
  0
LINE
  5
133
330
2F8
100
AcDbEntity
  8
DATA
  6
Continuous
 62
     7
100
AcDbLine
 10
252.906817450493
 20
-887.5050483256519
 30
0.0
 11
253.3902008812413
 21
-887.6345705255555
 31
0.0
  0
CIRCLE
  5
134
330
2F8
100
AcDbEntity
  8
DATA
  6
Continuous
 62
     7
100
AcDbCircle
 10
247.2932912681863
 20
-886.2597275635144
 30
0.0
 40
11.75000000000008
  0
ARC
  5
135
330
2F8
100
AcDbEntity
  8
DATA
  6
Continuous
 62
     7
100
AcDbCircle
 10
247.2932912681863
 20
-886.2597275635144
 30
0.0
 40
9.000000000000168
100
AcDbArc
 50
46.12762021316039
 51
193.8723797868387
  0
ARC
  5
136
330
2F8
100
AcDbEntity
  8
DATA
  6
Continuous
 62
     7
100
AcDbCircle
 10
247.2932912681863
 20
-886.2597275635144
 30
0.0
 40
8.99999999999969
100
AcDbArc
 50
226.1276202131615
 51
13.87237978683936
  0
LINE
  5
137
330
2F8
100
AcDbEntity
  8
DATA
  6
Continuous
 62
     7
100
AcDbLine
 10
254.6602440358415
 20
-879.1196640540531
 30
0.0
 11
257.1602440358415
 21
-883.4497910729755
 31
0.0
  0
LINE
  5
138
330
2F8
100
AcDbEntity
  8
DATA
  6
Continuous
 62
     7
100
AcDbLine
 10
257.1602440358415
 20
-883.4497910729755
 30
0.0
 11
256.0307808341224
 21
-884.1018869565274
 31
0.0
  0
LINE
  5
139
330
2F8
100
AcDbEntity
  8
DATA
  6
Continuous
 62
     7
100
AcDbLine
 10
254.6602440358415
 20
-879.1196640540531
 30
0.0
 11
253.5307808341224
 21
-879.7717599376055
 31
0.0
  0
LINE
  5
13A
330
2F8
100
AcDbEntity
  8
DATA
  6
Continuous
 62
     7
100
AcDbLine
 10
237.4263385005311
 20
-889.0696640540532
 30
0.0
 11
239.9263385005311
 21
-893.3997910729752
 31
0.0
  0
LINE
  5
13B
330
2F8
100
AcDbEntity
  8
DATA
  6
Continuous
 62
     7
100
AcDbLine
 10
239.9263385005311
 20
-893.3997910729752
 30
0.0
 11
241.0558017022502
 21
-892.7476951894233
 31
0.0
  0
LINE
  5
13C
330
2F8
100
AcDbEntity
  8
DATA
  6
Continuous
 62
     7
100
AcDbLine
 10
237.4263385005311
 20
-889.0696640540532
 30
0.0
 11
238.5558017022501
 21
-888.4175681705009
 31
0.0
  0
ARC
  5
13D
330
2F8
100
AcDbEntity
  8
DATA
  6
Continuous
 62
     7
100
AcDbCircle
 10
247.2932912681863
 20
-886.2597275635144
 30
0.0
 40
6.250000000000024
100
AcDbArc
 50
162.7075572240407
 51
255.0000000000016
  0
ARC
  5
13E
330
2F8
100
AcDbEntity
  8
DATA
  6
Continuous
 62
     7
100
AcDbCircle
 10
247.2932912681863
 20
-886.2597275635144
 30
0.0
 40
6.25000000000034
100
AcDbArc
 50
347.2924427759555
 51
75.00000000000155
  0
ARC
  5
13F
330
2F8
100
AcDbEntity
  8
DATA
  6
Continuous
 62
     7
100
AcDbCircle
 10
247.2932912681863
 20
-886.2597275635144
 30
0.0
 40
5.750000000000124
100
AcDbArc
 50
75.00000000000119
 51
162.5080936310164
  0
ARC
  5
140
330
2F8
100
AcDbEntity
  8
DATA
  6
Continuous
 62
     7
100
AcDbCircle
 10
247.2932912681863
 20
-886.2597275635144
 30
0.0
 40
5.749999999999663
100
AcDbArc
 50
254.9999991462211
 51
347.4919063689838
  0
ARC
  5
141
330
2F8
100
AcDbEntity
  8
DATA
  6
Continuous
 62
     7
100
AcDbCircle
 10
247.2932912681863
 20
-886.2597275635144
 30
0.0
 40
3.000000000000222
100
AcDbArc
 50
75.00000000000665
 51
164.9999999999929
  0
ARC
  5
142
330
2F8
100
AcDbEntity
  8
DATA
  6
Continuous
 62
     7
100
AcDbCircle
 10
247.2932912681863
 20
-886.2597275635144
 30
0.0
 40
2.999999999999462
100
AcDbArc
 50
254.9999999999938
 51
345.0000000000075
  0
ARC
  5
143
330
2F8
100
AcDbEntity
  8
DATA
  6
Continuous
 62
     7
100
AcDbCircle
 10
247.2932912681863
 20
-886.2597275635144
 30
0.0
 40
3.5000000000004
100
AcDbArc
 50
164.9999999999957
 51
255.0000000000029
  0
ARC
  5
144
330
2F8
100
AcDbEntity
  8
DATA
  6
Continuous
 62
     7
100
AcDbCircle
 10
247.2932912681863
 20
-886.2597275635144
 30
0.0
 40
3.500000000000019
100
AcDbArc
 50
344.9999999999902
 51
75.00000000000648
  0
LINE
  5
145
330
2F8
100
AcDbEntity
  8
DATA
  6
Continuous
 62
     7
100
AcDbLine
 10
248.1991579260448
 20
-882.8789871715022
 30
0.0
 11
248.0697484034979
 21
-883.3619500846324
 31
0.0
  0
LINE
  5
146
330
2F8
100
AcDbEntity
  8
DATA
  6
Continuous
 62
     7
100
AcDbLine
 10
246.5168341328745
 20
-889.1575050423959
 30
0.0
 11
246.3874246103276
 21
-889.6404679555264
 31
0.0
  0
LINE
  5
147
330
2F8
100
AcDbEntity
  8
DATA
  6
Continuous
 62
     7
100
AcDbLine
 10
250.6740316601981
 20
-887.1655942213735
 30
0.0
 11
250.1910687470606
 21
-887.0361846988236
 31
0.0
  0
LINE
  5
148
330
2F8
100
AcDbEntity
  8
DATA
  6
Continuous
 62
     7
100
AcDbLine
 10
244.395513789312
 20
-885.4832704282053
 30
0.0
 11
243.9125508761742
 21
-885.3538609056553
 31
0.0
  0
LINE
  5
149
330
2F8
100
AcDbEntity
  8
DATA
  6
Continuous
 62
     7
100
AcDbLine
 10
152.1051345526251
 20
-876.9720038533312
 30
0.0
 11
236.1095987197157
 21
-828.4720038533313
 31
0.0
  0
LINE
  5
14A
330
2F8
100
AcDbEntity
  8
DATA
  6
Continuous
 62
     7
100
AcDbLine
 10
243.9509693373072
 20
-930.6278388762345
 30
0.0
 11
270.9310775270473
 21
-880.3587570545692
 31
0.0
  0
LINE
  5
14B
330
2F8
100
AcDbEntity
  8
DATA
  6
Continuous
 62
     7
100
AcDbLine
 10
236.6539975184753
 20
-934.8407475201058
 30
0.0
 11
179.6296415411247
 21
-933.0716656984407
 31
0.0
  0
LINE
  5
14C
330
2F8
100
AcDbEntity
  8
DATA
  6
Continuous
 62
     7
100
AcDbLine
 10
247.0378019499912
 20
-831.4002070836066
 30
0.0
 11
270.8103757282106
 21
-872.5755126941624
 31
0.0
  0
LINE
  5
14D
330
2F8
100
AcDbEntity
  8
DATA
  6
Continuous
 62
     7
100
AcDbLine
 10
149.1769313223497
 20
-887.9002070836067
 30
0.0
 11
172.949505100569
 21
-929.0755126941624
 31
0.0
  0
ARC
  5
14E
330
2F8
100
AcDbEntity
  8
DATA
  6
Continuous
 62
     7
100
AcDbCircle
 10
240.1095987197157
 20
-835.4002070836067
 30
0.0
 40
8.000000000000065
100
AcDbArc
 50
29.99999999999972
 51
119.9999999999997
  0
ARC
  5
14F
330
2F8
100
AcDbEntity
  8
DATA
  6
Continuous
 62
     7
100
AcDbCircle
 10
156.1051345526252
 20
-883.9002070836066
 30
0.0
 40
8.00000000000012
100
AcDbArc
 50
120.0000000000004
 51
209.9999999999997
  0
ARC
  5
150
330
2F8
100
AcDbEntity
  8
DATA
  6
Continuous
 62
     7
100
AcDbCircle
 10
263.882172497935
 20
-876.5755126941623
 30
0.0
 40
7.999999999999698
100
AcDbArc
 50
331.7769323473
 51
29.99999999999972
  0
ARC
  5
151
330
2F8
100
AcDbEntity
  8
DATA
  6
Continuous
 62
     7
100
AcDbCircle
 10
179.8777083308446
 20
-925.0755126941625
 30
0.0
 40
8.000000000000065
100
AcDbArc
 50
209.9999999999997
 51
268.223067652699
  0
ARC
  5
152
330
2F8
100
AcDbEntity
  8
DATA
  6
Continuous
 62
     7
100
AcDbCircle
 10
236.9020643081949
 20
-926.8445945158273
 30
0.0
 40
7.999999999999882
100
AcDbArc
 50
268.2230676527007
 51
331.7769323472985
  0
LWPOLYLINE
  5
153
330
2F8
100
AcDbEntity
  8
DATA
  6
Continuous
 62
     7
100
AcDbPolyline
 90
        8
 70
   129
 43
0.0
 10
204.7707549817628
 20
-898.8836159280904
 42
-0.4142135623730987
 10
207.5028057893317
 20
-899.6156667356592
 10
215.5028057893317
 20
-913.4720731962103
 42
-0.4142135623730873
 10
214.7707549817628
 20
-916.2041240037792
 10
196.5842215022895
 20
-926.7041240037793
 42
-0.4142135623730744
 10
193.8521706947206
 20
-925.9720731962103
 10
185.8521706947206
 20
-912.1156667356592
 42
-0.414213562373093
 10
186.5842215022894
 20
-909.3836159280902
  0
LWPOLYLINE
  5
15D
330
2F8
100
AcDbEntity
  8
DATA
  6
Continuous
 62
     7
100
AcDbPolyline
 90
        8
 70
   129
 43
0.0
 10
206.3840770666382
 20
-909.3722636225551
 42
-0.4142135623731038
 10
207.3402948492873
 20
-909.6284814052042
 10
210.6402948492872
 20
-915.3442490701811
 42
-0.4142135623731806
 10
210.3840770666381
 20
-916.3004668528303
 10
198.6061315751697
 20
-923.1004668528303
 42
-0.4142135623733016
 10
197.6499137925206
 20
-922.844249070181
 10
194.3499137925206
 20
-917.1284814052041
 42
-0.4142135623730995
 10
194.6061315751697
 20
-916.1722636225551
  0
LINE
  5
167
330
2F8
100
AcDbEntity
  8
DATA
  6
Continuous
 62
     7
100
AcDbLine
 10
209.1281174239352
 20
-916.4482452214466
 30
0.0
 11
208.2620920201507
 21
-916.9482452214467
 31
0.0
  0
LINE
  5
168
330
2F8
100
AcDbEntity
  8
DATA
  6
Continuous
 62
     7
100
AcDbLine
 10
206.8960666163662
 20
-916.5822198176623
 30
0.0
 11
204.3960666163662
 21
-912.2520927987402
 31
0.0
  0
LINE
  5
169
330
2F8
100
AcDbEntity
  8
DATA
  6
Continuous
 62
     7
100
AcDbLine
 10
204.7620920201507
 20
-910.8860673949555
 30
0.0
 11
205.6281174239352
 21
-910.3860673949554
 31
0.0
  0
LINE
  5
16A
330
2F8
100
AcDbEntity
  8
DATA
  6
Continuous
 62
     7
100
AcDbLine
 10
206.9941428277196
 20
-910.7520927987401
 30
0.0
 11
209.4941428277196
 21
-915.0822198176623
 31
0.0
  0
ARC
  5
16B
330
2F8
100
AcDbEntity
  8
DATA
  6
Continuous
 62
     7
100
AcDbCircle
 10
205.2620920201507
 20
-911.7520927987401
 30
0.0
 40
1.000000000000081
100
AcDbArc
 50
119.9999999999973
 51
209.9999999999973
  0
ARC
  5
16C
330
2F8
100
AcDbEntity
  8
DATA
  6
Continuous
 62
     7
100
AcDbCircle
 10
206.1281174239352
 20
-911.2520927987402
 30
0.0
 40
0.9999999999998852
100
AcDbArc
 50
30.0000000000038
 51
119.9999999999973
  0
ARC
  5
16D
330
2F8
100
AcDbEntity
  8
DATA
  6
Continuous
 62
     7
100
AcDbCircle
 10
208.6281174239352
 20
-915.5822198176624
 30
0.0
 40
0.9999999999998852
100
AcDbArc
 50
300.0000000000038
 51
30.00000000000381
  0
ARC
  5
16E
330
2F8
100
AcDbEntity
  8
DATA
  6
Continuous
 62
     7
100
AcDbCircle
 10
207.7620920201507
 20
-916.0822198176623
 30
0.0
 40
1.000000000000081
100
AcDbArc
 50
209.9999999999973
 51
300.0000000000038
  0
TEXT
  5
16F
330
2F8
100
AcDbEntity
  8
DATA
 62
     7
100
AcDbText
 10
212.0969558738903
 20
-878.3215912514522
 30
0.0
 40
3.462890625
  1
BI-AMP
 50
30.00000000000001
 41
0.7
 11
210.3655105613903
 21
-875.3226399996753
 31
0.0
100
AcDbText
 73
     3
  0
TEXT
  5
170
330
2F8
100
AcDbEntity
  8
DATA
 62
     7
100
AcDbText
 10
214.1321133914537
 20
-883.6722536275448
 30
0.0
 40
3.462890625
  1
±1 LF:8Ω
 50
30.00000000000001
 41
0.7
 11
212.4006680789537
 21
-880.6733023757679
 31
0.0
100
AcDbText
 73
     3
  0
TEXT
  5
171
330
2F8
100
AcDbEntity
  8
DATA
 62
     7
100
AcDbText
 10
216.8574640528594
 20
-888.3926994415409
 30
0.0
 40
3.462890625
  1
±2 HF:8Ω
 50
30.00000000000001
 41
0.7
 11
215.1260187403594
 21
-885.393748189764
 31
0.0
100
AcDbText
 73
     3
  0
TEXT
  5
172
330
2F8
100
AcDbEntity
  8
DATA
 62
     7
100
AcDbText
 10
239.7331051205168
 20
-868.8915141612488
 30
0.0
 40
3.462890625
  1
±1 IN:8Ω
 50
30.00000000000001
 41
0.7
 11
238.0016598080168
 21
-865.8925629094719
 31
0.0
100
AcDbText
 73
     3
  0
TEXT
  5
173
330
2F8
100
AcDbEntity
  8
DATA
 62
     7
100
AcDbText
 10
242.4584557819224
 20
-873.611959975245
 30
0.0
 40
3.462890625
  1
±2 N/C
 50
30.00000000000001
 41
0.7
 11
240.7270104694224
 21
-870.6130087234681
 31
0.0
100
AcDbText
 73
     3
  0
TEXT
  5
174
330
2F8
100
AcDbEntity
  8
DATA
 62
     7
100
AcDbText
 10
237.2875122338794
 20
-863.777816755976
 30
0.0
 40
3.462890625
  1
PASSIVE
 50
30.00000000000001
 41
0.7
 11
235.5560669213794
 21
-860.7788655041991
 31
0.0
100
AcDbText
 73
     3
  0
LINE
  5
175
330
2F8
100
AcDbEntity
  8
DATA
  6
Continuous
 62
     7
100
AcDbLine
 10
-714.5
 20
-985.0
 30
0.0
 11
-714.5
 21
-643.3764780209263
 31
0.0
  0
LINE
  5
176
330
2F8
100
AcDbEntity
  8
DATA
  6
Continuous
 62
     7
100
AcDbLine
 10
-697.5
 20
-852.6378622743125
 30
0.0
 11
-697.5
 21
-628.3764780209263
 31
0.0
  0
LINE
  5
177
330
2F8
100
AcDbEntity
  8
DATA
  6
Continuous
 62
     7
100
AcDbLine
 10
-102.5
 20
-628.3764780209263
 30
0.0
 11
-102.5
 21
-852.6378622743125
 31
0.0
  0
LINE
  5
178
330
2F8
100
AcDbEntity
  8
DATA
  6
Continuous
 62
     7
100
AcDbLine
 10
-699.5
 20
-1000.0
 30
0.0
 11
-100.5
 21
-1000.0
 31
0.0
  0
LINE
  5
179
330
2F8
100
AcDbEntity
  8
DATA
  6
Continuous
 62
     7
100
AcDbLine
 10
-85.5
 20
-985.0
 30
0.0
 11
-85.5
 21
-643.3764780209263
 31
0.0
  0
LINE
  5
17A
330
2F8
100
AcDbEntity
  8
DATA
  6
Continuous
 62
     7
100
AcDbLine
 10
-714.5
 20
-560.0
 30
0.0
 11
-714.5
 21
-131.1090623426465
 31
0.0
  0
LINE
  5
17B
330
2F8
100
AcDbEntity
  8
DATA
  6
Continuous
 62
     7
100
AcDbLine
 10
-100.5
 20
-575.0
 30
0.0
 11
-699.5
 21
-575.0
 31
0.0
  0
LINE
  5
17C
330
2F8
100
AcDbEntity
  8
DATA
  6
Continuous
 62
     7
100
AcDbLine
 10
-85.5
 20
-131.1090623426465
 30
0.0
 11
-85.5
 21
-560.0
 31
0.0
  0
LINE
  5
17D
330
2F8
100
AcDbEntity
  8
DATA
  6
Continuous
 62
     7
100
AcDbLine
 10
-697.5
 20
-575.0
 30
0.0
 11
-697.5
 21
-200.0
 31
0.0
  0
LINE
  5
17E
330
2F8
100
AcDbEntity
  8
DATA
  6
Continuous
 62
     7
100
AcDbLine
 10
-102.5
 20
-575.0
 30
0.0
 11
-102.5
 21
-200.8770255651224
 31
0.0
  0
LINE
  5
17F
330
2F8
100
AcDbEntity
  8
DATA
  6
Continuous
 62
     7
100
AcDbLine
 10
-100.5
 20
-852.6378622743125
 30
0.0
 11
-699.5
 21
-852.6378622743125
 31
0.0
  0
LINE
  5
180
330
2F8
100
AcDbEntity
  8
DATA
  6
Continuous
 62
     7
100
AcDbLine
 10
-85.5
 20
-799.9394004747156
 30
0.0
 11
-714.5
 21
-799.9394004747156
 31
0.0
  0
LINE
  5
181
330
2F8
100
AcDbEntity
  8
DATA
  6
Continuous
 62
     7
100
AcDbLine
 10
-100.5
 20
-628.3764780209263
 30
0.0
 11
-699.5
 21
-628.3764780209263
 31
0.0
  0
LINE
  5
182
330
2F8
100
AcDbEntity
  8
DATA
  6
Continuous
 62
     7
100
AcDbLine
 10
-691.0
 20
-1007.276106820972
 30
0.0
 11
-654.0
 21
-1007.276106820972
 31
0.0
  0
LINE
  5
183
330
2F8
100
AcDbEntity
  8
DATA
  6
Continuous
 62
     7
100
AcDbLine
 10
-654.0
 20
-1007.276106820972
 30
0.0
 11
-654.0
 21
-1000.0
 31
0.0
  0
LINE
  5
184
330
2F8
100
AcDbEntity
  8
DATA
  6
Continuous
 62
     7
100
AcDbLine
 10
-691.0
 20
-1007.276106820972
 30
0.0
 11
-691.0
 21
-1000.0
 31
0.0
  0
LINE
  5
185
330
2F8
100
AcDbEntity
  8
DATA
  6
Continuous
 62
     7
100
AcDbLine
 10
-146.0
 20
-1007.276106820972
 30
0.0
 11
-108.9999999999999
 21
-1007.276106820972
 31
0.0
  0
LINE
  5
186
330
2F8
100
AcDbEntity
  8
DATA
  6
Continuous
 62
     7
100
AcDbLine
 10
-108.9999999999999
 20
-1007.276106820972
 30
0.0
 11
-108.9999999999999
 21
-1000.0
 31
0.0
  0
LINE
  5
187
330
2F8
100
AcDbEntity
  8
DATA
  6
Continuous
 62
     7
100
AcDbLine
 10
-146.0
 20
-1007.276106820972
 30
0.0
 11
-146.0
 21
-1000.0
 31
0.0
  0
ARC
  5
188
330
2F8
100
AcDbEntity
  8
DATA
  6
Continuous
 62
     7
100
AcDbCircle
 10
-699.5
 20
-643.3764780209263
 30
0.0
 40
15.0
100
AcDbArc
 50
90.0
 51
180.0
  0
ARC
  5
189
330
2F8
100
AcDbEntity
  8
DATA
  6
Continuous
 62
     7
100
AcDbCircle
 10
-699.5
 20
-985.0
 30
0.0
 40
15.0
100
AcDbArc
 50
180.0
 51
270.0
  0
ARC
  5
18A
330
2F8
100
AcDbEntity
  8
DATA
  6
Continuous
 62
     7
100
AcDbCircle
 10
-100.5
 20
-985.0
 30
0.0
 40
15.0
100
AcDbArc
 50
270.0
 51
0.0
  0
ARC
  5
18B
330
2F8
100
AcDbEntity
  8
DATA
  6
Continuous
 62
     7
100
AcDbCircle
 10
-100.5
 20
-643.3764780209263
 30
0.0
 40
15.0
100
AcDbArc
 50
0.0
 51
90.0
  0
LINE
  5
18C
330
2F8
100
AcDbEntity
  8
DATA
  6
Continuous
 62
     7
100
AcDbLine
 10
700.0
 20
0.2399658054510496
 30
0.0
 11
1200.0
 21
0.2399658054510496
 31
0.0
  0
LINE
  5
18D
330
2F8
100
AcDbEntity
  8
DATA
  6
Continuous
 62
     7
100
AcDbLine
 10
-85.5
 20
-554.1139537392659
 30
0.0
 11
-714.5
 21
-554.1139537392659
 31
0.0
  0
LINE
  5
18E
330
2F8
100
AcDbEntity
  8
DATA
  6
Continuous
 62
     7
100
AcDbLine
 10
-85.5
 20
-256.9582553543039
 30
0.0
 11
-714.5
 21
-256.9582553543039
 31
0.0
  0
LINE
  5
18F
330
2F8
100
AcDbEntity
  8
DATA
  6
Continuous
 62
     7
100
AcDbLine
 10
-100.5
 20
-200.8770255651224
 30
0.0
 11
-699.5
 21
-200.8770255651224
 31
0.0
  0
LINE
  5
190
330
2F8
100
AcDbEntity
  8
DATA
  6
Continuous
 62
     7
100
AcDbLine
 10
-100.5
 20
-116.1090623426465
 30
0.0
 11
-699.5
 21
-116.1090623426465
 31
0.0
  0
ARC
  5
191
330
2F8
100
AcDbEntity
  8
DATA
  6
Continuous
 62
     7
100
AcDbCircle
 10
-699.5
 20
-560.0
 30
0.0
 40
15.0
100
AcDbArc
 50
180.0
 51
270.0
  0
ARC
  5
192
330
2F8
100
AcDbEntity
  8
DATA
  6
Continuous
 62
     7
100
AcDbCircle
 10
-699.5
 20
-215.8770255651224
 30
0.0
 40
15.0
100
AcDbArc
 50
90.0
 51
180.0
  0
ARC
  5
193
330
2F8
100
AcDbEntity
  8
DATA
  6
Continuous
 62
     7
100
AcDbCircle
 10
-699.5
 20
-131.1090623426465
 30
0.0
 40
15.0
100
AcDbArc
 50
90.0
 51
180.0
  0
ARC
  5
194
330
2F8
100
AcDbEntity
  8
DATA
  6
Continuous
 62
     7
100
AcDbCircle
 10
-699.5
 20
-185.8770255651224
 30
0.0
 40
15.0
100
AcDbArc
 50
180.0
 51
270.0
  0
ARC
  5
195
330
2F8
100
AcDbEntity
  8
DATA
  6
Continuous
 62
     7
100
AcDbCircle
 10
-100.5
 20
-185.8770255651224
 30
0.0
 40
15.0
100
AcDbArc
 50
270.0
 51
0.0
  0
ARC
  5
196
330
2F8
100
AcDbEntity
  8
DATA
  6
Continuous
 62
     7
100
AcDbCircle
 10
-100.5
 20
-560.0
 30
0.0
 40
15.0
100
AcDbArc
 50
270.0
 51
0.0
  0
ARC
  5
197
330
2F8
100
AcDbEntity
  8
DATA
  6
Continuous
 62
     7
100
AcDbCircle
 10
-100.5
 20
-215.8770255651224
 30
0.0
 40
15.0
100
AcDbArc
 50
0.0
 51
90.0
  0
ARC
  5
198
330
2F8
100
AcDbEntity
  8
DATA
  6
Continuous
 62
     7
100
AcDbCircle
 10
34.34184322075679
 20
-992.0
 30
0.0
 40
7.999999999999993
100
AcDbArc
 50
210.0000000000001
 51
270.0000000000001
  0
ARC
  5
199
330
2F8
100
AcDbEntity
  8
DATA
  6
Continuous
 62
     7
100
AcDbCircle
 10
275.1613333516054
 20
-992.0
 30
0.0
 40
8.0
100
AcDbArc
 50
270.0
 51
330.2564371635294
  0
LINE
  5
19A
330
2F8
100
AcDbEntity
  8
DATA
  6
Continuous
 62
     7
100
AcDbLine
 10
44.10932604452919
 20
-1007.276106820972
 30
0.0
 11
81.1093260445293
 21
-1007.276106820972
 31
0.0
  0
LINE
  5
19B
330
2F8
100
AcDbEntity
  8
DATA
  6
Continuous
 62
     7
100
AcDbLine
 10
81.1093260445293
 20
-1007.276106820972
 30
0.0
 11
81.1093260445293
 21
-1000.0
 31
0.0
  0
LINE
  5
19C
330
2F8
100
AcDbEntity
  8
DATA
  6
Continuous
 62
     7
100
AcDbLine
 10
44.10932604452919
 20
-1007.276106820972
 30
0.0
 11
44.10932604452919
 21
-1000.0
 31
0.0
  0
LINE
  5
19D
330
2F8
100
AcDbEntity
  8
DATA
  6
Continuous
 62
     7
100
AcDbLine
 10
228.3938505278329
 20
-1007.276106820972
 30
0.0
 11
265.393850527833
 21
-1007.276106820972
 31
0.0
  0
LINE
  5
19E
330
2F8
100
AcDbEntity
  8
DATA
  6
Continuous
 62
     7
100
AcDbLine
 10
265.393850527833
 20
-1007.276106820972
 30
0.0
 11
265.393850527833
 21
-1000.0
 31
0.0
  0
LINE
  5
19F
330
2F8
100
AcDbEntity
  8
DATA
  6
Continuous
 62
     7
100
AcDbLine
 10
228.3938505278329
 20
-1007.276106820972
 30
0.0
 11
228.3938505278329
 21
-1000.0
 31
0.0
  0
LINE
  5
1A0
330
2F8
100
AcDbEntity
  8
DATA
  6
Continuous
 62
     7
100
AcDbLine
 10
-100.5
 20
-1125.0
 30
0.0
 11
-699.5
 21
-1125.0
 31
0.0
  0
LINE
  5
1A1
330
2F8
100
AcDbEntity
  8
DATA
  6
Continuous
 62
     7
100
AcDbLine
 10
-100.5
 20
-1583.890937657353
 30
0.0
 11
-699.5
 21
-1583.890937657353
 31
0.0
  0
ARC
  5
1A2
330
2F8
100
AcDbEntity
  8
DATA
  6
Continuous
 62
     7
100
AcDbCircle
 10
-699.5
 20
-1140.0
 30
0.0
 40
15.0
100
AcDbArc
 50
90.0
 51
180.0
  0
ARC
  5
1A3
330
2F8
100
AcDbEntity
  8
DATA
  6
Continuous
 62
     7
100
AcDbCircle
 10
-699.5
 20
-1568.890937657353
 30
0.0
 40
15.0
100
AcDbArc
 50
180.0
 51
270.0
  0
ARC
  5
1A4
330
2F8
100
AcDbEntity
  8
DATA
  6
Continuous
 62
     7
100
AcDbCircle
 10
-100.5
 20
-1140.0
 30
0.0
 40
15.0
100
AcDbArc
 50
0.0
 51
90.0
  0
LINE
  5
1A5
330
2F8
100
AcDbEntity
  8
DATA
  6
Continuous
 62
     7
100
AcDbLine
 10
-100.5
 20
-1210.079569884284
 30
0.0
 11
-699.5
 21
-1210.079569884284
 31
0.0
  0
LINE
  5
1A6
330
2F8
100
AcDbEntity
  8
DATA
  6
Continuous
 62
     7
100
AcDbLine
 10
-100.5
 20
-1460.160565497836
 30
0.0
 11
-699.5
 21
-1460.160565497836
 31
0.0
  0
CIRCLE
  5
1A7
330
2F8
100
AcDbEntity
  8
DATA
  6
Continuous
 62
     7
100
AcDbCircle
 10
-672.5
 20
-1242.965854861574
 30
0.0
 40
18.5
  0
CIRCLE
  5
1A8
330
2F8
100
AcDbEntity
  8
DATA
  6
Continuous
 62
     7
100
AcDbCircle
 10
-672.5
 20
-1242.965854861574
 30
0.0
 40
5.0
  0
LINE
  5
1A9
330
2F8
100
AcDbEntity
  8
DATA
  6
Continuous
 62
     7
100
AcDbLine
 10
-676.0
 20
-1242.965854861574
 30
0.0
 11
-669.0
 21
-1242.965854861574
 31
0.0
  0
LINE
  5
1AA
330
2F8
100
AcDbEntity
  8
DATA
  6
Continuous
 62
     7
100
AcDbLine
 10
-672.5
 20
-1239.465854861574
 30
0.0
 11
-672.5
 21
-1246.465854861575
 31
0.0
  0
CIRCLE
  5
1AB
330
2F8
100
AcDbEntity
  8
DATA
  6
Continuous
 62
     7
100
AcDbCircle
 10
-127.5
 20
-1242.965854861574
 30
0.0
 40
18.5
  0
CIRCLE
  5
1AC
330
2F8
100
AcDbEntity
  8
DATA
  6
Continuous
 62
     7
100
AcDbCircle
 10
-127.5
 20
-1242.965854861574
 30
0.0
 40
5.0
  0
LINE
  5
1AD
330
2F8
100
AcDbEntity
  8
DATA
  6
Continuous
 62
     7
100
AcDbLine
 10
-131.0
 20
-1242.965854861574
 30
0.0
 11
-124.0
 21
-1242.965854861574
 31
0.0
  0
LINE
  5
1AE
330
2F8
100
AcDbEntity
  8
DATA
  6
Continuous
 62
     7
100
AcDbLine
 10
-127.5
 20
-1239.465854861574
 30
0.0
 11
-127.5
 21
-1246.465854861575
 31
0.0
  0
CIRCLE
  5
1AF
330
2F8
100
AcDbEntity
  8
DATA
  6
Continuous
 62
     7
100
AcDbCircle
 10
-672.5
 20
-1427.250379344878
 30
0.0
 40
18.5
  0
CIRCLE
  5
1B0
330
2F8
100
AcDbEntity
  8
DATA
  6
Continuous
 62
     7
100
AcDbCircle
 10
-672.5
 20
-1427.250379344878
 30
0.0
 40
5.0
  0
LINE
  5
1B1
330
2F8
100
AcDbEntity
  8
DATA
  6
Continuous
 62
     7
100
AcDbLine
 10
-676.0
 20
-1427.250379344878
 30
0.0
 11
-669.0
 21
-1427.250379344878
 31
0.0
  0
LINE
  5
1B2
330
2F8
100
AcDbEntity
  8
DATA
  6
Continuous
 62
     7
100
AcDbLine
 10
-672.5
 20
-1423.750379344878
 30
0.0
 11
-672.5
 21
-1430.750379344878
 31
0.0
  0
CIRCLE
  5
1B3
330
2F8
100
AcDbEntity
  8
DATA
  6
Continuous
 62
     7
100
AcDbCircle
 10
-127.5
 20
-1427.250379344878
 30
0.0
 40
18.5
  0
CIRCLE
  5
1B4
330
2F8
100
AcDbEntity
  8
DATA
  6
Continuous
 62
     7
100
AcDbCircle
 10
-127.5
 20
-1427.250379344878
 30
0.0
 40
5.0
  0
LINE
  5
1B5
330
2F8
100
AcDbEntity
  8
DATA
  6
Continuous
 62
     7
100
AcDbLine
 10
-131.0
 20
-1427.250379344878
 30
0.0
 11
-124.0
 21
-1427.250379344878
 31
0.0
  0
LINE
  5
1B6
330
2F8
100
AcDbEntity
  8
DATA
  6
Continuous
 62
     7
100
AcDbLine
 10
-127.5
 20
-1423.750379344878
 30
0.0
 11
-127.5
 21
-1430.750379344878
 31
0.0
  0
LINE
  5
1B7
330
2F8
100
AcDbEntity
  8
DATA
  6
Continuous
 62
     7
100
AcDbLine
 10
-844.4768172261879
 20
-794.917095106613
 30
0.0
 11
-1124.23473947379
 21
-633.3987833890293
 31
0.0
  0
LINE
  5
1B8
330
2F8
100
AcDbEntity
  8
DATA
  6
Continuous
 62
     7
100
AcDbLine
 10
-904.5902549345756
 20
-1000.0
 30
0.0
 11
-1145.409745065424
 21
-1000.0
 31
0.0
  0
LINE
  5
1B9
330
2F8
100
AcDbEntity
  8
DATA
  6
Continuous
 62
     7
100
AcDbLine
 10
-1192.64211155753
 20
-642.9204508855024
 30
0.0
 11
-1271.485339224311
 21
-779.480927037088
 31
0.0
  0
LINE
  5
1BA
330
2F8
100
AcDbEntity
  8
DATA
  6
Continuous
 62
     7
100
AcDbLine
 10
-818.5191371226519
 20
-858.9204508855015
 30
0.0
 11
-897.6620517043
 21
-996.0
 31
0.0
  0
LINE
  5
1BB
330
2F8
100
AcDbEntity
  8
DATA
  6
Continuous
 62
     7
100
AcDbLine
 10
-1152.355781535696
 20
-995.968951669352
 30
0.0
 11
-1271.503172464308
 21
-787.4498787064396
 31
0.0
  0
ARC
  5
1BC
330
2F8
100
AcDbEntity
  8
DATA
  6
Continuous
 62
     7
100
AcDbCircle
 10
-1264.557135994036
 20
-783.480927037088
 30
0.0
 40
7.999999999999868
100
AcDbArc
 50
149.9999999999994
 51
209.7435628364698
  0
LINE
  5
1BD
330
2F8
100
AcDbEntity
  8
DATA
  6
Continuous
 62
     7
100
AcDbLine
 10
-1272.116689416987
 20
-798.6677872771923
 30
0.0
 11
-1266.849883697437
 21
-795.6269955772409
 31
0.0
  0
LINE
  5
1BE
330
2F8
100
AcDbEntity
  8
DATA
  6
Continuous
 62
     7
100
AcDbLine
 10
-1253.616689416987
 20
-830.7107272172164
 30
0.0
 11
-1248.49329837067
 21
-827.7527360174618
 31
0.0
  0
LINE
  5
1BF
330
2F8
100
AcDbEntity
  8
DATA
  6
Continuous
 62
     7
100
AcDbLine
 10
-1253.616689416987
 20
-830.7107272172164
 30
0.0
 11
-1272.116689416987
 21
-798.6677872771921
 31
0.0
  0
LINE
  5
1C0
330
2F8
100
AcDbEntity
  8
DATA
  6
Continuous
 62
     7
100
AcDbLine
 10
-1162.511829041212
 20
-990.9047511906148
 30
0.0
 11
-1181.011829041212
 21
-958.8618112505903
 31
0.0
  0
LINE
  5
1C1
330
2F8
100
AcDbEntity
  8
DATA
  6
Continuous
 62
     7
100
AcDbLine
 10
-1181.011829041212
 20
-958.8618112505903
 30
0.0
 11
-1175.421921587153
 21
-955.6344766772447
 31
0.0
  0
LINE
  5
1C2
330
2F8
100
AcDbEntity
  8
DATA
  6
Continuous
 62
     7
100
AcDbLine
 10
-1162.511829041212
 20
-990.9047511906148
 30
0.0
 11
-1157.065336260386
 21
-987.7602171174657
 31
0.0
  0
LINE
  5
1C3
330
2F8
100
AcDbEntity
  8
DATA
  6
Continuous
 62
     7
100
AcDbLine
 10
-1181.837803906995
 20
-635.5806030742013
 30
0.0
 11
-1143.259142703789
 21
-629.8975403921064
 31
0.0
  0
ARC
  5
1C4
330
2F8
100
AcDbEntity
  8
DATA
  6
Continuous
 62
     7
100
AcDbCircle
 10
-1179.651730500763
 20
-650.4204508855024
 30
0.0
 40
15.0000000000004
100
AcDbArc
 50
98.38003061344629
 51
150.0000000000001
  0
ARC
  5
1C5
330
2F8
100
AcDbEntity
  8
DATA
  6
Continuous
 62
     7
100
AcDbCircle
 10
-1138.886995891324
 20
-659.5772360147075
 30
0.0
 40
29.9999999999999
100
AcDbArc
 50
59.99999999999989
 51
98.38003061344702
  0
LINE
  5
1C6
330
2F8
100
AcDbEntity
  8
DATA
  6
Continuous
 62
     7
100
AcDbLine
 10
-817.5647962834215
 20
-845.8937220841862
 30
0.0
 11
-831.9324502310314
 21
-809.6420900971684
 31
0.0
  0
ARC
  5
1C7
330
2F8
100
AcDbEntity
  8
DATA
  6
Continuous
 62
     7
100
AcDbCircle
 10
-831.5095181794189
 20
-851.4204508855014
 30
0.0
 40
15.00000000000021
100
AcDbArc
 50
329.9999999999965
 51
21.61996938655097
  0
ARC
  5
1C8
330
2F8
100
AcDbEntity
  8
DATA
  6
Continuous
 62
     7
100
AcDbCircle
 10
-859.8218940230259
 20
-820.6955476997999
 30
0.0
 40
29.99999999999995
100
AcDbArc
 50
21.61996938655301
 51
60.00000000000049
  0
ARC
  5
1C9
330
2F8
100
AcDbEntity
  8
DATA
  6
Continuous
 62
     7
100
AcDbCircle
 10
-904.5902549345756
 20
-992.0
 30
0.0
 40
8.0
100
AcDbArc
 50
270.0
 51
329.9999999999999
  0
ARC
  5
1CA
330
2F8
100
AcDbEntity
  8
DATA
  6
Continuous
 62
     7
100
AcDbCircle
 10
-1145.409745065424
 20
-992.0
 30
0.0
 40
8.000000000000067
100
AcDbArc
 50
209.7435628364704
 51
270.0
  0
LINE
  5
1CB
330
2F8
100
AcDbEntity
  8
DATA
  6
Continuous
 62
     7
100
AcDbLine
 10
-914.3577377583481
 20
-1007.276106820972
 30
0.0
 11
-951.357737758348
 21
-1007.276106820972
 31
0.0
  0
LINE
  5
1CC
330
2F8
100
AcDbEntity
  8
DATA
  6
Continuous
 62
     7
100
AcDbLine
 10
-951.357737758348
 20
-1007.276106820972
 30
0.0
 11
-951.357737758348
 21
-1000.0
 31
0.0
  0
LINE
  5
1CD
330
2F8
100
AcDbEntity
  8
DATA
  6
Continuous
 62
     7
100
AcDbLine
 10
-914.3577377583481
 20
-1007.276106820972
 30
0.0
 11
-914.3577377583481
 21
-1000.0
 31
0.0
  0
LINE
  5
1CE
330
2F8
100
AcDbEntity
  8
DATA
  6
Continuous
 62
     7
100
AcDbLine
 10
-1098.642262241652
 20
-1007.276106820972
 30
0.0
 11
-1135.642262241652
 21
-1007.276106820972
 31
0.0
  0
LINE
  5
1CF
330
2F8
100
AcDbEntity
  8
DATA
  6
Continuous
 62
     7
100
AcDbLine
 10
-1135.642262241652
 20
-1007.276106820972
 30
0.0
 11
-1135.642262241652
 21
-1000.0
 31
0.0
  0
LINE
  5
1D0
330
2F8
100
AcDbEntity
  8
DATA
  6
Continuous
 62
     7
100
AcDbLine
 10
-1098.642262241652
 20
-1007.276106820972
 30
0.0
 11
-1098.642262241652
 21
-1000.0
 31
0.0
  0
LINE
  5
1D1
330
2F8
100
AcDbEntity
  8
DATA
  6
Continuous
 62
     7
100
AcDbLine
 10
-1022.353546266444
 20
-876.9720038533312
 30
0.0
 11
-1106.358010433534
 21
-828.4720038533313
 31
0.0
  0
LINE
  5
1D2
330
2F8
100
AcDbEntity
  8
DATA
  6
Continuous
 62
     7
100
AcDbLine
 10
-1114.199381051126
 20
-930.6278388762351
 30
0.0
 11
-1141.179489240866
 21
-880.3587570545696
 31
0.0
  0
LINE
  5
1D3
330
2F8
100
AcDbEntity
  8
DATA
  6
Continuous
 62
     7
100
AcDbLine
 10
-1106.902409232294
 20
-934.8407475201069
 30
0.0
 11
-1049.878053254944
 21
-933.0716656984412
 31
0.0
  0
LINE
  5
1D4
330
2F8
100
AcDbEntity
  8
DATA
  6
Continuous
 62
     7
100
AcDbLine
 10
-1117.28621366381
 20
-831.4002070836066
 30
0.0
 11
-1141.058787442029
 21
-872.5755126941624
 31
0.0
  0
LINE
  5
1D5
330
2F8
100
AcDbEntity
  8
DATA
  6
Continuous
 62
     7
100
AcDbLine
 10
-1019.425343036168
 20
-887.9002070836071
 30
0.0
 11
-1043.197916814387
 21
-929.0755126941624
 31
0.0
  0
ARC
  5
1D6
330
2F8
100
AcDbEntity
  8
DATA
  6
Continuous
 62
     7
100
AcDbCircle
 10
-1110.358010433534
 20
-835.4002070836067
 30
0.0
 40
8.000000000000065
100
AcDbArc
 50
60.00000000000028
 51
150.0000000000011
  0
ARC
  5
1D7
330
2F8
100
AcDbEntity
  8
DATA
  6
Continuous
 62
     7
100
AcDbCircle
 10
-1026.353546266444
 20
-883.900207083607
 30
0.0
 40
8.000000000000163
100
AcDbArc
 50
330.0000000000007
 51
60.00000000000181
  0
ARC
  5
1D8
330
2F8
100
AcDbEntity
  8
DATA
  6
Continuous
 62
     7
100
AcDbCircle
 10
-1134.130584211753
 20
-876.5755126941623
 30
0.0
 40
8.000000000000264
100
AcDbArc
 50
150.0000000000011
 51
208.2230676527007
  0
ARC
  5
1D9
330
2F8
100
AcDbEntity
  8
DATA
  6
Continuous
 62
     7
100
AcDbCircle
 10
-1050.126120044663
 20
-925.0755126941625
 30
0.0
 40
7.999999999999891
100
AcDbArc
 50
271.776932347301
 51
330.0000000000012
  0
ARC
  5
1DA
330
2F8
100
AcDbEntity
  8
DATA
  6
Continuous
 62
     7
100
AcDbCircle
 10
-1107.150476022013
 20
-926.8445945158275
 30
0.0
 40
8.000000000000222
100
AcDbArc
 50
208.2230676527035
 51
271.7769323472976
  0
LINE
  5
1DB
330
2F8
100
AcDbEntity
  8
DATA
  6
Continuous
 62
     7
100
AcDbLine
 10
-1067.276811875994
 20
-903.7238311395555
 30
0.0
 11
-1067.759774789148
 21
-903.8532406621092
 31
0.0
  0
LINE
  5
1DC
330
2F8
100
AcDbEntity
  8
DATA
  6
Continuous
 62
     7
100
AcDbLine
 10
-1078.867921791477
 20
-906.8296596807895
 30
0.0
 11
-1079.350884704622
 21
-906.9590692033402
 31
0.0
  0
LINE
  5
1DD
330
2F8
100
AcDbEntity
  8
DATA
  6
Continuous
 62
     7
100
AcDbLine
 10
-1074.688691252351
 20
-899.2445405583938
 30
0.0
 11
-1074.559169052448
 21
-899.7279239891421
 31
0.0
  0
LINE
  5
1DE
330
2F8
100
AcDbEntity
  8
DATA
  6
Continuous
 62
     7
100
AcDbLine
 10
-1071.585564615028
 20
-910.825566831204
 30
0.0
 11
-1071.456042415124
 21
-911.3089502619525
 31
0.0
  0
CIRCLE
  5
1DF
330
2F8
100
AcDbEntity
  8
DATA
  6
Continuous
 62
     7
100
AcDbCircle
 10
-1073.31384829031
 20
-905.3414501714483
 30
0.0
 40
11.75000000000028
  0
ARC
  5
1E0
330
2F8
100
AcDbEntity
  8
DATA
  6
Continuous
 62
     7
100
AcDbCircle
 10
-1073.31384829031
 20
-905.3414501714483
 30
0.0
 40
8.99999999999995
100
AcDbArc
 50
346.1276202131603
 51
133.8723797868406
  0
ARC
  5
1E1
330
2F8
100
AcDbEntity
  8
DATA
  6
Continuous
 62
     7
100
AcDbCircle
 10
-1073.31384829031
 20
-905.3414501714483
 30
0.0
 40
8.999999999999843
100
AcDbArc
 50
166.1276202131631
 51
313.8723797868386
  0
LINE
  5
1E2
330
2F8
100
AcDbEntity
  8
DATA
  6
Continuous
 62
     7
100
AcDbLine
 10
-1063.446895522655
 20
-908.1513866619873
 30
0.0
 11
-1065.946895522655
 21
-912.4815136809102
 31
0.0
  0
LINE
  5
1E3
330
2F8
100
AcDbEntity
  8
DATA
  6
Continuous
 62
     7
100
AcDbLine
 10
-1065.946895522655
 20
-912.4815136809102
 30
0.0
 11
-1067.076358724374
 21
-911.8294177973572
 31
0.0
  0
LINE
  5
1E4
330
2F8
100
AcDbEntity
  8
DATA
  6
Continuous
 62
     7
100
AcDbLine
 10
-1063.446895522655
 20
-908.1513866619873
 30
0.0
 11
-1064.576358724374
 21
-907.4992907784352
 31
0.0
  0
LINE
  5
1E5
330
2F8
100
AcDbEntity
  8
DATA
  6
Continuous
 62
     7
100
AcDbLine
 10
-1080.680801057965
 20
-898.2013866619874
 30
0.0
 11
-1083.180801057965
 21
-902.5315136809096
 31
0.0
  0
LINE
  5
1E6
330
2F8
100
AcDbEntity
  8
DATA
  6
Continuous
 62
     7
100
AcDbLine
 10
-1083.180801057965
 20
-902.5315136809096
 30
0.0
 11
-1082.051337856246
 21
-903.1836095644619
 31
0.0
  0
LINE
  5
1E7
330
2F8
100
AcDbEntity
  8
DATA
  6
Continuous
 62
     7
100
AcDbLine
 10
-1080.680801057965
 20
-898.2013866619874
 30
0.0
 11
-1079.551337856246
 21
-898.8534825455396
 31
0.0
  0
ARC
  5
1E8
330
2F8
100
AcDbEntity
  8
DATA
  6
Continuous
 62
     7
100
AcDbCircle
 10
-1073.31384829031
 20
-905.3414501714483
 30
0.0
 40
6.249999999999796
100
AcDbArc
 50
102.7075572240413
 51
195.0000000000025
  0
ARC
  5
1E9
330
2F8
100
AcDbEntity
  8
DATA
  6
Continuous
 62
     7
100
AcDbCircle
 10
-1073.31384829031
 20
-905.3414501714483
 30
0.0
 40
6.25000000000039
100
AcDbArc
 50
287.292442775956
 51
14.99999999999846
  0
ARC
  5
1EA
330
2F8
100
AcDbEntity
  8
DATA
  6
Continuous
 62
     7
100
AcDbCircle
 10
-1073.31384829031
 20
-905.3414501714483
 30
0.0
 40
5.750000000000124
100
AcDbArc
 50
14.99999999999882
 51
102.5080936310174
  0
ARC
  5
1EB
330
2F8
100
AcDbEntity
  8
DATA
  6
Continuous
 62
     7
100
AcDbCircle
 10
-1073.31384829031
 20
-905.3414501714483
 30
0.0
 40
5.749999999999825
100
AcDbArc
 50
194.9999991462254
 51
287.4919063689828
  0
ARC
  5
1EC
330
2F8
100
AcDbEntity
  8
DATA
  6
Continuous
 62
     7
100
AcDbCircle
 10
-1073.31384829031
 20
-905.3414501714483
 30
0.0
 40
3.00000000000012
100
AcDbArc
 50
15.00000000000284
 51
104.9999999999944
  0
ARC
  5
1ED
330
2F8
100
AcDbEntity
  8
DATA
  6
Continuous
 62
     7
100
AcDbCircle
 10
-1073.31384829031
 20
-905.3414501714483
 30
0.0
 40
2.999999999999563
100
AcDbArc
 50
194.9999999999967
 51
285.0000000000051
  0
ARC
  5
1EE
330
2F8
100
AcDbEntity
  8
DATA
  6
Continuous
 62
     7
100
AcDbCircle
 10
-1073.31384829031
 20
-905.3414501714483
 30
0.0
 40
3.500000000000003
100
AcDbArc
 50
104.9999999999944
 51
195.0000000000088
  0
ARC
  5
1EF
330
2F8
100
AcDbEntity
  8
DATA
  6
Continuous
 62
     7
100
AcDbCircle
 10
-1073.31384829031
 20
-905.3414501714483
 30
0.0
 40
3.500000000000443
100
AcDbArc
 50
284.9999999999925
 51
15.00000000000165
  0
LINE
  5
1F0
330
2F8
100
AcDbEntity
  8
DATA
  6
Continuous
 62
     7
100
AcDbLine
 10
-1069.933107898298
 20
-904.4355835135897
 30
0.0
 11
-1070.416070811428
 21
-904.5649930361376
 31
0.0
  0
LINE
  5
1F1
330
2F8
100
AcDbEntity
  8
DATA
  6
Continuous
 62
     7
100
AcDbLine
 10
-1076.211625769192
 20
-906.11790730676
 30
0.0
 11
-1076.694588682322
 21
-906.2473168293079
 31
0.0
  0
LINE
  5
1F2
330
2F8
100
AcDbEntity
  8
DATA
  6
Continuous
 62
     7
100
AcDbLine
 10
-1072.407981632451
 20
-908.7221905634606
 30
0.0
 11
-1072.537391155
 21
-908.2392276503231
 31
0.0
  0
LINE
  5
1F3
330
2F8
100
AcDbEntity
  8
DATA
  6
Continuous
 62
     7
100
AcDbLine
 10
-1074.09030542562
 20
-902.4436726925742
 30
0.0
 11
-1074.219714948168
 21
-901.9607097794368
 31
0.0
  0
TEXT
  5
1F4
330
2F8
100
AcDbEntity
  8
DATA
 62
     7
100
AcDbText
 10
-1084.037388282509
 20
-870.8914614438404
 30
0.0
 40
3.462890625
  1
BI-AMP
 50
329.9999999999999
 41
0.7
 11
-1082.305942970009
 21
-867.8925101920635
 31
0.0
100
AcDbText
 73
     3
  0
TEXT
  5
1F5
330
2F8
100
AcDbEntity
  8
DATA
 62
     7
100
AcDbText
 10
-1087.653619068496
 20
-875.3292907427988
 30
0.0
 40
3.462890625
  1
±1 LF:8Ω
 50
329.9999999999999
 41
0.7
 11
-1085.922173755996
 21
-872.3303394910217
 31
0.0
100
AcDbText
 73
     3
  0
TEXT
  5
1F6
330
2F8
100
AcDbEntity
  8
DATA
 62
     7
100
AcDbText
 10
-1090.378969729902
 20
-880.0497365567952
 30
0.0
 40
3.462890625
  1
±2 HF:8Ω
 50
329.9999999999999
 41
0.7
 11
-1088.647524417402
 21
-877.0507853050183
 31
0.0
100
AcDbText
 73
     3
  0
TEXT
  5
1F7
330
2F8
100
AcDbEntity
  8
DATA
 62
     7
100
AcDbText
 10
-1062.052627339433
 20
-890.1100302090947
 30
0.0
 40
3.462890625
  1
±1 IN:8Ω
 50
329.9999999999999
 41
0.7
 11
-1060.321182026934
 21
-887.1110789573178
 31
0.0
100
AcDbText
 73
     3
  0
TEXT
  5
1F8
330
2F8
100
AcDbEntity
  8
DATA
 62
     7
100
AcDbText
 10
-1064.777978000839
 20
-894.8304760230911
 30
0.0
 40
3.462890625
  1
±2 N/C
 50
329.9999999999999
 41
0.7
 11
-1063.046532688339
 21
-891.8315247713142
 31
0.0
100
AcDbText
 73
     3
  0
TEXT
  5
1F9
330
2F8
100
AcDbEntity
  8
DATA
 62
     7
100
AcDbText
 10
-1058.846831922519
 20
-885.4352359393162
 30
0.0
 40
3.462890625
  1
PASSIVE
 50
329.9999999999999
 41
0.7
 11
-1057.115386610019
 21
-882.4362846875393
 31
0.0
100
AcDbText
 73
     3
  0
ARC
  5
1FA
330
2F8
100
AcDbEntity
  8
DATA
  6
Continuous
 62
     7
100
AcDbCircle
 10
-100.5
 20
-131.1090623426465
 30
0.0
 40
15.0
100
AcDbArc
 50
0.0
 51
90.0
  0
ARC
  5
1FB
330
2F8
100
AcDbEntity
  8
DATA
  6
Continuous
 62
     7
100
AcDbCircle
 10
-699.5
 20
-867.6378622743126
 30
0.0
 40
15.0
100
AcDbArc
 50
90.0
 51
180.0
  0
ARC
  5
1FC
330
2F8
100
AcDbEntity
  8
DATA
  6
Continuous
 62
     7
100
AcDbCircle
 10
-100.5
 20
-867.6378622743126
 30
0.0
 40
15.0
100
AcDbArc
 50
0.0
 51
90.0
  0
ARC
  5
1FD
330
2F8
100
AcDbEntity
  8
DATA
  6
Continuous
 62
     7
100
AcDbCircle
 10
-699.5
 20
-1225.079569884284
 30
0.0
 40
15.0
100
AcDbArc
 50
90.0
 51
180.0
  0
ARC
  5
1FE
330
2F8
100
AcDbEntity
  8
DATA
  6
Continuous
 62
     7
100
AcDbCircle
 10
-699.5
 20
-1195.079569884284
 30
0.0
 40
15.0
100
AcDbArc
 50
180.0
 51
270.0
  0
ARC
  5
1FF
330
2F8
100
AcDbEntity
  8
DATA
  6
Continuous
 62
     7
100
AcDbCircle
 10
-100.5
 20
-1225.079569884284
 30
0.0
 40
15.0
100
AcDbArc
 50
0.0
 51
90.0
  0
ARC
  5
200
330
2F8
100
AcDbEntity
  8
DATA
  6
Continuous
 62
     7
100
AcDbCircle
 10
-100.5
 20
-1195.079569884284
 30
0.0
 40
15.0
100
AcDbArc
 50
270.0
 51
0.0
  0
LINE
  5
201
330
2F8
100
AcDbEntity
  8
DATA
  6
Continuous
 62
     7
100
AcDbLine
 10
-714.5
 20
-1140.0
 30
0.0
 11
-714.5
 21
-1568.890937657353
 31
0.0
  0
LINE
  5
202
330
2F8
100
AcDbEntity
  8
DATA
  6
Continuous
 62
     7
100
AcDbLine
 10
-85.5
 20
-1568.890937657353
 30
0.0
 11
-85.5
 21
-1140.0
 31
0.0
  0
ARC
  5
203
330
2F8
100
AcDbEntity
  8
DATA
  6
Continuous
 62
     7
100
AcDbCircle
 10
-699.5
 20
-1445.160565497836
 30
0.0
 40
15.0
100
AcDbArc
 50
180.0
 51
270.0
  0
ARC
  5
204
330
2F8
100
AcDbEntity
  8
DATA
  6
Continuous
 62
     7
100
AcDbCircle
 10
-100.5
 20
-1445.160565497836
 30
0.0
 40
15.0
100
AcDbArc
 50
270.0
 51
0.0
  0
ARC
  5
205
330
2F8
100
AcDbEntity
  8
DATA
  6
Continuous
 62
     7
100
AcDbCircle
 10
-100.5
 20
-1475.160565497836
 30
0.0
 40
15.0
100
AcDbArc
 50
0.0
 51
90.0
  0
ARC
  5
206
330
2F8
100
AcDbEntity
  8
DATA
  6
Continuous
 62
     7
100
AcDbCircle
 10
-699.5
 20
-1475.160565497836
 30
0.0
 40
15.0
100
AcDbArc
 50
90.0
 51
180.0
  0
ARC
  5
207
330
2F8
100
AcDbEntity
  8
DATA
  6
Continuous
 62
     7
100
AcDbCircle
 10
-100.5
 20
-1568.890937657353
 30
0.0
 40
15.0
100
AcDbArc
 50
270.0
 51
0.0
  0
ARC
  5
208
330
2F8
100
AcDbEntity
  8
DATA
  6
Continuous
 62
     7
100
AcDbCircle
 10
-672.876980097785
 20
-1504.296778779456
 30
0.0
 40
31.67907574063799
100
AcDbArc
 50
89.31816576495158
 51
111.7214202257401
  0
ARC
  5
209
330
2F8
100
AcDbEntity
  8
DATA
  6
Continuous
 62
     7
100
AcDbCircle
 10
-679.0088647690497
 20
-1488.432401803025
 30
0.0
 40
14.67282762591055
100
AcDbArc
 50
112.4041143248202
 51
133.0977269323914
  0
ARC
  5
20A
330
2F8
100
AcDbEntity
  8
DATA
  6
Continuous
 62
     7
100
AcDbCircle
 10
-684.7104583128325
 20
-1482.307198136136
 30
0.0
 40
6.304722352242158
100
AcDbArc
 50
133.2955724713845
 51
176.0231681603024
  0
ARC
  5
20B
330
2F8
100
AcDbEntity
  8
DATA
  6
Continuous
 62
     7
100
AcDbCircle
 10
-672.6133555589218
 20
-1487.844751622052
 30
0.0
 40
8.475563542687501
100
AcDbArc
 50
89.23368060200346
 51
112.3157970174009
  0
ARC
  5
20C
330
2F8
100
AcDbEntity
  8
DATA
  6
Continuous
 62
     7
100
AcDbCircle
 10
-674.5708545509837
 20
-1483.137626105017
 30
0.0
 40
3.377775587344206
100
AcDbArc
 50
111.9164304694742
 51
141.7939957453604
  0
ARC
  5
20D
330
2F8
100
AcDbEntity
  8
DATA
  6
Continuous
 62
     7
100
AcDbCircle
 10
-676.0954950200133
 20
-1481.883273124205
 30
0.0
 40
1.404568206673039
100
AcDbArc
 50
143.5354742323664
 51
179.4563516756193
  0
ARC
  5
20E
330
2F8
100
AcDbEntity
  8
DATA
  6
Continuous
 62
     7
100
AcDbCircle
 10
-672.1230199022149
 20
-1504.296778779456
 30
0.0
 40
31.67907574063804
100
AcDbArc
 50
68.27857977425988
 51
90.68183423504843
  0
ARC
  5
20F
330
2F8
100
AcDbEntity
  8
DATA
  6
Continuous
 62
     7
100
AcDbCircle
 10
-665.9911352309503
 20
-1488.432401803025
 30
0.0
 40
14.67282762591065
100
AcDbArc
 50
46.90227306760854
 51
67.59588567517983
  0
ARC
  5
210
330
2F8
100
AcDbEntity
  8
DATA
  6
Continuous
 62
     7
100
AcDbCircle
 10
-660.2895416871675
 20
-1482.307198136136
 30
0.0
 40
6.304722352242087
100
AcDbArc
 50
3.976831839697601
 51
46.7044275286155
  0
ARC
  5
211
330
2F8
100
AcDbEntity
  8
DATA
  6
Continuous
 62
     7
100
AcDbCircle
 10
-672.3866444410781
 20
-1487.844751622052
 30
0.0
 40
8.475563542687499
100
AcDbArc
 50
67.6842029825991
 51
90.76631939799653
  0
ARC
  5
212
330
2F8
100
AcDbEntity
  8
DATA
  6
Continuous
 62
     7
100
AcDbCircle
 10
-670.4291454490161
 20
-1483.137626105017
 30
0.0
 40
3.377775587344166
100
AcDbArc
 50
38.20600425463953
 51
68.08356953052573
  0
ARC
  5
213
330
2F8
100
AcDbEntity
  8
DATA
  6
Continuous
 62
     7
100
AcDbCircle
 10
-668.9045049799866
 20
-1481.883273124205
 30
0.0
 40
1.404568206673148
100
AcDbArc
 50
0.5436483243807161
 51
36.46452576763355
  0
ARC
  5
214
330
2F8
100
AcDbEntity
  8
DATA
  6
Continuous
 62
     7
100
AcDbCircle
 10
-672.876980097785
 20
-1459.44311350942
 30
0.0
 40
31.67907574063804
100
AcDbArc
 50
248.2785797742599
 51
270.6818342350484
  0
ARC
  5
215
330
2F8
100
AcDbEntity
  8
DATA
  6
Continuous
 62
     7
100
AcDbCircle
 10
-679.0088647690497
 20
-1475.307490485851
 30
0.0
 40
14.67282762591065
100
AcDbArc
 50
226.9022730676084
 51
247.5958856751798
  0
ARC
  5
216
330
2F8
100
AcDbEntity
  8
DATA
  6
Continuous
 62
     7
100
AcDbCircle
 10
-684.7104583128325
 20
-1481.43269415274
 30
0.0
 40
6.304722352242087
100
AcDbArc
 50
183.9768318396976
 51
226.7044275286156
  0
ARC
  5
217
330
2F8
100
AcDbEntity
  8
DATA
  6
Continuous
 62
     7
100
AcDbCircle
 10
-672.6133555589218
 20
-1475.895140666824
 30
0.0
 40
8.475563542687499
100
AcDbArc
 50
247.6842029825991
 51
270.7663193979965
  0
ARC
  5
218
330
2F8
100
AcDbEntity
  8
DATA
  6
Continuous
 62
     7
100
AcDbCircle
 10
-674.5708545509837
 20
-1480.60226618386
 30
0.0
 40
3.377775587344166
100
AcDbArc
 50
218.2060042546395
 51
248.0835695305258
  0
ARC
  5
219
330
2F8
100
AcDbEntity
  8
DATA
  6
Continuous
 62
     7
100
AcDbCircle
 10
-676.0954950200133
 20
-1481.856619164671
 30
0.0
 40
1.404568206673148
100
AcDbArc
 50
180.5436483243807
 51
216.4645257676335
  0
ARC
  5
21A
330
2F8
100
AcDbEntity
  8
DATA
  6
Continuous
 62
     7
100
AcDbCircle
 10
-672.1230199022149
 20
-1459.44311350942
 30
0.0
 40
31.67907574063799
100
AcDbArc
 50
269.3181657649516
 51
291.7214202257401
  0
ARC
  5
21B
330
2F8
100
AcDbEntity
  8
DATA
  6
Continuous
 62
     7
100
AcDbCircle
 10
-665.9911352309503
 20
-1475.307490485851
 30
0.0
 40
14.67282762591055
100
AcDbArc
 50
292.4041143248201
 51
313.0977269323915
  0
ARC
  5
21C
330
2F8
100
AcDbEntity
  8
DATA
  6
Continuous
 62
     7
100
AcDbCircle
 10
-660.2895416871675
 20
-1481.43269415274
 30
0.0
 40
6.304722352242158
100
AcDbArc
 50
313.2955724713845
 51
356.0231681603024
  0
ARC
  5
21D
330
2F8
100
AcDbEntity
  8
DATA
  6
Continuous
 62
     7
100
AcDbCircle
 10
-672.3866444410781
 20
-1475.895140666824
 30
0.0
 40
8.475563542687501
100
AcDbArc
 50
269.2336806020035
 51
292.3157970174009
  0
ARC
  5
21E
330
2F8
100
AcDbEntity
  8
DATA
  6
Continuous
 62
     7
100
AcDbCircle
 10
-670.4291454490161
 20
-1480.60226618386
 30
0.0
 40
3.377775587344206
100
AcDbArc
 50
291.9164304694742
 51
321.7939957453605
  0
ARC
  5
21F
330
2F8
100
AcDbEntity
  8
DATA
  6
Continuous
 62
     7
100
AcDbCircle
 10
-668.9045049799866
 20
-1481.856619164671
 30
0.0
 40
1.404568206673039
100
AcDbArc
 50
323.5354742323664
 51
359.4563516756192
  0
ARC
  5
220
330
2F8
100
AcDbEntity
  8
DATA
  6
Continuous
 62
     7
100
AcDbCircle
 10
-672.876980097785
 20
-1498.85028599863
 30
0.0
 40
31.67907574063799
100
AcDbArc
 50
89.31816576495158
 51
111.7214202257401
  0
ARC
  5
221
330
2F8
100
AcDbEntity
  8
DATA
  6
Continuous
 62
     7
100
AcDbCircle
 10
-679.0088647690497
 20
-1482.985909022199
 30
0.0
 40
14.67282762591055
100
AcDbArc
 50
112.4041143248202
 51
133.0977269323914
  0
ARC
  5
222
330
2F8
100
AcDbEntity
  8
DATA
  6
Continuous
 62
     7
100
AcDbCircle
 10
-684.7104583128325
 20
-1476.86070535531
 30
0.0
 40
6.304722352242158
100
AcDbArc
 50
133.2955724713845
 51
176.0231681603024
  0
ARC
  5
223
330
2F8
100
AcDbEntity
  8
DATA
  6
Continuous
 62
     7
100
AcDbCircle
 10
-672.1230199022149
 20
-1498.85028599863
 30
0.0
 40
31.67907574063804
100
AcDbArc
 50
68.27857977425988
 51
90.68183423504843
  0
ARC
  5
224
330
2F8
100
AcDbEntity
  8
DATA
  6
Continuous
 62
     7
100
AcDbCircle
 10
-665.9911352309503
 20
-1482.985909022199
 30
0.0
 40
14.67282762591065
100
AcDbArc
 50
46.90227306760854
 51
67.59588567517983
  0
ARC
  5
225
330
2F8
100
AcDbEntity
  8
DATA
  6
Continuous
 62
     7
100
AcDbCircle
 10
-660.2895416871675
 20
-1476.86070535531
 30
0.0
 40
6.304722352242087
100
AcDbArc
 50
3.976831839697601
 51
46.7044275286155
  0
LINE
  5
226
330
2F8
100
AcDbEntity
  8
DATA
  6
Continuous
 62
     7
100
AcDbLine
 10
-691.0
 20
-1481.869946144438
 30
0.0
 11
-691.0
 21
-1476.423453363612
 31
0.0
  0
LINE
  5
227
330
2F8
100
AcDbEntity
  8
DATA
  6
Continuous
 62
     7
100
AcDbLine
 10
-654.0
 20
-1481.869946144438
 30
0.0
 11
-654.0
 21
-1476.423453363612
 31
0.0
  0
ARC
  5
228
330
2F8
100
AcDbEntity
  8
DATA
  6
Continuous
 62
     7
100
AcDbCircle
 10
-127.8769800977851
 20
-1504.296778779456
 30
0.0
 40
31.67907574063799
100
AcDbArc
 50
89.31816576495158
 51
111.7214202257401
  0
ARC
  5
229
330
2F8
100
AcDbEntity
  8
DATA
  6
Continuous
 62
     7
100
AcDbCircle
 10
-134.0088647690497
 20
-1488.432401803025
 30
0.0
 40
14.67282762591055
100
AcDbArc
 50
112.4041143248202
 51
133.0977269323914
  0
ARC
  5
22A
330
2F8
100
AcDbEntity
  8
DATA
  6
Continuous
 62
     7
100
AcDbCircle
 10
-139.7104583128325
 20
-1482.307198136136
 30
0.0
 40
6.304722352242158
100
AcDbArc
 50
133.2955724713845
 51
176.0231681603024
  0
ARC
  5
22B
330
2F8
100
AcDbEntity
  8
DATA
  6
Continuous
 62
     7
100
AcDbCircle
 10
-127.6133555589218
 20
-1487.844751622052
 30
0.0
 40
8.475563542687501
100
AcDbArc
 50
89.23368060200346
 51
112.3157970174009
  0
ARC
  5
22C
330
2F8
100
AcDbEntity
  8
DATA
  6
Continuous
 62
     7
100
AcDbCircle
 10
-129.5708545509837
 20
-1483.137626105017
 30
0.0
 40
3.377775587344206
100
AcDbArc
 50
111.9164304694742
 51
141.7939957453604
  0
ARC
  5
22D
330
2F8
100
AcDbEntity
  8
DATA
  6
Continuous
 62
     7
100
AcDbCircle
 10
-131.0954950200133
 20
-1481.883273124205
 30
0.0
 40
1.404568206673039
100
AcDbArc
 50
143.5354742323664
 51
179.4563516756193
  0
ARC
  5
22E
330
2F8
100
AcDbEntity
  8
DATA
  6
Continuous
 62
     7
100
AcDbCircle
 10
-127.1230199022148
 20
-1504.296778779456
 30
0.0
 40
31.67907574063804
100
AcDbArc
 50
68.27857977425988
 51
90.68183423504843
  0
ARC
  5
22F
330
2F8
100
AcDbEntity
  8
DATA
  6
Continuous
 62
     7
100
AcDbCircle
 10
-120.9911352309502
 20
-1488.432401803025
 30
0.0
 40
14.67282762591065
100
AcDbArc
 50
46.90227306760854
 51
67.59588567517983
  0
ARC
  5
230
330
2F8
100
AcDbEntity
  8
DATA
  6
Continuous
 62
     7
100
AcDbCircle
 10
-115.2895416871674
 20
-1482.307198136136
 30
0.0
 40
6.304722352242087
100
AcDbArc
 50
3.976831839697601
 51
46.7044275286155
  0
ARC
  5
231
330
2F8
100
AcDbEntity
  8
DATA
  6
Continuous
 62
     7
100
AcDbCircle
 10
-127.3866444410781
 20
-1487.844751622052
 30
0.0
 40
8.475563542687499
100
AcDbArc
 50
67.6842029825991
 51
90.76631939799653
  0
ARC
  5
232
330
2F8
100
AcDbEntity
  8
DATA
  6
Continuous
 62
     7
100
AcDbCircle
 10
-125.4291454490162
 20
-1483.137626105017
 30
0.0
 40
3.377775587344166
100
AcDbArc
 50
38.20600425463953
 51
68.08356953052573
  0
ARC
  5
233
330
2F8
100
AcDbEntity
  8
DATA
  6
Continuous
 62
     7
100
AcDbCircle
 10
-123.9045049799866
 20
-1481.883273124205
 30
0.0
 40
1.404568206673148
100
AcDbArc
 50
0.5436483243807161
 51
36.46452576763355
  0
ARC
  5
234
330
2F8
100
AcDbEntity
  8
DATA
  6
Continuous
 62
     7
100
AcDbCircle
 10
-127.8769800977851
 20
-1459.44311350942
 30
0.0
 40
31.67907574063804
100
AcDbArc
 50
248.2785797742599
 51
270.6818342350484
  0
ARC
  5
235
330
2F8
100
AcDbEntity
  8
DATA
  6
Continuous
 62
     7
100
AcDbCircle
 10
-134.0088647690497
 20
-1475.307490485851
 30
0.0
 40
14.67282762591065
100
AcDbArc
 50
226.9022730676084
 51
247.5958856751798
  0
ARC
  5
236
330
2F8
100
AcDbEntity
  8
DATA
  6
Continuous
 62
     7
100
AcDbCircle
 10
-139.7104583128325
 20
-1481.43269415274
 30
0.0
 40
6.304722352242087
100
AcDbArc
 50
183.9768318396976
 51
226.7044275286156
  0
ARC
  5
237
330
2F8
100
AcDbEntity
  8
DATA
  6
Continuous
 62
     7
100
AcDbCircle
 10
-127.6133555589218
 20
-1475.895140666824
 30
0.0
 40
8.475563542687499
100
AcDbArc
 50
247.6842029825991
 51
270.7663193979965
  0
ARC
  5
238
330
2F8
100
AcDbEntity
  8
DATA
  6
Continuous
 62
     7
100
AcDbCircle
 10
-129.5708545509837
 20
-1480.60226618386
 30
0.0
 40
3.377775587344166
100
AcDbArc
 50
218.2060042546395
 51
248.0835695305258
  0
ARC
  5
239
330
2F8
100
AcDbEntity
  8
DATA
  6
Continuous
 62
     7
100
AcDbCircle
 10
-131.0954950200133
 20
-1481.856619164671
 30
0.0
 40
1.404568206673148
100
AcDbArc
 50
180.5436483243807
 51
216.4645257676335
  0
ARC
  5
23A
330
2F8
100
AcDbEntity
  8
DATA
  6
Continuous
 62
     7
100
AcDbCircle
 10
-127.1230199022148
 20
-1459.44311350942
 30
0.0
 40
31.67907574063799
100
AcDbArc
 50
269.3181657649516
 51
291.7214202257401
  0
ARC
  5
23B
330
2F8
100
AcDbEntity
  8
DATA
  6
Continuous
 62
     7
100
AcDbCircle
 10
-120.9911352309502
 20
-1475.307490485851
 30
0.0
 40
14.67282762591055
100
AcDbArc
 50
292.4041143248201
 51
313.0977269323915
  0
ARC
  5
23C
330
2F8
100
AcDbEntity
  8
DATA
  6
Continuous
 62
     7
100
AcDbCircle
 10
-115.2895416871674
 20
-1481.43269415274
 30
0.0
 40
6.304722352242158
100
AcDbArc
 50
313.2955724713845
 51
356.0231681603024
  0
ARC
  5
23D
330
2F8
100
AcDbEntity
  8
DATA
  6
Continuous
 62
     7
100
AcDbCircle
 10
-127.3866444410781
 20
-1475.895140666824
 30
0.0
 40
8.475563542687501
100
AcDbArc
 50
269.2336806020035
 51
292.3157970174009
  0
ARC
  5
23E
330
2F8
100
AcDbEntity
  8
DATA
  6
Continuous
 62
     7
100
AcDbCircle
 10
-125.4291454490162
 20
-1480.60226618386
 30
0.0
 40
3.377775587344206
100
AcDbArc
 50
291.9164304694742
 51
321.7939957453605
  0
ARC
  5
23F
330
2F8
100
AcDbEntity
  8
DATA
  6
Continuous
 62
     7
100
AcDbCircle
 10
-123.9045049799866
 20
-1481.856619164671
 30
0.0
 40
1.404568206673039
100
AcDbArc
 50
323.5354742323664
 51
359.4563516756192
  0
ARC
  5
240
330
2F8
100
AcDbEntity
  8
DATA
  6
Continuous
 62
     7
100
AcDbCircle
 10
-127.8769800977851
 20
-1498.85028599863
 30
0.0
 40
31.67907574063799
100
AcDbArc
 50
89.31816576495158
 51
111.7214202257401
  0
ARC
  5
241
330
2F8
100
AcDbEntity
  8
DATA
  6
Continuous
 62
     7
100
AcDbCircle
 10
-134.0088647690497
 20
-1482.985909022199
 30
0.0
 40
14.67282762591055
100
AcDbArc
 50
112.4041143248202
 51
133.0977269323914
  0
ARC
  5
242
330
2F8
100
AcDbEntity
  8
DATA
  6
Continuous
 62
     7
100
AcDbCircle
 10
-139.7104583128325
 20
-1476.86070535531
 30
0.0
 40
6.304722352242158
100
AcDbArc
 50
133.2955724713845
 51
176.0231681603024
  0
ARC
  5
243
330
2F8
100
AcDbEntity
  8
DATA
  6
Continuous
 62
     7
100
AcDbCircle
 10
-127.1230199022148
 20
-1498.85028599863
 30
0.0
 40
31.67907574063804
100
AcDbArc
 50
68.27857977425988
 51
90.68183423504843
  0
ARC
  5
244
330
2F8
100
AcDbEntity
  8
DATA
  6
Continuous
 62
     7
100
AcDbCircle
 10
-120.9911352309502
 20
-1482.985909022199
 30
0.0
 40
14.67282762591065
100
AcDbArc
 50
46.90227306760854
 51
67.59588567517983
  0
ARC
  5
245
330
2F8
100
AcDbEntity
  8
DATA
  6
Continuous
 62
     7
100
AcDbCircle
 10
-115.2895416871674
 20
-1476.86070535531
 30
0.0
 40
6.304722352242087
100
AcDbArc
 50
3.976831839697601
 51
46.7044275286155
  0
LINE
  5
246
330
2F8
100
AcDbEntity
  8
DATA
  6
Continuous
 62
     7
100
AcDbLine
 10
-146.0
 20
-1481.869946144438
 30
0.0
 11
-146.0
 21
-1476.423453363612
 31
0.0
  0
LINE
  5
247
330
2F8
100
AcDbEntity
  8
DATA
  6
Continuous
 62
     7
100
AcDbLine
 10
-109.0
 20
-1481.869946144438
 30
0.0
 11
-109.0
 21
-1476.423453363612
 31
0.0
  0
ARC
  5
248
330
2F8
100
AcDbEntity
  8
DATA
  6
Continuous
 62
     7
100
AcDbCircle
 10
-672.876980097785
 20
-1595.401639155231
 30
0.0
 40
31.67907574063799
100
AcDbArc
 50
89.31816576495158
 51
111.7214202257401
  0
ARC
  5
249
330
2F8
100
AcDbEntity
  8
DATA
  6
Continuous
 62
     7
100
AcDbCircle
 10
-679.0088647690497
 20
-1579.5372621788
 30
0.0
 40
14.67282762591055
100
AcDbArc
 50
112.4041143248202
 51
133.0977269323914
  0
ARC
  5
24A
330
2F8
100
AcDbEntity
  8
DATA
  6
Continuous
 62
     7
100
AcDbCircle
 10
-684.7104583128325
 20
-1573.412058511911
 30
0.0
 40
6.304722352242158
100
AcDbArc
 50
133.2955724713845
 51
176.0231681603024
  0
ARC
  5
24B
330
2F8
100
AcDbEntity
  8
DATA
  6
Continuous
 62
     7
100
AcDbCircle
 10
-672.6133555589218
 20
-1578.949611997827
 30
0.0
 40
8.475563542687501
100
AcDbArc
 50
89.23368060200346
 51
112.3157970174009
  0
ARC
  5
24C
330
2F8
100
AcDbEntity
  8
DATA
  6
Continuous
 62
     7
100
AcDbCircle
 10
-674.5708545509837
 20
-1574.242486480791
 30
0.0
 40
3.377775587344206
100
AcDbArc
 50
111.9164304694742
 51
141.7939957453604
  0
ARC
  5
24D
330
2F8
100
AcDbEntity
  8
DATA
  6
Continuous
 62
     7
100
AcDbCircle
 10
-676.0954950200133
 20
-1572.98813349998
 30
0.0
 40
1.404568206673039
100
AcDbArc
 50
143.5354742323664
 51
179.4563516756193
  0
ARC
  5
24E
330
2F8
100
AcDbEntity
  8
DATA
  6
Continuous
 62
     7
100
AcDbCircle
 10
-672.1230199022149
 20
-1595.401639155231
 30
0.0
 40
31.67907574063804
100
AcDbArc
 50
68.27857977425988
 51
90.68183423504843
  0
ARC
  5
24F
330
2F8
100
AcDbEntity
  8
DATA
  6
Continuous
 62
     7
100
AcDbCircle
 10
-665.9911352309503
 20
-1579.5372621788
 30
0.0
 40
14.67282762591065
100
AcDbArc
 50
46.90227306760854
 51
67.59588567517983
  0
ARC
  5
250
330
2F8
100
AcDbEntity
  8
DATA
  6
Continuous
 62
     7
100
AcDbCircle
 10
-660.2895416871675
 20
-1573.412058511911
 30
0.0
 40
6.304722352242087
100
AcDbArc
 50
3.976831839697601
 51
46.7044275286155
  0
ARC
  5
251
330
2F8
100
AcDbEntity
  8
DATA
  6
Continuous
 62
     7
100
AcDbCircle
 10
-672.3866444410781
 20
-1578.949611997827
 30
0.0
 40
8.475563542687499
100
AcDbArc
 50
67.6842029825991
 51
90.76631939799653
  0
ARC
  5
252
330
2F8
100
AcDbEntity
  8
DATA
  6
Continuous
 62
     7
100
AcDbCircle
 10
-670.4291454490161
 20
-1574.242486480791
 30
0.0
 40
3.377775587344166
100
AcDbArc
 50
38.20600425463953
 51
68.08356953052573
  0
ARC
  5
253
330
2F8
100
AcDbEntity
  8
DATA
  6
Continuous
 62
     7
100
AcDbCircle
 10
-668.9045049799866
 20
-1572.98813349998
 30
0.0
 40
1.404568206673148
100
AcDbArc
 50
0.5436483243807161
 51
36.46452576763355
  0
ARC
  5
254
330
2F8
100
AcDbEntity
  8
DATA
  6
Continuous
 62
     7
100
AcDbCircle
 10
-672.876980097785
 20
-1550.547973885195
 30
0.0
 40
31.67907574063804
100
AcDbArc
 50
248.2785797742599
 51
270.6818342350484
  0
ARC
  5
255
330
2F8
100
AcDbEntity
  8
DATA
  6
Continuous
 62
     7
100
AcDbCircle
 10
-679.0088647690497
 20
-1566.412350861625
 30
0.0
 40
14.67282762591065
100
AcDbArc
 50
226.9022730676084
 51
247.5958856751798
  0
ARC
  5
256
330
2F8
100
AcDbEntity
  8
DATA
  6
Continuous
 62
     7
100
AcDbCircle
 10
-684.7104583128325
 20
-1572.537554528515
 30
0.0
 40
6.304722352242087
100
AcDbArc
 50
183.9768318396976
 51
226.7044275286156
  0
ARC
  5
257
330
2F8
100
AcDbEntity
  8
DATA
  6
Continuous
 62
     7
100
AcDbCircle
 10
-672.6133555589218
 20
-1567.000001042599
 30
0.0
 40
8.475563542687499
100
AcDbArc
 50
247.6842029825991
 51
270.7663193979965
  0
ARC
  5
258
330
2F8
100
AcDbEntity
  8
DATA
  6
Continuous
 62
     7
100
AcDbCircle
 10
-674.5708545509837
 20
-1571.707126559634
 30
0.0
 40
3.377775587344166
100
AcDbArc
 50
218.2060042546395
 51
248.0835695305258
  0
ARC
  5
259
330
2F8
100
AcDbEntity
  8
DATA
  6
Continuous
 62
     7
100
AcDbCircle
 10
-676.0954950200133
 20
-1572.961479540446
 30
0.0
 40
1.404568206673148
100
AcDbArc
 50
180.5436483243807
 51
216.4645257676335
  0
ARC
  5
25A
330
2F8
100
AcDbEntity
  8
DATA
  6
Continuous
 62
     7
100
AcDbCircle
 10
-672.1230199022149
 20
-1550.547973885195
 30
0.0
 40
31.67907574063799
100
AcDbArc
 50
269.3181657649516
 51
291.7214202257401
  0
ARC
  5
25B
330
2F8
100
AcDbEntity
  8
DATA
  6
Continuous
 62
     7
100
AcDbCircle
 10
-665.9911352309503
 20
-1566.412350861625
 30
0.0
 40
14.67282762591055
100
AcDbArc
 50
292.4041143248201
 51
313.0977269323915
  0
ARC
  5
25C
330
2F8
100
AcDbEntity
  8
DATA
  6
Continuous
 62
     7
100
AcDbCircle
 10
-660.2895416871675
 20
-1572.537554528515
 30
0.0
 40
6.304722352242158
100
AcDbArc
 50
313.2955724713845
 51
356.0231681603024
  0
ARC
  5
25D
330
2F8
100
AcDbEntity
  8
DATA
  6
Continuous
 62
     7
100
AcDbCircle
 10
-672.3866444410781
 20
-1567.000001042599
 30
0.0
 40
8.475563542687501
100
AcDbArc
 50
269.2336806020035
 51
292.3157970174009
  0
ARC
  5
25E
330
2F8
100
AcDbEntity
  8
DATA
  6
Continuous
 62
     7
100
AcDbCircle
 10
-670.4291454490161
 20
-1571.707126559634
 30
0.0
 40
3.377775587344206
100
AcDbArc
 50
291.9164304694742
 51
321.7939957453605
  0
ARC
  5
25F
330
2F8
100
AcDbEntity
  8
DATA
  6
Continuous
 62
     7
100
AcDbCircle
 10
-668.9045049799866
 20
-1572.961479540446
 30
0.0
 40
1.404568206673039
100
AcDbArc
 50
323.5354742323664
 51
359.4563516756192
  0
ARC
  5
260
330
2F8
100
AcDbEntity
  8
DATA
  6
Continuous
 62
     7
100
AcDbCircle
 10
-672.876980097785
 20
-1589.955146374405
 30
0.0
 40
31.67907574063799
100
AcDbArc
 50
89.31816576495158
 51
111.7214202257401
  0
ARC
  5
261
330
2F8
100
AcDbEntity
  8
DATA
  6
Continuous
 62
     7
100
AcDbCircle
 10
-679.0088647690497
 20
-1574.090769397974
 30
0.0
 40
14.67282762591055
100
AcDbArc
 50
112.4041143248202
 51
133.0977269323914
  0
ARC
  5
262
330
2F8
100
AcDbEntity
  8
DATA
  6
Continuous
 62
     7
100
AcDbCircle
 10
-684.7104583128325
 20
-1567.965565731085
 30
0.0
 40
6.304722352242158
100
AcDbArc
 50
133.2955724713845
 51
176.0231681603024
  0
ARC
  5
263
330
2F8
100
AcDbEntity
  8
DATA
  6
Continuous
 62
     7
100
AcDbCircle
 10
-672.1230199022149
 20
-1589.955146374405
 30
0.0
 40
31.67907574063804
100
AcDbArc
 50
68.27857977425988
 51
90.68183423504843
  0
ARC
  5
264
330
2F8
100
AcDbEntity
  8
DATA
  6
Continuous
 62
     7
100
AcDbCircle
 10
-665.9911352309503
 20
-1574.090769397974
 30
0.0
 40
14.67282762591065
100
AcDbArc
 50
46.90227306760854
 51
67.59588567517983
  0
ARC
  5
265
330
2F8
100
AcDbEntity
  8
DATA
  6
Continuous
 62
     7
100
AcDbCircle
 10
-660.2895416871675
 20
-1567.965565731085
 30
0.0
 40
6.304722352242087
100
AcDbArc
 50
3.976831839697601
 51
46.7044275286155
  0
LINE
  5
266
330
2F8
100
AcDbEntity
  8
DATA
  6
Continuous
 62
     7
100
AcDbLine
 10
-691.0
 20
-1572.974806520213
 30
0.0
 11
-691.0
 21
-1567.528313739387
 31
0.0
  0
LINE
  5
267
330
2F8
100
AcDbEntity
  8
DATA
  6
Continuous
 62
     7
100
AcDbLine
 10
-654.0
 20
-1572.974806520213
 30
0.0
 11
-654.0
 21
-1567.528313739387
 31
0.0
  0
ARC
  5
268
330
2F8
100
AcDbEntity
  8
DATA
  6
Continuous
 62
     7
100
AcDbCircle
 10
-127.8769800977851
 20
-1595.401639155231
 30
0.0
 40
31.67907574063799
100
AcDbArc
 50
89.31816576495158
 51
111.7214202257401
  0
ARC
  5
269
330
2F8
100
AcDbEntity
  8
DATA
  6
Continuous
 62
     7
100
AcDbCircle
 10
-134.0088647690497
 20
-1579.5372621788
 30
0.0
 40
14.67282762591055
100
AcDbArc
 50
112.4041143248202
 51
133.0977269323914
  0
ARC
  5
26A
330
2F8
100
AcDbEntity
  8
DATA
  6
Continuous
 62
     7
100
AcDbCircle
 10
-139.7104583128325
 20
-1573.412058511911
 30
0.0
 40
6.304722352242158
100
AcDbArc
 50
133.2955724713845
 51
176.0231681603024
  0
ARC
  5
26B
330
2F8
100
AcDbEntity
  8
DATA
  6
Continuous
 62
     7
100
AcDbCircle
 10
-127.6133555589218
 20
-1578.949611997827
 30
0.0
 40
8.475563542687501
100
AcDbArc
 50
89.23368060200346
 51
112.3157970174009
  0
ARC
  5
26C
330
2F8
100
AcDbEntity
  8
DATA
  6
Continuous
 62
     7
100
AcDbCircle
 10
-129.5708545509837
 20
-1574.242486480791
 30
0.0
 40
3.377775587344206
100
AcDbArc
 50
111.9164304694742
 51
141.7939957453604
  0
ARC
  5
26D
330
2F8
100
AcDbEntity
  8
DATA
  6
Continuous
 62
     7
100
AcDbCircle
 10
-131.0954950200133
 20
-1572.98813349998
 30
0.0
 40
1.404568206673039
100
AcDbArc
 50
143.5354742323664
 51
179.4563516756193
  0
ARC
  5
26E
330
2F8
100
AcDbEntity
  8
DATA
  6
Continuous
 62
     7
100
AcDbCircle
 10
-127.1230199022148
 20
-1595.401639155231
 30
0.0
 40
31.67907574063804
100
AcDbArc
 50
68.27857977425988
 51
90.68183423504843
  0
ARC
  5
26F
330
2F8
100
AcDbEntity
  8
DATA
  6
Continuous
 62
     7
100
AcDbCircle
 10
-120.9911352309502
 20
-1579.5372621788
 30
0.0
 40
14.67282762591065
100
AcDbArc
 50
46.90227306760854
 51
67.59588567517983
  0
ARC
  5
270
330
2F8
100
AcDbEntity
  8
DATA
  6
Continuous
 62
     7
100
AcDbCircle
 10
-115.2895416871674
 20
-1573.412058511911
 30
0.0
 40
6.304722352242087
100
AcDbArc
 50
3.976831839697601
 51
46.7044275286155
  0
ARC
  5
271
330
2F8
100
AcDbEntity
  8
DATA
  6
Continuous
 62
     7
100
AcDbCircle
 10
-127.3866444410781
 20
-1578.949611997827
 30
0.0
 40
8.475563542687499
100
AcDbArc
 50
67.6842029825991
 51
90.76631939799653
  0
ARC
  5
272
330
2F8
100
AcDbEntity
  8
DATA
  6
Continuous
 62
     7
100
AcDbCircle
 10
-125.4291454490162
 20
-1574.242486480791
 30
0.0
 40
3.377775587344166
100
AcDbArc
 50
38.20600425463953
 51
68.08356953052573
  0
ARC
  5
273
330
2F8
100
AcDbEntity
  8
DATA
  6
Continuous
 62
     7
100
AcDbCircle
 10
-123.9045049799866
 20
-1572.98813349998
 30
0.0
 40
1.404568206673148
100
AcDbArc
 50
0.5436483243807161
 51
36.46452576763355
  0
ARC
  5
274
330
2F8
100
AcDbEntity
  8
DATA
  6
Continuous
 62
     7
100
AcDbCircle
 10
-127.8769800977851
 20
-1550.547973885195
 30
0.0
 40
31.67907574063804
100
AcDbArc
 50
248.2785797742599
 51
270.6818342350484
  0
ARC
  5
275
330
2F8
100
AcDbEntity
  8
DATA
  6
Continuous
 62
     7
100
AcDbCircle
 10
-134.0088647690497
 20
-1566.412350861625
 30
0.0
 40
14.67282762591065
100
AcDbArc
 50
226.9022730676084
 51
247.5958856751798
  0
ARC
  5
276
330
2F8
100
AcDbEntity
  8
DATA
  6
Continuous
 62
     7
100
AcDbCircle
 10
-139.7104583128325
 20
-1572.537554528515
 30
0.0
 40
6.304722352242087
100
AcDbArc
 50
183.9768318396976
 51
226.7044275286156
  0
ARC
  5
277
330
2F8
100
AcDbEntity
  8
DATA
  6
Continuous
 62
     7
100
AcDbCircle
 10
-127.6133555589218
 20
-1567.000001042599
 30
0.0
 40
8.475563542687499
100
AcDbArc
 50
247.6842029825991
 51
270.7663193979965
  0
ARC
  5
278
330
2F8
100
AcDbEntity
  8
DATA
  6
Continuous
 62
     7
100
AcDbCircle
 10
-129.5708545509837
 20
-1571.707126559634
 30
0.0
 40
3.377775587344166
100
AcDbArc
 50
218.2060042546395
 51
248.0835695305258
  0
ARC
  5
279
330
2F8
100
AcDbEntity
  8
DATA
  6
Continuous
 62
     7
100
AcDbCircle
 10
-131.0954950200133
 20
-1572.961479540446
 30
0.0
 40
1.404568206673148
100
AcDbArc
 50
180.5436483243807
 51
216.4645257676335
  0
ARC
  5
27A
330
2F8
100
AcDbEntity
  8
DATA
  6
Continuous
 62
     7
100
AcDbCircle
 10
-127.1230199022148
 20
-1550.547973885195
 30
0.0
 40
31.67907574063799
100
AcDbArc
 50
269.3181657649516
 51
291.7214202257401
  0
ARC
  5
27B
330
2F8
100
AcDbEntity
  8
DATA
  6
Continuous
 62
     7
100
AcDbCircle
 10
-120.9911352309502
 20
-1566.412350861625
 30
0.0
 40
14.67282762591055
100
AcDbArc
 50
292.4041143248201
 51
313.0977269323915
  0
ARC
  5
27C
330
2F8
100
AcDbEntity
  8
DATA
  6
Continuous
 62
     7
100
AcDbCircle
 10
-115.2895416871674
 20
-1572.537554528515
 30
0.0
 40
6.304722352242158
100
AcDbArc
 50
313.2955724713845
 51
356.0231681603024
  0
ARC
  5
27D
330
2F8
100
AcDbEntity
  8
DATA
  6
Continuous
 62
     7
100
AcDbCircle
 10
-127.3866444410781
 20
-1567.000001042599
 30
0.0
 40
8.475563542687501
100
AcDbArc
 50
269.2336806020035
 51
292.3157970174009
  0
ARC
  5
27E
330
2F8
100
AcDbEntity
  8
DATA
  6
Continuous
 62
     7
100
AcDbCircle
 10
-125.4291454490162
 20
-1571.707126559634
 30
0.0
 40
3.377775587344206
100
AcDbArc
 50
291.9164304694742
 51
321.7939957453605
  0
ARC
  5
27F
330
2F8
100
AcDbEntity
  8
DATA
  6
Continuous
 62
     7
100
AcDbCircle
 10
-123.9045049799866
 20
-1572.961479540446
 30
0.0
 40
1.404568206673039
100
AcDbArc
 50
323.5354742323664
 51
359.4563516756192
  0
ARC
  5
280
330
2F8
100
AcDbEntity
  8
DATA
  6
Continuous
 62
     7
100
AcDbCircle
 10
-127.8769800977851
 20
-1589.955146374405
 30
0.0
 40
31.67907574063799
100
AcDbArc
 50
89.31816576495158
 51
111.7214202257401
  0
ARC
  5
281
330
2F8
100
AcDbEntity
  8
DATA
  6
Continuous
 62
     7
100
AcDbCircle
 10
-134.0088647690497
 20
-1574.090769397974
 30
0.0
 40
14.67282762591055
100
AcDbArc
 50
112.4041143248202
 51
133.0977269323914
  0
ARC
  5
282
330
2F8
100
AcDbEntity
  8
DATA
  6
Continuous
 62
     7
100
AcDbCircle
 10
-139.7104583128325
 20
-1567.965565731085
 30
0.0
 40
6.304722352242158
100
AcDbArc
 50
133.2955724713845
 51
176.0231681603024
  0
ARC
  5
283
330
2F8
100
AcDbEntity
  8
DATA
  6
Continuous
 62
     7
100
AcDbCircle
 10
-127.1230199022148
 20
-1589.955146374405
 30
0.0
 40
31.67907574063804
100
AcDbArc
 50
68.27857977425988
 51
90.68183423504843
  0
ARC
  5
284
330
2F8
100
AcDbEntity
  8
DATA
  6
Continuous
 62
     7
100
AcDbCircle
 10
-120.9911352309502
 20
-1574.090769397974
 30
0.0
 40
14.67282762591065
100
AcDbArc
 50
46.90227306760854
 51
67.59588567517983
  0
ARC
  5
285
330
2F8
100
AcDbEntity
  8
DATA
  6
Continuous
 62
     7
100
AcDbCircle
 10
-115.2895416871674
 20
-1567.965565731085
 30
0.0
 40
6.304722352242087
100
AcDbArc
 50
3.976831839697601
 51
46.7044275286155
  0
LINE
  5
286
330
2F8
100
AcDbEntity
  8
DATA
  6
Continuous
 62
     7
100
AcDbLine
 10
-146.0
 20
-1572.974806520213
 30
0.0
 11
-146.0
 21
-1567.528313739387
 31
0.0
  0
LINE
  5
287
330
2F8
100
AcDbEntity
  8
DATA
  6
Continuous
 62
     7
100
AcDbLine
 10
-109.0
 20
-1572.974806520213
 30
0.0
 11
-109.0
 21
-1567.528313739387
 31
0.0
  0
ENDSEC
  0
SECTION
  2
OBJECTS
  0
DICTIONARY
  5
295
330
0
100
AcDbDictionary
281
     1
  3
ACAD_CIP_PREVIOUS_PRODUCT_INFO
350
310
  3
ACAD_COLOR
350
2EB
  3
ACAD_DETAILVIEWSTYLE
350
2F2
  3
ACAD_GROUP
350
296
  3
ACAD_LAYOUT
350
2EA
  3
ACAD_MATERIAL
350
299
  3
ACAD_MLEADERSTYLE
350
2EE
  3
ACAD_MLINESTYLE
350
2E7
  3
ACAD_PLOTSETTINGS
350
2E9
  3
ACAD_PLOTSTYLENAME
350
297
  3
ACAD_SCALELIST
350
2CB
  3
ACAD_SECTIONVIEWSTYLE
350
2F0
  3
ACAD_TABLESTYLE
350
2EC
  3
ACAD_VISUALSTYLE
350
2B2
  3
ACDB_RECOMPOSE_DATA
350
330
  3
AcDbVariableDictionary
350
323
  3
DWGPROPS
350
331
  0
DICTIONARY
  5
319
330
2DD
100
AcDbDictionary
280
     1
281
     1
  3
ADSK_XREC_LAYER_RECONCILED
360
31A
  0
DICTIONARY
  5
31B
330
2FC
100
AcDbDictionary
280
     1
281
     1
  3
ADSK_XREC_LAYER_RECONCILED
360
31C
  0
DICTIONARY
  5
31D
330
308
100
AcDbDictionary
280
     1
281
     1
  3
ADSK_XREC_LAYER_RECONCILED
360
31E
  0
DICTIONARY
  5
31F
330
309
100
AcDbDictionary
280
     1
281
     1
  3
ADSK_XREC_LAYER_RECONCILED
360
320
  0
DICTIONARY
  5
321
330
30A
100
AcDbDictionary
280
     1
281
     1
  3
ADSK_XREC_LAYER_RECONCILED
360
322
  0
XRECORD
  5
310
102
{ACAD_REACTORS
330
295
102
}
330
295
100
AcDbXrecord
280
     1
300
ACDLT
300
2018
300

  0
DICTIONARY
  5
2EB
102
{ACAD_REACTORS
330
295
102
}
330
295
100
AcDbDictionary
281
     1
  0
DICTIONARY
  5
2F2
102
{ACAD_REACTORS
330
295
102
}
330
295
100
AcDbDictionary
281
     1
  3
Imperial24
350
2F3
  0
DICTIONARY
  5
296
102
{ACAD_REACTORS
330
295
102
}
330
295
100
AcDbDictionary
281
     1
  0
DICTIONARY
  5
2EA
102
{ACAD_REACTORS
330
295
102
}
330
295
100
AcDbDictionary
281
     1
  3
Model
350
2FB
  3
レイアウト1
350
2F7
  0
DICTIONARY
  5
299
102
{ACAD_REACTORS
330
295
102
}
330
295
100
AcDbDictionary
281
     1
  3
ByBlock
350
2A2
  3
ByLayer
350
29A
  3
Global
350
2AA
  0
DICTIONARY
  5
2EE
102
{ACAD_REACTORS
330
295
102
}
330
295
100
AcDbDictionary
281
     1
  3
Standard
350
2EF
  0
DICTIONARY
  5
2E7
102
{ACAD_REACTORS
330
295
102
}
330
295
100
AcDbDictionary
281
     1
  3
Standard
350
2E8
  0
DICTIONARY
  5
2E9
102
{ACAD_REACTORS
330
295
102
}
330
295
100
AcDbDictionary
281
     1
  0
ACDBDICTIONARYWDFLT
  5
297
102
{ACAD_REACTORS
330
295
102
}
330
295
100
AcDbDictionary
281
     1
  3
Normal
350
298
100
AcDbDictionaryWithDefault
340
298
  0
DICTIONARY
  5
2CB
102
{ACAD_REACTORS
330
295
102
}
330
295
100
AcDbDictionary
281
     1
  3
A0
350
2CC
  3
A1
350
2CD
  3
A2
350
2CE
  3
A3
350
2CF
  3
A4
350
2D0
  3
A5
350
2D1
  3
A6
350
2D2
  3
A7
350
2D3
  3
A8
350
2D4
  3
A9
350
2D5
  3
B0
350
2D6
  3
B1
350
2D7
  3
B2
350
2D8
  3
B3
350
2D9
  3
B4
350
2DA
  3
B5
350
2DB
  3
B6
350
2DC
  0
DICTIONARY
  5
2F0
102
{ACAD_REACTORS
330
295
102
}
330
295
100
AcDbDictionary
281
     1
  3
Imperial24
350
2F1
  0
DICTIONARY
  5
2EC
102
{ACAD_REACTORS
330
295
102
}
330
295
100
AcDbDictionary
281
     1
  3
Standard
350
2ED
  0
DICTIONARY
  5
2B2
102
{ACAD_REACTORS
330
295
102
}
330
295
100
AcDbDictionary
281
     1
  3
2dWireframe
350
2B8
  3
Basic
350
2B7
  3
Brighten
350
2BE
  3
ColorChange
350
2C2
  3
Conceptual
350
2BB
  3
Dim
350
2BD
  3
EdgeColorOff
350
2CA
  3
Facepattern
350
2C1
  3
Flat
350
2B3
  3
FlatWithEdges
350
2B4
  3
Gouraud
350
2B5
  3
GouraudWithEdges
350
2B6
  3
Hidden
350
2BA
  3
JitterOff
350
2C8
  3
Linepattern
350
2C0
  3
OverhangOff
350
2C9
  3
Realistic
350
2BC
  3
Shaded
350
2C7
  3
Shaded with edges
350
2C6
  3
Shades of Gray
350
2C3
  3
Sketchy
350
2C4
  3
Thicken
350
2BF
  3
Wireframe
350
2B9
  3
X-Ray
350
2C5
  0
XRECORD
  5
330
102
{ACAD_REACTORS
330
295
102
}
330
295
100
AcDbXrecord
280
     1
 90
        1
330
2ED
  0
DICTIONARY
  5
323
102
{ACAD_REACTORS
330
295
102
}
330
295
100
AcDbDictionary
281
     1
  3
CANNOSCALE
350
328
  3
CMLEADERSTYLE
350
325
  3
CTABLESTYLE
350
324
  3
CVIEWDETAILSTYLE
350
326
  3
CVIEWSECTIONSTYLE
350
327
  3
DIMASSOC
350
32B
  3
INDEXCTL
350
32A
  3
SORTENTS
350
329
  3
XCLIPFRAME
350
32C
  0
XRECORD
  5
331
102
{ACAD_REACTORS
330
295
102
}
330
295
100
AcDbXrecord
280
     1
  1
DWGPROPS COOKIE
  2

  3

  4

  6

  7

  8
sasaki_n
  9

300
=
301
=
302
=
303
=
304
=
305
=
306
=
307
=
308
=
309
=
 40
0.0020833333333333
 41
2457861.707835649
 42
2457861.714097222
  1

 90
        0
  0
XRECORD
  5
31A
102
{ACAD_REACTORS
330
319
102
}
330
319
100
AcDbXrecord
280
     1
290
     1
  0
XRECORD
  5
31C
102
{ACAD_REACTORS
330
31B
102
}
330
31B
100
AcDbXrecord
280
     1
290
     1
  0
XRECORD
  5
31E
102
{ACAD_REACTORS
330
31D
102
}
330
31D
100
AcDbXrecord
280
     1
290
     1
  0
XRECORD
  5
320
102
{ACAD_REACTORS
330
31F
102
}
330
31F
100
AcDbXrecord
280
     1
290
     1
  0
XRECORD
  5
322
102
{ACAD_REACTORS
330
321
102
}
330
321
100
AcDbXrecord
280
     1
290
     1
  0
ACDBDETAILVIEWSTYLE
  5
2F3
102
{ACAD_XDICTIONARY
360
369
102
}
102
{ACAD_REACTORS
330
2F2
102
}
330
2F2
100
AcDbModelDocViewStyle
 70
     0
  3
Imperial24
290
     0
100
AcDbDetailViewStyle
 70
     0
 71
     0
 90
        3
 71
     1
340
2DE
 40
0.24
340
0
 40
0.24
300

 40
0.36
280
     3
 71
     2
340
2E5
 90
       25
 71
     3
340
2DE
 40
0.24
 90
        1
 40
0.75
 90
        1
300
%<\AcVar ViewType \f "%tc1">% %<\AcVar ViewDetailId>%\PSCALE %<\AcVar ViewScale \f "%sn">%
 71
     4
340
2E5
 90
       25
340
2E5
 90
       25
280
     0
  0
LAYOUT
  5
2FB
102
{ACAD_XDICTIONARY
360
36D
102
}
102
{ACAD_REACTORS
330
2EA
102
}
330
2EA
100
AcDbPlotSettings
  1

  2
DocuPrint 3000-2
  4

  6

 40
0.0
 41
0.0
 42
0.0
 43
0.0
 44
0.0
 45
0.0
 46
0.0
 47
0.0
 48
0.0
 49
0.0
140
0.0
141
0.0
142
1.0
143
1.0
 70
  1712
 72
     0
 73
     0
 74
     0
  7

 75
     0
147
1.0
148
0.0
149
0.0
100
AcDbLayout
  1
Model
 70
     1
 71
     0
 10
0.0
 20
0.0
 11
12.0
 21
9.0
 12
0.0
 22
0.0
 32
0.0
 14
0.0
 24
0.0
 34
0.0
 15
0.0
 25
0.0
 35
0.0
146
0.0
 13
0.0
 23
0.0
 33
0.0
 16
1.0
 26
0.0
 36
0.0
 17
0.0
 27
1.0
 37
0.0
 76
     0
330
2F8
331
2FD
  0
LAYOUT
  5
2F7
102
{ACAD_XDICTIONARY
360
36B
102
}
102
{ACAD_REACTORS
330
2EA
102
}
330
2EA
100
AcDbPlotSettings
  1

  2
DocuPrint 3000-2
  4

  6

 40
0.0
 41
0.0
 42
0.0
 43
0.0
 44
0.0
 45
0.0
 46
0.0
 47
0.0
 48
0.0
 49
0.0
140
0.0
141
0.0
142
1.0
143
1.0
 70
   688
 72
     0
 73
     0
 74
     5
  7

 75
    16
147
1.0
148
0.0
149
0.0
100
AcDbLayout
  1
レイアウト1
 70
     0
 71
     1
 10
0.0
 20
0.0
 11
12.0
 21
9.0
 12
0.0
 22
0.0
 32
0.0
 14
1.000000000000000E+20
 24
1.000000000000000E+20
 34
1.000000000000000E+20
 15
-1.000000000000000E+20
 25
-1.000000000000000E+20
 35
-1.000000000000000E+20
146
0.0
 13
0.0
 23
0.0
 33
0.0
 16
1.0
 26
0.0
 36
0.0
 17
0.0
 27
1.0
 37
0.0
 76
     0
330
2F4
  0
MATERIAL
  5
2A2
102
{ACAD_XDICTIONARY
360
2A3
102
}
102
{ACAD_REACTORS
330
299
102
}
330
299
100
AcDbMaterial
  1
ByBlock
 72
     0
 43
0.0208333333333333
 43
0.0
 43
0.0
 43
0.0
 43
0.0
 43
0.0208333333333333
 43
0.0
 43
0.0
 43
0.0
 43
0.0
 43
1.0
 43
0.0
 43
0.0
 43
0.0
 43
0.0
 43
1.0
 77
     0
 47
0.0208333333333333
 47
0.0
 47
0.0
 47
0.0
 47
0.0
 47
0.0208333333333333
 47
0.0
 47
0.0
 47
0.0
 47
0.0
 47
1.0
 47
0.0
 47
0.0
 47
0.0
 47
0.0
 47
1.0
171
     0
 49
0.0208333333333333
 49
0.0
 49
0.0
 49
0.0
 49
0.0
 49
0.0208333333333333
 49
0.0
 49
0.0
 49
0.0
 49
0.0
 49
1.0
 49
0.0
 49
0.0
 49
0.0
 49
0.0
 49
1.0
175
     0
142
0.0208333333333333
142
0.0
142
0.0
142
0.0
142
0.0
142
0.0208333333333333
142
0.0
142
0.0
142
0.0
142
0.0
142
1.0
142
0.0
142
0.0
142
0.0
142
0.0
142
1.0
179
     0
144
0.0208333333333333
144
0.0
144
0.0
144
0.0
144
0.0
144
0.0208333333333333
144
0.0
144
0.0
144
0.0
144
0.0
144
1.0
144
0.0
144
0.0
144
0.0
144
0.0
144
1.0
147
0.0208333333333333
147
0.0
147
0.0
147
0.0
147
0.0
147
0.0208333333333333
147
0.0
147
0.0
147
0.0
147
0.0
147
1.0
147
0.0
147
0.0
147
0.0
147
0.0
147
1.0
  0
MATERIAL
  5
29A
102
{ACAD_XDICTIONARY
360
29B
102
}
102
{ACAD_REACTORS
330
299
102
}
330
299
100
AcDbMaterial
  1
ByLayer
 72
     0
 43
0.0208333333333333
 43
0.0
 43
0.0
 43
0.0
 43
0.0
 43
0.0208333333333333
 43
0.0
 43
0.0
 43
0.0
 43
0.0
 43
1.0
 43
0.0
 43
0.0
 43
0.0
 43
0.0
 43
1.0
 77
     0
 47
0.0208333333333333
 47
0.0
 47
0.0
 47
0.0
 47
0.0
 47
0.0208333333333333
 47
0.0
 47
0.0
 47
0.0
 47
0.0
 47
1.0
 47
0.0
 47
0.0
 47
0.0
 47
0.0
 47
1.0
171
     0
 49
0.0208333333333333
 49
0.0
 49
0.0
 49
0.0
 49
0.0
 49
0.0208333333333333
 49
0.0
 49
0.0
 49
0.0
 49
0.0
 49
1.0
 49
0.0
 49
0.0
 49
0.0
 49
0.0
 49
1.0
175
     0
142
0.0208333333333333
142
0.0
142
0.0
142
0.0
142
0.0
142
0.0208333333333333
142
0.0
142
0.0
142
0.0
142
0.0
142
1.0
142
0.0
142
0.0
142
0.0
142
0.0
142
1.0
179
     0
144
0.0208333333333333
144
0.0
144
0.0
144
0.0
144
0.0
144
0.0208333333333333
144
0.0
144
0.0
144
0.0
144
0.0
144
1.0
144
0.0
144
0.0
144
0.0
144
0.0
144
1.0
147
0.0208333333333333
147
0.0
147
0.0
147
0.0
147
0.0
147
0.0208333333333333
147
0.0
147
0.0
147
0.0
147
0.0
147
1.0
147
0.0
147
0.0
147
0.0
147
0.0
147
1.0
  0
MATERIAL
  5
2AA
102
{ACAD_XDICTIONARY
360
2AB
102
}
102
{ACAD_REACTORS
330
299
102
}
330
299
100
AcDbMaterial
  1
Global
 72
     0
 43
0.0208333333333333
 43
0.0
 43
0.0
 43
0.0
 43
0.0
 43
0.0208333333333333
 43
0.0
 43
0.0
 43
0.0
 43
0.0
 43
1.0
 43
0.0
 43
0.0
 43
0.0
 43
0.0
 43
1.0
 77
     0
 47
0.0208333333333333
 47
0.0
 47
0.0
 47
0.0
 47
0.0
 47
0.0208333333333333
 47
0.0
 47
0.0
 47
0.0
 47
0.0
 47
1.0
 47
0.0
 47
0.0
 47
0.0
 47
0.0
 47
1.0
171
     0
 49
0.0208333333333333
 49
0.0
 49
0.0
 49
0.0
 49
0.0
 49
0.0208333333333333
 49
0.0
 49
0.0
 49
0.0
 49
0.0
 49
1.0
 49
0.0
 49
0.0
 49
0.0
 49
0.0
 49
1.0
175
     0
142
0.0208333333333333
142
0.0
142
0.0
142
0.0
142
0.0
142
0.0208333333333333
142
0.0
142
0.0
142
0.0
142
0.0
142
1.0
142
0.0
142
0.0
142
0.0
142
0.0
142
1.0
179
     0
144
0.0208333333333333
144
0.0
144
0.0
144
0.0
144
0.0
144
0.0208333333333333
144
0.0
144
0.0
144
0.0
144
0.0
144
1.0
144
0.0
144
0.0
144
0.0
144
0.0
144
1.0
147
0.0208333333333333
147
0.0
147
0.0
147
0.0
147
0.0
147
0.0208333333333333
147
0.0
147
0.0
147
0.0
147
0.0
147
1.0
147
0.0
147
0.0
147
0.0
147
0.0
147
1.0
  0
MLEADERSTYLE
  5
2EF
102
{ACAD_REACTORS
330
2EE
102
}
330
2EE
100
AcDbMLeaderStyle
170
     2
171
     1
172
     0
 90
        2
 40
0.0
 41
0.0
173
     1
 91
-1056964608
340
2E3
 92
       -2
290
     1
 42
0.09
291
     1
 43
0.36
  3
Standard
 44
0.18
300

342
2DE
174
     1
178
     6
175
     1
176
     0
 93
-1056964608
 45
0.18
292
     0
297
     0
 46
0.18
 94
-1056964608
 47
1.0
 49
1.0
140
1.0
293
     1
141
0.0
294
     1
177
     0
142
1.0
295
     0
296
     0
143
0.125
1001
ACAD_MLEADERVER
1070
     2
  0
MLINESTYLE
  5
2E8
102
{ACAD_REACTORS
330
2E7
102
}
330
2E7
100
AcDbMlineStyle
  2
STANDARD
 70
     0
  3

 62
   256
 51
90.0
 52
90.0
 71
     2
 49
0.5
 62
   256
  6
BYLAYER
 49
-0.5
 62
   256
  6
BYLAYER
  0
ACDBPLACEHOLDER
  5
298
102
{ACAD_REACTORS
330
297
102
}
330
297
  0
SCALE
  5
2CC
102
{ACAD_REACTORS
330
2CB
102
}
330
2CB
100
AcDbScale
 70
     0
300
1:1
140
1.0
141
1.0
290
     1
  0
SCALE
  5
2CD
102
{ACAD_REACTORS
330
2CB
102
}
330
2CB
100
AcDbScale
 70
     0
300
1/128" = 1'-0"
140
0.0078125
141
12.0
290
     0
  0
SCALE
  5
2CE
102
{ACAD_REACTORS
330
2CB
102
}
330
2CB
100
AcDbScale
 70
     0
300
1/64" = 1'-0"
140
0.015625
141
12.0
290
     0
  0
SCALE
  5
2CF
102
{ACAD_REACTORS
330
2CB
102
}
330
2CB
100
AcDbScale
 70
     0
300
1/32" = 1'-0"
140
0.03125
141
12.0
290
     0
  0
SCALE
  5
2D0
102
{ACAD_REACTORS
330
2CB
102
}
330
2CB
100
AcDbScale
 70
     0
300
1/16" = 1'-0"
140
0.0625
141
12.0
290
     0
  0
SCALE
  5
2D1
102
{ACAD_REACTORS
330
2CB
102
}
330
2CB
100
AcDbScale
 70
     0
300
3/32" = 1'-0"
140
0.09375
141
12.0
290
     0
  0
SCALE
  5
2D2
102
{ACAD_REACTORS
330
2CB
102
}
330
2CB
100
AcDbScale
 70
     0
300
1/8" = 1'-0"
140
0.125
141
12.0
290
     0
  0
SCALE
  5
2D3
102
{ACAD_REACTORS
330
2CB
102
}
330
2CB
100
AcDbScale
 70
     0
300
3/16" = 1'-0"
140
0.1875
141
12.0
290
     0
  0
SCALE
  5
2D4
102
{ACAD_REACTORS
330
2CB
102
}
330
2CB
100
AcDbScale
 70
     0
300
1/4" = 1'-0"
140
0.25
141
12.0
290
     0
  0
SCALE
  5
2D5
102
{ACAD_REACTORS
330
2CB
102
}
330
2CB
100
AcDbScale
 70
     0
300
3/8" = 1'-0"
140
0.375
141
12.0
290
     0
  0
SCALE
  5
2D6
102
{ACAD_REACTORS
330
2CB
102
}
330
2CB
100
AcDbScale
 70
     0
300
1/2" = 1'-0"
140
0.5
141
12.0
290
     0
  0
SCALE
  5
2D7
102
{ACAD_REACTORS
330
2CB
102
}
330
2CB
100
AcDbScale
 70
     0
300
3/4" = 1'-0"
140
0.75
141
12.0
290
     0
  0
SCALE
  5
2D8
102
{ACAD_REACTORS
330
2CB
102
}
330
2CB
100
AcDbScale
 70
     0
300
1" = 1'-0"
140
1.0
141
12.0
290
     0
  0
SCALE
  5
2D9
102
{ACAD_REACTORS
330
2CB
102
}
330
2CB
100
AcDbScale
 70
     0
300
1-1/2" = 1'-0"
140
1.5
141
12.0
290
     0
  0
SCALE
  5
2DA
102
{ACAD_REACTORS
330
2CB
102
}
330
2CB
100
AcDbScale
 70
     0
300
3" = 1'-0"
140
3.0
141
12.0
290
     0
  0
SCALE
  5
2DB
102
{ACAD_REACTORS
330
2CB
102
}
330
2CB
100
AcDbScale
 70
     0
300
6" = 1'-0"
140
6.0
141
12.0
290
     0
  0
SCALE
  5
2DC
102
{ACAD_REACTORS
330
2CB
102
}
330
2CB
100
AcDbScale
 70
     0
300
1'-0" = 1'-0"
140
12.0
141
12.0
290
     0
  0
ACDBSECTIONVIEWSTYLE
  5
2F1
102
{ACAD_XDICTIONARY
360
367
102
}
102
{ACAD_REACTORS
330
2F0
102
}
330
2F0
100
AcDbModelDocViewStyle
 70
     0
  3
Imperial24
290
     0
100
AcDbSectionViewStyle
 70
     0
 71
     0
 90
       78
 71
     1
340
2DE
 40
0.24
340
0
340
0
 40
0.24
300
I, O, Q, S, X, Z
 40
0.48
 90
        3
 40
0.18
 90
        1
 71
     2
340
2E5
 90
       25
340
2E5
 90
       50
 40
0.24
 40
0.0
 40
0.24
 71
     3
340
2DE
 40
0.24
 90
        1
 40
0.75
 90
        1
300
%<\AcVar ViewType \f "%tc1">% %<\AcVar ViewSectionStartId>%-%<\AcVar ViewSectionEndId>%\PSCALE %<\AcVar ViewScale \f "%sn">%
 71
     4
300
ANSI31
 40
1.0
 90
        0
290
     0
290
     0
 90
        6
 40
0.0
 40
1.570796326794896
 40
0.2617993877991494
 40
1.308996938995747
 40
-0.2617993877991494
 40
1.832595714594046
  0
TABLESTYLE
  5
2ED
102
{ACAD_XDICTIONARY
360
32E
102
}
102
{ACAD_REACTORS
330
2EC
102
}
330
2EC
100
AcDbTableStyle
  3
Standard
 70
     0
 71
     0
 40
0.06
 41
0.06
280
     0
281
     0
  7
STANDARD
140
0.18
170
     2
 62
     0
 63
     7
283
     0
274
    -2
284
     1
 64
     0
275
    -2
285
     1
 65
     0
276
    -2
286
     1
 66
     0
277
    -2
287
     1
 67
     0
278
    -2
288
     1
 68
     0
279
    -2
289
     1
 69
     0
  7
STANDARD
140
0.25
170
     5
 62
     0
 63
     7
283
     0
274
    -2
284
     1
 64
     0
275
    -2
285
     1
 65
     0
276
    -2
286
     1
 66
     0
277
    -2
287
     1
 67
     0
278
    -2
288
     1
 68
     0
279
    -2
289
     1
 69
     0
  7
STANDARD
140
0.18
170
     5
 62
     0
 63
     7
283
     0
274
    -2
284
     1
 64
     0
275
    -2
285
     1
 65
     0
276
    -2
286
     1
 66
     0
277
    -2
287
     1
 67
     0
278
    -2
288
     1
 68
     0
279
    -2
289
     1
 69
     0
  0
VISUALSTYLE
  5
2B8
102
{ACAD_XDICTIONARY
360
33F
102
}
102
{ACAD_REACTORS
330
2B2
102
}
330
2B2
100
AcDbVisualStyle
  2
2dWireframe
 70
     4
 71
     0
 72
     2
 73
     0
 90
        0
 40
-0.6
 41
-30.0
 62
     5
 63
     7
 74
     1
 91
        4
 64
     7
 65
   257
 75
     1
175
     1
 42
1.0
 92
        0
 66
   257
 43
1.0
 76
     1
 77
     6
 78
     2
 67
     7
 79
     5
170
     0
171
     0
290
     0
174
     0
 93
        1
 44
0.0
173
     0
291
     0
 45
0.0
1001
ACAD
1000
AcDbSavedByObjectVersion
1070
     0
  0
VISUALSTYLE
  5
2B7
102
{ACAD_XDICTIONARY
360
33D
102
}
102
{ACAD_REACTORS
330
2B2
102
}
330
2B2
100
AcDbVisualStyle
  2
Basic
 70
     7
 71
     1
 72
     0
 73
     1
 90
        0
 40
-0.6
 41
-30.0
 62
     5
 63
     7
 74
     0
 91
        4
 64
     7
 65
   257
 75
     1
175
     1
 42
1.0
 92
        8
 66
     7
 43
1.0
 76
     1
 77
     6
 78
     2
 67
     7
 79
     5
170
     0
171
     0
290
     0
174
     0
 93
        1
 44
0.0
173
     0
291
     1
 45
0.0
1001
ACAD
1000
AcDbSavedByObjectVersion
1070
     0
  0
VISUALSTYLE
  5
2BE
102
{ACAD_XDICTIONARY
360
34B
102
}
102
{ACAD_REACTORS
330
2B2
102
}
330
2B2
100
AcDbVisualStyle
  2
Brighten
 70
    12
 71
     2
 72
     2
 73
     0
 90
        0
 40
-0.6
 41
-30.0
 62
     5
 63
     7
 74
     1
 91
        4
 64
     7
 65
   257
 75
     1
175
     1
 42
1.0
 92
        8
 66
     7
 43
1.0
 76
     1
 77
     6
 78
     2
 67
     7
 79
     5
170
     0
171
     0
290
     0
174
     0
 93
        1
 44
50.0
173
     0
291
     1
 45
0.0
1001
ACAD
1000
AcDbSavedByObjectVersion
1070
     0
  0
VISUALSTYLE
  5
2C2
102
{ACAD_XDICTIONARY
360
353
102
}
102
{ACAD_REACTORS
330
2B2
102
}
330
2B2
100
AcDbVisualStyle
  2
ColorChange
 70
    16
 71
     2
 72
     2
 73
     3
 90
        0
 40
-0.6
 41
-30.0
 62
     5
 63
     8
 74
     1
 91
        4
 64
     7
 65
   257
 75
     1
175
     1
 42
1.0
 92
        8
 66
     8
 43
1.0
 76
     1
 77
     6
 78
     2
 67
     7
 79
     5
170
     0
171
     0
290
     0
174
     0
 93
        1
 44
0.0
173
     0
291
     1
 45
0.0
1001
ACAD
1000
AcDbSavedByObjectVersion
1070
     0
  0
VISUALSTYLE
  5
2BB
102
{ACAD_XDICTIONARY
360
345
102
}
102
{ACAD_REACTORS
330
2B2
102
}
330
2B2
100
AcDbVisualStyle
  2
Conceptual
 70
     9
 71
     3
 72
     2
 73
     0
 90
        0
 40
-0.6
 41
-30.0
 62
     5
 63
     7
 74
     2
 91
        2
 64
     7
 65
   257
 75
     1
175
     1
 42
179.0
 92
        8
 66
     7
 43
1.0
 76
     1
 77
     6
 78
     2
 67
     7
 79
     3
170
     0
171
     0
290
     0
174
     0
 93
        1
 44
0.0
173
     0
291
     0
 45
0.0
1001
ACAD
1000
AcDbSavedByObjectVersion
1070
     0
  0
VISUALSTYLE
  5
2BD
102
{ACAD_XDICTIONARY
360
349
102
}
102
{ACAD_REACTORS
330
2B2
102
}
330
2B2
100
AcDbVisualStyle
  2
Dim
 70
    11
 71
     2
 72
     2
 73
     0
 90
        0
 40
-0.6
 41
-30.0
 62
     5
 63
     7
 74
     1
 91
        4
 64
     7
 65
   257
 75
     1
175
     1
 42
1.0
 92
        8
 66
     7
 43
1.0
 76
     1
 77
     6
 78
     2
 67
     7
 79
     5
170
     0
171
     0
290
     0
174
     0
 93
        1
 44
-50.0
173
     0
291
     1
 45
0.0
1001
ACAD
1000
AcDbSavedByObjectVersion
1070
     0
  0
VISUALSTYLE
  5
2CA
102
{ACAD_XDICTIONARY
360
363
102
}
102
{ACAD_REACTORS
330
2B2
102
}
330
2B2
100
AcDbVisualStyle
  2
EdgeColorOff
 70
    22
 71
     2
 72
     2
 73
     0
 90
        0
 40
-0.6
 41
-30.0
 62
     5
 63
     7
 74
     1
 91
        4
 64
     7
 65
   257
 75
     1
175
     1
 42
1.0
 92
        8
 66
     7
 43
1.0
 76
     1
 77
     6
 78
     2
 67
     7
 79
     5
170
     0
171
     0
290
     0
174
     0
 93
        1
 44
0.0
173
     0
291
     1
 45
0.0
1001
ACAD
1000
AcDbSavedByObjectVersion
1070
     0
  0
VISUALSTYLE
  5
2C1
102
{ACAD_XDICTIONARY
360
351
102
}
102
{ACAD_REACTORS
330
2B2
102
}
330
2B2
100
AcDbVisualStyle
  2
Facepattern
 70
    15
 71
     2
 72
     2
 73
     0
 90
        0
 40
-0.6
 41
-30.0
 62
     5
 63
     7
 74
     1
 91
        4
 64
     7
 65
   257
 75
     1
175
     1
 42
1.0
 92
        8
 66
     7
 43
1.0
 76
     1
 77
     6
 78
     2
 67
     7
 79
     5
170
     0
171
     0
290
     0
174
     0
 93
        1
 44
0.0
173
     0
291
     1
 45
0.0
1001
ACAD
1000
AcDbSavedByObjectVersion
1070
     0
  0
VISUALSTYLE
  5
2B3
102
{ACAD_XDICTIONARY
360
335
102
}
102
{ACAD_REACTORS
330
2B2
102
}
330
2B2
100
AcDbVisualStyle
  2
Flat
 70
     0
 71
     2
 72
     1
 73
     1
 90
        2
 40
-0.6
 41
30.0
 62
     5
 63
     7
 74
     0
 91
        0
 64
     7
 65
   257
 75
     1
175
     1
 42
1.0
 92
        8
 66
     7
 43
1.0
 76
     1
 77
     6
 78
     2
 67
     7
 79
     5
170
     0
171
     0
290
     0
174
     0
 93
       13
 44
0.0
173
     0
291
     1
 45
0.0
1001
ACAD
1000
AcDbSavedByObjectVersion
1070
     0
  0
VISUALSTYLE
  5
2B4
102
{ACAD_XDICTIONARY
360
337
102
}
102
{ACAD_REACTORS
330
2B2
102
}
330
2B2
100
AcDbVisualStyle
  2
FlatWithEdges
 70
     1
 71
     2
 72
     1
 73
     1
 90
        2
 40
-0.6
 41
30.0
 62
     5
 63
     7
 74
     1
 91
        0
 64
     7
 65
   257
 75
     1
175
     1
 42
1.0
 92
        0
 66
   257
 43
1.0
 76
     1
 77
     6
 78
     2
 67
     7
 79
     5
170
     0
171
     0
290
     0
174
     0
 93
       13
 44
0.0
173
     0
291
     1
 45
0.0
1001
ACAD
1000
AcDbSavedByObjectVersion
1070
     0
  0
VISUALSTYLE
  5
2B5
102
{ACAD_XDICTIONARY
360
339
102
}
102
{ACAD_REACTORS
330
2B2
102
}
330
2B2
100
AcDbVisualStyle
  2
Gouraud
 70
     2
 71
     2
 72
     2
 73
     1
 90
        2
 40
-0.6
 41
30.0
 62
     5
 63
     7
 74
     0
 91
        0
 64
     7
 65
   257
 75
     1
175
     1
 42
1.0
 92
        0
 66
     7
 43
1.0
 76
     1
 77
     6
 78
     2
 67
     7
 79
     5
170
     0
171
     0
290
     0
174
     0
 93
       13
 44
0.0
173
     0
291
     1
 45
0.0
1001
ACAD
1000
AcDbSavedByObjectVersion
1070
     0
  0
VISUALSTYLE
  5
2B6
102
{ACAD_XDICTIONARY
360
33B
102
}
102
{ACAD_REACTORS
330
2B2
102
}
330
2B2
100
AcDbVisualStyle
  2
GouraudWithEdges
 70
     3
 71
     2
 72
     2
 73
     1
 90
        2
 40
-0.6
 41
30.0
 62
     5
 63
     7
 74
     1
 91
        0
 64
     7
 65
   257
 75
     1
175
     1
 42
1.0
 92
        0
 66
   257
 43
1.0
 76
     1
 77
     6
 78
     2
 67
     7
 79
     5
170
     0
171
     0
290
     0
174
     0
 93
       13
 44
0.0
173
     0
291
     1
 45
0.0
1001
ACAD
1000
AcDbSavedByObjectVersion
1070
     0
  0
VISUALSTYLE
  5
2BA
102
{ACAD_XDICTIONARY
360
343
102
}
102
{ACAD_REACTORS
330
2B2
102
}
330
2B2
100
AcDbVisualStyle
  2
Hidden
 70
     6
 71
     1
 72
     2
 73
     2
 90
        0
 40
-0.6
 41
-30.0
 62
     5
 63
     7
 74
     2
 91
        2
 64
     7
 65
   257
 75
     2
175
     1
 42
40.0
 92
        0
 66
   257
 43
1.0
 76
     1
 77
     6
 78
     2
 67
     7
 79
     3
170
     0
171
     0
290
     0
174
     0
 93
        1
 44
0.0
173
     0
291
     0
 45
0.0
1001
ACAD
1000
AcDbSavedByObjectVersion
1070
     0
  0
VISUALSTYLE
  5
2C8
102
{ACAD_XDICTIONARY
360
35F
102
}
102
{ACAD_REACTORS
330
2B2
102
}
330
2B2
100
AcDbVisualStyle
  2
JitterOff
 70
    20
 71
     2
 72
     2
 73
     0
 90
        0
 40
-0.6
 41
-30.0
 62
     5
 63
     7
 74
     1
 91
        4
 64
     7
 65
   257
 75
     1
175
     1
 42
1.0
 92
       10
 66
     7
 43
1.0
 76
     1
 77
     6
 78
     2
 67
     7
 79
     5
170
     0
171
     0
290
     0
174
     0
 93
        1
 44
0.0
173
     0
291
     1
 45
0.0
1001
ACAD
1000
AcDbSavedByObjectVersion
1070
     0
  0
VISUALSTYLE
  5
2C0
102
{ACAD_XDICTIONARY
360
34F
102
}
102
{ACAD_REACTORS
330
2B2
102
}
330
2B2
100
AcDbVisualStyle
  2
Linepattern
 70
    14
 71
     2
 72
     2
 73
     0
 90
        0
 40
-0.6
 41
-30.0
 62
     5
 63
     7
 74
     1
 91
        4
 64
     7
 65
   257
 75
     7
175
     7
 42
1.0
 92
        8
 66
     7
 43
1.0
 76
     1
 77
     6
 78
     2
 67
     7
 79
     5
170
     0
171
     0
290
     0
174
     0
 93
        1
 44
0.0
173
     0
291
     1
 45
0.0
1001
ACAD
1000
AcDbSavedByObjectVersion
1070
     0
  0
VISUALSTYLE
  5
2C9
102
{ACAD_XDICTIONARY
360
361
102
}
102
{ACAD_REACTORS
330
2B2
102
}
330
2B2
100
AcDbVisualStyle
  2
OverhangOff
 70
    21
 71
     2
 72
     2
 73
     0
 90
        0
 40
-0.6
 41
-30.0
 62
     5
 63
     7
 74
     1
 91
        4
 64
     7
 65
   257
 75
     1
175
     1
 42
1.0
 92
        9
 66
     7
 43
1.0
 76
     1
 77
     6
 78
     2
 67
     7
 79
     5
170
     0
171
     0
290
     0
174
     0
 93
        1
 44
0.0
173
     0
291
     1
 45
0.0
1001
ACAD
1000
AcDbSavedByObjectVersion
1070
     0
  0
VISUALSTYLE
  5
2BC
102
{ACAD_XDICTIONARY
360
347
102
}
102
{ACAD_REACTORS
330
2B2
102
}
330
2B2
100
AcDbVisualStyle
  2
Realistic
 70
     8
 71
     2
 72
     3
 73
     0
 90
        2
 40
-0.6
 41
30.0
 62
     5
 63
     7
 74
     0
 91
        0
 64
     7
 65
   257
 75
     1
175
     1
 42
1.0
 92
        8
 66
   257
 43
1.0
 76
     1
 77
     6
 78
     2
 67
     7
 79
     3
170
     0
171
     0
290
     0
174
     0
 93
       13
 44
0.0
173
     0
291
     0
 45
0.0
1001
ACAD
1000
AcDbSavedByObjectVersion
1070
     0
  0
VISUALSTYLE
  5
2C7
102
{ACAD_XDICTIONARY
360
35D
102
}
102
{ACAD_REACTORS
330
2B2
102
}
330
2B2
100
AcDbVisualStyle
  2
Shaded
 70
    27
 71
     2
 72
     2
 73
     1
 90
        2
 40
-0.6
 41
30.0
 62
     5
 63
     7
 74
     0
 91
        4
 64
     7
 65
   257
 75
     1
175
     1
 42
1.0
 92
        8
 66
   257
 43
1.0
 76
     1
 77
     6
 78
     2
 67
     8
 79
     3
170
     0
171
     0
290
     0
174
     0
 93
        5
 44
0.0
173
     0
291
     0
 45
0.0
1001
ACAD
1000
AcDbSavedByObjectVersion
1070
     0
  0
VISUALSTYLE
  5
2C6
102
{ACAD_XDICTIONARY
360
35B
102
}
102
{ACAD_REACTORS
330
2B2
102
}
330
2B2
100
AcDbVisualStyle
  2
Shaded with edges
 70
    26
 71
     2
 72
     2
 73
     1
 90
        2
 40
-0.6
 41
30.0
 62
     5
 63
     7
 74
     1
 91
        2
 64
     7
 65
   257
 75
     2
175
     1
 42
1.0
 92
        8
 66
   257
 43
1.0
 76
     1
 77
     6
 78
     2
 67
     7
 79
     3
170
     0
171
     0
290
     0
174
     0
 93
        5
 44
0.0
173
     0
291
     0
 45
0.0
1001
ACAD
1000
AcDbSavedByObjectVersion
1070
     0
  0
VISUALSTYLE
  5
2C3
102
{ACAD_XDICTIONARY
360
355
102
}
102
{ACAD_REACTORS
330
2B2
102
}
330
2B2
100
AcDbVisualStyle
  2
Shades of Gray
 70
    23
 71
     2
 72
     2
 73
     3
 90
        0
 40
-0.6
 41
-30.0
 62
     5
 63
     7
 74
     2
 91
        2
 64
     7
 65
     7
 75
     1
175
     1
 42
40.0
 92
        8
 66
     7
 43
1.0
 76
     1
 77
     6
 78
     2
 67
     7
 79
     3
170
     0
171
     0
290
     0
174
     0
 93
        1
 44
0.0
173
     0
291
     0
 45
0.0
1001
ACAD
1000
AcDbSavedByObjectVersion
1070
     0
  0
VISUALSTYLE
  5
2C4
102
{ACAD_XDICTIONARY
360
357
102
}
102
{ACAD_REACTORS
330
2B2
102
}
330
2B2
100
AcDbVisualStyle
  2
Sketchy
 70
    24
 71
     1
 72
     2
 73
     2
 90
        0
 40
-0.6
 41
-30.0
 62
     5
 63
     7
 74
     2
 91
        2
 64
     7
 65
     7
 75
     1
175
     1
 42
40.0
 92
       11
 66
     7
 43
1.0
 76
     1
 77
     6
 78
     2
 67
     7
 79
     6
170
     0
171
     0
290
     0
174
     0
 93
        1
 44
0.0
173
     0
291
     0
 45
0.0
1001
ACAD
1000
AcDbSavedByObjectVersion
1070
     0
  0
VISUALSTYLE
  5
2BF
102
{ACAD_XDICTIONARY
360
34D
102
}
102
{ACAD_REACTORS
330
2B2
102
}
330
2B2
100
AcDbVisualStyle
  2
Thicken
 70
    13
 71
     2
 72
     2
 73
     0
 90
        0
 40
-0.6
 41
-30.0
 62
     5
 63
     7
 74
     1
 91
        4
 64
     7
 65
   257
 75
     1
175
     1
 42
1.0
 92
       12
 66
     7
 43
1.0
 76
     1
 77
     6
 78
     2
 67
     7
 79
     5
170
     0
171
     0
290
     0
174
     0
 93
        1
 44
0.0
173
     0
291
     1
 45
0.0
1001
ACAD
1000
AcDbSavedByObjectVersion
1070
     0
  0
VISUALSTYLE
  5
2B9
102
{ACAD_XDICTIONARY
360
341
102
}
102
{ACAD_REACTORS
330
2B2
102
}
330
2B2
100
AcDbVisualStyle
  2
Wireframe
 70
     5
 71
     0
 72
     2
 73
     0
 90
        0
 40
-0.6
 41
-30.0
 62
     5
 63
     7
 74
     1
 91
        4
 64
     7
 65
   257
 75
     1
175
     1
 42
1.0
 92
        0
 66
   257
 43
1.0
 76
     1
 77
     6
 78
     2
 67
     7
 79
     3
170
     0
171
     0
290
     0
174
     0
 93
        1
 44
0.0
173
     0
291
     0
 45
0.0
1001
ACAD
1000
AcDbSavedByObjectVersion
1070
     0
  0
VISUALSTYLE
  5
2C5
102
{ACAD_XDICTIONARY
360
359
102
}
102
{ACAD_REACTORS
330
2B2
102
}
330
2B2
100
AcDbVisualStyle
  2
X-Ray
 70
    25
 71
     2
 72
     2
 73
     1
 90
        1
 40
0.5
 41
-30.0
 62
     5
 63
     7
 74
     1
 91
        0
 64
     7
 65
   257
 75
     1
175
     1
 42
1.0
 92
        8
 66
     7
 43
1.0
 76
     1
 77
     6
 78
     2
 67
     7
 79
     3
170
     0
171
     0
290
     0
174
     0
 93
       13
 44
0.0
173
     0
291
     0
 45
0.0
1001
ACAD
1000
AcDbSavedByObjectVersion
1070
     0
  0
DICTIONARYVAR
  5
328
102
{ACAD_REACTORS
330
323
102
}
330
323
100
DictionaryVariables
280
     0
  1
1:1
  0
DICTIONARYVAR
  5
325
102
{ACAD_REACTORS
330
323
102
}
330
323
100
DictionaryVariables
280
     0
  1
STANDARD
  0
DICTIONARYVAR
  5
324
102
{ACAD_REACTORS
330
323
102
}
330
323
100
DictionaryVariables
280
     0
  1
STANDARD
  0
DICTIONARYVAR
  5
326
102
{ACAD_REACTORS
330
323
102
}
330
323
100
DictionaryVariables
280
     0
  1
Imperial24
  0
DICTIONARYVAR
  5
327
102
{ACAD_REACTORS
330
323
102
}
330
323
100
DictionaryVariables
280
     0
  1
Imperial24
  0
DICTIONARYVAR
  5
32B
102
{ACAD_REACTORS
330
323
102
}
330
323
100
DictionaryVariables
280
     0
  1
1
  0
DICTIONARYVAR
  5
32A
102
{ACAD_REACTORS
330
323
102
}
330
323
100
DictionaryVariables
280
     0
  1
0
  0
DICTIONARYVAR
  5
329
102
{ACAD_REACTORS
330
323
102
}
330
323
100
DictionaryVariables
280
     0
  1
127
  0
DICTIONARYVAR
  5
32C
102
{ACAD_REACTORS
330
323
102
}
330
323
100
DictionaryVariables
280
     0
  1
2
  0
DICTIONARY
  5
369
330
2F3
100
AcDbDictionary
280
     1
281
     1
  3
ACAD_XREC_ROUNDTRIP
360
36A
  0
DICTIONARY
  5
36D
330
2FB
100
AcDbDictionary
280
     1
281
     1
  3
ACAD_XREC_ROUNDTRIP
360
36E
  0
DICTIONARY
  5
36B
330
2F7
100
AcDbDictionary
280
     1
281
     1
  3
ACAD_XREC_ROUNDTRIP
360
36C
  0
DICTIONARY
  5
2A3
330
2A2
100
AcDbDictionary
280
     1
281
     1
  3
ACAD_XREC_ROUNDTRIP
360
333
  3
BUMPTILE
360
2A5
  3
DIFFUSETILE
360
2A4
  3
OPACITYTILE
360
2A8
  3
REFLECTIONTILE
360
2A7
  3
REFRACTIONTILE
360
2A9
  3
SPECULARTILE
360
2A6
  0
DICTIONARY
  5
29B
330
29A
100
AcDbDictionary
280
     1
281
     1
  3
ACAD_XREC_ROUNDTRIP
360
332
  3
BUMPTILE
360
29D
  3
DIFFUSETILE
360
29C
  3
OPACITYTILE
360
2A0
  3
REFLECTIONTILE
360
29F
  3
REFRACTIONTILE
360
2A1
  3
SPECULARTILE
360
29E
  0
DICTIONARY
  5
2AB
330
2AA
100
AcDbDictionary
280
     1
281
     1
  3
ACAD_XREC_ROUNDTRIP
360
334
  3
BUMPTILE
360
2AD
  3
DIFFUSETILE
360
2AC
  3
OPACITYTILE
360
2B0
  3
REFLECTIONTILE
360
2AF
  3
REFRACTIONTILE
360
2B1
  3
SPECULARTILE
360
2AE
  0
DICTIONARY
  5
367
330
2F1
100
AcDbDictionary
280
     1
281
     1
  3
ACAD_XREC_ROUNDTRIP
360
368
  0
DICTIONARY
  5
32E
330
2ED
100
AcDbDictionary
280
     1
281
     1
  3
ACAD_ROUNDTRIP_2008_TABLESTYLE_CELLSTYLEMAP
360
32F
  3
ACAD_XREC_ROUNDTRIP
360
365
  0
DICTIONARY
  5
33F
330
2B8
100
AcDbDictionary
280
     1
281
     1
  3
ACAD_XREC_ROUNDTRIP
360
340
  0
DICTIONARY
  5
33D
330
2B7
100
AcDbDictionary
280
     1
281
     1
  3
ACAD_XREC_ROUNDTRIP
360
33E
  0
DICTIONARY
  5
34B
330
2BE
100
AcDbDictionary
280
     1
281
     1
  3
ACAD_XREC_ROUNDTRIP
360
34C
  0
DICTIONARY
  5
353
330
2C2
100
AcDbDictionary
280
     1
281
     1
  3
ACAD_XREC_ROUNDTRIP
360
354
  0
DICTIONARY
  5
345
330
2BB
100
AcDbDictionary
280
     1
281
     1
  3
ACAD_XREC_ROUNDTRIP
360
346
  0
DICTIONARY
  5
349
330
2BD
100
AcDbDictionary
280
     1
281
     1
  3
ACAD_XREC_ROUNDTRIP
360
34A
  0
DICTIONARY
  5
363
330
2CA
100
AcDbDictionary
280
     1
281
     1
  3
ACAD_XREC_ROUNDTRIP
360
364
  0
DICTIONARY
  5
351
330
2C1
100
AcDbDictionary
280
     1
281
     1
  3
ACAD_XREC_ROUNDTRIP
360
352
  0
DICTIONARY
  5
335
330
2B3
100
AcDbDictionary
280
     1
281
     1
  3
ACAD_XREC_ROUNDTRIP
360
336
  0
DICTIONARY
  5
337
330
2B4
100
AcDbDictionary
280
     1
281
     1
  3
ACAD_XREC_ROUNDTRIP
360
338
  0
DICTIONARY
  5
339
330
2B5
100
AcDbDictionary
280
     1
281
     1
  3
ACAD_XREC_ROUNDTRIP
360
33A
  0
DICTIONARY
  5
33B
330
2B6
100
AcDbDictionary
280
     1
281
     1
  3
ACAD_XREC_ROUNDTRIP
360
33C
  0
DICTIONARY
  5
343
330
2BA
100
AcDbDictionary
280
     1
281
     1
  3
ACAD_XREC_ROUNDTRIP
360
344
  0
DICTIONARY
  5
35F
330
2C8
100
AcDbDictionary
280
     1
281
     1
  3
ACAD_XREC_ROUNDTRIP
360
360
  0
DICTIONARY
  5
34F
330
2C0
100
AcDbDictionary
280
     1
281
     1
  3
ACAD_XREC_ROUNDTRIP
360
350
  0
DICTIONARY
  5
361
330
2C9
100
AcDbDictionary
280
     1
281
     1
  3
ACAD_XREC_ROUNDTRIP
360
362
  0
DICTIONARY
  5
347
330
2BC
100
AcDbDictionary
280
     1
281
     1
  3
ACAD_XREC_ROUNDTRIP
360
348
  0
DICTIONARY
  5
35D
330
2C7
100
AcDbDictionary
280
     1
281
     1
  3
ACAD_XREC_ROUNDTRIP
360
35E
  0
DICTIONARY
  5
35B
330
2C6
100
AcDbDictionary
280
     1
281
     1
  3
ACAD_XREC_ROUNDTRIP
360
35C
  0
DICTIONARY
  5
355
330
2C3
100
AcDbDictionary
280
     1
281
     1
  3
ACAD_XREC_ROUNDTRIP
360
356
  0
DICTIONARY
  5
357
330
2C4
100
AcDbDictionary
280
     1
281
     1
  3
ACAD_XREC_ROUNDTRIP
360
358
  0
DICTIONARY
  5
34D
330
2BF
100
AcDbDictionary
280
     1
281
     1
  3
ACAD_XREC_ROUNDTRIP
360
34E
  0
DICTIONARY
  5
341
330
2B9
100
AcDbDictionary
280
     1
281
     1
  3
ACAD_XREC_ROUNDTRIP
360
342
  0
DICTIONARY
  5
359
330
2C5
100
AcDbDictionary
280
     1
281
     1
  3
ACAD_XREC_ROUNDTRIP
360
35A
  0
XRECORD
  5
36A
102
{ACAD_REACTORS
330
369
102
}
330
369
100
AcDbXrecord
280
     1
102
DISPLAYNAME
  1
Imperial24
102
FLAGS
 90
        0
  0
XRECORD
  5
36E
102
{ACAD_REACTORS
330
36D
102
}
330
36D
100
AcDbXrecord
280
     1
102
SHADEPLOT
 70
     0
102
SHADEPLOTRESLEVEL
 70
     2
102
SHADEPLOTCUSTOMDPI
 70
   300
  0
XRECORD
  5
36C
102
{ACAD_REACTORS
330
36B
102
}
330
36B
100
AcDbXrecord
280
     1
102
SHADEPLOT
 70
     0
102
SHADEPLOTRESLEVEL
 70
     2
102
SHADEPLOTCUSTOMDPI
 70
   300
  0
XRECORD
  5
333
102
{ACAD_REACTORS
330
2A3
102
}
330
2A3
100
AcDbXrecord
280
     1
102
MATERIAL
148
0.0
149
0.0
149
0.0
 93
        0
 94
      127
282
     0
 72
     0
 77
     0
171
     0
175
     0
179
     0
273
     0
  0
XRECORD
  5
2A5
102
{ACAD_REACTORS
330
2A3
102
}
330
2A3
100
AcDbXrecord
280
     1
270
     1
271
     1
  0
XRECORD
  5
2A4
102
{ACAD_REACTORS
330
2A3
102
}
330
2A3
100
AcDbXrecord
280
     1
270
     1
271
     1
  0
XRECORD
  5
2A8
102
{ACAD_REACTORS
330
2A3
102
}
330
2A3
100
AcDbXrecord
280
     1
270
     1
271
     1
  0
XRECORD
  5
2A7
102
{ACAD_REACTORS
330
2A3
102
}
330
2A3
100
AcDbXrecord
280
     1
270
     1
271
     1
  0
XRECORD
  5
2A9
102
{ACAD_REACTORS
330
2A3
102
}
330
2A3
100
AcDbXrecord
280
     1
270
     1
271
     1
  0
XRECORD
  5
2A6
102
{ACAD_REACTORS
330
2A3
102
}
330
2A3
100
AcDbXrecord
280
     1
270
     1
271
     1
  0
XRECORD
  5
332
102
{ACAD_REACTORS
330
29B
102
}
330
29B
100
AcDbXrecord
280
     1
102
MATERIAL
148
0.0
149
0.0
149
0.0
 93
        0
 94
      127
282
     0
 72
     0
 77
     0
171
     0
175
     0
179
     0
273
     0
  0
XRECORD
  5
29D
102
{ACAD_REACTORS
330
29B
102
}
330
29B
100
AcDbXrecord
280
     1
270
     1
271
     1
  0
XRECORD
  5
29C
102
{ACAD_REACTORS
330
29B
102
}
330
29B
100
AcDbXrecord
280
     1
270
     1
271
     1
  0
XRECORD
  5
2A0
102
{ACAD_REACTORS
330
29B
102
}
330
29B
100
AcDbXrecord
280
     1
270
     1
271
     1
  0
XRECORD
  5
29F
102
{ACAD_REACTORS
330
29B
102
}
330
29B
100
AcDbXrecord
280
     1
270
     1
271
     1
  0
XRECORD
  5
2A1
102
{ACAD_REACTORS
330
29B
102
}
330
29B
100
AcDbXrecord
280
     1
270
     1
271
     1
  0
XRECORD
  5
29E
102
{ACAD_REACTORS
330
29B
102
}
330
29B
100
AcDbXrecord
280
     1
270
     1
271
     1
  0
XRECORD
  5
334
102
{ACAD_REACTORS
330
2AB
102
}
330
2AB
100
AcDbXrecord
280
     1
102
MATERIAL
148
0.0
149
0.0
149
0.0
 93
        0
 94
      127
282
     0
 72
     0
 77
     0
171
     0
175
     0
179
     0
273
     0
  0
XRECORD
  5
2AD
102
{ACAD_REACTORS
330
2AB
102
}
330
2AB
100
AcDbXrecord
280
     1
270
     1
271
     1
  0
XRECORD
  5
2AC
102
{ACAD_REACTORS
330
2AB
102
}
330
2AB
100
AcDbXrecord
280
     1
270
     1
271
     1
  0
XRECORD
  5
2B0
102
{ACAD_REACTORS
330
2AB
102
}
330
2AB
100
AcDbXrecord
280
     1
270
     1
271
     1
  0
XRECORD
  5
2AF
102
{ACAD_REACTORS
330
2AB
102
}
330
2AB
100
AcDbXrecord
280
     1
270
     1
271
     1
  0
XRECORD
  5
2B1
102
{ACAD_REACTORS
330
2AB
102
}
330
2AB
100
AcDbXrecord
280
     1
270
     1
271
     1
  0
XRECORD
  5
2AE
102
{ACAD_REACTORS
330
2AB
102
}
330
2AB
100
AcDbXrecord
280
     1
270
     1
271
     1
  0
XRECORD
  5
368
102
{ACAD_REACTORS
330
367
102
}
330
367
100
AcDbXrecord
280
     1
102
DISPLAYNAME
  1
Imperial24
102
FLAGS
 90
        0
  0
CELLSTYLEMAP
  5
32F
102
{ACAD_REACTORS
330
32E
102
}
330
32E
100
AcDbCellStyleMap
 90
        3
300
CELLSTYLE
  1
TABLEFORMAT_BEGIN
 90
        5
170
     1
 91
        0
 92
    32768
 62
   257
 93
        1
300
CONTENTFORMAT
  1
CONTENTFORMAT_BEGIN
 90
        0
 91
        0
 92
      512
 93
        0
300

 40
0.0
140
1.0
 94
        5
 62
     0
340
2DE
144
0.25
309
CONTENTFORMAT_END
171
     0
 94
        0
309
TABLEFORMAT_END
  1
CELLSTYLE_BEGIN
 90
        1
 91
        1
300
_TITLE
309
CELLSTYLE_END
300
CELLSTYLE
  1
TABLEFORMAT_BEGIN
 90
        5
170
     1
 91
        0
 92
        0
 62
   257
 93
        1
300
CONTENTFORMAT
  1
CONTENTFORMAT_BEGIN
 90
        0
 91
        0
 92
      512
 93
        0
300

 40
0.0
140
1.0
 94
        5
 62
     0
340
2DE
144
0.18
309
CONTENTFORMAT_END
171
     0
 94
        0
309
TABLEFORMAT_END
  1
CELLSTYLE_BEGIN
 90
        2
 91
        1
300
_HEADER
309
CELLSTYLE_END
300
CELLSTYLE
  1
TABLEFORMAT_BEGIN
 90
        5
170
     1
 91
        0
 92
        0
 62
   257
 93
        1
300
CONTENTFORMAT
  1
CONTENTFORMAT_BEGIN
 90
        0
 91
        0
 92
      512
 93
        0
300

 40
0.0
140
1.0
 94
        2
 62
     0
340
2DE
144
0.18
309
CONTENTFORMAT_END
171
     0
 94
        0
309
TABLEFORMAT_END
  1
CELLSTYLE_BEGIN
 90
        3
 91
        2
300
_DATA
309
CELLSTYLE_END
  0
XRECORD
  5
365
102
{ACAD_REACTORS
330
32E
102
}
330
32E
100
AcDbXrecord
280
     1
102
ACAD_ROUNDTRIP_PRE2007_TABLESTYLE
 90
      512
 91
        0
  1

 92
      512
 93
        0
  2

 94
      512
 95
        0
  3

  0
XRECORD
  5
340
102
{ACAD_REACTORS
330
33F
102
}
330
33F
100
AcDbXrecord
280
     1
102
RTVSPost2010Prop28
280
     1
102
RTVSPost2010PropOp28
 70
     1
102
RTVSPost2010Prop29
280
     1
102
RTVSPost2010PropOp29
 70
     1
102
RTVSPost2010Prop30
280
     0
102
RTVSPost2010PropOp30
 70
     1
102
RTVSPost2010Prop31
280
     0
102
RTVSPost2010PropOp31
 70
     1
102
RTVSPost2010Prop32
280
     0
102
RTVSPost2010PropOp32
 70
     1
102
RTVSPost2010Prop33
280
     0
102
RTVSPost2010PropOp33
 70
     1
102
RTVSPost2010Prop34
280
     0
102
RTVSPost2010PropOp34
 70
     1
102
RTVSPost2010Prop35
280
     0
102
RTVSPost2010PropOp35
 70
     1
102
RTVSPost2010Prop36
280
     0
102
RTVSPost2010PropOp36
 70
     1
102
RTVSPost2010Prop37
 90
       50
102
RTVSPost2010PropOp37
 70
     1
102
RTVSPost2010Prop38
140
0.0
102
RTVSPost2010PropOp38
 70
     1
102
RTVSPost2010Prop39
140
1.0
102
RTVSPost2010PropOp39
 70
     1
102
RTVSPost2010Prop40
 90
        0
102
RTVSPost2010PropOp40
 70
     1
102
RTVSPost2010Prop41ColorIndex
 90
       18
102
RTVSPost2010Prop41ColorRGB
 90
        0
102
RTVSPost2010PropOp41
 70
     1
102
RTVSPost2010Prop42
 90
       50
102
RTVSPost2010PropOp42
 70
     1
102
RTVSPost2010Prop43
 90
        3
102
RTVSPost2010PropOp43
 70
     1
102
RTVSPost2010Prop44ColorIndex
 90
        5
102
RTVSPost2010Prop44ColorRGB
 90
      255
102
RTVSPost2010PropOp44
 70
     1
102
RTVSPost2010Prop45
280
     0
102
RTVSPost2010PropOp45
 70
     1
102
RTVSPost2010Prop46
 90
       50
102
RTVSPost2010PropOp46
 70
     1
102
RTVSPost2010Prop47
 90
       50
102
RTVSPost2010PropOp47
 70
     1
102
RTVSPost2010Prop48
 90
       50
102
RTVSPost2010PropOp48
 70
     1
102
RTVSPost2010Prop49
280
     0
102
RTVSPost2010PropOp49
 70
     1
102
RTVSPost2010Prop50
 90
       50
102
RTVSPost2010PropOp50
 70
     1
102
RTVSPost2010Prop51ColorIndex
 90
      256
102
RTVSPost2010Prop51ColorRGB
 90
-16777216
102
RTVSPost2010PropOp51
 70
     0
102
RTVSPost2010Prop52
140
1.0
102
RTVSPost2010PropOp52
 70
     0
102
RTVSPost2010Prop53
 90
        2
102
RTVSPost2010PropOp53
 70
     1
102
RTVSPost2010Prop54
  1
strokes_ogs.tif
102
RTVSPost2010PropOp54
 70
     1
102
RTVSPost2010Prop55
280
     0
102
RTVSPost2010PropOp55
 70
     1
102
RTVSPost2010Prop56
140
1.0
102
RTVSPost2010PropOp56
 70
     1
102
RTVSPost2010Prop57
140
1.0
102
RTVSPost2010PropOp57
 70
     1
102
RTVSPropertyOp0
 70
     1
102
RTVSPropertyOp1
 70
     1
102
RTVSPropertyOp2
 70
     1
102
RTVSPropertyOp3
 70
     1
102
RTVSPropertyOp4
 70
     1
102
RTVSPropertyOp5
 70
     1
102
RTVSPropertyOp6
 70
     1
102
RTVSPropertyOp7
 70
     1
102
RTVSPropertyOp8
 70
     1
102
RTVSPropertyOp9
 70
     1
102
RTVSPropertyOp10
 70
     1
102
RTVSPropertyOp11
 70
     1
102
RTVSPropertyOp12
 70
     1
102
RTVSPropertyOp13
 70
     1
102
RTVSPropertyOp14
 70
     1
102
RTVSPropertyOp15
 70
     1
102
RTVSPropertyOp16
 70
     1
102
RTVSPropertyOp17
 70
     1
102
RTVSPropertyOp18
 70
     1
102
RTVSPropertyOp19
 70
     1
102
RTVSPropertyOp20
 70
     1
102
RTVSPropertyOp21
 70
     1
102
RTVSPropertyOp22
 70
     1
102
RTVSPropertyOp23
 70
     1
102
RTVSPropertyOp24
 70
     1
102
RTVSPropertyOp25
 70
     1
102
RTVSPropertyOp26
 70
     1
102
RTVSPropertyOp27
 70
     1
102
RTVSPropertyOp28
 70
     1
102
RTVSPropertyOp29
 70
     1
102
RTVSPropertyOp30
 70
     1
102
RTVSPropertyOp31
 70
     1
102
RTVSPropertyOp32
 70
     1
102
RTVSPropertyOp33
 70
     1
102
RTVSPropertyOp34
 70
     1
102
RTVSPropertyOp35
 70
     1
102
RTVSPropertyOp36
 70
     1
102
RTVSPropertyOp37
 70
     1
102
RTVSPropertyOp38
 70
     1
102
RTVSPropertyOp39
 70
     1
102
RTVSPropertyOp40
 70
     1
102
RTVSPropertyOp41
 70
     1
102
RTVSPropertyOp42
 70
     1
102
RTVSPropertyOp43
 70
     1
102
RTVSPropertyOp44
 70
     1
102
RTVSPropertyOp45
 70
     1
102
RTVSPropertyOp46
 70
     1
102
RTVSPropertyOp47
 70
     1
102
RTVSPropertyOp48
 70
     1
102
RTVSPropertyOp49
 70
     1
102
RTVSPropertyOp50
 70
     1
102
RTVSPropertyOp51
 70
     0
102
RTVSPropertyOp52
 70
     0
102
RTVSPropertyOp53
 70
     1
102
RTVSPropertyOp54
 70
     1
102
RTVSPropertyOp55
 70
     1
102
RTVSPropertyOp56
 70
     1
102
RTVSPropertyOp57
 70
     1
102
RTVSPropertyOp58
 70
     1
102
RTVSPropertyOp59
 70
     1
102
RTVSPropertyOp60
 70
     1
102
RTVSPropertyOp61
 70
     1
102
RTVSPropertyOp62
 70
     1
  0
XRECORD
  5
33E
102
{ACAD_REACTORS
330
33D
102
}
330
33D
100
AcDbXrecord
280
     1
102
RTVSPost2010Prop28
280
     0
102
RTVSPost2010PropOp28
 70
     1
102
RTVSPost2010Prop29
280
     1
102
RTVSPost2010PropOp29
 70
     1
102
RTVSPost2010Prop30
280
     1
102
RTVSPost2010PropOp30
 70
     1
102
RTVSPost2010Prop31
280
     0
102
RTVSPost2010PropOp31
 70
     1
102
RTVSPost2010Prop32
280
     0
102
RTVSPost2010PropOp32
 70
     1
102
RTVSPost2010Prop33
280
     0
102
RTVSPost2010PropOp33
 70
     1
102
RTVSPost2010Prop34
280
     0
102
RTVSPost2010PropOp34
 70
     1
102
RTVSPost2010Prop35
280
     0
102
RTVSPost2010PropOp35
 70
     1
102
RTVSPost2010Prop36
280
     0
102
RTVSPost2010PropOp36
 70
     1
102
RTVSPost2010Prop37
 90
       50
102
RTVSPost2010PropOp37
 70
     1
102
RTVSPost2010Prop38
140
0.0
102
RTVSPost2010PropOp38
 70
     1
102
RTVSPost2010Prop39
140
1.0
102
RTVSPost2010PropOp39
 70
     1
102
RTVSPost2010Prop40
 90
        0
102
RTVSPost2010PropOp40
 70
     1
102
RTVSPost2010Prop41ColorIndex
 90
       18
102
RTVSPost2010Prop41ColorRGB
 90
        0
102
RTVSPost2010PropOp41
 70
     1
102
RTVSPost2010Prop42
 90
       50
102
RTVSPost2010PropOp42
 70
     1
102
RTVSPost2010Prop43
 90
        3
102
RTVSPost2010PropOp43
 70
     1
102
RTVSPost2010Prop44ColorIndex
 90
        5
102
RTVSPost2010Prop44ColorRGB
 90
      255
102
RTVSPost2010PropOp44
 70
     1
102
RTVSPost2010Prop45
280
     0
102
RTVSPost2010PropOp45
 70
     1
102
RTVSPost2010Prop46
 90
       50
102
RTVSPost2010PropOp46
 70
     1
102
RTVSPost2010Prop47
 90
       50
102
RTVSPost2010PropOp47
 70
     1
102
RTVSPost2010Prop48
 90
       50
102
RTVSPost2010PropOp48
 70
     1
102
RTVSPost2010Prop49
280
     0
102
RTVSPost2010PropOp49
 70
     1
102
RTVSPost2010Prop50
 90
       50
102
RTVSPost2010PropOp50
 70
     1
102
RTVSPost2010Prop51ColorIndex
 90
      256
102
RTVSPost2010Prop51ColorRGB
 90
-16777216
102
RTVSPost2010PropOp51
 70
     0
102
RTVSPost2010Prop52
140
1.0
102
RTVSPost2010PropOp52
 70
     0
102
RTVSPost2010Prop53
 90
        2
102
RTVSPost2010PropOp53
 70
     1
102
RTVSPost2010Prop54
  1
strokes_ogs.tif
102
RTVSPost2010PropOp54
 70
     1
102
RTVSPost2010Prop55
280
     0
102
RTVSPost2010PropOp55
 70
     1
102
RTVSPost2010Prop56
140
1.0
102
RTVSPost2010PropOp56
 70
     1
102
RTVSPost2010Prop57
140
1.0
102
RTVSPost2010PropOp57
 70
     1
102
RTVSPropertyOp0
 70
     1
102
RTVSPropertyOp1
 70
     1
102
RTVSPropertyOp2
 70
     1
102
RTVSPropertyOp3
 70
     1
102
RTVSPropertyOp4
 70
     1
102
RTVSPropertyOp5
 70
     1
102
RTVSPropertyOp6
 70
     1
102
RTVSPropertyOp7
 70
     1
102
RTVSPropertyOp8
 70
     1
102
RTVSPropertyOp9
 70
     1
102
RTVSPropertyOp10
 70
     1
102
RTVSPropertyOp11
 70
     1
102
RTVSPropertyOp12
 70
     1
102
RTVSPropertyOp13
 70
     1
102
RTVSPropertyOp14
 70
     1
102
RTVSPropertyOp15
 70
     1
102
RTVSPropertyOp16
 70
     1
102
RTVSPropertyOp17
 70
     1
102
RTVSPropertyOp18
 70
     1
102
RTVSPropertyOp19
 70
     1
102
RTVSPropertyOp20
 70
     1
102
RTVSPropertyOp21
 70
     1
102
RTVSPropertyOp22
 70
     1
102
RTVSPropertyOp23
 70
     1
102
RTVSPropertyOp24
 70
     1
102
RTVSPropertyOp25
 70
     1
102
RTVSPropertyOp26
 70
     1
102
RTVSPropertyOp27
 70
     1
102
RTVSPropertyOp28
 70
     1
102
RTVSPropertyOp29
 70
     1
102
RTVSPropertyOp30
 70
     1
102
RTVSPropertyOp31
 70
     1
102
RTVSPropertyOp32
 70
     1
102
RTVSPropertyOp33
 70
     1
102
RTVSPropertyOp34
 70
     1
102
RTVSPropertyOp35
 70
     1
102
RTVSPropertyOp36
 70
     1
102
RTVSPropertyOp37
 70
     1
102
RTVSPropertyOp38
 70
     1
102
RTVSPropertyOp39
 70
     1
102
RTVSPropertyOp40
 70
     1
102
RTVSPropertyOp41
 70
     1
102
RTVSPropertyOp42
 70
     1
102
RTVSPropertyOp43
 70
     1
102
RTVSPropertyOp44
 70
     1
102
RTVSPropertyOp45
 70
     1
102
RTVSPropertyOp46
 70
     1
102
RTVSPropertyOp47
 70
     1
102
RTVSPropertyOp48
 70
     1
102
RTVSPropertyOp49
 70
     1
102
RTVSPropertyOp50
 70
     1
102
RTVSPropertyOp51
 70
     0
102
RTVSPropertyOp52
 70
     0
102
RTVSPropertyOp53
 70
     1
102
RTVSPropertyOp54
 70
     1
102
RTVSPropertyOp55
 70
     1
102
RTVSPropertyOp56
 70
     1
102
RTVSPropertyOp57
 70
     1
102
RTVSPropertyOp58
 70
     1
102
RTVSPropertyOp59
 70
     1
102
RTVSPropertyOp60
 70
     1
102
RTVSPropertyOp61
 70
     1
102
RTVSPropertyOp62
 70
     1
  0
XRECORD
  5
34C
102
{ACAD_REACTORS
330
34B
102
}
330
34B
100
AcDbXrecord
280
     1
102
RTVSPost2010Prop28
280
     0
102
RTVSPost2010PropOp28
 70
     1
102
RTVSPost2010Prop29
280
     1
102
RTVSPost2010PropOp29
 70
     1
102
RTVSPost2010Prop30
280
     1
102
RTVSPost2010PropOp30
 70
     1
102
RTVSPost2010Prop31
280
     0
102
RTVSPost2010PropOp31
 70
     1
102
RTVSPost2010Prop32
280
     0
102
RTVSPost2010PropOp32
 70
     1
102
RTVSPost2010Prop33
280
     0
102
RTVSPost2010PropOp33
 70
     1
102
RTVSPost2010Prop34
280
     0
102
RTVSPost2010PropOp34
 70
     1
102
RTVSPost2010Prop35
280
     0
102
RTVSPost2010PropOp35
 70
     1
102
RTVSPost2010Prop36
280
     0
102
RTVSPost2010PropOp36
 70
     1
102
RTVSPost2010Prop37
 90
       50
102
RTVSPost2010PropOp37
 70
     1
102
RTVSPost2010Prop38
140
0.0
102
RTVSPost2010PropOp38
 70
     1
102
RTVSPost2010Prop39
140
1.0
102
RTVSPost2010PropOp39
 70
     1
102
RTVSPost2010Prop40
 90
        0
102
RTVSPost2010PropOp40
 70
     1
102
RTVSPost2010Prop41ColorIndex
 90
       18
102
RTVSPost2010Prop41ColorRGB
 90
        0
102
RTVSPost2010PropOp41
 70
     1
102
RTVSPost2010Prop42
 90
       50
102
RTVSPost2010PropOp42
 70
     1
102
RTVSPost2010Prop43
 90
        3
102
RTVSPost2010PropOp43
 70
     1
102
RTVSPost2010Prop44ColorIndex
 90
        5
102
RTVSPost2010Prop44ColorRGB
 90
      255
102
RTVSPost2010PropOp44
 70
     1
102
RTVSPost2010Prop45
280
     0
102
RTVSPost2010PropOp45
 70
     1
102
RTVSPost2010Prop46
 90
       50
102
RTVSPost2010PropOp46
 70
     1
102
RTVSPost2010Prop47
 90
       50
102
RTVSPost2010PropOp47
 70
     1
102
RTVSPost2010Prop48
 90
       50
102
RTVSPost2010PropOp48
 70
     1
102
RTVSPost2010Prop49
280
     0
102
RTVSPost2010PropOp49
 70
     1
102
RTVSPost2010Prop50
 90
       50
102
RTVSPost2010PropOp50
 70
     1
102
RTVSPost2010Prop51ColorIndex
 90
      256
102
RTVSPost2010Prop51ColorRGB
 90
-16777216
102
RTVSPost2010PropOp51
 70
     0
102
RTVSPost2010Prop52
140
1.0
102
RTVSPost2010PropOp52
 70
     0
102
RTVSPost2010Prop53
 90
        2
102
RTVSPost2010PropOp53
 70
     1
102
RTVSPost2010Prop54
  1
strokes_ogs.tif
102
RTVSPost2010PropOp54
 70
     1
102
RTVSPost2010Prop55
280
     0
102
RTVSPost2010PropOp55
 70
     1
102
RTVSPost2010Prop56
140
1.0
102
RTVSPost2010PropOp56
 70
     1
102
RTVSPost2010Prop57
140
1.0
102
RTVSPost2010PropOp57
 70
     1
102
RTVSPropertyOp0
 70
     1
102
RTVSPropertyOp1
 70
     1
102
RTVSPropertyOp2
 70
     1
102
RTVSPropertyOp3
 70
     1
102
RTVSPropertyOp4
 70
     1
102
RTVSPropertyOp5
 70
     1
102
RTVSPropertyOp6
 70
     1
102
RTVSPropertyOp7
 70
     1
102
RTVSPropertyOp8
 70
     1
102
RTVSPropertyOp9
 70
     1
102
RTVSPropertyOp10
 70
     1
102
RTVSPropertyOp11
 70
     1
102
RTVSPropertyOp12
 70
     1
102
RTVSPropertyOp13
 70
     1
102
RTVSPropertyOp14
 70
     1
102
RTVSPropertyOp15
 70
     1
102
RTVSPropertyOp16
 70
     1
102
RTVSPropertyOp17
 70
     1
102
RTVSPropertyOp18
 70
     1
102
RTVSPropertyOp19
 70
     1
102
RTVSPropertyOp20
 70
     1
102
RTVSPropertyOp21
 70
     1
102
RTVSPropertyOp22
 70
     1
102
RTVSPropertyOp23
 70
     1
102
RTVSPropertyOp24
 70
     1
102
RTVSPropertyOp25
 70
     1
102
RTVSPropertyOp26
 70
     1
102
RTVSPropertyOp27
 70
     1
102
RTVSPropertyOp28
 70
     1
102
RTVSPropertyOp29
 70
     1
102
RTVSPropertyOp30
 70
     1
102
RTVSPropertyOp31
 70
     1
102
RTVSPropertyOp32
 70
     1
102
RTVSPropertyOp33
 70
     1
102
RTVSPropertyOp34
 70
     1
102
RTVSPropertyOp35
 70
     1
102
RTVSPropertyOp36
 70
     1
102
RTVSPropertyOp37
 70
     1
102
RTVSPropertyOp38
 70
     1
102
RTVSPropertyOp39
 70
     1
102
RTVSPropertyOp40
 70
     1
102
RTVSPropertyOp41
 70
     1
102
RTVSPropertyOp42
 70
     1
102
RTVSPropertyOp43
 70
     1
102
RTVSPropertyOp44
 70
     1
102
RTVSPropertyOp45
 70
     1
102
RTVSPropertyOp46
 70
     1
102
RTVSPropertyOp47
 70
     1
102
RTVSPropertyOp48
 70
     1
102
RTVSPropertyOp49
 70
     1
102
RTVSPropertyOp50
 70
     1
102
RTVSPropertyOp51
 70
     0
102
RTVSPropertyOp52
 70
     0
102
RTVSPropertyOp53
 70
     1
102
RTVSPropertyOp54
 70
     1
102
RTVSPropertyOp55
 70
     1
102
RTVSPropertyOp56
 70
     1
102
RTVSPropertyOp57
 70
     1
102
RTVSPropertyOp58
 70
     1
102
RTVSPropertyOp59
 70
     1
102
RTVSPropertyOp60
 70
     1
102
RTVSPropertyOp61
 70
     1
102
RTVSPropertyOp62
 70
     1
  0
XRECORD
  5
354
102
{ACAD_REACTORS
330
353
102
}
330
353
100
AcDbXrecord
280
     1
102
RTVSPost2010Prop28
280
     0
102
RTVSPost2010PropOp28
 70
     1
102
RTVSPost2010Prop29
280
     1
102
RTVSPost2010PropOp29
 70
     1
102
RTVSPost2010Prop30
280
     1
102
RTVSPost2010PropOp30
 70
     1
102
RTVSPost2010Prop31
280
     0
102
RTVSPost2010PropOp31
 70
     1
102
RTVSPost2010Prop32
280
     0
102
RTVSPost2010PropOp32
 70
     1
102
RTVSPost2010Prop33
280
     0
102
RTVSPost2010PropOp33
 70
     1
102
RTVSPost2010Prop34
280
     0
102
RTVSPost2010PropOp34
 70
     1
102
RTVSPost2010Prop35
280
     0
102
RTVSPost2010PropOp35
 70
     1
102
RTVSPost2010Prop36
280
     0
102
RTVSPost2010PropOp36
 70
     1
102
RTVSPost2010Prop37
 90
       50
102
RTVSPost2010PropOp37
 70
     1
102
RTVSPost2010Prop38
140
0.0
102
RTVSPost2010PropOp38
 70
     1
102
RTVSPost2010Prop39
140
1.0
102
RTVSPost2010PropOp39
 70
     1
102
RTVSPost2010Prop40
 90
        0
102
RTVSPost2010PropOp40
 70
     1
102
RTVSPost2010Prop41ColorIndex
 90
       18
102
RTVSPost2010Prop41ColorRGB
 90
        0
102
RTVSPost2010PropOp41
 70
     1
102
RTVSPost2010Prop42
 90
       50
102
RTVSPost2010PropOp42
 70
     1
102
RTVSPost2010Prop43
 90
        3
102
RTVSPost2010PropOp43
 70
     1
102
RTVSPost2010Prop44ColorIndex
 90
        5
102
RTVSPost2010Prop44ColorRGB
 90
      255
102
RTVSPost2010PropOp44
 70
     1
102
RTVSPost2010Prop45
280
     0
102
RTVSPost2010PropOp45
 70
     1
102
RTVSPost2010Prop46
 90
       50
102
RTVSPost2010PropOp46
 70
     1
102
RTVSPost2010Prop47
 90
       50
102
RTVSPost2010PropOp47
 70
     1
102
RTVSPost2010Prop48
 90
       50
102
RTVSPost2010PropOp48
 70
     1
102
RTVSPost2010Prop49
280
     0
102
RTVSPost2010PropOp49
 70
     1
102
RTVSPost2010Prop50
 90
       50
102
RTVSPost2010PropOp50
 70
     1
102
RTVSPost2010Prop51ColorIndex
 90
      256
102
RTVSPost2010Prop51ColorRGB
 90
-16777216
102
RTVSPost2010PropOp51
 70
     0
102
RTVSPost2010Prop52
140
1.0
102
RTVSPost2010PropOp52
 70
     0
102
RTVSPost2010Prop53
 90
        2
102
RTVSPost2010PropOp53
 70
     1
102
RTVSPost2010Prop54
  1
strokes_ogs.tif
102
RTVSPost2010PropOp54
 70
     1
102
RTVSPost2010Prop55
280
     0
102
RTVSPost2010PropOp55
 70
     1
102
RTVSPost2010Prop56
140
1.0
102
RTVSPost2010PropOp56
 70
     1
102
RTVSPost2010Prop57
140
1.0
102
RTVSPost2010PropOp57
 70
     1
102
RTVSPropertyOp0
 70
     1
102
RTVSPropertyOp1
 70
     1
102
RTVSPropertyOp2
 70
     1
102
RTVSPropertyOp3
 70
     1
102
RTVSPropertyOp4
 70
     1
102
RTVSPropertyOp5
 70
     1
102
RTVSPropertyOp6
 70
     1
102
RTVSPropertyOp7
 70
     1
102
RTVSPropertyOp8
 70
     1
102
RTVSPropertyOp9
 70
     1
102
RTVSPropertyOp10
 70
     1
102
RTVSPropertyOp11
 70
     1
102
RTVSPropertyOp12
 70
     1
102
RTVSPropertyOp13
 70
     1
102
RTVSPropertyOp14
 70
     1
102
RTVSPropertyOp15
 70
     1
102
RTVSPropertyOp16
 70
     1
102
RTVSPropertyOp17
 70
     1
102
RTVSPropertyOp18
 70
     1
102
RTVSPropertyOp19
 70
     1
102
RTVSPropertyOp20
 70
     1
102
RTVSPropertyOp21
 70
     1
102
RTVSPropertyOp22
 70
     1
102
RTVSPropertyOp23
 70
     1
102
RTVSPropertyOp24
 70
     1
102
RTVSPropertyOp25
 70
     1
102
RTVSPropertyOp26
 70
     1
102
RTVSPropertyOp27
 70
     1
102
RTVSPropertyOp28
 70
     1
102
RTVSPropertyOp29
 70
     1
102
RTVSPropertyOp30
 70
     1
102
RTVSPropertyOp31
 70
     1
102
RTVSPropertyOp32
 70
     1
102
RTVSPropertyOp33
 70
     1
102
RTVSPropertyOp34
 70
     1
102
RTVSPropertyOp35
 70
     1
102
RTVSPropertyOp36
 70
     1
102
RTVSPropertyOp37
 70
     1
102
RTVSPropertyOp38
 70
     1
102
RTVSPropertyOp39
 70
     1
102
RTVSPropertyOp40
 70
     1
102
RTVSPropertyOp41
 70
     1
102
RTVSPropertyOp42
 70
     1
102
RTVSPropertyOp43
 70
     1
102
RTVSPropertyOp44
 70
     1
102
RTVSPropertyOp45
 70
     1
102
RTVSPropertyOp46
 70
     1
102
RTVSPropertyOp47
 70
     1
102
RTVSPropertyOp48
 70
     1
102
RTVSPropertyOp49
 70
     1
102
RTVSPropertyOp50
 70
     1
102
RTVSPropertyOp51
 70
     0
102
RTVSPropertyOp52
 70
     0
102
RTVSPropertyOp53
 70
     1
102
RTVSPropertyOp54
 70
     1
102
RTVSPropertyOp55
 70
     1
102
RTVSPropertyOp56
 70
     1
102
RTVSPropertyOp57
 70
     1
102
RTVSPropertyOp58
 70
     1
102
RTVSPropertyOp59
 70
     1
102
RTVSPropertyOp60
 70
     1
102
RTVSPropertyOp61
 70
     1
102
RTVSPropertyOp62
 70
     1
  0
XRECORD
  5
346
102
{ACAD_REACTORS
330
345
102
}
330
345
100
AcDbXrecord
280
     1
102
RTVSPost2010Prop28
280
     0
102
RTVSPost2010PropOp28
 70
     1
102
RTVSPost2010Prop29
280
     1
102
RTVSPost2010PropOp29
 70
     1
102
RTVSPost2010Prop30
280
     1
102
RTVSPost2010PropOp30
 70
     1
102
RTVSPost2010Prop31
280
     0
102
RTVSPost2010PropOp31
 70
     1
102
RTVSPost2010Prop32
280
     0
102
RTVSPost2010PropOp32
 70
     1
102
RTVSPost2010Prop33
280
     0
102
RTVSPost2010PropOp33
 70
     1
102
RTVSPost2010Prop34
280
     0
102
RTVSPost2010PropOp34
 70
     1
102
RTVSPost2010Prop35
280
     0
102
RTVSPost2010PropOp35
 70
     1
102
RTVSPost2010Prop36
280
     0
102
RTVSPost2010PropOp36
 70
     1
102
RTVSPost2010Prop37
 90
       50
102
RTVSPost2010PropOp37
 70
     1
102
RTVSPost2010Prop38
140
0.0
102
RTVSPost2010PropOp38
 70
     1
102
RTVSPost2010Prop39
140
1.0
102
RTVSPost2010PropOp39
 70
     1
102
RTVSPost2010Prop40
 90
        0
102
RTVSPost2010PropOp40
 70
     1
102
RTVSPost2010Prop41ColorIndex
 90
       18
102
RTVSPost2010Prop41ColorRGB
 90
        0
102
RTVSPost2010PropOp41
 70
     1
102
RTVSPost2010Prop42
 90
       50
102
RTVSPost2010PropOp42
 70
     1
102
RTVSPost2010Prop43
 90
        3
102
RTVSPost2010PropOp43
 70
     1
102
RTVSPost2010Prop44ColorIndex
 90
        5
102
RTVSPost2010Prop44ColorRGB
 90
      255
102
RTVSPost2010PropOp44
 70
     1
102
RTVSPost2010Prop45
280
     0
102
RTVSPost2010PropOp45
 70
     1
102
RTVSPost2010Prop46
 90
       50
102
RTVSPost2010PropOp46
 70
     1
102
RTVSPost2010Prop47
 90
       50
102
RTVSPost2010PropOp47
 70
     1
102
RTVSPost2010Prop48
 90
       50
102
RTVSPost2010PropOp48
 70
     1
102
RTVSPost2010Prop49
280
     0
102
RTVSPost2010PropOp49
 70
     1
102
RTVSPost2010Prop50
 90
       50
102
RTVSPost2010PropOp50
 70
     1
102
RTVSPost2010Prop51ColorIndex
 90
      256
102
RTVSPost2010Prop51ColorRGB
 90
-16777216
102
RTVSPost2010PropOp51
 70
     0
102
RTVSPost2010Prop52
140
1.0
102
RTVSPost2010PropOp52
 70
     0
102
RTVSPost2010Prop53
 90
        2
102
RTVSPost2010PropOp53
 70
     1
102
RTVSPost2010Prop54
  1
strokes_ogs.tif
102
RTVSPost2010PropOp54
 70
     1
102
RTVSPost2010Prop55
280
     0
102
RTVSPost2010PropOp55
 70
     1
102
RTVSPost2010Prop56
140
1.0
102
RTVSPost2010PropOp56
 70
     1
102
RTVSPost2010Prop57
140
1.0
102
RTVSPost2010PropOp57
 70
     1
102
RTVSPropertyOp0
 70
     1
102
RTVSPropertyOp1
 70
     1
102
RTVSPropertyOp2
 70
     1
102
RTVSPropertyOp3
 70
     1
102
RTVSPropertyOp4
 70
     1
102
RTVSPropertyOp5
 70
     1
102
RTVSPropertyOp6
 70
     1
102
RTVSPropertyOp7
 70
     1
102
RTVSPropertyOp8
 70
     1
102
RTVSPropertyOp9
 70
     1
102
RTVSPropertyOp10
 70
     1
102
RTVSPropertyOp11
 70
     1
102
RTVSPropertyOp12
 70
     1
102
RTVSPropertyOp13
 70
     1
102
RTVSPropertyOp14
 70
     1
102
RTVSPropertyOp15
 70
     1
102
RTVSPropertyOp16
 70
     1
102
RTVSPropertyOp17
 70
     1
102
RTVSPropertyOp18
 70
     1
102
RTVSPropertyOp19
 70
     1
102
RTVSPropertyOp20
 70
     1
102
RTVSPropertyOp21
 70
     1
102
RTVSPropertyOp22
 70
     1
102
RTVSPropertyOp23
 70
     1
102
RTVSPropertyOp24
 70
     1
102
RTVSPropertyOp25
 70
     1
102
RTVSPropertyOp26
 70
     1
102
RTVSPropertyOp27
 70
     1
102
RTVSPropertyOp28
 70
     1
102
RTVSPropertyOp29
 70
     1
102
RTVSPropertyOp30
 70
     1
102
RTVSPropertyOp31
 70
     1
102
RTVSPropertyOp32
 70
     1
102
RTVSPropertyOp33
 70
     1
102
RTVSPropertyOp34
 70
     1
102
RTVSPropertyOp35
 70
     1
102
RTVSPropertyOp36
 70
     1
102
RTVSPropertyOp37
 70
     1
102
RTVSPropertyOp38
 70
     1
102
RTVSPropertyOp39
 70
     1
102
RTVSPropertyOp40
 70
     1
102
RTVSPropertyOp41
 70
     1
102
RTVSPropertyOp42
 70
     1
102
RTVSPropertyOp43
 70
     1
102
RTVSPropertyOp44
 70
     1
102
RTVSPropertyOp45
 70
     1
102
RTVSPropertyOp46
 70
     1
102
RTVSPropertyOp47
 70
     1
102
RTVSPropertyOp48
 70
     1
102
RTVSPropertyOp49
 70
     1
102
RTVSPropertyOp50
 70
     1
102
RTVSPropertyOp51
 70
     0
102
RTVSPropertyOp52
 70
     0
102
RTVSPropertyOp53
 70
     1
102
RTVSPropertyOp54
 70
     1
102
RTVSPropertyOp55
 70
     1
102
RTVSPropertyOp56
 70
     1
102
RTVSPropertyOp57
 70
     1
102
RTVSPropertyOp58
 70
     1
102
RTVSPropertyOp59
 70
     1
102
RTVSPropertyOp60
 70
     1
102
RTVSPropertyOp61
 70
     1
102
RTVSPropertyOp62
 70
     1
  0
XRECORD
  5
34A
102
{ACAD_REACTORS
330
349
102
}
330
349
100
AcDbXrecord
280
     1
102
RTVSPost2010Prop28
280
     0
102
RTVSPost2010PropOp28
 70
     1
102
RTVSPost2010Prop29
280
     1
102
RTVSPost2010PropOp29
 70
     1
102
RTVSPost2010Prop30
280
     1
102
RTVSPost2010PropOp30
 70
     1
102
RTVSPost2010Prop31
280
     0
102
RTVSPost2010PropOp31
 70
     1
102
RTVSPost2010Prop32
280
     0
102
RTVSPost2010PropOp32
 70
     1
102
RTVSPost2010Prop33
280
     0
102
RTVSPost2010PropOp33
 70
     1
102
RTVSPost2010Prop34
280
     0
102
RTVSPost2010PropOp34
 70
     1
102
RTVSPost2010Prop35
280
     0
102
RTVSPost2010PropOp35
 70
     1
102
RTVSPost2010Prop36
280
     0
102
RTVSPost2010PropOp36
 70
     1
102
RTVSPost2010Prop37
 90
       50
102
RTVSPost2010PropOp37
 70
     1
102
RTVSPost2010Prop38
140
0.0
102
RTVSPost2010PropOp38
 70
     1
102
RTVSPost2010Prop39
140
1.0
102
RTVSPost2010PropOp39
 70
     1
102
RTVSPost2010Prop40
 90
        0
102
RTVSPost2010PropOp40
 70
     1
102
RTVSPost2010Prop41ColorIndex
 90
       18
102
RTVSPost2010Prop41ColorRGB
 90
        0
102
RTVSPost2010PropOp41
 70
     1
102
RTVSPost2010Prop42
 90
       50
102
RTVSPost2010PropOp42
 70
     1
102
RTVSPost2010Prop43
 90
        3
102
RTVSPost2010PropOp43
 70
     1
102
RTVSPost2010Prop44ColorIndex
 90
        5
102
RTVSPost2010Prop44ColorRGB
 90
      255
102
RTVSPost2010PropOp44
 70
     1
102
RTVSPost2010Prop45
280
     0
102
RTVSPost2010PropOp45
 70
     1
102
RTVSPost2010Prop46
 90
       50
102
RTVSPost2010PropOp46
 70
     1
102
RTVSPost2010Prop47
 90
       50
102
RTVSPost2010PropOp47
 70
     1
102
RTVSPost2010Prop48
 90
       50
102
RTVSPost2010PropOp48
 70
     1
102
RTVSPost2010Prop49
280
     0
102
RTVSPost2010PropOp49
 70
     1
102
RTVSPost2010Prop50
 90
       50
102
RTVSPost2010PropOp50
 70
     1
102
RTVSPost2010Prop51ColorIndex
 90
      256
102
RTVSPost2010Prop51ColorRGB
 90
-16777216
102
RTVSPost2010PropOp51
 70
     0
102
RTVSPost2010Prop52
140
1.0
102
RTVSPost2010PropOp52
 70
     0
102
RTVSPost2010Prop53
 90
        2
102
RTVSPost2010PropOp53
 70
     1
102
RTVSPost2010Prop54
  1
strokes_ogs.tif
102
RTVSPost2010PropOp54
 70
     1
102
RTVSPost2010Prop55
280
     0
102
RTVSPost2010PropOp55
 70
     1
102
RTVSPost2010Prop56
140
1.0
102
RTVSPost2010PropOp56
 70
     1
102
RTVSPost2010Prop57
140
1.0
102
RTVSPost2010PropOp57
 70
     1
102
RTVSPropertyOp0
 70
     1
102
RTVSPropertyOp1
 70
     1
102
RTVSPropertyOp2
 70
     1
102
RTVSPropertyOp3
 70
     1
102
RTVSPropertyOp4
 70
     1
102
RTVSPropertyOp5
 70
     1
102
RTVSPropertyOp6
 70
     1
102
RTVSPropertyOp7
 70
     1
102
RTVSPropertyOp8
 70
     1
102
RTVSPropertyOp9
 70
     1
102
RTVSPropertyOp10
 70
     1
102
RTVSPropertyOp11
 70
     1
102
RTVSPropertyOp12
 70
     1
102
RTVSPropertyOp13
 70
     1
102
RTVSPropertyOp14
 70
     1
102
RTVSPropertyOp15
 70
     1
102
RTVSPropertyOp16
 70
     1
102
RTVSPropertyOp17
 70
     1
102
RTVSPropertyOp18
 70
     1
102
RTVSPropertyOp19
 70
     1
102
RTVSPropertyOp20
 70
     1
102
RTVSPropertyOp21
 70
     1
102
RTVSPropertyOp22
 70
     1
102
RTVSPropertyOp23
 70
     1
102
RTVSPropertyOp24
 70
     1
102
RTVSPropertyOp25
 70
     1
102
RTVSPropertyOp26
 70
     1
102
RTVSPropertyOp27
 70
     1
102
RTVSPropertyOp28
 70
     1
102
RTVSPropertyOp29
 70
     1
102
RTVSPropertyOp30
 70
     1
102
RTVSPropertyOp31
 70
     1
102
RTVSPropertyOp32
 70
     1
102
RTVSPropertyOp33
 70
     1
102
RTVSPropertyOp34
 70
     1
102
RTVSPropertyOp35
 70
     1
102
RTVSPropertyOp36
 70
     1
102
RTVSPropertyOp37
 70
     1
102
RTVSPropertyOp38
 70
     1
102
RTVSPropertyOp39
 70
     1
102
RTVSPropertyOp40
 70
     1
102
RTVSPropertyOp41
 70
     1
102
RTVSPropertyOp42
 70
     1
102
RTVSPropertyOp43
 70
     1
102
RTVSPropertyOp44
 70
     1
102
RTVSPropertyOp45
 70
     1
102
RTVSPropertyOp46
 70
     1
102
RTVSPropertyOp47
 70
     1
102
RTVSPropertyOp48
 70
     1
102
RTVSPropertyOp49
 70
     1
102
RTVSPropertyOp50
 70
     1
102
RTVSPropertyOp51
 70
     0
102
RTVSPropertyOp52
 70
     0
102
RTVSPropertyOp53
 70
     1
102
RTVSPropertyOp54
 70
     1
102
RTVSPropertyOp55
 70
     1
102
RTVSPropertyOp56
 70
     1
102
RTVSPropertyOp57
 70
     1
102
RTVSPropertyOp58
 70
     1
102
RTVSPropertyOp59
 70
     1
102
RTVSPropertyOp60
 70
     1
102
RTVSPropertyOp61
 70
     1
102
RTVSPropertyOp62
 70
     1
  0
XRECORD
  5
364
102
{ACAD_REACTORS
330
363
102
}
330
363
100
AcDbXrecord
280
     1
102
RTVSPost2010Prop28
280
     0
102
RTVSPost2010PropOp28
 70
     1
102
RTVSPost2010Prop29
280
     1
102
RTVSPost2010PropOp29
 70
     1
102
RTVSPost2010Prop30
280
     1
102
RTVSPost2010PropOp30
 70
     1
102
RTVSPost2010Prop31
280
     0
102
RTVSPost2010PropOp31
 70
     1
102
RTVSPost2010Prop32
280
     0
102
RTVSPost2010PropOp32
 70
     1
102
RTVSPost2010Prop33
280
     0
102
RTVSPost2010PropOp33
 70
     1
102
RTVSPost2010Prop34
280
     0
102
RTVSPost2010PropOp34
 70
     1
102
RTVSPost2010Prop35
280
     0
102
RTVSPost2010PropOp35
 70
     1
102
RTVSPost2010Prop36
280
     0
102
RTVSPost2010PropOp36
 70
     1
102
RTVSPost2010Prop37
 90
       50
102
RTVSPost2010PropOp37
 70
     0
102
RTVSPost2010Prop38
140
0.0
102
RTVSPost2010PropOp38
 70
     0
102
RTVSPost2010Prop39
140
1.0
102
RTVSPost2010PropOp39
 70
     0
102
RTVSPost2010Prop40
 90
        0
102
RTVSPost2010PropOp40
 70
     0
102
RTVSPost2010Prop41ColorIndex
 90
       18
102
RTVSPost2010Prop41ColorRGB
 90
        0
102
RTVSPost2010PropOp41
 70
     0
102
RTVSPost2010Prop42
 90
       50
102
RTVSPost2010PropOp42
 70
     0
102
RTVSPost2010Prop43
 90
        3
102
RTVSPost2010PropOp43
 70
     0
102
RTVSPost2010Prop44ColorIndex
 90
        5
102
RTVSPost2010Prop44ColorRGB
 90
      255
102
RTVSPost2010PropOp44
 70
     0
102
RTVSPost2010Prop45
280
     0
102
RTVSPost2010PropOp45
 70
     1
102
RTVSPost2010Prop46
 90
       50
102
RTVSPost2010PropOp46
 70
     0
102
RTVSPost2010Prop47
 90
       50
102
RTVSPost2010PropOp47
 70
     0
102
RTVSPost2010Prop48
 90
       50
102
RTVSPost2010PropOp48
 70
     0
102
RTVSPost2010Prop49
280
     0
102
RTVSPost2010PropOp49
 70
     1
102
RTVSPost2010Prop50
 90
       50
102
RTVSPost2010PropOp50
 70
     0
102
RTVSPost2010Prop51ColorIndex
 90
      256
102
RTVSPost2010Prop51ColorRGB
 90
-16777216
102
RTVSPost2010PropOp51
 70
     0
102
RTVSPost2010Prop52
140
1.0
102
RTVSPost2010PropOp52
 70
     0
102
RTVSPost2010Prop53
 90
        2
102
RTVSPost2010PropOp53
 70
     0
102
RTVSPost2010Prop54
  1
strokes_ogs.tif
102
RTVSPost2010PropOp54
 70
     0
102
RTVSPost2010Prop55
280
     0
102
RTVSPost2010PropOp55
 70
     1
102
RTVSPost2010Prop56
140
1.0
102
RTVSPost2010PropOp56
 70
     0
102
RTVSPost2010Prop57
140
1.0
102
RTVSPost2010PropOp57
 70
     0
102
RTVSPropertyOp0
 70
     0
102
RTVSPropertyOp1
 70
     0
102
RTVSPropertyOp2
 70
     0
102
RTVSPropertyOp3
 70
     0
102
RTVSPropertyOp4
 70
     0
102
RTVSPropertyOp5
 70
     0
102
RTVSPropertyOp6
 70
     0
102
RTVSPropertyOp7
 70
     0
102
RTVSPropertyOp8
 70
     0
102
RTVSPropertyOp9
 70
     0
102
RTVSPropertyOp10
 70
     0
102
RTVSPropertyOp11
 70
     0
102
RTVSPropertyOp12
 70
     0
102
RTVSPropertyOp13
 70
     0
102
RTVSPropertyOp14
 70
     2
102
RTVSPropertyOp15
 70
     0
102
RTVSPropertyOp16
 70
     0
102
RTVSPropertyOp17
 70
     0
102
RTVSPropertyOp18
 70
     0
102
RTVSPropertyOp19
 70
     0
102
RTVSPropertyOp20
 70
     0
102
RTVSPropertyOp21
 70
     0
102
RTVSPropertyOp22
 70
     0
102
RTVSPropertyOp23
 70
     0
102
RTVSPropertyOp24
 70
     0
102
RTVSPropertyOp25
 70
     0
102
RTVSPropertyOp26
 70
     0
102
RTVSPropertyOp27
 70
     0
102
RTVSPropertyOp28
 70
     1
102
RTVSPropertyOp29
 70
     1
102
RTVSPropertyOp30
 70
     1
102
RTVSPropertyOp31
 70
     1
102
RTVSPropertyOp32
 70
     1
102
RTVSPropertyOp33
 70
     1
102
RTVSPropertyOp34
 70
     1
102
RTVSPropertyOp35
 70
     1
102
RTVSPropertyOp36
 70
     1
102
RTVSPropertyOp37
 70
     0
102
RTVSPropertyOp38
 70
     0
102
RTVSPropertyOp39
 70
     0
102
RTVSPropertyOp40
 70
     0
102
RTVSPropertyOp41
 70
     0
102
RTVSPropertyOp42
 70
     0
102
RTVSPropertyOp43
 70
     0
102
RTVSPropertyOp44
 70
     0
102
RTVSPropertyOp45
 70
     1
102
RTVSPropertyOp46
 70
     0
102
RTVSPropertyOp47
 70
     0
102
RTVSPropertyOp48
 70
     0
102
RTVSPropertyOp49
 70
     1
102
RTVSPropertyOp50
 70
     0
102
RTVSPropertyOp51
 70
     0
102
RTVSPropertyOp52
 70
     0
102
RTVSPropertyOp53
 70
     0
102
RTVSPropertyOp54
 70
     0
102
RTVSPropertyOp55
 70
     1
102
RTVSPropertyOp56
 70
     0
102
RTVSPropertyOp57
 70
     0
102
RTVSPropertyOp58
 70
     0
102
RTVSPropertyOp59
 70
     0
102
RTVSPropertyOp60
 70
     0
102
RTVSPropertyOp61
 70
     0
102
RTVSPropertyOp62
 70
     0
  0
XRECORD
  5
352
102
{ACAD_REACTORS
330
351
102
}
330
351
100
AcDbXrecord
280
     1
102
RTVSPost2010Prop28
280
     0
102
RTVSPost2010PropOp28
 70
     1
102
RTVSPost2010Prop29
280
     1
102
RTVSPost2010PropOp29
 70
     1
102
RTVSPost2010Prop30
280
     1
102
RTVSPost2010PropOp30
 70
     1
102
RTVSPost2010Prop31
280
     0
102
RTVSPost2010PropOp31
 70
     1
102
RTVSPost2010Prop32
280
     0
102
RTVSPost2010PropOp32
 70
     1
102
RTVSPost2010Prop33
280
     0
102
RTVSPost2010PropOp33
 70
     1
102
RTVSPost2010Prop34
280
     0
102
RTVSPost2010PropOp34
 70
     1
102
RTVSPost2010Prop35
280
     0
102
RTVSPost2010PropOp35
 70
     1
102
RTVSPost2010Prop36
280
     0
102
RTVSPost2010PropOp36
 70
     1
102
RTVSPost2010Prop37
 90
       50
102
RTVSPost2010PropOp37
 70
     1
102
RTVSPost2010Prop38
140
0.0
102
RTVSPost2010PropOp38
 70
     1
102
RTVSPost2010Prop39
140
1.0
102
RTVSPost2010PropOp39
 70
     1
102
RTVSPost2010Prop40
 90
        0
102
RTVSPost2010PropOp40
 70
     1
102
RTVSPost2010Prop41ColorIndex
 90
       18
102
RTVSPost2010Prop41ColorRGB
 90
        0
102
RTVSPost2010PropOp41
 70
     1
102
RTVSPost2010Prop42
 90
       50
102
RTVSPost2010PropOp42
 70
     1
102
RTVSPost2010Prop43
 90
        3
102
RTVSPost2010PropOp43
 70
     1
102
RTVSPost2010Prop44ColorIndex
 90
        5
102
RTVSPost2010Prop44ColorRGB
 90
      255
102
RTVSPost2010PropOp44
 70
     1
102
RTVSPost2010Prop45
280
     0
102
RTVSPost2010PropOp45
 70
     1
102
RTVSPost2010Prop46
 90
       50
102
RTVSPost2010PropOp46
 70
     1
102
RTVSPost2010Prop47
 90
       50
102
RTVSPost2010PropOp47
 70
     1
102
RTVSPost2010Prop48
 90
       50
102
RTVSPost2010PropOp48
 70
     1
102
RTVSPost2010Prop49
280
     0
102
RTVSPost2010PropOp49
 70
     1
102
RTVSPost2010Prop50
 90
       50
102
RTVSPost2010PropOp50
 70
     1
102
RTVSPost2010Prop51ColorIndex
 90
      256
102
RTVSPost2010Prop51ColorRGB
 90
-16777216
102
RTVSPost2010PropOp51
 70
     0
102
RTVSPost2010Prop52
140
1.0
102
RTVSPost2010PropOp52
 70
     0
102
RTVSPost2010Prop53
 90
        2
102
RTVSPost2010PropOp53
 70
     1
102
RTVSPost2010Prop54
  1
strokes_ogs.tif
102
RTVSPost2010PropOp54
 70
     1
102
RTVSPost2010Prop55
280
     0
102
RTVSPost2010PropOp55
 70
     1
102
RTVSPost2010Prop56
140
1.0
102
RTVSPost2010PropOp56
 70
     1
102
RTVSPost2010Prop57
140
1.0
102
RTVSPost2010PropOp57
 70
     1
102
RTVSPropertyOp0
 70
     1
102
RTVSPropertyOp1
 70
     1
102
RTVSPropertyOp2
 70
     1
102
RTVSPropertyOp3
 70
     1
102
RTVSPropertyOp4
 70
     1
102
RTVSPropertyOp5
 70
     1
102
RTVSPropertyOp6
 70
     1
102
RTVSPropertyOp7
 70
     1
102
RTVSPropertyOp8
 70
     1
102
RTVSPropertyOp9
 70
     1
102
RTVSPropertyOp10
 70
     1
102
RTVSPropertyOp11
 70
     1
102
RTVSPropertyOp12
 70
     1
102
RTVSPropertyOp13
 70
     1
102
RTVSPropertyOp14
 70
     1
102
RTVSPropertyOp15
 70
     1
102
RTVSPropertyOp16
 70
     1
102
RTVSPropertyOp17
 70
     1
102
RTVSPropertyOp18
 70
     1
102
RTVSPropertyOp19
 70
     1
102
RTVSPropertyOp20
 70
     1
102
RTVSPropertyOp21
 70
     1
102
RTVSPropertyOp22
 70
     1
102
RTVSPropertyOp23
 70
     1
102
RTVSPropertyOp24
 70
     1
102
RTVSPropertyOp25
 70
     1
102
RTVSPropertyOp26
 70
     1
102
RTVSPropertyOp27
 70
     1
102
RTVSPropertyOp28
 70
     1
102
RTVSPropertyOp29
 70
     1
102
RTVSPropertyOp30
 70
     1
102
RTVSPropertyOp31
 70
     1
102
RTVSPropertyOp32
 70
     1
102
RTVSPropertyOp33
 70
     1
102
RTVSPropertyOp34
 70
     1
102
RTVSPropertyOp35
 70
     1
102
RTVSPropertyOp36
 70
     1
102
RTVSPropertyOp37
 70
     1
102
RTVSPropertyOp38
 70
     1
102
RTVSPropertyOp39
 70
     1
102
RTVSPropertyOp40
 70
     1
102
RTVSPropertyOp41
 70
     1
102
RTVSPropertyOp42
 70
     1
102
RTVSPropertyOp43
 70
     1
102
RTVSPropertyOp44
 70
     1
102
RTVSPropertyOp45
 70
     1
102
RTVSPropertyOp46
 70
     1
102
RTVSPropertyOp47
 70
     1
102
RTVSPropertyOp48
 70
     1
102
RTVSPropertyOp49
 70
     1
102
RTVSPropertyOp50
 70
     1
102
RTVSPropertyOp51
 70
     0
102
RTVSPropertyOp52
 70
     0
102
RTVSPropertyOp53
 70
     1
102
RTVSPropertyOp54
 70
     1
102
RTVSPropertyOp55
 70
     1
102
RTVSPropertyOp56
 70
     1
102
RTVSPropertyOp57
 70
     1
102
RTVSPropertyOp58
 70
     1
102
RTVSPropertyOp59
 70
     1
102
RTVSPropertyOp60
 70
     1
102
RTVSPropertyOp61
 70
     1
102
RTVSPropertyOp62
 70
     1
  0
XRECORD
  5
336
102
{ACAD_REACTORS
330
335
102
}
330
335
100
AcDbXrecord
280
     1
102
RTVSPost2010Prop28
280
     0
102
RTVSPost2010PropOp28
 70
     1
102
RTVSPost2010Prop29
280
     1
102
RTVSPost2010PropOp29
 70
     1
102
RTVSPost2010Prop30
280
     1
102
RTVSPost2010PropOp30
 70
     1
102
RTVSPost2010Prop31
280
     0
102
RTVSPost2010PropOp31
 70
     1
102
RTVSPost2010Prop32
280
     0
102
RTVSPost2010PropOp32
 70
     1
102
RTVSPost2010Prop33
280
     0
102
RTVSPost2010PropOp33
 70
     1
102
RTVSPost2010Prop34
280
     0
102
RTVSPost2010PropOp34
 70
     1
102
RTVSPost2010Prop35
280
     0
102
RTVSPost2010PropOp35
 70
     1
102
RTVSPost2010Prop36
280
     0
102
RTVSPost2010PropOp36
 70
     1
102
RTVSPost2010Prop37
 90
       50
102
RTVSPost2010PropOp37
 70
     1
102
RTVSPost2010Prop38
140
0.0
102
RTVSPost2010PropOp38
 70
     1
102
RTVSPost2010Prop39
140
1.0
102
RTVSPost2010PropOp39
 70
     1
102
RTVSPost2010Prop40
 90
        0
102
RTVSPost2010PropOp40
 70
     1
102
RTVSPost2010Prop41ColorIndex
 90
       18
102
RTVSPost2010Prop41ColorRGB
 90
        0
102
RTVSPost2010PropOp41
 70
     1
102
RTVSPost2010Prop42
 90
       50
102
RTVSPost2010PropOp42
 70
     1
102
RTVSPost2010Prop43
 90
        3
102
RTVSPost2010PropOp43
 70
     1
102
RTVSPost2010Prop44ColorIndex
 90
        5
102
RTVSPost2010Prop44ColorRGB
 90
      255
102
RTVSPost2010PropOp44
 70
     1
102
RTVSPost2010Prop45
280
     0
102
RTVSPost2010PropOp45
 70
     1
102
RTVSPost2010Prop46
 90
       50
102
RTVSPost2010PropOp46
 70
     1
102
RTVSPost2010Prop47
 90
       50
102
RTVSPost2010PropOp47
 70
     1
102
RTVSPost2010Prop48
 90
       50
102
RTVSPost2010PropOp48
 70
     1
102
RTVSPost2010Prop49
280
     0
102
RTVSPost2010PropOp49
 70
     1
102
RTVSPost2010Prop50
 90
       50
102
RTVSPost2010PropOp50
 70
     1
102
RTVSPost2010Prop51ColorIndex
 90
      256
102
RTVSPost2010Prop51ColorRGB
 90
-16777216
102
RTVSPost2010PropOp51
 70
     0
102
RTVSPost2010Prop52
140
1.0
102
RTVSPost2010PropOp52
 70
     0
102
RTVSPost2010Prop53
 90
        2
102
RTVSPost2010PropOp53
 70
     1
102
RTVSPost2010Prop54
  1
strokes_ogs.tif
102
RTVSPost2010PropOp54
 70
     1
102
RTVSPost2010Prop55
280
     0
102
RTVSPost2010PropOp55
 70
     1
102
RTVSPost2010Prop56
140
1.0
102
RTVSPost2010PropOp56
 70
     1
102
RTVSPost2010Prop57
140
1.0
102
RTVSPost2010PropOp57
 70
     1
102
RTVSPropertyOp0
 70
     1
102
RTVSPropertyOp1
 70
     1
102
RTVSPropertyOp2
 70
     1
102
RTVSPropertyOp3
 70
     1
102
RTVSPropertyOp4
 70
     1
102
RTVSPropertyOp5
 70
     1
102
RTVSPropertyOp6
 70
     1
102
RTVSPropertyOp7
 70
     1
102
RTVSPropertyOp8
 70
     1
102
RTVSPropertyOp9
 70
     1
102
RTVSPropertyOp10
 70
     1
102
RTVSPropertyOp11
 70
     1
102
RTVSPropertyOp12
 70
     1
102
RTVSPropertyOp13
 70
     1
102
RTVSPropertyOp14
 70
     1
102
RTVSPropertyOp15
 70
     1
102
RTVSPropertyOp16
 70
     1
102
RTVSPropertyOp17
 70
     1
102
RTVSPropertyOp18
 70
     1
102
RTVSPropertyOp19
 70
     1
102
RTVSPropertyOp20
 70
     1
102
RTVSPropertyOp21
 70
     1
102
RTVSPropertyOp22
 70
     1
102
RTVSPropertyOp23
 70
     1
102
RTVSPropertyOp24
 70
     1
102
RTVSPropertyOp25
 70
     1
102
RTVSPropertyOp26
 70
     1
102
RTVSPropertyOp27
 70
     1
102
RTVSPropertyOp28
 70
     1
102
RTVSPropertyOp29
 70
     1
102
RTVSPropertyOp30
 70
     1
102
RTVSPropertyOp31
 70
     1
102
RTVSPropertyOp32
 70
     1
102
RTVSPropertyOp33
 70
     1
102
RTVSPropertyOp34
 70
     1
102
RTVSPropertyOp35
 70
     1
102
RTVSPropertyOp36
 70
     1
102
RTVSPropertyOp37
 70
     1
102
RTVSPropertyOp38
 70
     1
102
RTVSPropertyOp39
 70
     1
102
RTVSPropertyOp40
 70
     1
102
RTVSPropertyOp41
 70
     1
102
RTVSPropertyOp42
 70
     1
102
RTVSPropertyOp43
 70
     1
102
RTVSPropertyOp44
 70
     1
102
RTVSPropertyOp45
 70
     1
102
RTVSPropertyOp46
 70
     1
102
RTVSPropertyOp47
 70
     1
102
RTVSPropertyOp48
 70
     1
102
RTVSPropertyOp49
 70
     1
102
RTVSPropertyOp50
 70
     1
102
RTVSPropertyOp51
 70
     0
102
RTVSPropertyOp52
 70
     0
102
RTVSPropertyOp53
 70
     1
102
RTVSPropertyOp54
 70
     1
102
RTVSPropertyOp55
 70
     1
102
RTVSPropertyOp56
 70
     1
102
RTVSPropertyOp57
 70
     1
102
RTVSPropertyOp58
 70
     1
102
RTVSPropertyOp59
 70
     1
102
RTVSPropertyOp60
 70
     1
102
RTVSPropertyOp61
 70
     1
102
RTVSPropertyOp62
 70
     1
  0
XRECORD
  5
338
102
{ACAD_REACTORS
330
337
102
}
330
337
100
AcDbXrecord
280
     1
102
RTVSPost2010Prop28
280
     0
102
RTVSPost2010PropOp28
 70
     1
102
RTVSPost2010Prop29
280
     1
102
RTVSPost2010PropOp29
 70
     1
102
RTVSPost2010Prop30
280
     1
102
RTVSPost2010PropOp30
 70
     1
102
RTVSPost2010Prop31
280
     0
102
RTVSPost2010PropOp31
 70
     1
102
RTVSPost2010Prop32
280
     0
102
RTVSPost2010PropOp32
 70
     1
102
RTVSPost2010Prop33
280
     0
102
RTVSPost2010PropOp33
 70
     1
102
RTVSPost2010Prop34
280
     0
102
RTVSPost2010PropOp34
 70
     1
102
RTVSPost2010Prop35
280
     0
102
RTVSPost2010PropOp35
 70
     1
102
RTVSPost2010Prop36
280
     0
102
RTVSPost2010PropOp36
 70
     1
102
RTVSPost2010Prop37
 90
       50
102
RTVSPost2010PropOp37
 70
     1
102
RTVSPost2010Prop38
140
0.0
102
RTVSPost2010PropOp38
 70
     1
102
RTVSPost2010Prop39
140
1.0
102
RTVSPost2010PropOp39
 70
     1
102
RTVSPost2010Prop40
 90
        0
102
RTVSPost2010PropOp40
 70
     1
102
RTVSPost2010Prop41ColorIndex
 90
       18
102
RTVSPost2010Prop41ColorRGB
 90
        0
102
RTVSPost2010PropOp41
 70
     1
102
RTVSPost2010Prop42
 90
       50
102
RTVSPost2010PropOp42
 70
     1
102
RTVSPost2010Prop43
 90
        3
102
RTVSPost2010PropOp43
 70
     1
102
RTVSPost2010Prop44ColorIndex
 90
        5
102
RTVSPost2010Prop44ColorRGB
 90
      255
102
RTVSPost2010PropOp44
 70
     1
102
RTVSPost2010Prop45
280
     0
102
RTVSPost2010PropOp45
 70
     1
102
RTVSPost2010Prop46
 90
       50
102
RTVSPost2010PropOp46
 70
     1
102
RTVSPost2010Prop47
 90
       50
102
RTVSPost2010PropOp47
 70
     1
102
RTVSPost2010Prop48
 90
       50
102
RTVSPost2010PropOp48
 70
     1
102
RTVSPost2010Prop49
280
     0
102
RTVSPost2010PropOp49
 70
     1
102
RTVSPost2010Prop50
 90
       50
102
RTVSPost2010PropOp50
 70
     1
102
RTVSPost2010Prop51ColorIndex
 90
      256
102
RTVSPost2010Prop51ColorRGB
 90
-16777216
102
RTVSPost2010PropOp51
 70
     0
102
RTVSPost2010Prop52
140
1.0
102
RTVSPost2010PropOp52
 70
     0
102
RTVSPost2010Prop53
 90
        2
102
RTVSPost2010PropOp53
 70
     1
102
RTVSPost2010Prop54
  1
strokes_ogs.tif
102
RTVSPost2010PropOp54
 70
     1
102
RTVSPost2010Prop55
280
     0
102
RTVSPost2010PropOp55
 70
     1
102
RTVSPost2010Prop56
140
1.0
102
RTVSPost2010PropOp56
 70
     1
102
RTVSPost2010Prop57
140
1.0
102
RTVSPost2010PropOp57
 70
     1
102
RTVSPropertyOp0
 70
     1
102
RTVSPropertyOp1
 70
     1
102
RTVSPropertyOp2
 70
     1
102
RTVSPropertyOp3
 70
     1
102
RTVSPropertyOp4
 70
     1
102
RTVSPropertyOp5
 70
     1
102
RTVSPropertyOp6
 70
     1
102
RTVSPropertyOp7
 70
     1
102
RTVSPropertyOp8
 70
     1
102
RTVSPropertyOp9
 70
     1
102
RTVSPropertyOp10
 70
     1
102
RTVSPropertyOp11
 70
     1
102
RTVSPropertyOp12
 70
     1
102
RTVSPropertyOp13
 70
     1
102
RTVSPropertyOp14
 70
     1
102
RTVSPropertyOp15
 70
     1
102
RTVSPropertyOp16
 70
     1
102
RTVSPropertyOp17
 70
     1
102
RTVSPropertyOp18
 70
     1
102
RTVSPropertyOp19
 70
     1
102
RTVSPropertyOp20
 70
     1
102
RTVSPropertyOp21
 70
     1
102
RTVSPropertyOp22
 70
     1
102
RTVSPropertyOp23
 70
     1
102
RTVSPropertyOp24
 70
     1
102
RTVSPropertyOp25
 70
     1
102
RTVSPropertyOp26
 70
     1
102
RTVSPropertyOp27
 70
     1
102
RTVSPropertyOp28
 70
     1
102
RTVSPropertyOp29
 70
     1
102
RTVSPropertyOp30
 70
     1
102
RTVSPropertyOp31
 70
     1
102
RTVSPropertyOp32
 70
     1
102
RTVSPropertyOp33
 70
     1
102
RTVSPropertyOp34
 70
     1
102
RTVSPropertyOp35
 70
     1
102
RTVSPropertyOp36
 70
     1
102
RTVSPropertyOp37
 70
     1
102
RTVSPropertyOp38
 70
     1
102
RTVSPropertyOp39
 70
     1
102
RTVSPropertyOp40
 70
     1
102
RTVSPropertyOp41
 70
     1
102
RTVSPropertyOp42
 70
     1
102
RTVSPropertyOp43
 70
     1
102
RTVSPropertyOp44
 70
     1
102
RTVSPropertyOp45
 70
     1
102
RTVSPropertyOp46
 70
     1
102
RTVSPropertyOp47
 70
     1
102
RTVSPropertyOp48
 70
     1
102
RTVSPropertyOp49
 70
     1
102
RTVSPropertyOp50
 70
     1
102
RTVSPropertyOp51
 70
     0
102
RTVSPropertyOp52
 70
     0
102
RTVSPropertyOp53
 70
     1
102
RTVSPropertyOp54
 70
     1
102
RTVSPropertyOp55
 70
     1
102
RTVSPropertyOp56
 70
     1
102
RTVSPropertyOp57
 70
     1
102
RTVSPropertyOp58
 70
     1
102
RTVSPropertyOp59
 70
     1
102
RTVSPropertyOp60
 70
     1
102
RTVSPropertyOp61
 70
     1
102
RTVSPropertyOp62
 70
     1
  0
XRECORD
  5
33A
102
{ACAD_REACTORS
330
339
102
}
330
339
100
AcDbXrecord
280
     1
102
RTVSPost2010Prop28
280
     0
102
RTVSPost2010PropOp28
 70
     1
102
RTVSPost2010Prop29
280
     1
102
RTVSPost2010PropOp29
 70
     1
102
RTVSPost2010Prop30
280
     1
102
RTVSPost2010PropOp30
 70
     1
102
RTVSPost2010Prop31
280
     0
102
RTVSPost2010PropOp31
 70
     1
102
RTVSPost2010Prop32
280
     0
102
RTVSPost2010PropOp32
 70
     1
102
RTVSPost2010Prop33
280
     0
102
RTVSPost2010PropOp33
 70
     1
102
RTVSPost2010Prop34
280
     0
102
RTVSPost2010PropOp34
 70
     1
102
RTVSPost2010Prop35
280
     0
102
RTVSPost2010PropOp35
 70
     1
102
RTVSPost2010Prop36
280
     0
102
RTVSPost2010PropOp36
 70
     1
102
RTVSPost2010Prop37
 90
       50
102
RTVSPost2010PropOp37
 70
     1
102
RTVSPost2010Prop38
140
0.0
102
RTVSPost2010PropOp38
 70
     1
102
RTVSPost2010Prop39
140
1.0
102
RTVSPost2010PropOp39
 70
     1
102
RTVSPost2010Prop40
 90
        0
102
RTVSPost2010PropOp40
 70
     1
102
RTVSPost2010Prop41ColorIndex
 90
       18
102
RTVSPost2010Prop41ColorRGB
 90
        0
102
RTVSPost2010PropOp41
 70
     1
102
RTVSPost2010Prop42
 90
       50
102
RTVSPost2010PropOp42
 70
     1
102
RTVSPost2010Prop43
 90
        3
102
RTVSPost2010PropOp43
 70
     1
102
RTVSPost2010Prop44ColorIndex
 90
        5
102
RTVSPost2010Prop44ColorRGB
 90
      255
102
RTVSPost2010PropOp44
 70
     1
102
RTVSPost2010Prop45
280
     0
102
RTVSPost2010PropOp45
 70
     1
102
RTVSPost2010Prop46
 90
       50
102
RTVSPost2010PropOp46
 70
     1
102
RTVSPost2010Prop47
 90
       50
102
RTVSPost2010PropOp47
 70
     1
102
RTVSPost2010Prop48
 90
       50
102
RTVSPost2010PropOp48
 70
     1
102
RTVSPost2010Prop49
280
     0
102
RTVSPost2010PropOp49
 70
     1
102
RTVSPost2010Prop50
 90
       50
102
RTVSPost2010PropOp50
 70
     1
102
RTVSPost2010Prop51ColorIndex
 90
      256
102
RTVSPost2010Prop51ColorRGB
 90
-16777216
102
RTVSPost2010PropOp51
 70
     0
102
RTVSPost2010Prop52
140
1.0
102
RTVSPost2010PropOp52
 70
     0
102
RTVSPost2010Prop53
 90
        2
102
RTVSPost2010PropOp53
 70
     1
102
RTVSPost2010Prop54
  1
strokes_ogs.tif
102
RTVSPost2010PropOp54
 70
     1
102
RTVSPost2010Prop55
280
     0
102
RTVSPost2010PropOp55
 70
     1
102
RTVSPost2010Prop56
140
1.0
102
RTVSPost2010PropOp56
 70
     1
102
RTVSPost2010Prop57
140
1.0
102
RTVSPost2010PropOp57
 70
     1
102
RTVSPropertyOp0
 70
     1
102
RTVSPropertyOp1
 70
     1
102
RTVSPropertyOp2
 70
     1
102
RTVSPropertyOp3
 70
     1
102
RTVSPropertyOp4
 70
     1
102
RTVSPropertyOp5
 70
     1
102
RTVSPropertyOp6
 70
     1
102
RTVSPropertyOp7
 70
     1
102
RTVSPropertyOp8
 70
     1
102
RTVSPropertyOp9
 70
     1
102
RTVSPropertyOp10
 70
     1
102
RTVSPropertyOp11
 70
     1
102
RTVSPropertyOp12
 70
     1
102
RTVSPropertyOp13
 70
     1
102
RTVSPropertyOp14
 70
     1
102
RTVSPropertyOp15
 70
     1
102
RTVSPropertyOp16
 70
     1
102
RTVSPropertyOp17
 70
     1
102
RTVSPropertyOp18
 70
     1
102
RTVSPropertyOp19
 70
     1
102
RTVSPropertyOp20
 70
     1
102
RTVSPropertyOp21
 70
     1
102
RTVSPropertyOp22
 70
     1
102
RTVSPropertyOp23
 70
     1
102
RTVSPropertyOp24
 70
     1
102
RTVSPropertyOp25
 70
     1
102
RTVSPropertyOp26
 70
     1
102
RTVSPropertyOp27
 70
     1
102
RTVSPropertyOp28
 70
     1
102
RTVSPropertyOp29
 70
     1
102
RTVSPropertyOp30
 70
     1
102
RTVSPropertyOp31
 70
     1
102
RTVSPropertyOp32
 70
     1
102
RTVSPropertyOp33
 70
     1
102
RTVSPropertyOp34
 70
     1
102
RTVSPropertyOp35
 70
     1
102
RTVSPropertyOp36
 70
     1
102
RTVSPropertyOp37
 70
     1
102
RTVSPropertyOp38
 70
     1
102
RTVSPropertyOp39
 70
     1
102
RTVSPropertyOp40
 70
     1
102
RTVSPropertyOp41
 70
     1
102
RTVSPropertyOp42
 70
     1
102
RTVSPropertyOp43
 70
     1
102
RTVSPropertyOp44
 70
     1
102
RTVSPropertyOp45
 70
     1
102
RTVSPropertyOp46
 70
     1
102
RTVSPropertyOp47
 70
     1
102
RTVSPropertyOp48
 70
     1
102
RTVSPropertyOp49
 70
     1
102
RTVSPropertyOp50
 70
     1
102
RTVSPropertyOp51
 70
     0
102
RTVSPropertyOp52
 70
     0
102
RTVSPropertyOp53
 70
     1
102
RTVSPropertyOp54
 70
     1
102
RTVSPropertyOp55
 70
     1
102
RTVSPropertyOp56
 70
     1
102
RTVSPropertyOp57
 70
     1
102
RTVSPropertyOp58
 70
     1
102
RTVSPropertyOp59
 70
     1
102
RTVSPropertyOp60
 70
     1
102
RTVSPropertyOp61
 70
     1
102
RTVSPropertyOp62
 70
     1
  0
XRECORD
  5
33C
102
{ACAD_REACTORS
330
33B
102
}
330
33B
100
AcDbXrecord
280
     1
102
RTVSPost2010Prop28
280
     0
102
RTVSPost2010PropOp28
 70
     1
102
RTVSPost2010Prop29
280
     1
102
RTVSPost2010PropOp29
 70
     1
102
RTVSPost2010Prop30
280
     1
102
RTVSPost2010PropOp30
 70
     1
102
RTVSPost2010Prop31
280
     0
102
RTVSPost2010PropOp31
 70
     1
102
RTVSPost2010Prop32
280
     0
102
RTVSPost2010PropOp32
 70
     1
102
RTVSPost2010Prop33
280
     0
102
RTVSPost2010PropOp33
 70
     1
102
RTVSPost2010Prop34
280
     0
102
RTVSPost2010PropOp34
 70
     1
102
RTVSPost2010Prop35
280
     0
102
RTVSPost2010PropOp35
 70
     1
102
RTVSPost2010Prop36
280
     0
102
RTVSPost2010PropOp36
 70
     1
102
RTVSPost2010Prop37
 90
       50
102
RTVSPost2010PropOp37
 70
     1
102
RTVSPost2010Prop38
140
0.0
102
RTVSPost2010PropOp38
 70
     1
102
RTVSPost2010Prop39
140
1.0
102
RTVSPost2010PropOp39
 70
     1
102
RTVSPost2010Prop40
 90
        0
102
RTVSPost2010PropOp40
 70
     1
102
RTVSPost2010Prop41ColorIndex
 90
       18
102
RTVSPost2010Prop41ColorRGB
 90
        0
102
RTVSPost2010PropOp41
 70
     1
102
RTVSPost2010Prop42
 90
       50
102
RTVSPost2010PropOp42
 70
     1
102
RTVSPost2010Prop43
 90
        3
102
RTVSPost2010PropOp43
 70
     1
102
RTVSPost2010Prop44ColorIndex
 90
        5
102
RTVSPost2010Prop44ColorRGB
 90
      255
102
RTVSPost2010PropOp44
 70
     1
102
RTVSPost2010Prop45
280
     0
102
RTVSPost2010PropOp45
 70
     1
102
RTVSPost2010Prop46
 90
       50
102
RTVSPost2010PropOp46
 70
     1
102
RTVSPost2010Prop47
 90
       50
102
RTVSPost2010PropOp47
 70
     1
102
RTVSPost2010Prop48
 90
       50
102
RTVSPost2010PropOp48
 70
     1
102
RTVSPost2010Prop49
280
     0
102
RTVSPost2010PropOp49
 70
     1
102
RTVSPost2010Prop50
 90
       50
102
RTVSPost2010PropOp50
 70
     1
102
RTVSPost2010Prop51ColorIndex
 90
      256
102
RTVSPost2010Prop51ColorRGB
 90
-16777216
102
RTVSPost2010PropOp51
 70
     0
102
RTVSPost2010Prop52
140
1.0
102
RTVSPost2010PropOp52
 70
     0
102
RTVSPost2010Prop53
 90
        2
102
RTVSPost2010PropOp53
 70
     1
102
RTVSPost2010Prop54
  1
strokes_ogs.tif
102
RTVSPost2010PropOp54
 70
     1
102
RTVSPost2010Prop55
280
     0
102
RTVSPost2010PropOp55
 70
     1
102
RTVSPost2010Prop56
140
1.0
102
RTVSPost2010PropOp56
 70
     1
102
RTVSPost2010Prop57
140
1.0
102
RTVSPost2010PropOp57
 70
     1
102
RTVSPropertyOp0
 70
     1
102
RTVSPropertyOp1
 70
     1
102
RTVSPropertyOp2
 70
     1
102
RTVSPropertyOp3
 70
     1
102
RTVSPropertyOp4
 70
     1
102
RTVSPropertyOp5
 70
     1
102
RTVSPropertyOp6
 70
     1
102
RTVSPropertyOp7
 70
     1
102
RTVSPropertyOp8
 70
     1
102
RTVSPropertyOp9
 70
     1
102
RTVSPropertyOp10
 70
     1
102
RTVSPropertyOp11
 70
     1
102
RTVSPropertyOp12
 70
     1
102
RTVSPropertyOp13
 70
     1
102
RTVSPropertyOp14
 70
     1
102
RTVSPropertyOp15
 70
     1
102
RTVSPropertyOp16
 70
     1
102
RTVSPropertyOp17
 70
     1
102
RTVSPropertyOp18
 70
     1
102
RTVSPropertyOp19
 70
     1
102
RTVSPropertyOp20
 70
     1
102
RTVSPropertyOp21
 70
     1
102
RTVSPropertyOp22
 70
     1
102
RTVSPropertyOp23
 70
     1
102
RTVSPropertyOp24
 70
     1
102
RTVSPropertyOp25
 70
     1
102
RTVSPropertyOp26
 70
     1
102
RTVSPropertyOp27
 70
     1
102
RTVSPropertyOp28
 70
     1
102
RTVSPropertyOp29
 70
     1
102
RTVSPropertyOp30
 70
     1
102
RTVSPropertyOp31
 70
     1
102
RTVSPropertyOp32
 70
     1
102
RTVSPropertyOp33
 70
     1
102
RTVSPropertyOp34
 70
     1
102
RTVSPropertyOp35
 70
     1
102
RTVSPropertyOp36
 70
     1
102
RTVSPropertyOp37
 70
     1
102
RTVSPropertyOp38
 70
     1
102
RTVSPropertyOp39
 70
     1
102
RTVSPropertyOp40
 70
     1
102
RTVSPropertyOp41
 70
     1
102
RTVSPropertyOp42
 70
     1
102
RTVSPropertyOp43
 70
     1
102
RTVSPropertyOp44
 70
     1
102
RTVSPropertyOp45
 70
     1
102
RTVSPropertyOp46
 70
     1
102
RTVSPropertyOp47
 70
     1
102
RTVSPropertyOp48
 70
     1
102
RTVSPropertyOp49
 70
     1
102
RTVSPropertyOp50
 70
     1
102
RTVSPropertyOp51
 70
     0
102
RTVSPropertyOp52
 70
     0
102
RTVSPropertyOp53
 70
     1
102
RTVSPropertyOp54
 70
     1
102
RTVSPropertyOp55
 70
     1
102
RTVSPropertyOp56
 70
     1
102
RTVSPropertyOp57
 70
     1
102
RTVSPropertyOp58
 70
     1
102
RTVSPropertyOp59
 70
     1
102
RTVSPropertyOp60
 70
     1
102
RTVSPropertyOp61
 70
     1
102
RTVSPropertyOp62
 70
     1
  0
XRECORD
  5
344
102
{ACAD_REACTORS
330
343
102
}
330
343
100
AcDbXrecord
280
     1
102
RTVSPost2010Prop28
280
     0
102
RTVSPost2010PropOp28
 70
     1
102
RTVSPost2010Prop29
280
     1
102
RTVSPost2010PropOp29
 70
     1
102
RTVSPost2010Prop30
280
     1
102
RTVSPost2010PropOp30
 70
     1
102
RTVSPost2010Prop31
280
     0
102
RTVSPost2010PropOp31
 70
     1
102
RTVSPost2010Prop32
280
     0
102
RTVSPost2010PropOp32
 70
     1
102
RTVSPost2010Prop33
280
     0
102
RTVSPost2010PropOp33
 70
     1
102
RTVSPost2010Prop34
280
     0
102
RTVSPost2010PropOp34
 70
     1
102
RTVSPost2010Prop35
280
     0
102
RTVSPost2010PropOp35
 70
     1
102
RTVSPost2010Prop36
280
     0
102
RTVSPost2010PropOp36
 70
     1
102
RTVSPost2010Prop37
 90
       50
102
RTVSPost2010PropOp37
 70
     1
102
RTVSPost2010Prop38
140
0.0
102
RTVSPost2010PropOp38
 70
     1
102
RTVSPost2010Prop39
140
1.0
102
RTVSPost2010PropOp39
 70
     1
102
RTVSPost2010Prop40
 90
        0
102
RTVSPost2010PropOp40
 70
     1
102
RTVSPost2010Prop41ColorIndex
 90
       18
102
RTVSPost2010Prop41ColorRGB
 90
        0
102
RTVSPost2010PropOp41
 70
     1
102
RTVSPost2010Prop42
 90
       50
102
RTVSPost2010PropOp42
 70
     1
102
RTVSPost2010Prop43
 90
        3
102
RTVSPost2010PropOp43
 70
     1
102
RTVSPost2010Prop44ColorIndex
 90
        5
102
RTVSPost2010Prop44ColorRGB
 90
      255
102
RTVSPost2010PropOp44
 70
     1
102
RTVSPost2010Prop45
280
     0
102
RTVSPost2010PropOp45
 70
     1
102
RTVSPost2010Prop46
 90
       50
102
RTVSPost2010PropOp46
 70
     1
102
RTVSPost2010Prop47
 90
       50
102
RTVSPost2010PropOp47
 70
     1
102
RTVSPost2010Prop48
 90
       50
102
RTVSPost2010PropOp48
 70
     1
102
RTVSPost2010Prop49
280
     0
102
RTVSPost2010PropOp49
 70
     1
102
RTVSPost2010Prop50
 90
       50
102
RTVSPost2010PropOp50
 70
     1
102
RTVSPost2010Prop51ColorIndex
 90
      256
102
RTVSPost2010Prop51ColorRGB
 90
-16777216
102
RTVSPost2010PropOp51
 70
     0
102
RTVSPost2010Prop52
140
1.0
102
RTVSPost2010PropOp52
 70
     0
102
RTVSPost2010Prop53
 90
        2
102
RTVSPost2010PropOp53
 70
     1
102
RTVSPost2010Prop54
  1
strokes_ogs.tif
102
RTVSPost2010PropOp54
 70
     1
102
RTVSPost2010Prop55
280
     0
102
RTVSPost2010PropOp55
 70
     1
102
RTVSPost2010Prop56
140
1.0
102
RTVSPost2010PropOp56
 70
     1
102
RTVSPost2010Prop57
140
1.0
102
RTVSPost2010PropOp57
 70
     1
102
RTVSPropertyOp0
 70
     1
102
RTVSPropertyOp1
 70
     1
102
RTVSPropertyOp2
 70
     1
102
RTVSPropertyOp3
 70
     1
102
RTVSPropertyOp4
 70
     1
102
RTVSPropertyOp5
 70
     1
102
RTVSPropertyOp6
 70
     1
102
RTVSPropertyOp7
 70
     1
102
RTVSPropertyOp8
 70
     1
102
RTVSPropertyOp9
 70
     1
102
RTVSPropertyOp10
 70
     1
102
RTVSPropertyOp11
 70
     1
102
RTVSPropertyOp12
 70
     1
102
RTVSPropertyOp13
 70
     1
102
RTVSPropertyOp14
 70
     1
102
RTVSPropertyOp15
 70
     1
102
RTVSPropertyOp16
 70
     1
102
RTVSPropertyOp17
 70
     1
102
RTVSPropertyOp18
 70
     1
102
RTVSPropertyOp19
 70
     1
102
RTVSPropertyOp20
 70
     1
102
RTVSPropertyOp21
 70
     1
102
RTVSPropertyOp22
 70
     1
102
RTVSPropertyOp23
 70
     1
102
RTVSPropertyOp24
 70
     1
102
RTVSPropertyOp25
 70
     1
102
RTVSPropertyOp26
 70
     1
102
RTVSPropertyOp27
 70
     1
102
RTVSPropertyOp28
 70
     1
102
RTVSPropertyOp29
 70
     1
102
RTVSPropertyOp30
 70
     1
102
RTVSPropertyOp31
 70
     1
102
RTVSPropertyOp32
 70
     1
102
RTVSPropertyOp33
 70
     1
102
RTVSPropertyOp34
 70
     1
102
RTVSPropertyOp35
 70
     1
102
RTVSPropertyOp36
 70
     1
102
RTVSPropertyOp37
 70
     1
102
RTVSPropertyOp38
 70
     1
102
RTVSPropertyOp39
 70
     1
102
RTVSPropertyOp40
 70
     1
102
RTVSPropertyOp41
 70
     1
102
RTVSPropertyOp42
 70
     1
102
RTVSPropertyOp43
 70
     1
102
RTVSPropertyOp44
 70
     1
102
RTVSPropertyOp45
 70
     1
102
RTVSPropertyOp46
 70
     1
102
RTVSPropertyOp47
 70
     1
102
RTVSPropertyOp48
 70
     1
102
RTVSPropertyOp49
 70
     1
102
RTVSPropertyOp50
 70
     1
102
RTVSPropertyOp51
 70
     0
102
RTVSPropertyOp52
 70
     0
102
RTVSPropertyOp53
 70
     1
102
RTVSPropertyOp54
 70
     1
102
RTVSPropertyOp55
 70
     1
102
RTVSPropertyOp56
 70
     1
102
RTVSPropertyOp57
 70
     1
102
RTVSPropertyOp58
 70
     1
102
RTVSPropertyOp59
 70
     1
102
RTVSPropertyOp60
 70
     1
102
RTVSPropertyOp61
 70
     1
102
RTVSPropertyOp62
 70
     1
  0
XRECORD
  5
360
102
{ACAD_REACTORS
330
35F
102
}
330
35F
100
AcDbXrecord
280
     1
102
RTVSPost2010Prop28
280
     0
102
RTVSPost2010PropOp28
 70
     1
102
RTVSPost2010Prop29
280
     1
102
RTVSPost2010PropOp29
 70
     1
102
RTVSPost2010Prop30
280
     1
102
RTVSPost2010PropOp30
 70
     1
102
RTVSPost2010Prop31
280
     0
102
RTVSPost2010PropOp31
 70
     1
102
RTVSPost2010Prop32
280
     0
102
RTVSPost2010PropOp32
 70
     1
102
RTVSPost2010Prop33
280
     0
102
RTVSPost2010PropOp33
 70
     1
102
RTVSPost2010Prop34
280
     0
102
RTVSPost2010PropOp34
 70
     1
102
RTVSPost2010Prop35
280
     0
102
RTVSPost2010PropOp35
 70
     1
102
RTVSPost2010Prop36
280
     0
102
RTVSPost2010PropOp36
 70
     1
102
RTVSPost2010Prop37
 90
       50
102
RTVSPost2010PropOp37
 70
     0
102
RTVSPost2010Prop38
140
0.0
102
RTVSPost2010PropOp38
 70
     0
102
RTVSPost2010Prop39
140
1.0
102
RTVSPost2010PropOp39
 70
     0
102
RTVSPost2010Prop40
 90
        0
102
RTVSPost2010PropOp40
 70
     0
102
RTVSPost2010Prop41ColorIndex
 90
       18
102
RTVSPost2010Prop41ColorRGB
 90
        0
102
RTVSPost2010PropOp41
 70
     0
102
RTVSPost2010Prop42
 90
       50
102
RTVSPost2010PropOp42
 70
     0
102
RTVSPost2010Prop43
 90
        3
102
RTVSPost2010PropOp43
 70
     0
102
RTVSPost2010Prop44ColorIndex
 90
        5
102
RTVSPost2010Prop44ColorRGB
 90
      255
102
RTVSPost2010PropOp44
 70
     0
102
RTVSPost2010Prop45
280
     0
102
RTVSPost2010PropOp45
 70
     1
102
RTVSPost2010Prop46
 90
       50
102
RTVSPost2010PropOp46
 70
     0
102
RTVSPost2010Prop47
 90
       50
102
RTVSPost2010PropOp47
 70
     0
102
RTVSPost2010Prop48
 90
       50
102
RTVSPost2010PropOp48
 70
     0
102
RTVSPost2010Prop49
280
     0
102
RTVSPost2010PropOp49
 70
     1
102
RTVSPost2010Prop50
 90
       50
102
RTVSPost2010PropOp50
 70
     0
102
RTVSPost2010Prop51ColorIndex
 90
      256
102
RTVSPost2010Prop51ColorRGB
 90
-16777216
102
RTVSPost2010PropOp51
 70
     0
102
RTVSPost2010Prop52
140
1.0
102
RTVSPost2010PropOp52
 70
     0
102
RTVSPost2010Prop53
 90
        2
102
RTVSPost2010PropOp53
 70
     0
102
RTVSPost2010Prop54
  1
strokes_ogs.tif
102
RTVSPost2010PropOp54
 70
     0
102
RTVSPost2010Prop55
280
     0
102
RTVSPost2010PropOp55
 70
     1
102
RTVSPost2010Prop56
140
1.0
102
RTVSPost2010PropOp56
 70
     0
102
RTVSPost2010Prop57
140
1.0
102
RTVSPost2010PropOp57
 70
     0
102
RTVSPropertyOp0
 70
     0
102
RTVSPropertyOp1
 70
     0
102
RTVSPropertyOp2
 70
     0
102
RTVSPropertyOp3
 70
     0
102
RTVSPropertyOp4
 70
     0
102
RTVSPropertyOp5
 70
     0
102
RTVSPropertyOp6
 70
     0
102
RTVSPropertyOp7
 70
     0
102
RTVSPropertyOp8
 70
     0
102
RTVSPropertyOp9
 70
     0
102
RTVSPropertyOp10
 70
     0
102
RTVSPropertyOp11
 70
     0
102
RTVSPropertyOp12
 70
     0
102
RTVSPropertyOp13
 70
     0
102
RTVSPropertyOp14
 70
     2
102
RTVSPropertyOp15
 70
     0
102
RTVSPropertyOp16
 70
     0
102
RTVSPropertyOp17
 70
     0
102
RTVSPropertyOp18
 70
     0
102
RTVSPropertyOp19
 70
     0
102
RTVSPropertyOp20
 70
     0
102
RTVSPropertyOp21
 70
     0
102
RTVSPropertyOp22
 70
     0
102
RTVSPropertyOp23
 70
     0
102
RTVSPropertyOp24
 70
     0
102
RTVSPropertyOp25
 70
     0
102
RTVSPropertyOp26
 70
     0
102
RTVSPropertyOp27
 70
     0
102
RTVSPropertyOp28
 70
     1
102
RTVSPropertyOp29
 70
     1
102
RTVSPropertyOp30
 70
     1
102
RTVSPropertyOp31
 70
     1
102
RTVSPropertyOp32
 70
     1
102
RTVSPropertyOp33
 70
     1
102
RTVSPropertyOp34
 70
     1
102
RTVSPropertyOp35
 70
     1
102
RTVSPropertyOp36
 70
     1
102
RTVSPropertyOp37
 70
     0
102
RTVSPropertyOp38
 70
     0
102
RTVSPropertyOp39
 70
     0
102
RTVSPropertyOp40
 70
     0
102
RTVSPropertyOp41
 70
     0
102
RTVSPropertyOp42
 70
     0
102
RTVSPropertyOp43
 70
     0
102
RTVSPropertyOp44
 70
     0
102
RTVSPropertyOp45
 70
     1
102
RTVSPropertyOp46
 70
     0
102
RTVSPropertyOp47
 70
     0
102
RTVSPropertyOp48
 70
     0
102
RTVSPropertyOp49
 70
     1
102
RTVSPropertyOp50
 70
     0
102
RTVSPropertyOp51
 70
     0
102
RTVSPropertyOp52
 70
     0
102
RTVSPropertyOp53
 70
     0
102
RTVSPropertyOp54
 70
     0
102
RTVSPropertyOp55
 70
     1
102
RTVSPropertyOp56
 70
     0
102
RTVSPropertyOp57
 70
     0
102
RTVSPropertyOp58
 70
     0
102
RTVSPropertyOp59
 70
     0
102
RTVSPropertyOp60
 70
     0
102
RTVSPropertyOp61
 70
     0
102
RTVSPropertyOp62
 70
     0
  0
XRECORD
  5
350
102
{ACAD_REACTORS
330
34F
102
}
330
34F
100
AcDbXrecord
280
     1
102
RTVSPost2010Prop28
280
     0
102
RTVSPost2010PropOp28
 70
     1
102
RTVSPost2010Prop29
280
     1
102
RTVSPost2010PropOp29
 70
     1
102
RTVSPost2010Prop30
280
     1
102
RTVSPost2010PropOp30
 70
     1
102
RTVSPost2010Prop31
280
     0
102
RTVSPost2010PropOp31
 70
     1
102
RTVSPost2010Prop32
280
     0
102
RTVSPost2010PropOp32
 70
     1
102
RTVSPost2010Prop33
280
     0
102
RTVSPost2010PropOp33
 70
     1
102
RTVSPost2010Prop34
280
     0
102
RTVSPost2010PropOp34
 70
     1
102
RTVSPost2010Prop35
280
     0
102
RTVSPost2010PropOp35
 70
     1
102
RTVSPost2010Prop36
280
     0
102
RTVSPost2010PropOp36
 70
     1
102
RTVSPost2010Prop37
 90
       50
102
RTVSPost2010PropOp37
 70
     1
102
RTVSPost2010Prop38
140
0.0
102
RTVSPost2010PropOp38
 70
     1
102
RTVSPost2010Prop39
140
1.0
102
RTVSPost2010PropOp39
 70
     1
102
RTVSPost2010Prop40
 90
        0
102
RTVSPost2010PropOp40
 70
     1
102
RTVSPost2010Prop41ColorIndex
 90
       18
102
RTVSPost2010Prop41ColorRGB
 90
        0
102
RTVSPost2010PropOp41
 70
     1
102
RTVSPost2010Prop42
 90
       50
102
RTVSPost2010PropOp42
 70
     1
102
RTVSPost2010Prop43
 90
        3
102
RTVSPost2010PropOp43
 70
     1
102
RTVSPost2010Prop44ColorIndex
 90
        5
102
RTVSPost2010Prop44ColorRGB
 90
      255
102
RTVSPost2010PropOp44
 70
     1
102
RTVSPost2010Prop45
280
     0
102
RTVSPost2010PropOp45
 70
     1
102
RTVSPost2010Prop46
 90
       50
102
RTVSPost2010PropOp46
 70
     1
102
RTVSPost2010Prop47
 90
       50
102
RTVSPost2010PropOp47
 70
     1
102
RTVSPost2010Prop48
 90
       50
102
RTVSPost2010PropOp48
 70
     1
102
RTVSPost2010Prop49
280
     0
102
RTVSPost2010PropOp49
 70
     1
102
RTVSPost2010Prop50
 90
       50
102
RTVSPost2010PropOp50
 70
     1
102
RTVSPost2010Prop51ColorIndex
 90
      256
102
RTVSPost2010Prop51ColorRGB
 90
-16777216
102
RTVSPost2010PropOp51
 70
     0
102
RTVSPost2010Prop52
140
1.0
102
RTVSPost2010PropOp52
 70
     0
102
RTVSPost2010Prop53
 90
        2
102
RTVSPost2010PropOp53
 70
     1
102
RTVSPost2010Prop54
  1
strokes_ogs.tif
102
RTVSPost2010PropOp54
 70
     1
102
RTVSPost2010Prop55
280
     0
102
RTVSPost2010PropOp55
 70
     1
102
RTVSPost2010Prop56
140
1.0
102
RTVSPost2010PropOp56
 70
     1
102
RTVSPost2010Prop57
140
1.0
102
RTVSPost2010PropOp57
 70
     1
102
RTVSPropertyOp0
 70
     1
102
RTVSPropertyOp1
 70
     1
102
RTVSPropertyOp2
 70
     1
102
RTVSPropertyOp3
 70
     1
102
RTVSPropertyOp4
 70
     1
102
RTVSPropertyOp5
 70
     1
102
RTVSPropertyOp6
 70
     1
102
RTVSPropertyOp7
 70
     1
102
RTVSPropertyOp8
 70
     1
102
RTVSPropertyOp9
 70
     1
102
RTVSPropertyOp10
 70
     1
102
RTVSPropertyOp11
 70
     1
102
RTVSPropertyOp12
 70
     1
102
RTVSPropertyOp13
 70
     1
102
RTVSPropertyOp14
 70
     1
102
RTVSPropertyOp15
 70
     1
102
RTVSPropertyOp16
 70
     1
102
RTVSPropertyOp17
 70
     1
102
RTVSPropertyOp18
 70
     1
102
RTVSPropertyOp19
 70
     1
102
RTVSPropertyOp20
 70
     1
102
RTVSPropertyOp21
 70
     1
102
RTVSPropertyOp22
 70
     1
102
RTVSPropertyOp23
 70
     1
102
RTVSPropertyOp24
 70
     1
102
RTVSPropertyOp25
 70
     1
102
RTVSPropertyOp26
 70
     1
102
RTVSPropertyOp27
 70
     1
102
RTVSPropertyOp28
 70
     1
102
RTVSPropertyOp29
 70
     1
102
RTVSPropertyOp30
 70
     1
102
RTVSPropertyOp31
 70
     1
102
RTVSPropertyOp32
 70
     1
102
RTVSPropertyOp33
 70
     1
102
RTVSPropertyOp34
 70
     1
102
RTVSPropertyOp35
 70
     1
102
RTVSPropertyOp36
 70
     1
102
RTVSPropertyOp37
 70
     1
102
RTVSPropertyOp38
 70
     1
102
RTVSPropertyOp39
 70
     1
102
RTVSPropertyOp40
 70
     1
102
RTVSPropertyOp41
 70
     1
102
RTVSPropertyOp42
 70
     1
102
RTVSPropertyOp43
 70
     1
102
RTVSPropertyOp44
 70
     1
102
RTVSPropertyOp45
 70
     1
102
RTVSPropertyOp46
 70
     1
102
RTVSPropertyOp47
 70
     1
102
RTVSPropertyOp48
 70
     1
102
RTVSPropertyOp49
 70
     1
102
RTVSPropertyOp50
 70
     1
102
RTVSPropertyOp51
 70
     0
102
RTVSPropertyOp52
 70
     0
102
RTVSPropertyOp53
 70
     1
102
RTVSPropertyOp54
 70
     1
102
RTVSPropertyOp55
 70
     1
102
RTVSPropertyOp56
 70
     1
102
RTVSPropertyOp57
 70
     1
102
RTVSPropertyOp58
 70
     1
102
RTVSPropertyOp59
 70
     1
102
RTVSPropertyOp60
 70
     1
102
RTVSPropertyOp61
 70
     1
102
RTVSPropertyOp62
 70
     1
  0
XRECORD
  5
362
102
{ACAD_REACTORS
330
361
102
}
330
361
100
AcDbXrecord
280
     1
102
RTVSPost2010Prop28
280
     0
102
RTVSPost2010PropOp28
 70
     1
102
RTVSPost2010Prop29
280
     1
102
RTVSPost2010PropOp29
 70
     1
102
RTVSPost2010Prop30
280
     1
102
RTVSPost2010PropOp30
 70
     1
102
RTVSPost2010Prop31
280
     0
102
RTVSPost2010PropOp31
 70
     1
102
RTVSPost2010Prop32
280
     0
102
RTVSPost2010PropOp32
 70
     1
102
RTVSPost2010Prop33
280
     0
102
RTVSPost2010PropOp33
 70
     1
102
RTVSPost2010Prop34
280
     0
102
RTVSPost2010PropOp34
 70
     1
102
RTVSPost2010Prop35
280
     0
102
RTVSPost2010PropOp35
 70
     1
102
RTVSPost2010Prop36
280
     0
102
RTVSPost2010PropOp36
 70
     1
102
RTVSPost2010Prop37
 90
       50
102
RTVSPost2010PropOp37
 70
     0
102
RTVSPost2010Prop38
140
0.0
102
RTVSPost2010PropOp38
 70
     0
102
RTVSPost2010Prop39
140
1.0
102
RTVSPost2010PropOp39
 70
     0
102
RTVSPost2010Prop40
 90
        0
102
RTVSPost2010PropOp40
 70
     0
102
RTVSPost2010Prop41ColorIndex
 90
       18
102
RTVSPost2010Prop41ColorRGB
 90
        0
102
RTVSPost2010PropOp41
 70
     0
102
RTVSPost2010Prop42
 90
       50
102
RTVSPost2010PropOp42
 70
     0
102
RTVSPost2010Prop43
 90
        3
102
RTVSPost2010PropOp43
 70
     0
102
RTVSPost2010Prop44ColorIndex
 90
        5
102
RTVSPost2010Prop44ColorRGB
 90
      255
102
RTVSPost2010PropOp44
 70
     0
102
RTVSPost2010Prop45
280
     0
102
RTVSPost2010PropOp45
 70
     1
102
RTVSPost2010Prop46
 90
       50
102
RTVSPost2010PropOp46
 70
     0
102
RTVSPost2010Prop47
 90
       50
102
RTVSPost2010PropOp47
 70
     0
102
RTVSPost2010Prop48
 90
       50
102
RTVSPost2010PropOp48
 70
     0
102
RTVSPost2010Prop49
280
     0
102
RTVSPost2010PropOp49
 70
     1
102
RTVSPost2010Prop50
 90
       50
102
RTVSPost2010PropOp50
 70
     0
102
RTVSPost2010Prop51ColorIndex
 90
      256
102
RTVSPost2010Prop51ColorRGB
 90
-16777216
102
RTVSPost2010PropOp51
 70
     0
102
RTVSPost2010Prop52
140
1.0
102
RTVSPost2010PropOp52
 70
     0
102
RTVSPost2010Prop53
 90
        2
102
RTVSPost2010PropOp53
 70
     0
102
RTVSPost2010Prop54
  1
strokes_ogs.tif
102
RTVSPost2010PropOp54
 70
     0
102
RTVSPost2010Prop55
280
     0
102
RTVSPost2010PropOp55
 70
     1
102
RTVSPost2010Prop56
140
1.0
102
RTVSPost2010PropOp56
 70
     0
102
RTVSPost2010Prop57
140
1.0
102
RTVSPost2010PropOp57
 70
     0
102
RTVSPropertyOp0
 70
     0
102
RTVSPropertyOp1
 70
     0
102
RTVSPropertyOp2
 70
     0
102
RTVSPropertyOp3
 70
     0
102
RTVSPropertyOp4
 70
     0
102
RTVSPropertyOp5
 70
     0
102
RTVSPropertyOp6
 70
     0
102
RTVSPropertyOp7
 70
     0
102
RTVSPropertyOp8
 70
     0
102
RTVSPropertyOp9
 70
     0
102
RTVSPropertyOp10
 70
     0
102
RTVSPropertyOp11
 70
     0
102
RTVSPropertyOp12
 70
     0
102
RTVSPropertyOp13
 70
     0
102
RTVSPropertyOp14
 70
     2
102
RTVSPropertyOp15
 70
     0
102
RTVSPropertyOp16
 70
     0
102
RTVSPropertyOp17
 70
     0
102
RTVSPropertyOp18
 70
     0
102
RTVSPropertyOp19
 70
     0
102
RTVSPropertyOp20
 70
     0
102
RTVSPropertyOp21
 70
     0
102
RTVSPropertyOp22
 70
     0
102
RTVSPropertyOp23
 70
     0
102
RTVSPropertyOp24
 70
     0
102
RTVSPropertyOp25
 70
     0
102
RTVSPropertyOp26
 70
     0
102
RTVSPropertyOp27
 70
     0
102
RTVSPropertyOp28
 70
     1
102
RTVSPropertyOp29
 70
     1
102
RTVSPropertyOp30
 70
     1
102
RTVSPropertyOp31
 70
     1
102
RTVSPropertyOp32
 70
     1
102
RTVSPropertyOp33
 70
     1
102
RTVSPropertyOp34
 70
     1
102
RTVSPropertyOp35
 70
     1
102
RTVSPropertyOp36
 70
     1
102
RTVSPropertyOp37
 70
     0
102
RTVSPropertyOp38
 70
     0
102
RTVSPropertyOp39
 70
     0
102
RTVSPropertyOp40
 70
     0
102
RTVSPropertyOp41
 70
     0
102
RTVSPropertyOp42
 70
     0
102
RTVSPropertyOp43
 70
     0
102
RTVSPropertyOp44
 70
     0
102
RTVSPropertyOp45
 70
     1
102
RTVSPropertyOp46
 70
     0
102
RTVSPropertyOp47
 70
     0
102
RTVSPropertyOp48
 70
     0
102
RTVSPropertyOp49
 70
     1
102
RTVSPropertyOp50
 70
     0
102
RTVSPropertyOp51
 70
     0
102
RTVSPropertyOp52
 70
     0
102
RTVSPropertyOp53
 70
     0
102
RTVSPropertyOp54
 70
     0
102
RTVSPropertyOp55
 70
     1
102
RTVSPropertyOp56
 70
     0
102
RTVSPropertyOp57
 70
     0
102
RTVSPropertyOp58
 70
     0
102
RTVSPropertyOp59
 70
     0
102
RTVSPropertyOp60
 70
     0
102
RTVSPropertyOp61
 70
     0
102
RTVSPropertyOp62
 70
     0
  0
XRECORD
  5
348
102
{ACAD_REACTORS
330
347
102
}
330
347
100
AcDbXrecord
280
     1
102
RTVSPost2010Prop28
280
     0
102
RTVSPost2010PropOp28
 70
     1
102
RTVSPost2010Prop29
280
     1
102
RTVSPost2010PropOp29
 70
     1
102
RTVSPost2010Prop30
280
     1
102
RTVSPost2010PropOp30
 70
     1
102
RTVSPost2010Prop31
280
     0
102
RTVSPost2010PropOp31
 70
     1
102
RTVSPost2010Prop32
280
     0
102
RTVSPost2010PropOp32
 70
     1
102
RTVSPost2010Prop33
280
     0
102
RTVSPost2010PropOp33
 70
     1
102
RTVSPost2010Prop34
280
     0
102
RTVSPost2010PropOp34
 70
     1
102
RTVSPost2010Prop35
280
     0
102
RTVSPost2010PropOp35
 70
     1
102
RTVSPost2010Prop36
280
     0
102
RTVSPost2010PropOp36
 70
     1
102
RTVSPost2010Prop37
 90
       50
102
RTVSPost2010PropOp37
 70
     1
102
RTVSPost2010Prop38
140
0.0
102
RTVSPost2010PropOp38
 70
     1
102
RTVSPost2010Prop39
140
1.0
102
RTVSPost2010PropOp39
 70
     1
102
RTVSPost2010Prop40
 90
        0
102
RTVSPost2010PropOp40
 70
     1
102
RTVSPost2010Prop41ColorIndex
 90
       18
102
RTVSPost2010Prop41ColorRGB
 90
        0
102
RTVSPost2010PropOp41
 70
     1
102
RTVSPost2010Prop42
 90
       50
102
RTVSPost2010PropOp42
 70
     1
102
RTVSPost2010Prop43
 90
        3
102
RTVSPost2010PropOp43
 70
     1
102
RTVSPost2010Prop44ColorIndex
 90
        5
102
RTVSPost2010Prop44ColorRGB
 90
      255
102
RTVSPost2010PropOp44
 70
     1
102
RTVSPost2010Prop45
280
     0
102
RTVSPost2010PropOp45
 70
     1
102
RTVSPost2010Prop46
 90
       50
102
RTVSPost2010PropOp46
 70
     1
102
RTVSPost2010Prop47
 90
       50
102
RTVSPost2010PropOp47
 70
     1
102
RTVSPost2010Prop48
 90
       50
102
RTVSPost2010PropOp48
 70
     1
102
RTVSPost2010Prop49
280
     0
102
RTVSPost2010PropOp49
 70
     1
102
RTVSPost2010Prop50
 90
       50
102
RTVSPost2010PropOp50
 70
     1
102
RTVSPost2010Prop51ColorIndex
 90
      256
102
RTVSPost2010Prop51ColorRGB
 90
-16777216
102
RTVSPost2010PropOp51
 70
     0
102
RTVSPost2010Prop52
140
1.0
102
RTVSPost2010PropOp52
 70
     0
102
RTVSPost2010Prop53
 90
        2
102
RTVSPost2010PropOp53
 70
     1
102
RTVSPost2010Prop54
  1
strokes_ogs.tif
102
RTVSPost2010PropOp54
 70
     1
102
RTVSPost2010Prop55
280
     0
102
RTVSPost2010PropOp55
 70
     1
102
RTVSPost2010Prop56
140
1.0
102
RTVSPost2010PropOp56
 70
     1
102
RTVSPost2010Prop57
140
1.0
102
RTVSPost2010PropOp57
 70
     1
102
RTVSPropertyOp0
 70
     1
102
RTVSPropertyOp1
 70
     1
102
RTVSPropertyOp2
 70
     1
102
RTVSPropertyOp3
 70
     1
102
RTVSPropertyOp4
 70
     1
102
RTVSPropertyOp5
 70
     1
102
RTVSPropertyOp6
 70
     1
102
RTVSPropertyOp7
 70
     1
102
RTVSPropertyOp8
 70
     1
102
RTVSPropertyOp9
 70
     1
102
RTVSPropertyOp10
 70
     1
102
RTVSPropertyOp11
 70
     1
102
RTVSPropertyOp12
 70
     1
102
RTVSPropertyOp13
 70
     1
102
RTVSPropertyOp14
 70
     1
102
RTVSPropertyOp15
 70
     1
102
RTVSPropertyOp16
 70
     1
102
RTVSPropertyOp17
 70
     1
102
RTVSPropertyOp18
 70
     1
102
RTVSPropertyOp19
 70
     1
102
RTVSPropertyOp20
 70
     1
102
RTVSPropertyOp21
 70
     1
102
RTVSPropertyOp22
 70
     1
102
RTVSPropertyOp23
 70
     1
102
RTVSPropertyOp24
 70
     1
102
RTVSPropertyOp25
 70
     1
102
RTVSPropertyOp26
 70
     1
102
RTVSPropertyOp27
 70
     1
102
RTVSPropertyOp28
 70
     1
102
RTVSPropertyOp29
 70
     1
102
RTVSPropertyOp30
 70
     1
102
RTVSPropertyOp31
 70
     1
102
RTVSPropertyOp32
 70
     1
102
RTVSPropertyOp33
 70
     1
102
RTVSPropertyOp34
 70
     1
102
RTVSPropertyOp35
 70
     1
102
RTVSPropertyOp36
 70
     1
102
RTVSPropertyOp37
 70
     1
102
RTVSPropertyOp38
 70
     1
102
RTVSPropertyOp39
 70
     1
102
RTVSPropertyOp40
 70
     1
102
RTVSPropertyOp41
 70
     1
102
RTVSPropertyOp42
 70
     1
102
RTVSPropertyOp43
 70
     1
102
RTVSPropertyOp44
 70
     1
102
RTVSPropertyOp45
 70
     1
102
RTVSPropertyOp46
 70
     1
102
RTVSPropertyOp47
 70
     1
102
RTVSPropertyOp48
 70
     1
102
RTVSPropertyOp49
 70
     1
102
RTVSPropertyOp50
 70
     1
102
RTVSPropertyOp51
 70
     0
102
RTVSPropertyOp52
 70
     0
102
RTVSPropertyOp53
 70
     1
102
RTVSPropertyOp54
 70
     1
102
RTVSPropertyOp55
 70
     1
102
RTVSPropertyOp56
 70
     1
102
RTVSPropertyOp57
 70
     1
102
RTVSPropertyOp58
 70
     1
102
RTVSPropertyOp59
 70
     1
102
RTVSPropertyOp60
 70
     1
102
RTVSPropertyOp61
 70
     1
102
RTVSPropertyOp62
 70
     1
  0
XRECORD
  5
35E
102
{ACAD_REACTORS
330
35D
102
}
330
35D
100
AcDbXrecord
280
     1
102
RTVSPost2010Prop28
280
     0
102
RTVSPost2010PropOp28
 70
     1
102
RTVSPost2010Prop29
280
     1
102
RTVSPost2010PropOp29
 70
     1
102
RTVSPost2010Prop30
280
     1
102
RTVSPost2010PropOp30
 70
     1
102
RTVSPost2010Prop31
280
     0
102
RTVSPost2010PropOp31
 70
     1
102
RTVSPost2010Prop32
280
     0
102
RTVSPost2010PropOp32
 70
     1
102
RTVSPost2010Prop33
280
     0
102
RTVSPost2010PropOp33
 70
     1
102
RTVSPost2010Prop34
280
     0
102
RTVSPost2010PropOp34
 70
     1
102
RTVSPost2010Prop35
280
     0
102
RTVSPost2010PropOp35
 70
     1
102
RTVSPost2010Prop36
280
     0
102
RTVSPost2010PropOp36
 70
     1
102
RTVSPost2010Prop37
 90
       50
102
RTVSPost2010PropOp37
 70
     1
102
RTVSPost2010Prop38
140
0.0
102
RTVSPost2010PropOp38
 70
     1
102
RTVSPost2010Prop39
140
1.0
102
RTVSPost2010PropOp39
 70
     1
102
RTVSPost2010Prop40
 90
        0
102
RTVSPost2010PropOp40
 70
     1
102
RTVSPost2010Prop41ColorIndex
 90
       18
102
RTVSPost2010Prop41ColorRGB
 90
        0
102
RTVSPost2010PropOp41
 70
     1
102
RTVSPost2010Prop42
 90
       50
102
RTVSPost2010PropOp42
 70
     1
102
RTVSPost2010Prop43
 90
        3
102
RTVSPost2010PropOp43
 70
     1
102
RTVSPost2010Prop44ColorIndex
 90
        5
102
RTVSPost2010Prop44ColorRGB
 90
      255
102
RTVSPost2010PropOp44
 70
     1
102
RTVSPost2010Prop45
280
     0
102
RTVSPost2010PropOp45
 70
     1
102
RTVSPost2010Prop46
 90
       50
102
RTVSPost2010PropOp46
 70
     1
102
RTVSPost2010Prop47
 90
       50
102
RTVSPost2010PropOp47
 70
     1
102
RTVSPost2010Prop48
 90
       50
102
RTVSPost2010PropOp48
 70
     1
102
RTVSPost2010Prop49
280
     0
102
RTVSPost2010PropOp49
 70
     1
102
RTVSPost2010Prop50
 90
       50
102
RTVSPost2010PropOp50
 70
     1
102
RTVSPost2010Prop51ColorIndex
 90
      256
102
RTVSPost2010Prop51ColorRGB
 90
-16777216
102
RTVSPost2010PropOp51
 70
     0
102
RTVSPost2010Prop52
140
1.0
102
RTVSPost2010PropOp52
 70
     0
102
RTVSPost2010Prop53
 90
        2
102
RTVSPost2010PropOp53
 70
     1
102
RTVSPost2010Prop54
  1
strokes_ogs.tif
102
RTVSPost2010PropOp54
 70
     1
102
RTVSPost2010Prop55
280
     0
102
RTVSPost2010PropOp55
 70
     1
102
RTVSPost2010Prop56
140
1.0
102
RTVSPost2010PropOp56
 70
     1
102
RTVSPost2010Prop57
140
1.0
102
RTVSPost2010PropOp57
 70
     1
102
RTVSPropertyOp0
 70
     1
102
RTVSPropertyOp1
 70
     1
102
RTVSPropertyOp2
 70
     1
102
RTVSPropertyOp3
 70
     1
102
RTVSPropertyOp4
 70
     1
102
RTVSPropertyOp5
 70
     1
102
RTVSPropertyOp6
 70
     1
102
RTVSPropertyOp7
 70
     1
102
RTVSPropertyOp8
 70
     1
102
RTVSPropertyOp9
 70
     1
102
RTVSPropertyOp10
 70
     1
102
RTVSPropertyOp11
 70
     1
102
RTVSPropertyOp12
 70
     1
102
RTVSPropertyOp13
 70
     1
102
RTVSPropertyOp14
 70
     1
102
RTVSPropertyOp15
 70
     1
102
RTVSPropertyOp16
 70
     1
102
RTVSPropertyOp17
 70
     1
102
RTVSPropertyOp18
 70
     1
102
RTVSPropertyOp19
 70
     1
102
RTVSPropertyOp20
 70
     1
102
RTVSPropertyOp21
 70
     1
102
RTVSPropertyOp22
 70
     1
102
RTVSPropertyOp23
 70
     1
102
RTVSPropertyOp24
 70
     1
102
RTVSPropertyOp25
 70
     1
102
RTVSPropertyOp26
 70
     1
102
RTVSPropertyOp27
 70
     1
102
RTVSPropertyOp28
 70
     1
102
RTVSPropertyOp29
 70
     1
102
RTVSPropertyOp30
 70
     1
102
RTVSPropertyOp31
 70
     1
102
RTVSPropertyOp32
 70
     1
102
RTVSPropertyOp33
 70
     1
102
RTVSPropertyOp34
 70
     1
102
RTVSPropertyOp35
 70
     1
102
RTVSPropertyOp36
 70
     1
102
RTVSPropertyOp37
 70
     1
102
RTVSPropertyOp38
 70
     1
102
RTVSPropertyOp39
 70
     1
102
RTVSPropertyOp40
 70
     1
102
RTVSPropertyOp41
 70
     1
102
RTVSPropertyOp42
 70
     1
102
RTVSPropertyOp43
 70
     1
102
RTVSPropertyOp44
 70
     1
102
RTVSPropertyOp45
 70
     1
102
RTVSPropertyOp46
 70
     1
102
RTVSPropertyOp47
 70
     1
102
RTVSPropertyOp48
 70
     1
102
RTVSPropertyOp49
 70
     1
102
RTVSPropertyOp50
 70
     1
102
RTVSPropertyOp51
 70
     0
102
RTVSPropertyOp52
 70
     0
102
RTVSPropertyOp53
 70
     1
102
RTVSPropertyOp54
 70
     1
102
RTVSPropertyOp55
 70
     1
102
RTVSPropertyOp56
 70
     1
102
RTVSPropertyOp57
 70
     1
102
RTVSPropertyOp58
 70
     1
102
RTVSPropertyOp59
 70
     1
102
RTVSPropertyOp60
 70
     1
102
RTVSPropertyOp61
 70
     1
102
RTVSPropertyOp62
 70
     1
  0
XRECORD
  5
35C
102
{ACAD_REACTORS
330
35B
102
}
330
35B
100
AcDbXrecord
280
     1
102
RTVSPost2010Prop28
280
     0
102
RTVSPost2010PropOp28
 70
     1
102
RTVSPost2010Prop29
280
     1
102
RTVSPost2010PropOp29
 70
     1
102
RTVSPost2010Prop30
280
     1
102
RTVSPost2010PropOp30
 70
     1
102
RTVSPost2010Prop31
280
     0
102
RTVSPost2010PropOp31
 70
     1
102
RTVSPost2010Prop32
280
     0
102
RTVSPost2010PropOp32
 70
     1
102
RTVSPost2010Prop33
280
     0
102
RTVSPost2010PropOp33
 70
     1
102
RTVSPost2010Prop34
280
     0
102
RTVSPost2010PropOp34
 70
     1
102
RTVSPost2010Prop35
280
     0
102
RTVSPost2010PropOp35
 70
     1
102
RTVSPost2010Prop36
280
     0
102
RTVSPost2010PropOp36
 70
     1
102
RTVSPost2010Prop37
 90
       50
102
RTVSPost2010PropOp37
 70
     1
102
RTVSPost2010Prop38
140
0.0
102
RTVSPost2010PropOp38
 70
     1
102
RTVSPost2010Prop39
140
1.0
102
RTVSPost2010PropOp39
 70
     1
102
RTVSPost2010Prop40
 90
        0
102
RTVSPost2010PropOp40
 70
     1
102
RTVSPost2010Prop41ColorIndex
 90
       18
102
RTVSPost2010Prop41ColorRGB
 90
        0
102
RTVSPost2010PropOp41
 70
     1
102
RTVSPost2010Prop42
 90
       50
102
RTVSPost2010PropOp42
 70
     1
102
RTVSPost2010Prop43
 90
        3
102
RTVSPost2010PropOp43
 70
     1
102
RTVSPost2010Prop44ColorIndex
 90
        5
102
RTVSPost2010Prop44ColorRGB
 90
      255
102
RTVSPost2010PropOp44
 70
     1
102
RTVSPost2010Prop45
280
     0
102
RTVSPost2010PropOp45
 70
     1
102
RTVSPost2010Prop46
 90
       50
102
RTVSPost2010PropOp46
 70
     1
102
RTVSPost2010Prop47
 90
       50
102
RTVSPost2010PropOp47
 70
     1
102
RTVSPost2010Prop48
 90
       50
102
RTVSPost2010PropOp48
 70
     1
102
RTVSPost2010Prop49
280
     0
102
RTVSPost2010PropOp49
 70
     1
102
RTVSPost2010Prop50
 90
       50
102
RTVSPost2010PropOp50
 70
     1
102
RTVSPost2010Prop51ColorIndex
 90
      256
102
RTVSPost2010Prop51ColorRGB
 90
-16777216
102
RTVSPost2010PropOp51
 70
     0
102
RTVSPost2010Prop52
140
1.0
102
RTVSPost2010PropOp52
 70
     0
102
RTVSPost2010Prop53
 90
        2
102
RTVSPost2010PropOp53
 70
     1
102
RTVSPost2010Prop54
  1
strokes_ogs.tif
102
RTVSPost2010PropOp54
 70
     1
102
RTVSPost2010Prop55
280
     0
102
RTVSPost2010PropOp55
 70
     1
102
RTVSPost2010Prop56
140
1.0
102
RTVSPost2010PropOp56
 70
     1
102
RTVSPost2010Prop57
140
1.0
102
RTVSPost2010PropOp57
 70
     1
102
RTVSPropertyOp0
 70
     1
102
RTVSPropertyOp1
 70
     1
102
RTVSPropertyOp2
 70
     1
102
RTVSPropertyOp3
 70
     1
102
RTVSPropertyOp4
 70
     1
102
RTVSPropertyOp5
 70
     1
102
RTVSPropertyOp6
 70
     1
102
RTVSPropertyOp7
 70
     1
102
RTVSPropertyOp8
 70
     1
102
RTVSPropertyOp9
 70
     1
102
RTVSPropertyOp10
 70
     1
102
RTVSPropertyOp11
 70
     1
102
RTVSPropertyOp12
 70
     1
102
RTVSPropertyOp13
 70
     1
102
RTVSPropertyOp14
 70
     1
102
RTVSPropertyOp15
 70
     1
102
RTVSPropertyOp16
 70
     1
102
RTVSPropertyOp17
 70
     1
102
RTVSPropertyOp18
 70
     1
102
RTVSPropertyOp19
 70
     1
102
RTVSPropertyOp20
 70
     1
102
RTVSPropertyOp21
 70
     1
102
RTVSPropertyOp22
 70
     1
102
RTVSPropertyOp23
 70
     1
102
RTVSPropertyOp24
 70
     1
102
RTVSPropertyOp25
 70
     1
102
RTVSPropertyOp26
 70
     1
102
RTVSPropertyOp27
 70
     1
102
RTVSPropertyOp28
 70
     1
102
RTVSPropertyOp29
 70
     1
102
RTVSPropertyOp30
 70
     1
102
RTVSPropertyOp31
 70
     1
102
RTVSPropertyOp32
 70
     1
102
RTVSPropertyOp33
 70
     1
102
RTVSPropertyOp34
 70
     1
102
RTVSPropertyOp35
 70
     1
102
RTVSPropertyOp36
 70
     1
102
RTVSPropertyOp37
 70
     1
102
RTVSPropertyOp38
 70
     1
102
RTVSPropertyOp39
 70
     1
102
RTVSPropertyOp40
 70
     1
102
RTVSPropertyOp41
 70
     1
102
RTVSPropertyOp42
 70
     1
102
RTVSPropertyOp43
 70
     1
102
RTVSPropertyOp44
 70
     1
102
RTVSPropertyOp45
 70
     1
102
RTVSPropertyOp46
 70
     1
102
RTVSPropertyOp47
 70
     1
102
RTVSPropertyOp48
 70
     1
102
RTVSPropertyOp49
 70
     1
102
RTVSPropertyOp50
 70
     1
102
RTVSPropertyOp51
 70
     0
102
RTVSPropertyOp52
 70
     0
102
RTVSPropertyOp53
 70
     1
102
RTVSPropertyOp54
 70
     1
102
RTVSPropertyOp55
 70
     1
102
RTVSPropertyOp56
 70
     1
102
RTVSPropertyOp57
 70
     1
102
RTVSPropertyOp58
 70
     1
102
RTVSPropertyOp59
 70
     1
102
RTVSPropertyOp60
 70
     1
102
RTVSPropertyOp61
 70
     1
102
RTVSPropertyOp62
 70
     1
  0
XRECORD
  5
356
102
{ACAD_REACTORS
330
355
102
}
330
355
100
AcDbXrecord
280
     1
102
RTVSPost2010Prop28
280
     0
102
RTVSPost2010PropOp28
 70
     1
102
RTVSPost2010Prop29
280
     1
102
RTVSPost2010PropOp29
 70
     1
102
RTVSPost2010Prop30
280
     1
102
RTVSPost2010PropOp30
 70
     1
102
RTVSPost2010Prop31
280
     0
102
RTVSPost2010PropOp31
 70
     1
102
RTVSPost2010Prop32
280
     0
102
RTVSPost2010PropOp32
 70
     1
102
RTVSPost2010Prop33
280
     0
102
RTVSPost2010PropOp33
 70
     1
102
RTVSPost2010Prop34
280
     0
102
RTVSPost2010PropOp34
 70
     1
102
RTVSPost2010Prop35
280
     0
102
RTVSPost2010PropOp35
 70
     1
102
RTVSPost2010Prop36
280
     0
102
RTVSPost2010PropOp36
 70
     1
102
RTVSPost2010Prop37
 90
       50
102
RTVSPost2010PropOp37
 70
     1
102
RTVSPost2010Prop38
140
0.0
102
RTVSPost2010PropOp38
 70
     1
102
RTVSPost2010Prop39
140
1.0
102
RTVSPost2010PropOp39
 70
     1
102
RTVSPost2010Prop40
 90
        0
102
RTVSPost2010PropOp40
 70
     1
102
RTVSPost2010Prop41ColorIndex
 90
       18
102
RTVSPost2010Prop41ColorRGB
 90
        0
102
RTVSPost2010PropOp41
 70
     1
102
RTVSPost2010Prop42
 90
       50
102
RTVSPost2010PropOp42
 70
     1
102
RTVSPost2010Prop43
 90
        3
102
RTVSPost2010PropOp43
 70
     1
102
RTVSPost2010Prop44ColorIndex
 90
        5
102
RTVSPost2010Prop44ColorRGB
 90
      255
102
RTVSPost2010PropOp44
 70
     1
102
RTVSPost2010Prop45
280
     0
102
RTVSPost2010PropOp45
 70
     1
102
RTVSPost2010Prop46
 90
       50
102
RTVSPost2010PropOp46
 70
     1
102
RTVSPost2010Prop47
 90
       50
102
RTVSPost2010PropOp47
 70
     1
102
RTVSPost2010Prop48
 90
       50
102
RTVSPost2010PropOp48
 70
     1
102
RTVSPost2010Prop49
280
     0
102
RTVSPost2010PropOp49
 70
     1
102
RTVSPost2010Prop50
 90
       50
102
RTVSPost2010PropOp50
 70
     1
102
RTVSPost2010Prop51ColorIndex
 90
      256
102
RTVSPost2010Prop51ColorRGB
 90
-16777216
102
RTVSPost2010PropOp51
 70
     0
102
RTVSPost2010Prop52
140
1.0
102
RTVSPost2010PropOp52
 70
     0
102
RTVSPost2010Prop53
 90
        2
102
RTVSPost2010PropOp53
 70
     1
102
RTVSPost2010Prop54
  1
strokes_ogs.tif
102
RTVSPost2010PropOp54
 70
     1
102
RTVSPost2010Prop55
280
     0
102
RTVSPost2010PropOp55
 70
     1
102
RTVSPost2010Prop56
140
1.0
102
RTVSPost2010PropOp56
 70
     1
102
RTVSPost2010Prop57
140
1.0
102
RTVSPost2010PropOp57
 70
     1
102
RTVSPropertyOp0
 70
     1
102
RTVSPropertyOp1
 70
     1
102
RTVSPropertyOp2
 70
     1
102
RTVSPropertyOp3
 70
     1
102
RTVSPropertyOp4
 70
     1
102
RTVSPropertyOp5
 70
     1
102
RTVSPropertyOp6
 70
     1
102
RTVSPropertyOp7
 70
     1
102
RTVSPropertyOp8
 70
     1
102
RTVSPropertyOp9
 70
     1
102
RTVSPropertyOp10
 70
     1
102
RTVSPropertyOp11
 70
     1
102
RTVSPropertyOp12
 70
     1
102
RTVSPropertyOp13
 70
     1
102
RTVSPropertyOp14
 70
     1
102
RTVSPropertyOp15
 70
     1
102
RTVSPropertyOp16
 70
     1
102
RTVSPropertyOp17
 70
     1
102
RTVSPropertyOp18
 70
     1
102
RTVSPropertyOp19
 70
     1
102
RTVSPropertyOp20
 70
     1
102
RTVSPropertyOp21
 70
     1
102
RTVSPropertyOp22
 70
     1
102
RTVSPropertyOp23
 70
     1
102
RTVSPropertyOp24
 70
     1
102
RTVSPropertyOp25
 70
     1
102
RTVSPropertyOp26
 70
     1
102
RTVSPropertyOp27
 70
     1
102
RTVSPropertyOp28
 70
     1
102
RTVSPropertyOp29
 70
     1
102
RTVSPropertyOp30
 70
     1
102
RTVSPropertyOp31
 70
     1
102
RTVSPropertyOp32
 70
     1
102
RTVSPropertyOp33
 70
     1
102
RTVSPropertyOp34
 70
     1
102
RTVSPropertyOp35
 70
     1
102
RTVSPropertyOp36
 70
     1
102
RTVSPropertyOp37
 70
     1
102
RTVSPropertyOp38
 70
     1
102
RTVSPropertyOp39
 70
     1
102
RTVSPropertyOp40
 70
     1
102
RTVSPropertyOp41
 70
     1
102
RTVSPropertyOp42
 70
     1
102
RTVSPropertyOp43
 70
     1
102
RTVSPropertyOp44
 70
     1
102
RTVSPropertyOp45
 70
     1
102
RTVSPropertyOp46
 70
     1
102
RTVSPropertyOp47
 70
     1
102
RTVSPropertyOp48
 70
     1
102
RTVSPropertyOp49
 70
     1
102
RTVSPropertyOp50
 70
     1
102
RTVSPropertyOp51
 70
     0
102
RTVSPropertyOp52
 70
     0
102
RTVSPropertyOp53
 70
     1
102
RTVSPropertyOp54
 70
     1
102
RTVSPropertyOp55
 70
     1
102
RTVSPropertyOp56
 70
     1
102
RTVSPropertyOp57
 70
     1
102
RTVSPropertyOp58
 70
     1
102
RTVSPropertyOp59
 70
     1
102
RTVSPropertyOp60
 70
     1
102
RTVSPropertyOp61
 70
     1
102
RTVSPropertyOp62
 70
     1
  0
XRECORD
  5
358
102
{ACAD_REACTORS
330
357
102
}
330
357
100
AcDbXrecord
280
     1
102
RTVSPost2010Prop28
280
     0
102
RTVSPost2010PropOp28
 70
     1
102
RTVSPost2010Prop29
280
     1
102
RTVSPost2010PropOp29
 70
     1
102
RTVSPost2010Prop30
280
     1
102
RTVSPost2010PropOp30
 70
     1
102
RTVSPost2010Prop31
280
     0
102
RTVSPost2010PropOp31
 70
     1
102
RTVSPost2010Prop32
280
     0
102
RTVSPost2010PropOp32
 70
     1
102
RTVSPost2010Prop33
280
     0
102
RTVSPost2010PropOp33
 70
     1
102
RTVSPost2010Prop34
280
     0
102
RTVSPost2010PropOp34
 70
     1
102
RTVSPost2010Prop35
280
     0
102
RTVSPost2010PropOp35
 70
     1
102
RTVSPost2010Prop36
280
     0
102
RTVSPost2010PropOp36
 70
     1
102
RTVSPost2010Prop37
 90
       50
102
RTVSPost2010PropOp37
 70
     1
102
RTVSPost2010Prop38
140
0.0
102
RTVSPost2010PropOp38
 70
     1
102
RTVSPost2010Prop39
140
1.0
102
RTVSPost2010PropOp39
 70
     1
102
RTVSPost2010Prop40
 90
        0
102
RTVSPost2010PropOp40
 70
     1
102
RTVSPost2010Prop41ColorIndex
 90
       18
102
RTVSPost2010Prop41ColorRGB
 90
        0
102
RTVSPost2010PropOp41
 70
     1
102
RTVSPost2010Prop42
 90
       50
102
RTVSPost2010PropOp42
 70
     1
102
RTVSPost2010Prop43
 90
        3
102
RTVSPost2010PropOp43
 70
     1
102
RTVSPost2010Prop44ColorIndex
 90
        5
102
RTVSPost2010Prop44ColorRGB
 90
      255
102
RTVSPost2010PropOp44
 70
     1
102
RTVSPost2010Prop45
280
     0
102
RTVSPost2010PropOp45
 70
     1
102
RTVSPost2010Prop46
 90
       50
102
RTVSPost2010PropOp46
 70
     1
102
RTVSPost2010Prop47
 90
       50
102
RTVSPost2010PropOp47
 70
     1
102
RTVSPost2010Prop48
 90
       50
102
RTVSPost2010PropOp48
 70
     1
102
RTVSPost2010Prop49
280
     0
102
RTVSPost2010PropOp49
 70
     1
102
RTVSPost2010Prop50
 90
       50
102
RTVSPost2010PropOp50
 70
     1
102
RTVSPost2010Prop51ColorIndex
 90
      256
102
RTVSPost2010Prop51ColorRGB
 90
-16777216
102
RTVSPost2010PropOp51
 70
     0
102
RTVSPost2010Prop52
140
1.0
102
RTVSPost2010PropOp52
 70
     0
102
RTVSPost2010Prop53
 90
        2
102
RTVSPost2010PropOp53
 70
     1
102
RTVSPost2010Prop54
  1
strokes_ogs.tif
102
RTVSPost2010PropOp54
 70
     1
102
RTVSPost2010Prop55
280
     0
102
RTVSPost2010PropOp55
 70
     1
102
RTVSPost2010Prop56
140
1.0
102
RTVSPost2010PropOp56
 70
     1
102
RTVSPost2010Prop57
140
1.0
102
RTVSPost2010PropOp57
 70
     1
102
RTVSPropertyOp0
 70
     1
102
RTVSPropertyOp1
 70
     1
102
RTVSPropertyOp2
 70
     1
102
RTVSPropertyOp3
 70
     1
102
RTVSPropertyOp4
 70
     1
102
RTVSPropertyOp5
 70
     1
102
RTVSPropertyOp6
 70
     1
102
RTVSPropertyOp7
 70
     1
102
RTVSPropertyOp8
 70
     1
102
RTVSPropertyOp9
 70
     1
102
RTVSPropertyOp10
 70
     1
102
RTVSPropertyOp11
 70
     1
102
RTVSPropertyOp12
 70
     1
102
RTVSPropertyOp13
 70
     1
102
RTVSPropertyOp14
 70
     1
102
RTVSPropertyOp15
 70
     1
102
RTVSPropertyOp16
 70
     1
102
RTVSPropertyOp17
 70
     1
102
RTVSPropertyOp18
 70
     1
102
RTVSPropertyOp19
 70
     1
102
RTVSPropertyOp20
 70
     1
102
RTVSPropertyOp21
 70
     1
102
RTVSPropertyOp22
 70
     1
102
RTVSPropertyOp23
 70
     1
102
RTVSPropertyOp24
 70
     1
102
RTVSPropertyOp25
 70
     1
102
RTVSPropertyOp26
 70
     1
102
RTVSPropertyOp27
 70
     1
102
RTVSPropertyOp28
 70
     1
102
RTVSPropertyOp29
 70
     1
102
RTVSPropertyOp30
 70
     1
102
RTVSPropertyOp31
 70
     1
102
RTVSPropertyOp32
 70
     1
102
RTVSPropertyOp33
 70
     1
102
RTVSPropertyOp34
 70
     1
102
RTVSPropertyOp35
 70
     1
102
RTVSPropertyOp36
 70
     1
102
RTVSPropertyOp37
 70
     1
102
RTVSPropertyOp38
 70
     1
102
RTVSPropertyOp39
 70
     1
102
RTVSPropertyOp40
 70
     1
102
RTVSPropertyOp41
 70
     1
102
RTVSPropertyOp42
 70
     1
102
RTVSPropertyOp43
 70
     1
102
RTVSPropertyOp44
 70
     1
102
RTVSPropertyOp45
 70
     1
102
RTVSPropertyOp46
 70
     1
102
RTVSPropertyOp47
 70
     1
102
RTVSPropertyOp48
 70
     1
102
RTVSPropertyOp49
 70
     1
102
RTVSPropertyOp50
 70
     1
102
RTVSPropertyOp51
 70
     0
102
RTVSPropertyOp52
 70
     0
102
RTVSPropertyOp53
 70
     1
102
RTVSPropertyOp54
 70
     1
102
RTVSPropertyOp55
 70
     1
102
RTVSPropertyOp56
 70
     1
102
RTVSPropertyOp57
 70
     1
102
RTVSPropertyOp58
 70
     1
102
RTVSPropertyOp59
 70
     1
102
RTVSPropertyOp60
 70
     1
102
RTVSPropertyOp61
 70
     1
102
RTVSPropertyOp62
 70
     1
  0
XRECORD
  5
34E
102
{ACAD_REACTORS
330
34D
102
}
330
34D
100
AcDbXrecord
280
     1
102
RTVSPost2010Prop28
280
     0
102
RTVSPost2010PropOp28
 70
     1
102
RTVSPost2010Prop29
280
     1
102
RTVSPost2010PropOp29
 70
     1
102
RTVSPost2010Prop30
280
     1
102
RTVSPost2010PropOp30
 70
     1
102
RTVSPost2010Prop31
280
     0
102
RTVSPost2010PropOp31
 70
     1
102
RTVSPost2010Prop32
280
     0
102
RTVSPost2010PropOp32
 70
     1
102
RTVSPost2010Prop33
280
     0
102
RTVSPost2010PropOp33
 70
     1
102
RTVSPost2010Prop34
280
     0
102
RTVSPost2010PropOp34
 70
     1
102
RTVSPost2010Prop35
280
     0
102
RTVSPost2010PropOp35
 70
     1
102
RTVSPost2010Prop36
280
     0
102
RTVSPost2010PropOp36
 70
     1
102
RTVSPost2010Prop37
 90
       50
102
RTVSPost2010PropOp37
 70
     1
102
RTVSPost2010Prop38
140
0.0
102
RTVSPost2010PropOp38
 70
     1
102
RTVSPost2010Prop39
140
1.0
102
RTVSPost2010PropOp39
 70
     1
102
RTVSPost2010Prop40
 90
        0
102
RTVSPost2010PropOp40
 70
     1
102
RTVSPost2010Prop41ColorIndex
 90
       18
102
RTVSPost2010Prop41ColorRGB
 90
        0
102
RTVSPost2010PropOp41
 70
     1
102
RTVSPost2010Prop42
 90
       50
102
RTVSPost2010PropOp42
 70
     1
102
RTVSPost2010Prop43
 90
        3
102
RTVSPost2010PropOp43
 70
     1
102
RTVSPost2010Prop44ColorIndex
 90
        5
102
RTVSPost2010Prop44ColorRGB
 90
      255
102
RTVSPost2010PropOp44
 70
     1
102
RTVSPost2010Prop45
280
     0
102
RTVSPost2010PropOp45
 70
     1
102
RTVSPost2010Prop46
 90
       50
102
RTVSPost2010PropOp46
 70
     1
102
RTVSPost2010Prop47
 90
       50
102
RTVSPost2010PropOp47
 70
     1
102
RTVSPost2010Prop48
 90
       50
102
RTVSPost2010PropOp48
 70
     1
102
RTVSPost2010Prop49
280
     0
102
RTVSPost2010PropOp49
 70
     1
102
RTVSPost2010Prop50
 90
       50
102
RTVSPost2010PropOp50
 70
     1
102
RTVSPost2010Prop51ColorIndex
 90
      256
102
RTVSPost2010Prop51ColorRGB
 90
-16777216
102
RTVSPost2010PropOp51
 70
     0
102
RTVSPost2010Prop52
140
1.0
102
RTVSPost2010PropOp52
 70
     0
102
RTVSPost2010Prop53
 90
        2
102
RTVSPost2010PropOp53
 70
     1
102
RTVSPost2010Prop54
  1
strokes_ogs.tif
102
RTVSPost2010PropOp54
 70
     1
102
RTVSPost2010Prop55
280
     0
102
RTVSPost2010PropOp55
 70
     1
102
RTVSPost2010Prop56
140
1.0
102
RTVSPost2010PropOp56
 70
     1
102
RTVSPost2010Prop57
140
1.0
102
RTVSPost2010PropOp57
 70
     1
102
RTVSPropertyOp0
 70
     1
102
RTVSPropertyOp1
 70
     1
102
RTVSPropertyOp2
 70
     1
102
RTVSPropertyOp3
 70
     1
102
RTVSPropertyOp4
 70
     1
102
RTVSPropertyOp5
 70
     1
102
RTVSPropertyOp6
 70
     1
102
RTVSPropertyOp7
 70
     1
102
RTVSPropertyOp8
 70
     1
102
RTVSPropertyOp9
 70
     1
102
RTVSPropertyOp10
 70
     1
102
RTVSPropertyOp11
 70
     1
102
RTVSPropertyOp12
 70
     1
102
RTVSPropertyOp13
 70
     1
102
RTVSPropertyOp14
 70
     1
102
RTVSPropertyOp15
 70
     1
102
RTVSPropertyOp16
 70
     1
102
RTVSPropertyOp17
 70
     1
102
RTVSPropertyOp18
 70
     1
102
RTVSPropertyOp19
 70
     1
102
RTVSPropertyOp20
 70
     1
102
RTVSPropertyOp21
 70
     1
102
RTVSPropertyOp22
 70
     1
102
RTVSPropertyOp23
 70
     1
102
RTVSPropertyOp24
 70
     1
102
RTVSPropertyOp25
 70
     1
102
RTVSPropertyOp26
 70
     1
102
RTVSPropertyOp27
 70
     1
102
RTVSPropertyOp28
 70
     1
102
RTVSPropertyOp29
 70
     1
102
RTVSPropertyOp30
 70
     1
102
RTVSPropertyOp31
 70
     1
102
RTVSPropertyOp32
 70
     1
102
RTVSPropertyOp33
 70
     1
102
RTVSPropertyOp34
 70
     1
102
RTVSPropertyOp35
 70
     1
102
RTVSPropertyOp36
 70
     1
102
RTVSPropertyOp37
 70
     1
102
RTVSPropertyOp38
 70
     1
102
RTVSPropertyOp39
 70
     1
102
RTVSPropertyOp40
 70
     1
102
RTVSPropertyOp41
 70
     1
102
RTVSPropertyOp42
 70
     1
102
RTVSPropertyOp43
 70
     1
102
RTVSPropertyOp44
 70
     1
102
RTVSPropertyOp45
 70
     1
102
RTVSPropertyOp46
 70
     1
102
RTVSPropertyOp47
 70
     1
102
RTVSPropertyOp48
 70
     1
102
RTVSPropertyOp49
 70
     1
102
RTVSPropertyOp50
 70
     1
102
RTVSPropertyOp51
 70
     0
102
RTVSPropertyOp52
 70
     0
102
RTVSPropertyOp53
 70
     1
102
RTVSPropertyOp54
 70
     1
102
RTVSPropertyOp55
 70
     1
102
RTVSPropertyOp56
 70
     1
102
RTVSPropertyOp57
 70
     1
102
RTVSPropertyOp58
 70
     1
102
RTVSPropertyOp59
 70
     1
102
RTVSPropertyOp60
 70
     1
102
RTVSPropertyOp61
 70
     1
102
RTVSPropertyOp62
 70
     1
  0
XRECORD
  5
342
102
{ACAD_REACTORS
330
341
102
}
330
341
100
AcDbXrecord
280
     1
102
RTVSPost2010Prop28
280
     0
102
RTVSPost2010PropOp28
 70
     1
102
RTVSPost2010Prop29
280
     1
102
RTVSPost2010PropOp29
 70
     1
102
RTVSPost2010Prop30
280
     1
102
RTVSPost2010PropOp30
 70
     1
102
RTVSPost2010Prop31
280
     0
102
RTVSPost2010PropOp31
 70
     1
102
RTVSPost2010Prop32
280
     0
102
RTVSPost2010PropOp32
 70
     1
102
RTVSPost2010Prop33
280
     0
102
RTVSPost2010PropOp33
 70
     1
102
RTVSPost2010Prop34
280
     0
102
RTVSPost2010PropOp34
 70
     1
102
RTVSPost2010Prop35
280
     0
102
RTVSPost2010PropOp35
 70
     1
102
RTVSPost2010Prop36
280
     0
102
RTVSPost2010PropOp36
 70
     1
102
RTVSPost2010Prop37
 90
       50
102
RTVSPost2010PropOp37
 70
     1
102
RTVSPost2010Prop38
140
0.0
102
RTVSPost2010PropOp38
 70
     1
102
RTVSPost2010Prop39
140
1.0
102
RTVSPost2010PropOp39
 70
     1
102
RTVSPost2010Prop40
 90
        0
102
RTVSPost2010PropOp40
 70
     1
102
RTVSPost2010Prop41ColorIndex
 90
       18
102
RTVSPost2010Prop41ColorRGB
 90
        0
102
RTVSPost2010PropOp41
 70
     1
102
RTVSPost2010Prop42
 90
       50
102
RTVSPost2010PropOp42
 70
     1
102
RTVSPost2010Prop43
 90
        3
102
RTVSPost2010PropOp43
 70
     1
102
RTVSPost2010Prop44ColorIndex
 90
        5
102
RTVSPost2010Prop44ColorRGB
 90
      255
102
RTVSPost2010PropOp44
 70
     1
102
RTVSPost2010Prop45
280
     0
102
RTVSPost2010PropOp45
 70
     1
102
RTVSPost2010Prop46
 90
       50
102
RTVSPost2010PropOp46
 70
     1
102
RTVSPost2010Prop47
 90
       50
102
RTVSPost2010PropOp47
 70
     1
102
RTVSPost2010Prop48
 90
       50
102
RTVSPost2010PropOp48
 70
     1
102
RTVSPost2010Prop49
280
     0
102
RTVSPost2010PropOp49
 70
     1
102
RTVSPost2010Prop50
 90
       50
102
RTVSPost2010PropOp50
 70
     1
102
RTVSPost2010Prop51ColorIndex
 90
      256
102
RTVSPost2010Prop51ColorRGB
 90
-16777216
102
RTVSPost2010PropOp51
 70
     0
102
RTVSPost2010Prop52
140
1.0
102
RTVSPost2010PropOp52
 70
     0
102
RTVSPost2010Prop53
 90
        2
102
RTVSPost2010PropOp53
 70
     1
102
RTVSPost2010Prop54
  1
strokes_ogs.tif
102
RTVSPost2010PropOp54
 70
     1
102
RTVSPost2010Prop55
280
     0
102
RTVSPost2010PropOp55
 70
     1
102
RTVSPost2010Prop56
140
1.0
102
RTVSPost2010PropOp56
 70
     1
102
RTVSPost2010Prop57
140
1.0
102
RTVSPost2010PropOp57
 70
     1
102
RTVSPropertyOp0
 70
     1
102
RTVSPropertyOp1
 70
     1
102
RTVSPropertyOp2
 70
     1
102
RTVSPropertyOp3
 70
     1
102
RTVSPropertyOp4
 70
     1
102
RTVSPropertyOp5
 70
     1
102
RTVSPropertyOp6
 70
     1
102
RTVSPropertyOp7
 70
     1
102
RTVSPropertyOp8
 70
     1
102
RTVSPropertyOp9
 70
     1
102
RTVSPropertyOp10
 70
     1
102
RTVSPropertyOp11
 70
     1
102
RTVSPropertyOp12
 70
     1
102
RTVSPropertyOp13
 70
     1
102
RTVSPropertyOp14
 70
     1
102
RTVSPropertyOp15
 70
     1
102
RTVSPropertyOp16
 70
     1
102
RTVSPropertyOp17
 70
     1
102
RTVSPropertyOp18
 70
     1
102
RTVSPropertyOp19
 70
     1
102
RTVSPropertyOp20
 70
     1
102
RTVSPropertyOp21
 70
     1
102
RTVSPropertyOp22
 70
     1
102
RTVSPropertyOp23
 70
     1
102
RTVSPropertyOp24
 70
     1
102
RTVSPropertyOp25
 70
     1
102
RTVSPropertyOp26
 70
     1
102
RTVSPropertyOp27
 70
     1
102
RTVSPropertyOp28
 70
     1
102
RTVSPropertyOp29
 70
     1
102
RTVSPropertyOp30
 70
     1
102
RTVSPropertyOp31
 70
     1
102
RTVSPropertyOp32
 70
     1
102
RTVSPropertyOp33
 70
     1
102
RTVSPropertyOp34
 70
     1
102
RTVSPropertyOp35
 70
     1
102
RTVSPropertyOp36
 70
     1
102
RTVSPropertyOp37
 70
     1
102
RTVSPropertyOp38
 70
     1
102
RTVSPropertyOp39
 70
     1
102
RTVSPropertyOp40
 70
     1
102
RTVSPropertyOp41
 70
     1
102
RTVSPropertyOp42
 70
     1
102
RTVSPropertyOp43
 70
     1
102
RTVSPropertyOp44
 70
     1
102
RTVSPropertyOp45
 70
     1
102
RTVSPropertyOp46
 70
     1
102
RTVSPropertyOp47
 70
     1
102
RTVSPropertyOp48
 70
     1
102
RTVSPropertyOp49
 70
     1
102
RTVSPropertyOp50
 70
     1
102
RTVSPropertyOp51
 70
     0
102
RTVSPropertyOp52
 70
     0
102
RTVSPropertyOp53
 70
     1
102
RTVSPropertyOp54
 70
     1
102
RTVSPropertyOp55
 70
     1
102
RTVSPropertyOp56
 70
     1
102
RTVSPropertyOp57
 70
     1
102
RTVSPropertyOp58
 70
     1
102
RTVSPropertyOp59
 70
     1
102
RTVSPropertyOp60
 70
     1
102
RTVSPropertyOp61
 70
     1
102
RTVSPropertyOp62
 70
     1
  0
XRECORD
  5
35A
102
{ACAD_REACTORS
330
359
102
}
330
359
100
AcDbXrecord
280
     1
102
RTVSPost2010Prop28
280
     0
102
RTVSPost2010PropOp28
 70
     1
102
RTVSPost2010Prop29
280
     1
102
RTVSPost2010PropOp29
 70
     1
102
RTVSPost2010Prop30
280
     1
102
RTVSPost2010PropOp30
 70
     1
102
RTVSPost2010Prop31
280
     0
102
RTVSPost2010PropOp31
 70
     1
102
RTVSPost2010Prop32
280
     0
102
RTVSPost2010PropOp32
 70
     1
102
RTVSPost2010Prop33
280
     0
102
RTVSPost2010PropOp33
 70
     1
102
RTVSPost2010Prop34
280
     0
102
RTVSPost2010PropOp34
 70
     1
102
RTVSPost2010Prop35
280
     0
102
RTVSPost2010PropOp35
 70
     1
102
RTVSPost2010Prop36
280
     0
102
RTVSPost2010PropOp36
 70
     1
102
RTVSPost2010Prop37
 90
       50
102
RTVSPost2010PropOp37
 70
     1
102
RTVSPost2010Prop38
140
0.0
102
RTVSPost2010PropOp38
 70
     1
102
RTVSPost2010Prop39
140
1.0
102
RTVSPost2010PropOp39
 70
     1
102
RTVSPost2010Prop40
 90
        0
102
RTVSPost2010PropOp40
 70
     1
102
RTVSPost2010Prop41ColorIndex
 90
       18
102
RTVSPost2010Prop41ColorRGB
 90
        0
102
RTVSPost2010PropOp41
 70
     1
102
RTVSPost2010Prop42
 90
       50
102
RTVSPost2010PropOp42
 70
     1
102
RTVSPost2010Prop43
 90
        3
102
RTVSPost2010PropOp43
 70
     1
102
RTVSPost2010Prop44ColorIndex
 90
        5
102
RTVSPost2010Prop44ColorRGB
 90
      255
102
RTVSPost2010PropOp44
 70
     1
102
RTVSPost2010Prop45
280
     0
102
RTVSPost2010PropOp45
 70
     1
102
RTVSPost2010Prop46
 90
       50
102
RTVSPost2010PropOp46
 70
     1
102
RTVSPost2010Prop47
 90
       50
102
RTVSPost2010PropOp47
 70
     1
102
RTVSPost2010Prop48
 90
       50
102
RTVSPost2010PropOp48
 70
     1
102
RTVSPost2010Prop49
280
     0
102
RTVSPost2010PropOp49
 70
     1
102
RTVSPost2010Prop50
 90
       50
102
RTVSPost2010PropOp50
 70
     1
102
RTVSPost2010Prop51ColorIndex
 90
      256
102
RTVSPost2010Prop51ColorRGB
 90
-16777216
102
RTVSPost2010PropOp51
 70
     0
102
RTVSPost2010Prop52
140
1.0
102
RTVSPost2010PropOp52
 70
     0
102
RTVSPost2010Prop53
 90
        2
102
RTVSPost2010PropOp53
 70
     1
102
RTVSPost2010Prop54
  1
strokes_ogs.tif
102
RTVSPost2010PropOp54
 70
     1
102
RTVSPost2010Prop55
280
     0
102
RTVSPost2010PropOp55
 70
     1
102
RTVSPost2010Prop56
140
1.0
102
RTVSPost2010PropOp56
 70
     1
102
RTVSPost2010Prop57
140
1.0
102
RTVSPost2010PropOp57
 70
     1
102
RTVSPropertyOp0
 70
     1
102
RTVSPropertyOp1
 70
     1
102
RTVSPropertyOp2
 70
     1
102
RTVSPropertyOp3
 70
     1
102
RTVSPropertyOp4
 70
     1
102
RTVSPropertyOp5
 70
     1
102
RTVSPropertyOp6
 70
     1
102
RTVSPropertyOp7
 70
     1
102
RTVSPropertyOp8
 70
     1
102
RTVSPropertyOp9
 70
     1
102
RTVSPropertyOp10
 70
     1
102
RTVSPropertyOp11
 70
     1
102
RTVSPropertyOp12
 70
     1
102
RTVSPropertyOp13
 70
     1
102
RTVSPropertyOp14
 70
     1
102
RTVSPropertyOp15
 70
     1
102
RTVSPropertyOp16
 70
     1
102
RTVSPropertyOp17
 70
     1
102
RTVSPropertyOp18
 70
     1
102
RTVSPropertyOp19
 70
     1
102
RTVSPropertyOp20
 70
     1
102
RTVSPropertyOp21
 70
     1
102
RTVSPropertyOp22
 70
     1
102
RTVSPropertyOp23
 70
     1
102
RTVSPropertyOp24
 70
     1
102
RTVSPropertyOp25
 70
     1
102
RTVSPropertyOp26
 70
     1
102
RTVSPropertyOp27
 70
     1
102
RTVSPropertyOp28
 70
     1
102
RTVSPropertyOp29
 70
     1
102
RTVSPropertyOp30
 70
     1
102
RTVSPropertyOp31
 70
     1
102
RTVSPropertyOp32
 70
     1
102
RTVSPropertyOp33
 70
     1
102
RTVSPropertyOp34
 70
     1
102
RTVSPropertyOp35
 70
     1
102
RTVSPropertyOp36
 70
     1
102
RTVSPropertyOp37
 70
     1
102
RTVSPropertyOp38
 70
     1
102
RTVSPropertyOp39
 70
     1
102
RTVSPropertyOp40
 70
     1
102
RTVSPropertyOp41
 70
     1
102
RTVSPropertyOp42
 70
     1
102
RTVSPropertyOp43
 70
     1
102
RTVSPropertyOp44
 70
     1
102
RTVSPropertyOp45
 70
     1
102
RTVSPropertyOp46
 70
     1
102
RTVSPropertyOp47
 70
     1
102
RTVSPropertyOp48
 70
     1
102
RTVSPropertyOp49
 70
     1
102
RTVSPropertyOp50
 70
     1
102
RTVSPropertyOp51
 70
     0
102
RTVSPropertyOp52
 70
     0
102
RTVSPropertyOp53
 70
     1
102
RTVSPropertyOp54
 70
     1
102
RTVSPropertyOp55
 70
     1
102
RTVSPropertyOp56
 70
     1
102
RTVSPropertyOp57
 70
     1
102
RTVSPropertyOp58
 70
     1
102
RTVSPropertyOp59
 70
     1
102
RTVSPropertyOp60
 70
     1
102
RTVSPropertyOp61
 70
     1
102
RTVSPropertyOp62
 70
     1
  0
ENDSEC
  0
EOF
