  0
SECTION
  2
HEADER
  9
$ACADVER
  1
AC1009
  9
$INSBASE
 10
0.0
 20
0.0
 30
0.0
  9
$EXTMIN
 10
-800.05492744973753
 20
-1204.432801395556
 30
-0.0015258207003583
  9
$EXTMAX
 10
1000.05493583164
 20
1471.867842570083
 30
0.0000000349246037
  9
$LIMMIN
 10
0.0
 20
0.0
  9
$LIMMAX
 10
0.0
 20
0.0
  9
$ORTHOMODE
 70
     0
  9
$REGENMODE
 70
     1
  9
$FILLMODE
 70
     1
  9
$QTEXTMODE
 70
     0
  9
$MIRRTEXT
 70
     1
  9
$DRAGMODE
 70
     2
  9
$LTSCALE
 40
50.799999999999997
  9
$OSMODE
 70
   231
  9
$ATTMODE
 70
     1
  9
$TEXTSIZE
 40
0.0
  9
$TRACEWID
 40
1.0
  9
$TEXTSTYLE
  7
STANDARD
  9
$CLAYER
  8
DATA
  9
$CELTYPE
  6
BYLAYER
  9
$CECOLOR
 62
   256
  9
$DIMSCALE
 40
1.0
  9
$DIMASZ
 40
0.18
  9
$DIMEXO
 40
0.0625
  9
$DIMDLI
 40
0.38
  9
$DIMRND
 40
0.0
  9
$DIMDLE
 40
0.0
  9
$DIMEXE
 40
0.18
  9
$DIMTP
 40
0.0
  9
$DIMTM
 40
0.0
  9
$DIMTXT
 40
0.18
  9
$DIMCEN
 40
0.09
  9
$DIMTSZ
 40
0.0
  9
$DIMTOL
 70
     0
  9
$DIMLIM
 70
     0
  9
$DIMTIH
 70
     1
  9
$DIMTOH
 70
     1
  9
$DIMSE1
 70
     0
  9
$DIMSE2
 70
     0
  9
$DIMTAD
 70
     0
  9
$DIMZIN
 70
     0
  9
$DIMBLK
  1

  9
$DIMASO
 70
     1
  9
$DIMSHO
 70
     1
  9
$DIMPOST
  1

  9
$DIMAPOST
  1

  9
$DIMALT
 70
     0
  9
$DIMALTD
 70
     2
  9
$DIMALTF
 40
25.399999999999999
  9
$DIMLFAC
 40
1.0
  9
$DIMTOFL
 70
     0
  9
$DIMTVP
 40
0.0
  9
$DIMTIX
 70
     0
  9
$DIMSOXD
 70
     0
  9
$DIMSAH
 70
     0
  9
$DIMBLK1
  1

  9
$DIMBLK2
  1

  9
$DIMSTYLE
  2
STANDARD
  9
$DIMCLRD
 70
     0
  9
$DIMCLRE
 70
     0
  9
$DIMCLRT
 70
     0
  9
$DIMTFAC
 40
1.0
  9
$DIMGAP
 40
0.09
  9
$LUNITS
 70
     2
  9
$LUPREC
 70
     4
  9
$SKETCHINC
 40
0.1
  9
$FILLETRAD
 40
0.0
  9
$AUNITS
 70
     0
  9
$AUPREC
 70
     0
  9
$MENU
  1
acad
  9
$ELEVATION
 40
0.0
  9
$PELEVATION
 40
0.0
  9
$THICKNESS
 40
0.0
  9
$LIMCHECK
 70
     0
  9
$BLIPMODE
 70
     0
  9
$CHAMFERA
 40
0.0
  9
$CHAMFERB
 40
0.0
  9
$SKPOLY
 70
     0
  9
$TDCREATE
 40
2455615.6653356492
  9
$TDUPDATE
 40
2455615.667297245
  9
$TDINDWG
 40
0.0003403472
  9
$TDUSRTIMER
 40
0.000340162
  9
$USRTIMER
 70
     1
  9
$ANGBASE
 50
0.0
  9
$ANGDIR
 70
     0
  9
$PDMODE
 70
     1
  9
$PDSIZE
 40
-2.0
  9
$PLINEWID
 40
0.0
  9
$COORDS
 70
     1
  9
$SPLFRAME
 70
     0
  9
$SPLINETYPE
 70
     6
  9
$SPLINESEGS
 70
     8
  9
$ATTDIA
 70
     0
  9
$ATTREQ
 70
     1
  9
$HANDLING
 70
     1
  9
$HANDSEED
  5
60E
  9
$SURFTAB1
 70
     6
  9
$SURFTAB2
 70
     6
  9
$SURFTYPE
 70
     6
  9
$SURFU
 70
     6
  9
$SURFV
 70
     6
  9
$UCSNAME
  2

  9
$UCSORG
 10
0.0
 20
0.0
 30
0.0
  9
$UCSXDIR
 10
1.0
 20
0.0
 30
0.0
  9
$UCSYDIR
 10
0.0
 20
1.0
 30
0.0
  9
$PUCSNAME
  2

  9
$PUCSORG
 10
0.0
 20
0.0
 30
0.0
  9
$PUCSXDIR
 10
1.0
 20
0.0
 30
0.0
  9
$PUCSYDIR
 10
0.0
 20
1.0
 30
0.0
  9
$USERI1
 70
     0
  9
$USERI2
 70
     0
  9
$USERI3
 70
     0
  9
$USERI4
 70
     0
  9
$USERI5
 70
     0
  9
$USERR1
 40
0.0
  9
$USERR2
 40
0.0
  9
$USERR3
 40
0.0
  9
$USERR4
 40
0.0
  9
$USERR5
 40
0.0
  9
$WORLDVIEW
 70
     1
  9
$SHADEDGE
 70
     3
  9
$SHADEDIF
 70
    70
  9
$TILEMODE
 70
     1
  9
$MAXACTVP
 70
    64
  9
$PLIMCHECK
 70
     0
  9
$PEXTMIN
 10
1.0000000000000000E+020
 20
1.0000000000000000E+020
 30
1.0000000000000000E+020
  9
$PEXTMAX
 10
-1.0000000000000000E+020
 20
-1.0000000000000000E+020
 30
-1.0000000000000000E+020
  9
$PLIMMIN
 10
0.0
 20
0.0
  9
$PLIMMAX
 10
12.0
 20
9.0
  9
$UNITMODE
 70
     0
  9
$VISRETAIN
 70
     0
  9
$PLINEGEN
 70
     1
  9
$PSLTSCALE
 70
     0
  0
ENDSEC
  0
SECTION
  2
TABLES
  0
TABLE
  2
VPORT
 70
     1
  0
VPORT
  2
*ACTIVE
 70
     0
 10
0.0
 20
0.0
 11
1.0
 21
1.0
 12
100.0000041909513
 22
133.7175205872631
 13
0.0
 23
0.0
 14
1.0
 24
1.0
 15
0.0
 25
0.0
 16
0.0
 26
0.0
 36
1.0
 17
0.0
 27
0.0
 37
0.0
 40
2696.0034707923801
 41
1.9619164619164611
 42
50.0
 43
0.0
 44
0.0
 50
0.0
 51
0.0
 71
     0
 72
  2000
 73
     1
 74
     1
 75
     0
 76
     0
 77
     0
 78
     0
  0
ENDTAB
  0
TABLE
  2
LTYPE
 70
    11
  0
LTYPE
  2
CONTINUOUS
 70
     0
  3
Solid line
 72
    65
 73
     0
 40
0.0
  0
ENDTAB
  0
TABLE
  2
LAYER
 70
     6
  0
LAYER
  2
0
 70
     0
 62
     7
  6
CONTINUOUS
  0
LAYER
  2
DATA
 70
     0
 62
     7
  6
CONTINUOUS
  0
LAYER
  2
HIBINO-BASE
 70
     0
 62
     7
  6
CONTINUOUS
  0
LAYER
  2
SPEC
 70
     0
 62
     7
  6
CONTINUOUS
  0
LAYER
  2
DIMNSIONS
 70
     0
 62
     7
  6
CONTINUOUS
  0
ENDTAB
  0
TABLE
  2
STYLE
 70
     3
  0
STYLE
  2
STANDARD
 70
     0
 40
0.0
 41
1.0
 50
0.0
 71
     0
 42
0.0
  3
txt
  4
BIGFONT.SHX
  0
ENDTAB
  0
TABLE
  2
VIEW
 70
     0
  0
ENDTAB
  0
TABLE
  2
UCS
 70
     0
  0
ENDTAB
  0
TABLE
  2
APPID
 70
     3
  0
APPID
  2
ACAD
 70
     0
  0
APPID
  2
ACADANNOTATIVE
 70
     0
  0
APPID
  2
ACAD_MLEADERVER
 70
     0
  0
ENDTAB
  0
TABLE
  2
DIMSTYLE
 70
     2
  0
DIMSTYLE
  2
STANDARD
 70
     0
  3

  4

  5

  6

  7

 40
1.0
 41
0.18
 42
0.0625
 43
0.38
 44
0.18
 45
0.0
 46
0.0
 47
0.0
 48
0.0
140
0.18
141
0.09
142
0.0
143
25.399999999999999
144
1.0
145
0.0
146
1.0
147
0.09
 71
     0
 72
     0
 73
     1
 74
     1
 75
     0
 76
     0
 77
     0
 78
     0
170
     0
171
     2
172
     0
173
     0
174
     0
175
     0
176
     0
177
     0
178
     0
  0
ENDTAB
  0
ENDSEC
  0
SECTION
  2
BLOCKS
  0
BLOCK
  8
0
  2
$MODEL_SPACE
 70
     0
 10
0.0
 20
0.0
 30
0.0
  3
$MODEL_SPACE
  1

  0
ENDBLK
  5
4B6
  8
0
  0
BLOCK
 67
     1
  8
0
  2
$PAPER_SPACE
 70
     0
 10
0.0
 20
0.0
 30
0.0
  3
$PAPER_SPACE
  1

  0
ENDBLK
  5
4B2
 67
     1
  8
0
  0
ENDSEC
  0
SECTION
  2
ENTITIES
  0
LINE
  5
2D
  8
HIBINO-BASE
  6
CONTINUOUS
 62
     7
 10
-800.0
 20
1471.786335
 30
0.0
 11
1000.0
 21
1471.786335
 31
0.0
  0
LINE
  5
2E
  8
HIBINO-BASE
  6
CONTINUOUS
 62
     7
 10
1000.0
 20
-1128.213665
 30
0.0
 11
-800.0
 21
-1128.213665
 31
0.0
  0
LINE
  5
2F
  8
HIBINO-BASE
  6
CONTINUOUS
 62
     7
 10
-800.0
 20
-1128.213665
 30
0.0
 11
-800.0
 21
1471.786335
 31
0.0
  0
TEXT
  5
30
  8
HIBINO-BASE
 62
     7
 10
-728.15999999999985
 20
-1192.3004430000001
 30
0.0
 40
36.000441796874988
  1
Hibino Corporation
 41
0.7
 11
-728.15999999999985
 21
-1156.300001203125
 31
0.0
 73
     3
  0
LINE
  5
31
  8
HIBINO-BASE
  6
CONTINUOUS
 62
     7
 10
1000.0
 20
1471.786335
 30
0.0
 11
1000.0
 21
-1128.213665
 31
0.0
  0
LINE
  5
32
  8
HIBINO-BASE
  6
CONTINUOUS
 62
     7
 10
100.0
 20
-903.21366500000011
 30
0.0
 11
1000.0
 21
-903.21366500000011
 31
0.0
  0
LINE
  5
33
  8
HIBINO-BASE
  6
CONTINUOUS
 62
     7
 10
100.0
 20
-1128.213665
 30
0.0
 11
100.0
 21
-903.21366500000011
 31
0.0
  0
TEXT
  5
34
  8
HIBINO-BASE
 62
     7
 10
109.0
 20
-928.30059833333337
 30
0.0
 40
16.288411458333329
  1
NOTE
 41
0.7
 11
109.0
 21
-912.012186875
 31
0.0
 73
     3
  0
LINE
  5
35
  8
HIBINO-BASE
  6
CONTINUOUS
 62
     7
 10
450.0
 20
-1128.213665
 30
0.0
 11
450.0
 21
-903.21366500000011
 31
0.0
  0
TEXT
  5
36
  8
HIBINO-BASE
 62
     7
 10
459.0
 20
-928.30059833333337
 30
0.0
 40
16.288411458333329
  1
TITLE
 41
0.7
 11
459.0
 21
-912.012186875
 31
0.0
 73
     3
  0
TEXT
  5
37
  8
HIBINO-BASE
 62
     7
 10
600.68389999999988
 20
-1192.3004430000001
 30
0.0
 40
36.000441796874988
  1
ヒビノ株式会社
 41
0.7
 11
600.68389999999988
 21
-1156.300001203125
 31
0.0
 73
     3
  0
LINE
  5
38
  8
HIBINO-BASE
  6
CONTINUOUS
 62
     7
 10
100.0
 20
-1028.213665
 30
0.0
 11
1000.0
 21
-1028.213665
 31
0.0
  0
TEXT
  5
39
  8
HIBINO-BASE
 62
     7
 10
584.0
 20
-1052.737398333333
 30
0.0
 40
16.288411458333329
  1
DRAWN
 41
0.7
 11
584.0
 21
-1036.4489868749999
 31
0.0
 73
     3
  0
TEXT
  5
3A
  8
HIBINO-BASE
 62
     7
 10
334.0
 20
-1052.737398333333
 30
0.0
 40
16.288411458333329
  1
DATE
 41
0.7
 11
334.0
 21
-1036.4489868749999
 31
0.0
 73
     3
  0
TEXT
  5
3B
  8
HIBINO-BASE
 62
     7
 10
234.0
 20
-1052.737398333333
 30
0.0
 40
16.288411458333329
  1
SCALE
 41
0.7
 11
234.0
 21
-1036.4489868749999
 31
0.0
 73
     3
  0
TEXT
  5
3C
  8
HIBINO-BASE
 62
     7
 10
459.0
 20
-1052.737398333333
 30
0.0
 40
16.288411458333329
  1
DESIGN
 41
0.7
 11
459.0
 21
-1036.4489868749999
 31
0.0
 73
     3
  0
TEXT
  5
3D
  8
HIBINO-BASE
 62
     7
 10
834.0
 20
-1052.737398333333
 30
0.0
 40
16.288411458333329
  1
DRAWING NO.
 41
0.7
 11
834.0
 21
-1036.4489868749999
 31
0.0
 73
     3
  0
TEXT
  5
3E
  8
HIBINO-BASE
 62
     7
 10
708.99999999999977
 20
-1052.737398333333
 30
0.0
 40
16.288411458333329
  1
CHECK
 41
0.7
 11
708.99999999999977
 21
-1036.4489868749999
 31
0.0
 73
     3
  0
LINE
  5
3F
  8
HIBINO-BASE
  6
CONTINUOUS
 62
     7
 10
243.75
 20
-1115.713665
 30
0.0
 11
281.25
 21
-1078.213665
 31
0.0
  0
TEXT
  5
40
  8
HIBINO-BASE
 62
     7
 10
237.5
 20
-1089.3030983333331
 30
0.0
 40
16.288411458333329
  1
1
 41
0.7
 11
237.5
 21
-1073.0146868749989
 31
0.0
 73
     3
  0
LINE
  5
41
  8
HIBINO-BASE
  6
CONTINUOUS
 62
     7
 10
225.0
 20
-1128.213665
 30
0.0
 11
225.0
 21
-1028.213665
 31
0.0
  0
LINE
  5
42
  8
HIBINO-BASE
  6
CONTINUOUS
 62
     7
 10
325.0
 20
-1128.213665
 30
0.0
 11
325.0
 21
-1028.213665
 31
0.0
  0
LINE
  5
43
  8
HIBINO-BASE
  6
CONTINUOUS
 62
     7
 10
574.99999999999989
 20
-1028.213665
 30
0.0
 11
574.99999999999989
 21
-1128.213665
 31
0.0
  0
LINE
  5
44
  8
HIBINO-BASE
  6
CONTINUOUS
 62
     7
 10
825.0
 20
-1028.213665
 30
0.0
 11
825.0
 21
-1128.213665
 31
0.0
  0
LINE
  5
45
  8
HIBINO-BASE
  6
CONTINUOUS
 62
     7
 10
699.99999999999989
 20
-1128.213665
 30
0.0
 11
699.99999999999989
 21
-1028.213665
 31
0.0
  0
TEXT
  5
46
  8
HIBINO-BASE
 62
     7
 10
333.5653999999999
 20
-1099.5771983333329
 30
0.0
 40
16.288411458333329
  1
'11.02.
 41
0.7
 11
333.5653999999999
 21
-1083.2887868749999
 31
0.0
 73
     3
  0
TEXT
  5
47
  8
HIBINO-BASE
 62
     7
 10
275.0
 20
-1108.0530983333331
 30
0.0
 40
16.288411458333329
  1
10
 41
0.7
 11
275.0
 21
-1091.7646868749989
 31
0.0
 73
     3
  0
TEXT
  5
48
  8
HIBINO-BASE
 62
     7
 10
590.05810011034623
 20
-1099.5771983333329
 30
0.0
 40
16.288411458333329
  1
N.Sasaki
 41
0.7
 11
590.05810011034623
 21
-1083.2887868749999
 31
0.0
 73
     3
  0
TEXT
  5
49
  8
HIBINO-BASE
 62
     7
 10
138.83333333333351
 20
-1108.453665
 30
0.0
 40
32.576822916666671
  1
A4
 41
0.7
 11
138.83333333333351
 21
-1075.876842083333
 31
0.0
 73
     3
  0
TEXT
  5
4A
  8
HIBINO-BASE
 62
     7
 10
109.5833333333333
 20
-1054.4082149999999
 30
0.0
 40
16.288411458333329
  1
PAPER SIZE
 41
0.7
 11
109.5833333333333
 21
-1038.119803541666
 31
0.0
 73
     3
  0
LINE
  5
4B
  8
SPEC
  6
CONTINUOUS
 62
     7
 10
-725.0
 20
1371.786335
 30
0.0
 11
750.0
 21
1371.786335
 31
0.0
  0
LINE
  5
4C
  8
SPEC
  6
CONTINUOUS
 62
     7
 10
-725.0
 20
1334.286335
 30
0.0
 11
750.0
 21
1334.286335
 31
0.0
  0
LINE
  5
4D
  8
SPEC
  6
CONTINUOUS
 62
     7
 10
-725.0
 20
1296.786335
 30
0.0
 11
750.0
 21
1296.786335
 31
0.0
  0
TEXT
  5
4E
  8
SPEC
 62
     7
 10
-391.0
 20
1342.1655127777781
 30
0.0
 40
19.003146701388889
  1
612(W)\U+00D776(H)\U+00D7688(D)mm(突起部含まず）
 41
0.7
 11
-391.0
 21
1361.1686594791661
 31
0.0
 73
     3
  0
LINE
  5
4F
  8
SPEC
  6
CONTINUOUS
 62
     7
 10
-725.0
 20
1371.786335
 30
0.0
 11
-725.0
 21
1296.786335
 31
0.0
  0
TEXT
  5
50
  8
SPEC
 62
     7
 10
-712.49999999999989
 20
1385.7190349999989
 30
0.0
 40
24.4326171875
  1
仕様
 41
0.7
 11
-712.49999999999989
 21
1410.1516521874989
 31
0.0
 73
     3
  0
LINE
  5
51
  8
SPEC
  6
CONTINUOUS
 62
     7
 10
-400.0
 20
1371.786335
 30
0.0
 11
-400.0
 21
1296.786335
 31
0.0
  0
LINE
  5
52
  8
SPEC
  6
CONTINUOUS
 62
     7
 10
750.0
 20
1371.786335
 30
0.0
 11
750.0
 21
1296.786335
 31
0.0
  0
TEXT
  5
53
  8
SPEC
 62
     7
 10
-717.21163261447055
 20
1343.448378696866
 30
0.0
 40
19.003146701388889
  1
寸法
 41
0.7
 11
-717.21163261447055
 21
1362.4515253982549
 31
0.0
 73
     3
  0
TEXT
  5
54
  8
SPEC
 62
     7
 10
-716.57392532244762
 20
1306.380550559657
 30
0.0
 40
19.003146701388889
  1
重量
 41
0.7
 11
-716.57392532244762
 21
1325.3836972610461
 31
0.0
 73
     3
  0
TEXT
  5
55
  8
SPEC
 62
     7
 10
-390.76080229881381
 20
1305.4318690748969
 30
0.0
 40
19.003146701388889
  1
約11kg
 41
0.7
 11
-390.76080229881381
 21
1324.4350157762849
 31
0.0
 73
     3
  0
TEXT
  5
56
  8
DIMNSIONS
 62
     7
 10
-100.0
 20
-1005.518765
 30
0.0
 40
24.4326171875
  1
(単位：mm)
 41
0.7
 11
-100.0
 21
-981.08614781250003
 31
0.0
 73
     3
  0
LINE
  5
57
  8
DIMNSIONS
  6
CONTINUOUS
 62
     7
 10
-500.0
 20
-620.0
 30
0.0
 11
-500.0
 21
-720.0
 31
0.0
  0
LINE
  5
58
  8
DIMNSIONS
  6
CONTINUOUS
 62
     7
 10
112.0
 20
-620.0
 30
0.0
 11
112.0
 21
-720.0
 31
0.0
  0
LINE
  5
59
  8
DIMNSIONS
  6
CONTINUOUS
 62
     7
 10
-500.0
 20
-700.0
 30
0.0
 11
112.0
 21
-700.0
 31
0.0
  0
LINE
  5
5A
  8
DIMNSIONS
  6
CONTINUOUS
 62
     7
 10
-500.0
 20
-700.0
 30
0.0
 11
-474.99377441406239
 21
-693.2996020484976
 31
0.0
  0
LINE
  5
5B
  8
DIMNSIONS
  6
CONTINUOUS
 62
     7
 10
-500.0
 20
-700.0
 30
0.0
 11
-474.99377441406239
 21
-706.7003979515024
 31
0.0
  0
LINE
  5
5C
  8
DIMNSIONS
  6
CONTINUOUS
 62
     7
 10
112.0
 20
-700.0
 30
0.0
 11
86.993774414062486
 21
-706.7003979515024
 31
0.0
  0
LINE
  5
5D
  8
DIMNSIONS
  6
CONTINUOUS
 62
     7
 10
112.0
 20
-700.0
 30
0.0
 11
86.993774414062486
 21
-693.2996020484976
 31
0.0
  0
TEXT
  5
5E
  8
DIMNSIONS
 62
     7
 10
-220.45833333333329
 20
-690.06111111111102
 30
0.0
 40
27.147352430555561
  1
612
 41
0.7
 11
-220.45833333333329
 21
-662.91375868055547
 31
0.0
 73
     3
  0
LINE
  5
5F
  8
DIMNSIONS
  6
CONTINUOUS
 62
     7
 10
-520.0
 20
-600.0
 30
0.0
 11
-620.0
 21
-600.0
 31
0.0
  0
LINE
  5
60
  8
DIMNSIONS
  6
CONTINUOUS
 62
     7
 10
-520.0
 20
-524.0
 30
0.0
 11
-620.0
 21
-524.0
 31
0.0
  0
LINE
  5
61
  8
DIMNSIONS
  6
CONTINUOUS
 62
     7
 10
-600.0
 20
-600.0
 30
0.0
 11
-600.0
 21
-524.0
 31
0.0
  0
LINE
  5
62
  8
DIMNSIONS
  6
CONTINUOUS
 62
     7
 10
-600.0
 20
-600.0
 30
0.0
 11
-606.7003979515024
 21
-574.99377441406239
 31
0.0
  0
LINE
  5
63
  8
DIMNSIONS
  6
CONTINUOUS
 62
     7
 10
-600.0
 20
-600.0
 30
0.0
 11
-593.2996020484976
 21
-574.99377441406239
 31
0.0
  0
LINE
  5
64
  8
DIMNSIONS
  6
CONTINUOUS
 62
     7
 10
-600.0
 20
-524.0
 30
0.0
 11
-593.2996020484976
 21
-549.0062255859375
 31
0.0
  0
LINE
  5
65
  8
DIMNSIONS
  6
CONTINUOUS
 62
     7
 10
-600.0
 20
-524.0
 30
0.0
 11
-606.7003979515024
 21
-549.0062255859375
 31
0.0
  0
TEXT
  5
66
  8
DIMNSIONS
 62
     7
 10
-609.93888888888887
 20
-579.6388888888888
 30
0.0
 40
27.147352430555561
  1
76
 50
90.0
 41
0.7
 11
-637.08624131944453
 21
-579.6388888888888
 31
0.0
 73
     3
  0
LINE
  5
67
  8
DIMNSIONS
  6
CONTINUOUS
 62
     7
 10
-520.0
 20
-300.0
 30
0.0
 11
-720.0
 21
-300.0
 31
0.0
  0
LINE
  5
68
  8
DIMNSIONS
  6
CONTINUOUS
 62
     7
 10
-520.0
 20
388.0
 30
0.0
 11
-720.0
 21
388.0
 31
0.0
  0
LINE
  5
69
  8
DIMNSIONS
  6
CONTINUOUS
 62
     7
 10
-700.0
 20
-300.0
 30
0.0
 11
-700.0
 21
388.0
 31
0.0
  0
LINE
  5
6A
  8
DIMNSIONS
  6
CONTINUOUS
 62
     7
 10
-700.0
 20
-300.0
 30
0.0
 11
-706.7003979515024
 21
-274.9937744140625
 31
0.0
  0
LINE
  5
6B
  8
DIMNSIONS
  6
CONTINUOUS
 62
     7
 10
-700.0
 20
-300.0
 30
0.0
 11
-693.2996020484976
 21
-274.9937744140625
 31
0.0
  0
LINE
  5
6C
  8
DIMNSIONS
  6
CONTINUOUS
 62
     7
 10
-700.0
 20
388.0
 30
0.0
 11
-693.2996020484976
 21
362.9937744140625
 31
0.0
  0
LINE
  5
6D
  8
DIMNSIONS
  6
CONTINUOUS
 62
     7
 10
-700.0
 20
388.0
 30
0.0
 11
-706.7003979515024
 21
362.9937744140625
 31
0.0
  0
TEXT
  5
6E
  8
DIMNSIONS
 62
     7
 10
-709.93888888888875
 20
17.541666666666671
 30
0.0
 40
27.147352430555561
  1
688
 50
90.0
 41
0.7
 11
-737.08624131944441
 21
17.541666666666671
 31
0.0
 73
     3
  0
LINE
  5
6F
  8
DIMNSIONS
  6
CONTINUOUS
 62
     7
 10
-520.0
 20
-300.0
 30
0.0
 11
-670.0
 21
-300.0
 31
0.0
  0
LINE
  5
70
  8
DIMNSIONS
  6
CONTINUOUS
 62
     7
 10
-510.0
 20
63.0
 30
0.0
 11
-670.0
 21
63.0
 31
0.0
  0
LINE
  5
71
  8
DIMNSIONS
  6
CONTINUOUS
 62
     7
 10
-650.0
 20
-300.0
 30
0.0
 11
-650.0
 21
63.0
 31
0.0
  0
LINE
  5
72
  8
DIMNSIONS
  6
CONTINUOUS
 62
     7
 10
-650.0
 20
-300.0
 30
0.0
 11
-656.7003979515024
 21
-274.9937744140625
 31
0.0
  0
LINE
  5
73
  8
DIMNSIONS
  6
CONTINUOUS
 62
     7
 10
-650.0
 20
-300.0
 30
0.0
 11
-643.2996020484976
 21
-274.9937744140625
 31
0.0
  0
LINE
  5
74
  8
DIMNSIONS
  6
CONTINUOUS
 62
     7
 10
-650.0
 20
63.0
 30
0.0
 11
-643.2996020484976
 21
37.9937744140625
 31
0.0
  0
LINE
  5
75
  8
DIMNSIONS
  6
CONTINUOUS
 62
     7
 10
-650.0
 20
63.0
 30
0.0
 11
-656.7003979515024
 21
37.9937744140625
 31
0.0
  0
TEXT
  5
76
  8
DIMNSIONS
 62
     7
 10
-659.93888888888887
 20
-144.95833333333329
 30
0.0
 40
27.147352430555561
  1
363
 50
90.0
 41
0.7
 11
-687.08624131944453
 21
-144.95833333333329
 31
0.0
 73
     3
  0
LINE
  5
77
  8
DIMNSIONS
  6
CONTINUOUS
 62
     7
 10
-510.0
 20
343.0
 30
0.0
 11
-570.0
 21
343.0
 31
0.0
  0
LINE
  5
78
  8
DIMNSIONS
  6
CONTINUOUS
 62
     7
 10
-520.0
 20
388.0
 30
0.0
 11
-570.0
 21
388.0
 31
0.0
  0
LINE
  5
79
  8
DIMNSIONS
  6
CONTINUOUS
 62
     7
 10
-550.0
 20
388.0
 30
0.0
 11
-550.0
 21
343.0
 31
0.0
  0
LINE
  5
7A
  8
DIMNSIONS
  6
CONTINUOUS
 62
     7
 10
-550.0
 20
343.0
 30
0.0
 11
-550.0
 21
264.72222222222217
 31
0.0
  0
LINE
  5
7B
  8
DIMNSIONS
  6
CONTINUOUS
 62
     7
 10
-550.0
 20
343.0
 30
0.0
 11
-543.2996020484976
 21
317.9937744140625
 31
0.0
  0
LINE
  5
7C
  8
DIMNSIONS
  6
CONTINUOUS
 62
     7
 10
-550.0
 20
343.0
 30
0.0
 11
-556.7003979515024
 21
317.9937744140625
 31
0.0
  0
LINE
  5
7D
  8
DIMNSIONS
  6
CONTINUOUS
 62
     7
 10
-550.0
 20
388.0
 30
0.0
 11
-550.0
 21
438.0
 31
0.0
  0
LINE
  5
7E
  8
DIMNSIONS
  6
CONTINUOUS
 62
     7
 10
-550.0
 20
388.0
 30
0.0
 11
-556.7003979515024
 21
413.0062255859375
 31
0.0
  0
LINE
  5
7F
  8
DIMNSIONS
  6
CONTINUOUS
 62
     7
 10
-550.0
 20
388.0
 30
0.0
 11
-543.2996020484976
 21
413.0062255859375
 31
0.0
  0
TEXT
  5
80
  8
DIMNSIONS
 62
     7
 10
-559.93888888888887
 20
264.72222222222217
 30
0.0
 40
27.147352430555561
  1
45
 50
90.0
 41
0.7
 11
-587.08624131944453
 21
264.72222222222217
 31
0.0
 73
     3
  0
LINE
  5
81
  8
DIMNSIONS
  6
CONTINUOUS
 62
     7
 10
-401.0
 20
-574.0
 30
0.0
 11
-401.0
 21
-670.0
 31
0.0
  0
LINE
  5
82
  8
DIMNSIONS
  6
CONTINUOUS
 62
     7
 10
12.99999999999998
 20
-574.0
 30
0.0
 11
12.99999999999998
 21
-670.0
 31
0.0
  0
LINE
  5
83
  8
DIMNSIONS
  6
CONTINUOUS
 62
     7
 10
-401.0
 20
-650.0
 30
0.0
 11
12.99999999999998
 21
-650.0
 31
0.0
  0
LINE
  5
84
  8
DIMNSIONS
  6
CONTINUOUS
 62
     7
 10
-401.0
 20
-650.0
 30
0.0
 11
-375.9937744140625
 21
-643.2996020484976
 31
0.0
  0
LINE
  5
85
  8
DIMNSIONS
  6
CONTINUOUS
 62
     7
 10
-401.0
 20
-650.0
 30
0.0
 11
-375.9937744140625
 21
-656.7003979515024
 31
0.0
  0
LINE
  5
86
  8
DIMNSIONS
  6
CONTINUOUS
 62
     7
 10
12.99999999999998
 20
-650.0
 30
0.0
 11
-12.006225585937511
 21
-656.7003979515024
 31
0.0
  0
LINE
  5
87
  8
DIMNSIONS
  6
CONTINUOUS
 62
     7
 10
12.99999999999998
 20
-650.0
 30
0.0
 11
-12.006225585937511
 21
-643.2996020484976
 31
0.0
  0
TEXT
  5
88
  8
DIMNSIONS
 62
     7
 10
-220.45833333333329
 20
-640.06111111111102
 30
0.0
 40
27.147352430555561
  1
414
 41
0.7
 11
-220.45833333333329
 21
-612.91375868055547
 31
0.0
 73
     3
  0
LINE
  5
89
  8
DIMNSIONS
  6
CONTINUOUS
 62
     7
 10
-520.0
 20
-600.0
 30
0.0
 11
-570.0
 21
-600.0
 31
0.0
  0
LINE
  5
8A
  8
DIMNSIONS
  6
CONTINUOUS
 62
     7
 10
-429.0
 20
-562.0
 30
0.0
 11
-570.0
 21
-562.0
 31
0.0
  0
LINE
  5
8B
  8
DIMNSIONS
  6
CONTINUOUS
 62
     7
 10
-550.0
 20
-562.0
 30
0.0
 11
-550.0
 21
-600.0
 31
0.0
  0
LINE
  5
8C
  8
DIMNSIONS
  6
CONTINUOUS
 62
     7
 10
-550.0
 20
-600.0
 30
0.0
 11
-550.0
 21
-660.27777777777783
 31
0.0
  0
LINE
  5
8D
  8
DIMNSIONS
  6
CONTINUOUS
 62
     7
 10
-550.0
 20
-600.0
 30
0.0
 11
-543.2996020484976
 21
-625.0062255859375
 31
0.0
  0
LINE
  5
8E
  8
DIMNSIONS
  6
CONTINUOUS
 62
     7
 10
-550.0
 20
-600.0
 30
0.0
 11
-556.7003979515024
 21
-625.0062255859375
 31
0.0
  0
LINE
  5
8F
  8
DIMNSIONS
  6
CONTINUOUS
 62
     7
 10
-550.0
 20
-562.0
 30
0.0
 11
-550.0
 21
-512.0
 31
0.0
  0
LINE
  5
90
  8
DIMNSIONS
  6
CONTINUOUS
 62
     7
 10
-550.0
 20
-562.0
 30
0.0
 11
-556.7003979515024
 21
-536.99377441406239
 31
0.0
  0
LINE
  5
91
  8
DIMNSIONS
  6
CONTINUOUS
 62
     7
 10
-550.0
 20
-562.0
 30
0.0
 11
-543.2996020484976
 21
-536.99377441406239
 31
0.0
  0
TEXT
  5
92
  8
DIMNSIONS
 62
     7
 10
-559.93888888888887
 20
-660.27777777777783
 30
0.0
 40
27.147352430555561
  1
38
 50
90.0
 41
0.7
 11
-587.08624131944453
 21
-660.27777777777783
 31
0.0
 73
     3
  0
LINE
  5
93
  8
DIMNSIONS
  6
CONTINUOUS
 62
     7
 10
16.130916864390439
 20
-554.63811439994674
 30
0.0
 11
50.0
 21
-475.0
 31
0.0
  0
LINE
  5
94
  8
DIMNSIONS
  6
CONTINUOUS
 62
     7
 10
16.130916864390439
 20
-554.63811439994674
 30
0.0
 11
20.180747002218009
 21
-529.0684932330613
 31
0.0
  0
LINE
  5
95
  8
DIMNSIONS
  6
CONTINUOUS
 62
     7
 10
16.130916864390439
 20
-554.63811439994674
 30
0.0
 11
32.422983228203677
 21
-534.51908797319345
 31
0.0
  0
LINE
  5
96
  8
DIMNSIONS
  6
CONTINUOUS
 62
     7
 10
50.0
 20
-475.0
 30
0.0
 11
175.83333333333329
 21
-475.0
 31
0.0
  0
TEXT
  5
97
  8
DIMNSIONS
 62
     7
 10
70.0
 20
-465.06111111111102
 30
0.0
 40
27.147352430555561
  1
8-\U+03C616
 41
0.7
 11
70.0
 21
-437.91375868055542
 31
0.0
 73
     3
  0
LINE
  5
98
  8
DIMNSIONS
  6
CONTINUOUS
 62
     7
 10
-500.0
 20
-620.0
 30
0.0
 11
-500.0
 21
-670.0
 31
0.0
  0
LINE
  5
99
  8
DIMNSIONS
  6
CONTINUOUS
 62
     7
 10
-401.0
 20
-620.0
 30
0.0
 11
-401.0
 21
-670.0
 31
0.0
  0
LINE
  5
9A
  8
DIMNSIONS
  6
CONTINUOUS
 62
     7
 10
-500.0
 20
-650.0
 30
0.0
 11
-401.0
 21
-650.0
 31
0.0
  0
LINE
  5
9B
  8
DIMNSIONS
  6
CONTINUOUS
 62
     7
 10
-500.0
 20
-650.0
 30
0.0
 11
-474.99377441406239
 21
-643.2996020484976
 31
0.0
  0
LINE
  5
9C
  8
DIMNSIONS
  6
CONTINUOUS
 62
     7
 10
-500.0
 20
-650.0
 30
0.0
 11
-474.99377441406239
 21
-656.7003979515024
 31
0.0
  0
LINE
  5
9D
  8
DIMNSIONS
  6
CONTINUOUS
 62
     7
 10
-401.0
 20
-650.0
 30
0.0
 11
-426.0062255859375
 21
-656.7003979515024
 31
0.0
  0
LINE
  5
9E
  8
DIMNSIONS
  6
CONTINUOUS
 62
     7
 10
-401.0
 20
-650.0
 30
0.0
 11
-426.0062255859375
 21
-643.2996020484976
 31
0.0
  0
TEXT
  5
9F
  8
DIMNSIONS
 62
     7
 10
-468.1388888888888
 20
-640.06111111111102
 30
0.0
 40
27.147352430555561
  1
99
 41
0.7
 11
-468.1388888888888
 21
-612.91375868055547
 31
0.0
 73
     3
  0
LINE
  5
A0
  8
DIMNSIONS
  6
CONTINUOUS
 62
     7
 10
12.99999999999998
 20
-594.0
 30
0.0
 11
12.99999999999998
 21
-670.0
 31
0.0
  0
LINE
  5
A1
  8
DIMNSIONS
  6
CONTINUOUS
 62
     7
 10
112.0
 20
-620.0
 30
0.0
 11
112.0
 21
-670.0
 31
0.0
  0
LINE
  5
A2
  8
DIMNSIONS
  6
CONTINUOUS
 62
     7
 10
12.99999999999998
 20
-650.0
 30
0.0
 11
112.0
 21
-650.0
 31
0.0
  0
LINE
  5
A3
  8
DIMNSIONS
  6
CONTINUOUS
 62
     7
 10
12.99999999999998
 20
-650.0
 30
0.0
 11
38.0062255859375
 21
-643.2996020484976
 31
0.0
  0
LINE
  5
A4
  8
DIMNSIONS
  6
CONTINUOUS
 62
     7
 10
12.99999999999998
 20
-650.0
 30
0.0
 11
38.0062255859375
 21
-656.7003979515024
 31
0.0
  0
LINE
  5
A5
  8
DIMNSIONS
  6
CONTINUOUS
 62
     7
 10
112.0
 20
-650.0
 30
0.0
 11
86.993774414062486
 21
-656.7003979515024
 31
0.0
  0
LINE
  5
A6
  8
DIMNSIONS
  6
CONTINUOUS
 62
     7
 10
112.0
 20
-650.0
 30
0.0
 11
86.993774414062486
 21
-643.2996020484976
 31
0.0
  0
TEXT
  5
A7
  8
DIMNSIONS
 62
     7
 10
44.861111111111093
 20
-640.06111111111102
 30
0.0
 40
27.147352430555561
  1
99
 41
0.7
 11
44.861111111111093
 21
-612.91375868055547
 31
0.0
 73
     3
  0
LINE
  5
A8
  8
DIMNSIONS
  6
CONTINUOUS
 62
     7
 10
250.0
 20
-620.0
 30
0.0
 11
250.0
 21
-670.0
 31
0.0
  0
LINE
  5
A9
  8
DIMNSIONS
  6
CONTINUOUS
 62
     7
 10
349.0
 20
-620.0
 30
0.0
 11
349.0
 21
-670.0
 31
0.0
  0
LINE
  5
AA
  8
DIMNSIONS
  6
CONTINUOUS
 62
     7
 10
250.0
 20
-650.0
 30
0.0
 11
349.0
 21
-650.0
 31
0.0
  0
LINE
  5
AB
  8
DIMNSIONS
  6
CONTINUOUS
 62
     7
 10
250.0
 20
-650.0
 30
0.0
 11
275.0062255859375
 21
-643.2996020484976
 31
0.0
  0
LINE
  5
AC
  8
DIMNSIONS
  6
CONTINUOUS
 62
     7
 10
250.0
 20
-650.0
 30
0.0
 11
275.0062255859375
 21
-656.7003979515024
 31
0.0
  0
LINE
  5
AD
  8
DIMNSIONS
  6
CONTINUOUS
 62
     7
 10
349.0
 20
-650.0
 30
0.0
 11
323.9937744140625
 21
-656.7003979515024
 31
0.0
  0
LINE
  5
AE
  8
DIMNSIONS
  6
CONTINUOUS
 62
     7
 10
349.0
 20
-650.0
 30
0.0
 11
323.9937744140625
 21
-643.2996020484976
 31
0.0
  0
TEXT
  5
AF
  8
DIMNSIONS
 62
     7
 10
281.86111111111109
 20
-640.06111111111102
 30
0.0
 40
27.147352430555561
  1
99
 41
0.7
 11
281.86111111111109
 21
-612.91375868055547
 31
0.0
 73
     3
  0
LINE
  5
B0
  8
DIMNSIONS
  6
CONTINUOUS
 62
     7
 10
938.0
 20
-620.0
 30
0.0
 11
938.0
 21
-670.0
 31
0.0
  0
LINE
  5
B1
  8
DIMNSIONS
  6
CONTINUOUS
 62
     7
 10
839.0
 20
-620.0
 30
0.0
 11
839.0
 21
-670.0
 31
0.0
  0
LINE
  5
B2
  8
DIMNSIONS
  6
CONTINUOUS
 62
     7
 10
938.0
 20
-650.0
 30
0.0
 11
839.0
 21
-650.0
 31
0.0
  0
LINE
  5
B3
  8
DIMNSIONS
  6
CONTINUOUS
 62
     7
 10
938.0
 20
-650.0
 30
0.0
 11
912.99377441406239
 21
-656.7003979515024
 31
0.0
  0
LINE
  5
B4
  8
DIMNSIONS
  6
CONTINUOUS
 62
     7
 10
938.0
 20
-650.0
 30
0.0
 11
912.99377441406239
 21
-643.2996020484976
 31
0.0
  0
LINE
  5
B5
  8
DIMNSIONS
  6
CONTINUOUS
 62
     7
 10
839.0
 20
-650.0
 30
0.0
 11
864.00622558593739
 21
-643.2996020484976
 31
0.0
  0
LINE
  5
B6
  8
DIMNSIONS
  6
CONTINUOUS
 62
     7
 10
839.0
 20
-650.0
 30
0.0
 11
864.00622558593739
 21
-656.7003979515024
 31
0.0
  0
TEXT
  5
B7
  8
DIMNSIONS
 62
     7
 10
870.8611111111112
 20
-640.06111111111102
 30
0.0
 40
27.147352430555561
  1
99
 41
0.7
 11
870.8611111111112
 21
-612.91375868055547
 31
0.0
 73
     3
  0
LINE
  5
B8
  8
DIMNSIONS
  6
CONTINUOUS
 62
     7
 10
349.0
 20
-574.0
 30
0.0
 11
349.0
 21
-670.0
 31
0.0
  0
LINE
  5
B9
  8
DIMNSIONS
  6
CONTINUOUS
 62
     7
 10
839.0
 20
-574.0
 30
0.0
 11
839.0
 21
-670.0
 31
0.0
  0
LINE
  5
BA
  8
DIMNSIONS
  6
CONTINUOUS
 62
     7
 10
349.0
 20
-650.0
 30
0.0
 11
839.0
 21
-650.0
 31
0.0
  0
LINE
  5
BB
  8
DIMNSIONS
  6
CONTINUOUS
 62
     7
 10
349.0
 20
-650.0
 30
0.0
 11
374.0062255859375
 21
-643.2996020484976
 31
0.0
  0
LINE
  5
BC
  8
DIMNSIONS
  6
CONTINUOUS
 62
     7
 10
349.0
 20
-650.0
 30
0.0
 11
374.0062255859375
 21
-656.7003979515024
 31
0.0
  0
LINE
  5
BD
  8
DIMNSIONS
  6
CONTINUOUS
 62
     7
 10
839.0
 20
-650.0
 30
0.0
 11
813.99377441406239
 21
-656.7003979515024
 31
0.0
  0
LINE
  5
BE
  8
DIMNSIONS
  6
CONTINUOUS
 62
     7
 10
839.0
 20
-650.0
 30
0.0
 11
813.99377441406239
 21
-643.2996020484976
 31
0.0
  0
TEXT
  5
BF
  8
DIMNSIONS
 62
     7
 10
567.54166666666652
 20
-640.06111111111102
 30
0.0
 40
27.147352430555561
  1
490
 41
0.7
 11
567.54166666666652
 21
-612.91375868055547
 31
0.0
 73
     3
  0
LINE
  5
C0
  8
DIMNSIONS
  6
CONTINUOUS
 62
     7
 10
330.0
 20
-300.0
 30
0.0
 11
280.0
 21
-300.0
 31
0.0
  0
LINE
  5
C1
  8
DIMNSIONS
  6
CONTINUOUS
 62
     7
 10
358.5
 20
-242.0
 30
0.0
 11
280.0
 21
-242.0
 31
0.0
  0
LINE
  5
C2
  8
DIMNSIONS
  6
CONTINUOUS
 62
     7
 10
300.0
 20
-300.0
 30
0.0
 11
300.0
 21
-242.0
 31
0.0
  0
LINE
  5
C3
  8
DIMNSIONS
  6
CONTINUOUS
 62
     7
 10
300.0
 20
-300.0
 30
0.0
 11
293.2996020484976
 21
-274.9937744140625
 31
0.0
  0
LINE
  5
C4
  8
DIMNSIONS
  6
CONTINUOUS
 62
     7
 10
300.0
 20
-300.0
 30
0.0
 11
306.7003979515024
 21
-274.9937744140625
 31
0.0
  0
LINE
  5
C5
  8
DIMNSIONS
  6
CONTINUOUS
 62
     7
 10
300.0
 20
-242.0
 30
0.0
 11
306.7003979515024
 21
-267.0062255859375
 31
0.0
  0
LINE
  5
C6
  8
DIMNSIONS
  6
CONTINUOUS
 62
     7
 10
300.0
 20
-242.0
 30
0.0
 11
293.2996020484976
 21
-267.0062255859375
 31
0.0
  0
TEXT
  5
C7
  8
DIMNSIONS
 62
     7
 10
290.06111111111107
 20
-288.63888888888891
 30
0.0
 40
27.147352430555561
  1
58
 50
90.0
 41
0.7
 11
262.91375868055559
 21
-288.63888888888891
 31
0.0
 73
     3
  0
LINE
  5
C8
  8
DIMNSIONS
  6
CONTINUOUS
 62
     7
 10
358.5
 20
-242.0
 30
0.0
 11
280.0
 21
-242.0
 31
0.0
  0
LINE
  5
C9
  8
DIMNSIONS
  6
CONTINUOUS
 62
     7
 10
358.5
 20
-174.0
 30
0.0
 11
280.0
 21
-174.0
 31
0.0
  0
LINE
  5
CA
  8
DIMNSIONS
  6
CONTINUOUS
 62
     7
 10
300.0
 20
-242.0
 30
0.0
 11
300.0
 21
-174.0
 31
0.0
  0
LINE
  5
CB
  8
DIMNSIONS
  6
CONTINUOUS
 62
     7
 10
300.0
 20
-242.0
 30
0.0
 11
293.2996020484976
 21
-216.9937744140625
 31
0.0
  0
LINE
  5
CC
  8
DIMNSIONS
  6
CONTINUOUS
 62
     7
 10
300.0
 20
-242.0
 30
0.0
 11
306.7003979515024
 21
-216.9937744140625
 31
0.0
  0
LINE
  5
CD
  8
DIMNSIONS
  6
CONTINUOUS
 62
     7
 10
300.0
 20
-174.0
 30
0.0
 11
306.7003979515024
 21
-199.0062255859375
 31
0.0
  0
LINE
  5
CE
  8
DIMNSIONS
  6
CONTINUOUS
 62
     7
 10
300.0
 20
-174.0
 30
0.0
 11
293.2996020484976
 21
-199.0062255859375
 31
0.0
  0
TEXT
  5
CF
  8
DIMNSIONS
 62
     7
 10
290.06111111111107
 20
-225.63888888888891
 30
0.0
 40
27.147352430555561
  1
68
 50
90.0
 41
0.7
 11
262.91375868055559
 21
-225.63888888888891
 31
0.0
 73
     3
  0
LINE
  5
D0
  8
DIMNSIONS
  6
CONTINUOUS
 62
     7
 10
358.5
 20
-174.0
 30
0.0
 11
280.0
 21
-174.0
 31
0.0
  0
LINE
  5
D1
  8
DIMNSIONS
  6
CONTINUOUS
 62
     7
 10
358.5
 20
-106.0
 30
0.0
 11
280.0
 21
-106.0
 31
0.0
  0
LINE
  5
D2
  8
DIMNSIONS
  6
CONTINUOUS
 62
     7
 10
300.0
 20
-174.0
 30
0.0
 11
300.0
 21
-106.0
 31
0.0
  0
LINE
  5
D3
  8
DIMNSIONS
  6
CONTINUOUS
 62
     7
 10
300.0
 20
-174.0
 30
0.0
 11
293.2996020484976
 21
-148.9937744140625
 31
0.0
  0
LINE
  5
D4
  8
DIMNSIONS
  6
CONTINUOUS
 62
     7
 10
300.0
 20
-174.0
 30
0.0
 11
306.7003979515024
 21
-148.9937744140625
 31
0.0
  0
LINE
  5
D5
  8
DIMNSIONS
  6
CONTINUOUS
 62
     7
 10
300.0
 20
-106.0
 30
0.0
 11
306.7003979515024
 21
-131.0062255859375
 31
0.0
  0
LINE
  5
D6
  8
DIMNSIONS
  6
CONTINUOUS
 62
     7
 10
300.0
 20
-106.0
 30
0.0
 11
293.2996020484976
 21
-131.0062255859375
 31
0.0
  0
TEXT
  5
D7
  8
DIMNSIONS
 62
     7
 10
290.06111111111107
 20
-157.63888888888891
 30
0.0
 40
27.147352430555561
  1
68
 50
90.0
 41
0.7
 11
262.91375868055559
 21
-157.63888888888891
 31
0.0
 73
     3
  0
LINE
  5
D8
  8
DIMNSIONS
  6
CONTINUOUS
 62
     7
 10
358.5
 20
-106.0
 30
0.0
 11
280.0
 21
-106.0
 31
0.0
  0
LINE
  5
D9
  8
DIMNSIONS
  6
CONTINUOUS
 62
     7
 10
358.5
 20
-38.0
 30
0.0
 11
280.0
 21
-38.0
 31
0.0
  0
LINE
  5
DA
  8
DIMNSIONS
  6
CONTINUOUS
 62
     7
 10
300.0
 20
-106.0
 30
0.0
 11
300.0
 21
-38.0
 31
0.0
  0
LINE
  5
DB
  8
DIMNSIONS
  6
CONTINUOUS
 62
     7
 10
300.0
 20
-106.0
 30
0.0
 11
293.2996020484976
 21
-80.9937744140625
 31
0.0
  0
LINE
  5
DC
  8
DIMNSIONS
  6
CONTINUOUS
 62
     7
 10
300.0
 20
-106.0
 30
0.0
 11
306.7003979515024
 21
-80.9937744140625
 31
0.0
  0
LINE
  5
DD
  8
DIMNSIONS
  6
CONTINUOUS
 62
     7
 10
300.0
 20
-38.0
 30
0.0
 11
306.7003979515024
 21
-63.0062255859375
 31
0.0
  0
LINE
  5
DE
  8
DIMNSIONS
  6
CONTINUOUS
 62
     7
 10
300.0
 20
-38.0
 30
0.0
 11
293.2996020484976
 21
-63.0062255859375
 31
0.0
  0
TEXT
  5
DF
  8
DIMNSIONS
 62
     7
 10
290.06111111111107
 20
-89.638888888888857
 30
0.0
 40
27.147352430555561
  1
68
 50
90.0
 41
0.7
 11
262.91375868055559
 21
-89.638888888888857
 31
0.0
 73
     3
  0
LINE
  5
E0
  8
DIMNSIONS
  6
CONTINUOUS
 62
     7
 10
358.5
 20
-38.0
 30
0.0
 11
280.0
 21
-38.0
 31
0.0
  0
LINE
  5
E1
  8
DIMNSIONS
  6
CONTINUOUS
 62
     7
 10
358.5
 20
30.0
 30
0.0
 11
280.0
 21
30.0
 31
0.0
  0
LINE
  5
E2
  8
DIMNSIONS
  6
CONTINUOUS
 62
     7
 10
300.0
 20
-38.0
 30
0.0
 11
300.0
 21
30.0
 31
0.0
  0
LINE
  5
E3
  8
DIMNSIONS
  6
CONTINUOUS
 62
     7
 10
300.0
 20
-38.0
 30
0.0
 11
293.2996020484976
 21
-12.9937744140625
 31
0.0
  0
LINE
  5
E4
  8
DIMNSIONS
  6
CONTINUOUS
 62
     7
 10
300.0
 20
-38.0
 30
0.0
 11
306.7003979515024
 21
-12.9937744140625
 31
0.0
  0
LINE
  5
E5
  8
DIMNSIONS
  6
CONTINUOUS
 62
     7
 10
300.0
 20
30.0
 30
0.0
 11
306.7003979515024
 21
4.9937744140625
 31
0.0
  0
LINE
  5
E6
  8
DIMNSIONS
  6
CONTINUOUS
 62
     7
 10
300.0
 20
30.0
 30
0.0
 11
293.2996020484976
 21
4.9937744140625
 31
0.0
  0
TEXT
  5
E7
  8
DIMNSIONS
 62
     7
 10
290.06111111111107
 20
-21.638888888888889
 30
0.0
 40
27.147352430555561
  1
68
 50
90.0
 41
0.7
 11
262.91375868055559
 21
-21.638888888888889
 31
0.0
 73
     3
  0
LINE
  5
E8
  8
DIMNSIONS
  6
CONTINUOUS
 62
     7
 10
330.0
 20
302.0
 30
0.0
 11
280.0
 21
302.0
 31
0.0
  0
LINE
  5
E9
  8
DIMNSIONS
  6
CONTINUOUS
 62
     7
 10
330.0
 20
388.0
 30
0.0
 11
280.0
 21
388.0
 31
0.0
  0
LINE
  5
EA
  8
DIMNSIONS
  6
CONTINUOUS
 62
     7
 10
300.0
 20
302.0
 30
0.0
 11
300.0
 21
388.0
 31
0.0
  0
LINE
  5
EB
  8
DIMNSIONS
  6
CONTINUOUS
 62
     7
 10
300.0
 20
302.0
 30
0.0
 11
293.2996020484976
 21
327.0062255859375
 31
0.0
  0
LINE
  5
EC
  8
DIMNSIONS
  6
CONTINUOUS
 62
     7
 10
300.0
 20
302.0
 30
0.0
 11
306.7003979515024
 21
327.0062255859375
 31
0.0
  0
LINE
  5
ED
  8
DIMNSIONS
  6
CONTINUOUS
 62
     7
 10
300.0
 20
388.0
 30
0.0
 11
306.7003979515024
 21
362.9937744140625
 31
0.0
  0
LINE
  5
EE
  8
DIMNSIONS
  6
CONTINUOUS
 62
     7
 10
300.0
 20
388.0
 30
0.0
 11
293.2996020484976
 21
362.9937744140625
 31
0.0
  0
TEXT
  5
EF
  8
DIMNSIONS
 62
     7
 10
290.06111111111107
 20
327.36111111111109
 30
0.0
 40
27.147352430555561
  1
86
 50
90.0
 41
0.7
 11
262.91375868055559
 21
327.36111111111109
 31
0.0
 73
     3
  0
LINE
  5
F0
  8
DIMNSIONS
  6
CONTINUOUS
 62
     7
 10
358.5
 20
234.0
 30
0.0
 11
280.0
 21
234.0
 31
0.0
  0
LINE
  5
F1
  8
DIMNSIONS
  6
CONTINUOUS
 62
     7
 10
358.5
 20
302.0
 30
0.0
 11
280.0
 21
302.0
 31
0.0
  0
LINE
  5
F2
  8
DIMNSIONS
  6
CONTINUOUS
 62
     7
 10
300.0
 20
234.0
 30
0.0
 11
300.0
 21
302.0
 31
0.0
  0
LINE
  5
F3
  8
DIMNSIONS
  6
CONTINUOUS
 62
     7
 10
300.0
 20
234.0
 30
0.0
 11
293.2996020484976
 21
259.0062255859375
 31
0.0
  0
LINE
  5
F4
  8
DIMNSIONS
  6
CONTINUOUS
 62
     7
 10
300.0
 20
234.0
 30
0.0
 11
306.7003979515024
 21
259.0062255859375
 31
0.0
  0
LINE
  5
F5
  8
DIMNSIONS
  6
CONTINUOUS
 62
     7
 10
300.0
 20
302.0
 30
0.0
 11
306.7003979515024
 21
276.9937744140625
 31
0.0
  0
LINE
  5
F6
  8
DIMNSIONS
  6
CONTINUOUS
 62
     7
 10
300.0
 20
302.0
 30
0.0
 11
293.2996020484976
 21
276.9937744140625
 31
0.0
  0
TEXT
  5
F7
  8
DIMNSIONS
 62
     7
 10
290.06111111111107
 20
250.36111111111109
 30
0.0
 40
27.147352430555561
  1
68
 50
90.0
 41
0.7
 11
262.91375868055559
 21
250.36111111111109
 31
0.0
 73
     3
  0
LINE
  5
F8
  8
DIMNSIONS
  6
CONTINUOUS
 62
     7
 10
358.5
 20
166.0
 30
0.0
 11
280.0
 21
166.0
 31
0.0
  0
LINE
  5
F9
  8
DIMNSIONS
  6
CONTINUOUS
 62
     7
 10
358.5
 20
234.0
 30
0.0
 11
280.0
 21
234.0
 31
0.0
  0
LINE
  5
FA
  8
DIMNSIONS
  6
CONTINUOUS
 62
     7
 10
300.0
 20
166.0
 30
0.0
 11
300.0
 21
234.0
 31
0.0
  0
LINE
  5
FB
  8
DIMNSIONS
  6
CONTINUOUS
 62
     7
 10
300.0
 20
166.0
 30
0.0
 11
293.2996020484976
 21
191.0062255859375
 31
0.0
  0
LINE
  5
FC
  8
DIMNSIONS
  6
CONTINUOUS
 62
     7
 10
300.0
 20
166.0
 30
0.0
 11
306.7003979515024
 21
191.0062255859375
 31
0.0
  0
LINE
  5
FD
  8
DIMNSIONS
  6
CONTINUOUS
 62
     7
 10
300.0
 20
234.0
 30
0.0
 11
306.7003979515024
 21
208.9937744140625
 31
0.0
  0
LINE
  5
FE
  8
DIMNSIONS
  6
CONTINUOUS
 62
     7
 10
300.0
 20
234.0
 30
0.0
 11
293.2996020484976
 21
208.9937744140625
 31
0.0
  0
TEXT
  5
FF
  8
DIMNSIONS
 62
     7
 10
290.06111111111107
 20
182.36111111111109
 30
0.0
 40
27.147352430555561
  1
68
 50
90.0
 41
0.7
 11
262.91375868055559
 21
182.36111111111109
 31
0.0
 73
     3
  0
LINE
  5
100
  8
DIMNSIONS
  6
CONTINUOUS
 62
     7
 10
358.5
 20
98.0
 30
0.0
 11
280.0
 21
98.0
 31
0.0
  0
LINE
  5
101
  8
DIMNSIONS
  6
CONTINUOUS
 62
     7
 10
358.5
 20
166.0
 30
0.0
 11
280.0
 21
166.0
 31
0.0
  0
LINE
  5
102
  8
DIMNSIONS
  6
CONTINUOUS
 62
     7
 10
300.0
 20
98.0
 30
0.0
 11
300.0
 21
166.0
 31
0.0
  0
LINE
  5
103
  8
DIMNSIONS
  6
CONTINUOUS
 62
     7
 10
300.0
 20
98.0
 30
0.0
 11
293.2996020484976
 21
123.0062255859375
 31
0.0
  0
LINE
  5
104
  8
DIMNSIONS
  6
CONTINUOUS
 62
     7
 10
300.0
 20
98.0
 30
0.0
 11
306.7003979515024
 21
123.0062255859375
 31
0.0
  0
LINE
  5
105
  8
DIMNSIONS
  6
CONTINUOUS
 62
     7
 10
300.0
 20
166.0
 30
0.0
 11
306.7003979515024
 21
140.9937744140625
 31
0.0
  0
LINE
  5
106
  8
DIMNSIONS
  6
CONTINUOUS
 62
     7
 10
300.0
 20
166.0
 30
0.0
 11
293.2996020484976
 21
140.9937744140625
 31
0.0
  0
TEXT
  5
107
  8
DIMNSIONS
 62
     7
 10
290.06111111111107
 20
114.3611111111111
 30
0.0
 40
27.147352430555561
  1
68
 50
90.0
 41
0.7
 11
262.91375868055559
 21
114.3611111111111
 31
0.0
 73
     3
  0
LINE
  5
108
  8
DIMNSIONS
  6
CONTINUOUS
 62
     7
 10
396.22724133595182
 20
306.74999999999972
 30
0.0
 11
475.0
 21
352.22947341949742
 31
0.0
  0
LINE
  5
109
  8
DIMNSIONS
  6
CONTINUOUS
 62
     7
 10
396.22724133595182
 20
306.74999999999972
 30
0.0
 11
414.8497616482187
 21
324.73355882417292
 31
0.0
  0
LINE
  5
10A
  8
DIMNSIONS
  6
CONTINUOUS
 62
     7
 10
396.22724133595182
 20
306.74999999999972
 30
0.0
 11
421.34659642095329
 21
313.01295863605202
 31
0.0
  0
LINE
  5
10B
  8
DIMNSIONS
  6
CONTINUOUS
 62
     7
 10
475.0
 20
352.22947341949742
 30
0.0
 11
600.83333333333314
 21
352.22947341949742
 31
0.0
  0
TEXT
  5
10C
  8
DIMNSIONS
 62
     7
 10
495.0
 20
362.16836230838618
 30
0.0
 40
27.147352430555561
  1
9-\U+03C619
 41
0.7
 11
495.0
 21
389.31571473894178
 31
0.0
 73
     3
  0
LINE
  5
10D
  8
DIMNSIONS
  6
CONTINUOUS
 62
     7
 10
-520.0
 20
-300.0
 30
0.0
 11
-570.0
 21
-300.0
 31
0.0
  0
LINE
  5
10E
  8
DIMNSIONS
  6
CONTINUOUS
 62
     7
 10
-510.0
 20
-255.0
 30
0.0
 11
-570.0
 21
-255.0
 31
0.0
  0
LINE
  5
10F
  8
DIMNSIONS
  6
CONTINUOUS
 62
     7
 10
-550.0
 20
-255.0
 30
0.0
 11
-550.0
 21
-300.0
 31
0.0
  0
LINE
  5
110
  8
DIMNSIONS
  6
CONTINUOUS
 62
     7
 10
-550.0
 20
-300.0
 30
0.0
 11
-550.0
 21
-350.0
 31
0.0
  0
LINE
  5
111
  8
DIMNSIONS
  6
CONTINUOUS
 62
     7
 10
-550.0
 20
-300.0
 30
0.0
 11
-543.2996020484976
 21
-325.0062255859375
 31
0.0
  0
LINE
  5
112
  8
DIMNSIONS
  6
CONTINUOUS
 62
     7
 10
-550.0
 20
-300.0
 30
0.0
 11
-556.7003979515024
 21
-325.0062255859375
 31
0.0
  0
LINE
  5
113
  8
DIMNSIONS
  6
CONTINUOUS
 62
     7
 10
-550.0
 20
-255.0
 30
0.0
 11
-550.0
 21
-189.7222222222222
 31
0.0
  0
LINE
  5
114
  8
DIMNSIONS
  6
CONTINUOUS
 62
     7
 10
-550.0
 20
-255.0
 30
0.0
 11
-556.7003979515024
 21
-229.9937744140625
 31
0.0
  0
LINE
  5
115
  8
DIMNSIONS
  6
CONTINUOUS
 62
     7
 10
-550.0
 20
-255.0
 30
0.0
 11
-543.2996020484976
 21
-229.9937744140625
 31
0.0
  0
TEXT
  5
116
  8
DIMNSIONS
 62
     7
 10
-559.93888888888887
 20
-225.0
 30
0.0
 40
27.147352430555561
  1
45
 50
90.0
 41
0.7
 11
-587.08624131944453
 21
-225.0
 31
0.0
 73
     3
  0
LINE
  5
117
  8
DIMNSIONS
  6
CONTINUOUS
 62
     7
 10
-520.0
 20
-300.0
 30
0.0
 11
-620.0
 21
-300.0
 31
0.0
  0
LINE
  5
118
  8
DIMNSIONS
  6
CONTINUOUS
 62
     7
 10
-510.0
 20
-147.0
 30
0.0
 11
-620.0
 21
-147.0
 31
0.0
  0
LINE
  5
119
  8
DIMNSIONS
  6
CONTINUOUS
 62
     7
 10
-600.0
 20
-300.0
 30
0.0
 11
-600.0
 21
-147.0
 31
0.0
  0
LINE
  5
11A
  8
DIMNSIONS
  6
CONTINUOUS
 62
     7
 10
-600.0
 20
-300.0
 30
0.0
 11
-606.7003979515024
 21
-274.9937744140625
 31
0.0
  0
LINE
  5
11B
  8
DIMNSIONS
  6
CONTINUOUS
 62
     7
 10
-600.0
 20
-300.0
 30
0.0
 11
-593.2996020484976
 21
-274.9937744140625
 31
0.0
  0
LINE
  5
11C
  8
DIMNSIONS
  6
CONTINUOUS
 62
     7
 10
-600.0
 20
-147.0
 30
0.0
 11
-593.2996020484976
 21
-172.0062255859375
 31
0.0
  0
LINE
  5
11D
  8
DIMNSIONS
  6
CONTINUOUS
 62
     7
 10
-600.0
 20
-147.0
 30
0.0
 11
-606.7003979515024
 21
-172.0062255859375
 31
0.0
  0
TEXT
  5
11E
  8
DIMNSIONS
 62
     7
 10
-609.93888888888887
 20
-249.9583333333334
 30
0.0
 40
27.147352430555561
  1
153
 50
90.0
 41
0.7
 11
-637.08624131944453
 21
-249.9583333333334
 31
0.0
 73
     3
  0
TEXT
  5
11F
  8
DATA
 62
     7
 10
599.99999999999989
 20
-1016.904765
 30
0.0
 40
24.4326171875
  1
VT4886-AF
 41
0.7
 11
599.99999999999989
 21
-992.4721478125
 31
0.0
 73
     3
  0
TEXT
  5
120
  8
DATA
 62
     7
 10
599.99999999999989
 20
-944.40476499999988
 30
0.0
 40
24.4326171875
  1
JBL
 41
0.7
 11
599.99999999999989
 21
-919.97214781249988
 31
0.0
 73
     3
  0
TEXT
  5
121
  8
DATA
 62
     7
 10
576.03062250470396
 20
-977.28006480117347
 30
0.0
 40
16.288437109374989
  1
アレイフレーム
 41
0.7
 11
576.03062250470396
 21
-960.9916276917985
 31
0.0
 73
     3
  0
TEXT
  5
122
  8
DATA
 62
     7
 10
-699.99999999999989
 20
-1085.8336650000001
 30
0.0
 40
16.288411458333329
  1
仕様および外観は予告なく変更されることがありますので、ご了承ください。
 41
0.7
 11
-699.99999999999989
 21
-1069.5452535416659
 31
0.0
 73
     3
  0
LINE
  5
123
  8
DATA
  6
CONTINUOUS
 62
     7
 10
-500.0
 20
-600.0
 30
0.0
 11
-500.0
 21
-524.0
 31
0.0
  0
LINE
  5
124
  8
DATA
  6
CONTINUOUS
 62
     7
 10
112.0
 20
-600.0
 30
0.0
 11
-500.0
 21
-600.0
 31
0.0
  0
LINE
  5
125
  8
DATA
  6
CONTINUOUS
 62
     7
 10
112.0
 20
-524.0
 30
0.0
 11
112.0
 21
-600.0
 31
0.0
  0
LINE
  5
126
  8
DATA
  6
CONTINUOUS
 62
     7
 10
-500.0
 20
-524.0
 30
0.0
 11
112.0
 21
-524.0
 31
0.0
  0
LINE
  5
127
  8
DATA
  6
CONTINUOUS
 62
     7
 10
-490.0
 20
-600.0
 30
0.0
 11
-490.0
 21
-524.0
 31
0.0
  0
LINE
  5
128
  8
DATA
  6
CONTINUOUS
 62
     7
 10
102.0
 20
-524.0
 30
0.0
 11
102.0
 21
-600.0
 31
0.0
  0
LINE
  5
129
  8
DATA
  6
CONTINUOUS
 62
     7
 10
-500.0
 20
-300.0
 30
0.0
 11
112.0
 21
-300.0
 31
0.0
  0
LINE
  5
12A
  8
DATA
  6
CONTINUOUS
 62
     7
 10
-500.0
 20
-300.0
 30
0.0
 11
-500.0
 21
388.0
 31
0.0
  0
LINE
  5
12B
  8
DATA
  6
CONTINUOUS
 62
     7
 10
112.0
 20
-300.0
 30
0.0
 11
112.0
 21
388.0
 31
0.0
  0
LINE
  5
12C
  8
DATA
  6
CONTINUOUS
 62
     7
 10
-500.0
 20
388.0
 30
0.0
 11
112.0
 21
388.0
 31
0.0
  0
LINE
  5
12D
  8
DATA
  6
CONTINUOUS
 62
     7
 10
-490.0
 20
-300.0
 30
0.0
 11
-490.0
 21
388.0
 31
0.0
  0
LINE
  5
12E
  8
DATA
  6
CONTINUOUS
 62
     7
 10
102.0
 20
-300.0
 30
0.0
 11
102.0
 21
388.0
 31
0.0
  0
LINE
  5
12F
  8
DATA
  6
CONTINUOUS
 62
     7
 10
-490.0
 20
-290.0
 30
0.0
 11
102.0
 21
-290.0
 31
0.0
  0
LINE
  5
130
  8
DATA
  6
CONTINUOUS
 62
     7
 10
-490.0
 20
378.0
 30
0.0
 11
102.0
 21
378.0
 31
0.0
  0
CIRCLE
  5
131
  8
DATA
  6
CONTINUOUS
 62
     7
 10
-477.5
 20
-545.0
 30
0.0
 40
6.5
  0
CIRCLE
  5
132
  8
DATA
  6
CONTINUOUS
 62
     7
 10
-477.5
 20
-579.0
 30
0.0
 40
6.5
  0
POLYLINE
  5
133
  8
DATA
  6
CONTINUOUS
 62
     7
 66
     1
 10
0.0
 20
0.0
 30
0.0
 70
     1
  0
VERTEX
  5
4E3
  8
DATA
  6
CONTINUOUS
 62
     7
 10
-478.6258330249197
 20
-543.04999999999995
 30
0.0
  0
VERTEX
  5
4E4
  8
DATA
  6
CONTINUOUS
 62
     7
 10
-479.75166604983963
 20
-545.0
 30
0.0
  0
VERTEX
  5
4E5
  8
DATA
  6
CONTINUOUS
 62
     7
 10
-478.6258330249197
 20
-546.95000000000005
 30
0.0
  0
VERTEX
  5
4E6
  8
DATA
  6
CONTINUOUS
 62
     7
 10
-476.37416697508007
 20
-546.95000000000005
 30
0.0
  0
VERTEX
  5
4E7
  8
DATA
  6
CONTINUOUS
 62
     7
 10
-475.24833395016032
 20
-545.0
 30
0.0
  0
VERTEX
  5
4E8
  8
DATA
  6
CONTINUOUS
 62
     7
 10
-476.37416697508007
 20
-543.04999999999995
 30
0.0
  0
SEQEND
  5
4E9
  8
DATA
  6
CONTINUOUS
 62
     7
  0
POLYLINE
  5
13C
  8
DATA
  6
CONTINUOUS
 62
     7
 66
     1
 10
0.0
 20
0.0
 30
0.0
 70
     1
  0
VERTEX
  5
4EA
  8
DATA
  6
CONTINUOUS
 62
     7
 10
-478.6258330249197
 20
-577.04999999999995
 30
0.0
  0
VERTEX
  5
4EB
  8
DATA
  6
CONTINUOUS
 62
     7
 10
-479.75166604983963
 20
-579.0
 30
0.0
  0
VERTEX
  5
4EC
  8
DATA
  6
CONTINUOUS
 62
     7
 10
-478.6258330249197
 20
-580.95000000000005
 30
0.0
  0
VERTEX
  5
4ED
  8
DATA
  6
CONTINUOUS
 62
     7
 10
-476.37416697508007
 20
-580.95000000000005
 30
0.0
  0
VERTEX
  5
4EE
  8
DATA
  6
CONTINUOUS
 62
     7
 10
-475.24833395016032
 20
-579.0
 30
0.0
  0
VERTEX
  5
4EF
  8
DATA
  6
CONTINUOUS
 62
     7
 10
-476.37416697508007
 20
-577.04999999999995
 30
0.0
  0
SEQEND
  5
4F0
  8
DATA
  6
CONTINUOUS
 62
     7
  0
CIRCLE
  5
145
  8
DATA
  6
CONTINUOUS
 62
     7
 10
89.499999999999986
 20
-545.0
 30
0.0
 40
6.5
  0
CIRCLE
  5
146
  8
DATA
  6
CONTINUOUS
 62
     7
 10
89.499999999999986
 20
-579.0
 30
0.0
 40
6.5
  0
POLYLINE
  5
147
  8
DATA
  6
CONTINUOUS
 62
     7
 66
     1
 10
0.0
 20
0.0
 30
0.0
 70
     1
  0
VERTEX
  5
4F1
  8
DATA
  6
CONTINUOUS
 62
     7
 10
90.625833024919743
 20
-543.04999999999995
 30
0.0
  0
VERTEX
  5
4F2
  8
DATA
  6
CONTINUOUS
 62
     7
 10
91.751666049839585
 20
-545.0
 30
0.0
  0
VERTEX
  5
4F3
  8
DATA
  6
CONTINUOUS
 62
     7
 10
90.625833024919743
 20
-546.95000000000005
 30
0.0
  0
VERTEX
  5
4F4
  8
DATA
  6
CONTINUOUS
 62
     7
 10
88.374166975080229
 20
-546.95000000000005
 30
0.0
  0
VERTEX
  5
4F5
  8
DATA
  6
CONTINUOUS
 62
     7
 10
87.248333950160344
 20
-545.0
 30
0.0
  0
VERTEX
  5
4F6
  8
DATA
  6
CONTINUOUS
 62
     7
 10
88.374166975080229
 20
-543.04999999999995
 30
0.0
  0
SEQEND
  5
4F7
  8
DATA
  6
CONTINUOUS
 62
     7
  0
POLYLINE
  5
150
  8
DATA
  6
CONTINUOUS
 62
     7
 66
     1
 10
0.0
 20
0.0
 30
0.0
 70
     1
  0
VERTEX
  5
4F8
  8
DATA
  6
CONTINUOUS
 62
     7
 10
90.625833024919743
 20
-577.04999999999995
 30
0.0
  0
VERTEX
  5
4F9
  8
DATA
  6
CONTINUOUS
 62
     7
 10
91.751666049839585
 20
-579.0
 30
0.0
  0
VERTEX
  5
4FA
  8
DATA
  6
CONTINUOUS
 62
     7
 10
90.625833024919743
 20
-580.95000000000005
 30
0.0
  0
VERTEX
  5
4FB
  8
DATA
  6
CONTINUOUS
 62
     7
 10
88.374166975080229
 20
-580.95000000000005
 30
0.0
  0
VERTEX
  5
4FC
  8
DATA
  6
CONTINUOUS
 62
     7
 10
87.248333950160344
 20
-579.0
 30
0.0
  0
VERTEX
  5
4FD
  8
DATA
  6
CONTINUOUS
 62
     7
 10
88.374166975080229
 20
-577.04999999999995
 30
0.0
  0
SEQEND
  5
4FE
  8
DATA
  6
CONTINUOUS
 62
     7
  0
CIRCLE
  5
159
  8
DATA
  6
CONTINUOUS
 62
     7
 10
-215.5
 20
-537.0
 30
0.0
 40
6.5
  0
POLYLINE
  5
15A
  8
DATA
  6
CONTINUOUS
 62
     7
 66
     1
 10
0.0
 20
0.0
 30
0.0
 70
     1
  0
VERTEX
  5
4FF
  8
DATA
  6
CONTINUOUS
 62
     7
 10
-216.6258330249197
 20
-535.04999999999995
 30
0.0
  0
VERTEX
  5
500
  8
DATA
  6
CONTINUOUS
 62
     7
 10
-217.7516660498396
 20
-537.0
 30
0.0
  0
VERTEX
  5
501
  8
DATA
  6
CONTINUOUS
 62
     7
 10
-216.6258330249197
 20
-538.95000000000005
 30
0.0
  0
VERTEX
  5
502
  8
DATA
  6
CONTINUOUS
 62
     7
 10
-214.3741669750803
 20
-538.95000000000005
 30
0.0
  0
VERTEX
  5
503
  8
DATA
  6
CONTINUOUS
 62
     7
 10
-213.2483339501604
 20
-537.0
 30
0.0
  0
VERTEX
  5
504
  8
DATA
  6
CONTINUOUS
 62
     7
 10
-214.3741669750803
 20
-535.04999999999995
 30
0.0
  0
SEQEND
  5
505
  8
DATA
  6
CONTINUOUS
 62
     7
  0
CIRCLE
  5
163
  8
DATA
  6
CONTINUOUS
 62
     7
 10
-172.5
 20
-537.0
 30
0.0
 40
6.5
  0
POLYLINE
  5
164
  8
DATA
  6
CONTINUOUS
 62
     7
 66
     1
 10
0.0
 20
0.0
 30
0.0
 70
     1
  0
VERTEX
  5
506
  8
DATA
  6
CONTINUOUS
 62
     7
 10
-173.6258330249197
 20
-535.04999999999995
 30
0.0
  0
VERTEX
  5
507
  8
DATA
  6
CONTINUOUS
 62
     7
 10
-174.7516660498396
 20
-537.0
 30
0.0
  0
VERTEX
  5
508
  8
DATA
  6
CONTINUOUS
 62
     7
 10
-173.6258330249197
 20
-538.95000000000005
 30
0.0
  0
VERTEX
  5
509
  8
DATA
  6
CONTINUOUS
 62
     7
 10
-171.37416697508019
 20
-538.95000000000005
 30
0.0
  0
VERTEX
  5
50A
  8
DATA
  6
CONTINUOUS
 62
     7
 10
-170.24833395016029
 20
-537.0
 30
0.0
  0
VERTEX
  5
50B
  8
DATA
  6
CONTINUOUS
 62
     7
 10
-171.37416697508019
 20
-535.04999999999995
 30
0.0
  0
SEQEND
  5
50C
  8
DATA
  6
CONTINUOUS
 62
     7
  0
CIRCLE
  5
16D
  8
DATA
  6
CONTINUOUS
 62
     7
 10
-215.5
 20
-587.0
 30
0.0
 40
6.5
  0
POLYLINE
  5
16E
  8
DATA
  6
CONTINUOUS
 62
     7
 66
     1
 10
0.0
 20
0.0
 30
0.0
 70
     1
  0
VERTEX
  5
50D
  8
DATA
  6
CONTINUOUS
 62
     7
 10
-216.6258330249197
 20
-585.04999999999995
 30
0.0
  0
VERTEX
  5
50E
  8
DATA
  6
CONTINUOUS
 62
     7
 10
-217.7516660498396
 20
-587.0
 30
0.0
  0
VERTEX
  5
50F
  8
DATA
  6
CONTINUOUS
 62
     7
 10
-216.6258330249197
 20
-588.95000000000005
 30
0.0
  0
VERTEX
  5
510
  8
DATA
  6
CONTINUOUS
 62
     7
 10
-214.3741669750803
 20
-588.95000000000005
 30
0.0
  0
VERTEX
  5
511
  8
DATA
  6
CONTINUOUS
 62
     7
 10
-213.2483339501604
 20
-587.0
 30
0.0
  0
VERTEX
  5
512
  8
DATA
  6
CONTINUOUS
 62
     7
 10
-214.3741669750803
 20
-585.04999999999995
 30
0.0
  0
SEQEND
  5
513
  8
DATA
  6
CONTINUOUS
 62
     7
  0
CIRCLE
  5
177
  8
DATA
  6
CONTINUOUS
 62
     7
 10
-172.5
 20
-587.0
 30
0.0
 40
6.5
  0
POLYLINE
  5
178
  8
DATA
  6
CONTINUOUS
 62
     7
 66
     1
 10
0.0
 20
0.0
 30
0.0
 70
     1
  0
VERTEX
  5
514
  8
DATA
  6
CONTINUOUS
 62
     7
 10
-173.6258330249197
 20
-585.04999999999995
 30
0.0
  0
VERTEX
  5
515
  8
DATA
  6
CONTINUOUS
 62
     7
 10
-174.7516660498396
 20
-587.0
 30
0.0
  0
VERTEX
  5
516
  8
DATA
  6
CONTINUOUS
 62
     7
 10
-173.6258330249197
 20
-588.95000000000005
 30
0.0
  0
VERTEX
  5
517
  8
DATA
  6
CONTINUOUS
 62
     7
 10
-171.37416697508019
 20
-588.95000000000005
 30
0.0
  0
VERTEX
  5
518
  8
DATA
  6
CONTINUOUS
 62
     7
 10
-170.24833395016029
 20
-587.0
 30
0.0
  0
VERTEX
  5
519
  8
DATA
  6
CONTINUOUS
 62
     7
 10
-171.37416697508019
 20
-585.04999999999995
 30
0.0
  0
SEQEND
  5
51A
  8
DATA
  6
CONTINUOUS
 62
     7
  0
CIRCLE
  5
181
  8
DATA
  6
CONTINUOUS
 62
     7
 10
-401.0
 20
-562.0
 30
0.0
 40
8.0
  0
CIRCLE
  5
182
  8
DATA
  6
CONTINUOUS
 62
     7
 10
12.99999999999998
 20
-562.0
 30
0.0
 40
8.0
  0
LINE
  5
183
  8
DATA
  6
CONTINUOUS
 62
     7
 10
-199.0
 20
-290.0
 30
0.0
 11
-199.0
 21
378.0
 31
0.0
  0
LINE
  5
184
  8
DATA
  6
CONTINUOUS
 62
     7
 10
-189.0
 20
378.0
 30
0.0
 11
-189.0
 21
-290.0
 31
0.0
  0
LINE
  5
185
  8
DATA
  6
CONTINUOUS
 62
     7
 10
-224.0
 20
-290.0
 30
0.0
 11
-224.0
 21
-283.69999999999999
 31
0.0
  0
LINE
  5
186
  8
DATA
  6
CONTINUOUS
 62
     7
 10
-164.0
 20
-283.69999999999999
 30
0.0
 11
-164.0
 21
-290.0
 31
0.0
  0
LINE
  5
187
  8
DATA
  6
CONTINUOUS
 62
     7
 10
-205.30000000000001
 20
-258.0
 30
0.0
 11
-199.0
 21
-258.0
 31
0.0
  0
LINE
  5
188
  8
DATA
  6
CONTINUOUS
 62
     7
 10
-189.0
 20
-258.0
 30
0.0
 11
-182.69999999999999
 21
-258.0
 31
0.0
  0
LINE
  5
189
  8
DATA
  6
CONTINUOUS
 62
     7
 10
-224.0
 20
371.69999999999999
 30
0.0
 11
-224.0
 21
378.0
 31
0.0
  0
LINE
  5
18A
  8
DATA
  6
CONTINUOUS
 62
     7
 10
-164.0
 20
371.69999999999999
 30
0.0
 11
-164.0
 21
378.0
 31
0.0
  0
LINE
  5
18B
  8
DATA
  6
CONTINUOUS
 62
     7
 10
-205.30000000000001
 20
346.0
 30
0.0
 11
-199.0
 21
346.0
 31
0.0
  0
LINE
  5
18C
  8
DATA
  6
CONTINUOUS
 62
     7
 10
-189.0
 20
346.0
 30
0.0
 11
-182.69999999999999
 21
346.0
 31
0.0
  0
LINE
  5
18D
  8
DATA
  6
CONTINUOUS
 62
     7
 10
102.0
 20
58.0
 30
0.0
 11
-182.69999999999999
 21
58.0
 31
0.0
  0
LINE
  5
18E
  8
DATA
  6
CONTINUOUS
 62
     7
 10
-205.30000000000001
 20
58.0
 30
0.0
 11
-490.0
 21
58.0
 31
0.0
  0
LINE
  5
18F
  8
DATA
  6
CONTINUOUS
 62
     7
 10
-490.0
 20
68.0
 30
0.0
 11
-205.30000000000001
 21
68.0
 31
0.0
  0
LINE
  5
190
  8
DATA
  6
CONTINUOUS
 62
     7
 10
-182.69999999999999
 20
68.0
 30
0.0
 11
102.0
 21
68.0
 31
0.0
  0
LINE
  5
191
  8
DATA
  6
CONTINUOUS
 62
     7
 10
-224.0
 20
-283.69999999999999
 30
0.0
 11
-206.80000000000001
 21
-283.69999999999999
 31
0.0
  0
LINE
  5
192
  8
DATA
  6
CONTINUOUS
 62
     7
 10
-181.19999999999999
 20
-283.69999999999999
 30
0.0
 11
-164.0
 21
-283.69999999999999
 31
0.0
  0
LINE
  5
193
  8
DATA
  6
CONTINUOUS
 62
     7
 10
-205.30000000000001
 20
-282.19999999999999
 30
0.0
 11
-205.30000000000001
 21
-258.0
 31
0.0
  0
LINE
  5
194
  8
DATA
  6
CONTINUOUS
 62
     7
 10
-182.69999999999999
 20
-282.19999999999999
 30
0.0
 11
-182.69999999999999
 21
-258.0
 31
0.0
  0
LINE
  5
195
  8
DATA
  6
CONTINUOUS
 62
     7
 10
-224.0
 20
371.69999999999999
 30
0.0
 11
-206.80000000000001
 21
371.69999999999999
 31
0.0
  0
LINE
  5
196
  8
DATA
  6
CONTINUOUS
 62
     7
 10
-181.19999999999999
 20
371.69999999999999
 30
0.0
 11
-164.0
 21
371.69999999999999
 31
0.0
  0
LINE
  5
197
  8
DATA
  6
CONTINUOUS
 62
     7
 10
-205.30000000000001
 20
370.19999999999999
 30
0.0
 11
-205.30000000000001
 21
346.0
 31
0.0
  0
LINE
  5
198
  8
DATA
  6
CONTINUOUS
 62
     7
 10
-182.69999999999999
 20
370.19999999999999
 30
0.0
 11
-182.69999999999999
 21
346.0
 31
0.0
  0
LINE
  5
199
  8
DATA
  6
CONTINUOUS
 62
     7
 10
-205.30000000000001
 20
51.700000000000003
 30
0.0
 11
-205.30000000000001
 21
74.299999999999983
 31
0.0
  0
LINE
  5
19A
  8
DATA
  6
CONTINUOUS
 62
     7
 10
-182.69999999999999
 20
51.700000000000003
 30
0.0
 11
-182.69999999999999
 21
74.299999999999983
 31
0.0
  0
LINE
  5
19B
  8
DATA
  6
CONTINUOUS
 62
     7
 10
-224.0
 20
51.700000000000003
 30
0.0
 11
-224.0
 21
58.0
 31
0.0
  0
LINE
  5
19C
  8
DATA
  6
CONTINUOUS
 62
     7
 10
-224.0
 20
68.0
 30
0.0
 11
-224.0
 21
74.299999999999983
 31
0.0
  0
LINE
  5
19D
  8
DATA
  6
CONTINUOUS
 62
     7
 10
-164.0
 20
74.299999999999983
 30
0.0
 11
-164.0
 21
68.0
 31
0.0
  0
LINE
  5
19E
  8
DATA
  6
CONTINUOUS
 62
     7
 10
-164.0
 20
58.0
 30
0.0
 11
-164.0
 21
51.700000000000003
 31
0.0
  0
LINE
  5
19F
  8
DATA
  6
CONTINUOUS
 62
     7
 10
-224.0
 20
74.299999999999983
 30
0.0
 11
-199.0
 21
74.299999999999983
 31
0.0
  0
LINE
  5
1A0
  8
DATA
  6
CONTINUOUS
 62
     7
 10
-189.0
 20
74.299999999999983
 30
0.0
 11
-164.0
 21
74.299999999999983
 31
0.0
  0
LINE
  5
1A1
  8
DATA
  6
CONTINUOUS
 62
     7
 10
-224.0
 20
51.700000000000003
 30
0.0
 11
-199.0
 21
51.700000000000003
 31
0.0
  0
LINE
  5
1A2
  8
DATA
  6
CONTINUOUS
 62
     7
 10
-189.0
 20
51.700000000000003
 30
0.0
 11
-164.0
 21
51.700000000000003
 31
0.0
  0
LINE
  5
1A3
  8
DATA
  6
CONTINUOUS
 62
     7
 10
-465.0
 20
-290.0
 30
0.0
 11
-465.0
 21
-283.69999999999999
 31
0.0
  0
LINE
  5
1A4
  8
DATA
  6
CONTINUOUS
 62
     7
 10
-465.0
 20
-266.69999999999999
 30
0.0
 11
-465.0
 21
-261.69999999999999
 31
0.0
  0
LINE
  5
1A5
  8
DATA
  6
CONTINUOUS
 62
     7
 10
-465.0
 20
-247.69999999999999
 30
0.0
 11
-465.0
 21
-242.69999999999999
 31
0.0
  0
LINE
  5
1A6
  8
DATA
  6
CONTINUOUS
 62
     7
 10
-482.19999999999999
 20
-283.69999999999999
 30
0.0
 11
-465.0
 21
-283.69999999999999
 31
0.0
  0
LINE
  5
1A7
  8
DATA
  6
CONTINUOUS
 62
     7
 10
-482.19999999999999
 20
-266.69999999999999
 30
0.0
 11
-465.0
 21
-266.69999999999999
 31
0.0
  0
LINE
  5
1A8
  8
DATA
  6
CONTINUOUS
 62
     7
 10
-490.0
 20
-261.69999999999999
 30
0.0
 11
-465.0
 21
-261.69999999999999
 31
0.0
  0
LINE
  5
1A9
  8
DATA
  6
CONTINUOUS
 62
     7
 10
-483.7000000000001
 20
-282.19999999999999
 30
0.0
 11
-483.7000000000001
 21
-268.19999999999999
 31
0.0
  0
LINE
  5
1AA
  8
DATA
  6
CONTINUOUS
 62
     7
 10
-490.0
 20
-247.69999999999999
 30
0.0
 11
-465.0
 21
-247.69999999999999
 31
0.0
  0
LINE
  5
1AB
  8
DATA
  6
CONTINUOUS
 62
     7
 10
-482.19999999999999
 20
-242.69999999999999
 30
0.0
 11
-465.0
 21
-242.69999999999999
 31
0.0
  0
LINE
  5
1AC
  8
DATA
  6
CONTINUOUS
 62
     7
 10
-481.0
 20
-261.69999999999999
 30
0.0
 11
-481.0
 21
-247.69999999999999
 31
0.0
  0
LINE
  5
1AD
  8
DATA
  6
CONTINUOUS
 62
     7
 10
-490.0
 20
-224.69999999999999
 30
0.0
 11
-485.0
 21
-224.69999999999999
 31
0.0
  0
LINE
  5
1AE
  8
DATA
  6
CONTINUOUS
 62
     7
 10
-485.0
 20
-224.69999999999999
 30
0.0
 11
-485.0
 21
-233.69999999999999
 31
0.0
  0
LINE
  5
1AF
  8
DATA
  6
CONTINUOUS
 62
     7
 10
-485.0
 20
-233.69999999999999
 30
0.0
 11
-483.7000000000001
 21
-233.69999999999999
 31
0.0
  0
LINE
  5
1B0
  8
DATA
  6
CONTINUOUS
 62
     7
 10
-483.7000000000001
 20
-241.19999999999999
 30
0.0
 11
-483.7000000000001
 21
-233.69999999999999
 31
0.0
  0
ARC
  5
1B1
  8
DATA
  6
CONTINUOUS
 62
     7
 10
-482.19999999999999
 20
-282.19999999999999
 30
0.0
 40
1.5
 50
180.0
 51
270.0
  0
ARC
  5
1B2
  8
DATA
  6
CONTINUOUS
 62
     7
 10
-482.19999999999999
 20
-268.19999999999999
 30
0.0
 40
1.5
 50
90.0
 51
180.0
  0
ARC
  5
1B3
  8
DATA
  6
CONTINUOUS
 62
     7
 10
-482.19999999999999
 20
-241.19999999999999
 30
0.0
 40
1.5
 50
180.0
 51
270.0
  0
ARC
  5
1B4
  8
DATA
  6
CONTINUOUS
 62
     7
 10
-206.80000000000001
 20
-282.19999999999999
 30
0.0
 40
1.5
 50
270.0
 51
0.0
  0
ARC
  5
1B5
  8
DATA
  6
CONTINUOUS
 62
     7
 10
-181.19999999999999
 20
-282.19999999999999
 30
0.0
 40
1.5
 50
180.0
 51
270.0
  0
ARC
  5
1B6
  8
DATA
  6
CONTINUOUS
 62
     7
 10
-206.80000000000001
 20
370.19999999999999
 30
0.0
 40
1.5
 50
0.0
 51
90.0
  0
ARC
  5
1B7
  8
DATA
  6
CONTINUOUS
 62
     7
 10
-181.19999999999999
 20
370.19999999999999
 30
0.0
 40
1.5
 50
90.0
 51
180.0
  0
LINE
  5
1B8
  8
DATA
  6
CONTINUOUS
 62
     7
 10
-465.0
 20
-153.99999999987341
 30
0.0
 11
-465.0
 21
-158.99999999987341
 31
0.0
  0
LINE
  5
1B9
  8
DATA
  6
CONTINUOUS
 62
     7
 10
-490.0
 20
-153.99999999987341
 30
0.0
 11
-465.0
 21
-153.99999999987341
 31
0.0
  0
LINE
  5
1BA
  8
DATA
  6
CONTINUOUS
 62
     7
 10
-482.19999999999999
 20
-158.99999999987341
 30
0.0
 11
-465.0
 21
-158.99999999987341
 31
0.0
  0
LINE
  5
1BB
  8
DATA
  6
CONTINUOUS
 62
     7
 10
-490.0
 20
-176.99999999987341
 30
0.0
 11
-485.0
 21
-176.99999999987341
 31
0.0
  0
LINE
  5
1BC
  8
DATA
  6
CONTINUOUS
 62
     7
 10
-485.0
 20
-176.99999999987341
 30
0.0
 11
-485.0
 21
-167.99999999987341
 31
0.0
  0
LINE
  5
1BD
  8
DATA
  6
CONTINUOUS
 62
     7
 10
-485.0
 20
-167.99999999987341
 30
0.0
 11
-483.7000000000001
 21
-167.99999999987341
 31
0.0
  0
LINE
  5
1BE
  8
DATA
  6
CONTINUOUS
 62
     7
 10
-483.7000000000001
 20
-160.49999999987341
 30
0.0
 11
-483.7000000000001
 21
-167.99999999987341
 31
0.0
  0
ARC
  5
1BF
  8
DATA
  6
CONTINUOUS
 62
     7
 10
-482.19999999999999
 20
-160.49999999987341
 30
0.0
 40
1.5
 50
90.0
 51
180.0
  0
LINE
  5
1C0
  8
DATA
  6
CONTINUOUS
 62
     7
 10
-465.0
 20
-139.99999999997229
 30
0.0
 11
-465.0
 21
-134.9999999999724
 31
0.0
  0
LINE
  5
1C1
  8
DATA
  6
CONTINUOUS
 62
     7
 10
-490.0
 20
-139.99999999997229
 30
0.0
 11
-465.0
 21
-139.99999999997229
 31
0.0
  0
LINE
  5
1C2
  8
DATA
  6
CONTINUOUS
 62
     7
 10
-482.19999999999999
 20
-134.9999999999724
 30
0.0
 11
-465.0
 21
-134.9999999999724
 31
0.0
  0
LINE
  5
1C3
  8
DATA
  6
CONTINUOUS
 62
     7
 10
-481.0
 20
-153.99999999997229
 30
0.0
 11
-481.0
 21
-139.99999999997229
 31
0.0
  0
LINE
  5
1C4
  8
DATA
  6
CONTINUOUS
 62
     7
 10
-490.0
 20
-116.9999999999723
 30
0.0
 11
-485.0
 21
-116.9999999999723
 31
0.0
  0
LINE
  5
1C5
  8
DATA
  6
CONTINUOUS
 62
     7
 10
-485.0
 20
-116.9999999999723
 30
0.0
 11
-485.0
 21
-125.9999999999723
 31
0.0
  0
LINE
  5
1C6
  8
DATA
  6
CONTINUOUS
 62
     7
 10
-485.0
 20
-125.9999999999723
 30
0.0
 11
-483.7000000000001
 21
-125.9999999999723
 31
0.0
  0
LINE
  5
1C7
  8
DATA
  6
CONTINUOUS
 62
     7
 10
-483.7000000000001
 20
-133.49999999997229
 30
0.0
 11
-483.7000000000001
 21
-125.9999999999723
 31
0.0
  0
ARC
  5
1C8
  8
DATA
  6
CONTINUOUS
 62
     7
 10
-482.19999999999999
 20
-133.49999999997229
 30
0.0
 40
1.5
 50
180.0
 51
270.0
  0
LINE
  5
1C9
  8
DATA
  6
CONTINUOUS
 62
     7
 10
-476.59999999999991
 20
-272.69999999999999
 30
0.0
 11
-471.39999999999992
 21
-272.69999999999999
 31
0.0
  0
LINE
  5
1CA
  8
DATA
  6
CONTINUOUS
 62
     7
 10
-477.15000000000009
 20
-270.99999999999972
 30
0.0
 11
-477.15000000000009
 21
-266.69999999999999
 31
0.0
  0
LINE
  5
1CB
  8
DATA
  6
CONTINUOUS
 62
     7
 10
-477.15000000000009
 20
-261.69999999999999
 30
0.0
 11
-477.15000000000009
 21
-247.69999999999999
 31
0.0
  0
LINE
  5
1CC
  8
DATA
  6
CONTINUOUS
 62
     7
 10
-470.84999999999991
 20
-247.69999999999999
 30
0.0
 11
-470.84999999999991
 21
-261.69999999999999
 31
0.0
  0
LINE
  5
1CD
  8
DATA
  6
CONTINUOUS
 62
     7
 10
-470.84999999999991
 20
-266.69999999999999
 30
0.0
 11
-470.84999999999991
 21
-271.00000000000028
 31
0.0
  0
LINE
  5
1CE
  8
DATA
  6
CONTINUOUS
 62
     7
 10
-477.15000000000009
 20
-271.0
 30
0.0
 11
-476.60000000000002
 21
-272.69999999999999
 31
0.0
  0
LINE
  5
1CF
  8
DATA
  6
CONTINUOUS
 62
     7
 10
-470.84999999999991
 20
-271.0
 30
0.0
 11
-471.39999999999992
 21
-272.69999999999999
 31
0.0
  0
ARC
  5
1D0
  8
DATA
  6
CONTINUOUS
 62
     7
 10
-477.04859056159341
 20
-267.69999999999999
 30
0.0
 40
0.6499999999999668
 50
98.975639853151577
 51
261.02436014684838
  0
ARC
  5
1D1
  8
DATA
  6
CONTINUOUS
 62
     7
 10
-470.95140943840647
 20
-267.69999999999999
 30
0.0
 40
0.6499999999999668
 50
278.97563985315151
 51
81.024360146848466
  0
LINE
  5
1D2
  8
DATA
  6
CONTINUOUS
 62
     7
 10
-476.85000000000002
 20
-218.69999999999999
 30
0.0
 11
-474.75
 21
-218.69999999999999
 31
0.0
  0
LINE
  5
1D3
  8
DATA
  6
CONTINUOUS
 62
     7
 10
-473.24999999999989
 20
-218.69999999999999
 30
0.0
 11
-471.14999999999998
 21
-218.69999999999999
 31
0.0
  0
LINE
  5
1D4
  8
DATA
  6
CONTINUOUS
 62
     7
 10
-478.68000000000001
 20
-240.90000000000001
 30
0.0
 11
-469.31999999999999
 21
-240.90000000000001
 31
0.0
  0
LINE
  5
1D5
  8
DATA
  6
CONTINUOUS
 62
     7
 10
-478.5
 20
-242.69999999999999
 30
0.0
 11
-478.5
 21
-240.90000000000001
 31
0.0
  0
LINE
  5
1D6
  8
DATA
  6
CONTINUOUS
 62
     7
 10
-469.5
 20
-240.90000000000001
 30
0.0
 11
-469.5
 21
-242.69999999999999
 31
0.0
  0
LINE
  5
1D7
  8
DATA
  6
CONTINUOUS
 62
     7
 10
-476.85000000000002
 20
-223.69999999999999
 30
0.0
 11
-476.85000000000002
 21
-218.69999999999999
 31
0.0
  0
LINE
  5
1D8
  8
DATA
  6
CONTINUOUS
 62
     7
 10
-471.14999999999998
 20
-218.69999999999999
 30
0.0
 11
-471.14999999999998
 21
-223.69999999999999
 31
0.0
  0
LINE
  5
1D9
  8
DATA
  6
CONTINUOUS
 62
     7
 10
-481.5
 20
-228.59999999999999
 30
0.0
 11
-481.5
 21
-223.69999999999999
 31
0.0
  0
LINE
  5
1DA
  8
DATA
  6
CONTINUOUS
 62
     7
 10
-466.5
 20
-223.69999999999999
 30
0.0
 11
-466.5
 21
-228.59999999999999
 31
0.0
  0
LINE
  5
1DB
  8
DATA
  6
CONTINUOUS
 62
     7
 10
-481.5
 20
-223.69999999999999
 30
0.0
 11
-474.75
 21
-223.69999999999999
 31
0.0
  0
LINE
  5
1DC
  8
DATA
  6
CONTINUOUS
 62
     7
 10
-473.24999999999989
 20
-223.69999999999999
 30
0.0
 11
-466.5
 21
-223.69999999999999
 31
0.0
  0
LINE
  5
1DD
  8
DATA
  6
CONTINUOUS
 62
     7
 10
-481.5
 20
-228.59999999999999
 30
0.0
 11
-466.5
 21
-228.59999999999999
 31
0.0
  0
LINE
  5
1DE
  8
DATA
  6
CONTINUOUS
 62
     7
 10
-480.0
 20
-228.59999999999999
 30
0.0
 11
-479.67116788321158
 21
-233.90000000000001
 31
0.0
  0
LINE
  5
1DF
  8
DATA
  6
CONTINUOUS
 62
     7
 10
-468.0
 20
-228.59999999999999
 30
0.0
 11
-468.32883211678842
 21
-233.90000000000001
 31
0.0
  0
LINE
  5
1E0
  8
DATA
  6
CONTINUOUS
 62
     7
 10
-479.67116788321158
 20
-233.90000000000001
 30
0.0
 11
-478.68000000000001
 21
-240.90000000000001
 31
0.0
  0
LINE
  5
1E1
  8
DATA
  6
CONTINUOUS
 62
     7
 10
-468.32883211678842
 20
-233.90000000000001
 30
0.0
 11
-469.31999999999999
 21
-240.90000000000001
 31
0.0
  0
ARC
  5
1E2
  8
DATA
  6
CONTINUOUS
 62
     7
 10
-474.0
 20
-214.4576923076923
 30
0.0
 40
0.7576923076922951
 50
8.1712335599430777
 51
171.828766440057
  0
ARC
  5
1E3
  8
DATA
  6
CONTINUOUS
 62
     7
 10
-474.0
 20
-226.55482908178669
 30
0.0
 40
0.7576923076922951
 50
188.17123355994309
 51
351.828766440057
  0
LINE
  5
1E4
  8
DATA
  6
CONTINUOUS
 62
     7
 10
-474.75
 20
-226.66252138947891
 30
0.0
 11
-474.75
 21
-214.34
 31
0.0
  0
LINE
  5
1E5
  8
DATA
  6
CONTINUOUS
 62
     7
 10
-473.24999999999989
 20
-214.34999999999999
 30
0.0
 11
-473.24999999999989
 21
-226.74000000000001
 31
0.0
  0
LINE
  5
1E6
  8
DATA
  6
CONTINUOUS
 62
     7
 10
-476.59999999999991
 20
-164.99999999970001
 30
0.0
 11
-471.39999999999992
 21
-164.99999999970001
 31
0.0
  0
LINE
  5
1E7
  8
DATA
  6
CONTINUOUS
 62
     7
 10
-477.15000000000009
 20
-163.29999999969971
 30
0.0
 11
-477.15000000000009
 21
-158.99999999970001
 31
0.0
  0
LINE
  5
1E8
  8
DATA
  6
CONTINUOUS
 62
     7
 10
-477.15000000000009
 20
-153.9999999996999
 30
0.0
 11
-477.15000000000009
 21
-139.99999999970001
 31
0.0
  0
LINE
  5
1E9
  8
DATA
  6
CONTINUOUS
 62
     7
 10
-470.84999999999991
 20
-139.99999999970001
 30
0.0
 11
-470.84999999999991
 21
-153.9999999996999
 31
0.0
  0
LINE
  5
1EA
  8
DATA
  6
CONTINUOUS
 62
     7
 10
-470.84999999999991
 20
-158.99999999970001
 30
0.0
 11
-470.84999999999991
 21
-163.29999999970019
 31
0.0
  0
LINE
  5
1EB
  8
DATA
  6
CONTINUOUS
 62
     7
 10
-477.15000000000009
 20
-163.29999999969999
 30
0.0
 11
-476.60000000000002
 21
-164.99999999970001
 31
0.0
  0
LINE
  5
1EC
  8
DATA
  6
CONTINUOUS
 62
     7
 10
-470.84999999999991
 20
-163.29999999969999
 30
0.0
 11
-471.39999999999992
 21
-164.99999999970001
 31
0.0
  0
ARC
  5
1ED
  8
DATA
  6
CONTINUOUS
 62
     7
 10
-477.04859056159341
 20
-159.99999999970001
 30
0.0
 40
0.6499999999999668
 50
98.975639853151577
 51
261.02436014684838
  0
ARC
  5
1EE
  8
DATA
  6
CONTINUOUS
 62
     7
 10
-470.95140943840647
 20
-159.99999999970001
 30
0.0
 40
0.6499999999999668
 50
278.97563985315151
 51
81.024360146848466
  0
LINE
  5
1EF
  8
DATA
  6
CONTINUOUS
 62
     7
 10
-476.85000000000002
 20
-110.99999999969999
 30
0.0
 11
-474.75
 21
-110.99999999969999
 31
0.0
  0
LINE
  5
1F0
  8
DATA
  6
CONTINUOUS
 62
     7
 10
-473.24999999999989
 20
-110.99999999969999
 30
0.0
 11
-471.14999999999998
 21
-110.99999999969999
 31
0.0
  0
LINE
  5
1F1
  8
DATA
  6
CONTINUOUS
 62
     7
 10
-478.68000000000001
 20
-133.1999999997
 30
0.0
 11
-469.31999999999999
 21
-133.1999999997
 31
0.0
  0
LINE
  5
1F2
  8
DATA
  6
CONTINUOUS
 62
     7
 10
-478.5
 20
-134.99999999970001
 30
0.0
 11
-478.5
 21
-133.1999999997
 31
0.0
  0
LINE
  5
1F3
  8
DATA
  6
CONTINUOUS
 62
     7
 10
-469.5
 20
-133.1999999997
 30
0.0
 11
-469.5
 21
-134.99999999970001
 31
0.0
  0
LINE
  5
1F4
  8
DATA
  6
CONTINUOUS
 62
     7
 10
-476.85000000000002
 20
-115.99999999969999
 30
0.0
 11
-476.85000000000002
 21
-110.99999999969999
 31
0.0
  0
LINE
  5
1F5
  8
DATA
  6
CONTINUOUS
 62
     7
 10
-471.14999999999998
 20
-110.99999999969999
 30
0.0
 11
-471.14999999999998
 21
-115.99999999969999
 31
0.0
  0
LINE
  5
1F6
  8
DATA
  6
CONTINUOUS
 62
     7
 10
-481.5
 20
-120.8999999996999
 30
0.0
 11
-481.5
 21
-115.99999999969999
 31
0.0
  0
LINE
  5
1F7
  8
DATA
  6
CONTINUOUS
 62
     7
 10
-466.5
 20
-115.99999999969999
 30
0.0
 11
-466.5
 21
-120.8999999996999
 31
0.0
  0
LINE
  5
1F8
  8
DATA
  6
CONTINUOUS
 62
     7
 10
-481.5
 20
-115.99999999969999
 30
0.0
 11
-474.75
 21
-115.99999999969999
 31
0.0
  0
LINE
  5
1F9
  8
DATA
  6
CONTINUOUS
 62
     7
 10
-473.24999999999989
 20
-115.99999999969999
 30
0.0
 11
-466.5
 21
-115.99999999969999
 31
0.0
  0
LINE
  5
1FA
  8
DATA
  6
CONTINUOUS
 62
     7
 10
-481.5
 20
-120.8999999996999
 30
0.0
 11
-466.5
 21
-120.8999999996999
 31
0.0
  0
LINE
  5
1FB
  8
DATA
  6
CONTINUOUS
 62
     7
 10
-480.0
 20
-120.8999999996999
 30
0.0
 11
-479.67116788321158
 21
-126.1999999996999
 31
0.0
  0
LINE
  5
1FC
  8
DATA
  6
CONTINUOUS
 62
     7
 10
-468.0
 20
-120.8999999996999
 30
0.0
 11
-468.32883211678842
 21
-126.1999999996999
 31
0.0
  0
LINE
  5
1FD
  8
DATA
  6
CONTINUOUS
 62
     7
 10
-479.67116788321158
 20
-126.1999999996999
 30
0.0
 11
-478.68000000000001
 21
-133.1999999997
 31
0.0
  0
LINE
  5
1FE
  8
DATA
  6
CONTINUOUS
 62
     7
 10
-468.32883211678842
 20
-126.1999999996999
 30
0.0
 11
-469.31999999999999
 21
-133.1999999997
 31
0.0
  0
ARC
  5
1FF
  8
DATA
  6
CONTINUOUS
 62
     7
 10
-474.0
 20
-106.7576923073922
 30
0.0
 40
0.7576923076922951
 50
8.1712335599430777
 51
171.828766440057
  0
ARC
  5
200
  8
DATA
  6
CONTINUOUS
 62
     7
 10
-474.0
 20
-118.8548290814867
 30
0.0
 40
0.7576923076922951
 50
188.17123355994309
 51
351.828766440057
  0
LINE
  5
201
  8
DATA
  6
CONTINUOUS
 62
     7
 10
-474.75
 20
-118.9625213891789
 30
0.0
 11
-474.75
 21
-106.6399999997
 31
0.0
  0
LINE
  5
202
  8
DATA
  6
CONTINUOUS
 62
     7
 10
-473.24999999999989
 20
-106.6499999997
 30
0.0
 11
-473.24999999999989
 21
-119.0399999997
 31
0.0
  0
LINE
  5
203
  8
DATA
  6
CONTINUOUS
 62
     7
 10
76.999999999999986
 20
-290.0
 30
0.0
 11
76.999999999999986
 21
-283.69999999999999
 31
0.0
  0
LINE
  5
204
  8
DATA
  6
CONTINUOUS
 62
     7
 10
76.999999999999986
 20
-266.69999999999999
 30
0.0
 11
76.999999999999986
 21
-261.69999999999999
 31
0.0
  0
LINE
  5
205
  8
DATA
  6
CONTINUOUS
 62
     7
 10
76.999999999999986
 20
-247.69999999999999
 30
0.0
 11
76.999999999999986
 21
-242.69999999999999
 31
0.0
  0
LINE
  5
206
  8
DATA
  6
CONTINUOUS
 62
     7
 10
94.200000000000031
 20
-283.69999999999999
 30
0.0
 11
76.999999999999986
 21
-283.69999999999999
 31
0.0
  0
LINE
  5
207
  8
DATA
  6
CONTINUOUS
 62
     7
 10
94.200000000000031
 20
-266.69999999999999
 30
0.0
 11
76.999999999999986
 21
-266.69999999999999
 31
0.0
  0
LINE
  5
208
  8
DATA
  6
CONTINUOUS
 62
     7
 10
102.0
 20
-261.69999999999999
 30
0.0
 11
76.999999999999986
 21
-261.69999999999999
 31
0.0
  0
LINE
  5
209
  8
DATA
  6
CONTINUOUS
 62
     7
 10
95.700000000000031
 20
-282.19999999999999
 30
0.0
 11
95.700000000000031
 21
-268.19999999999999
 31
0.0
  0
LINE
  5
20A
  8
DATA
  6
CONTINUOUS
 62
     7
 10
102.0
 20
-247.69999999999999
 30
0.0
 11
76.999999999999986
 21
-247.69999999999999
 31
0.0
  0
LINE
  5
20B
  8
DATA
  6
CONTINUOUS
 62
     7
 10
94.200000000000031
 20
-242.69999999999999
 30
0.0
 11
76.999999999999986
 21
-242.69999999999999
 31
0.0
  0
LINE
  5
20C
  8
DATA
  6
CONTINUOUS
 62
     7
 10
92.999999999999986
 20
-261.69999999999999
 30
0.0
 11
92.999999999999986
 21
-247.69999999999999
 31
0.0
  0
LINE
  5
20D
  8
DATA
  6
CONTINUOUS
 62
     7
 10
102.0
 20
-224.69999999999999
 30
0.0
 11
96.999999999999986
 21
-224.69999999999999
 31
0.0
  0
LINE
  5
20E
  8
DATA
  6
CONTINUOUS
 62
     7
 10
96.999999999999986
 20
-224.69999999999999
 30
0.0
 11
96.999999999999986
 21
-233.69999999999999
 31
0.0
  0
LINE
  5
20F
  8
DATA
  6
CONTINUOUS
 62
     7
 10
96.999999999999986
 20
-233.69999999999999
 30
0.0
 11
95.700000000000031
 21
-233.69999999999999
 31
0.0
  0
LINE
  5
210
  8
DATA
  6
CONTINUOUS
 62
     7
 10
95.700000000000031
 20
-241.19999999999999
 30
0.0
 11
95.700000000000031
 21
-233.69999999999999
 31
0.0
  0
ARC
  5
211
  8
DATA
  6
CONTINUOUS
 62
     7
 10
94.200000000000031
 20
-282.19999999999999
 30
0.0
 40
1.5
 50
270.0
 51
0.0
  0
ARC
  5
212
  8
DATA
  6
CONTINUOUS
 62
     7
 10
94.200000000000031
 20
-268.19999999999999
 30
0.0
 40
1.5
 50
0.0
 51
90.0
  0
ARC
  5
213
  8
DATA
  6
CONTINUOUS
 62
     7
 10
94.200000000000031
 20
-241.19999999999999
 30
0.0
 40
1.5
 50
270.0
 51
0.0
  0
LINE
  5
214
  8
DATA
  6
CONTINUOUS
 62
     7
 10
76.999999999999986
 20
-153.99999999987341
 30
0.0
 11
76.999999999999986
 21
-158.99999999987341
 31
0.0
  0
LINE
  5
215
  8
DATA
  6
CONTINUOUS
 62
     7
 10
102.0
 20
-153.99999999987341
 30
0.0
 11
76.999999999999986
 21
-153.99999999987341
 31
0.0
  0
LINE
  5
216
  8
DATA
  6
CONTINUOUS
 62
     7
 10
94.200000000000031
 20
-158.99999999987341
 30
0.0
 11
76.999999999999986
 21
-158.99999999987341
 31
0.0
  0
LINE
  5
217
  8
DATA
  6
CONTINUOUS
 62
     7
 10
102.0
 20
-176.99999999987341
 30
0.0
 11
96.999999999999986
 21
-176.99999999987341
 31
0.0
  0
LINE
  5
218
  8
DATA
  6
CONTINUOUS
 62
     7
 10
96.999999999999986
 20
-176.99999999987341
 30
0.0
 11
96.999999999999986
 21
-167.99999999987341
 31
0.0
  0
LINE
  5
219
  8
DATA
  6
CONTINUOUS
 62
     7
 10
96.999999999999986
 20
-167.99999999987341
 30
0.0
 11
95.700000000000031
 21
-167.99999999987341
 31
0.0
  0
LINE
  5
21A
  8
DATA
  6
CONTINUOUS
 62
     7
 10
95.700000000000031
 20
-160.49999999987341
 30
0.0
 11
95.700000000000031
 21
-167.99999999987341
 31
0.0
  0
ARC
  5
21B
  8
DATA
  6
CONTINUOUS
 62
     7
 10
94.200000000000031
 20
-160.49999999987341
 30
0.0
 40
1.5
 50
0.0
 51
90.0
  0
LINE
  5
21C
  8
DATA
  6
CONTINUOUS
 62
     7
 10
76.999999999999986
 20
-139.99999999997229
 30
0.0
 11
76.999999999999986
 21
-134.9999999999724
 31
0.0
  0
LINE
  5
21D
  8
DATA
  6
CONTINUOUS
 62
     7
 10
102.0
 20
-139.99999999997229
 30
0.0
 11
76.999999999999986
 21
-139.99999999997229
 31
0.0
  0
LINE
  5
21E
  8
DATA
  6
CONTINUOUS
 62
     7
 10
94.200000000000031
 20
-134.9999999999724
 30
0.0
 11
76.999999999999986
 21
-134.9999999999724
 31
0.0
  0
LINE
  5
21F
  8
DATA
  6
CONTINUOUS
 62
     7
 10
92.999999999999986
 20
-153.99999999997229
 30
0.0
 11
92.999999999999986
 21
-139.99999999997229
 31
0.0
  0
LINE
  5
220
  8
DATA
  6
CONTINUOUS
 62
     7
 10
102.0
 20
-116.9999999999723
 30
0.0
 11
96.999999999999986
 21
-116.9999999999723
 31
0.0
  0
LINE
  5
221
  8
DATA
  6
CONTINUOUS
 62
     7
 10
96.999999999999986
 20
-116.9999999999723
 30
0.0
 11
96.999999999999986
 21
-125.9999999999723
 31
0.0
  0
LINE
  5
222
  8
DATA
  6
CONTINUOUS
 62
     7
 10
96.999999999999986
 20
-125.9999999999723
 30
0.0
 11
95.700000000000031
 21
-125.9999999999723
 31
0.0
  0
LINE
  5
223
  8
DATA
  6
CONTINUOUS
 62
     7
 10
95.700000000000031
 20
-133.49999999997229
 30
0.0
 11
95.700000000000031
 21
-125.9999999999723
 31
0.0
  0
ARC
  5
224
  8
DATA
  6
CONTINUOUS
 62
     7
 10
94.200000000000031
 20
-133.49999999997229
 30
0.0
 40
1.5
 50
270.0
 51
0.0
  0
LINE
  5
225
  8
DATA
  6
CONTINUOUS
 62
     7
 10
88.599999999999881
 20
-272.69999999999999
 30
0.0
 11
83.399999999999977
 21
-272.69999999999999
 31
0.0
  0
LINE
  5
226
  8
DATA
  6
CONTINUOUS
 62
     7
 10
89.150000000000063
 20
-270.99999999999972
 30
0.0
 11
89.150000000000063
 21
-266.69999999999999
 31
0.0
  0
LINE
  5
227
  8
DATA
  6
CONTINUOUS
 62
     7
 10
89.150000000000063
 20
-261.69999999999999
 30
0.0
 11
89.150000000000063
 21
-247.69999999999999
 31
0.0
  0
LINE
  5
228
  8
DATA
  6
CONTINUOUS
 62
     7
 10
82.850000000000009
 20
-247.69999999999999
 30
0.0
 11
82.850000000000009
 21
-261.69999999999999
 31
0.0
  0
LINE
  5
229
  8
DATA
  6
CONTINUOUS
 62
     7
 10
82.850000000000009
 20
-266.69999999999999
 30
0.0
 11
82.850000000000009
 21
-271.00000000000028
 31
0.0
  0
LINE
  5
22A
  8
DATA
  6
CONTINUOUS
 62
     7
 10
89.150000000000063
 20
-271.0
 30
0.0
 11
88.600000000000023
 21
-272.69999999999999
 31
0.0
  0
LINE
  5
22B
  8
DATA
  6
CONTINUOUS
 62
     7
 10
82.849999999999895
 20
-271.0
 30
0.0
 11
83.399999999999977
 21
-272.69999999999999
 31
0.0
  0
ARC
  5
22C
  8
DATA
  6
CONTINUOUS
 62
     7
 10
89.0485905615934
 20
-267.69999999999999
 30
0.0
 40
0.6499999999999668
 50
278.97563985315151
 51
81.024360146848466
  0
ARC
  5
22D
  8
DATA
  6
CONTINUOUS
 62
     7
 10
82.951409438406586
 20
-267.69999999999999
 30
0.0
 40
0.6499999999999668
 50
98.975639853151577
 51
261.02436014684838
  0
LINE
  5
22E
  8
DATA
  6
CONTINUOUS
 62
     7
 10
88.850000000000037
 20
-218.69999999999999
 30
0.0
 11
86.749999999999986
 21
-218.69999999999999
 31
0.0
  0
LINE
  5
22F
  8
DATA
  6
CONTINUOUS
 62
     7
 10
85.249999999999986
 20
-218.69999999999999
 30
0.0
 11
83.150000000000063
 21
-218.69999999999999
 31
0.0
  0
LINE
  5
230
  8
DATA
  6
CONTINUOUS
 62
     7
 10
90.680000000000035
 20
-240.90000000000001
 30
0.0
 11
81.319999999999922
 21
-240.90000000000001
 31
0.0
  0
LINE
  5
231
  8
DATA
  6
CONTINUOUS
 62
     7
 10
90.499999999999986
 20
-242.69999999999999
 30
0.0
 11
90.499999999999986
 21
-240.90000000000001
 31
0.0
  0
LINE
  5
232
  8
DATA
  6
CONTINUOUS
 62
     7
 10
81.499999999999986
 20
-240.90000000000001
 30
0.0
 11
81.499999999999986
 21
-242.69999999999999
 31
0.0
  0
LINE
  5
233
  8
DATA
  6
CONTINUOUS
 62
     7
 10
88.850000000000037
 20
-223.69999999999999
 30
0.0
 11
88.850000000000037
 21
-218.69999999999999
 31
0.0
  0
LINE
  5
234
  8
DATA
  6
CONTINUOUS
 62
     7
 10
83.150000000000063
 20
-218.69999999999999
 30
0.0
 11
83.150000000000063
 21
-223.69999999999999
 31
0.0
  0
LINE
  5
235
  8
DATA
  6
CONTINUOUS
 62
     7
 10
93.499999999999986
 20
-228.59999999999999
 30
0.0
 11
93.499999999999986
 21
-223.69999999999999
 31
0.0
  0
LINE
  5
236
  8
DATA
  6
CONTINUOUS
 62
     7
 10
78.499999999999986
 20
-223.69999999999999
 30
0.0
 11
78.499999999999986
 21
-228.59999999999999
 31
0.0
  0
LINE
  5
237
  8
DATA
  6
CONTINUOUS
 62
     7
 10
93.499999999999986
 20
-223.69999999999999
 30
0.0
 11
86.749999999999986
 21
-223.69999999999999
 31
0.0
  0
LINE
  5
238
  8
DATA
  6
CONTINUOUS
 62
     7
 10
85.249999999999986
 20
-223.69999999999999
 30
0.0
 11
78.499999999999986
 21
-223.69999999999999
 31
0.0
  0
LINE
  5
239
  8
DATA
  6
CONTINUOUS
 62
     7
 10
93.499999999999986
 20
-228.59999999999999
 30
0.0
 11
78.499999999999986
 21
-228.59999999999999
 31
0.0
  0
LINE
  5
23A
  8
DATA
  6
CONTINUOUS
 62
     7
 10
91.999999999999986
 20
-228.59999999999999
 30
0.0
 11
91.671167883211638
 21
-233.90000000000001
 31
0.0
  0
LINE
  5
23B
  8
DATA
  6
CONTINUOUS
 62
     7
 10
79.999999999999986
 20
-228.59999999999999
 30
0.0
 11
80.328832116788334
 21
-233.90000000000001
 31
0.0
  0
LINE
  5
23C
  8
DATA
  6
CONTINUOUS
 62
     7
 10
91.671167883211638
 20
-233.90000000000001
 30
0.0
 11
90.680000000000035
 21
-240.90000000000001
 31
0.0
  0
LINE
  5
23D
  8
DATA
  6
CONTINUOUS
 62
     7
 10
80.328832116788334
 20
-233.90000000000001
 30
0.0
 11
81.319999999999922
 21
-240.90000000000001
 31
0.0
  0
ARC
  5
23E
  8
DATA
  6
CONTINUOUS
 62
     7
 10
85.999999999999986
 20
-214.4576923076923
 30
0.0
 40
0.7576923076922951
 50
8.1712335599430777
 51
171.828766440057
  0
ARC
  5
23F
  8
DATA
  6
CONTINUOUS
 62
     7
 10
85.999999999999986
 20
-226.55482908178669
 30
0.0
 40
0.7576923076922951
 50
188.17123355994309
 51
351.828766440057
  0
LINE
  5
240
  8
DATA
  6
CONTINUOUS
 62
     7
 10
86.749999999999986
 20
-226.66252138947891
 30
0.0
 11
86.749999999999986
 21
-214.34
 31
0.0
  0
LINE
  5
241
  8
DATA
  6
CONTINUOUS
 62
     7
 10
85.249999999999986
 20
-214.34999999999999
 30
0.0
 11
85.249999999999986
 21
-226.74000000000001
 31
0.0
  0
LINE
  5
242
  8
DATA
  6
CONTINUOUS
 62
     7
 10
88.599999999999881
 20
-164.99999999970001
 30
0.0
 11
83.399999999999977
 21
-164.99999999970001
 31
0.0
  0
LINE
  5
243
  8
DATA
  6
CONTINUOUS
 62
     7
 10
89.150000000000063
 20
-163.29999999969971
 30
0.0
 11
89.150000000000063
 21
-158.99999999970001
 31
0.0
  0
LINE
  5
244
  8
DATA
  6
CONTINUOUS
 62
     7
 10
89.150000000000063
 20
-153.9999999996999
 30
0.0
 11
89.150000000000063
 21
-139.99999999970001
 31
0.0
  0
LINE
  5
245
  8
DATA
  6
CONTINUOUS
 62
     7
 10
82.850000000000009
 20
-139.99999999970001
 30
0.0
 11
82.850000000000009
 21
-153.9999999996999
 31
0.0
  0
LINE
  5
246
  8
DATA
  6
CONTINUOUS
 62
     7
 10
82.850000000000009
 20
-158.99999999970001
 30
0.0
 11
82.850000000000009
 21
-163.29999999970019
 31
0.0
  0
LINE
  5
247
  8
DATA
  6
CONTINUOUS
 62
     7
 10
89.150000000000063
 20
-163.29999999969999
 30
0.0
 11
88.600000000000023
 21
-164.99999999970001
 31
0.0
  0
LINE
  5
248
  8
DATA
  6
CONTINUOUS
 62
     7
 10
82.849999999999895
 20
-163.29999999969999
 30
0.0
 11
83.399999999999977
 21
-164.99999999970001
 31
0.0
  0
ARC
  5
249
  8
DATA
  6
CONTINUOUS
 62
     7
 10
89.0485905615934
 20
-159.99999999970001
 30
0.0
 40
0.6499999999999668
 50
278.97563985315151
 51
81.024360146848466
  0
ARC
  5
24A
  8
DATA
  6
CONTINUOUS
 62
     7
 10
82.951409438406586
 20
-159.99999999970001
 30
0.0
 40
0.6499999999999668
 50
98.975639853151577
 51
261.02436014684838
  0
LINE
  5
24B
  8
DATA
  6
CONTINUOUS
 62
     7
 10
88.850000000000037
 20
-110.99999999969999
 30
0.0
 11
86.749999999999986
 21
-110.99999999969999
 31
0.0
  0
LINE
  5
24C
  8
DATA
  6
CONTINUOUS
 62
     7
 10
85.249999999999986
 20
-110.99999999969999
 30
0.0
 11
83.150000000000063
 21
-110.99999999969999
 31
0.0
  0
LINE
  5
24D
  8
DATA
  6
CONTINUOUS
 62
     7
 10
90.680000000000035
 20
-133.1999999997
 30
0.0
 11
81.319999999999922
 21
-133.1999999997
 31
0.0
  0
LINE
  5
24E
  8
DATA
  6
CONTINUOUS
 62
     7
 10
90.499999999999986
 20
-134.99999999970001
 30
0.0
 11
90.499999999999986
 21
-133.1999999997
 31
0.0
  0
LINE
  5
24F
  8
DATA
  6
CONTINUOUS
 62
     7
 10
81.499999999999986
 20
-133.1999999997
 30
0.0
 11
81.499999999999986
 21
-134.99999999970001
 31
0.0
  0
LINE
  5
250
  8
DATA
  6
CONTINUOUS
 62
     7
 10
88.850000000000037
 20
-115.99999999969999
 30
0.0
 11
88.850000000000037
 21
-110.99999999969999
 31
0.0
  0
LINE
  5
251
  8
DATA
  6
CONTINUOUS
 62
     7
 10
83.150000000000063
 20
-110.99999999969999
 30
0.0
 11
83.150000000000063
 21
-115.99999999969999
 31
0.0
  0
LINE
  5
252
  8
DATA
  6
CONTINUOUS
 62
     7
 10
93.499999999999986
 20
-120.8999999996999
 30
0.0
 11
93.499999999999986
 21
-115.99999999969999
 31
0.0
  0
LINE
  5
253
  8
DATA
  6
CONTINUOUS
 62
     7
 10
78.499999999999986
 20
-115.99999999969999
 30
0.0
 11
78.499999999999986
 21
-120.8999999996999
 31
0.0
  0
LINE
  5
254
  8
DATA
  6
CONTINUOUS
 62
     7
 10
93.499999999999986
 20
-115.99999999969999
 30
0.0
 11
86.749999999999986
 21
-115.99999999969999
 31
0.0
  0
LINE
  5
255
  8
DATA
  6
CONTINUOUS
 62
     7
 10
85.249999999999986
 20
-115.99999999969999
 30
0.0
 11
78.499999999999986
 21
-115.99999999969999
 31
0.0
  0
LINE
  5
256
  8
DATA
  6
CONTINUOUS
 62
     7
 10
93.499999999999986
 20
-120.8999999996999
 30
0.0
 11
78.499999999999986
 21
-120.8999999996999
 31
0.0
  0
LINE
  5
257
  8
DATA
  6
CONTINUOUS
 62
     7
 10
91.999999999999986
 20
-120.8999999996999
 30
0.0
 11
91.671167883211638
 21
-126.1999999996999
 31
0.0
  0
LINE
  5
258
  8
DATA
  6
CONTINUOUS
 62
     7
 10
79.999999999999986
 20
-120.8999999996999
 30
0.0
 11
80.328832116788334
 21
-126.1999999996999
 31
0.0
  0
LINE
  5
259
  8
DATA
  6
CONTINUOUS
 62
     7
 10
91.671167883211638
 20
-126.1999999996999
 30
0.0
 11
90.680000000000035
 21
-133.1999999997
 31
0.0
  0
LINE
  5
25A
  8
DATA
  6
CONTINUOUS
 62
     7
 10
80.328832116788334
 20
-126.1999999996999
 30
0.0
 11
81.319999999999922
 21
-133.1999999997
 31
0.0
  0
ARC
  5
25B
  8
DATA
  6
CONTINUOUS
 62
     7
 10
85.999999999999986
 20
-106.7576923073922
 30
0.0
 40
0.7576923076922951
 50
8.1712335599430777
 51
171.828766440057
  0
ARC
  5
25C
  8
DATA
  6
CONTINUOUS
 62
     7
 10
85.999999999999986
 20
-118.8548290814867
 30
0.0
 40
0.7576923076922951
 50
188.17123355994309
 51
351.828766440057
  0
LINE
  5
25D
  8
DATA
  6
CONTINUOUS
 62
     7
 10
86.749999999999986
 20
-118.9625213891789
 30
0.0
 11
86.749999999999986
 21
-106.6399999997
 31
0.0
  0
LINE
  5
25E
  8
DATA
  6
CONTINUOUS
 62
     7
 10
85.249999999999986
 20
-106.6499999997
 30
0.0
 11
85.249999999999986
 21
-119.0399999997
 31
0.0
  0
LINE
  5
25F
  8
DATA
  6
CONTINUOUS
 62
     7
 10
-465.0
 20
378.0
 30
0.0
 11
-465.0
 21
371.69999999999999
 31
0.0
  0
LINE
  5
260
  8
DATA
  6
CONTINUOUS
 62
     7
 10
-465.0
 20
354.69999999999999
 30
0.0
 11
-465.0
 21
349.69999999999999
 31
0.0
  0
LINE
  5
261
  8
DATA
  6
CONTINUOUS
 62
     7
 10
-465.0
 20
335.69999999999999
 30
0.0
 11
-465.0
 21
330.69999999999999
 31
0.0
  0
LINE
  5
262
  8
DATA
  6
CONTINUOUS
 62
     7
 10
-482.19999999999999
 20
371.69999999999999
 30
0.0
 11
-465.0
 21
371.69999999999999
 31
0.0
  0
LINE
  5
263
  8
DATA
  6
CONTINUOUS
 62
     7
 10
-482.19999999999999
 20
354.69999999999999
 30
0.0
 11
-465.0
 21
354.69999999999999
 31
0.0
  0
LINE
  5
264
  8
DATA
  6
CONTINUOUS
 62
     7
 10
-490.0
 20
349.69999999999999
 30
0.0
 11
-465.0
 21
349.69999999999999
 31
0.0
  0
LINE
  5
265
  8
DATA
  6
CONTINUOUS
 62
     7
 10
-483.7000000000001
 20
370.19999999999999
 30
0.0
 11
-483.7000000000001
 21
356.19999999999999
 31
0.0
  0
LINE
  5
266
  8
DATA
  6
CONTINUOUS
 62
     7
 10
-490.0
 20
335.69999999999999
 30
0.0
 11
-465.0
 21
335.69999999999999
 31
0.0
  0
LINE
  5
267
  8
DATA
  6
CONTINUOUS
 62
     7
 10
-482.19999999999999
 20
330.69999999999999
 30
0.0
 11
-465.0
 21
330.69999999999999
 31
0.0
  0
LINE
  5
268
  8
DATA
  6
CONTINUOUS
 62
     7
 10
-481.0
 20
349.69999999999999
 30
0.0
 11
-481.0
 21
335.69999999999999
 31
0.0
  0
LINE
  5
269
  8
DATA
  6
CONTINUOUS
 62
     7
 10
-490.0
 20
312.69999999999999
 30
0.0
 11
-485.0
 21
312.69999999999999
 31
0.0
  0
LINE
  5
26A
  8
DATA
  6
CONTINUOUS
 62
     7
 10
-485.0
 20
312.69999999999999
 30
0.0
 11
-485.0
 21
321.69999999999999
 31
0.0
  0
LINE
  5
26B
  8
DATA
  6
CONTINUOUS
 62
     7
 10
-485.0
 20
321.69999999999999
 30
0.0
 11
-483.7000000000001
 21
321.69999999999999
 31
0.0
  0
LINE
  5
26C
  8
DATA
  6
CONTINUOUS
 62
     7
 10
-483.7000000000001
 20
329.19999999999999
 30
0.0
 11
-483.7000000000001
 21
321.69999999999999
 31
0.0
  0
ARC
  5
26D
  8
DATA
  6
CONTINUOUS
 62
     7
 10
-482.19999999999999
 20
370.19999999999999
 30
0.0
 40
1.5
 50
90.0
 51
180.0
  0
ARC
  5
26E
  8
DATA
  6
CONTINUOUS
 62
     7
 10
-482.19999999999999
 20
356.19999999999999
 30
0.0
 40
1.5
 50
180.0
 51
270.0
  0
ARC
  5
26F
  8
DATA
  6
CONTINUOUS
 62
     7
 10
-482.19999999999999
 20
329.19999999999999
 30
0.0
 40
1.5
 50
90.0
 51
180.0
  0
LINE
  5
270
  8
DATA
  6
CONTINUOUS
 62
     7
 10
-476.59999999999991
 20
360.69999999999999
 30
0.0
 11
-471.39999999999992
 21
360.69999999999999
 31
0.0
  0
LINE
  5
271
  8
DATA
  6
CONTINUOUS
 62
     7
 10
-477.15000000000009
 20
358.99999999999977
 30
0.0
 11
-477.15000000000009
 21
354.69999999999999
 31
0.0
  0
LINE
  5
272
  8
DATA
  6
CONTINUOUS
 62
     7
 10
-477.15000000000009
 20
349.69999999999999
 30
0.0
 11
-477.15000000000009
 21
335.69999999999999
 31
0.0
  0
LINE
  5
273
  8
DATA
  6
CONTINUOUS
 62
     7
 10
-470.84999999999991
 20
335.69999999999999
 30
0.0
 11
-470.84999999999991
 21
349.69999999999999
 31
0.0
  0
LINE
  5
274
  8
DATA
  6
CONTINUOUS
 62
     7
 10
-470.84999999999991
 20
354.69999999999999
 30
0.0
 11
-470.84999999999991
 21
359.00000000000023
 31
0.0
  0
LINE
  5
275
  8
DATA
  6
CONTINUOUS
 62
     7
 10
-477.15000000000009
 20
359.0
 30
0.0
 11
-476.60000000000002
 21
360.69999999999999
 31
0.0
  0
LINE
  5
276
  8
DATA
  6
CONTINUOUS
 62
     7
 10
-470.84999999999991
 20
359.0
 30
0.0
 11
-471.39999999999992
 21
360.69999999999999
 31
0.0
  0
ARC
  5
277
  8
DATA
  6
CONTINUOUS
 62
     7
 10
-477.04859056159341
 20
355.69999999999999
 30
0.0
 40
0.6499999999999668
 50
98.975639853151577
 51
261.02436014684838
  0
ARC
  5
278
  8
DATA
  6
CONTINUOUS
 62
     7
 10
-470.95140943840647
 20
355.69999999999999
 30
0.0
 40
0.6499999999999668
 50
278.97563985315151
 51
81.024360146848466
  0
LINE
  5
279
  8
DATA
  6
CONTINUOUS
 62
     7
 10
-476.85000000000002
 20
306.69999999999999
 30
0.0
 11
-474.75
 21
306.69999999999999
 31
0.0
  0
LINE
  5
27A
  8
DATA
  6
CONTINUOUS
 62
     7
 10
-473.24999999999989
 20
306.69999999999999
 30
0.0
 11
-471.14999999999998
 21
306.69999999999999
 31
0.0
  0
LINE
  5
27B
  8
DATA
  6
CONTINUOUS
 62
     7
 10
-478.68000000000001
 20
328.89999999999998
 30
0.0
 11
-469.31999999999999
 21
328.89999999999998
 31
0.0
  0
LINE
  5
27C
  8
DATA
  6
CONTINUOUS
 62
     7
 10
-478.5
 20
330.69999999999999
 30
0.0
 11
-478.5
 21
328.89999999999998
 31
0.0
  0
LINE
  5
27D
  8
DATA
  6
CONTINUOUS
 62
     7
 10
-469.5
 20
328.89999999999998
 30
0.0
 11
-469.5
 21
330.69999999999999
 31
0.0
  0
LINE
  5
27E
  8
DATA
  6
CONTINUOUS
 62
     7
 10
-476.85000000000002
 20
311.69999999999999
 30
0.0
 11
-476.85000000000002
 21
306.69999999999999
 31
0.0
  0
LINE
  5
27F
  8
DATA
  6
CONTINUOUS
 62
     7
 10
-471.14999999999998
 20
306.69999999999999
 30
0.0
 11
-471.14999999999998
 21
311.69999999999999
 31
0.0
  0
LINE
  5
280
  8
DATA
  6
CONTINUOUS
 62
     7
 10
-481.5
 20
316.60000000000002
 30
0.0
 11
-481.5
 21
311.69999999999999
 31
0.0
  0
LINE
  5
281
  8
DATA
  6
CONTINUOUS
 62
     7
 10
-466.5
 20
311.69999999999999
 30
0.0
 11
-466.5
 21
316.60000000000002
 31
0.0
  0
LINE
  5
282
  8
DATA
  6
CONTINUOUS
 62
     7
 10
-481.5
 20
311.69999999999999
 30
0.0
 11
-474.75
 21
311.69999999999999
 31
0.0
  0
LINE
  5
283
  8
DATA
  6
CONTINUOUS
 62
     7
 10
-473.24999999999989
 20
311.69999999999999
 30
0.0
 11
-466.5
 21
311.69999999999999
 31
0.0
  0
LINE
  5
284
  8
DATA
  6
CONTINUOUS
 62
     7
 10
-481.5
 20
316.60000000000002
 30
0.0
 11
-466.5
 21
316.60000000000002
 31
0.0
  0
LINE
  5
285
  8
DATA
  6
CONTINUOUS
 62
     7
 10
-480.0
 20
316.60000000000002
 30
0.0
 11
-479.67116788321158
 21
321.89999999999998
 31
0.0
  0
LINE
  5
286
  8
DATA
  6
CONTINUOUS
 62
     7
 10
-468.0
 20
316.60000000000002
 30
0.0
 11
-468.32883211678842
 21
321.89999999999998
 31
0.0
  0
LINE
  5
287
  8
DATA
  6
CONTINUOUS
 62
     7
 10
-479.67116788321158
 20
321.89999999999998
 30
0.0
 11
-478.68000000000001
 21
328.89999999999998
 31
0.0
  0
LINE
  5
288
  8
DATA
  6
CONTINUOUS
 62
     7
 10
-468.32883211678842
 20
321.89999999999998
 30
0.0
 11
-469.31999999999999
 21
328.89999999999998
 31
0.0
  0
ARC
  5
289
  8
DATA
  6
CONTINUOUS
 62
     7
 10
-474.0
 20
302.4576923076923
 30
0.0
 40
0.7576923076922951
 50
188.17123355994309
 51
351.828766440057
  0
ARC
  5
28A
  8
DATA
  6
CONTINUOUS
 62
     7
 10
-474.0
 20
314.55482908178669
 30
0.0
 40
0.7576923076922951
 50
8.1712335599430777
 51
171.828766440057
  0
LINE
  5
28B
  8
DATA
  6
CONTINUOUS
 62
     7
 10
-474.75
 20
314.66252138947891
 30
0.0
 11
-474.75
 21
302.34000000000009
 31
0.0
  0
LINE
  5
28C
  8
DATA
  6
CONTINUOUS
 62
     7
 10
-473.24999999999989
 20
302.35000000000002
 30
0.0
 11
-473.24999999999989
 21
314.74000000000001
 31
0.0
  0
LINE
  5
28D
  8
DATA
  6
CONTINUOUS
 62
     7
 10
76.999999999999986
 20
378.0
 30
0.0
 11
76.999999999999986
 21
371.69999999999999
 31
0.0
  0
LINE
  5
28E
  8
DATA
  6
CONTINUOUS
 62
     7
 10
76.999999999999986
 20
354.69999999999999
 30
0.0
 11
76.999999999999986
 21
349.69999999999999
 31
0.0
  0
LINE
  5
28F
  8
DATA
  6
CONTINUOUS
 62
     7
 10
76.999999999999986
 20
335.69999999999999
 30
0.0
 11
76.999999999999986
 21
330.69999999999999
 31
0.0
  0
LINE
  5
290
  8
DATA
  6
CONTINUOUS
 62
     7
 10
94.200000000000031
 20
371.69999999999999
 30
0.0
 11
76.999999999999986
 21
371.69999999999999
 31
0.0
  0
LINE
  5
291
  8
DATA
  6
CONTINUOUS
 62
     7
 10
94.200000000000031
 20
354.69999999999999
 30
0.0
 11
76.999999999999986
 21
354.69999999999999
 31
0.0
  0
LINE
  5
292
  8
DATA
  6
CONTINUOUS
 62
     7
 10
102.0
 20
349.69999999999999
 30
0.0
 11
76.999999999999986
 21
349.69999999999999
 31
0.0
  0
LINE
  5
293
  8
DATA
  6
CONTINUOUS
 62
     7
 10
95.700000000000031
 20
370.19999999999999
 30
0.0
 11
95.700000000000031
 21
356.19999999999999
 31
0.0
  0
LINE
  5
294
  8
DATA
  6
CONTINUOUS
 62
     7
 10
102.0
 20
335.69999999999999
 30
0.0
 11
76.999999999999986
 21
335.69999999999999
 31
0.0
  0
LINE
  5
295
  8
DATA
  6
CONTINUOUS
 62
     7
 10
94.200000000000031
 20
330.69999999999999
 30
0.0
 11
76.999999999999986
 21
330.69999999999999
 31
0.0
  0
LINE
  5
296
  8
DATA
  6
CONTINUOUS
 62
     7
 10
92.999999999999986
 20
349.69999999999999
 30
0.0
 11
92.999999999999986
 21
335.69999999999999
 31
0.0
  0
LINE
  5
297
  8
DATA
  6
CONTINUOUS
 62
     7
 10
102.0
 20
312.69999999999999
 30
0.0
 11
96.999999999999986
 21
312.69999999999999
 31
0.0
  0
LINE
  5
298
  8
DATA
  6
CONTINUOUS
 62
     7
 10
96.999999999999986
 20
312.69999999999999
 30
0.0
 11
96.999999999999986
 21
321.69999999999999
 31
0.0
  0
LINE
  5
299
  8
DATA
  6
CONTINUOUS
 62
     7
 10
96.999999999999986
 20
321.69999999999999
 30
0.0
 11
95.700000000000031
 21
321.69999999999999
 31
0.0
  0
LINE
  5
29A
  8
DATA
  6
CONTINUOUS
 62
     7
 10
95.700000000000031
 20
329.19999999999999
 30
0.0
 11
95.700000000000031
 21
321.69999999999999
 31
0.0
  0
ARC
  5
29B
  8
DATA
  6
CONTINUOUS
 62
     7
 10
94.200000000000031
 20
370.19999999999999
 30
0.0
 40
1.5
 50
0.0
 51
90.0
  0
ARC
  5
29C
  8
DATA
  6
CONTINUOUS
 62
     7
 10
94.200000000000031
 20
356.19999999999999
 30
0.0
 40
1.5
 50
270.0
 51
0.0
  0
ARC
  5
29D
  8
DATA
  6
CONTINUOUS
 62
     7
 10
94.200000000000031
 20
329.19999999999999
 30
0.0
 40
1.5
 50
0.0
 51
90.0
  0
LINE
  5
29E
  8
DATA
  6
CONTINUOUS
 62
     7
 10
88.599999999999881
 20
360.69999999999999
 30
0.0
 11
83.399999999999977
 21
360.69999999999999
 31
0.0
  0
LINE
  5
29F
  8
DATA
  6
CONTINUOUS
 62
     7
 10
89.150000000000063
 20
358.99999999999977
 30
0.0
 11
89.150000000000063
 21
354.69999999999999
 31
0.0
  0
LINE
  5
2A0
  8
DATA
  6
CONTINUOUS
 62
     7
 10
89.150000000000063
 20
349.69999999999999
 30
0.0
 11
89.150000000000063
 21
335.69999999999999
 31
0.0
  0
LINE
  5
2A1
  8
DATA
  6
CONTINUOUS
 62
     7
 10
82.850000000000009
 20
335.69999999999999
 30
0.0
 11
82.850000000000009
 21
349.69999999999999
 31
0.0
  0
LINE
  5
2A2
  8
DATA
  6
CONTINUOUS
 62
     7
 10
82.850000000000009
 20
354.69999999999999
 30
0.0
 11
82.850000000000009
 21
359.00000000000023
 31
0.0
  0
LINE
  5
2A3
  8
DATA
  6
CONTINUOUS
 62
     7
 10
89.150000000000063
 20
359.0
 30
0.0
 11
88.600000000000023
 21
360.69999999999999
 31
0.0
  0
LINE
  5
2A4
  8
DATA
  6
CONTINUOUS
 62
     7
 10
82.849999999999895
 20
359.0
 30
0.0
 11
83.399999999999977
 21
360.69999999999999
 31
0.0
  0
ARC
  5
2A5
  8
DATA
  6
CONTINUOUS
 62
     7
 10
89.0485905615934
 20
355.69999999999999
 30
0.0
 40
0.6499999999999668
 50
278.97563985315151
 51
81.024360146848466
  0
ARC
  5
2A6
  8
DATA
  6
CONTINUOUS
 62
     7
 10
82.951409438406586
 20
355.69999999999999
 30
0.0
 40
0.6499999999999668
 50
98.975639853151577
 51
261.02436014684838
  0
LINE
  5
2A7
  8
DATA
  6
CONTINUOUS
 62
     7
 10
88.850000000000037
 20
306.69999999999999
 30
0.0
 11
86.749999999999986
 21
306.69999999999999
 31
0.0
  0
LINE
  5
2A8
  8
DATA
  6
CONTINUOUS
 62
     7
 10
85.249999999999986
 20
306.69999999999999
 30
0.0
 11
83.150000000000063
 21
306.69999999999999
 31
0.0
  0
LINE
  5
2A9
  8
DATA
  6
CONTINUOUS
 62
     7
 10
90.680000000000035
 20
328.89999999999998
 30
0.0
 11
81.319999999999922
 21
328.89999999999998
 31
0.0
  0
LINE
  5
2AA
  8
DATA
  6
CONTINUOUS
 62
     7
 10
90.499999999999986
 20
330.69999999999999
 30
0.0
 11
90.499999999999986
 21
328.89999999999998
 31
0.0
  0
LINE
  5
2AB
  8
DATA
  6
CONTINUOUS
 62
     7
 10
81.499999999999986
 20
328.89999999999998
 30
0.0
 11
81.499999999999986
 21
330.69999999999999
 31
0.0
  0
LINE
  5
2AC
  8
DATA
  6
CONTINUOUS
 62
     7
 10
88.850000000000037
 20
311.69999999999999
 30
0.0
 11
88.850000000000037
 21
306.69999999999999
 31
0.0
  0
LINE
  5
2AD
  8
DATA
  6
CONTINUOUS
 62
     7
 10
83.150000000000063
 20
306.69999999999999
 30
0.0
 11
83.150000000000063
 21
311.69999999999999
 31
0.0
  0
LINE
  5
2AE
  8
DATA
  6
CONTINUOUS
 62
     7
 10
93.499999999999986
 20
316.60000000000002
 30
0.0
 11
93.499999999999986
 21
311.69999999999999
 31
0.0
  0
LINE
  5
2AF
  8
DATA
  6
CONTINUOUS
 62
     7
 10
78.499999999999986
 20
311.69999999999999
 30
0.0
 11
78.499999999999986
 21
316.60000000000002
 31
0.0
  0
LINE
  5
2B0
  8
DATA
  6
CONTINUOUS
 62
     7
 10
93.499999999999986
 20
311.69999999999999
 30
0.0
 11
86.749999999999986
 21
311.69999999999999
 31
0.0
  0
LINE
  5
2B1
  8
DATA
  6
CONTINUOUS
 62
     7
 10
85.249999999999986
 20
311.69999999999999
 30
0.0
 11
78.499999999999986
 21
311.69999999999999
 31
0.0
  0
LINE
  5
2B2
  8
DATA
  6
CONTINUOUS
 62
     7
 10
93.499999999999986
 20
316.60000000000002
 30
0.0
 11
78.499999999999986
 21
316.60000000000002
 31
0.0
  0
LINE
  5
2B3
  8
DATA
  6
CONTINUOUS
 62
     7
 10
91.999999999999986
 20
316.60000000000002
 30
0.0
 11
91.671167883211638
 21
321.89999999999998
 31
0.0
  0
LINE
  5
2B4
  8
DATA
  6
CONTINUOUS
 62
     7
 10
79.999999999999986
 20
316.60000000000002
 30
0.0
 11
80.328832116788334
 21
321.89999999999998
 31
0.0
  0
LINE
  5
2B5
  8
DATA
  6
CONTINUOUS
 62
     7
 10
91.671167883211638
 20
321.89999999999998
 30
0.0
 11
90.680000000000035
 21
328.89999999999998
 31
0.0
  0
LINE
  5
2B6
  8
DATA
  6
CONTINUOUS
 62
     7
 10
80.328832116788334
 20
321.89999999999998
 30
0.0
 11
81.319999999999922
 21
328.89999999999998
 31
0.0
  0
ARC
  5
2B7
  8
DATA
  6
CONTINUOUS
 62
     7
 10
85.999999999999986
 20
302.4576923076923
 30
0.0
 40
0.7576923076922951
 50
188.17123355994309
 51
351.828766440057
  0
ARC
  5
2B8
  8
DATA
  6
CONTINUOUS
 62
     7
 10
85.999999999999986
 20
314.55482908178669
 30
0.0
 40
0.7576923076922951
 50
8.1712335599430777
 51
171.828766440057
  0
LINE
  5
2B9
  8
DATA
  6
CONTINUOUS
 62
     7
 10
86.749999999999986
 20
314.66252138947891
 30
0.0
 11
86.749999999999986
 21
302.34000000000009
 31
0.0
  0
LINE
  5
2BA
  8
DATA
  6
CONTINUOUS
 62
     7
 10
85.249999999999986
 20
302.35000000000002
 30
0.0
 11
85.249999999999986
 21
314.74000000000001
 31
0.0
  0
LINE
  5
2BB
  8
DATA
  6
CONTINUOUS
 62
     7
 10
250.0
 20
-600.0
 30
0.0
 11
938.0
 21
-600.0
 31
0.0
  0
LINE
  5
2BC
  8
DATA
  6
CONTINUOUS
 62
     7
 10
250.0
 20
-524.0
 30
0.0
 11
938.0
 21
-524.0
 31
0.0
  0
LINE
  5
2BD
  8
DATA
  6
CONTINUOUS
 62
     7
 10
250.0
 20
-600.0
 30
0.0
 11
250.0
 21
-524.0
 31
0.0
  0
LINE
  5
2BE
  8
DATA
  6
CONTINUOUS
 62
     7
 10
938.0
 20
-600.0
 30
0.0
 11
938.0
 21
-524.0
 31
0.0
  0
CIRCLE
  5
2BF
  8
DATA
  6
CONTINUOUS
 62
     7
 10
613.00000000011107
 20
-562.0
 30
0.0
 40
4.5
  0
POLYLINE
  5
2C0
  8
DATA
  6
CONTINUOUS
 62
     7
 66
     1
 10
0.0
 20
0.0
 30
0.0
 70
     1
  0
VERTEX
  5
51B
  8
DATA
  6
CONTINUOUS
 62
     7
 10
614.12583302503072
 20
-560.04999999999995
 30
0.0
  0
VERTEX
  5
51C
  8
DATA
  6
CONTINUOUS
 62
     7
 10
615.25166604995059
 20
-562.0
 30
0.0
  0
VERTEX
  5
51D
  8
DATA
  6
CONTINUOUS
 62
     7
 10
614.12583302503072
 20
-563.95000000000005
 30
0.0
  0
VERTEX
  5
51E
  8
DATA
  6
CONTINUOUS
 62
     7
 10
611.87416697519132
 20
-563.95000000000005
 30
0.0
  0
VERTEX
  5
51F
  8
DATA
  6
CONTINUOUS
 62
     7
 10
610.74833395027133
 20
-562.0
 30
0.0
  0
VERTEX
  5
520
  8
DATA
  6
CONTINUOUS
 62
     7
 10
611.87416697519132
 20
-560.04999999999995
 30
0.0
  0
SEQEND
  5
521
  8
DATA
  6
CONTINUOUS
 62
     7
  0
CIRCLE
  5
2C9
  8
DATA
  6
CONTINUOUS
 62
     7
 10
613.00000000011107
 20
-536.5
 30
0.0
 40
4.5
  0
POLYLINE
  5
2CA
  8
DATA
  6
CONTINUOUS
 62
     7
 66
     1
 10
0.0
 20
0.0
 30
0.0
 70
     1
  0
VERTEX
  5
522
  8
DATA
  6
CONTINUOUS
 62
     7
 10
614.12583302503072
 20
-534.54999999999995
 30
0.0
  0
VERTEX
  5
523
  8
DATA
  6
CONTINUOUS
 62
     7
 10
615.25166604995059
 20
-536.5
 30
0.0
  0
VERTEX
  5
524
  8
DATA
  6
CONTINUOUS
 62
     7
 10
614.12583302503072
 20
-538.45000000000005
 30
0.0
  0
VERTEX
  5
525
  8
DATA
  6
CONTINUOUS
 62
     7
 10
611.87416697519132
 20
-538.45000000000005
 30
0.0
  0
VERTEX
  5
526
  8
DATA
  6
CONTINUOUS
 62
     7
 10
610.74833395027133
 20
-536.5
 30
0.0
  0
VERTEX
  5
527
  8
DATA
  6
CONTINUOUS
 62
     7
 10
611.87416697519132
 20
-534.54999999999995
 30
0.0
  0
SEQEND
  5
528
  8
DATA
  6
CONTINUOUS
 62
     7
  0
CIRCLE
  5
2D3
  8
DATA
  6
CONTINUOUS
 62
     7
 10
613.00000000011107
 20
-587.5
 30
0.0
 40
4.5
  0
POLYLINE
  5
2D4
  8
DATA
  6
CONTINUOUS
 62
     7
 66
     1
 10
0.0
 20
0.0
 30
0.0
 70
     1
  0
VERTEX
  5
529
  8
DATA
  6
CONTINUOUS
 62
     7
 10
614.12583302503072
 20
-585.54999999999995
 30
0.0
  0
VERTEX
  5
52A
  8
DATA
  6
CONTINUOUS
 62
     7
 10
615.25166604995059
 20
-587.5
 30
0.0
  0
VERTEX
  5
52B
  8
DATA
  6
CONTINUOUS
 62
     7
 10
614.12583302503072
 20
-589.45000000000005
 30
0.0
  0
VERTEX
  5
52C
  8
DATA
  6
CONTINUOUS
 62
     7
 10
611.87416697519132
 20
-589.45000000000005
 30
0.0
  0
VERTEX
  5
52D
  8
DATA
  6
CONTINUOUS
 62
     7
 10
610.74833395027133
 20
-587.5
 30
0.0
  0
VERTEX
  5
52E
  8
DATA
  6
CONTINUOUS
 62
     7
 10
611.87416697519132
 20
-585.54999999999995
 30
0.0
  0
SEQEND
  5
52F
  8
DATA
  6
CONTINUOUS
 62
     7
  0
CIRCLE
  5
2DD
  8
DATA
  6
CONTINUOUS
 62
     7
 10
274.80000000011108
 20
-536.5
 30
0.0
 40
6.5
  0
POLYLINE
  5
2DE
  8
DATA
  6
CONTINUOUS
 62
     7
 66
     1
 10
0.0
 20
0.0
 30
0.0
 70
     1
  0
VERTEX
  5
530
  8
DATA
  6
CONTINUOUS
 62
     7
 10
275.92583302503078
 20
-534.54999999999995
 30
0.0
  0
VERTEX
  5
531
  8
DATA
  6
CONTINUOUS
 62
     7
 10
277.05166604995071
 20
-536.5
 30
0.0
  0
VERTEX
  5
532
  8
DATA
  6
CONTINUOUS
 62
     7
 10
275.92583302503078
 20
-538.45000000000005
 30
0.0
  0
VERTEX
  5
533
  8
DATA
  6
CONTINUOUS
 62
     7
 10
273.67416697519133
 20
-538.45000000000005
 30
0.0
  0
VERTEX
  5
534
  8
DATA
  6
CONTINUOUS
 62
     7
 10
272.5483339502714
 20
-536.5
 30
0.0
  0
VERTEX
  5
535
  8
DATA
  6
CONTINUOUS
 62
     7
 10
273.67416697519133
 20
-534.54999999999995
 30
0.0
  0
SEQEND
  5
536
  8
DATA
  6
CONTINUOUS
 62
     7
  0
CIRCLE
  5
2E7
  8
DATA
  6
CONTINUOUS
 62
     7
 10
315.80000000011103
 20
-536.5
 30
0.0
 40
6.5
  0
POLYLINE
  5
2E8
  8
DATA
  6
CONTINUOUS
 62
     7
 66
     1
 10
0.0
 20
0.0
 30
0.0
 70
     1
  0
VERTEX
  5
537
  8
DATA
  6
CONTINUOUS
 62
     7
 10
316.9258330250309
 20
-534.54999999999995
 30
0.0
  0
VERTEX
  5
538
  8
DATA
  6
CONTINUOUS
 62
     7
 10
318.05166604995082
 20
-536.5
 30
0.0
  0
VERTEX
  5
539
  8
DATA
  6
CONTINUOUS
 62
     7
 10
316.9258330250309
 20
-538.45000000000005
 30
0.0
  0
VERTEX
  5
53A
  8
DATA
  6
CONTINUOUS
 62
     7
 10
314.67416697519133
 20
-538.45000000000005
 30
0.0
  0
VERTEX
  5
53B
  8
DATA
  6
CONTINUOUS
 62
     7
 10
313.54833395027151
 20
-536.5
 30
0.0
  0
VERTEX
  5
53C
  8
DATA
  6
CONTINUOUS
 62
     7
 10
314.67416697519133
 20
-534.54999999999995
 30
0.0
  0
SEQEND
  5
53D
  8
DATA
  6
CONTINUOUS
 62
     7
  0
CIRCLE
  5
2F1
  8
DATA
  6
CONTINUOUS
 62
     7
 10
274.80000000011108
 20
-587.5
 30
0.0
 40
6.5
  0
POLYLINE
  5
2F2
  8
DATA
  6
CONTINUOUS
 62
     7
 66
     1
 10
0.0
 20
0.0
 30
0.0
 70
     1
  0
VERTEX
  5
53E
  8
DATA
  6
CONTINUOUS
 62
     7
 10
275.92583302503078
 20
-585.54999999999995
 30
0.0
  0
VERTEX
  5
53F
  8
DATA
  6
CONTINUOUS
 62
     7
 10
277.05166604995071
 20
-587.5
 30
0.0
  0
VERTEX
  5
540
  8
DATA
  6
CONTINUOUS
 62
     7
 10
275.92583302503078
 20
-589.45000000000005
 30
0.0
  0
VERTEX
  5
541
  8
DATA
  6
CONTINUOUS
 62
     7
 10
273.67416697519133
 20
-589.45000000000005
 30
0.0
  0
VERTEX
  5
542
  8
DATA
  6
CONTINUOUS
 62
     7
 10
272.5483339502714
 20
-587.5
 30
0.0
  0
VERTEX
  5
543
  8
DATA
  6
CONTINUOUS
 62
     7
 10
273.67416697519133
 20
-585.54999999999995
 30
0.0
  0
SEQEND
  5
544
  8
DATA
  6
CONTINUOUS
 62
     7
  0
CIRCLE
  5
2FB
  8
DATA
  6
CONTINUOUS
 62
     7
 10
315.80000000011103
 20
-587.5
 30
0.0
 40
6.5
  0
POLYLINE
  5
2FC
  8
DATA
  6
CONTINUOUS
 62
     7
 66
     1
 10
0.0
 20
0.0
 30
0.0
 70
     1
  0
VERTEX
  5
545
  8
DATA
  6
CONTINUOUS
 62
     7
 10
316.9258330250309
 20
-585.54999999999995
 30
0.0
  0
VERTEX
  5
546
  8
DATA
  6
CONTINUOUS
 62
     7
 10
318.05166604995082
 20
-587.5
 30
0.0
  0
VERTEX
  5
547
  8
DATA
  6
CONTINUOUS
 62
     7
 10
316.9258330250309
 20
-589.45000000000005
 30
0.0
  0
VERTEX
  5
548
  8
DATA
  6
CONTINUOUS
 62
     7
 10
314.67416697519133
 20
-589.45000000000005
 30
0.0
  0
VERTEX
  5
549
  8
DATA
  6
CONTINUOUS
 62
     7
 10
313.54833395027151
 20
-587.5
 30
0.0
  0
VERTEX
  5
54A
  8
DATA
  6
CONTINUOUS
 62
     7
 10
314.67416697519133
 20
-585.54999999999995
 30
0.0
  0
SEQEND
  5
54B
  8
DATA
  6
CONTINUOUS
 62
     7
  0
CIRCLE
  5
305
  8
DATA
  6
CONTINUOUS
 62
     7
 10
382.50000000011119
 20
-536.5
 30
0.0
 40
6.5
  0
POLYLINE
  5
306
  8
DATA
  6
CONTINUOUS
 62
     7
 66
     1
 10
0.0
 20
0.0
 30
0.0
 70
     1
  0
VERTEX
  5
54C
  8
DATA
  6
CONTINUOUS
 62
     7
 10
383.62583302503077
 20
-534.54999999999995
 30
0.0
  0
VERTEX
  5
54D
  8
DATA
  6
CONTINUOUS
 62
     7
 10
384.7516660499507
 20
-536.5
 30
0.0
  0
VERTEX
  5
54E
  8
DATA
  6
CONTINUOUS
 62
     7
 10
383.62583302503077
 20
-538.45000000000005
 30
0.0
  0
VERTEX
  5
54F
  8
DATA
  6
CONTINUOUS
 62
     7
 10
381.37416697519132
 20
-538.45000000000005
 30
0.0
  0
VERTEX
  5
550
  8
DATA
  6
CONTINUOUS
 62
     7
 10
380.24833395027139
 20
-536.5
 30
0.0
  0
VERTEX
  5
551
  8
DATA
  6
CONTINUOUS
 62
     7
 10
381.37416697519132
 20
-534.54999999999995
 30
0.0
  0
SEQEND
  5
552
  8
DATA
  6
CONTINUOUS
 62
     7
  0
CIRCLE
  5
30F
  8
DATA
  6
CONTINUOUS
 62
     7
 10
423.50000000011119
 20
-536.5
 30
0.0
 40
6.5
  0
POLYLINE
  5
310
  8
DATA
  6
CONTINUOUS
 62
     7
 66
     1
 10
0.0
 20
0.0
 30
0.0
 70
     1
  0
VERTEX
  5
553
  8
DATA
  6
CONTINUOUS
 62
     7
 10
424.62583302503077
 20
-534.54999999999995
 30
0.0
  0
VERTEX
  5
554
  8
DATA
  6
CONTINUOUS
 62
     7
 10
425.7516660499507
 20
-536.5
 30
0.0
  0
VERTEX
  5
555
  8
DATA
  6
CONTINUOUS
 62
     7
 10
424.62583302503077
 20
-538.45000000000005
 30
0.0
  0
VERTEX
  5
556
  8
DATA
  6
CONTINUOUS
 62
     7
 10
422.37416697519132
 20
-538.45000000000005
 30
0.0
  0
VERTEX
  5
557
  8
DATA
  6
CONTINUOUS
 62
     7
 10
421.24833395027127
 20
-536.5
 30
0.0
  0
VERTEX
  5
558
  8
DATA
  6
CONTINUOUS
 62
     7
 10
422.37416697519132
 20
-534.54999999999995
 30
0.0
  0
SEQEND
  5
559
  8
DATA
  6
CONTINUOUS
 62
     7
  0
CIRCLE
  5
319
  8
DATA
  6
CONTINUOUS
 62
     7
 10
382.50000000011119
 20
-587.5
 30
0.0
 40
6.5
  0
POLYLINE
  5
31A
  8
DATA
  6
CONTINUOUS
 62
     7
 66
     1
 10
0.0
 20
0.0
 30
0.0
 70
     1
  0
VERTEX
  5
55A
  8
DATA
  6
CONTINUOUS
 62
     7
 10
383.62583302503077
 20
-585.54999999999995
 30
0.0
  0
VERTEX
  5
55B
  8
DATA
  6
CONTINUOUS
 62
     7
 10
384.7516660499507
 20
-587.5
 30
0.0
  0
VERTEX
  5
55C
  8
DATA
  6
CONTINUOUS
 62
     7
 10
383.62583302503077
 20
-589.45000000000005
 30
0.0
  0
VERTEX
  5
55D
  8
DATA
  6
CONTINUOUS
 62
     7
 10
381.37416697519132
 20
-589.45000000000005
 30
0.0
  0
VERTEX
  5
55E
  8
DATA
  6
CONTINUOUS
 62
     7
 10
380.24833395027139
 20
-587.5
 30
0.0
  0
VERTEX
  5
55F
  8
DATA
  6
CONTINUOUS
 62
     7
 10
381.37416697519132
 20
-585.54999999999995
 30
0.0
  0
SEQEND
  5
560
  8
DATA
  6
CONTINUOUS
 62
     7
  0
CIRCLE
  5
323
  8
DATA
  6
CONTINUOUS
 62
     7
 10
423.50000000011119
 20
-587.5
 30
0.0
 40
6.5
  0
POLYLINE
  5
324
  8
DATA
  6
CONTINUOUS
 62
     7
 66
     1
 10
0.0
 20
0.0
 30
0.0
 70
     1
  0
VERTEX
  5
561
  8
DATA
  6
CONTINUOUS
 62
     7
 10
424.62583302503077
 20
-585.54999999999995
 30
0.0
  0
VERTEX
  5
562
  8
DATA
  6
CONTINUOUS
 62
     7
 10
425.7516660499507
 20
-587.5
 30
0.0
  0
VERTEX
  5
563
  8
DATA
  6
CONTINUOUS
 62
     7
 10
424.62583302503077
 20
-589.45000000000005
 30
0.0
  0
VERTEX
  5
564
  8
DATA
  6
CONTINUOUS
 62
     7
 10
422.37416697519132
 20
-589.45000000000005
 30
0.0
  0
VERTEX
  5
565
  8
DATA
  6
CONTINUOUS
 62
     7
 10
421.24833395027127
 20
-587.5
 30
0.0
  0
VERTEX
  5
566
  8
DATA
  6
CONTINUOUS
 62
     7
 10
422.37416697519132
 20
-585.54999999999995
 30
0.0
  0
SEQEND
  5
567
  8
DATA
  6
CONTINUOUS
 62
     7
  0
CIRCLE
  5
32D
  8
DATA
  6
CONTINUOUS
 62
     7
 10
872.50000000011084
 20
-536.5
 30
0.0
 40
6.5
  0
POLYLINE
  5
32E
  8
DATA
  6
CONTINUOUS
 62
     7
 66
     1
 10
0.0
 20
0.0
 30
0.0
 70
     1
  0
VERTEX
  5
568
  8
DATA
  6
CONTINUOUS
 62
     7
 10
873.62583302503083
 20
-534.54999999999995
 30
0.0
  0
VERTEX
  5
569
  8
DATA
  6
CONTINUOUS
 62
     7
 10
874.75166604995059
 20
-536.5
 30
0.0
  0
VERTEX
  5
56A
  8
DATA
  6
CONTINUOUS
 62
     7
 10
873.62583302503083
 20
-538.45000000000005
 30
0.0
  0
VERTEX
  5
56B
  8
DATA
  6
CONTINUOUS
 62
     7
 10
871.37416697519132
 20
-538.45000000000005
 30
0.0
  0
VERTEX
  5
56C
  8
DATA
  6
CONTINUOUS
 62
     7
 10
870.24833395027133
 20
-536.5
 30
0.0
  0
VERTEX
  5
56D
  8
DATA
  6
CONTINUOUS
 62
     7
 10
871.37416697519132
 20
-534.54999999999995
 30
0.0
  0
SEQEND
  5
56E
  8
DATA
  6
CONTINUOUS
 62
     7
  0
CIRCLE
  5
337
  8
DATA
  6
CONTINUOUS
 62
     7
 10
913.50000000011084
 20
-536.5
 30
0.0
 40
6.5
  0
POLYLINE
  5
338
  8
DATA
  6
CONTINUOUS
 62
     7
 66
     1
 10
0.0
 20
0.0
 30
0.0
 70
     1
  0
VERTEX
  5
56F
  8
DATA
  6
CONTINUOUS
 62
     7
 10
914.62583302503083
 20
-534.54999999999995
 30
0.0
  0
VERTEX
  5
570
  8
DATA
  6
CONTINUOUS
 62
     7
 10
915.75166604995059
 20
-536.5
 30
0.0
  0
VERTEX
  5
571
  8
DATA
  6
CONTINUOUS
 62
     7
 10
914.62583302503083
 20
-538.45000000000005
 30
0.0
  0
VERTEX
  5
572
  8
DATA
  6
CONTINUOUS
 62
     7
 10
912.37416697519109
 20
-538.45000000000005
 30
0.0
  0
VERTEX
  5
573
  8
DATA
  6
CONTINUOUS
 62
     7
 10
911.24833395027133
 20
-536.5
 30
0.0
  0
VERTEX
  5
574
  8
DATA
  6
CONTINUOUS
 62
     7
 10
912.37416697519109
 20
-534.54999999999995
 30
0.0
  0
SEQEND
  5
575
  8
DATA
  6
CONTINUOUS
 62
     7
  0
CIRCLE
  5
341
  8
DATA
  6
CONTINUOUS
 62
     7
 10
872.50000000011084
 20
-587.5
 30
0.0
 40
6.5
  0
POLYLINE
  5
342
  8
DATA
  6
CONTINUOUS
 62
     7
 66
     1
 10
0.0
 20
0.0
 30
0.0
 70
     1
  0
VERTEX
  5
576
  8
DATA
  6
CONTINUOUS
 62
     7
 10
873.62583302503083
 20
-585.54999999999995
 30
0.0
  0
VERTEX
  5
577
  8
DATA
  6
CONTINUOUS
 62
     7
 10
874.75166604995059
 20
-587.5
 30
0.0
  0
VERTEX
  5
578
  8
DATA
  6
CONTINUOUS
 62
     7
 10
873.62583302503083
 20
-589.45000000000005
 30
0.0
  0
VERTEX
  5
579
  8
DATA
  6
CONTINUOUS
 62
     7
 10
871.37416697519132
 20
-589.45000000000005
 30
0.0
  0
VERTEX
  5
57A
  8
DATA
  6
CONTINUOUS
 62
     7
 10
870.24833395027133
 20
-587.5
 30
0.0
  0
VERTEX
  5
57B
  8
DATA
  6
CONTINUOUS
 62
     7
 10
871.37416697519132
 20
-585.54999999999995
 30
0.0
  0
SEQEND
  5
57C
  8
DATA
  6
CONTINUOUS
 62
     7
  0
CIRCLE
  5
34B
  8
DATA
  6
CONTINUOUS
 62
     7
 10
913.50000000011084
 20
-587.5
 30
0.0
 40
6.5
  0
POLYLINE
  5
34C
  8
DATA
  6
CONTINUOUS
 62
     7
 66
     1
 10
0.0
 20
0.0
 30
0.0
 70
     1
  0
VERTEX
  5
57D
  8
DATA
  6
CONTINUOUS
 62
     7
 10
914.62583302503083
 20
-585.54999999999995
 30
0.0
  0
VERTEX
  5
57E
  8
DATA
  6
CONTINUOUS
 62
     7
 10
915.75166604995059
 20
-587.5
 30
0.0
  0
VERTEX
  5
57F
  8
DATA
  6
CONTINUOUS
 62
     7
 10
914.62583302503083
 20
-589.45000000000005
 30
0.0
  0
VERTEX
  5
580
  8
DATA
  6
CONTINUOUS
 62
     7
 10
912.37416697519109
 20
-589.45000000000005
 30
0.0
  0
VERTEX
  5
581
  8
DATA
  6
CONTINUOUS
 62
     7
 10
911.24833395027133
 20
-587.5
 30
0.0
  0
VERTEX
  5
582
  8
DATA
  6
CONTINUOUS
 62
     7
 10
912.37416697519109
 20
-585.54999999999995
 30
0.0
  0
SEQEND
  5
583
  8
DATA
  6
CONTINUOUS
 62
     7
  0
CIRCLE
  5
355
  8
DATA
  6
CONTINUOUS
 62
     7
 10
295.30000000011108
 20
-584.0
 30
0.0
 40
1.75
  0
CIRCLE
  5
356
  8
DATA
  6
CONTINUOUS
 62
     7
 10
295.30000000011108
 20
-540.0
 30
0.0
 40
1.75
  0
CIRCLE
  5
357
  8
DATA
  6
CONTINUOUS
 62
     7
 10
403.00000000013858
 20
-584.0
 30
0.0
 40
1.75
  0
CIRCLE
  5
358
  8
DATA
  6
CONTINUOUS
 62
     7
 10
403.00000000013858
 20
-540.0
 30
0.0
 40
1.75
  0
CIRCLE
  5
359
  8
DATA
  6
CONTINUOUS
 62
     7
 10
893.00000000011084
 20
-540.0
 30
0.0
 40
1.75
  0
CIRCLE
  5
35A
  8
DATA
  6
CONTINUOUS
 62
     7
 10
893.00000000011084
 20
-584.0
 30
0.0
 40
1.75
  0
CIRCLE
  5
35B
  8
DATA
  6
CONTINUOUS
 62
     7
 10
349.0
 20
-562.0
 30
0.0
 40
8.0
  0
CIRCLE
  5
35C
  8
DATA
  6
CONTINUOUS
 62
     7
 10
839.0
 20
-562.0
 30
0.0
 40
8.0
  0
LINE
  5
35D
  8
DATA
  6
CONTINUOUS
 62
     7
 10
350.0
 20
-300.0
 30
0.0
 11
426.0
 21
-300.0
 31
0.0
  0
LINE
  5
35E
  8
DATA
  6
CONTINUOUS
 62
     7
 10
350.0
 20
388.0
 30
0.0
 11
426.0
 21
388.0
 31
0.0
  0
LINE
  5
35F
  8
DATA
  6
CONTINUOUS
 62
     7
 10
350.0
 20
-300.0
 30
0.0
 11
350.0
 21
388.0
 31
0.0
  0
LINE
  5
360
  8
DATA
  6
CONTINUOUS
 62
     7
 10
426.0
 20
-300.0
 30
0.0
 11
426.0
 21
388.0
 31
0.0
  0
LINE
  5
361
  8
DATA
  6
CONTINUOUS
 62
     7
 10
350.0
 20
378.0
 30
0.0
 11
426.0
 21
378.0
 31
0.0
  0
LINE
  5
362
  8
DATA
  6
CONTINUOUS
 62
     7
 10
350.0
 20
-290.0
 30
0.0
 11
426.0
 21
-290.0
 31
0.0
  0
LINE
  5
363
  8
DATA
  6
CONTINUOUS
 62
     7
 10
368.5
 20
68.0
 30
0.0
 11
407.5
 21
68.0
 31
0.0
  0
LINE
  5
364
  8
DATA
  6
CONTINUOUS
 62
     7
 10
368.5
 20
58.0
 30
0.0
 11
407.5
 21
58.0
 31
0.0
  0
LINE
  5
365
  8
DATA
  6
CONTINUOUS
 62
     7
 10
350.0
 20
51.700000000000003
 30
0.0
 11
426.0
 21
51.700000000000003
 31
0.0
  0
LINE
  5
366
  8
DATA
  6
CONTINUOUS
 62
     7
 10
350.0
 20
74.299999999999983
 30
0.0
 11
426.0
 21
74.299999999999983
 31
0.0
  0
LINE
  5
367
  8
DATA
  6
CONTINUOUS
 62
     7
 10
-125.0
 20
400.0
 30
0.0
 11
-125.0
 21
450.0
 31
0.0
  0
LINE
  5
368
  8
DATA
  6
CONTINUOUS
 62
     7
 10
-125.0
 20
400.0
 30
0.0
 11
-133.5073868596881
 21
431.74999999999989
 31
0.0
  0
LINE
  5
369
  8
DATA
  6
CONTINUOUS
 62
     7
 10
-125.0
 20
400.0
 30
0.0
 11
-116.4926131403118
 21
431.74999999999989
 31
0.0
  0
LINE
  5
36A
  8
DATA
  6
CONTINUOUS
 62
     7
 10
-125.0
 20
-325.0
 30
0.0
 11
-125.0
 21
-375.0
 31
0.0
  0
LINE
  5
36B
  8
DATA
  6
CONTINUOUS
 62
     7
 10
-125.0
 20
-325.0
 30
0.0
 11
-116.4926131403118
 21
-356.75
 31
0.0
  0
LINE
  5
36C
  8
DATA
  6
CONTINUOUS
 62
     7
 10
-125.0
 20
-325.0
 30
0.0
 11
-133.5073868596881
 21
-356.75
 31
0.0
  0
TEXT
  5
36D
  8
DATA
 62
     7
 10
-133.18185279874589
 20
455.27814250814578
 30
0.0
 40
27.147352430555561
  1
A
 41
0.7
 11
-133.18185279874589
 21
482.42549493870138
 31
0.0
 73
     3
  0
TEXT
  5
36E
  8
DATA
 62
     7
 10
-134.7763088912229
 20
-420.8240819459034
 30
0.0
 40
27.147352430555561
  1
A"
 41
0.7
 11
-134.7763088912229
 21
-393.67672951534792
 31
0.0
 73
     3
  0
TEXT
  5
36F
  8
DATA
 62
     7
 10
300.8617230927988
 20
-389.16182828248679
 30
0.0
 40
27.147352430555561
  1
A-A"断面図
 41
0.7
 11
300.8617230927988
 21
-362.01447585193119
 31
0.0
 73
     3
  0
LINE
  5
370
  8
DATA
  6
CONTINUOUS
 62
     7
 10
275.0
 20
-400.0
 30
0.0
 11
500.0
 21
-400.0
 31
0.0
  0
LINE
  5
371
  8
DATA
  6
CONTINUOUS
 62
     7
 10
350.0
 20
-283.69999999999999
 30
0.0
 11
426.0
 21
-283.69999999999999
 31
0.0
  0
LINE
  5
372
  8
DATA
  6
CONTINUOUS
 62
     7
 10
350.0
 20
-258.0
 30
0.0
 11
426.0
 21
-258.0
 31
0.0
  0
LINE
  5
373
  8
DATA
  6
CONTINUOUS
 62
     7
 10
350.0
 20
371.69999999999999
 30
0.0
 11
426.0
 21
371.69999999999999
 31
0.0
  0
LINE
  5
374
  8
DATA
  6
CONTINUOUS
 62
     7
 10
350.0
 20
346.0
 30
0.0
 11
426.0
 21
346.0
 31
0.0
  0
LINE
  5
375
  8
DATA
  6
CONTINUOUS
 62
     7
 10
407.5
 20
74.299999999999983
 30
0.0
 11
407.5
 21
51.700000000000003
 31
0.0
  0
LINE
  5
376
  8
DATA
  6
CONTINUOUS
 62
     7
 10
368.5
 20
51.700000000000003
 30
0.0
 11
368.5
 21
74.299999999999983
 31
0.0
  0
LINE
  5
377
  8
DATA
  6
CONTINUOUS
 62
     7
 10
-500.0
 20
651.00000000034731
 30
0.0
 11
-500.0
 21
575.00000000034731
 31
0.0
  0
LINE
  5
378
  8
DATA
  6
CONTINUOUS
 62
     7
 10
112.0
 20
651.00000000034731
 30
0.0
 11
-500.0
 21
651.00000000034731
 31
0.0
  0
LINE
  5
379
  8
DATA
  6
CONTINUOUS
 62
     7
 10
112.0
 20
575.00000000034731
 30
0.0
 11
112.0
 21
651.00000000034731
 31
0.0
  0
LINE
  5
37A
  8
DATA
  6
CONTINUOUS
 62
     7
 10
-500.0
 20
575.00000000034731
 30
0.0
 11
112.0
 21
575.00000000034731
 31
0.0
  0
LINE
  5
37B
  8
DATA
  6
CONTINUOUS
 62
     7
 10
-490.0
 20
651.00000000034731
 30
0.0
 11
-490.0
 21
575.00000000034731
 31
0.0
  0
LINE
  5
37C
  8
DATA
  6
CONTINUOUS
 62
     7
 10
102.0
 20
575.00000000034731
 30
0.0
 11
102.0
 21
651.00000000034731
 31
0.0
  0
CIRCLE
  5
37D
  8
DATA
  6
CONTINUOUS
 62
     7
 10
-477.5
 20
596.00000000034731
 30
0.0
 40
6.5
  0
CIRCLE
  5
37E
  8
DATA
  6
CONTINUOUS
 62
     7
 10
-477.5
 20
630.00000000034731
 30
0.0
 40
6.5
  0
POLYLINE
  5
37F
  8
DATA
  6
CONTINUOUS
 62
     7
 66
     1
 10
0.0
 20
0.0
 30
0.0
 70
     1
  0
VERTEX
  5
584
  8
DATA
  6
CONTINUOUS
 62
     7
 10
-478.6258330249197
 20
594.05000000034727
 30
0.0
  0
VERTEX
  5
585
  8
DATA
  6
CONTINUOUS
 62
     7
 10
-479.75166604983963
 20
596.00000000034731
 30
0.0
  0
VERTEX
  5
586
  8
DATA
  6
CONTINUOUS
 62
     7
 10
-478.6258330249197
 20
597.95000000034747
 30
0.0
  0
VERTEX
  5
587
  8
DATA
  6
CONTINUOUS
 62
     7
 10
-476.37416697508007
 20
597.95000000034747
 30
0.0
  0
VERTEX
  5
588
  8
DATA
  6
CONTINUOUS
 62
     7
 10
-475.24833395016032
 20
596.00000000034731
 30
0.0
  0
VERTEX
  5
589
  8
DATA
  6
CONTINUOUS
 62
     7
 10
-476.37416697508007
 20
594.05000000034727
 30
0.0
  0
SEQEND
  5
58A
  8
DATA
  6
CONTINUOUS
 62
     7
  0
POLYLINE
  5
388
  8
DATA
  6
CONTINUOUS
 62
     7
 66
     1
 10
0.0
 20
0.0
 30
0.0
 70
     1
  0
VERTEX
  5
58B
  8
DATA
  6
CONTINUOUS
 62
     7
 10
-478.6258330249197
 20
628.05000000034727
 30
0.0
  0
VERTEX
  5
58C
  8
DATA
  6
CONTINUOUS
 62
     7
 10
-479.75166604983963
 20
630.00000000034731
 30
0.0
  0
VERTEX
  5
58D
  8
DATA
  6
CONTINUOUS
 62
     7
 10
-478.6258330249197
 20
631.95000000034747
 30
0.0
  0
VERTEX
  5
58E
  8
DATA
  6
CONTINUOUS
 62
     7
 10
-476.37416697508007
 20
631.95000000034747
 30
0.0
  0
VERTEX
  5
58F
  8
DATA
  6
CONTINUOUS
 62
     7
 10
-475.24833395016032
 20
630.00000000034731
 30
0.0
  0
VERTEX
  5
590
  8
DATA
  6
CONTINUOUS
 62
     7
 10
-476.37416697508007
 20
628.05000000034727
 30
0.0
  0
SEQEND
  5
591
  8
DATA
  6
CONTINUOUS
 62
     7
  0
CIRCLE
  5
391
  8
DATA
  6
CONTINUOUS
 62
     7
 10
89.499999999999986
 20
596.00000000034731
 30
0.0
 40
6.5
  0
CIRCLE
  5
392
  8
DATA
  6
CONTINUOUS
 62
     7
 10
89.499999999999986
 20
630.00000000034731
 30
0.0
 40
6.5
  0
POLYLINE
  5
393
  8
DATA
  6
CONTINUOUS
 62
     7
 66
     1
 10
0.0
 20
0.0
 30
0.0
 70
     1
  0
VERTEX
  5
592
  8
DATA
  6
CONTINUOUS
 62
     7
 10
90.625833024919743
 20
594.05000000034727
 30
0.0
  0
VERTEX
  5
593
  8
DATA
  6
CONTINUOUS
 62
     7
 10
91.751666049839585
 20
596.00000000034731
 30
0.0
  0
VERTEX
  5
594
  8
DATA
  6
CONTINUOUS
 62
     7
 10
90.625833024919743
 20
597.95000000034747
 30
0.0
  0
VERTEX
  5
595
  8
DATA
  6
CONTINUOUS
 62
     7
 10
88.374166975080229
 20
597.95000000034747
 30
0.0
  0
VERTEX
  5
596
  8
DATA
  6
CONTINUOUS
 62
     7
 10
87.248333950160344
 20
596.00000000034731
 30
0.0
  0
VERTEX
  5
597
  8
DATA
  6
CONTINUOUS
 62
     7
 10
88.374166975080229
 20
594.05000000034727
 30
0.0
  0
SEQEND
  5
598
  8
DATA
  6
CONTINUOUS
 62
     7
  0
POLYLINE
  5
39C
  8
DATA
  6
CONTINUOUS
 62
     7
 66
     1
 10
0.0
 20
0.0
 30
0.0
 70
     1
  0
VERTEX
  5
599
  8
DATA
  6
CONTINUOUS
 62
     7
 10
90.625833024919743
 20
628.05000000034727
 30
0.0
  0
VERTEX
  5
59A
  8
DATA
  6
CONTINUOUS
 62
     7
 10
91.751666049839585
 20
630.00000000034731
 30
0.0
  0
VERTEX
  5
59B
  8
DATA
  6
CONTINUOUS
 62
     7
 10
90.625833024919743
 20
631.95000000034747
 30
0.0
  0
VERTEX
  5
59C
  8
DATA
  6
CONTINUOUS
 62
     7
 10
88.374166975080229
 20
631.95000000034747
 30
0.0
  0
VERTEX
  5
59D
  8
DATA
  6
CONTINUOUS
 62
     7
 10
87.248333950160344
 20
630.00000000034731
 30
0.0
  0
VERTEX
  5
59E
  8
DATA
  6
CONTINUOUS
 62
     7
 10
88.374166975080229
 20
628.05000000034727
 30
0.0
  0
SEQEND
  5
59F
  8
DATA
  6
CONTINUOUS
 62
     7
  0
CIRCLE
  5
3A5
  8
DATA
  6
CONTINUOUS
 62
     7
 10
-215.5
 20
588.00000000034731
 30
0.0
 40
6.5
  0
POLYLINE
  5
3A6
  8
DATA
  6
CONTINUOUS
 62
     7
 66
     1
 10
0.0
 20
0.0
 30
0.0
 70
     1
  0
VERTEX
  5
5A0
  8
DATA
  6
CONTINUOUS
 62
     7
 10
-216.6258330249197
 20
586.05000000034727
 30
0.0
  0
VERTEX
  5
5A1
  8
DATA
  6
CONTINUOUS
 62
     7
 10
-217.7516660498396
 20
588.00000000034731
 30
0.0
  0
VERTEX
  5
5A2
  8
DATA
  6
CONTINUOUS
 62
     7
 10
-216.6258330249197
 20
589.95000000034747
 30
0.0
  0
VERTEX
  5
5A3
  8
DATA
  6
CONTINUOUS
 62
     7
 10
-214.3741669750803
 20
589.95000000034747
 30
0.0
  0
VERTEX
  5
5A4
  8
DATA
  6
CONTINUOUS
 62
     7
 10
-213.2483339501604
 20
588.00000000034731
 30
0.0
  0
VERTEX
  5
5A5
  8
DATA
  6
CONTINUOUS
 62
     7
 10
-214.3741669750803
 20
586.05000000034727
 30
0.0
  0
SEQEND
  5
5A6
  8
DATA
  6
CONTINUOUS
 62
     7
  0
CIRCLE
  5
3AF
  8
DATA
  6
CONTINUOUS
 62
     7
 10
-172.5
 20
588.00000000034731
 30
0.0
 40
6.5
  0
POLYLINE
  5
3B0
  8
DATA
  6
CONTINUOUS
 62
     7
 66
     1
 10
0.0
 20
0.0
 30
0.0
 70
     1
  0
VERTEX
  5
5A7
  8
DATA
  6
CONTINUOUS
 62
     7
 10
-173.6258330249197
 20
586.05000000034727
 30
0.0
  0
VERTEX
  5
5A8
  8
DATA
  6
CONTINUOUS
 62
     7
 10
-174.7516660498396
 20
588.00000000034731
 30
0.0
  0
VERTEX
  5
5A9
  8
DATA
  6
CONTINUOUS
 62
     7
 10
-173.6258330249197
 20
589.95000000034747
 30
0.0
  0
VERTEX
  5
5AA
  8
DATA
  6
CONTINUOUS
 62
     7
 10
-171.37416697508019
 20
589.95000000034747
 30
0.0
  0
VERTEX
  5
5AB
  8
DATA
  6
CONTINUOUS
 62
     7
 10
-170.24833395016029
 20
588.00000000034731
 30
0.0
  0
VERTEX
  5
5AC
  8
DATA
  6
CONTINUOUS
 62
     7
 10
-171.37416697508019
 20
586.05000000034727
 30
0.0
  0
SEQEND
  5
5AD
  8
DATA
  6
CONTINUOUS
 62
     7
  0
CIRCLE
  5
3B9
  8
DATA
  6
CONTINUOUS
 62
     7
 10
-215.5
 20
638.00000000034731
 30
0.0
 40
6.5
  0
POLYLINE
  5
3BA
  8
DATA
  6
CONTINUOUS
 62
     7
 66
     1
 10
0.0
 20
0.0
 30
0.0
 70
     1
  0
VERTEX
  5
5AE
  8
DATA
  6
CONTINUOUS
 62
     7
 10
-216.6258330249197
 20
636.05000000034727
 30
0.0
  0
VERTEX
  5
5AF
  8
DATA
  6
CONTINUOUS
 62
     7
 10
-217.7516660498396
 20
638.00000000034731
 30
0.0
  0
VERTEX
  5
5B0
  8
DATA
  6
CONTINUOUS
 62
     7
 10
-216.6258330249197
 20
639.95000000034747
 30
0.0
  0
VERTEX
  5
5B1
  8
DATA
  6
CONTINUOUS
 62
     7
 10
-214.3741669750803
 20
639.95000000034747
 30
0.0
  0
VERTEX
  5
5B2
  8
DATA
  6
CONTINUOUS
 62
     7
 10
-213.2483339501604
 20
638.00000000034731
 30
0.0
  0
VERTEX
  5
5B3
  8
DATA
  6
CONTINUOUS
 62
     7
 10
-214.3741669750803
 20
636.05000000034727
 30
0.0
  0
SEQEND
  5
5B4
  8
DATA
  6
CONTINUOUS
 62
     7
  0
CIRCLE
  5
3C3
  8
DATA
  6
CONTINUOUS
 62
     7
 10
-172.5
 20
638.00000000034731
 30
0.0
 40
6.5
  0
POLYLINE
  5
3C4
  8
DATA
  6
CONTINUOUS
 62
     7
 66
     1
 10
0.0
 20
0.0
 30
0.0
 70
     1
  0
VERTEX
  5
5B5
  8
DATA
  6
CONTINUOUS
 62
     7
 10
-173.6258330249197
 20
636.05000000034727
 30
0.0
  0
VERTEX
  5
5B6
  8
DATA
  6
CONTINUOUS
 62
     7
 10
-174.7516660498396
 20
638.00000000034731
 30
0.0
  0
VERTEX
  5
5B7
  8
DATA
  6
CONTINUOUS
 62
     7
 10
-173.6258330249197
 20
639.95000000034747
 30
0.0
  0
VERTEX
  5
5B8
  8
DATA
  6
CONTINUOUS
 62
     7
 10
-171.37416697508019
 20
639.95000000034747
 30
0.0
  0
VERTEX
  5
5B9
  8
DATA
  6
CONTINUOUS
 62
     7
 10
-170.24833395016029
 20
638.00000000034731
 30
0.0
  0
VERTEX
  5
5BA
  8
DATA
  6
CONTINUOUS
 62
     7
 10
-171.37416697508019
 20
636.05000000034727
 30
0.0
  0
SEQEND
  5
5BB
  8
DATA
  6
CONTINUOUS
 62
     7
  0
CIRCLE
  5
3CD
  8
DATA
  6
CONTINUOUS
 62
     7
 10
-401.0
 20
613.00000000034731
 30
0.0
 40
8.0
  0
CIRCLE
  5
3CE
  8
DATA
  6
CONTINUOUS
 62
     7
 10
12.99999999999998
 20
613.00000000034731
 30
0.0
 40
8.0
  0
CIRCLE
  5
3CF
  8
DATA
  6
CONTINUOUS
 62
     7
 10
414.47517405125808
 20
63.0
 30
0.0
 40
6.5
  0
POLYLINE
  5
3D0
  8
DATA
  6
CONTINUOUS
 62
     7
 66
     1
 10
0.0
 20
0.0
 30
0.0
 70
     1
  0
VERTEX
  5
5BC
  8
DATA
  6
CONTINUOUS
 62
     7
 10
415.60100707617789
 20
64.950000000000045
 30
0.0
  0
VERTEX
  5
5BD
  8
DATA
  6
CONTINUOUS
 62
     7
 10
416.72684010109771
 20
63.0
 30
0.0
  0
VERTEX
  5
5BE
  8
DATA
  6
CONTINUOUS
 62
     7
 10
415.60100707617789
 20
61.049999999999962
 30
0.0
  0
VERTEX
  5
5BF
  8
DATA
  6
CONTINUOUS
 62
     7
 10
413.34934102633821
 20
61.049999999999962
 30
0.0
  0
VERTEX
  5
5C0
  8
DATA
  6
CONTINUOUS
 62
     7
 10
412.22350800141851
 20
63.0
 30
0.0
  0
VERTEX
  5
5C1
  8
DATA
  6
CONTINUOUS
 62
     7
 10
413.34934102633821
 20
64.950000000000045
 30
0.0
  0
SEQEND
  5
5C2
  8
DATA
  6
CONTINUOUS
 62
     7
  0
CIRCLE
  5
3D9
  8
DATA
  6
CONTINUOUS
 62
     7
 10
361.52482594874181
 20
63.0
 30
0.0
 40
2.5
  0
CIRCLE
  5
3DA
  8
DATA
  6
CONTINUOUS
 62
     7
 10
407.13216916393122
 20
-270.65867963934619
 30
0.0
 40
9.5
  0
CIRCLE
  5
3DB
  8
DATA
  6
CONTINUOUS
 62
     7
 10
369.0
 20
-270.65867963934619
 30
0.0
 40
5.0
  0
CIRCLE
  5
3DC
  8
DATA
  6
CONTINUOUS
 62
     7
 10
407.0
 20
359.0
 30
0.0
 40
5.0
  0
POLYLINE
  5
3DD
  8
DATA
  6
CONTINUOUS
 62
     7
 66
     1
 10
0.0
 20
0.0
 30
0.0
 70
     1
  0
VERTEX
  5
5C3
  8
DATA
  6
CONTINUOUS
 62
     7
 10
409.7000000000001
 20
-269.17614181490848
 30
0.0
  0
VERTEX
  5
5C4
  8
DATA
  6
CONTINUOUS
 62
     7
 10
407.13216916393122
 20
-267.69360399047071
 30
0.0
  0
VERTEX
  5
5C5
  8
DATA
  6
CONTINUOUS
 62
     7
 10
404.56433832786229
 20
-269.17614181490842
 30
0.0
  0
VERTEX
  5
5C6
  8
DATA
  6
CONTINUOUS
 62
     7
 10
404.56433832786229
 20
-272.14121746378402
 30
0.0
  0
VERTEX
  5
5C7
  8
DATA
  6
CONTINUOUS
 62
     7
 10
407.13216916393122
 20
-273.62375528822167
 30
0.0
  0
VERTEX
  5
5C8
  8
DATA
  6
CONTINUOUS
 62
     7
 10
409.7000000000001
 20
-272.14121746378402
 30
0.0
  0
SEQEND
  5
5C9
  8
DATA
  6
CONTINUOUS
 62
     7
  0
CIRCLE
  5
3E6
  8
DATA
  6
CONTINUOUS
 62
     7
 10
369.0
 20
359.0
 30
0.0
 40
9.5
  0
POLYLINE
  5
3E7
  8
DATA
  6
CONTINUOUS
 62
     7
 66
     1
 10
0.0
 20
0.0
 30
0.0
 70
     1
  0
VERTEX
  5
5CA
  8
DATA
  6
CONTINUOUS
 62
     7
 10
371.56783083606888
 20
360.48253782443771
 30
0.0
  0
VERTEX
  5
5CB
  8
DATA
  6
CONTINUOUS
 62
     7
 10
369.0
 20
361.96507564887548
 30
0.0
  0
VERTEX
  5
5CC
  8
DATA
  6
CONTINUOUS
 62
     7
 10
366.43216916393112
 20
360.48253782443771
 30
0.0
  0
VERTEX
  5
5CD
  8
DATA
  6
CONTINUOUS
 62
     7
 10
366.43216916393112
 20
357.51746217556229
 30
0.0
  0
VERTEX
  5
5CE
  8
DATA
  6
CONTINUOUS
 62
     7
 10
369.0
 20
356.03492435112452
 30
0.0
  0
VERTEX
  5
5CF
  8
DATA
  6
CONTINUOUS
 62
     7
 10
371.56783083606888
 20
357.51746217556229
 30
0.0
  0
SEQEND
  5
5D0
  8
DATA
  6
CONTINUOUS
 62
     7
  0
CIRCLE
  5
3F0
  8
DATA
  6
CONTINUOUS
 62
     7
 10
388.0
 20
-242.0
 30
0.0
 40
12.0
  0
CIRCLE
  5
3F1
  8
DATA
  6
CONTINUOUS
 62
     7
 10
388.0
 20
-242.0
 30
0.0
 40
9.5
  0
CIRCLE
  5
3F2
  8
DATA
  6
CONTINUOUS
 62
     7
 10
388.0
 20
-174.0
 30
0.0
 40
12.0
  0
CIRCLE
  5
3F3
  8
DATA
  6
CONTINUOUS
 62
     7
 10
388.0
 20
-174.0
 30
0.0
 40
9.5
  0
CIRCLE
  5
3F4
  8
DATA
  6
CONTINUOUS
 62
     7
 10
388.0
 20
-106.0
 30
0.0
 40
12.0
  0
CIRCLE
  5
3F5
  8
DATA
  6
CONTINUOUS
 62
     7
 10
388.0
 20
-106.0
 30
0.0
 40
9.5
  0
CIRCLE
  5
3F6
  8
DATA
  6
CONTINUOUS
 62
     7
 10
388.0
 20
-38.0
 30
0.0
 40
12.0
  0
CIRCLE
  5
3F7
  8
DATA
  6
CONTINUOUS
 62
     7
 10
388.0
 20
-38.0
 30
0.0
 40
9.5
  0
CIRCLE
  5
3F8
  8
DATA
  6
CONTINUOUS
 62
     7
 10
388.0
 20
30.0
 30
0.0
 40
12.0
  0
CIRCLE
  5
3F9
  8
DATA
  6
CONTINUOUS
 62
     7
 10
388.0
 20
30.0
 30
0.0
 40
9.5
  0
CIRCLE
  5
3FA
  8
DATA
  6
CONTINUOUS
 62
     7
 10
388.0
 20
302.0
 30
0.0
 40
12.0
  0
CIRCLE
  5
3FB
  8
DATA
  6
CONTINUOUS
 62
     7
 10
388.0
 20
302.0
 30
0.0
 40
9.5
  0
CIRCLE
  5
3FC
  8
DATA
  6
CONTINUOUS
 62
     7
 10
388.0
 20
302.0
 30
0.0
 40
12.0
  0
CIRCLE
  5
3FD
  8
DATA
  6
CONTINUOUS
 62
     7
 10
388.0
 20
302.0
 30
0.0
 40
9.5
  0
CIRCLE
  5
3FE
  8
DATA
  6
CONTINUOUS
 62
     7
 10
388.0
 20
302.0
 30
0.0
 40
12.0
  0
CIRCLE
  5
3FF
  8
DATA
  6
CONTINUOUS
 62
     7
 10
388.0
 20
302.0
 30
0.0
 40
9.5
  0
CIRCLE
  5
400
  8
DATA
  6
CONTINUOUS
 62
     7
 10
388.0
 20
234.0
 30
0.0
 40
12.0
  0
CIRCLE
  5
401
  8
DATA
  6
CONTINUOUS
 62
     7
 10
388.0
 20
234.0
 30
0.0
 40
9.5
  0
CIRCLE
  5
402
  8
DATA
  6
CONTINUOUS
 62
     7
 10
388.0
 20
234.0
 30
0.0
 40
12.0
  0
CIRCLE
  5
403
  8
DATA
  6
CONTINUOUS
 62
     7
 10
388.0
 20
234.0
 30
0.0
 40
9.5
  0
CIRCLE
  5
404
  8
DATA
  6
CONTINUOUS
 62
     7
 10
388.0
 20
234.0
 30
0.0
 40
12.0
  0
CIRCLE
  5
405
  8
DATA
  6
CONTINUOUS
 62
     7
 10
388.0
 20
234.0
 30
0.0
 40
9.5
  0
CIRCLE
  5
406
  8
DATA
  6
CONTINUOUS
 62
     7
 10
388.0
 20
166.0
 30
0.0
 40
12.0
  0
CIRCLE
  5
407
  8
DATA
  6
CONTINUOUS
 62
     7
 10
388.0
 20
166.0
 30
0.0
 40
9.5
  0
CIRCLE
  5
408
  8
DATA
  6
CONTINUOUS
 62
     7
 10
388.0
 20
166.0
 30
0.0
 40
12.0
  0
CIRCLE
  5
409
  8
DATA
  6
CONTINUOUS
 62
     7
 10
388.0
 20
166.0
 30
0.0
 40
9.5
  0
CIRCLE
  5
40A
  8
DATA
  6
CONTINUOUS
 62
     7
 10
388.0
 20
166.0
 30
0.0
 40
12.0
  0
CIRCLE
  5
40B
  8
DATA
  6
CONTINUOUS
 62
     7
 10
388.0
 20
166.0
 30
0.0
 40
9.5
  0
CIRCLE
  5
40C
  8
DATA
  6
CONTINUOUS
 62
     7
 10
388.0
 20
98.0
 30
0.0
 40
12.0
  0
CIRCLE
  5
40D
  8
DATA
  6
CONTINUOUS
 62
     7
 10
388.0
 20
98.0
 30
0.0
 40
9.5
  0
CIRCLE
  5
40E
  8
DATA
  6
CONTINUOUS
 62
     7
 10
388.0
 20
98.0
 30
0.0
 40
12.0
  0
CIRCLE
  5
40F
  8
DATA
  6
CONTINUOUS
 62
     7
 10
388.0
 20
98.0
 30
0.0
 40
9.5
  0
CIRCLE
  5
410
  8
DATA
  6
CONTINUOUS
 62
     7
 10
388.0
 20
98.0
 30
0.0
 40
12.0
  0
CIRCLE
  5
411
  8
DATA
  6
CONTINUOUS
 62
     7
 10
388.0
 20
98.0
 30
0.0
 40
9.5
  0
LINE
  5
412
  8
DATA
  6
CONTINUOUS
 62
     7
 10
-188.0
 20
314.0
 30
0.0
 11
-189.0
 21
314.0
 31
0.0
  0
LINE
  5
413
  8
DATA
  6
CONTINUOUS
 62
     7
 10
-199.0
 20
314.0
 30
0.0
 11
-200.0
 21
314.0
 31
0.0
  0
LINE
  5
414
  8
DATA
  6
CONTINUOUS
 62
     7
 10
-188.0
 20
290.0
 30
0.0
 11
-189.0
 21
290.0
 31
0.0
  0
LINE
  5
415
  8
DATA
  6
CONTINUOUS
 62
     7
 10
-199.0
 20
290.0
 30
0.0
 11
-200.0
 21
290.0
 31
0.0
  0
LINE
  5
416
  8
DATA
  6
CONTINUOUS
 62
     7
 10
-188.0
 20
246.0
 30
0.0
 11
-189.0
 21
246.0
 31
0.0
  0
LINE
  5
417
  8
DATA
  6
CONTINUOUS
 62
     7
 10
-199.0
 20
246.0
 30
0.0
 11
-200.0
 21
246.0
 31
0.0
  0
LINE
  5
418
  8
DATA
  6
CONTINUOUS
 62
     7
 10
-188.0
 20
222.0
 30
0.0
 11
-189.0
 21
222.0
 31
0.0
  0
LINE
  5
419
  8
DATA
  6
CONTINUOUS
 62
     7
 10
-199.0
 20
222.0
 30
0.0
 11
-200.0
 21
222.0
 31
0.0
  0
LINE
  5
41A
  8
DATA
  6
CONTINUOUS
 62
     7
 10
-188.0
 20
178.0
 30
0.0
 11
-189.0
 21
178.0
 31
0.0
  0
LINE
  5
41B
  8
DATA
  6
CONTINUOUS
 62
     7
 10
-199.0
 20
178.0
 30
0.0
 11
-200.0
 21
178.0
 31
0.0
  0
LINE
  5
41C
  8
DATA
  6
CONTINUOUS
 62
     7
 10
-188.0
 20
154.0
 30
0.0
 11
-189.0
 21
154.0
 31
0.0
  0
LINE
  5
41D
  8
DATA
  6
CONTINUOUS
 62
     7
 10
-199.0
 20
154.0
 30
0.0
 11
-200.0
 21
154.0
 31
0.0
  0
LINE
  5
41E
  8
DATA
  6
CONTINUOUS
 62
     7
 10
-188.0
 20
110.0
 30
0.0
 11
-189.0
 21
110.0
 31
0.0
  0
LINE
  5
41F
  8
DATA
  6
CONTINUOUS
 62
     7
 10
-199.0
 20
110.0
 30
0.0
 11
-200.0
 21
110.0
 31
0.0
  0
LINE
  5
420
  8
DATA
  6
CONTINUOUS
 62
     7
 10
-188.0
 20
86.0
 30
0.0
 11
-189.0
 21
86.0
 31
0.0
  0
LINE
  5
421
  8
DATA
  6
CONTINUOUS
 62
     7
 10
-199.0
 20
86.0
 30
0.0
 11
-200.0
 21
86.0
 31
0.0
  0
LINE
  5
422
  8
DATA
  6
CONTINUOUS
 62
     7
 10
-188.0
 20
42.0
 30
0.0
 11
-189.0
 21
42.0
 31
0.0
  0
LINE
  5
423
  8
DATA
  6
CONTINUOUS
 62
     7
 10
-199.0
 20
42.0
 30
0.0
 11
-200.0
 21
42.0
 31
0.0
  0
LINE
  5
424
  8
DATA
  6
CONTINUOUS
 62
     7
 10
-188.0
 20
18.0
 30
0.0
 11
-189.0
 21
18.0
 31
0.0
  0
LINE
  5
425
  8
DATA
  6
CONTINUOUS
 62
     7
 10
-199.0
 20
18.0
 30
0.0
 11
-200.0
 21
18.0
 31
0.0
  0
LINE
  5
426
  8
DATA
  6
CONTINUOUS
 62
     7
 10
-188.0
 20
-26.0
 30
0.0
 11
-189.0
 21
-26.0
 31
0.0
  0
LINE
  5
427
  8
DATA
  6
CONTINUOUS
 62
     7
 10
-199.0
 20
-26.0
 30
0.0
 11
-200.0
 21
-26.0
 31
0.0
  0
LINE
  5
428
  8
DATA
  6
CONTINUOUS
 62
     7
 10
-188.0
 20
-50.0
 30
0.0
 11
-189.0
 21
-50.0
 31
0.0
  0
LINE
  5
429
  8
DATA
  6
CONTINUOUS
 62
     7
 10
-199.0
 20
-50.0
 30
0.0
 11
-200.0
 21
-50.0
 31
0.0
  0
LINE
  5
42A
  8
DATA
  6
CONTINUOUS
 62
     7
 10
-188.0
 20
-94.0
 30
0.0
 11
-189.0
 21
-94.0
 31
0.0
  0
LINE
  5
42B
  8
DATA
  6
CONTINUOUS
 62
     7
 10
-199.0
 20
-94.0
 30
0.0
 11
-200.0
 21
-94.0
 31
0.0
  0
LINE
  5
42C
  8
DATA
  6
CONTINUOUS
 62
     7
 10
-188.0
 20
-118.0
 30
0.0
 11
-189.0
 21
-118.0
 31
0.0
  0
LINE
  5
42D
  8
DATA
  6
CONTINUOUS
 62
     7
 10
-199.0
 20
-118.0
 30
0.0
 11
-200.0
 21
-118.0
 31
0.0
  0
LINE
  5
42E
  8
DATA
  6
CONTINUOUS
 62
     7
 10
-188.0
 20
-162.0
 30
0.0
 11
-189.0
 21
-162.0
 31
0.0
  0
LINE
  5
42F
  8
DATA
  6
CONTINUOUS
 62
     7
 10
-199.0
 20
-162.0
 30
0.0
 11
-200.0
 21
-162.0
 31
0.0
  0
LINE
  5
430
  8
DATA
  6
CONTINUOUS
 62
     7
 10
-188.0
 20
-186.0
 30
0.0
 11
-189.0
 21
-186.0
 31
0.0
  0
LINE
  5
431
  8
DATA
  6
CONTINUOUS
 62
     7
 10
-199.0
 20
-186.0
 30
0.0
 11
-200.0
 21
-186.0
 31
0.0
  0
LINE
  5
432
  8
DATA
  6
CONTINUOUS
 62
     7
 10
-188.0
 20
-230.0
 30
0.0
 11
-189.0
 21
-230.0
 31
0.0
  0
LINE
  5
433
  8
DATA
  6
CONTINUOUS
 62
     7
 10
-199.0
 20
-230.0
 30
0.0
 11
-200.0
 21
-230.0
 31
0.0
  0
LINE
  5
434
  8
DATA
  6
CONTINUOUS
 62
     7
 10
-188.0
 20
-254.0
 30
0.0
 11
-189.0
 21
-254.0
 31
0.0
  0
LINE
  5
435
  8
DATA
  6
CONTINUOUS
 62
     7
 10
-199.0
 20
-254.0
 30
0.0
 11
-200.0
 21
-254.0
 31
0.0
  0
LINE
  5
436
  8
DATA
  6
CONTINUOUS
 62
     7
 10
-188.0
 20
314.0
 30
0.0
 11
-188.0
 21
290.0
 31
0.0
  0
LINE
  5
437
  8
DATA
  6
CONTINUOUS
 62
     7
 10
-188.0
 20
246.0
 30
0.0
 11
-188.0
 21
222.0
 31
0.0
  0
LINE
  5
438
  8
DATA
  6
CONTINUOUS
 62
     7
 10
-188.0
 20
178.0
 30
0.0
 11
-188.0
 21
154.0
 31
0.0
  0
LINE
  5
439
  8
DATA
  6
CONTINUOUS
 62
     7
 10
-188.0
 20
110.0
 30
0.0
 11
-188.0
 21
86.0
 31
0.0
  0
LINE
  5
43A
  8
DATA
  6
CONTINUOUS
 62
     7
 10
-188.0
 20
42.0
 30
0.0
 11
-188.0
 21
18.0
 31
0.0
  0
LINE
  5
43B
  8
DATA
  6
CONTINUOUS
 62
     7
 10
-188.0
 20
-26.0
 30
0.0
 11
-188.0
 21
-50.0
 31
0.0
  0
LINE
  5
43C
  8
DATA
  6
CONTINUOUS
 62
     7
 10
-188.0
 20
-94.0
 30
0.0
 11
-188.0
 21
-118.0
 31
0.0
  0
LINE
  5
43D
  8
DATA
  6
CONTINUOUS
 62
     7
 10
-188.0
 20
-162.0
 30
0.0
 11
-188.0
 21
-186.0
 31
0.0
  0
LINE
  5
43E
  8
DATA
  6
CONTINUOUS
 62
     7
 10
-188.0
 20
-230.0
 30
0.0
 11
-188.0
 21
-254.0
 31
0.0
  0
LINE
  5
43F
  8
DATA
  6
CONTINUOUS
 62
     7
 10
-200.0
 20
-254.0
 30
0.0
 11
-200.0
 21
-230.0
 31
0.0
  0
LINE
  5
440
  8
DATA
  6
CONTINUOUS
 62
     7
 10
-200.0
 20
-186.0
 30
0.0
 11
-200.0
 21
-162.0
 31
0.0
  0
LINE
  5
441
  8
DATA
  6
CONTINUOUS
 62
     7
 10
-200.0
 20
-118.0
 30
0.0
 11
-200.0
 21
-94.0
 31
0.0
  0
LINE
  5
442
  8
DATA
  6
CONTINUOUS
 62
     7
 10
-200.0
 20
-50.0
 30
0.0
 11
-200.0
 21
-26.0
 31
0.0
  0
LINE
  5
443
  8
DATA
  6
CONTINUOUS
 62
     7
 10
-200.0
 20
18.0
 30
0.0
 11
-200.0
 21
42.0
 31
0.0
  0
LINE
  5
444
  8
DATA
  6
CONTINUOUS
 62
     7
 10
-200.0
 20
86.0
 30
0.0
 11
-200.0
 21
110.0
 31
0.0
  0
LINE
  5
445
  8
DATA
  6
CONTINUOUS
 62
     7
 10
-200.0
 20
154.0
 30
0.0
 11
-200.0
 21
178.0
 31
0.0
  0
LINE
  5
446
  8
DATA
  6
CONTINUOUS
 62
     7
 10
-200.0
 20
222.0
 30
0.0
 11
-200.0
 21
246.0
 31
0.0
  0
LINE
  5
447
  8
DATA
  6
CONTINUOUS
 62
     7
 10
-200.0
 20
290.0
 30
0.0
 11
-200.0
 21
314.0
 31
0.0
  0
ENDSEC
  0
EOF
