  0
SECTION
  2
HEADER
  9
$ACADVER
  1
AC1009
  9
$DWGCODEPAGE
  3
ansi_932
  9
$INSBASE
 10
0.0
 20
0.0
 30
0.0
  9
$EXTMIN
 10
-1800.0
 20
-2685.008451078124
 30
0.0
  9
$EXTMAX
 10
1800.0
 20
2667.104485
 30
0.0
  9
$LIMMIN
 10
0.0
 20
0.0
  9
$LIMMAX
 10
12.0
 20
9.0
  9
$ORTHOMODE
 70
     0
  9
$REGENMODE
 70
     1
  9
$FILLMODE
 70
     1
  9
$QTEXTMODE
 70
     0
  9
$MIRRTEXT
 70
     1
  9
$DRAGMODE
 70
     2
  9
$LTSCALE
 40
20.0
  9
$OSMODE
 70
    37
  9
$ATTMODE
 70
     1
  9
$TEXTSIZE
 40
0.2
  9
$TRACEWID
 40
1.0
  9
$TEXTSTYLE
  7
STANDARD
  9
$CLAYER
  8
DATA
  9
$CELTYPE
  6
BYLAYER
  9
$CECOLOR
 62
   256
  9
$DIMSCALE
 40
1.0
  9
$DIMASZ
 40
0.18
  9
$DIMEXO
 40
0.0625
  9
$DIMDLI
 40
0.38
  9
$DIMRND
 40
0.0
  9
$DIMDLE
 40
0.0
  9
$DIMEXE
 40
0.18
  9
$DIMTP
 40
0.0
  9
$DIMTM
 40
0.0
  9
$DIMTXT
 40
0.18
  9
$DIMCEN
 40
0.09
  9
$DIMTSZ
 40
0.0
  9
$DIMTOL
 70
     0
  9
$DIMLIM
 70
     0
  9
$DIMTIH
 70
     1
  9
$DIMTOH
 70
     1
  9
$DIMSE1
 70
     0
  9
$DIMSE2
 70
     0
  9
$DIMTAD
 70
     0
  9
$DIMZIN
 70
     0
  9
$DIMBLK
  1

  9
$DIMASO
 70
     1
  9
$DIMSHO
 70
     1
  9
$DIMPOST
  1

  9
$DIMAPOST
  1

  9
$DIMALT
 70
     0
  9
$DIMALTD
 70
     2
  9
$DIMALTF
 40
25.4
  9
$DIMLFAC
 40
1.0
  9
$DIMTOFL
 70
     0
  9
$DIMTVP
 40
0.0
  9
$DIMTIX
 70
     0
  9
$DIMSOXD
 70
     0
  9
$DIMSAH
 70
     0
  9
$DIMBLK1
  1

  9
$DIMBLK2
  1

  9
$DIMSTYLE
  2
STANDARD
  9
$DIMCLRD
 70
     0
  9
$DIMCLRE
 70
     0
  9
$DIMCLRT
 70
     0
  9
$DIMTFAC
 40
1.0
  9
$DIMGAP
 40
0.09
  9
$LUNITS
 70
     2
  9
$LUPREC
 70
     2
  9
$SKETCHINC
 40
0.1
  9
$FILLETRAD
 40
0.0
  9
$AUNITS
 70
     0
  9
$AUPREC
 70
     1
  9
$MENU
  1
.
  9
$ELEVATION
 40
0.0
  9
$PELEVATION
 40
0.0
  9
$THICKNESS
 40
0.0
  9
$LIMCHECK
 70
     0
  9
$CHAMFERA
 40
0.0
  9
$CHAMFERB
 40
0.0
  9
$SKPOLY
 70
     0
  9
$TDCREATE
 40
2459667.72333728
  9
$TDUPDATE
 40
2459667.723870544
  9
$TDINDWG
 40
2459667.348871111
  9
$TDUSRTIMER
 40
0.000533831
  9
$USRTIMER
 70
     1
  9
$ANGBASE
 50
0.0
  9
$ANGDIR
 70
     0
  9
$PDMODE
 70
     1
  9
$PDSIZE
 40
-2.0
  9
$PLINEWID
 40
0.0
  9
$COORDS
 70
     1
  9
$SPLFRAME
 70
     0
  9
$SPLINETYPE
 70
     6
  9
$SPLINESEGS
 70
     8
  9
$ATTDIA
 70
     1
  9
$ATTREQ
 70
     1
  9
$HANDLING
 70
     1
  9
$HANDSEED
  5
8107000000000110
  9
$SURFTAB1
 70
     6
  9
$SURFTAB2
 70
     6
  9
$SURFTYPE
 70
     6
  9
$SURFU
 70
     6
  9
$SURFV
 70
     6
  9
$UCSNAME
  2

  9
$UCSORG
 10
0.0
 20
0.0
 30
0.0
  9
$UCSXDIR
 10
1.0
 20
0.0
 30
0.0
  9
$UCSYDIR
 10
0.0
 20
1.0
 30
0.0
  9
$PUCSNAME
  2

  9
$PUCSORG
 10
0.0
 20
0.0
 30
0.0
  9
$PUCSXDIR
 10
1.0
 20
0.0
 30
0.0
  9
$PUCSYDIR
 10
0.0
 20
1.0
 30
0.0
  9
$USERI1
 70
     0
  9
$USERI2
 70
     0
  9
$USERI3
 70
     0
  9
$USERI4
 70
     0
  9
$USERI5
 70
     0
  9
$USERR1
 40
0.0
  9
$USERR2
 40
0.0
  9
$USERR3
 40
0.0
  9
$USERR4
 40
0.0
  9
$USERR5
 40
0.0
  9
$WORLDVIEW
 70
     1
  9
$SHADEDGE
 70
     3
  9
$SHADEDIF
 70
    70
  9
$TILEMODE
 70
     1
  9
$MAXACTVP
 70
    64
  9
$PLIMCHECK
 70
     0
  9
$PEXTMIN
 10
1.000000000000000E+20
 20
1.000000000000000E+20
 30
1.000000000000000E+20
  9
$PEXTMAX
 10
-1.000000000000000E+20
 20
-1.000000000000000E+20
 30
-1.000000000000000E+20
  9
$PLIMMIN
 10
-20.0
 20
-7.5
  9
$PLIMMAX
 10
277.0
 20
202.5
  9
$UNITMODE
 70
     0
  9
$VISRETAIN
 70
     1
  9
$PLINEGEN
 70
     0
  9
$PSLTSCALE
 70
     1
  0
ENDSEC
  0
SECTION
  2
TABLES
  0
TABLE
  2
VPORT
 70
     1
  0
VPORT
  2
*ACTIVE
 70
     0
 10
0.0
 20
0.0
 11
1.0
 21
1.0
 12
0.0
 22
-3.531814999999369
 13
0.0
 23
0.0
 14
0.5
 24
0.5
 15
0.5
 25
0.5
 16
0.0
 26
0.0
 36
1.0
 17
0.0
 27
0.0
 37
0.0
 40
5341.2726
 41
2.218809980806142
 42
2000.0
 43
0.0
 44
0.0
 50
0.0
 51
0.0
 71
     0
 72
   100
 73
     1
 74
     3
 75
     0
 76
     0
 77
     0
 78
     0
  0
ENDTAB
  0
TABLE
  2
LTYPE
 70
    13
  0
LTYPE
  2
CONTINUOUS
 70
     0
  3
Solid line
 72
    65
 73
     0
 40
0.0
  0
ENDTAB
  0
TABLE
  2
LAYER
 70
     5
  0
LAYER
  2
0
 70
     0
 62
     7
  6
CONTINUOUS
  0
LAYER
  2
HIBINO-BASE
 70
     0
 62
     7
  6
CONTINUOUS
  0
LAYER
  2
SPEC
 70
     0
 62
     7
  6
CONTINUOUS
  0
LAYER
  2
DIMNSIONS
 70
     0
 62
     7
  6
CONTINUOUS
  0
LAYER
  2
DATA
 70
     0
 62
     7
  6
CONTINUOUS
  0
ENDTAB
  0
TABLE
  2
STYLE
 70
     2
  0
STYLE
  2
STANDARD
 70
     0
 40
0.0
 41
1.0
 50
0.0
 71
     0
 42
0.2
  3
txt
  4
BIGFONT.SHX
  0
ENDTAB
  0
TABLE
  2
VIEW
 70
     0
  0
ENDTAB
  0
TABLE
  2
UCS
 70
     0
  0
ENDTAB
  0
TABLE
  2
APPID
 70
     5
  0
APPID
  2
ACAD
 70
     0
  0
APPID
  2
ACAECLAYERSTANDARD
 70
     0
  0
APPID
  2
ACCMTRANSPARENCY
 70
     0
  0
APPID
  2
ACAD_MLEADERVER
 70
     0
  0
APPID
  2
ACADANNOPO
 70
     0
  0
ENDTAB
  0
TABLE
  2
DIMSTYLE
 70
     1
  0
DIMSTYLE
  2
STANDARD
 70
     0
  3

  4

  5

  6

  7

 40
1.0
 41
0.18
 42
0.0625
 43
0.38
 44
0.18
 45
0.0
 46
0.0
 47
0.0
 48
0.0
140
0.18
141
0.09
142
0.0
143
25.4
144
1.0
145
0.0
146
1.0
147
0.09
 71
     0
 72
     0
 73
     1
 74
     1
 75
     0
 76
     0
 77
     0
 78
     0
170
     0
171
     2
172
     0
173
     0
174
     0
175
     0
176
     0
177
     0
178
     0
  0
ENDTAB
  0
ENDSEC
  0
SECTION
  2
BLOCKS
  0
BLOCK
  8
DATA
  2
$MODEL_SPACE
 70
     0
 10
0.0
 20
0.0
 30
0.0
  3
$MODEL_SPACE
  1

  0
ENDBLK
  5
8107000000000037
  8
DATA
  0
BLOCK
 67
     1
  8
DATA
  2
$PAPER_SPACE
 70
     0
 10
0.0
 20
0.0
 30
0.0
  3
$PAPER_SPACE
  1

  0
ENDBLK
  5
8107000000000035
 67
     1
  8
DATA
  0
ENDSEC
  0
SECTION
  2
ENTITIES
  0
LINE
  5
72
  8
HIBINO-BASE
  6
CONTINUOUS
 62
     7
 10
-1800.0
 20
2667.104485
 30
0.0
 11
1800.0
 21
2667.104485
 31
0.0
  0
LINE
  5
73
  8
HIBINO-BASE
  6
CONTINUOUS
 62
     7
 10
1800.0
 20
-2532.895514999999
 30
0.0
 11
-1800.0
 21
-2532.895514999999
 31
0.0
  0
LINE
  5
74
  8
HIBINO-BASE
  6
CONTINUOUS
 62
     7
 10
-1800.0
 20
-2532.895514999999
 30
0.0
 11
-1800.0
 21
2667.104485
 31
0.0
  0
LINE
  5
75
  8
HIBINO-BASE
  6
CONTINUOUS
 62
     7
 10
1800.0
 20
2667.104485
 30
0.0
 11
1800.0
 21
-2532.895514999999
 31
0.0
  0
LINE
  5
76
  8
HIBINO-BASE
  6
CONTINUOUS
 62
     7
 10
0.0000000000002842
 20
-2082.895514999999
 30
0.0
 11
1800.0
 21
-2082.895514999999
 31
0.0
  0
LINE
  5
77
  8
HIBINO-BASE
  6
CONTINUOUS
 62
     7
 10
0.0000000000002842
 20
-2532.895514999999
 30
0.0
 11
0.0000000000002842
 21
-2082.895514999999
 31
0.0
  0
TEXT
  5
78
  8
HIBINO-BASE
 62
     7
 10
18.0000000000004
 20
-2133.069381666666
 30
0.0
 40
32.49414062499999
  1
NOTE
 41
0.7
 11
18.0000000000004
 21
-2100.575241041666
 31
0.0
 73
     3
  0
LINE
  5
79
  8
HIBINO-BASE
  6
CONTINUOUS
 62
     7
 10
700.0000000000002
 20
-2532.895514999999
 30
0.0
 11
700.0000000000002
 21
-2082.895514999999
 31
0.0
  0
TEXT
  5
7A
  8
HIBINO-BASE
 62
     7
 10
717.9999999999998
 20
-2133.069381666666
 30
0.0
 40
32.49414062499999
  1
TITLE
 41
0.7
 11
717.9999999999998
 21
-2100.575241041666
 31
0.0
 73
     3
  0
LINE
  5
7B
  8
HIBINO-BASE
  6
CONTINUOUS
 62
     7
 10
0.0000000000002842
 20
-2332.895514999999
 30
0.0
 11
1800.0
 21
-2332.895514999999
 31
0.0
  0
TEXT
  5
7C
  8
HIBINO-BASE
 62
     7
 10
967.9999999999998
 20
-2381.942981666667
 30
0.0
 40
32.49414062499999
  1
DRAWN
 41
0.7
 11
967.9999999999998
 21
-2349.448841041667
 31
0.0
 73
     3
  0
TEXT
  5
7D
  8
HIBINO-BASE
 62
     7
 10
467.9999999999998
 20
-2381.942981666667
 30
0.0
 40
32.49414062499999
  1
DATE
 41
0.7
 11
467.9999999999998
 21
-2349.448841041667
 31
0.0
 73
     3
  0
TEXT
  5
7E
  8
HIBINO-BASE
 62
     7
 10
267.9999999999998
 20
-2381.942981666667
 30
0.0
 40
32.49414062499999
  1
SCALE
 41
0.7
 11
267.9999999999998
 21
-2349.448841041667
 31
0.0
 73
     3
  0
TEXT
  5
7F
  8
HIBINO-BASE
 62
     7
 10
717.9999999999998
 20
-2381.942981666667
 30
0.0
 40
32.49414062499999
  1
DESIGN
 41
0.7
 11
717.9999999999998
 21
-2349.448841041667
 31
0.0
 73
     3
  0
TEXT
  5
80
  8
HIBINO-BASE
 62
     7
 10
1468.0
 20
-2381.942981666667
 30
0.0
 40
32.49414062499999
  1
DRAWING NO.
 41
0.7
 11
1468.0
 21
-2349.448841041667
 31
0.0
 73
     3
  0
TEXT
  5
81
  8
HIBINO-BASE
 62
     7
 10
1218.0
 20
-2381.942981666667
 30
0.0
 40
32.49414062499999
  1
CHECK
 41
0.7
 11
1218.0
 21
-2349.448841041667
 31
0.0
 73
     3
  0
LINE
  5
82
  8
HIBINO-BASE
  6
CONTINUOUS
 62
     7
 10
287.5000000000003
 20
-2507.895514999999
 30
0.0
 11
362.5000000000003
 21
-2432.895514999999
 31
0.0
  0
TEXT
  5
83
  8
HIBINO-BASE
 62
     7
 10
275.0000000000003
 20
-2455.074381666666
 30
0.0
 40
32.49414062499999
  1
1
 41
0.7
 11
275.0000000000003
 21
-2422.580241041666
 31
0.0
 73
     3
  0
LINE
  5
84
  8
HIBINO-BASE
  6
CONTINUOUS
 62
     7
 10
250.0000000000003
 20
-2532.895514999999
 30
0.0
 11
250.0000000000003
 21
-2332.895514999999
 31
0.0
  0
LINE
  5
85
  8
HIBINO-BASE
  6
CONTINUOUS
 62
     7
 10
449.9999999999997
 20
-2532.895514999999
 30
0.0
 11
449.9999999999997
 21
-2332.895514999999
 31
0.0
  0
LINE
  5
86
  8
HIBINO-BASE
  6
CONTINUOUS
 62
     7
 10
949.9999999999998
 20
-2332.895514999999
 30
0.0
 11
949.9999999999998
 21
-2532.895514999999
 31
0.0
  0
LINE
  5
87
  8
HIBINO-BASE
  6
CONTINUOUS
 62
     7
 10
1450.0
 20
-2332.895514999999
 30
0.0
 11
1450.0
 21
-2532.895514999999
 31
0.0
  0
LINE
  5
88
  8
HIBINO-BASE
  6
CONTINUOUS
 62
     7
 10
1200.0
 20
-2532.895514999999
 30
0.0
 11
1200.0
 21
-2332.895514999999
 31
0.0
  0
TEXT
  5
89
  8
HIBINO-BASE
 62
     7
 10
467.1308000000002
 20
-2475.622581666666
 30
0.0
 40
32.49414062499999
  1
'22.03.
 41
0.7
 11
467.1308000000002
 21
-2443.128441041666
 31
0.0
 73
     3
  0
TEXT
  5
8A
  8
HIBINO-BASE
 62
     7
 10
350.0000000000003
 20
-2492.574381666666
 30
0.0
 40
32.49414062499999
  1
20
 41
0.7
 11
350.0000000000003
 21
-2460.080241041666
 31
0.0
 73
     3
  0
TEXT
  5
8B
  8
HIBINO-BASE
 62
     7
 10
980.1162002206925
 20
-2475.622581666666
 30
0.0
 40
32.49414062499999
  1
N.Sasaki
 41
0.7
 11
980.1162002206925
 21
-2443.128441041666
 31
0.0
 73
     3
  0
TEXT
  5
8C
  8
HIBINO-BASE
 62
     7
 10
77.66666666666737
 20
-2493.375514999999
 30
0.0
 40
64.98828124999999
  1
A4
 41
0.7
 11
77.66666666666737
 21
-2428.387233749999
 31
0.0
 73
     3
  0
TEXT
  5
8D
  8
HIBINO-BASE
 62
     7
 10
19.16666666666657
 20
-2385.284615
 30
0.0
 40
32.49414062499999
  1
PAPER SIZE
 41
0.7
 11
19.16666666666657
 21
-2352.790474375
 31
0.0
 73
     3
  0
TEXT
  5
8E
  8
HIBINO-BASE
 62
     7
 10
-1656.319999999999
 20
-2661.069070999999
 30
0.0
 40
71.81814023437498
  1
Hibino Corporation
 41
0.7
 11
-1656.319999999999
 21
-2589.250930765624
 31
0.0
 73
     3
  0
TEXT
  5
8F
  8
HIBINO-BASE
 62
     7
 10
1001.3678
 20
-2661.069070999999
 30
0.0
 40
71.81814023437498
  1
ヒビノ株式会社
 41
0.7
 11
1001.3678
 21
-2589.250930765624
 31
0.0
 73
     3
  0
LINE
  5
90
  8
SPEC
  6
CONTINUOUS
 62
     7
 10
-1650.0
 20
2467.104485000001
 30
0.0
 11
1300.0
 21
2467.104485000001
 31
0.0
  0
LINE
  5
91
  8
SPEC
  6
CONTINUOUS
 62
     7
 10
-1650.0
 20
2392.104485
 30
0.0
 11
1300.0
 21
2392.104485
 31
0.0
  0
LINE
  5
92
  8
SPEC
  6
CONTINUOUS
 62
     7
 10
-1650.0
 20
2467.104485000001
 30
0.0
 11
-1650.0
 21
2317.104485
 31
0.0
  0
TEXT
  5
93
  8
SPEC
 62
     7
 10
-1625.0
 20
2494.969885
 30
0.0
 40
48.74121093749999
  1
仕様
 41
0.7
 11
-1625.0
 21
2543.7110959375
 31
0.0
 73
     3
  0
LINE
  5
94
  8
SPEC
  6
CONTINUOUS
 62
     7
 10
-1000.0
 20
2467.104485000001
 30
0.0
 11
-1000.0
 21
2317.104485
 31
0.0
  0
LINE
  5
95
  8
SPEC
  6
CONTINUOUS
 62
     7
 10
1300.0
 20
2467.104485000001
 30
0.0
 11
1300.0
 21
2317.104485
 31
0.0
  0
TEXT
  5
96
  8
SPEC
 62
     7
 10
-1632.0
 20
2407.862840555556
 30
0.0
 40
37.90983072916666
  1
寸法(W×H×D)
 41
0.7
 11
-1632.0
 21
2445.772671284723
 31
0.0
 73
     3
  0
TEXT
  5
97
  8
SPEC
 62
     7
 10
-1632.0
 20
2332.862840555556
 30
0.0
 40
37.90983072916666
  1
質量
 41
0.7
 11
-1632.0
 21
2370.772671284723
 31
0.0
 73
     3
  0
LINE
  5
98
  8
SPEC
  6
CONTINUOUS
 62
     7
 10
-1650.0
 20
2317.104485
 30
0.0
 11
1300.0
 21
2317.104485
 31
0.0
  0
TEXT
  5
99
  8
SPEC
 62
     7
 10
-981.9999999999998
 20
2407.862840555556
 30
0.0
 40
37.90983072916666
  1
1319×127×509mm
 41
0.7
 11
-981.9999999999998
 21
2445.772671284723
 31
0.0
 73
     3
  0
TEXT
  5
9A
  8
SPEC
 62
     7
 10
-981.9999999999998
 20
2332.862840555556
 30
0.0
 40
37.90983072916666
  1
13kg
 41
0.7
 11
-981.9999999999998
 21
2370.772671284723
 31
0.0
 73
     3
  0
TEXT
  5
9B
  8
DIMNSIONS
 62
     7
 10
-399.9999999999999
 20
-2287.505714999999
 30
0.0
 40
48.74121093749999
  1
(単位：mm)
 41
0.7
 11
-399.9999999999999
 21
-2238.764504062499
 31
0.0
 73
     3
  0
LINE
  5
9C
  8
DIMNSIONS
  6
CONTINUOUS
 62
     7
 10
-659.2526614920405
 20
-907.4599330800002
 30
0.0
 11
-659.2526614920405
 21
-1095.0
 31
0.0
  0
LINE
  5
9D
  8
DIMNSIONS
  6
CONTINUOUS
 62
     7
 10
659.2526614920407
 20
-907.4599330800002
 30
0.0
 11
659.2526614920407
 21
-1095.0
 31
0.0
  0
LINE
  5
9E
  8
DIMNSIONS
  6
CONTINUOUS
 62
     7
 10
-659.2526614920405
 20
-1075.0
 30
0.0
 11
659.2526614920407
 21
-1075.0
 31
0.0
  0
POLYLINE
  5
9F
  8
DIMNSIONS
  6
CONTINUOUS
 62
     7
 66
     1
 10
0.0
 20
0.0
 30
0.0
 70
   128
  0
VERTEX
  5
8107000000000081
  8
DIMNSIONS
  6
CONTINUOUS
 62
     7
 10
-619.2551028982905
 20
-1085.717313524412
 30
0.0
  0
VERTEX
  5
8107000000000082
  8
DIMNSIONS
  6
CONTINUOUS
 62
     7
 10
-659.2526614920405
 20
-1075.0
 30
0.0
  0
VERTEX
  5
8107000000000083
  8
DIMNSIONS
  6
CONTINUOUS
 62
     7
 10
-619.2551028982905
 20
-1064.282686475588
 30
0.0
  0
SEQEND
  5
81070000000000F9
  8
DIMNSIONS
  6
CONTINUOUS
 62
     7
  0
POLYLINE
  5
A4
  8
DIMNSIONS
  6
CONTINUOUS
 62
     7
 66
     1
 10
0.0
 20
0.0
 30
0.0
 70
   128
  0
VERTEX
  5
8107000000000084
  8
DIMNSIONS
  6
CONTINUOUS
 62
     7
 10
619.2551028982907
 20
-1064.282686475588
 30
0.0
  0
VERTEX
  5
8107000000000085
  8
DIMNSIONS
  6
CONTINUOUS
 62
     7
 10
659.2526614920407
 20
-1075.0
 30
0.0
  0
VERTEX
  5
8107000000000086
  8
DIMNSIONS
  6
CONTINUOUS
 62
     7
 10
619.2551028982907
 20
-1085.717313524412
 30
0.0
  0
SEQEND
  5
81070000000000FA
  8
DIMNSIONS
  6
CONTINUOUS
 62
     7
  0
TEXT
  5
A9
  8
DIMNSIONS
 62
     7
 10
-70.55555555555544
 20
-1055.122222222222
 30
0.0
 40
54.15690104166671
  1
1319
 41
0.7
 11
-70.55555555555544
 21
-1000.965321180556
 31
0.0
 73
     3
  0
LINE
  5
AA
  8
DIMNSIONS
  6
CONTINUOUS
 62
     7
 10
-670.5526768392706
 20
-245.5
 30
0.0
 11
-745.0
 21
-245.5
 31
0.0
  0
LINE
  5
AB
  8
DIMNSIONS
  6
CONTINUOUS
 62
     7
 10
-670.5526703148485
 20
-754.5000041806379
 30
0.0
 11
-745.0
 21
-754.5000041806379
 31
0.0
  0
LINE
  5
AC
  8
DIMNSIONS
  6
CONTINUOUS
 62
     7
 10
-725.0
 20
-245.5
 30
0.0
 11
-725.0
 21
-754.5000041806379
 31
0.0
  0
POLYLINE
  5
AD
  8
DIMNSIONS
  6
CONTINUOUS
 62
     7
 66
     1
 10
0.0
 20
0.0
 30
0.0
 70
   128
  0
VERTEX
  5
8107000000000087
  8
DIMNSIONS
  6
CONTINUOUS
 62
     7
 10
-735.7173135244118
 20
-285.49755859375
 30
0.0
  0
VERTEX
  5
8107000000000088
  8
DIMNSIONS
  6
CONTINUOUS
 62
     7
 10
-725.0
 20
-245.5
 30
0.0
  0
VERTEX
  5
8107000000000089
  8
DIMNSIONS
  6
CONTINUOUS
 62
     7
 10
-714.2826864755882
 20
-285.49755859375
 30
0.0
  0
SEQEND
  5
81070000000000FB
  8
DIMNSIONS
  6
CONTINUOUS
 62
     7
  0
POLYLINE
  5
B2
  8
DIMNSIONS
  6
CONTINUOUS
 62
     7
 66
     1
 10
0.0
 20
0.0
 30
0.0
 70
   128
  0
VERTEX
  5
810700000000008A
  8
DIMNSIONS
  6
CONTINUOUS
 62
     7
 10
-714.2826864755882
 20
-714.5024455868879
 30
0.0
  0
VERTEX
  5
810700000000008B
  8
DIMNSIONS
  6
CONTINUOUS
 62
     7
 10
-725.0
 20
-754.5000041806379
 30
0.0
  0
VERTEX
  5
810700000000008C
  8
DIMNSIONS
  6
CONTINUOUS
 62
     7
 10
-735.7173135244118
 20
-714.5024455868879
 30
0.0
  0
SEQEND
  5
81070000000000FC
  8
DIMNSIONS
  6
CONTINUOUS
 62
     7
  0
TEXT
  5
B7
  8
DIMNSIONS
 62
     7
 10
-744.8777777777777
 20
-552.9166687569857
 30
0.0
 40
54.15690104166671
  1
509
 50
90.0
 41
0.7
 11
-799.0346788194445
 21
-552.9166687569857
 31
0.0
 73
     3
  0
LINE
  5
B8
  8
DIMNSIONS
  6
CONTINUOUS
 62
     7
 10
-503.2526614920405
 20
-976.5974468046006
 30
0.0
 11
-745.0
 21
-976.5974468046006
 31
0.0
  0
LINE
  5
B9
  8
DIMNSIONS
  6
CONTINUOUS
 62
     7
 10
-680.7526664920399
 20
-850.0
 30
0.0
 11
-745.0
 21
-850.0
 31
0.0
  0
LINE
  5
BA
  8
DIMNSIONS
  6
CONTINUOUS
 62
     7
 10
-725.0
 20
-976.5974468046006
 30
0.0
 11
-725.0
 21
-850.0
 31
0.0
  0
POLYLINE
  5
BB
  8
DIMNSIONS
  6
CONTINUOUS
 62
     7
 66
     1
 10
0.0
 20
0.0
 30
0.0
 70
   128
  0
VERTEX
  5
810700000000008D
  8
DIMNSIONS
  6
CONTINUOUS
 62
     7
 10
-714.2826864755882
 20
-936.5998882108506
 30
0.0
  0
VERTEX
  5
810700000000008E
  8
DIMNSIONS
  6
CONTINUOUS
 62
     7
 10
-725.0
 20
-976.5974468046006
 30
0.0
  0
VERTEX
  5
810700000000008F
  8
DIMNSIONS
  6
CONTINUOUS
 62
     7
 10
-735.7173135244118
 20
-936.5998882108506
 30
0.0
  0
SEQEND
  5
81070000000000FD
  8
DIMNSIONS
  6
CONTINUOUS
 62
     7
  0
POLYLINE
  5
C0
  8
DIMNSIONS
  6
CONTINUOUS
 62
     7
 66
     1
 10
0.0
 20
0.0
 30
0.0
 70
   128
  0
VERTEX
  5
8107000000000090
  8
DIMNSIONS
  6
CONTINUOUS
 62
     7
 10
-735.7173135244118
 20
-889.99755859375
 30
0.0
  0
VERTEX
  5
8107000000000091
  8
DIMNSIONS
  6
CONTINUOUS
 62
     7
 10
-725.0
 20
-850.0
 30
0.0
  0
VERTEX
  5
8107000000000092
  8
DIMNSIONS
  6
CONTINUOUS
 62
     7
 10
-714.2826864755882
 20
-889.99755859375
 30
0.0
  0
SEQEND
  5
81070000000000FE
  8
DIMNSIONS
  6
CONTINUOUS
 62
     7
  0
TEXT
  5
C5
  8
DIMNSIONS
 62
     7
 10
-744.8777777777777
 20
-966.215390068967
 30
0.0
 40
54.15690104166671
  1
127
 50
90.0
 41
0.7
 11
-799.0346788194445
 21
-966.215390068967
 31
0.0
 73
     3
  0
CIRCLE
  5
C6
  8
DATA
  6
CONTINUOUS
 62
     7
 10
-649.7276704892706
 20
-348.2503037002957
 30
0.0
 40
7.999983999999699
  0
CIRCLE
  5
C7
  8
DATA
  6
CONTINUOUS
 62
     7
 10
-649.7276704892706
 20
-316.500367200294
 30
0.0
 40
7.999983999999699
  0
CIRCLE
  5
C8
  8
DATA
  6
CONTINUOUS
 62
     7
 10
-649.7276704892706
 20
-683.5296304282883
 30
0.0
 40
7.999983999999699
  0
CIRCLE
  5
C9
  8
DATA
  6
CONTINUOUS
 62
     7
 10
-649.7276704892706
 20
-651.7796966402943
 30
0.0
 40
7.999983999999699
  0
CIRCLE
  5
CA
  8
DATA
  6
CONTINUOUS
 62
     7
 10
649.7277305947296
 20
-683.529633140296
 30
0.0
 40
7.999983999997085
  0
CIRCLE
  5
CB
  8
DATA
  6
CONTINUOUS
 62
     7
 10
649.7277305947296
 20
-651.7796966402943
 30
0.0
 40
7.999983999999813
  0
CIRCLE
  5
CC
  8
DATA
  6
CONTINUOUS
 62
     7
 10
649.7277305947287
 20
-348.2503037002957
 30
0.0
 40
7.999983999999813
  0
CIRCLE
  5
CD
  8
DATA
  6
CONTINUOUS
 62
     7
 10
649.7277305947287
 20
-316.500367200294
 30
0.0
 40
7.999983999999813
  0
TEXT
  5
CE
  8
DATA
 62
     7
 10
-1760.0
 20
-2375.369959444444
 30
0.0
 40
37.90983072916666
  1
※仕様及び外観は予告なく変更されることがあります。 
 41
0.7
 11
-1760.0
 21
-2337.460128715277
 31
0.0
 73
     3
  0
TEXT
  5
CF
  8
DATA
 62
     7
 10
-1760.0
 20
-2424.758848333333
 30
0.0
 40
37.90983072916666
  1
　また、同一商品でも若干の個体差があることがあります。ご了承ください。
 41
0.7
 11
-1760.0
 21
-2386.849017604166
 31
0.0
 73
     3
  0
TEXT
  5
D0
  8
DATA
 62
     7
 10
1000.0
 20
-2165.277714999999
 30
0.0
 40
48.74121093749999
  1
JBL PROFESSIONAL
 41
0.7
 11
1000.0
 21
-2116.536504062499
 31
0.0
 73
     3
  0
TEXT
  5
D1
  8
DATA
 62
     7
 10
1000.0
 20
-2310.277714999999
 30
0.0
 40
48.74121093749999
  1
VTX-B28-ACC
 41
0.7
 11
1000.0
 21
-2261.536504062499
 31
0.0
 73
     3
  0
TEXT
  5
D2
  8
DATA
 62
     7
 10
949.9999999999998
 20
-2237.356814999999
 30
0.0
 40
37.90983072916666
  1
VTX-B28用キャスター付き台車
 41
0.7
 11
949.9999999999998
 21
-2199.446984270833
 31
0.0
 73
     3
  0
ARC
  5
D3
  8
DATA
  6
CONTINUOUS
 62
     7
 10
605.3554193395289
 20
-514.2874716252977
 30
0.0
 40
6.349987300000066
 50
180.0
 51
270.0
  0
ARC
  5
D4
  8
DATA
  6
CONTINUOUS
 62
     7
 10
605.3554193395289
 20
-485.712528775297
 30
0.0
 40
6.349987300000066
 50
90.0
 51
180.0
  0
CIRCLE
  5
D5
  8
DATA
  6
CONTINUOUS
 62
     7
 10
605.6094188315296
 20
-487.3000256002956
 30
0.0
 40
4.000491999000133
  0
CIRCLE
  5
D6
  8
DATA
  6
CONTINUOUS
 62
     7
 10
605.6094188315296
 20
-512.6999748002959
 30
0.0
 40
4.000491999000133
  0
CIRCLE
  5
D7
  8
DATA
  6
CONTINUOUS
 62
     7
 10
632.1523657455305
 20
-487.3000256002956
 30
0.0
 40
4.000491999000133
  0
CIRCLE
  5
D8
  8
DATA
  6
CONTINUOUS
 62
     7
 10
632.1523657455286
 20
-512.6999748002959
 30
0.0
 40
4.000491999000133
  0
ARC
  5
D9
  8
DATA
  6
CONTINUOUS
 62
     7
 10
-605.3553592340709
 20
-485.712528775297
 30
0.0
 40
6.349987300000066
 50
0.0
 51
90.0
  0
ARC
  5
DA
  8
DATA
  6
CONTINUOUS
 62
     7
 10
-605.35535923407
 20
-514.2874716252977
 30
0.0
 40
6.349987300000066
 50
270.0
 51
0.0
  0
CIRCLE
  5
DB
  8
DATA
  6
CONTINUOUS
 62
     7
 10
-605.6093587260707
 20
-512.6999748002986
 30
0.0
 40
4.000491999000133
  0
CIRCLE
  5
DC
  8
DATA
  6
CONTINUOUS
 62
     7
 10
-605.6093587260707
 20
-487.3000256002988
 30
0.0
 40
4.000491998999678
  0
CIRCLE
  5
DD
  8
DATA
  6
CONTINUOUS
 62
     7
 10
-632.1523056400706
 20
-512.6999748002986
 30
0.0
 40
4.000491999000133
  0
CIRCLE
  5
DE
  8
DATA
  6
CONTINUOUS
 62
     7
 10
-632.1523056400706
 20
-487.3000256002988
 30
0.0
 40
4.000491999000133
  0
CIRCLE
  5
DF
  8
DATA
  6
CONTINUOUS
 62
     7
 10
-632.1523056400706
 20
-512.6999748002986
 30
0.0
 40
3.555992888000219
  0
CIRCLE
  5
E0
  8
DATA
  6
CONTINUOUS
 62
     7
 10
-632.1523056400706
 20
-487.3000256002988
 30
0.0
 40
3.555992887999764
  0
CIRCLE
  5
E1
  8
DATA
  6
CONTINUOUS
 62
     7
 10
-605.6093587260707
 20
-487.3000256002988
 30
0.0
 40
3.555992887999764
  0
CIRCLE
  5
E2
  8
DATA
  6
CONTINUOUS
 62
     7
 10
605.6094188315296
 20
-512.6999748002959
 30
0.0
 40
3.555992888000219
  0
CIRCLE
  5
E3
  8
DATA
  6
CONTINUOUS
 62
     7
 10
632.1523657455286
 20
-487.3000256002956
 30
0.0
 40
3.555992888000219
  0
CIRCLE
  5
E4
  8
DATA
  6
CONTINUOUS
 62
     7
 10
632.1523657455286
 20
-512.6999748002959
 30
0.0
 40
3.555992888000219
  0
CIRCLE
  5
E5
  8
DATA
  6
CONTINUOUS
 62
     7
 10
605.6094188315296
 20
-487.3000256002956
 30
0.0
 40
3.555992888000219
  0
CIRCLE
  5
E6
  8
DATA
  6
CONTINUOUS
 62
     7
 10
-605.6093587260707
 20
-512.6999748002986
 30
0.0
 40
3.555992888000219
  0
CIRCLE
  5
E7
  8
DATA
  6
CONTINUOUS
 62
     7
 10
590.87744829553
 20
-529.2099417802951
 30
0.0
 40
1.487484524982847
  0
CIRCLE
  5
E8
  8
DATA
  6
CONTINUOUS
 62
     7
 10
632.7873644755305
 20
-529.2099417802951
 30
0.0
 40
1.487484524982847
  0
CIRCLE
  5
E9
  8
DATA
  6
CONTINUOUS
 62
     7
 10
555.3175194155297
 20
-519.0499621002946
 30
0.0
 40
1.487484524982392
  0
CIRCLE
  5
EA
  8
DATA
  6
CONTINUOUS
 62
     7
 10
-555.3174593100707
 20
-480.9500383002942
 30
0.0
 40
1.487484524982847
  0
CIRCLE
  5
EB
  8
DATA
  6
CONTINUOUS
 62
     7
 10
555.3175194155297
 20
-480.9500383002942
 30
0.0
 40
1.487484524982847
  0
CIRCLE
  5
EC
  8
DATA
  6
CONTINUOUS
 62
     7
 10
590.87744829553
 20
-470.7900586202936
 30
0.0
 40
1.487484524982847
  0
CIRCLE
  5
ED
  8
DATA
  6
CONTINUOUS
 62
     7
 10
632.7873644755305
 20
-470.7900586202936
 30
0.0
 40
1.487484524982847
  0
CIRCLE
  5
EE
  8
DATA
  6
CONTINUOUS
 62
     7
 10
649.7277305947287
 20
-316.500367200294
 30
0.0
 40
2.599994799999877
  0
ARC
  5
EF
  8
DATA
  6
CONTINUOUS
 62
     7
 10
649.7277305947287
 20
-316.500367200294
 30
0.0
 40
7.499984999999946
 50
286.9364063081746
 51
335.941830880876
  0
ARC
  5
F0
  8
DATA
  6
CONTINUOUS
 62
     7
 10
649.7277305947287
 20
-316.500367200294
 30
0.0
 40
7.499985000000098
 50
196.9364063082141
 51
245.9418664663981
  0
ARC
  5
F1
  8
DATA
  6
CONTINUOUS
 62
     7
 10
649.7277305947287
 20
-316.500367200294
 30
0.0
 40
7.499984999999946
 50
106.9364063081746
 51
155.9417847688463
  0
ARC
  5
F2
  8
DATA
  6
CONTINUOUS
 62
     7
 10
649.7277305947287
 20
-316.500367200294
 30
0.0
 40
7.499985000000098
 50
16.93640630821416
 51
65.94174918344036
  0
CIRCLE
  5
F3
  8
DATA
  6
CONTINUOUS
 62
     7
 10
-590.8773881900711
 20
-470.7900586202936
 30
0.0
 40
2.599994800000331
  0
ARC
  5
F4
  8
DATA
  6
CONTINUOUS
 62
     7
 10
-590.8773881900711
 20
-470.7900586202936
 30
0.0
 40
7.499985000000069
 50
243.6936359630833
 51
292.6988923398948
  0
ARC
  5
F5
  8
DATA
  6
CONTINUOUS
 62
     7
 10
-590.8773881900711
 20
-470.7900586202936
 30
0.0
 40
7.499985000000069
 50
153.6936359630833
 51
202.6989708032003
  0
ARC
  5
F6
  8
DATA
  6
CONTINUOUS
 62
     7
 10
-590.8773881900711
 20
-470.7900586202936
 30
0.0
 40
7.499985000000069
 50
63.69363596308325
 51
112.69894782588
  0
ARC
  5
F7
  8
DATA
  6
CONTINUOUS
 62
     7
 10
-590.8773881900711
 20
-470.7900586202936
 30
0.0
 40
7.499985000000069
 50
333.6936359630833
 51
22.69907940128684
  0
CIRCLE
  5
F8
  8
DATA
  6
CONTINUOUS
 62
     7
 10
-555.3174593100707
 20
-519.0499621002946
 30
0.0
 40
2.599994799999877
  0
ARC
  5
F9
  8
DATA
  6
CONTINUOUS
 62
     7
 10
-555.3174593100707
 20
-519.0499621002946
 30
0.0
 40
7.499984999999707
 50
290.7657979666519
 51
339.7712110394875
  0
ARC
  5
FA
  8
DATA
  6
CONTINUOUS
 62
     7
 10
-555.3174593100707
 20
-519.0499621002946
 30
0.0
 40
7.499985000000219
 50
200.765797966721
 51
249.7711995538824
  0
ARC
  5
FB
  8
DATA
  6
CONTINUOUS
 62
     7
 10
-555.3174593100707
 20
-519.0499621002946
 30
0.0
 40
7.499985000000132
 50
110.7657979666506
 51
159.7712077608823
  0
ARC
  5
FC
  8
DATA
  6
CONTINUOUS
 62
     7
 10
-555.3174593100707
 20
-519.0499621002946
 30
0.0
 40
7.499985000000219
 50
20.76579796672097
 51
69.77112647783925
  0
CIRCLE
  5
FD
  8
DATA
  6
CONTINUOUS
 62
     7
 10
649.7277305947287
 20
-348.2503037002957
 30
0.0
 40
2.599994799999877
  0
ARC
  5
FE
  8
DATA
  6
CONTINUOUS
 62
     7
 10
649.7277305947287
 20
-348.2503037002957
 30
0.0
 40
7.49998499999982
 50
259.5179117635612
 51
308.5231470798211
  0
ARC
  5
FF
  8
DATA
  6
CONTINUOUS
 62
     7
 10
649.7277305947287
 20
-348.2503037002957
 30
0.0
 40
7.499985000000367
 50
169.517911763615
 51
218.5234448606218
  0
ARC
  5
100
  8
DATA
  6
CONTINUOUS
 62
     7
 10
649.7277305947287
 20
-348.2503037002957
 30
0.0
 40
7.499985000000267
 50
79.5179117635619
 51
128.5234659525958
  0
ARC
  5
101
  8
DATA
  6
CONTINUOUS
 62
     7
 10
649.7277305947287
 20
-348.2503037002957
 30
0.0
 40
7.499985000000367
 50
349.517911763615
 51
38.52316817190076
  0
CIRCLE
  5
102
  8
DATA
  6
CONTINUOUS
 62
     7
 10
-649.7276704892706
 20
-348.2503037002957
 30
0.0
 40
2.599994799999877
  0
ARC
  5
103
  8
DATA
  6
CONTINUOUS
 62
     7
 10
-649.7276704892706
 20
-348.2503037002957
 30
0.0
 40
7.499985000000214
 50
292.6915190002715
 51
341.6968966955183
  0
ARC
  5
104
  8
DATA
  6
CONTINUOUS
 62
     7
 10
-649.7276704892706
 20
-348.2503037002957
 30
0.0
 40
7.499985000000406
 50
202.6915190001579
 51
251.6967361208629
  0
ARC
  5
105
  8
DATA
  6
CONTINUOUS
 62
     7
 10
-649.7276704892706
 20
-348.2503037002957
 30
0.0
 40
7.499985000000214
 50
112.6915190002715
 51
161.6969296651762
  0
ARC
  5
106
  8
DATA
  6
CONTINUOUS
 62
     7
 10
-649.7276704892706
 20
-348.2503037002957
 30
0.0
 40
7.499985000000581
 50
22.69151900016108
 51
71.69694558457692
  0
CIRCLE
  5
107
  8
DATA
  6
CONTINUOUS
 62
     7
 10
590.87744829553
 20
-529.2099417802951
 30
0.0
 40
2.599994799999877
  0
ARC
  5
108
  8
DATA
  6
CONTINUOUS
 62
     7
 10
590.87744829553
 20
-529.2099417802951
 30
0.0
 40
7.499985000000211
 50
106.9364063081812
 51
155.9418644208761
  0
ARC
  5
109
  8
DATA
  6
CONTINUOUS
 62
     7
 10
590.87744829553
 20
-529.2099417802951
 30
0.0
 40
7.499984999999966
 50
196.9364063082109
 51
245.9418616437781
  0
ARC
  5
10A
  8
DATA
  6
CONTINUOUS
 62
     7
 10
590.87744829553
 20
-529.2099417802951
 30
0.0
 40
7.499985000000098
 50
16.93640630821416
 51
65.94177720937118
  0
ARC
  5
10B
  8
DATA
  6
CONTINUOUS
 62
     7
 10
590.87744829553
 20
-529.2099417802951
 30
0.0
 40
7.499984999999946
 50
286.9364063081746
 51
335.9416992543473
  0
CIRCLE
  5
10C
  8
DATA
  6
CONTINUOUS
 62
     7
 10
-649.7276704892706
 20
-316.500367200294
 30
0.0
 40
2.599994799999877
  0
ARC
  5
10D
  8
DATA
  6
CONTINUOUS
 62
     7
 10
-649.7276704892706
 20
-316.500367200294
 30
0.0
 40
7.499985000000214
 50
292.6915190002715
 51
341.696850005916
  0
ARC
  5
10E
  8
DATA
  6
CONTINUOUS
 62
     7
 10
-649.7276704892706
 20
-316.500367200294
 30
0.0
 40
7.499985000000406
 50
202.6915190001579
 51
251.6967515648232
  0
ARC
  5
10F
  8
DATA
  6
CONTINUOUS
 62
     7
 10
-649.7276704892706
 20
-316.500367200294
 30
0.0
 40
7.499985000000214
 50
112.6915190002715
 51
162.0021428259923
  0
ARC
  5
110
  8
DATA
  6
CONTINUOUS
 62
     7
 10
-649.7276704892706
 20
-316.500367200294
 30
0.0
 40
7.499985000000581
 50
22.69151900016108
 51
71.69693014075477
  0
CIRCLE
  5
111
  8
DATA
  6
CONTINUOUS
 62
     7
 10
-649.7276704892706
 20
-651.7796966402943
 30
0.0
 40
2.599994800000331
  0
ARC
  5
112
  8
DATA
  6
CONTINUOUS
 62
     7
 10
-649.7276704892706
 20
-651.7796966402943
 30
0.0
 40
7.499985000000581
 50
202.6915190001611
 51
251.6967364812251
  0
ARC
  5
113
  8
DATA
  6
CONTINUOUS
 62
     7
 10
-649.7276704892706
 20
-651.7796966402943
 30
0.0
 40
7.499985000000406
 50
22.69151900015788
 51
71.69693628682163
  0
ARC
  5
114
  8
DATA
  6
CONTINUOUS
 62
     7
 10
-649.7276704892706
 20
-651.7796966402943
 30
0.0
 40
7.499985000000214
 50
112.6915190002715
 51
161.6969037352645
  0
ARC
  5
115
  8
DATA
  6
CONTINUOUS
 62
     7
 10
-649.7276704892706
 20
-651.7796966402943
 30
0.0
 40
7.499985000000214
 50
292.6915190002715
 51
341.6968415672212
  0
CIRCLE
  5
116
  8
DATA
  6
CONTINUOUS
 62
     7
 10
649.7277305947296
 20
-683.529633140296
 30
0.0
 40
2.599994799999877
  0
ARC
  5
117
  8
DATA
  6
CONTINUOUS
 62
     7
 10
649.7277305947296
 20
-683.529633140296
 30
0.0
 40
7.499984999999267
 50
198.0437718906848
 51
247.0492389466827
  0
ARC
  5
118
  8
DATA
  6
CONTINUOUS
 62
     7
 10
649.7277305947296
 20
-683.529633140296
 30
0.0
 40
7.49998499999985
 50
108.0437718906761
 51
157.0491911869341
  0
ARC
  5
119
  8
DATA
  6
CONTINUOUS
 62
     7
 10
649.7277305947296
 20
-683.529633140296
 30
0.0
 40
7.499985000000856
 50
18.04377189067722
 51
67.04905984889483
  0
ARC
  5
11A
  8
DATA
  6
CONTINUOUS
 62
     7
 10
649.7277305947296
 20
-683.529633140296
 30
0.0
 40
7.499985000000283
 50
288.043771890675
 51
337.0491076083159
  0
CIRCLE
  5
11B
  8
DATA
  6
CONTINUOUS
 62
     7
 10
590.87744829553
 20
-470.7900586202936
 30
0.0
 40
2.599994799999877
  0
ARC
  5
11C
  8
DATA
  6
CONTINUOUS
 62
     7
 10
590.87744829553
 20
-470.7900586202936
 30
0.0
 40
7.499985000000098
 50
196.9364063082141
 51
245.9418771845541
  0
ARC
  5
11D
  8
DATA
  6
CONTINUOUS
 62
     7
 10
590.87744829553
 20
-470.7900586202936
 30
0.0
 40
7.499985000000211
 50
106.9364063081812
 51
155.941847257074
  0
ARC
  5
11E
  8
DATA
  6
CONTINUOUS
 62
     7
 10
590.87744829553
 20
-470.7900586202936
 30
0.0
 40
7.499984999999681
 50
286.9364063081679
 51
335.9416644442501
  0
ARC
  5
11F
  8
DATA
  6
CONTINUOUS
 62
     7
 10
590.87744829553
 20
-470.7900586202936
 30
0.0
 40
7.499985000000098
 50
16.93640630821416
 51
65.9417848721088
  0
CIRCLE
  5
120
  8
DATA
  6
CONTINUOUS
 62
     7
 10
555.3175194155297
 20
-480.9500383002942
 30
0.0
 40
2.599994799999877
  0
ARC
  5
121
  8
DATA
  6
CONTINUOUS
 62
     7
 10
555.3175194155297
 20
-480.9500383002942
 30
0.0
 40
7.499984999999736
 50
108.9394420140516
 51
157.9447496699444
  0
ARC
  5
122
  8
DATA
  6
CONTINUOUS
 62
     7
 10
555.3175194155297
 20
-480.9500383002942
 30
0.0
 40
7.49998500000036
 50
18.93944201396913
 51
67.94477325353333
  0
ARC
  5
123
  8
DATA
  6
CONTINUOUS
 62
     7
 10
555.3175194155297
 20
-480.9500383002942
 30
0.0
 40
7.499985000000167
 50
288.9394420140504
 51
337.9447462352944
  0
ARC
  5
124
  8
DATA
  6
CONTINUOUS
 62
     7
 10
555.3175194155297
 20
-480.9500383002942
 30
0.0
 40
7.49998500000036
 50
198.9394420139691
 51
247.9446712566517
  0
CIRCLE
  5
125
  8
DATA
  6
CONTINUOUS
 62
     7
 10
555.3175194155297
 20
-519.0499621002946
 30
0.0
 40
2.599994799999877
  0
ARC
  5
126
  8
DATA
  6
CONTINUOUS
 62
     7
 10
555.3175194155297
 20
-519.0499621002946
 30
0.0
 40
7.499984999999946
 50
286.9364063081746
 51
335.9418418815417
  0
ARC
  5
127
  8
DATA
  6
CONTINUOUS
 62
     7
 10
555.3175194155297
 20
-519.0499621002946
 30
0.0
 40
7.499985000000098
 50
196.9364063082141
 51
245.9417815874937
  0
ARC
  5
128
  8
DATA
  6
CONTINUOUS
 62
     7
 10
555.3175194155297
 20
-519.0499621002946
 30
0.0
 40
7.499985000000098
 50
16.93640630821416
 51
65.94185726568178
  0
ARC
  5
129
  8
DATA
  6
CONTINUOUS
 62
     7
 10
555.3175194155297
 20
-519.0499621002946
 30
0.0
 40
7.499984999999946
 50
106.9364063081746
 51
155.9417217937974
  0
CIRCLE
  5
12A
  8
DATA
  6
CONTINUOUS
 62
     7
 10
632.7873644755305
 20
-470.7900586202936
 30
0.0
 40
2.599994799999877
  0
ARC
  5
12B
  8
DATA
  6
CONTINUOUS
 62
     7
 10
632.7873644755305
 20
-470.7900586202936
 30
0.0
 40
7.499984999999497
 50
27.41284842634665
 51
76.41815159960203
  0
ARC
  5
12C
  8
DATA
  6
CONTINUOUS
 62
     7
 10
632.7873644755305
 20
-470.7900586202936
 30
0.0
 40
7.499984999999407
 50
297.4128484263
 51
346.418138109711
  0
ARC
  5
12D
  8
DATA
  6
CONTINUOUS
 62
     7
 10
632.7873644755305
 20
-470.7900586202936
 30
0.0
 40
7.499985000001112
 50
207.4128484263402
 51
256.4181343920513
  0
ARC
  5
12E
  8
DATA
  6
CONTINUOUS
 62
     7
 10
632.7873644755305
 20
-470.7900586202936
 30
0.0
 40
7.499985000000245
 50
117.4128484263124
 51
166.4181783369774
  0
CIRCLE
  5
12F
  8
DATA
  6
CONTINUOUS
 62
     7
 10
-632.7873043700706
 20
-470.7900586202936
 30
0.0
 40
2.599994799999877
  0
ARC
  5
130
  8
DATA
  6
CONTINUOUS
 62
     7
 10
-632.7873043700706
 20
-470.7900586202936
 30
0.0
 40
7.499985000000069
 50
333.6936359630833
 51
22.69905786579426
  0
ARC
  5
131
  8
DATA
  6
CONTINUOUS
 62
     7
 10
-632.7873043700706
 20
-470.7900586202936
 30
0.0
 40
7.499985000000069
 50
243.6936359630833
 51
292.6989438246319
  0
ARC
  5
132
  8
DATA
  6
CONTINUOUS
 62
     7
 10
-632.7873043700706
 20
-470.7900586202936
 30
0.0
 40
7.499985000000069
 50
153.6936359630833
 51
202.6989923386142
  0
ARC
  5
133
  8
DATA
  6
CONTINUOUS
 62
     7
 10
-632.7873043700706
 20
-470.7900586202936
 30
0.0
 40
7.499985000000069
 50
63.69363596308325
 51
112.6988963412167
  0
CIRCLE
  5
134
  8
DATA
  6
CONTINUOUS
 62
     7
 10
-555.3174593100707
 20
-480.9500383002942
 30
0.0
 40
2.599994800000331
  0
ARC
  5
135
  8
DATA
  6
CONTINUOUS
 62
     7
 10
-555.3174593100707
 20
-480.9500383002942
 30
0.0
 40
7.499985000000283
 50
288.043771890675
 51
337.0491201835927
  0
ARC
  5
136
  8
DATA
  6
CONTINUOUS
 62
     7
 10
-555.3174593100707
 20
-480.9500383002942
 30
0.0
 40
7.499985000000132
 50
198.0437718906827
 51
247.0491720484085
  0
ARC
  5
137
  8
DATA
  6
CONTINUOUS
 62
     7
 10
-555.3174593100707
 20
-480.9500383002942
 30
0.0
 40
7.49998499999985
 50
108.0437718906761
 51
157.0492834365171
  0
ARC
  5
138
  8
DATA
  6
CONTINUOUS
 62
     7
 10
-555.3174593100707
 20
-480.9500383002942
 30
0.0
 40
7.499984999999992
 50
18.04377189067937
 51
67.04908235744965
  0
CIRCLE
  5
139
  8
DATA
  6
CONTINUOUS
 62
     7
 10
-632.7873043700706
 20
-529.2099417802951
 30
0.0
 40
2.599994799999877
  0
ARC
  5
13A
  8
DATA
  6
CONTINUOUS
 62
     7
 10
-632.7873043700706
 20
-529.2099417802951
 30
0.0
 40
7.499985000000118
 50
54.83688444581265
 51
103.8424388596386
  0
ARC
  5
13B
  8
DATA
  6
CONTINUOUS
 62
     7
 10
-632.7873043700706
 20
-529.2099417802951
 30
0.0
 40
7.499985000000489
 50
324.8368844458146
 51
13.8422222582551
  0
ARC
  5
13C
  8
DATA
  6
CONTINUOUS
 62
     7
 10
-632.7873043700706
 20
-529.2099417802951
 30
0.0
 40
7.499984999999594
 50
234.8368844458184
 51
283.8424530761377
  0
ARC
  5
13D
  8
DATA
  6
CONTINUOUS
 62
     7
 10
-632.7873043700706
 20
-529.2099417802951
 30
0.0
 40
7.499984999999747
 50
144.8368844458106
 51
193.842241968345
  0
CIRCLE
  5
13E
  8
DATA
  6
CONTINUOUS
 62
     7
 10
649.7277305947296
 20
-651.7796966402943
 30
0.0
 40
2.599994800000331
  0
ARC
  5
13F
  8
DATA
  6
CONTINUOUS
 62
     7
 10
649.7277305947296
 20
-651.7796966402943
 30
0.0
 40
7.499984999999723
 50
208.892279170143
 51
257.8978227079627
  0
ARC
  5
140
  8
DATA
  6
CONTINUOUS
 62
     7
 10
649.7277305947296
 20
-651.7796966402943
 30
0.0
 40
7.499984999999996
 50
118.8922791701181
 51
167.8977046138095
  0
ARC
  5
141
  8
DATA
  6
CONTINUOUS
 62
     7
 10
649.7277305947296
 20
-651.7796966402943
 30
0.0
 40
7.499985000000395
 50
298.8922791701164
 51
347.8976272225731
  0
ARC
  5
142
  8
DATA
  6
CONTINUOUS
 62
     7
 10
649.7277305947296
 20
-651.7796966402943
 30
0.0
 40
7.499985000000518
 50
28.89227917013965
 51
77.8976264018093
  0
CIRCLE
  5
143
  8
DATA
  6
CONTINUOUS
 62
     7
 10
632.7873644755305
 20
-529.2099417802951
 30
0.0
 40
2.599994799999877
  0
ARC
  5
144
  8
DATA
  6
CONTINUOUS
 62
     7
 10
632.7873644755305
 20
-529.2099417802951
 30
0.0
 40
7.499984999999681
 50
286.9364063081679
 51
335.9418621322248
  0
ARC
  5
145
  8
DATA
  6
CONTINUOUS
 62
     7
 10
632.7873644755305
 20
-529.2099417802951
 30
0.0
 40
7.499985000000098
 50
196.9364063082141
 51
245.9418106844169
  0
ARC
  5
146
  8
DATA
  6
CONTINUOUS
 62
     7
 10
632.7873644755305
 20
-529.2099417802951
 30
0.0
 40
7.499985000000646
 50
106.9364063081802
 51
155.9418871713549
  0
ARC
  5
147
  8
DATA
  6
CONTINUOUS
 62
     7
 10
632.7873644755305
 20
-529.2099417802951
 30
0.0
 40
7.499985000000098
 50
16.93640630821416
 51
65.94182816871582
  0
ARC
  5
148
  8
DATA
  6
CONTINUOUS
 62
     7
 10
649.7277305947296
 20
-348.2353037302937
 30
0.0
 40
1.56724111732107
 50
126.5616951088462
 51
80.9232066716983
  0
ARC
  5
149
  8
DATA
  6
CONTINUOUS
 62
     7
 10
649.7277367137699
 20
-348.2353107512345
 30
0.0
 40
1.567235893834573
 50
283.7419863808935
 51
126.5614658259153
  0
ARC
  5
14A
  8
DATA
  6
CONTINUOUS
 62
     7
 10
649.7277305947296
 20
-683.514633170294
 30
0.0
 40
1.567241117321702
 50
4.72642205793678
 51
319.0879336208629
  0
ARC
  5
14B
  8
DATA
  6
CONTINUOUS
 62
     7
 10
649.7277305947296
 20
-683.514633170294
 30
0.0
 40
1.567241117321378
 50
319.0879336208629
 51
4.726422057936816
  0
CIRCLE
  5
14C
  8
DATA
  6
CONTINUOUS
 62
     7
 10
-515.8286004049176
 20
-688.0386241222959
 30
0.0
 40
8.331183337600123
  0
CIRCLE
  5
14D
  8
DATA
  6
CONTINUOUS
 62
     7
 10
-515.8286004049176
 20
-643.5887130222945
 30
0.0
 40
8.331183337599668
  0
CIRCLE
  5
14E
  8
DATA
  6
CONTINUOUS
 62
     7
 10
442.6767323087192
 20
-311.9613762782956
 30
0.0
 40
8.331183337600123
  0
CIRCLE
  5
14F
  8
DATA
  6
CONTINUOUS
 62
     7
 10
515.8285860047204
 20
-356.4112873782942
 30
0.0
 40
8.331183337600123
  0
CIRCLE
  5
150
  8
DATA
  6
CONTINUOUS
 62
     7
 10
442.6767323087192
 20
-356.4112873782942
 30
0.0
 40
8.331183337600123
  0
CIRCLE
  5
151
  8
DATA
  6
CONTINUOUS
 62
     7
 10
515.8285860047204
 20
-311.9613762782956
 30
0.0
 40
8.331183337600123
  0
CIRCLE
  5
152
  8
DATA
  6
CONTINUOUS
 62
     7
 10
-442.6767467089173
 20
-688.0386241222959
 30
0.0
 40
8.331183337600123
  0
CIRCLE
  5
153
  8
DATA
  6
CONTINUOUS
 62
     7
 10
-442.6767467089173
 20
-643.5887130222945
 30
0.0
 40
8.331183337599668
  0
ARC
  5
154
  8
DATA
  6
CONTINUOUS
 62
     7
 10
646.5526969448088
 20
-258.1999746000001
 30
0.0
 40
12.69997460000013
 50
0.0
 51
90.0
  0
ARC
  5
155
  8
DATA
  6
CONTINUOUS
 62
     7
 10
374.9992800527302
 20
-725.9382986278197
 30
0.0
 40
1.99999600000003
 50
231.3401917459262
 51
308.6598082540739
  0
ARC
  5
156
  8
DATA
  6
CONTINUOUS
 62
     7
 10
394.2976793371377
 20
-710.4995792002951
 30
0.0
 40
1.99999600000003
 50
308.6598082540738
 51
89.99999999999997
  0
ARC
  5
157
  8
DATA
  6
CONTINUOUS
 62
     7
 10
355.7008807683228
 20
-710.4995792002951
 30
0.0
 40
1.99999600000001
 50
90.0
 51
231.3401917459262
  0
ARC
  5
158
  8
DATA
  6
CONTINUOUS
 62
     7
 10
-632.7873043700706
 20
-529.2099417802951
 30
0.0
 40
7.99998400000004
 50
270.0
 51
0.0
  0
ARC
  5
159
  8
DATA
  6
CONTINUOUS
 62
     7
 10
-605.3553192341501
 20
-514.2413717174959
 30
0.0
 40
7.758584482799961
 50
270.0
 51
0.0
  0
ARC
  5
15A
  8
DATA
  6
CONTINUOUS
 62
     7
 10
-605.3553192341501
 20
-485.758628683096
 30
0.0
 40
7.758584482799961
 50
0.0
 51
90.0
  0
ARC
  5
15B
  8
DATA
  6
CONTINUOUS
 62
     7
 10
-632.7873043700706
 20
-470.7900586202936
 30
0.0
 40
7.99998400000004
 50
0.0
 51
90.0
  0
ARC
  5
15C
  8
DATA
  6
CONTINUOUS
 62
     7
 10
632.7873644755305
 20
-470.7900586202936
 30
0.0
 40
7.99998400000004
 50
90.0
 51
180.0
  0
ARC
  5
15D
  8
DATA
  6
CONTINUOUS
 62
     7
 10
605.35537933961
 20
-485.758628683096
 30
0.0
 40
7.758584482800416
 50
90.0
 51
180.0
  0
ARC
  5
15E
  8
DATA
  6
CONTINUOUS
 62
     7
 10
605.35537933961
 20
-514.2413717174959
 30
0.0
 40
7.758584482799961
 50
180.0
 51
270.0
  0
ARC
  5
15F
  8
DATA
  6
CONTINUOUS
 62
     7
 10
632.7873644755305
 20
-529.2099417802951
 30
0.0
 40
7.99998400000004
 50
180.0
 51
270.0
  0
CIRCLE
  5
160
  8
DATA
  6
CONTINUOUS
 62
     7
 10
-442.6767467089173
 20
-688.0386241222959
 30
0.0
 40
9.080481839000186
  0
CIRCLE
  5
161
  8
DATA
  6
CONTINUOUS
 62
     7
 10
-442.6767467089173
 20
-643.5887130222945
 30
0.0
 40
9.08048183899973
  0
CIRCLE
  5
162
  8
DATA
  6
CONTINUOUS
 62
     7
 10
-515.8286004049176
 20
-688.0386241222959
 30
0.0
 40
9.080481839000186
  0
CIRCLE
  5
163
  8
DATA
  6
CONTINUOUS
 62
     7
 10
-515.8286004049176
 20
-643.5887130222945
 30
0.0
 40
9.08048183899973
  0
CIRCLE
  5
164
  8
DATA
  6
CONTINUOUS
 62
     7
 10
442.6767323087192
 20
-311.9613762782956
 30
0.0
 40
9.080481839000186
  0
CIRCLE
  5
165
  8
DATA
  6
CONTINUOUS
 62
     7
 10
442.6767323087192
 20
-356.4112873782942
 30
0.0
 40
9.080481839000186
  0
CIRCLE
  5
166
  8
DATA
  6
CONTINUOUS
 62
     7
 10
515.8285860047204
 20
-311.9613762782956
 30
0.0
 40
9.080481839000186
  0
CIRCLE
  5
167
  8
DATA
  6
CONTINUOUS
 62
     7
 10
515.8285860047204
 20
-356.4112873782942
 30
0.0
 40
9.080481839000186
  0
ARC
  5
168
  8
DATA
  6
CONTINUOUS
 62
     7
 10
-489.3026919364654
 20
-665.5386971676176
 30
0.0
 40
7.94998409999971
 50
90.0
 51
180.0
  0
ARC
  5
169
  8
DATA
  6
CONTINUOUS
 62
     7
 10
-489.3026919364654
 20
-725.6387269827851
 30
0.0
 40
7.94998410000062
 50
180.0
 51
270.0
  0
ARC
  5
16A
  8
DATA
  6
CONTINUOUS
 62
     7
 10
-469.2026551773686
 20
-725.6387269827851
 30
0.0
 40
7.949984100000165
 50
270.0
 51
0.0
  0
ARC
  5
16B
  8
DATA
  6
CONTINUOUS
 62
     7
 10
-469.2026551773686
 20
-665.5386971676176
 30
0.0
 40
7.94998409999971
 50
0.0
 51
90.0
  0
CIRCLE
  5
16C
  8
DATA
  6
CONTINUOUS
 62
     7
 10
-555.3174593100707
 20
-480.9500383002942
 30
0.0
 40
7.99998400000004
  0
CIRCLE
  5
16D
  8
DATA
  6
CONTINUOUS
 62
     7
 10
590.87744829553
 20
-470.7900586202936
 30
0.0
 40
7.99998400000004
  0
CIRCLE
  5
16E
  8
DATA
  6
CONTINUOUS
 62
     7
 10
555.3175194155297
 20
-519.0499621002946
 30
0.0
 40
7.99998400000004
  0
CIRCLE
  5
16F
  8
DATA
  6
CONTINUOUS
 62
     7
 10
555.3175194155297
 20
-480.9500383002942
 30
0.0
 40
7.99998400000004
  0
CIRCLE
  5
170
  8
DATA
  6
CONTINUOUS
 62
     7
 10
-590.8773881900711
 20
-470.7900586202936
 30
0.0
 40
7.99998400000004
  0
CIRCLE
  5
171
  8
DATA
  6
CONTINUOUS
 62
     7
 10
-555.3174593100707
 20
-519.0499621002946
 30
0.0
 40
7.99998400000004
  0
CIRCLE
  5
172
  8
DATA
  6
CONTINUOUS
 62
     7
 10
590.87744829553
 20
-529.2099417802951
 30
0.0
 40
7.99998400000004
  0
ARC
  5
173
  8
DATA
  6
CONTINUOUS
 62
     7
 10
-374.9992199472704
 20
-725.9382986278197
 30
0.0
 40
1.99999600000003
 50
231.3401917459262
 51
308.6598082540739
  0
ARC
  5
174
  8
DATA
  6
CONTINUOUS
 62
     7
 10
-355.700820662863
 20
-710.4995792002951
 30
0.0
 40
1.99999600000003
 50
308.6598082540738
 51
89.99999999999997
  0
ARC
  5
175
  8
DATA
  6
CONTINUOUS
 62
     7
 10
-394.2976192316787
 20
-710.4995792002951
 30
0.0
 40
1.99999600000001
 50
90.0
 51
231.3401917459262
  0
ARC
  5
176
  8
DATA
  6
CONTINUOUS
 62
     7
 10
646.5526969448088
 20
-741.8000253999999
 30
0.0
 40
12.69997460000013
 50
270.0
 51
0.0
  0
ARC
  5
177
  8
DATA
  6
CONTINUOUS
 62
     7
 10
-646.5526768392706
 20
-258.1999746000001
 30
0.0
 40
12.69997460000013
 50
90.0
 51
180.0
  0
ARC
  5
178
  8
DATA
  6
CONTINUOUS
 62
     7
 10
-646.5526768392706
 20
-741.8000253999999
 30
0.0
 40
12.69997460000013
 50
180.0
 51
270.0
  0
LINE
  5
179
  8
DATA
  6
CONTINUOUS
 62
     7
 10
649.6956765524742
 20
-504.3179939753941
 30
0.0
 11
650.6862441628577
 21
-503.3273965627482
 31
0.0
  0
LINE
  5
17A
  8
DATA
  6
CONTINUOUS
 62
     7
 10
650.6862441628577
 20
-496.6726034372523
 30
0.0
 11
649.6956765524742
 21
-495.6820060246059
 31
0.0
  0
LINE
  5
17B
  8
DATA
  6
CONTINUOUS
 62
     7
 10
649.6956765524742
 20
-495.6820060246059
 30
0.0
 11
641.677318146169
 21
-495.6820060246059
 31
0.0
  0
LINE
  5
17C
  8
DATA
  6
CONTINUOUS
 62
     7
 10
641.677318146169
 20
-504.3179939753941
 30
0.0
 11
649.6956765524742
 21
-504.3179939753941
 31
0.0
  0
LINE
  5
17D
  8
DATA
  6
CONTINUOUS
 62
     7
 10
-649.9576980468632
 20
-504.3179939753941
 30
0.0
 11
-641.6772585416434
 21
-504.3179939753941
 31
0.0
  0
LINE
  5
17E
  8
DATA
  6
CONTINUOUS
 62
     7
 10
-641.6772585416434
 20
-495.6820060246059
 30
0.0
 11
-649.9576980468632
 21
-495.6820060246059
 31
0.0
  0
LINE
  5
17F
  8
DATA
  6
CONTINUOUS
 62
     7
 10
-649.9576980468632
 20
-495.6820060246059
 30
0.0
 11
-650.9482656572459
 21
-496.6726034372523
 31
0.0
  0
LINE
  5
180
  8
DATA
  6
CONTINUOUS
 62
     7
 10
-650.9482656572459
 20
-503.3273965627482
 30
0.0
 11
-649.9576980468632
 21
-504.3179939753941
 31
0.0
  0
LINE
  5
181
  8
DATA
  6
CONTINUOUS
 62
     7
 10
605.3553931476467
 20
-520.6374597561585
 30
0.0
 11
641.677318146169
 21
-520.6374597561585
 31
0.0
  0
LINE
  5
182
  8
DATA
  6
CONTINUOUS
 62
     7
 10
599.0054250164626
 20
-485.7125307267247
 30
0.0
 11
599.0054250164626
 21
-514.2874692732757
 31
0.0
  0
LINE
  5
183
  8
DATA
  6
CONTINUOUS
 62
     7
 10
641.677318146169
 20
-479.3625402438415
 30
0.0
 11
605.3553931476467
 21
-479.3625402438415
 31
0.0
  0
LINE
  5
184
  8
DATA
  6
CONTINUOUS
 62
     7
 10
-605.3553335431211
 20
-479.3625402438415
 30
0.0
 11
-641.6772585416434
 21
-479.3625402438415
 31
0.0
  0
LINE
  5
185
  8
DATA
  6
CONTINUOUS
 62
     7
 10
-599.005365411937
 20
-514.2874692732757
 30
0.0
 11
-599.005365411937
 21
-485.7125307267247
 31
0.0
  0
LINE
  5
186
  8
DATA
  6
CONTINUOUS
 62
     7
 10
-641.6772585416434
 20
-520.6374597561585
 30
0.0
 11
-605.3553335431211
 21
-520.6374597561585
 31
0.0
  0
LINE
  5
187
  8
DATA
  6
CONTINUOUS
 62
     7
 10
-633.61115691036
 20
-512.916207558103
 30
0.0
 11
-632.6944989116787
 21
-514.0715071760196
 31
0.0
  0
LINE
  5
188
  8
DATA
  6
CONTINUOUS
 62
     7
 10
-630.6934557793734
 20
-512.4837469228582
 30
0.0
 11
-631.6101137780547
 21
-511.3284398543769
 31
0.0
  0
LINE
  5
189
  8
DATA
  6
CONTINUOUS
 62
     7
 10
-632.6944989116787
 20
-514.0715071760196
 30
0.0
 11
-631.2356185439226
 21
-513.8552768583977
 31
0.0
  0
LINE
  5
18A
  8
DATA
  6
CONTINUOUS
 62
     7
 10
-633.0689941458108
 20
-511.5446701719993
 30
0.0
 11
-633.61115691036
 21
-512.916207558103
 31
0.0
  0
LINE
  5
18B
  8
DATA
  6
CONTINUOUS
 62
     7
 10
-631.6101137780547
 20
-511.3284398543769
 30
0.0
 11
-633.0689941458108
 21
-511.5446701719993
 31
0.0
  0
LINE
  5
18C
  8
DATA
  6
CONTINUOUS
 62
     7
 10
-631.2356185439226
 20
-513.8552768583977
 30
0.0
 11
-630.6934557793734
 21
-512.4837469228582
 31
0.0
  0
LINE
  5
18D
  8
DATA
  6
CONTINUOUS
 62
     7
 10
-633.1811102584002
 20
-486.243346279718
 30
0.0
 11
-633.5818314837811
 21
-487.6626790447608
 31
0.0
  0
LINE
  5
18E
  8
DATA
  6
CONTINUOUS
 62
     7
 10
-633.5818314837811
 20
-487.6626790447608
 30
0.0
 11
-632.5529977679848
 21
-488.7193555245622
 31
0.0
  0
LINE
  5
18F
  8
DATA
  6
CONTINUOUS
 62
     7
 10
-632.5529977679848
 20
-488.7193555245622
 30
0.0
 11
-631.1235024313323
 21
-488.3567066898859
 31
0.0
  0
LINE
  5
190
  8
DATA
  6
CONTINUOUS
 62
     7
 10
-631.1235024313323
 20
-488.3567066898859
 30
0.0
 11
-630.7227812059523
 21
-486.9373739248431
 31
0.0
  0
LINE
  5
191
  8
DATA
  6
CONTINUOUS
 62
     7
 10
-631.7516149217486
 20
-485.8806974450413
 30
0.0
 11
-633.1811102584002
 21
-486.243346279718
 31
0.0
  0
LINE
  5
192
  8
DATA
  6
CONTINUOUS
 62
     7
 10
-630.7227812059523
 20
-486.9373739248431
 30
0.0
 11
-631.7516149217486
 21
-485.8806974450413
 31
0.0
  0
LINE
  5
193
  8
DATA
  6
CONTINUOUS
 62
     7
 10
-605.3858510602117
 20
-485.8422525260521
 30
0.0
 11
-606.7600930016638
 21
-486.37758312186
 31
0.0
  0
LINE
  5
194
  8
DATA
  6
CONTINUOUS
 62
     7
 10
-606.7600930016638
 20
-486.37758312186
 30
0.0
 11
-606.983550368011
 21
-487.8353608058924
 31
0.0
  0
LINE
  5
195
  8
DATA
  6
CONTINUOUS
 62
     7
 10
-606.983550368011
 20
-487.8353608058924
 30
0.0
 11
-605.8328253974319
 21
-488.7578004435518
 31
0.0
  0
LINE
  5
196
  8
DATA
  6
CONTINUOUS
 62
     7
 10
-605.8328253974319
 20
-488.7578004435518
 30
0.0
 11
-604.4586430605054
 21
-488.2224623971815
 31
0.0
  0
LINE
  5
197
  8
DATA
  6
CONTINUOUS
 62
     7
 10
-604.4586430605054
 20
-488.2224623971815
 30
0.0
 11
-604.2351260896326
 21
-486.7646921637142
 31
0.0
  0
LINE
  5
198
  8
DATA
  6
CONTINUOUS
 62
     7
 10
-604.2351260896326
 20
-486.7646921637142
 30
0.0
 11
-605.3858510602117
 21
-485.8422525260521
 31
0.0
  0
LINE
  5
199
  8
DATA
  6
CONTINUOUS
 62
     7
 10
605.3859106647374
 20
-514.1577474739483
 30
0.0
 11
606.7601526061894
 21
-513.6224168781428
 31
0.0
  0
LINE
  5
19A
  8
DATA
  6
CONTINUOUS
 62
     7
 10
606.7601526061894
 20
-513.6224168781428
 30
0.0
 11
606.9836099725358
 21
-512.1646391941076
 31
0.0
  0
LINE
  5
19B
  8
DATA
  6
CONTINUOUS
 62
     7
 10
606.9836099725358
 20
-512.1646391941076
 30
0.0
 11
605.8328850019575
 21
-511.2421995564482
 31
0.0
  0
LINE
  5
19C
  8
DATA
  6
CONTINUOUS
 62
     7
 10
605.8328850019575
 20
-511.2421995564482
 30
0.0
 11
604.4587026650311
 21
-511.7775376028212
 31
0.0
  0
LINE
  5
19D
  8
DATA
  6
CONTINUOUS
 62
     7
 10
604.4587026650311
 20
-511.7775376028212
 30
0.0
 11
604.2351856941582
 21
-513.2353078362862
 31
0.0
  0
LINE
  5
19E
  8
DATA
  6
CONTINUOUS
 62
     7
 10
604.2351856941582
 20
-513.2353078362862
 30
0.0
 11
605.3859106647374
 21
-514.1577474739483
 31
0.0
  0
LINE
  5
19F
  8
DATA
  6
CONTINUOUS
 62
     7
 10
630.6935153838999
 20
-487.5162530771418
 30
0.0
 11
631.6101733825794
 21
-488.6715601456235
 31
0.0
  0
LINE
  5
1A0
  8
DATA
  6
CONTINUOUS
 62
     7
 10
631.6101733825794
 20
-488.6715601456235
 30
0.0
 11
633.0690537503356
 21
-488.4553298280011
 31
0.0
  0
LINE
  5
1A1
  8
DATA
  6
CONTINUOUS
 62
     7
 10
631.2356781484482
 20
-486.1447231416028
 30
0.0
 11
630.6935153838999
 21
-487.5162530771418
 31
0.0
  0
LINE
  5
1A2
  8
DATA
  6
CONTINUOUS
 62
     7
 10
633.6112165148857
 20
-487.0837998924621
 30
0.0
 11
632.6945585162043
 21
-485.9284928239804
 31
0.0
  0
LINE
  5
1A3
  8
DATA
  6
CONTINUOUS
 62
     7
 10
632.6945585162043
 20
-485.9284928239804
 30
0.0
 11
631.2356781484482
 21
-486.1447231416028
 31
0.0
  0
LINE
  5
1A4
  8
DATA
  6
CONTINUOUS
 62
     7
 10
633.0690537503356
 20
-488.4553298280011
 30
0.0
 11
633.6112165148857
 21
-487.0837998924621
 31
0.0
  0
LINE
  5
1A5
  8
DATA
  6
CONTINUOUS
 62
     7
 10
631.7516745262742
 20
-514.1193025549587
 30
0.0
 11
633.1811698629258
 21
-513.7566537202824
 31
0.0
  0
LINE
  5
1A6
  8
DATA
  6
CONTINUOUS
 62
     7
 10
633.1811698629258
 20
-513.7566537202824
 30
0.0
 11
633.5818910883077
 21
-512.3373209552396
 31
0.0
  0
LINE
  5
1A7
  8
DATA
  6
CONTINUOUS
 62
     7
 10
632.5530573725105
 20
-511.2806444754378
 30
0.0
 11
631.1235620358589
 21
-511.6432933101146
 31
0.0
  0
LINE
  5
1A8
  8
DATA
  6
CONTINUOUS
 62
     7
 10
631.1235620358589
 20
-511.6432933101146
 30
0.0
 11
630.7228408104779
 21
-513.0626260751574
 31
0.0
  0
LINE
  5
1A9
  8
DATA
  6
CONTINUOUS
 62
     7
 10
630.7228408104779
 20
-513.0626260751574
 30
0.0
 11
631.7516745262742
 21
-514.1193025549587
 31
0.0
  0
LINE
  5
1AA
  8
DATA
  6
CONTINUOUS
 62
     7
 10
633.5818910883077
 20
-512.3373209552396
 30
0.0
 11
632.5530573725105
 21
-511.2806444754378
 31
0.0
  0
LINE
  5
1AB
  8
DATA
  6
CONTINUOUS
 62
     7
 10
605.5775988189575
 20
-485.825563258893
 30
0.0
 11
604.3166054760818
 21
-486.5903340253008
 31
0.0
  0
LINE
  5
1AC
  8
DATA
  6
CONTINUOUS
 62
     7
 10
604.3166054760818
 20
-486.5903340253008
 30
0.0
 11
604.348374688208
 21
-488.0648009764923
 31
0.0
  0
LINE
  5
1AD
  8
DATA
  6
CONTINUOUS
 62
     7
 10
604.348374688208
 20
-488.0648009764923
 30
0.0
 11
605.6411968477364
 21
-488.7744897107109
 31
0.0
  0
LINE
  5
1AE
  8
DATA
  6
CONTINUOUS
 62
     7
 10
605.6411968477364
 20
-488.7744897107109
 30
0.0
 11
606.9022497951387
 21
-488.009711493738
 31
0.0
  0
LINE
  5
1AF
  8
DATA
  6
CONTINUOUS
 62
     7
 10
606.9022497951387
 20
-488.009711493738
 30
0.0
 11
606.870420978486
 21
-486.5352519931116
 31
0.0
  0
LINE
  5
1B0
  8
DATA
  6
CONTINUOUS
 62
     7
 10
606.870420978486
 20
-486.5352519931116
 30
0.0
 11
605.5775988189575
 21
-485.825563258893
 31
0.0
  0
LINE
  5
1B1
  8
DATA
  6
CONTINUOUS
 62
     7
 10
-606.902190190613
 20
-511.990288506262
 30
0.0
 11
-606.8703613739603
 21
-513.4647480068888
 31
0.0
  0
LINE
  5
1B2
  8
DATA
  6
CONTINUOUS
 62
     7
 10
-606.8703613739603
 20
-513.4647480068888
 30
0.0
 11
-605.5775392144319
 21
-514.1744367411075
 31
0.0
  0
LINE
  5
1B3
  8
DATA
  6
CONTINUOUS
 62
     7
 10
-604.3165458715562
 20
-513.4096659746992
 30
0.0
 11
-604.3483150836823
 21
-511.9351990235077
 31
0.0
  0
LINE
  5
1B4
  8
DATA
  6
CONTINUOUS
 62
     7
 10
-605.5775392144319
 20
-514.1744367411075
 30
0.0
 11
-604.3165458715562
 21
-513.4096659746992
 31
0.0
  0
LINE
  5
1B5
  8
DATA
  6
CONTINUOUS
 62
     7
 10
-605.6411372432108
 20
-511.2255102892891
 30
0.0
 11
-606.902190190613
 21
-511.990288506262
 31
0.0
  0
LINE
  5
1B6
  8
DATA
  6
CONTINUOUS
 62
     7
 10
-604.3483150836823
 20
-511.9351990235077
 30
0.0
 11
-605.6411372432108
 21
-511.2255102892891
 31
0.0
  0
LINE
  5
1B7
  8
DATA
  6
CONTINUOUS
 62
     7
 10
649.6956765524742
 20
-504.3179939753941
 30
0.0
 11
649.6956765524742
 21
-495.6820060246059
 31
0.0
  0
LINE
  5
1B8
  8
DATA
  6
CONTINUOUS
 62
     7
 10
650.6862441628577
 20
-496.6726034372523
 30
0.0
 11
650.6862441628577
 21
-503.3273965627482
 31
0.0
  0
LINE
  5
1B9
  8
DATA
  6
CONTINUOUS
 62
     7
 10
-649.9576980468632
 20
-495.6820060246059
 30
0.0
 11
-649.9576980468632
 21
-504.3179939753941
 31
0.0
  0
LINE
  5
1BA
  8
DATA
  6
CONTINUOUS
 62
     7
 10
-650.9482656572459
 20
-503.3273965627482
 30
0.0
 11
-650.9482656572459
 21
-496.6726034372523
 31
0.0
  0
LINE
  5
1BB
  8
DATA
  6
CONTINUOUS
 62
     7
 10
641.677318146169
 20
-470.043730298737
 30
0.0
 11
641.677318146169
 21
-529.9562697012661
 31
0.0
  0
LINE
  5
1BC
  8
DATA
  6
CONTINUOUS
 62
     7
 10
-641.6772585416434
 20
-529.9562697012661
 30
0.0
 11
-641.6772585416434
 21
-470.043730298737
 31
0.0
  0
LINE
  5
1BD
  8
DATA
  6
CONTINUOUS
 62
     7
 10
654.0314289512039
 20
-318.0685813497098
 30
0.0
 11
656.902459738672
 21
-314.3155525951765
 31
0.0
  0
LINE
  5
1BE
  8
DATA
  6
CONTINUOUS
 62
     7
 10
656.0669234992861
 20
-320.5084031969677
 30
0.0
 11
654.0314289512039
 21
-318.0685813497098
 31
0.0
  0
LINE
  5
1BF
  8
DATA
  6
CONTINUOUS
 62
     7
 10
648.1594891150594
 20
-320.8040416437766
 30
0.0
 11
651.9125476718541
 21
-323.6750724312442
 31
0.0
  0
LINE
  5
1C0
  8
DATA
  6
CONTINUOUS
 62
     7
 10
645.719697070062
 20
-322.8395659941211
 30
0.0
 11
648.1594891150594
 21
-320.8040416437766
 31
0.0
  0
LINE
  5
1C1
  8
DATA
  6
CONTINUOUS
 62
     7
 10
645.424058623254
 20
-314.9321316098954
 30
0.0
 11
642.5530278357869
 21
-318.6851901666905
 31
0.0
  0
LINE
  5
1C2
  8
DATA
  6
CONTINUOUS
 62
     7
 10
643.3885044706462
 20
-312.4923395648966
 30
0.0
 11
645.424058623254
 21
-314.9321316098954
 31
0.0
  0
LINE
  5
1C3
  8
DATA
  6
CONTINUOUS
 62
     7
 10
651.2959388548729
 20
-312.1966713158258
 30
0.0
 11
647.5428802980782
 21
-309.3256703306229
 31
0.0
  0
LINE
  5
1C4
  8
DATA
  6
CONTINUOUS
 62
     7
 10
653.7357905043959
 20
-310.1611767677432
 30
0.0
 11
651.2959388548729
 21
-312.1966713158258
 31
0.0
  0
LINE
  5
1C5
  8
DATA
  6
CONTINUOUS
 62
     7
 10
644.8011317265623
 20
-315.7464784404424
 30
0.0
 11
642.8792434042093
 21
-313.4428827363631
 31
0.0
  0
LINE
  5
1C6
  8
DATA
  6
CONTINUOUS
 62
     7
 10
650.4816218265892
 20
-311.5737444191359
 30
0.0
 11
652.7852175306675
 21
-309.6518858990435
 31
0.0
  0
LINE
  5
1C7
  8
DATA
  6
CONTINUOUS
 62
     7
 10
654.6543558478947
 20
-317.2542643214251
 30
0.0
 11
656.576184565723
 21
-319.5578302232393
 31
0.0
  0
LINE
  5
1C8
  8
DATA
  6
CONTINUOUS
 62
     7
 10
648.9738061433432
 20
-321.4269983427312
 30
0.0
 11
646.6702700437904
 21
-323.348827060559
 31
0.0
  0
LINE
  5
1C9
  8
DATA
  6
CONTINUOUS
 62
     7
 10
-583.6147616564626
 20
-468.9180988334201
 30
0.0
 11
-586.7866164844631
 21
-468.7293760043449
 31
0.0
  0
LINE
  5
1CA
  8
DATA
  6
CONTINUOUS
 62
     7
 10
-586.9530323198437
 20
-467.7177083919114
 30
0.0
 11
-583.9583221418256
 21
-467.8958812199612
 31
0.0
  0
LINE
  5
1CB
  8
DATA
  6
CONTINUOUS
 62
     7
 10
-588.8166870207192
 20
-474.880861065395
 30
0.0
 11
-584.1541230083108
 21
-474.1138253270165
 31
0.0
  0
LINE
  5
1CC
  8
DATA
  6
CONTINUOUS
 62
     7
 10
-589.0053949486614
 20
-478.0526711900025
 30
0.0
 11
-588.8166870207192
 21
-474.880861065395
 31
0.0
  0
LINE
  5
1CD
  8
DATA
  6
CONTINUOUS
 62
     7
 10
-594.9681720817684
 20
-472.8507309246124
 30
0.0
 11
-594.2011810467834
 21
-477.5133247392855
 31
0.0
  0
LINE
  5
1CE
  8
DATA
  6
CONTINUOUS
 62
     7
 10
-598.140026909769
 20
-472.6620229966729
 30
0.0
 11
-594.9681720817684
 21
-472.8507309246124
 31
0.0
  0
LINE
  5
1CF
  8
DATA
  6
CONTINUOUS
 62
     7
 10
-592.9380419409867
 20
-466.6992607646948
 30
0.0
 11
-597.6006655579208
 21
-467.466281601944
 31
0.0
  0
LINE
  5
1D0
  8
DATA
  6
CONTINUOUS
 62
     7
 10
-592.7493340130445
 20
-463.5274506400906
 30
0.0
 11
-592.9380419409867
 21
-466.6992607646948
 31
0.0
  0
LINE
  5
1D1
  8
DATA
  6
CONTINUOUS
 62
     7
 10
-586.7866164844631
 20
-468.7293760043449
 30
0.0
 11
-587.5536075194473
 21
-464.0667970908071
 31
0.0
  0
LINE
  5
1D2
  8
DATA
  6
CONTINUOUS
 62
     7
 10
-594.8017562463879
 20
-473.8623985370464
 30
0.0
 11
-597.796466424405
 21
-473.6842257089993
 31
0.0
  0
LINE
  5
1D3
  8
DATA
  6
CONTINUOUS
 62
     7
 10
-593.9497095534202
 20
-466.8656915012093
 30
0.0
 11
-593.7715516265039
 21
-463.870981323189
 31
0.0
  0
LINE
  5
1D4
  8
DATA
  6
CONTINUOUS
 62
     7
 10
-587.8050194082857
 20
-474.7144303288837
 30
0.0
 11
-587.9832369397277
 21
-477.7091256057688
 31
0.0
  0
LINE
  5
1D5
  8
DATA
  6
CONTINUOUS
 62
     7
 10
-548.7247161756154
 20
-522.6256804649024
 30
0.0
 11
-550.9186395526526
 21
-520.327255453416
 31
0.0
  0
LINE
  5
1D6
  8
DATA
  6
CONTINUOUS
 62
     7
 10
-556.594778522312
 20
-523.4487742595743
 30
0.0
 11
-552.6583764448756
 21
-526.0627307282762
 31
0.0
  0
LINE
  5
1D7
  8
DATA
  6
CONTINUOUS
 62
     7
 10
-558.8931886326668
 20
-525.6426827354803
 30
0.0
 11
-556.594778522312
 21
-523.4487742595743
 31
0.0
  0
LINE
  5
1D8
  8
DATA
  6
CONTINUOUS
 62
     7
 10
-559.7162675262093
 20
-517.7726650921786
 30
0.0
 11
-562.3302239949103
 21
-521.7090746201811
 31
0.0
  0
LINE
  5
1D9
  8
DATA
  6
CONTINUOUS
 62
     7
 10
-561.9101909032465
 20
-515.4742400806922
 30
0.0
 11
-559.7162675262093
 21
-517.7726650921786
 31
0.0
  0
LINE
  5
1DA
  8
DATA
  6
CONTINUOUS
 62
     7
 10
-554.0401881610746
 20
-514.6511537365855
 30
0.0
 11
-557.9765902385111
 21
-512.0371972678836
 31
0.0
  0
LINE
  5
1DB
  8
DATA
  6
CONTINUOUS
 62
     7
 10
-551.7417184461951
 20
-512.4572378101116
 30
0.0
 11
-554.0401881610746
 21
-514.6511537365855
 31
0.0
  0
LINE
  5
1DC
  8
DATA
  6
CONTINUOUS
 62
     7
 10
-550.9186395526526
 20
-520.327255453416
 30
0.0
 11
-548.3046830839517
 21
-516.3908533759782
 31
0.0
  0
LINE
  5
1DD
  8
DATA
  6
CONTINUOUS
 62
     7
 10
-550.3515024918911
 20
-519.4731524043154
 30
0.0
 11
-548.2800664148931
 21
-521.6432339711273
 31
0.0
  0
LINE
  5
1DE
  8
DATA
  6
CONTINUOUS
 62
     7
 10
-554.8942614079119
 20
-514.0839868735602
 30
0.0
 11
-552.724179841101
 21
-512.0125805988228
 31
0.0
  0
LINE
  5
1DF
  8
DATA
  6
CONTINUOUS
 62
     7
 10
-560.2834641914965
 20
-518.6267681412764
 30
0.0
 11
-562.3548406639698
 21
-516.456694025032
 31
0.0
  0
LINE
  5
1E0
  8
DATA
  6
CONTINUOUS
 62
     7
 10
-555.74064567095
 20
-524.0159336720344
 30
0.0
 11
-557.910727237761
 21
-526.0873399467696
 31
0.0
  0
LINE
  5
1E1
  8
DATA
  6
CONTINUOUS
 62
     7
 10
656.2046695578697
 20
-344.4688562315482
 30
0.0
 11
653.1015983523725
 21
-345.1522221171626
 31
0.0
  0
LINE
  5
1E2
  8
DATA
  6
CONTINUOUS
 62
     7
 10
652.6655912478568
 20
-344.2242690608878
 30
0.0
 11
655.595392097533
 21
-343.5790798738967
 31
0.0
  0
LINE
  5
1E3
  8
DATA
  6
CONTINUOUS
 62
     7
 10
652.825808212579
 20
-351.6241411076571
 30
0.0
 11
657.1025521309971
 21
-349.614753341772
 31
0.0
  0
LINE
  5
1E4
  8
DATA
  6
CONTINUOUS
 62
     7
 10
653.5091740981939
 20
-354.7272123131534
 30
0.0
 11
652.825808212579
 21
-351.6241411076571
 31
0.0
  0
LINE
  5
1E5
  8
DATA
  6
CONTINUOUS
 62
     7
 10
646.3538892220854
 20
-351.3484105723869
 30
0.0
 11
648.363276987971
 21
-355.6251246885436
 31
0.0
  0
LINE
  5
1E6
  8
DATA
  6
CONTINUOUS
 62
     7
 10
643.2508180165892
 20
-352.0317466557394
 30
0.0
 11
646.3538892220854
 21
-351.3484105723869
 31
0.0
  0
LINE
  5
1E7
  8
DATA
  6
CONTINUOUS
 62
     7
 10
646.6296197573533
 20
-344.8764617796332
 30
0.0
 11
642.3529354434609
 21
-346.8858495455156
 31
0.0
  0
LINE
  5
1E8
  8
DATA
  6
CONTINUOUS
 62
     7
 10
645.9462538717394
 20
-341.7733905741343
 30
0.0
 11
646.6296197573533
 21
-344.8764617796332
 31
0.0
  0
LINE
  5
1E9
  8
DATA
  6
CONTINUOUS
 62
     7
 10
653.1015983523725
 20
-345.1522221171626
 30
0.0
 11
651.0922105864888
 21
-340.8754781987441
 31
0.0
  0
LINE
  5
1EA
  8
DATA
  6
CONTINUOUS
 62
     7
 10
653.7537910711167
 20
-351.1881638054042
 30
0.0
 11
654.3989504558444
 21
-354.1179646550795
 31
0.0
  0
LINE
  5
1EB
  8
DATA
  6
CONTINUOUS
 62
     7
 10
645.7016965033413
 20
-345.3124390818862
 30
0.0
 11
645.0564775140879
 21
-342.3826680344728
 31
0.0
  0
LINE
  5
1EC
  8
DATA
  6
CONTINUOUS
 62
     7
 10
646.7898963266011
 20
-352.2763338263999
 30
0.0
 11
643.8600954769258
 21
-352.9215528156528
 31
0.0
  0
LINE
  5
1ED
  8
DATA
  6
CONTINUOUS
 62
     7
 10
-646.375525664866
 20
-341.5411415402659
 30
0.0
 11
-648.5988936775325
 21
-343.8110606874011
 31
0.0
  0
LINE
  5
1EE
  8
DATA
  6
CONTINUOUS
 62
     7
 10
-649.4716231408715
 20
-343.2729212283275
 30
0.0
 11
-647.3723517504336
 21
-341.1297511048092
 31
0.0
  0
LINE
  5
1EF
  8
DATA
  6
CONTINUOUS
 62
     7
 10
-643.0185391804575
 20
-351.6024748626128
 30
0.0
 11
-645.2883987230657
 21
-349.3790472454193
 31
0.0
  0
LINE
  5
1F0
  8
DATA
  6
CONTINUOUS
 62
     7
 10
-650.8564150833486
 20
-352.6895421998865
 30
0.0
 11
-646.8344209071997
 21
-355.1697610143492
 31
0.0
  0
LINE
  5
1F1
  8
DATA
  6
CONTINUOUS
 62
     7
 10
-653.0798427005407
 20
-354.9594613470217
 30
0.0
 11
-650.8564150833486
 21
-352.6895421998865
 31
0.0
  0
LINE
  5
1F2
  8
DATA
  6
CONTINUOUS
 62
     7
 10
-654.1669100378153
 20
-347.1215556418683
 30
0.0
 11
-656.6471139511464
 21
-351.1435796202804
 31
0.0
  0
LINE
  5
1F3
  8
DATA
  6
CONTINUOUS
 62
     7
 10
-656.4368291849491
 20
-344.8981578269372
 30
0.0
 11
-654.1669100378153
 21
-347.1215556418683
 31
0.0
  0
LINE
  5
1F4
  8
DATA
  6
CONTINUOUS
 62
     7
 10
-648.5988936775325
 20
-343.8110606874011
 30
0.0
 11
-652.620947458207
 21
-341.3308567740705
 31
0.0
  0
LINE
  5
1F5
  8
DATA
  6
CONTINUOUS
 62
     7
 10
-645.2883987230657
 20
-349.3790472454193
 30
0.0
 11
-642.8081948097347
 21
-345.3570530692718
 31
0.0
  0
LINE
  5
1F6
  8
DATA
  6
CONTINUOUS
 62
     7
 10
-649.9837452245351
 20
-353.2276816589601
 30
0.0
 11
-652.083016614974
 21
-355.3708517824784
 31
0.0
  0
LINE
  5
1F7
  8
DATA
  6
CONTINUOUS
 62
     7
 10
-654.7050792991517
 20
-347.9942255006818
 30
0.0
 11
-656.8482196204063
 21
-345.8949839125062
 31
0.0
  0
LINE
  5
1F8
  8
DATA
  6
CONTINUOUS
 62
     7
 10
-644.7502890662549
 20
-348.5063773866091
 30
0.0
 11
-642.6071487450004
 21
-350.6056189747815
 31
0.0
  0
LINE
  5
1F9
  8
DATA
  6
CONTINUOUS
 62
     7
 10
584.5382741755852
 20
-525.2019072689195
 30
0.0
 11
586.5737687236665
 21
-527.6417216656127
 31
0.0
  0
LINE
  5
1FA
  8
DATA
  6
CONTINUOUS
 62
     7
 10
585.9508418269756
 20
-528.4560386938974
 30
0.0
 11
584.0289535046218
 21
-526.1524653415158
 31
0.0
  0
LINE
  5
1FB
  8
DATA
  6
CONTINUOUS
 62
     7
 10
597.2166335996985
 20
-533.2179783515553
 30
0.0
 11
595.1811390516173
 21
-530.7781639548625
 31
0.0
  0
LINE
  5
1FC
  8
DATA
  6
CONTINUOUS
 62
     7
 10
595.8040659483081
 20
-529.9638469265774
 30
0.0
 11
597.7258946661354
 21
-532.2674202789594
 31
0.0
  0
LINE
  5
1FD
  8
DATA
  6
CONTINUOUS
 62
     7
 10
594.8855006048084
 20
-522.8707444717661
 30
0.0
 11
592.4456489552863
 21
-524.9062539209808
 31
0.0
  0
LINE
  5
1FE
  8
DATA
  6
CONTINUOUS
 62
     7
 10
591.6313319270016
 20
-524.2833195737235
 30
0.0
 11
593.93492763108
 21
-522.3614685041989
 31
0.0
  0
LINE
  5
1FF
  8
DATA
  6
CONTINUOUS
 62
     7
 10
589.3091992154718
 20
-533.5136242489293
 30
0.0
 11
593.0622577722675
 21
-536.3846401352675
 31
0.0
  0
LINE
  5
200
  8
DATA
  6
CONTINUOUS
 62
     7
 10
586.8694071704745
 20
-535.5491411487087
 30
0.0
 11
589.3091992154718
 21
-533.5136242489293
 31
0.0
  0
LINE
  5
201
  8
DATA
  6
CONTINUOUS
 62
     7
 10
586.5737687236665
 20
-527.6417216656127
 30
0.0
 11
583.7027379361984
 21
-531.3947653212781
 31
0.0
  0
LINE
  5
202
  8
DATA
  6
CONTINUOUS
 62
     7
 10
595.1811390516173
 20
-530.7781639548625
 30
0.0
 11
598.0521698390844
 21
-527.0251202991994
 31
0.0
  0
LINE
  5
203
  8
DATA
  6
CONTINUOUS
 62
     7
 10
592.4456489552863
 20
-524.9062539209808
 30
0.0
 11
588.6926500030163
 21
-522.035238034643
 31
0.0
  0
LINE
  5
204
  8
DATA
  6
CONTINUOUS
 62
     7
 10
590.1235162437556
 20
-534.1365660467513
 30
0.0
 11
587.8199801442038
 21
-536.0584171162759
 31
0.0
  0
LINE
  5
205
  8
DATA
  6
CONTINUOUS
 62
     7
 10
-646.375525664866
 20
-309.791211477554
 30
0.0
 11
-648.5988936775325
 21
-312.0611306246897
 31
0.0
  0
LINE
  5
206
  8
DATA
  6
CONTINUOUS
 62
     7
 10
-649.4716231408715
 20
-311.5229613633542
 30
0.0
 11
-647.3723517504336
 21
-309.3798210420973
 31
0.0
  0
LINE
  5
207
  8
DATA
  6
CONTINUOUS
 62
     7
 10
-643.0185391804575
 20
-319.852514997639
 30
0.0
 11
-645.2883987230657
 21
-317.6291171827106
 31
0.0
  0
LINE
  5
208
  8
DATA
  6
CONTINUOUS
 62
     7
 10
-650.8564150833486
 20
-320.9396121371774
 30
0.0
 11
-646.8344209071997
 21
-323.419816050508
 31
0.0
  0
LINE
  5
209
  8
DATA
  6
CONTINUOUS
 62
     7
 10
-653.0798427005407
 20
-323.2095312843098
 30
0.0
 11
-650.8564150833486
 21
-320.9396121371774
 31
0.0
  0
LINE
  5
20A
  8
DATA
  6
CONTINUOUS
 62
     7
 10
-654.1669100378153
 20
-315.3715957768945
 30
0.0
 11
-656.6471139511464
 21
-319.3936197553066
 31
0.0
  0
LINE
  5
20B
  8
DATA
  6
CONTINUOUS
 62
     7
 10
-656.4368291849491
 20
-313.1481979619634
 30
0.0
 11
-654.1669100378153
 21
-315.3715957768945
 31
0.0
  0
LINE
  5
20C
  8
DATA
  6
CONTINUOUS
 62
     7
 10
-648.5988936775325
 20
-312.0611306246897
 30
0.0
 11
-652.620947458207
 21
-309.5809267113591
 31
0.0
  0
LINE
  5
20D
  8
DATA
  6
CONTINUOUS
 62
     7
 10
-645.2883987230657
 20
-317.6291171827106
 30
0.0
 11
-642.8081948097347
 21
-313.6070932042985
 31
0.0
  0
LINE
  5
20E
  8
DATA
  6
CONTINUOUS
 62
     7
 10
-654.7050792991517
 20
-316.2442954379699
 30
0.0
 11
-656.8482196204063
 21
-314.1450538497943
 31
0.0
  0
LINE
  5
20F
  8
DATA
  6
CONTINUOUS
 62
     7
 10
-644.7502890662549
 20
-316.7564473238972
 30
0.0
 11
-642.6071487450004
 21
-318.8556889120728
 31
0.0
  0
LINE
  5
210
  8
DATA
  6
CONTINUOUS
 62
     7
 10
-649.9837452245351
 20
-321.4777515962514
 30
0.0
 11
-652.083016614974
 21
-323.620921719767
 31
0.0
  0
LINE
  5
211
  8
DATA
  6
CONTINUOUS
 62
     7
 10
-646.375525664866
 20
-645.0705383557538
 30
0.0
 11
-648.5988936775325
 21
-647.3404500523216
 31
0.0
  0
LINE
  5
212
  8
DATA
  6
CONTINUOUS
 62
     7
 10
-649.4716231408715
 20
-646.8023068679654
 30
0.0
 11
-647.3723517504336
 21
-644.6591479202971
 31
0.0
  0
LINE
  5
213
  8
DATA
  6
CONTINUOUS
 62
     7
 10
-653.0798427005407
 20
-658.4888544372243
 30
0.0
 11
-650.8564150833486
 21
-656.2189464659391
 31
0.0
  0
LINE
  5
214
  8
DATA
  6
CONTINUOUS
 62
     7
 10
-649.9837452245351
 20
-656.7570896502953
 30
0.0
 11
-652.083016614974
 21
-658.9002448726815
 31
0.0
  0
LINE
  5
215
  8
DATA
  6
CONTINUOUS
 62
     7
 10
-656.4368291849491
 20
-648.4275397412925
 30
0.0
 11
-654.1669100378153
 21
-650.6509412815062
 31
0.0
  0
LINE
  5
216
  8
DATA
  6
CONTINUOUS
 62
     7
 10
-654.7050792991517
 20
-651.5236185908843
 30
0.0
 11
-656.8482196204063
 21
-649.4243732774262
 31
0.0
  0
LINE
  5
217
  8
DATA
  6
CONTINUOUS
 62
     7
 10
-643.0185391804575
 20
-655.1318567769681
 30
0.0
 11
-645.2883987230657
 21
-652.9084552367544
 31
0.0
  0
LINE
  5
218
  8
DATA
  6
CONTINUOUS
 62
     7
 10
-644.7502890662549
 20
-652.0357742020942
 30
0.0
 11
-642.6071487450004
 21
-654.1350195155519
 31
0.0
  0
LINE
  5
219
  8
DATA
  6
CONTINUOUS
 62
     7
 10
-650.8564150833486
 20
-656.2189464659391
 30
0.0
 11
-646.8344209071997
 21
-658.6991466539871
 31
0.0
  0
LINE
  5
21A
  8
DATA
  6
CONTINUOUS
 62
     7
 10
-654.1669100378153
 20
-650.6509412815062
 30
0.0
 11
-656.6471139511464
 21
-654.6729615346362
 31
0.0
  0
LINE
  5
21B
  8
DATA
  6
CONTINUOUS
 62
     7
 10
-648.5988936775325
 20
-647.3404500523216
 30
0.0
 11
-652.620947458207
 21
-644.860246138991
 31
0.0
  0
LINE
  5
21C
  8
DATA
  6
CONTINUOUS
 62
     7
 10
-645.2883987230657
 20
-652.9084552367544
 30
0.0
 11
-642.8081948097347
 21
-648.8864312583423
 31
0.0
  0
LINE
  5
21D
  8
DATA
  6
CONTINUOUS
 62
     7
 10
656.1432172920117
 20
-687.4144091548555
 30
0.0
 11
654.0609331913588
 21
-685.0143882295406
 31
0.0
  0
LINE
  5
21E
  8
DATA
  6
CONTINUOUS
 62
     7
 10
654.6680052842507
 20
-684.1881800984074
 30
0.0
 11
656.634000955522
 21
-686.4541876985522
 31
0.0
  0
LINE
  5
21F
  8
DATA
  6
CONTINUOUS
 62
     7
 10
653.6125283455253
 20
-677.1141585423443
 30
0.0
 11
651.2124925190806
 21
-679.1964426429945
 31
0.0
  0
LINE
  5
220
  8
DATA
  6
CONTINUOUS
 62
     7
 10
650.3862545856832
 20
-678.5893556489727
 30
0.0
 11
652.6522994386555
 21
-676.6233450765681
 31
0.0
  0
LINE
  5
221
  8
DATA
  6
CONTINUOUS
 62
     7
 10
648.2429950553774
 20
-687.8628214512546
 30
0.0
 11
652.0508301711684
 21
-690.6607696398123
 31
0.0
  0
LINE
  5
222
  8
DATA
  6
CONTINUOUS
 62
     7
 10
645.8429592289326
 20
-689.9451055519075
 30
0.0
 11
648.2429950553774
 21
-687.8628214512546
 31
0.0
  0
LINE
  5
223
  8
DATA
  6
CONTINUOUS
 62
     7
 10
645.3945543830991
 20
-682.0448758647085
 30
0.0
 11
642.5965987439754
 21
-685.8527035299321
 31
0.0
  0
LINE
  5
224
  8
DATA
  6
CONTINUOUS
 62
     7
 10
643.312270282448
 20
-679.6448549393931
 30
0.0
 11
645.3945543830991
 21
-682.0448758647085
 31
0.0
  0
LINE
  5
225
  8
DATA
  6
CONTINUOUS
 62
     7
 10
651.2124925190806
 20
-679.1964426429945
 30
0.0
 11
647.4046574032905
 21
-676.3984944544368
 31
0.0
  0
LINE
  5
226
  8
DATA
  6
CONTINUOUS
 62
     7
 10
654.0609331913588
 20
-685.0143882295406
 30
0.0
 11
656.8588888304835
 21
-681.2065605643165
 31
0.0
  0
LINE
  5
227
  8
DATA
  6
CONTINUOUS
 62
     7
 10
644.787482290209
 20
-682.8710839958417
 30
0.0
 11
642.8214270144103
 21
-680.6050763956996
 31
0.0
  0
LINE
  5
228
  8
DATA
  6
CONTINUOUS
 62
     7
 10
649.06917338425
 20
-688.4699084452759
 30
0.0
 11
646.8031881358033
 21
-690.4359190176806
 31
0.0
  0
LINE
  5
229
  8
DATA
  6
CONTINUOUS
 62
     7
 10
594.8855006048084
 20
-464.4508588512913
 30
0.0
 11
592.4456489552863
 21
-466.486368300506
 31
0.0
  0
LINE
  5
22A
  8
DATA
  6
CONTINUOUS
 62
     7
 10
591.6313319270016
 20
-465.8634265026812
 30
0.0
 11
593.93492763108
 21
-463.9415828837241
 31
0.0
  0
LINE
  5
22B
  8
DATA
  6
CONTINUOUS
 62
     7
 10
586.5737687236665
 20
-469.2218434957053
 30
0.0
 11
583.7027379361984
 21
-472.9748871513684
 31
0.0
  0
LINE
  5
22C
  8
DATA
  6
CONTINUOUS
 62
     7
 10
584.5382741755852
 20
-466.7820216484447
 30
0.0
 11
586.5737687236665
 21
-469.2218434957053
 31
0.0
  0
LINE
  5
22D
  8
DATA
  6
CONTINUOUS
 62
     7
 10
597.2166335996985
 20
-474.7981001816484
 30
0.0
 11
595.1811390516173
 21
-472.3582783343877
 31
0.0
  0
LINE
  5
22E
  8
DATA
  6
CONTINUOUS
 62
     7
 10
589.3091992154718
 20
-475.0937386284545
 30
0.0
 11
593.0622577722675
 21
-477.9647545147927
 31
0.0
  0
LINE
  5
22F
  8
DATA
  6
CONTINUOUS
 62
     7
 10
586.8694071704745
 20
-477.1292629787986
 30
0.0
 11
589.3091992154718
 21
-475.0937386284545
 31
0.0
  0
LINE
  5
230
  8
DATA
  6
CONTINUOUS
 62
     7
 10
592.4456489552863
 20
-466.486368300506
 30
0.0
 11
588.6926500030163
 21
-463.6153524141682
 31
0.0
  0
LINE
  5
231
  8
DATA
  6
CONTINUOUS
 62
     7
 10
595.1811390516173
 20
-472.3582783343877
 30
0.0
 11
598.0521698390844
 21
-468.6052346787219
 31
0.0
  0
LINE
  5
232
  8
DATA
  6
CONTINUOUS
 62
     7
 10
595.8040659483081
 20
-471.5439613061026
 30
0.0
 11
597.7258946661354
 21
-473.8475421090493
 31
0.0
  0
LINE
  5
233
  8
DATA
  6
CONTINUOUS
 62
     7
 10
585.9508418269756
 20
-470.0361605239873
 30
0.0
 11
584.0289535046218
 21
-467.732579721041
 31
0.0
  0
LINE
  5
234
  8
DATA
  6
CONTINUOUS
 62
     7
 10
590.1235162437556
 20
-475.7166804262765
 30
0.0
 11
587.8199801442038
 21
-477.638538946369
 31
0.0
  0
LINE
  5
235
  8
DATA
  6
CONTINUOUS
 62
     7
 10
550.9616740201122
 20
-479.533202901669
 30
0.0
 11
548.2235613246562
 21
-483.3842960018901
 31
0.0
  0
LINE
  5
236
  8
DATA
  6
CONTINUOUS
 62
     7
 10
548.8420774864558
 20
-477.1660240699421
 30
0.0
 11
550.9616740201122
 21
-479.533202901669
 31
0.0
  0
LINE
  5
237
  8
DATA
  6
CONTINUOUS
 62
     7
 10
556.7343723211884
 20
-476.5941633505304
 30
0.0
 11
552.883264319838
 21
-473.8560804573376
 31
0.0
  0
LINE
  5
238
  8
DATA
  6
CONTINUOUS
 62
     7
 10
559.1015064495209
 20
-474.4746264213986
 30
0.0
 11
556.7343723211884
 21
-476.5941633505304
 31
0.0
  0
LINE
  5
239
  8
DATA
  6
CONTINUOUS
 62
     7
 10
559.6734118723275
 20
-482.3668765527395
 30
0.0
 11
562.411464963257
 21
-478.515783452518
 31
0.0
  0
LINE
  5
23A
  8
DATA
  6
CONTINUOUS
 62
     7
 10
561.7929488014574
 20
-484.7340553844638
 30
0.0
 11
559.6734118723275
 21
-482.3668765527395
 31
0.0
  0
LINE
  5
23B
  8
DATA
  6
CONTINUOUS
 62
     7
 10
553.9006539667248
 20
-485.3059086533108
 30
0.0
 11
557.7517619680762
 21
-488.0439915465035
 31
0.0
  0
LINE
  5
23C
  8
DATA
  6
CONTINUOUS
 62
     7
 10
551.5335198383923
 20
-487.4254530330072
 30
0.0
 11
553.9006539667248
 21
-485.3059086533108
 31
0.0
  0
LINE
  5
23D
  8
DATA
  6
CONTINUOUS
 62
     7
 10
554.7362498106354
 20
-485.9000018607617
 30
0.0
 11
552.5012589154844
 21
-487.9011940043788
 31
0.0
  0
LINE
  5
23E
  8
DATA
  6
CONTINUOUS
 62
     7
 10
560.2674901786445
 20
-481.5312807088271
 30
0.0
 11
562.2686525200011
 21
-483.766279054546
 31
0.0
  0
LINE
  5
23F
  8
DATA
  6
CONTINUOUS
 62
     7
 10
550.3675361092696
 20
-480.3687912950136
 30
0.0
 11
548.3663737679121
 21
-478.1337929492975
 31
0.0
  0
LINE
  5
240
  8
DATA
  6
CONTINUOUS
 62
     7
 10
555.8987764772778
 20
-476.0000701430818
 30
0.0
 11
558.1337673724288
 21
-473.9988779994619
 31
0.0
  0
LINE
  5
241
  8
DATA
  6
CONTINUOUS
 62
     7
 10
559.3255598611245
 20
-512.7107656596072
 30
0.0
 11
556.8857678161271
 21
-514.7462751088219
 31
0.0
  0
LINE
  5
242
  8
DATA
  6
CONTINUOUS
 62
     7
 10
556.0714507878415
 20
-514.1233407615646
 30
0.0
 11
558.3749868873961
 21
-512.2014896920396
 31
0.0
  0
LINE
  5
243
  8
DATA
  6
CONTINUOUS
 62
     7
 10
548.9783334318995
 20
-515.0419284567606
 30
0.0
 11
551.0138279799826
 21
-517.4817428534566
 31
0.0
  0
LINE
  5
244
  8
DATA
  6
CONTINUOUS
 62
     7
 10
550.3909010832908
 20
-518.2960598817385
 30
0.0
 11
548.4690723654635
 21
-515.9924865293565
 31
0.0
  0
LINE
  5
245
  8
DATA
  6
CONTINUOUS
 62
     7
 10
561.6566928560137
 20
-523.0579995393991
 30
0.0
 11
559.6211983079315
 21
-520.6181851427032
 31
0.0
  0
LINE
  5
246
  8
DATA
  6
CONTINUOUS
 62
     7
 10
551.3094664267896
 20
-525.3891623365525
 30
0.0
 11
553.7493180763117
 21
-523.35364543677
 31
0.0
  0
LINE
  5
247
  8
DATA
  6
CONTINUOUS
 62
     7
 10
553.7493180763117
 20
-523.35364543677
 30
0.0
 11
557.5023170285817
 21
-526.2246613231082
 31
0.0
  0
LINE
  5
248
  8
DATA
  6
CONTINUOUS
 62
     7
 10
559.6211983079315
 20
-520.6181851427032
 30
0.0
 11
562.4922290953996
 21
-516.8651414870405
 31
0.0
  0
LINE
  5
249
  8
DATA
  6
CONTINUOUS
 62
     7
 10
556.8857678161271
 20
-514.7462751088219
 30
0.0
 11
553.1327092593315
 21
-511.8752592224864
 31
0.0
  0
LINE
  5
24A
  8
DATA
  6
CONTINUOUS
 62
     7
 10
551.0138279799826
 20
-517.4817428534566
 30
0.0
 11
548.1427971925145
 21
-521.2347865091192
 31
0.0
  0
LINE
  5
24B
  8
DATA
  6
CONTINUOUS
 62
     7
 10
554.5636351045973
 20
-523.9765872345952
 30
0.0
 11
552.260039400518
 21
-525.8984383041197
 31
0.0
  0
LINE
  5
24C
  8
DATA
  6
CONTINUOUS
 62
     7
 10
560.2441252046224
 20
-519.8038681144185
 30
0.0
 11
562.1660135269753
 21
-522.1074414668001
 31
0.0
  0
LINE
  5
24D
  8
DATA
  6
CONTINUOUS
 62
     7
 10
629.9988246384269
 20
-477.752368689069
 30
0.0
 11
632.0278222932225
 21
-475.3071526322437
 31
0.0
  0
LINE
  5
24E
  8
DATA
  6
CONTINUOUS
 62
     7
 10
632.9418576927778
 20
-475.7716357988502
 30
0.0
 11
631.0261086365576
 21
-478.0803127887334
 31
0.0
  0
LINE
  5
24F
  8
DATA
  6
CONTINUOUS
 62
     7
 10
639.7496481848352
 20
-473.5786213908268
 30
0.0
 11
637.3044321280117
 21
-471.5495939337688
 31
0.0
  0
LINE
  5
250
  8
DATA
  6
CONTINUOUS
 62
     7
 10
637.7689301957485
 20
-470.6355734353442
 30
0.0
 11
640.0775922845
 21
-472.5513075904319
 31
0.0
  0
LINE
  5
251
  8
DATA
  6
CONTINUOUS
 62
     7
 10
635.5759008865948
 20
-463.827753141024
 30
0.0
 11
633.5469032317992
 21
-466.2729691978466
 31
0.0
  0
LINE
  5
252
  8
DATA
  6
CONTINUOUS
 62
     7
 10
632.0278222932225
 20
-475.3071526322437
 30
0.0
 11
636.2403721376063
 21
-477.4478938713464
 31
0.0
  0
LINE
  5
253
  8
DATA
  6
CONTINUOUS
 62
     7
 10
628.2702933970099
 20
-470.030527896321
 30
0.0
 11
626.129537256777
 21
-474.2430479384434
 31
0.0
  0
LINE
  5
254
  8
DATA
  6
CONTINUOUS
 62
     7
 10
625.8250773401855
 20
-468.0015004392635
 30
0.0
 11
628.2702933970099
 21
-470.030527896321
 31
0.0
  0
LINE
  5
255
  8
DATA
  6
CONTINUOUS
 62
     7
 10
633.5469032317992
 20
-466.2729691978466
 30
0.0
 11
629.3343533874154
 21
-464.1322279587466
 31
0.0
  0
LINE
  5
256
  8
DATA
  6
CONTINUOUS
 62
     7
 10
637.3044321280117
 20
-471.5495939337688
 30
0.0
 11
639.4451882682438
 21
-467.3370738916465
 31
0.0
  0
LINE
  5
257
  8
DATA
  6
CONTINUOUS
 62
     7
 10
632.6328678322438
 20
-465.8084860312424
 30
0.0
 11
634.5486168884631
 21
-463.4998090413596
 31
0.0
  0
LINE
  5
258
  8
DATA
  6
CONTINUOUS
 62
     7
 10
627.8057953292732
 20
-470.9445334936167
 30
0.0
 11
625.4971332405216
 21
-469.0288142396585
 31
0.0
  0
LINE
  5
259
  8
DATA
  6
CONTINUOUS
 62
     7
 10
-634.6592428879144
 20
-463.5274506400906
 30
0.0
 11
-634.8480104203813
 21
-466.6992607646948
 31
0.0
  0
LINE
  5
25A
  8
DATA
  6
CONTINUOUS
 62
     7
 10
-635.8596780328157
 20
-466.8656915012093
 30
0.0
 11
-635.6814605013728
 21
-463.870981323189
 31
0.0
  0
LINE
  5
25B
  8
DATA
  6
CONTINUOUS
 62
     7
 10
-628.6965253593321
 20
-468.7293760043449
 30
0.0
 11
-629.4635163943171
 21
-464.0667970908071
 31
0.0
  0
LINE
  5
25C
  8
DATA
  6
CONTINUOUS
 62
     7
 10
-625.5246705313325
 20
-468.9180988334201
 30
0.0
 11
-628.6965253593321
 21
-468.7293760043449
 31
0.0
  0
LINE
  5
25D
  8
DATA
  6
CONTINUOUS
 62
     7
 10
-630.7266555001138
 20
-474.880861065395
 30
0.0
 11
-626.0640318831797
 21
-474.1138253270165
 31
0.0
  0
LINE
  5
25E
  8
DATA
  6
CONTINUOUS
 62
     7
 10
-630.915363428056
 20
-478.0526711900025
 30
0.0
 11
-630.7266555001138
 21
-474.880861065395
 31
0.0
  0
LINE
  5
25F
  8
DATA
  6
CONTINUOUS
 62
     7
 10
-636.8780809566374
 20
-472.8507309246124
 30
0.0
 11
-636.1110899216533
 21
-477.5133247392855
 31
0.0
  0
LINE
  5
260
  8
DATA
  6
CONTINUOUS
 62
     7
 10
-640.0499357846379
 20
-472.6620229966729
 30
0.0
 11
-636.8780809566374
 21
-472.8507309246124
 31
0.0
  0
LINE
  5
261
  8
DATA
  6
CONTINUOUS
 62
     7
 10
-634.8480104203813
 20
-466.6992607646948
 30
0.0
 11
-639.5105744327907
 21
-467.466281601944
 31
0.0
  0
LINE
  5
262
  8
DATA
  6
CONTINUOUS
 62
     7
 10
-629.7149878876803
 20
-474.7144303288837
 30
0.0
 11
-629.8931458145976
 21
-477.7091256057688
 31
0.0
  0
LINE
  5
263
  8
DATA
  6
CONTINUOUS
 62
     7
 10
-636.7116651212568
 20
-473.8623985370464
 30
0.0
 11
-639.7063752992749
 21
-473.6842257089993
 31
0.0
  0
LINE
  5
264
  8
DATA
  6
CONTINUOUS
 62
     7
 10
-628.8629411947136
 20
-467.7177083919114
 30
0.0
 11
-625.8682310166955
 21
-467.8958812199612
 31
0.0
  0
LINE
  5
265
  8
DATA
  6
CONTINUOUS
 62
     7
 10
-550.9842641353011
 20
-482.4347959096217
 30
0.0
 11
-548.1863084961774
 21
-478.6269607938302
 31
0.0
  0
LINE
  5
266
  8
DATA
  6
CONTINUOUS
 62
     7
 10
-548.9019800346491
 20
-484.8348168349339
 30
0.0
 11
-550.9842641353011
 21
-482.4347959096217
 31
0.0
  0
LINE
  5
267
  8
DATA
  6
CONTINUOUS
 62
     7
 10
-556.8022022712826
 20
-485.283229131333
 30
0.0
 11
-552.9943671554925
 21
-488.0811773198907
 31
0.0
  0
LINE
  5
268
  8
DATA
  6
CONTINUOUS
 62
     7
 10
-559.2022380977273
 20
-487.3655132319859
 30
0.0
 11
-556.8022022712826
 21
-485.283229131333
 31
0.0
  0
LINE
  5
269
  8
DATA
  6
CONTINUOUS
 62
     7
 10
-559.6506429435608
 20
-479.4652835447869
 30
0.0
 11
-562.4485985826855
 21
-483.2731112100105
 31
0.0
  0
LINE
  5
26A
  8
DATA
  6
CONTINUOUS
 62
     7
 10
-561.7329270442128
 20
-477.0652626194742
 30
0.0
 11
-559.6506429435608
 21
-479.4652835447869
 31
0.0
  0
LINE
  5
26B
  8
DATA
  6
CONTINUOUS
 62
     7
 10
-553.8327048075794
 20
-476.6168577736403
 30
0.0
 11
-557.6405399233695
 21
-473.8189021345152
 31
0.0
  0
LINE
  5
26C
  8
DATA
  6
CONTINUOUS
 62
     7
 10
-551.4326689811346
 20
-474.5345587718548
 30
0.0
 11
-553.8327048075794
 21
-476.6168577736403
 31
0.0
  0
LINE
  5
26D
  8
DATA
  6
CONTINUOUS
 62
     7
 10
-555.9760239424108
 20
-485.8903161253575
 30
0.0
 11
-558.2420091908575
 21
-487.8563192471943
 31
0.0
  0
LINE
  5
26E
  8
DATA
  6
CONTINUOUS
 62
     7
 10
-560.2577150364518
 20
-480.29149167592
 30
0.0
 11
-562.2237703122496
 21
-478.0254915263426
 31
0.0
  0
LINE
  5
26F
  8
DATA
  6
CONTINUOUS
 62
     7
 10
-554.6588831364511
 20
-476.0097707796158
 30
0.0
 11
-552.3928978880044
 21
-474.0437602072143
 31
0.0
  0
LINE
  5
270
  8
DATA
  6
CONTINUOUS
 62
     7
 10
-550.3771920424101
 20
-481.6085877784858
 30
0.0
 11
-548.411196371138
 21
-483.8745879280632
 31
0.0
  0
LINE
  5
271
  8
DATA
  6
CONTINUOUS
 62
     7
 10
-634.193552729666
 20
-524.8506503491913
 30
0.0
 11
-638.9186418893928
 21
-524.8906524364143
 31
0.0
  0
LINE
  5
272
  8
DATA
  6
CONTINUOUS
 62
     7
 10
-633.5187698957329
 20
-521.745709051706
 30
0.0
 11
-634.193552729666
 21
-524.8506503491913
 31
0.0
  0
LINE
  5
273
  8
DATA
  6
CONTINUOUS
 62
     7
 10
-628.4280069716574
 20
-527.803674612142
 30
0.0
 11
-628.4680016083116
 21
-523.0785854524161
 31
0.0
  0
LINE
  5
274
  8
DATA
  6
CONTINUOUS
 62
     7
 10
-625.3230880258675
 20
-528.4784797977736
 30
0.0
 11
-628.4280069716574
 21
-527.803674612142
 31
0.0
  0
LINE
  5
275
  8
DATA
  6
CONTINUOUS
 62
     7
 10
-631.3810535863036
 20
-533.569235271284
 30
0.0
 11
-626.6559644265767
 21
-533.5292257334959
 31
0.0
  0
LINE
  5
276
  8
DATA
  6
CONTINUOUS
 62
     7
 10
-632.0558364202375
 20
-536.6741691182042
 30
0.0
 11
-631.3810535863036
 21
-533.569235271284
 31
0.0
  0
LINE
  5
277
  8
DATA
  6
CONTINUOUS
 62
     7
 10
-637.146599344313
 20
-530.6162110083333
 30
0.0
 11
-637.1066047076588
 21
-535.3413001680588
 31
0.0
  0
LINE
  5
278
  8
DATA
  6
CONTINUOUS
 62
     7
 10
-640.2515182901029
 20
-529.9414058227012
 30
0.0
 11
-637.146599344313
 21
-530.6162110083333
 31
0.0
  0
LINE
  5
279
  8
DATA
  6
CONTINUOUS
 62
     7
 10
-637.1378970835808
 20
-531.641438650332
 30
0.0
 11
-640.0694860690232
 21
-531.004310975426
 31
0.0
  0
LINE
  5
27A
  8
DATA
  6
CONTINUOUS
 62
     7
 10
-635.2188101739289
 20
-524.8593302582271
 30
0.0
 11
-634.5816974001523
 21
-521.9277710750493
 31
0.0
  0
LINE
  5
27B
  8
DATA
  6
CONTINUOUS
 62
     7
 10
-628.4367092323896
 20
-526.7784469701428
 30
0.0
 11
-625.5051202469463
 21
-527.4155746450492
 31
0.0
  0
LINE
  5
27C
  8
DATA
  6
CONTINUOUS
 62
     7
 10
-630.3557961420415
 20
-533.5605553622477
 30
0.0
 11
-630.9929089158172
 21
-536.4921145454286
 31
0.0
  0
LINE
  5
27D
  8
DATA
  6
CONTINUOUS
 62
     7
 10
656.7597068999416
 20
-654.3875713409411
 30
0.0
 11
654.2629329285023
 21
-652.4223542537829
 31
0.0
  0
LINE
  5
27E
  8
DATA
  6
CONTINUOUS
 62
     7
 10
654.7036487905384
 20
-651.4966549936316
 30
0.0
 11
657.0610077766773
 21
-653.3521326986547
 31
0.0
  0
LINE
  5
27F
  8
DATA
  6
CONTINUOUS
 62
     7
 10
652.3356205943232
 20
-644.7477165200053
 30
0.0
 11
650.3703997818825
 21
-647.2445016672914
 31
0.0
  0
LINE
  5
280
  8
DATA
  6
CONTINUOUS
 62
     7
 10
649.4446818953161
 20
-646.8037671788429
 30
0.0
 11
651.3001707761882
 21
-644.4464007421357
 31
0.0
  0
LINE
  5
281
  8
DATA
  6
CONTINUOUS
 62
     7
 10
647.1198669801356
 20
-658.8116799982554
 30
0.0
 11
649.0850877925755
 21
-656.3148948509693
 31
0.0
  0
LINE
  5
282
  8
DATA
  6
CONTINUOUS
 62
     7
 10
645.1925546459547
 20
-651.1370385391924
 30
0.0
 11
643.1612920191887
 21
-655.4034224460138
 31
0.0
  0
LINE
  5
283
  8
DATA
  6
CONTINUOUS
 62
     7
 10
642.6957210699907
 20
-649.1718214520374
 30
0.0
 11
645.1925546459547
 21
-651.1370385391924
 31
0.0
  0
LINE
  5
284
  8
DATA
  6
CONTINUOUS
 62
     7
 10
649.0850877925755
 20
-656.3148948509693
 30
0.0
 11
653.3514605235455
 21
-658.3461574777357
 31
0.0
  0
LINE
  5
285
  8
DATA
  6
CONTINUOUS
 62
     7
 10
650.3703997818825
 20
-647.2445016672914
 30
0.0
 11
646.1040270509125
 21
-645.213239040525
 31
0.0
  0
LINE
  5
286
  8
DATA
  6
CONTINUOUS
 62
     7
 10
654.2629329285023
 20
-652.4223542537829
 30
0.0
 11
656.2941955552701
 21
-648.1559703469643
 31
0.0
  0
LINE
  5
287
  8
DATA
  6
CONTINUOUS
 62
     7
 10
644.7517791793948
 20
-652.0627377993469
 30
0.0
 11
642.394420193255
 21
-650.2072638196059
 31
0.0
  0
LINE
  5
288
  8
DATA
  6
CONTINUOUS
 62
     7
 10
650.0107460746171
 20
-656.7556293394209
 30
0.0
 11
648.1553167982697
 21
-659.1129920508424
 31
0.0
  0
LINE
  5
289
  8
DATA
  6
CONTINUOUS
 62
     7
 10
626.4481830504542
 20
-525.2019072689195
 30
0.0
 11
628.4836775985364
 21
-527.6417216656127
 31
0.0
  0
LINE
  5
28A
  8
DATA
  6
CONTINUOUS
 62
     7
 10
627.8607507018446
 20
-528.4560386938974
 30
0.0
 11
625.9388623794907
 21
-526.1524653415158
 31
0.0
  0
LINE
  5
28B
  8
DATA
  6
CONTINUOUS
 62
     7
 10
636.7954094796783
 20
-522.8707444717661
 30
0.0
 11
634.3555578301543
 21
-524.9062539209808
 31
0.0
  0
LINE
  5
28C
  8
DATA
  6
CONTINUOUS
 62
     7
 10
639.1265424745684
 20
-533.2179783515553
 30
0.0
 11
637.0910479264862
 21
-530.7781639548625
 31
0.0
  0
LINE
  5
28D
  8
DATA
  6
CONTINUOUS
 62
     7
 10
628.7793160453434
 20
-535.5491411487087
 30
0.0
 11
631.2191676948673
 21
-533.5136242489293
 31
0.0
  0
LINE
  5
28E
  8
DATA
  6
CONTINUOUS
 62
     7
 10
628.4836775985364
 20
-527.6417216656127
 30
0.0
 11
625.6126468110683
 21
-531.3947653212781
 31
0.0
  0
LINE
  5
28F
  8
DATA
  6
CONTINUOUS
 62
     7
 10
637.0910479264862
 20
-530.7781639548625
 30
0.0
 11
639.9620787139534
 21
-527.0251202991994
 31
0.0
  0
LINE
  5
290
  8
DATA
  6
CONTINUOUS
 62
     7
 10
634.3555578301543
 20
-524.9062539209808
 30
0.0
 11
630.6025588778853
 21
-522.035238034643
 31
0.0
  0
LINE
  5
291
  8
DATA
  6
CONTINUOUS
 62
     7
 10
631.2191676948673
 20
-533.5136242489293
 30
0.0
 11
634.9721666471364
 21
-536.3846401352675
 31
0.0
  0
LINE
  5
292
  8
DATA
  6
CONTINUOUS
 62
     7
 10
632.0334847231511
 20
-534.1365660467513
 30
0.0
 11
629.7298890190727
 21
-536.0584171162759
 31
0.0
  0
LINE
  5
293
  8
DATA
  6
CONTINUOUS
 62
     7
 10
637.7139748231771
 20
-529.9638469265774
 30
0.0
 11
639.63586314553
 21
-532.2674202789594
 31
0.0
  0
LINE
  5
294
  8
DATA
  6
CONTINUOUS
 62
     7
 10
633.5412408018706
 20
-524.2833195737235
 30
0.0
 11
635.8448365059498
 21
-522.3614685041989
 31
0.0
  0
LINE
  5
295
  8
DATA
  6
CONTINUOUS
 62
     7
 10
395.5470757255557
 20
-712.0613126092471
 30
0.0
 11
376.2486800649162
 21
-727.5000321179868
 31
0.0
  0
LINE
  5
296
  8
DATA
  6
CONTINUOUS
 62
     7
 10
355.7008841416241
 20
-708.4995845795202
 30
0.0
 11
394.2976754629012
 21
-708.4995845795202
 31
0.0
  0
LINE
  5
297
  8
DATA
  6
CONTINUOUS
 62
     7
 10
373.7498795396091
 20
-727.5000321179868
 30
0.0
 11
354.4514838789705
 21
-712.0613126092471
 31
0.0
  0
LINE
  5
298
  8
DATA
  6
CONTINUOUS
 62
     7
 10
-640.9153338913325
 20
-539.8866742326395
 30
0.0
 11
-656.7526735659235
 21
-539.8866742326395
 31
0.0
  0
LINE
  5
299
  8
DATA
  6
CONTINUOUS
 62
     7
 10
-640.9153338913325
 20
-539.8866742326395
 30
0.0
 11
-640.9153338913325
 21
-537.2099243962534
 31
0.0
  0
LINE
  5
29A
  8
DATA
  6
CONTINUOUS
 62
     7
 10
-640.9153338913325
 20
-537.2099243962534
 30
0.0
 11
-632.7873031579852
 21
-537.2099243962534
 31
0.0
  0
LINE
  5
29B
  8
DATA
  6
CONTINUOUS
 62
     7
 10
-624.7873029455536
 20
-529.2099390849553
 30
0.0
 11
-624.7873029455536
 21
-521.9999596060738
 31
0.0
  0
LINE
  5
29C
  8
DATA
  6
CONTINUOUS
 62
     7
 10
-630.7218910827022
 20
-521.9999596060738
 30
0.0
 11
-605.3553335431211
 21
-521.9999596060738
 31
0.0
  0
LINE
  5
29D
  8
DATA
  6
CONTINUOUS
 62
     7
 10
-597.5967316592328
 20
-514.2413726233185
 30
0.0
 11
-597.5967316592328
 21
-485.7586273766847
 31
0.0
  0
LINE
  5
29E
  8
DATA
  6
CONTINUOUS
 62
     7
 10
-630.7218896843204
 20
-478.0000403939262
 30
0.0
 11
-605.3553335431211
 21
-478.0000403939262
 31
0.0
  0
LINE
  5
29F
  8
DATA
  6
CONTINUOUS
 62
     7
 10
-624.7873029455536
 20
-478.0000403939262
 30
0.0
 11
-624.7873029455536
 21
-470.7900534644805
 31
0.0
  0
LINE
  5
2A0
  8
DATA
  6
CONTINUOUS
 62
     7
 10
-632.7873031579852
 20
-462.7900681531792
 30
0.0
 11
-640.9153338913325
 21
-462.7900681531792
 31
0.0
  0
LINE
  5
2A1
  8
DATA
  6
CONTINUOUS
 62
     7
 10
-640.9153338913325
 20
-462.7900681531792
 30
0.0
 11
-640.9153338913325
 21
-460.1133332179256
 31
0.0
  0
LINE
  5
2A2
  8
DATA
  6
CONTINUOUS
 62
     7
 10
-640.9153338913325
 20
-460.1133332179256
 30
0.0
 11
-656.7526735659235
 21
-460.1133332179256
 31
0.0
  0
LINE
  5
2A3
  8
DATA
  6
CONTINUOUS
 62
     7
 10
640.9153338913325
 20
-460.1133332179256
 30
0.0
 11
656.7526735659244
 21
-460.1133332179256
 31
0.0
  0
LINE
  5
2A4
  8
DATA
  6
CONTINUOUS
 62
     7
 10
632.7873627625099
 20
-462.7900681531792
 30
0.0
 11
640.9153338913325
 21
-462.7900681531792
 31
0.0
  0
LINE
  5
2A5
  8
DATA
  6
CONTINUOUS
 62
     7
 10
624.7873625500793
 20
-478.0000403939262
 30
0.0
 11
624.7873625500793
 21
-470.7900534644805
 31
0.0
  0
LINE
  5
2A6
  8
DATA
  6
CONTINUOUS
 62
     7
 10
640.9153338913325
 20
-478.0000403939262
 30
0.0
 11
631.0927189788733
 21
-478.0000403939262
 31
0.0
  0
LINE
  5
2A7
  8
DATA
  6
CONTINUOUS
 62
     7
 10
630.7219497897767
 20
-478.0000403939262
 30
0.0
 11
605.3553931476467
 21
-478.0000403939262
 31
0.0
  0
LINE
  5
2A8
  8
DATA
  6
CONTINUOUS
 62
     7
 10
597.5967912637593
 20
-485.7586273766847
 30
0.0
 11
597.5967912637593
 21
-514.2413726233185
 31
0.0
  0
LINE
  5
2A9
  8
DATA
  6
CONTINUOUS
 62
     7
 10
640.9153338913325
 20
-521.9999596060738
 30
0.0
 11
605.3553931476467
 21
-521.9999596060738
 31
0.0
  0
LINE
  5
2AA
  8
DATA
  6
CONTINUOUS
 62
     7
 10
624.7873625500793
 20
-529.2099390849553
 30
0.0
 11
624.7873625500793
 21
-521.9999596060738
 31
0.0
  0
LINE
  5
2AB
  8
DATA
  6
CONTINUOUS
 62
     7
 10
640.9153338913325
 20
-537.2099243962534
 30
0.0
 11
632.7873627625099
 21
-537.2099243962534
 31
0.0
  0
LINE
  5
2AC
  8
DATA
  6
CONTINUOUS
 62
     7
 10
640.9153338913325
 20
-539.8866742326395
 30
0.0
 11
656.7526735659244
 21
-539.8866742326395
 31
0.0
  0
LINE
  5
2AD
  8
DATA
  6
CONTINUOUS
 62
     7
 10
-497.2526614920405
 20
-725.6387284573789
 30
0.0
 11
-497.2526614920405
 21
-665.5386975872098
 31
0.0
  0
LINE
  5
2AE
  8
DATA
  6
CONTINUOUS
 62
     7
 10
-469.2026535075217
 20
-733.5887130222945
 30
0.0
 11
-489.3026694765592
 21
-733.5887130222945
 31
0.0
  0
LINE
  5
2AF
  8
DATA
  6
CONTINUOUS
 62
     7
 10
-461.2526614920405
 20
-665.5386975872098
 30
0.0
 11
-461.2526614920405
 21
-725.6387284573789
 31
0.0
  0
LINE
  5
2B0
  8
DATA
  6
CONTINUOUS
 62
     7
 10
-489.3026694765592
 20
-657.5887130222945
 30
0.0
 11
-469.2026535075217
 21
-657.5887130222945
 31
0.0
  0
LINE
  5
2B1
  8
DATA
  6
CONTINUOUS
 62
     7
 10
-373.7498199350835
 20
-727.5000321179868
 30
0.0
 11
-354.4514242744449
 21
-712.0613126092471
 31
0.0
  0
LINE
  5
2B2
  8
DATA
  6
CONTINUOUS
 62
     7
 10
-355.7008245370985
 20
-708.4995845795202
 30
0.0
 11
-394.2976158583756
 21
-708.4995845795202
 31
0.0
  0
LINE
  5
2B3
  8
DATA
  6
CONTINUOUS
 62
     7
 10
-395.5470161210292
 20
-712.0613126092471
 30
0.0
 11
-376.2486204603906
 21
-727.5000321179868
 31
0.0
  0
LINE
  5
2B4
  8
DATA
  6
CONTINUOUS
 62
     7
 10
659.2526661817433
 20
-258.1999689339714
 30
0.0
 11
659.2526661817433
 21
-470.043730298737
 31
0.0
  0
LINE
  5
2B5
  8
DATA
  6
CONTINUOUS
 62
     7
 10
-646.5526703148485
 20
-245.500002869338
 30
0.0
 11
646.5526703148485
 21
-245.500002869338
 31
0.0
  0
LINE
  5
2B6
  8
DATA
  6
CONTINUOUS
 62
     7
 10
659.2526661817433
 20
-470.043730298737
 30
0.0
 11
640.9153338913325
 21
-470.043730298737
 31
0.0
  0
LINE
  5
2B7
  8
DATA
  6
CONTINUOUS
 62
     7
 10
640.9153338913325
 20
-529.9562697012661
 30
0.0
 11
659.2526661817433
 21
-529.9562697012661
 31
0.0
  0
LINE
  5
2B8
  8
DATA
  6
CONTINUOUS
 62
     7
 10
659.2526661817433
 20
-529.9562697012661
 30
0.0
 11
659.2526661817433
 21
-741.8000232148752
 31
0.0
  0
LINE
  5
2B9
  8
DATA
  6
CONTINUOUS
 62
     7
 10
646.5526703148485
 20
-754.5000041806379
 30
0.0
 11
-646.5526703148485
 21
-754.5000041806379
 31
0.0
  0
LINE
  5
2BA
  8
DATA
  6
CONTINUOUS
 62
     7
 10
-659.2526661817433
 20
-470.043730298737
 30
0.0
 11
-659.2526661817433
 21
-258.1999689339714
 31
0.0
  0
LINE
  5
2BB
  8
DATA
  6
CONTINUOUS
 62
     7
 10
-640.9153338913325
 20
-470.043730298737
 30
0.0
 11
-659.2526661817433
 21
-470.043730298737
 31
0.0
  0
LINE
  5
2BC
  8
DATA
  6
CONTINUOUS
 62
     7
 10
-659.2526661817433
 20
-529.9562697012661
 30
0.0
 11
-640.9153338913325
 21
-529.9562697012661
 31
0.0
  0
LINE
  5
2BD
  8
DATA
  6
CONTINUOUS
 62
     7
 10
-659.2526661817433
 20
-741.8000232148752
 30
0.0
 11
-659.2526661817433
 21
-529.9562697012661
 31
0.0
  0
LINE
  5
2BE
  8
DATA
  6
CONTINUOUS
 62
     7
 10
640.9153338913325
 20
-478.0000403939262
 30
0.0
 11
640.9153338913325
 21
-460.1133332179256
 31
0.0
  0
LINE
  5
2BF
  8
DATA
  6
CONTINUOUS
 62
     7
 10
640.9153338913325
 20
-539.8866742326395
 30
0.0
 11
640.9153338913325
 21
-521.9999596060738
 31
0.0
  0
LINE
  5
2C0
  8
DATA
  6
CONTINUOUS
 62
     7
 10
-640.9153338913325
 20
-462.7900681531792
 30
0.0
 11
-640.9153338913325
 21
-478.0000403939262
 31
0.0
  0
LINE
  5
2C1
  8
DATA
  6
CONTINUOUS
 62
     7
 10
-634.8527191779017
 20
-478.0000403939262
 30
0.0
 11
-640.9153338913325
 21
-478.0000403939262
 31
0.0
  0
LINE
  5
2C2
  8
DATA
  6
CONTINUOUS
 62
     7
 10
-640.9153338913325
 20
-521.9999596060738
 30
0.0
 11
-640.9153338913325
 21
-537.2099243962534
 31
0.0
  0
LINE
  5
2C3
  8
DATA
  6
CONTINUOUS
 62
     7
 10
-640.9153338913325
 20
-521.9999596060738
 30
0.0
 11
-634.5973733903761
 21
-521.9999596060738
 31
0.0
  0
CIRCLE
  5
2C4
  8
DATA
  6
CONTINUOUS
 62
     7
 10
-649.7276704892706
 20
-316.500367200294
 30
0.0
 40
1.552241147321524
  0
CIRCLE
  5
2C5
  8
DATA
  6
CONTINUOUS
 62
     7
 10
-649.7276704892706
 20
-348.2503037002957
 30
0.0
 40
1.552241147319137
  0
CIRCLE
  5
2C6
  8
DATA
  6
CONTINUOUS
 62
     7
 10
-632.7873043700706
 20
-470.7900586202936
 30
0.0
 40
1.487484524982847
  0
CIRCLE
  5
2C7
  8
DATA
  6
CONTINUOUS
 62
     7
 10
-590.8773881900711
 20
-470.7900586202936
 30
0.0
 40
1.487484524982847
  0
CIRCLE
  5
2C8
  8
DATA
  6
CONTINUOUS
 62
     7
 10
-590.8773881900698
 20
-529.2099417802954
 30
0.0
 40
2.599994800000344
  0
ARC
  5
2C9
  8
DATA
  6
CONTINUOUS
 62
     7
 10
-590.8773881900698
 20
-529.2099417802954
 30
0.0
 40
7.499985000000041
 50
297.220285045868
 51
346.2255414226798
  0
ARC
  5
2CA
  8
DATA
  6
CONTINUOUS
 62
     7
 10
-590.8773881900698
 20
-529.2099417802954
 30
0.0
 40
7.499985000000194
 50
207.2202850458683
 51
256.2256198859848
  0
ARC
  5
2CB
  8
DATA
  6
CONTINUOUS
 62
     7
 10
-590.8773881900698
 20
-529.2099417802954
 30
0.0
 40
7.499985000000041
 50
117.2202850458679
 51
166.2255969086657
  0
ARC
  5
2CC
  8
DATA
  6
CONTINUOUS
 62
     7
 10
-590.8773881900698
 20
-529.2099417802954
 30
0.0
 40
7.499984999999992
 50
27.2202850458691
 51
76.22572848407225
  0
CIRCLE
  5
2CD
  8
DATA
  6
CONTINUOUS
 62
     7
 10
-590.8773881900698
 20
-529.2099417802954
 30
0.0
 40
7.999984000000036
  0
LINE
  5
2CE
  8
DATA
  6
CONTINUOUS
 62
     7
 10
-588.0654337445872
 20
-522.2570366459738
 30
0.0
 11
-590.1026974953731
 21
-524.6954450953231
 31
0.0
  0
LINE
  5
2CF
  8
DATA
  6
CONTINUOUS
 62
     7
 10
-591.0151389466587
 20
-524.2278809967353
 30
0.0
 11
-589.0916622356185
 21
-521.9256490472858
 31
0.0
  0
LINE
  5
2D0
  8
DATA
  6
CONTINUOUS
 62
     7
 10
-586.3628557573941
 20
-529.9846358286364
 30
0.0
 11
-584.2079990845176
 21
-525.7793487144056
 31
0.0
  0
LINE
  5
2D1
  8
DATA
  6
CONTINUOUS
 62
     7
 10
-583.9244743975768
 20
-532.0218610230431
 30
0.0
 11
-586.3628557573941
 21
-529.9846358286364
 31
0.0
  0
LINE
  5
2D2
  8
DATA
  6
CONTINUOUS
 62
     7
 10
-591.6520944206995
 20
-533.7244421347732
 30
0.0
 11
-587.4468099153517
 21
-535.8793524710647
 31
0.0
  0
LINE
  5
2D3
  8
DATA
  6
CONTINUOUS
 62
     7
 10
-593.6893461889842
 20
-536.1628594420854
 30
0.0
 11
-591.6520944206995
 21
-533.7244421347732
 31
0.0
  0
LINE
  5
2D4
  8
DATA
  6
CONTINUOUS
 62
     7
 10
-595.3918887443388
 20
-528.4352123294289
 30
0.0
 11
-597.5467928315526
 21
-532.6405385156926
 31
0.0
  0
LINE
  5
2D5
  8
DATA
  6
CONTINUOUS
 62
     7
 10
-597.8302701041537
 20
-526.3979871350241
 30
0.0
 11
-595.3918887443388
 21
-528.4352123294289
 31
0.0
  0
LINE
  5
2D6
  8
DATA
  6
CONTINUOUS
 62
     7
 10
-590.1026974953731
 20
-524.6954450953231
 30
0.0
 11
-594.3079700182195
 21
-522.5405436169934
 31
0.0
  0
LINE
  5
2D7
  8
DATA
  6
CONTINUOUS
 62
     7
 10
-590.7396529694138
 20
-534.1920062333613
 30
0.0
 11
-592.6631296804512
 21
-536.4942381828116
 31
0.0
  0
LINE
  5
2D8
  8
DATA
  6
CONTINUOUS
 62
     7
 10
-595.8594408604266
 20
-529.3476626386762
 30
0.0
 11
-598.1616816678393
 21
-527.4241979101341
 31
0.0
  0
LINE
  5
2D9
  8
DATA
  6
CONTINUOUS
 62
     7
 10
-585.8953036413038
 20
-529.072185519391
 30
0.0
 11
-583.5931102482332
 21
-530.9956893199624
 31
0.0
  0
CIRCLE
  5
2DA
  8
DATA
  6
CONTINUOUS
 62
     7
 10
-590.8773881900698
 20
-529.2099417802954
 30
0.0
 40
1.487484524982926
  0
CIRCLE
  5
2DB
  8
DATA
  6
CONTINUOUS
 62
     7
 10
-632.7873043700706
 20
-529.2099417802951
 30
0.0
 40
1.487484524982847
  0
CIRCLE
  5
2DC
  8
DATA
  6
CONTINUOUS
 62
     7
 10
-555.3174593100707
 20
-519.0499621002946
 30
0.0
 40
1.487484524982847
  0
CIRCLE
  5
2DD
  8
DATA
  6
CONTINUOUS
 62
     7
 10
-649.7276704892706
 20
-683.5296304282883
 30
0.0
 40
2.599994800000331
  0
ARC
  5
2DE
  8
DATA
  6
CONTINUOUS
 62
     7
 10
-649.7276704892706
 20
-683.5296304282883
 30
0.0
 40
7.499985000000581
 50
202.6915190001611
 51
251.6967364812251
  0
ARC
  5
2DF
  8
DATA
  6
CONTINUOUS
 62
     7
 10
-649.7276704892706
 20
-683.5296304282883
 30
0.0
 40
7.499985000000406
 50
22.69151900015788
 51
71.69693628682163
  0
ARC
  5
2E0
  8
DATA
  6
CONTINUOUS
 62
     7
 10
-649.7276704892706
 20
-683.5296304282883
 30
0.0
 40
7.499985000000214
 50
112.6915190002715
 51
161.6969037352645
  0
ARC
  5
2E1
  8
DATA
  6
CONTINUOUS
 62
     7
 10
-649.7276704892706
 20
-683.5296304282883
 30
0.0
 40
7.499985000000214
 50
292.6915190002715
 51
341.6968415672212
  0
LINE
  5
2E2
  8
DATA
  6
CONTINUOUS
 62
     7
 10
-646.375525664866
 20
-676.8204721437478
 30
0.0
 11
-648.5988936775325
 21
-679.0903838403156
 31
0.0
  0
LINE
  5
2E3
  8
DATA
  6
CONTINUOUS
 62
     7
 10
-649.4716231408715
 20
-678.5522406559594
 30
0.0
 11
-647.3723517504336
 21
-676.4090817082911
 31
0.0
  0
LINE
  5
2E4
  8
DATA
  6
CONTINUOUS
 62
     7
 10
-653.0798427005407
 20
-690.2387882252183
 30
0.0
 11
-650.8564150833486
 21
-687.9688802539331
 31
0.0
  0
LINE
  5
2E5
  8
DATA
  6
CONTINUOUS
 62
     7
 10
-649.9837452245351
 20
-688.5070234382893
 30
0.0
 11
-652.083016614974
 21
-690.6501786606755
 31
0.0
  0
LINE
  5
2E6
  8
DATA
  6
CONTINUOUS
 62
     7
 10
-656.4368291849491
 20
-680.1774735292865
 30
0.0
 11
-654.1669100378153
 21
-682.4008750695002
 31
0.0
  0
LINE
  5
2E7
  8
DATA
  6
CONTINUOUS
 62
     7
 10
-654.7050792991517
 20
-683.2735523788783
 30
0.0
 11
-656.8482196204063
 21
-681.1743070654202
 31
0.0
  0
LINE
  5
2E8
  8
DATA
  6
CONTINUOUS
 62
     7
 10
-643.0185391804575
 20
-686.8817905649621
 30
0.0
 11
-645.2883987230657
 21
-684.6583890247484
 31
0.0
  0
LINE
  5
2E9
  8
DATA
  6
CONTINUOUS
 62
     7
 10
-644.7502890662549
 20
-683.7857079900882
 30
0.0
 11
-642.6071487450004
 21
-685.8849533035459
 31
0.0
  0
LINE
  5
2EA
  8
DATA
  6
CONTINUOUS
 62
     7
 10
-650.8564150833486
 20
-687.9688802539331
 30
0.0
 11
-646.8344209071997
 21
-690.4490804419811
 31
0.0
  0
LINE
  5
2EB
  8
DATA
  6
CONTINUOUS
 62
     7
 10
-654.1669100378153
 20
-682.4008750695002
 30
0.0
 11
-656.6471139511464
 21
-686.4228953226302
 31
0.0
  0
LINE
  5
2EC
  8
DATA
  6
CONTINUOUS
 62
     7
 10
-648.5988936775325
 20
-679.0903838403156
 30
0.0
 11
-652.620947458207
 21
-676.610179926985
 31
0.0
  0
LINE
  5
2ED
  8
DATA
  6
CONTINUOUS
 62
     7
 10
-645.2883987230657
 20
-684.6583890247484
 30
0.0
 11
-642.8081948097347
 21
-680.6363650463363
 31
0.0
  0
POLYLINE
  5
2EE
  8
DATA
  6
CONTINUOUS
 62
     7
 66
     1
 10
0.0
 20
0.0
 30
0.0
 70
   129
  0
VERTEX
  5
8107000000000093
  8
DATA
  6
CONTINUOUS
 62
     7
 10
-517.8286508338949
 20
-641.7018395820714
 30
0.0
  0
VERTEX
  5
8107000000000094
  8
DATA
  6
CONTINUOUS
 62
     7
 10
-518.462723776867
 20
-644.3773600751169
 30
0.0
  0
VERTEX
  5
8107000000000095
  8
DATA
  6
CONTINUOUS
 62
     7
 10
-516.4626343169709
 20
-646.2642344639835
 30
0.0
  0
VERTEX
  5
8107000000000096
  8
DATA
  6
CONTINUOUS
 62
     7
 10
-513.828591123154
 20
-645.4755846345192
 30
0.0
  0
VERTEX
  5
8107000000000097
  8
DATA
  6
CONTINUOUS
 62
     7
 10
-513.1945181801818
 20
-642.8000641414737
 30
0.0
  0
VERTEX
  5
8107000000000098
  8
DATA
  6
CONTINUOUS
 62
     7
 10
-515.1945480355532
 20
-640.9131934778925
 30
0.0
  0
SEQEND
  5
81070000000000FF
  8
DATA
  6
CONTINUOUS
 62
     7
  0
CIRCLE
  5
2F6
  8
DATA
  6
CONTINUOUS
 62
     7
 10
-515.8286004049176
 20
-643.5887130222945
 30
0.0
 40
2.749620698673
  0
POLYLINE
  5
2F7
  8
DATA
  6
CONTINUOUS
 62
     7
 66
     1
 10
0.0
 20
0.0
 30
0.0
 70
   129
  0
VERTEX
  5
8107000000000099
  8
DATA
  6
CONTINUOUS
 62
     7
 10
-517.8286508338949
 20
-686.1517506820728
 30
0.0
  0
VERTEX
  5
810700000000009A
  8
DATA
  6
CONTINUOUS
 62
     7
 10
-518.462723776867
 20
-688.8272711751183
 30
0.0
  0
VERTEX
  5
810700000000009B
  8
DATA
  6
CONTINUOUS
 62
     7
 10
-516.4626343169709
 20
-690.7141455639849
 30
0.0
  0
VERTEX
  5
810700000000009C
  8
DATA
  6
CONTINUOUS
 62
     7
 10
-513.828591123154
 20
-689.9254957345206
 30
0.0
  0
VERTEX
  5
810700000000009D
  8
DATA
  6
CONTINUOUS
 62
     7
 10
-513.1945181801818
 20
-687.2499752414751
 30
0.0
  0
VERTEX
  5
810700000000009E
  8
DATA
  6
CONTINUOUS
 62
     7
 10
-515.1945480355532
 20
-685.3631045778939
 30
0.0
  0
SEQEND
  5
8107000000000100
  8
DATA
  6
CONTINUOUS
 62
     7
  0
CIRCLE
  5
2FF
  8
DATA
  6
CONTINUOUS
 62
     7
 10
-515.8286004049176
 20
-688.0386241222959
 30
0.0
 40
2.749620698673
  0
POLYLINE
  5
300
  8
DATA
  6
CONTINUOUS
 62
     7
 66
     1
 10
0.0
 20
0.0
 30
0.0
 70
   129
  0
VERTEX
  5
810700000000009F
  8
DATA
  6
CONTINUOUS
 62
     7
 10
-444.6767971378947
 20
-641.7018395820714
 30
0.0
  0
VERTEX
  5
81070000000000A0
  8
DATA
  6
CONTINUOUS
 62
     7
 10
-445.3108700808668
 20
-644.3773600751169
 30
0.0
  0
VERTEX
  5
81070000000000A1
  8
DATA
  6
CONTINUOUS
 62
     7
 10
-443.3107806209707
 20
-646.2642344639835
 30
0.0
  0
VERTEX
  5
81070000000000A2
  8
DATA
  6
CONTINUOUS
 62
     7
 10
-440.6767374271537
 20
-645.4755846345192
 30
0.0
  0
VERTEX
  5
81070000000000A3
  8
DATA
  6
CONTINUOUS
 62
     7
 10
-440.0426644841816
 20
-642.8000641414737
 30
0.0
  0
VERTEX
  5
81070000000000A4
  8
DATA
  6
CONTINUOUS
 62
     7
 10
-442.042694339553
 20
-640.9131934778925
 30
0.0
  0
SEQEND
  5
8107000000000101
  8
DATA
  6
CONTINUOUS
 62
     7
  0
CIRCLE
  5
308
  8
DATA
  6
CONTINUOUS
 62
     7
 10
-442.6767467089173
 20
-643.5887130222945
 30
0.0
 40
2.749620698673
  0
POLYLINE
  5
309
  8
DATA
  6
CONTINUOUS
 62
     7
 66
     1
 10
0.0
 20
0.0
 30
0.0
 70
   129
  0
VERTEX
  5
81070000000000A5
  8
DATA
  6
CONTINUOUS
 62
     7
 10
-444.6767971378947
 20
-686.1517506820728
 30
0.0
  0
VERTEX
  5
81070000000000A6
  8
DATA
  6
CONTINUOUS
 62
     7
 10
-445.3108700808668
 20
-688.8272711751183
 30
0.0
  0
VERTEX
  5
81070000000000A7
  8
DATA
  6
CONTINUOUS
 62
     7
 10
-443.3107806209707
 20
-690.7141455639849
 30
0.0
  0
VERTEX
  5
81070000000000A8
  8
DATA
  6
CONTINUOUS
 62
     7
 10
-440.6767374271537
 20
-689.9254957345206
 30
0.0
  0
VERTEX
  5
81070000000000A9
  8
DATA
  6
CONTINUOUS
 62
     7
 10
-440.0426644841816
 20
-687.2499752414751
 30
0.0
  0
VERTEX
  5
81070000000000AA
  8
DATA
  6
CONTINUOUS
 62
     7
 10
-442.042694339553
 20
-685.3631045778939
 30
0.0
  0
SEQEND
  5
8107000000000102
  8
DATA
  6
CONTINUOUS
 62
     7
  0
CIRCLE
  5
311
  8
DATA
  6
CONTINUOUS
 62
     7
 10
-442.6767467089173
 20
-688.0386241222959
 30
0.0
 40
2.749620698673
  0
POLYLINE
  5
312
  8
DATA
  6
CONTINUOUS
 62
     7
 66
     1
 10
0.0
 20
0.0
 30
0.0
 70
   129
  0
VERTEX
  5
81070000000000AB
  8
DATA
  6
CONTINUOUS
 62
     7
 10
513.1944813102027
 20
-312.7500368872982
 30
0.0
  0
VERTEX
  5
81070000000000AC
  8
DATA
  6
CONTINUOUS
 62
     7
 10
515.1945155946927
 20
-314.6369182472625
 30
0.0
  0
VERTEX
  5
81070000000000AD
  8
DATA
  6
CONTINUOUS
 62
     7
 10
517.8286406261828
 20
-313.8482243107924
 30
0.0
  0
VERTEX
  5
81070000000000AE
  8
DATA
  6
CONTINUOUS
 62
     7
 10
518.4626685425756
 20
-311.1727503898501
 30
0.0
  0
VERTEX
  5
81070000000000AF
  8
DATA
  6
CONTINUOUS
 62
     7
 10
516.4626342580856
 20
-309.2858690298858
 30
0.0
  0
VERTEX
  5
81070000000000B0
  8
DATA
  6
CONTINUOUS
 62
     7
 10
513.8285422549957
 20
-310.0745132099302
 30
0.0
  0
SEQEND
  5
8107000000000103
  8
DATA
  6
CONTINUOUS
 62
     7
  0
CIRCLE
  5
31A
  8
DATA
  6
CONTINUOUS
 62
     7
 10
515.8285860047204
 20
-311.9613762782956
 30
0.0
 40
2.749620698672974
  0
POLYLINE
  5
31B
  8
DATA
  6
CONTINUOUS
 62
     7
 66
     1
 10
0.0
 20
0.0
 30
0.0
 70
   129
  0
VERTEX
  5
81070000000000B1
  8
DATA
  6
CONTINUOUS
 62
     7
 10
513.1944813102027
 20
-357.1999479872968
 30
0.0
  0
VERTEX
  5
81070000000000B2
  8
DATA
  6
CONTINUOUS
 62
     7
 10
515.1945155946927
 20
-359.0868293472612
 30
0.0
  0
VERTEX
  5
81070000000000B3
  8
DATA
  6
CONTINUOUS
 62
     7
 10
517.8286406261828
 20
-358.298135410791
 30
0.0
  0
VERTEX
  5
81070000000000B4
  8
DATA
  6
CONTINUOUS
 62
     7
 10
518.4626685425756
 20
-355.6226614898487
 30
0.0
  0
VERTEX
  5
81070000000000B5
  8
DATA
  6
CONTINUOUS
 62
     7
 10
516.4626342580856
 20
-353.7357801298845
 30
0.0
  0
VERTEX
  5
81070000000000B6
  8
DATA
  6
CONTINUOUS
 62
     7
 10
513.8285422549957
 20
-354.5244243099288
 30
0.0
  0
SEQEND
  5
8107000000000104
  8
DATA
  6
CONTINUOUS
 62
     7
  0
CIRCLE
  5
323
  8
DATA
  6
CONTINUOUS
 62
     7
 10
515.8285860047204
 20
-356.4112873782942
 30
0.0
 40
2.749620698672974
  0
POLYLINE
  5
324
  8
DATA
  6
CONTINUOUS
 62
     7
 66
     1
 10
0.0
 20
0.0
 30
0.0
 70
   129
  0
VERTEX
  5
81070000000000B7
  8
DATA
  6
CONTINUOUS
 62
     7
 10
440.0426276142016
 20
-357.1999479872968
 30
0.0
  0
VERTEX
  5
81070000000000B8
  8
DATA
  6
CONTINUOUS
 62
     7
 10
442.0426618986916
 20
-359.0868293472612
 30
0.0
  0
VERTEX
  5
81070000000000B9
  8
DATA
  6
CONTINUOUS
 62
     7
 10
444.6767869301817
 20
-358.298135410791
 30
0.0
  0
VERTEX
  5
81070000000000BA
  8
DATA
  6
CONTINUOUS
 62
     7
 10
445.3108148465744
 20
-355.6226614898487
 30
0.0
  0
VERTEX
  5
81070000000000BB
  8
DATA
  6
CONTINUOUS
 62
     7
 10
443.3107805620845
 20
-353.7357801298845
 30
0.0
  0
VERTEX
  5
81070000000000BC
  8
DATA
  6
CONTINUOUS
 62
     7
 10
440.6766885589946
 20
-354.5244243099288
 30
0.0
  0
SEQEND
  5
8107000000000105
  8
DATA
  6
CONTINUOUS
 62
     7
  0
CIRCLE
  5
32C
  8
DATA
  6
CONTINUOUS
 62
     7
 10
442.6767323087192
 20
-356.4112873782942
 30
0.0
 40
2.749620698672974
  0
POLYLINE
  5
32D
  8
DATA
  6
CONTINUOUS
 62
     7
 66
     1
 10
0.0
 20
0.0
 30
0.0
 70
   129
  0
VERTEX
  5
81070000000000BD
  8
DATA
  6
CONTINUOUS
 62
     7
 10
440.0426276142016
 20
-312.7500368872982
 30
0.0
  0
VERTEX
  5
81070000000000BE
  8
DATA
  6
CONTINUOUS
 62
     7
 10
442.0426618986916
 20
-314.6369182472625
 30
0.0
  0
VERTEX
  5
81070000000000BF
  8
DATA
  6
CONTINUOUS
 62
     7
 10
444.6767869301817
 20
-313.8482243107924
 30
0.0
  0
VERTEX
  5
81070000000000C0
  8
DATA
  6
CONTINUOUS
 62
     7
 10
445.3108148465744
 20
-311.1727503898501
 30
0.0
  0
VERTEX
  5
81070000000000C1
  8
DATA
  6
CONTINUOUS
 62
     7
 10
443.3107805620845
 20
-309.2858690298858
 30
0.0
  0
VERTEX
  5
81070000000000C2
  8
DATA
  6
CONTINUOUS
 62
     7
 10
440.6766885589946
 20
-310.0745132099302
 30
0.0
  0
SEQEND
  5
8107000000000106
  8
DATA
  6
CONTINUOUS
 62
     7
  0
CIRCLE
  5
335
  8
DATA
  6
CONTINUOUS
 62
     7
 10
442.6767323087192
 20
-311.9613762782956
 30
0.0
 40
2.749620698672974
  0
ARC
  5
336
  8
DATA
  6
CONTINUOUS
 62
     7
 10
-658.5774855059559
 20
-461.5605066993629
 30
0.0
 40
0.675191398374351
 50
157.3380538157976
 51
179.6770951682321
  0
ARC
  5
337
  8
DATA
  6
CONTINUOUS
 62
     7
 10
-656.7480832367286
 20
-463.4312302331653
 30
0.0
 40
3.317900190611242
 50
90.07926898286186
 51
120.7518512366926
  0
ARC
  5
338
  8
DATA
  6
CONTINUOUS
 62
     7
 10
-657.464677554721
 20
-462.4500466533905
 30
0.0
 40
2.111358473947128
 50
117.6530870282511
 51
137.9609699175375
  0
ARC
  5
339
  8
DATA
  6
CONTINUOUS
 62
     7
 10
-658.2684751924498
 20
-461.7070324905012
 30
0.0
 40
1.016928022591463
 50
138.7258886063352
 51
156.4278911078513
  0
ARC
  5
33A
  8
DATA
  6
CONTINUOUS
 62
     7
 10
-658.5774855059559
 20
-538.4395007512022
 30
0.0
 40
0.6751913983743616
 50
180.3229048317679
 51
202.6619461842024
  0
ARC
  5
33B
  8
DATA
  6
CONTINUOUS
 62
     7
 10
-656.7480832367286
 20
-536.5687772173999
 30
0.0
 40
3.317900190611257
 50
239.2481487633074
 51
269.9207310171381
  0
ARC
  5
33C
  8
DATA
  6
CONTINUOUS
 62
     7
 10
-657.464677554721
 20
-537.5499607971747
 30
0.0
 40
2.111358473947126
 50
222.0390300824625
 51
242.3469129717489
  0
ARC
  5
33D
  8
DATA
  6
CONTINUOUS
 62
     7
 10
-658.2684751924498
 20
-538.2929749600639
 30
0.0
 40
1.016928022591471
 50
203.5721088921487
 51
221.2741113936648
  0
CIRCLE
  5
33E
  8
DATA
  6
CONTINUOUS
 62
     7
 10
649.7277305947287
 20
-316.500367200294
 30
0.0
 40
1.552241147322093
  0
CIRCLE
  5
33F
  8
DATA
  6
CONTINUOUS
 62
     7
 10
-649.7276704892706
 20
-651.7796966402943
 30
0.0
 40
1.552241147322206
  0
CIRCLE
  5
340
  8
DATA
  6
CONTINUOUS
 62
     7
 10
-649.7276704892706
 20
-683.5296304282883
 30
0.0
 40
1.552241147322206
  0
CIRCLE
  5
341
  8
DATA
  6
CONTINUOUS
 62
     7
 10
649.7277305947296
 20
-651.7796966402943
 30
0.0
 40
1.582241087319744
  0
ARC
  5
342
  8
DATA
  6
CONTINUOUS
 62
     7
 10
658.5774855059559
 20
-461.5605066993629
 30
0.0
 40
0.6751913983743616
 50
0.3229048317678547
 51
22.66194618420244
  0
ARC
  5
343
  8
DATA
  6
CONTINUOUS
 62
     7
 10
656.7480832367286
 20
-463.4312302331653
 30
0.0
 40
3.317900190611257
 50
59.24814876330744
 51
89.92073101713814
  0
ARC
  5
344
  8
DATA
  6
CONTINUOUS
 62
     7
 10
657.464677554721
 20
-462.4500466533905
 30
0.0
 40
2.111358473947126
 50
42.03903008246251
 51
62.34691297174892
  0
ARC
  5
345
  8
DATA
  6
CONTINUOUS
 62
     7
 10
658.2684751924498
 20
-461.7070324905012
 30
0.0
 40
1.016928022591471
 50
23.57210889214871
 51
41.27411139366485
  0
ARC
  5
346
  8
DATA
  6
CONTINUOUS
 62
     7
 10
658.5774855059559
 20
-538.4395007512022
 30
0.0
 40
0.675191398374351
 50
337.3380538157975
 51
359.6770951682322
  0
ARC
  5
347
  8
DATA
  6
CONTINUOUS
 62
     7
 10
656.7480832367286
 20
-536.5687772173999
 30
0.0
 40
3.317900190611242
 50
270.0792689828619
 51
300.7518512366926
  0
ARC
  5
348
  8
DATA
  6
CONTINUOUS
 62
     7
 10
657.464677554721
 20
-537.5499607971747
 30
0.0
 40
2.111358473947128
 50
297.6530870282511
 51
317.9609699175375
  0
ARC
  5
349
  8
DATA
  6
CONTINUOUS
 62
     7
 10
658.2684751924498
 20
-538.2929749600639
 30
0.0
 40
1.016928022591463
 50
318.7258886063352
 51
336.4278911078513
  0
LINE
  5
34A
  8
DATA
  6
CONTINUOUS
 62
     7
 10
751.6866048513857
 20
-460.1942847087439
 30
0.0
 11
751.6866048513857
 21
-539.8057156918508
 31
0.0
  0
LINE
  5
34B
  8
DATA
  6
CONTINUOUS
 62
     7
 10
725.0
 20
-247.9999950000006
 30
0.0
 11
725.0
 21
-752.0000049999994
 31
0.0
  0
LINE
  5
34C
  8
DATA
  6
CONTINUOUS
 62
     7
 10
747.7879544240004
 20
-423.8003426513001
 30
0.0
 11
747.7879544240004
 21
-576.1998478002961
 31
0.0
  0
LINE
  5
34D
  8
DATA
  6
CONTINUOUS
 62
     7
 10
756.6779366440005
 20
-539.8057156918508
 30
0.0
 11
756.6779366440005
 21
-460.1942847087439
 31
0.0
  0
LINE
  5
34E
  8
DATA
  6
CONTINUOUS
 62
     7
 10
746.8227563544006
 20
-534.9249303502984
 30
0.0
 11
746.8227563544006
 21
-465.0750700502963
 31
0.0
  0
LINE
  5
34F
  8
DATA
  6
CONTINUOUS
 62
     7
 10
726.5499969000011
 20
-536.7099267802937
 30
0.0
 11
726.5499969000011
 21
-521.7099567802934
 31
0.0
  0
LINE
  5
350
  8
DATA
  6
CONTINUOUS
 62
     7
 10
742.1999656000007
 20
-536.1949278102952
 30
0.0
 11
742.1999656000007
 21
-520.6374589252991
 31
0.0
  0
LINE
  5
351
  8
DATA
  6
CONTINUOUS
 62
     7
 10
727.7499945
 20
-521.7099567802934
 30
0.0
 11
727.7499945
 21
-537.2099257802961
 31
0.0
  0
LINE
  5
352
  8
DATA
  6
CONTINUOUS
 62
     7
 10
725.1819996360009
 20
-479.3625414752983
 30
0.0
 11
725.1819996360009
 21
-520.6374589252964
 31
0.0
  0
LINE
  5
353
  8
DATA
  6
CONTINUOUS
 62
     7
 10
727.721994556
 20
-479.3625414752983
 30
0.0
 11
727.721994556
 21
-520.6374589252964
 31
0.0
  0
LINE
  5
354
  8
DATA
  6
CONTINUOUS
 62
     7
 10
744.2319615360002
 20
-520.6374589252964
 30
0.0
 11
744.2319615360002
 21
-479.3625414752983
 31
0.0
  0
LINE
  5
355
  8
DATA
  6
CONTINUOUS
 62
     7
 10
744.2319615360002
 20
-478.5370431262972
 30
0.0
 11
744.2319615360002
 21
-521.462957274297
 31
0.0
  0
LINE
  5
356
  8
DATA
  6
CONTINUOUS
 62
     7
 10
726.5499969000011
 20
-472.8507349604611
 30
0.0
 11
726.5499969000011
 21
-477.5133242594688
 31
0.0
  0
LINE
  5
357
  8
DATA
  6
CONTINUOUS
 62
     7
 10
726.5499969000011
 20
-463.2900736202951
 30
0.0
 11
726.5499969000011
 21
-478.2900436202954
 31
0.0
  0
LINE
  5
358
  8
DATA
  6
CONTINUOUS
 62
     7
 10
727.7499945
 20
-462.7900746202954
 30
0.0
 11
727.7499945
 21
-478.2900436202954
 31
0.0
  0
LINE
  5
359
  8
DATA
  6
CONTINUOUS
 62
     7
 10
742.1999656000007
 20
-479.3625414752983
 30
0.0
 11
742.1999656000007
 21
-463.805072590294
 31
0.0
  0
LINE
  5
35A
  8
DATA
  6
CONTINUOUS
 62
     7
 10
742.9999640000005
 20
-245.5
 30
0.0
 11
742.9999640000005
 21
-465.0750700502995
 31
0.0
  0
LINE
  5
35B
  8
DATA
  6
CONTINUOUS
 62
     7
 10
758.4599330800002
 20
-245.5
 30
0.0
 11
758.4599330800002
 21
-418.7201627602935
 31
0.0
  0
LINE
  5
35C
  8
DATA
  6
CONTINUOUS
 62
     7
 10
727.4999950000001
 20
-461.5567014140706
 30
0.0
 11
727.4999950000001
 21
-245.5
 31
0.0
  0
ARC
  5
35D
  8
DATA
  6
CONTINUOUS
 62
     7
 10
813.4975230046002
 20
-693.5631130732936
 30
0.0
 40
38.09992379999954
 50
199.4712206344244
 51
116.185498747484
  0
ARC
  5
35E
  8
DATA
  6
CONTINUOUS
 62
     7
 10
813.4975230046002
 20
-693.5631130732936
 30
0.0
 40
22.22495554999964
 50
214.8499045790033
 51
100.806814802906
  0
ARC
  5
35F
  8
DATA
  6
CONTINUOUS
 62
     7
 10
813.4975230046002
 20
-693.5631130732936
 30
0.0
 40
26.98744602499969
 50
208.072486935904
 51
107.5842324461269
  0
ARC
  5
360
  8
DATA
  6
CONTINUOUS
 62
     7
 10
813.4975230046002
 20
-693.5631130732936
 30
0.0
 40
16.04830044351265
 50
232.312738564427
 51
83.34398081752948
  0
ARC
  5
361
  8
DATA
  6
CONTINUOUS
 62
     7
 10
813.4975230046002
 20
-693.5631130732936
 30
0.0
 40
24.61255077480006
 50
211.0640437159125
 51
104.5926756660803
  0
ARC
  5
362
  8
DATA
  6
CONTINUOUS
 62
     7
 10
813.4975230046002
 20
-693.5631130732936
 30
0.0
 40
15.78052623733496
 50
233.5897645765282
 51
82.06695480543112
  0
ARC
  5
363
  8
DATA
  6
CONTINUOUS
 62
     7
 10
813.4975230046002
 20
-693.5631130732936
 30
0.0
 40
36.93871533559048
 50
200.1092943518058
 51
115.5474250301204
  0
ARC
  5
364
  8
DATA
  6
CONTINUOUS
 62
     7
 10
813.4975230046002
 20
-693.5631130732936
 30
0.0
 40
22.64237010000253
 50
214.1176618516316
 51
101.5390575302574
  0
LINE
  5
365
  8
DATA
  6
CONTINUOUS
 62
     7
 10
760.9999280000002
 20
-416.1801678402944
 30
0.0
 11
760.9999280000002
 21
-248.0399949199996
 31
0.0
  0
LINE
  5
366
  8
DATA
  6
CONTINUOUS
 62
     7
 10
758.4599330800002
 20
-418.7201627602935
 30
0.0
 11
760.9999280000002
 21
-416.1801678402944
 31
0.0
  0
LINE
  5
367
  8
DATA
  6
CONTINUOUS
 62
     7
 10
760.9999280000002
 20
-258.1999746000001
 30
0.0
 11
725.0
 21
-258.1999746000001
 31
0.0
  0
LINE
  5
368
  8
DATA
  6
CONTINUOUS
 62
     7
 10
742.9999640000005
 20
-593.9798122402954
 30
0.0
 11
742.9999640000005
 21
-741.8000253999999
 31
0.0
  0
LINE
  5
369
  8
DATA
  6
CONTINUOUS
 62
     7
 10
758.4599330800002
 20
-581.2798376402952
 30
0.0
 11
758.4599330800002
 21
-754.5
 31
0.0
  0
LINE
  5
36A
  8
DATA
  6
CONTINUOUS
 62
     7
 10
760.9999280000002
 20
-751.9600050800004
 30
0.0
 11
760.9999280000002
 21
-583.8198325602943
 31
0.0
  0
LINE
  5
36B
  8
DATA
  6
CONTINUOUS
 62
     7
 10
727.4999950000001
 20
-754.5
 30
0.0
 11
727.4999950000001
 21
-538.4432989865181
 31
0.0
  0
LINE
  5
36C
  8
DATA
  6
CONTINUOUS
 62
     7
 10
742.9999640000005
 20
-534.9249303502984
 30
0.0
 11
742.9999640000005
 21
-754.5
 31
0.0
  0
ARC
  5
36D
  8
DATA
  6
CONTINUOUS
 62
     7
 10
813.4975230046002
 20
-361.9357763292951
 30
0.0
 40
16.04830044351229
 50
232.312738564426
 51
83.34398081753258
  0
ARC
  5
36E
  8
DATA
  6
CONTINUOUS
 62
     7
 10
813.4975230046002
 20
-361.9357763292951
 30
0.0
 40
26.98744602500039
 50
208.0724869359031
 51
107.5842324461285
  0
ARC
  5
36F
  8
DATA
  6
CONTINUOUS
 62
     7
 10
747.2799554400008
 20
-484.3879372887936
 30
0.0
 40
0.2539994920001375
 50
91.0000000000439
 51
180.0
  0
ARC
  5
370
  8
DATA
  6
CONTINUOUS
 62
     7
 10
747.2799554400008
 20
-515.6120631118038
 30
0.0
 40
0.2539994920007302
 50
180.0
 51
268.9999999999562
  0
ARC
  5
371
  8
DATA
  6
CONTINUOUS
 62
     7
 10
746.7719564560002
 20
-492.003411088675
 30
0.0
 40
0.2539994920002072
 50
281.5369590328814
 51
0.0
  0
ARC
  5
372
  8
DATA
  6
CONTINUOUS
 62
     7
 10
746.7719564560002
 20
-507.9965893119197
 30
0.0
 40
0.2539994919998207
 50
0.0
 51
78.46304096711856
  0
ARC
  5
373
  8
DATA
  6
CONTINUOUS
 62
     7
 10
763.5993228012003
 20
-309.4213813582933
 30
0.0
 40
4.825990347999777
 50
90.0
 51
119.1332327839653
  0
ARC
  5
374
  8
DATA
  6
CONTINUOUS
 62
     7
 10
763.5993228012003
 20
-358.9512822982938
 30
0.0
 40
4.825990348000251
 50
240.8667672160373
 51
270.0
  0
ARC
  5
375
  8
DATA
  6
CONTINUOUS
 62
     7
 10
765.8853182292005
 20
-365.0472701062959
 30
0.0
 40
1.269997460000007
 50
13.38879881830133
 51
90.0
  0
ARC
  5
376
  8
DATA
  6
CONTINUOUS
 62
     7
 10
763.5993228012003
 20
-641.048718102295
 30
0.0
 40
4.825990348000232
 50
90.0
 51
119.1332327839627
  0
ARC
  5
377
  8
DATA
  6
CONTINUOUS
 62
     7
 10
763.5993228012003
 20
-690.5786190422955
 30
0.0
 40
4.825990347999854
 50
240.8667672160347
 51
270.0
  0
ARC
  5
378
  8
DATA
  6
CONTINUOUS
 62
     7
 10
765.8853182292005
 20
-696.6746068502948
 30
0.0
 40
1.26999746000041
 50
39.92343749692596
 51
90.0
  0
ARC
  5
379
  8
DATA
  6
CONTINUOUS
 62
     7
 10
813.4975230046002
 20
-361.9357763292951
 30
0.0
 40
38.09992380000024
 50
199.4712206344233
 51
116.185498747484
  0
ARC
  5
37A
  8
DATA
  6
CONTINUOUS
 62
     7
 10
758.0749338500009
 20
-503.9369923262975
 30
0.0
 40
0.5079989840000962
 50
270.0
 51
0.0
  0
ARC
  5
37B
  8
DATA
  6
CONTINUOUS
 62
     7
 10
758.0749338500009
 20
-496.0630080742972
 30
0.0
 40
0.5079989839996415
 50
0.0
 51
90.0
  0
ARC
  5
37C
  8
DATA
  6
CONTINUOUS
 62
     7
 10
751.9721313912823
 20
-489.986515063048
 30
0.0
 40
4.724026738268769
 50
5.033998044481402
 51
93.46514607275947
  0
ARC
  5
37D
  8
DATA
  6
CONTINUOUS
 62
     7
 10
751.9721313912823
 20
-510.0134853375466
 30
0.0
 40
4.724026738268221
 50
266.5348539272185
 51
354.9660019555186
  0
ARC
  5
37E
  8
DATA
  6
CONTINUOUS
 62
     7
 10
747.5381272481718
 20
-484.3884966630985
 30
0.0
 40
0.2498598951131607
 50
270.0597554561773
 51
359.0727518215633
  0
ARC
  5
37F
  8
DATA
  6
CONTINUOUS
 62
     7
 10
747.5381272481718
 20
-515.6115037374957
 30
0.0
 40
0.249859895112636
 50
0.9272481783323877
 51
89.94024454361411
  0
ARC
  5
380
  8
DATA
  6
CONTINUOUS
 62
     7
 10
761.8465845313858
 20
-460.1942847087439
 30
0.0
 40
10.15997968000024
 50
134.9999999999982
 51
180.0
  0
ARC
  5
381
  8
DATA
  6
CONTINUOUS
 62
     7
 10
761.8465845313858
 20
-539.8057156918508
 30
0.0
 40
10.15997968000011
 50
180.0
 51
225.0
  0
ARC
  5
382
  8
DATA
  6
CONTINUOUS
 62
     7
 10
683.9494611306945
 20
-525.4822620788004
 30
0.0
 40
101.2547973940167
 50
42.86433747714841
 51
45.7039256886543
  0
ARC
  5
383
  8
DATA
  6
CONTINUOUS
 62
     7
 10
761.7579264840006
 20
-460.1942847087439
 30
0.0
 40
5.079989839999958
 50
135.0
 51
180.0
  0
ARC
  5
384
  8
DATA
  6
CONTINUOUS
 62
     7
 10
683.9494611305954
 20
-474.5177383216987
 30
0.0
 40
101.2547973941549
 50
314.2960743113454
 51
317.1356625228512
  0
ARC
  5
385
  8
DATA
  6
CONTINUOUS
 62
     7
 10
761.7579264840006
 20
-539.8057156918508
 30
0.0
 40
5.079989840000053
 50
180.0
 51
225.0
  0
ARC
  5
386
  8
DATA
  6
CONTINUOUS
 62
     7
 10
697.4836389590855
 20
-511.9480842504076
 30
0.0
 40
101.2547973940926
 50
42.86433747714856
 51
45.70392568865413
  0
ARC
  5
387
  8
DATA
  6
CONTINUOUS
 62
     7
 10
697.4836389592701
 20
-488.0519161503689
 30
0.0
 40
101.2547973938333
 50
314.2960743113317
 51
317.1356625228515
  0
ARC
  5
388
  8
DATA
  6
CONTINUOUS
 62
     7
 10
768.1079137840006
 20
-439.4759163518529
 30
0.0
 40
5.079989839999958
 50
315.0
 51
0.0
  0
ARC
  5
389
  8
DATA
  6
CONTINUOUS
 62
     7
 10
768.1079137840006
 20
-560.5240840487418
 30
0.0
 40
5.079989840000053
 50
0.0
 51
45.00000000000364
  0
ARC
  5
38A
  8
DATA
  6
CONTINUOUS
 62
     7
 10
813.4975230046002
 20
-361.9357763292951
 30
0.0
 40
22.22495555000013
 50
214.849904579001
 51
100.8068148029082
  0
ARC
  5
38B
  8
DATA
  6
CONTINUOUS
 62
     7
 10
765.9589223343919
 20
-361.3185737105964
 30
0.0
 40
1.199337136606625
 50
4.015213740631153
 51
93.5184905062591
  0
ARC
  5
38C
  8
DATA
  6
CONTINUOUS
 62
     7
 10
813.4975230046002
 20
-361.9357763292951
 30
0.0
 40
12.69997459999968
 50
270.0
 51
43.92385000958112
  0
ARC
  5
38D
  8
DATA
  6
CONTINUOUS
 62
     7
 10
813.4975230046002
 20
-693.5631130732936
 30
0.0
 40
12.69997460000013
 50
270.0
 51
43.92385000957972
  0
CIRCLE
  5
38E
  8
DATA
  6
CONTINUOUS
 62
     7
 10
813.4975230046002
 20
-361.9357763292951
 30
0.0
 40
6.440393237616718
  0
CIRCLE
  5
38F
  8
DATA
  6
CONTINUOUS
 62
     7
 10
813.4975230046002
 20
-693.5631130732936
 30
0.0
 40
6.440393237617172
  0
ARC
  5
390
  8
DATA
  6
CONTINUOUS
 62
     7
 10
813.4975230046002
 20
-361.9357763292951
 30
0.0
 40
24.61255077479983
 50
211.0640437159116
 51
104.59267566608
  0
CIRCLE
  5
391
  8
DATA
  6
CONTINUOUS
 62
     7
 10
735.9769780460001
 20
-500.0000002002989
 30
0.0
 40
4.317991363999681
  0
CIRCLE
  5
392
  8
DATA
  6
CONTINUOUS
 62
     7
 10
735.9769780460001
 20
-500.0000002002989
 30
0.0
 40
3.327393345200107
  0
CIRCLE
  5
393
  8
DATA
  6
CONTINUOUS
 62
     7
 10
735.9769780460001
 20
-500.0000002002989
 30
0.0
 40
4.419591160799882
  0
ARC
  5
394
  8
DATA
  6
CONTINUOUS
 62
     7
 10
765.7043851953767
 20
-308.3248700291178
 30
0.0
 40
3.715460594460151
 50
350.1972507076205
 51
9.80274929237953
  0
ARC
  5
395
  8
DATA
  6
CONTINUOUS
 62
     7
 10
765.7043851953767
 20
-356.3958009314674
 30
0.0
 40
3.715460594460151
 50
350.1972507076205
 51
9.80274929237953
  0
ARC
  5
396
  8
DATA
  6
CONTINUOUS
 62
     7
 10
769.2549114900003
 20
-308.9574523972387
 30
0.0
 40
1.269997460000013
 50
0.0
 51
84.9999999999875
  0
ARC
  5
397
  8
DATA
  6
CONTINUOUS
 62
     7
 10
769.2549114900003
 20
-355.7632185633465
 30
0.0
 40
1.269997460000283
 50
275.0000000000125
 51
0.0
  0
ARC
  5
398
  8
DATA
  6
CONTINUOUS
 62
     7
 10
765.7043851953767
 20
-643.6041994691213
 30
0.0
 40
3.715460594460151
 50
350.1972507076205
 51
9.80274929237953
  0
ARC
  5
399
  8
DATA
  6
CONTINUOUS
 62
     7
 10
765.7043851953767
 20
-691.6751303714709
 30
0.0
 40
3.715460594460151
 50
350.1972507076205
 51
9.80274929237953
  0
ARC
  5
39A
  8
DATA
  6
CONTINUOUS
 62
     7
 10
769.2549114900003
 20
-644.2367818372422
 30
0.0
 40
1.269997460000013
 50
0.0
 51
84.9999999999875
  0
ARC
  5
39B
  8
DATA
  6
CONTINUOUS
 62
     7
 10
769.2549114900003
 20
-691.04254800335
 30
0.0
 40
1.269997460000283
 50
275.0000000000125
 51
0.0
  0
ARC
  5
39C
  8
DATA
  6
CONTINUOUS
 62
     7
 10
727.4999950000001
 20
-247.9999950000006
 30
0.0
 40
2.499994999999672
 50
90.0
 51
180.0
  0
ARC
  5
39D
  8
DATA
  6
CONTINUOUS
 62
     7
 10
727.4999950000001
 20
-752.0000049999994
 30
0.0
 40
2.499995000000126
 50
180.0
 51
270.0
  0
ARC
  5
39E
  8
DATA
  6
CONTINUOUS
 62
     7
 10
813.4975230046002
 20
-361.9357763292951
 30
0.0
 40
15.78052623733492
 50
233.5897645765117
 51
82.06695480543439
  0
ARC
  5
39F
  8
DATA
  6
CONTINUOUS
 62
     7
 10
813.4975230046002
 20
-361.9357763292951
 30
0.0
 40
36.93871533559032
 50
200.1092943518051
 51
115.5474250301201
  0
ARC
  5
3A0
  8
DATA
  6
CONTINUOUS
 62
     7
 10
813.4975230046002
 20
-361.9357763292951
 30
0.0
 40
22.64237010000329
 50
214.1176618516303
 51
101.5390575302596
  0
LINE
  5
3A1
  8
DATA
  6
CONTINUOUS
 62
     7
 10
747.7879544240004
 20
-515.8749684502968
 30
0.0
 11
747.2755225376313
 21
-515.8660239184501
 31
0.0
  0
LINE
  5
3A2
  8
DATA
  6
CONTINUOUS
 62
     7
 10
747.2755225376313
 20
-484.1339764821446
 30
0.0
 11
747.7879544240004
 21
-484.1250319502979
 31
0.0
  0
LINE
  5
3A3
  8
DATA
  6
CONTINUOUS
 62
     7
 10
761.2498275001999
 20
-699.0368021258946
 30
0.0
 11
760.9999280000002
 21
-699.0368021258946
 31
0.0
  0
LINE
  5
3A4
  8
DATA
  6
CONTINUOUS
 62
     7
 10
760.9999280000002
 20
-632.5905350186958
 30
0.0
 11
761.2498275001999
 21
-632.5905350186958
 31
0.0
  0
LINE
  5
3A5
  8
DATA
  6
CONTINUOUS
 62
     7
 10
761.2498275001999
 20
-367.4094653818956
 30
0.0
 11
760.9999280000002
 21
-367.4094653818956
 31
0.0
  0
LINE
  5
3A6
  8
DATA
  6
CONTINUOUS
 62
     7
 10
760.9999280000002
 20
-300.9631982746942
 30
0.0
 11
761.2498275001999
 21
-300.9631982746942
 31
0.0
  0
LINE
  5
3A7
  8
DATA
  6
CONTINUOUS
 62
     7
 10
765.8853182292005
 20
-363.7772726462963
 30
0.0
 11
763.5993228012003
 21
-363.7772726462963
 31
0.0
  0
LINE
  5
3A8
  8
DATA
  6
CONTINUOUS
 62
     7
 10
763.5993228012003
 20
-304.595391010294
 30
0.0
 11
772.9973040052
 21
-304.595391010294
 31
0.0
  0
LINE
  5
3A9
  8
DATA
  6
CONTINUOUS
 62
     7
 10
765.8853182292005
 20
-695.4046093902948
 30
0.0
 11
763.5993228012003
 21
-695.4046093902948
 31
0.0
  0
LINE
  5
3AA
  8
DATA
  6
CONTINUOUS
 62
     7
 10
763.5993228012003
 20
-636.2227277542952
 30
0.0
 11
772.9973040052009
 21
-636.2227277542952
 31
0.0
  0
LINE
  5
3AB
  8
DATA
  6
CONTINUOUS
 62
     7
 10
756.6779366440005
 20
-495.5550090902984
 30
0.0
 11
758.0749338500009
 21
-495.5550090902984
 31
0.0
  0
LINE
  5
3AC
  8
DATA
  6
CONTINUOUS
 62
     7
 10
758.0749338500009
 20
-504.4449913102962
 30
0.0
 11
756.6779366440005
 21
-504.4449913102962
 31
0.0
  0
LINE
  5
3AD
  8
DATA
  6
CONTINUOUS
 62
     7
 10
727.7499945
 20
-478.2900436202954
 30
0.0
 11
726.5499969000011
 21
-478.2900436202954
 31
0.0
  0
LINE
  5
3AE
  8
DATA
  6
CONTINUOUS
 62
     7
 10
726.5499969000011
 20
-463.2900736202951
 30
0.0
 11
727.7499945
 21
-463.2900736202951
 31
0.0
  0
LINE
  5
3AF
  8
DATA
  6
CONTINUOUS
 62
     7
 10
727.7499945
 20
-536.7099267802937
 30
0.0
 11
726.5499969000011
 21
-536.7099267802937
 31
0.0
  0
LINE
  5
3B0
  8
DATA
  6
CONTINUOUS
 62
     7
 10
726.5499969000011
 20
-521.7099567802934
 30
0.0
 11
727.7499945
 21
-521.7099567802934
 31
0.0
  0
LINE
  5
3B1
  8
DATA
  6
CONTINUOUS
 62
     7
 10
725.1819996360009
 20
-479.3625414752983
 30
0.0
 11
727.721994556
 21
-479.3625414752983
 31
0.0
  0
LINE
  5
3B2
  8
DATA
  6
CONTINUOUS
 62
     7
 10
725.1819996360009
 20
-520.6374589252964
 30
0.0
 11
727.721994556
 21
-520.6374589252964
 31
0.0
  0
LINE
  5
3B3
  8
DATA
  6
CONTINUOUS
 62
     7
 10
751.6866048513857
 20
-514.7288753764374
 30
0.0
 11
747.7879544240004
 21
-514.7717983560337
 31
0.0
  0
LINE
  5
3B4
  8
DATA
  6
CONTINUOUS
 62
     7
 10
747.7879544240004
 20
-485.2282020445609
 30
0.0
 11
751.6866048513875
 21
-485.2711250241568
 31
0.0
  0
LINE
  5
3B5
  8
DATA
  6
CONTINUOUS
 62
     7
 10
747.53838783437
 20
-484.6383564223265
 30
0.0
 11
747.53838783437
 21
-515.3616439782709
 31
0.0
  0
LINE
  5
3B6
  8
DATA
  6
CONTINUOUS
 62
     7
 10
747.025955948
 20
-500.0000002002989
 30
0.0
 11
747.025955948
 21
-515.6120631118038
 31
0.0
  0
LINE
  5
3B7
  8
DATA
  6
CONTINUOUS
 62
     7
 10
747.025955948
 20
-484.3879372887936
 30
0.0
 11
747.025955948
 21
-500.0000002002989
 31
0.0
  0
LINE
  5
3B8
  8
DATA
  6
CONTINUOUS
 62
     7
 10
747.7879544240004
 20
-479.8574571938939
 30
0.0
 11
747.7879544240004
 21
-485.2282020445609
 31
0.0
  0
LINE
  5
3B9
  8
DATA
  6
CONTINUOUS
 62
     7
 10
756.6779366440005
 20
-520.1049648595786
 30
0.0
 11
747.7879544240004
 21
-520.1049648595786
 31
0.0
  0
LINE
  5
3BA
  8
DATA
  6
CONTINUOUS
 62
     7
 10
756.6779366440005
 20
-479.8950355410161
 30
0.0
 11
747.7879544240004
 21
-479.8574571938939
 31
0.0
  0
LINE
  5
3BB
  8
DATA
  6
CONTINUOUS
 62
     7
 10
768.1965718313859
 20
-439.4759163518529
 30
0.0
 11
754.6623940029403
 21
-453.0100941802975
 31
0.0
  0
LINE
  5
3BC
  8
DATA
  6
CONTINUOUS
 62
     7
 10
768.1965718313859
 20
-424.0865730720632
 30
0.0
 11
768.1965718313859
 21
-439.4759163518529
 31
0.0
  0
LINE
  5
3BD
  8
DATA
  6
CONTINUOUS
 62
     7
 10
747.7879544240004
 20
-430.1491727664747
 30
0.0
 11
773.1879036240007
 21
-430.5054065084159
 31
0.0
  0
LINE
  5
3BE
  8
DATA
  6
CONTINUOUS
 62
     7
 10
773.1879036240007
 20
-569.4074698716603
 30
0.0
 11
747.7879544240004
 21
-569.8508276341199
 31
0.0
  0
LINE
  5
3BF
  8
DATA
  6
CONTINUOUS
 62
     7
 10
768.1965718313859
 20
-560.5240840487418
 30
0.0
 11
768.1965718313859
 21
-569.4945938921787
 31
0.0
  0
LINE
  5
3C0
  8
DATA
  6
CONTINUOUS
 62
     7
 10
754.6623940029403
 20
-546.9899062202971
 30
0.0
 11
768.1965718313859
 21
-560.5240840487418
 31
0.0
  0
LINE
  5
3C1
  8
DATA
  6
CONTINUOUS
 62
     7
 10
747.7879544240004
 20
-576.1998478002961
 30
0.0
 11
747.8433614835913
 21
-576.198880666474
 31
0.0
  0
LINE
  5
3C2
  8
DATA
  6
CONTINUOUS
 62
     7
 10
756.6779366440005
 20
-460.1942847087439
 30
0.0
 11
751.6866048513857
 21
-460.1942847087439
 31
0.0
  0
LINE
  5
3C3
  8
DATA
  6
CONTINUOUS
 62
     7
 10
756.6779366440005
 20
-539.8057156918508
 30
0.0
 11
751.6866048513857
 21
-539.8057156918508
 31
0.0
  0
LINE
  5
3C4
  8
DATA
  6
CONTINUOUS
 62
     7
 10
758.1658312197778
 20
-456.6021894445194
 30
0.0
 11
771.7000090482234
 21
-443.0680116160743
 31
0.0
  0
LINE
  5
3C5
  8
DATA
  6
CONTINUOUS
 62
     7
 10
771.7000090482234
 20
-556.93198878452
 30
0.0
 11
758.1658312197778
 21
-543.3978109560753
 31
0.0
  0
LINE
  5
3C6
  8
DATA
  6
CONTINUOUS
 62
     7
 10
773.1879036240007
 20
-439.4759163518529
 30
0.0
 11
768.1965718313859
 21
-439.4759163518529
 31
0.0
  0
LINE
  5
3C7
  8
DATA
  6
CONTINUOUS
 62
     7
 10
773.1879036240007
 20
-439.4759163518529
 30
0.0
 11
773.1879036240007
 21
-429.2863018512253
 31
0.0
  0
LINE
  5
3C8
  8
DATA
  6
CONTINUOUS
 62
     7
 10
773.1879036240007
 20
-560.5240840487418
 30
0.0
 11
768.1965718313859
 21
-560.5240840487418
 31
0.0
  0
LINE
  5
3C9
  8
DATA
  6
CONTINUOUS
 62
     7
 10
773.1879036240007
 20
-570.7136985493694
 30
0.0
 11
773.1879036240007
 21
-560.5240840487418
 31
0.0
  0
LINE
  5
3CA
  8
DATA
  6
CONTINUOUS
 62
     7
 10
761.2498275001999
 20
-632.7030265075937
 30
0.0
 11
761.2498275001999
 21
-642.2615790935856
 31
0.0
  0
LINE
  5
3CB
  8
DATA
  6
CONTINUOUS
 62
     7
 10
761.2498275001999
 20
-693.0177507470094
 30
0.0
 11
761.2498275001999
 21
-699.0368021258946
 31
0.0
  0
LINE
  5
3CC
  8
DATA
  6
CONTINUOUS
 62
     7
 10
761.2498275001999
 20
-632.5905350186958
 30
0.0
 11
761.2498275001999
 21
-632.7030265075937
 31
0.0
  0
LINE
  5
3CD
  8
DATA
  6
CONTINUOUS
 62
     7
 10
761.2498275001999
 20
-301.0756897635952
 30
0.0
 11
761.2498275001999
 21
-306.9822496535821
 31
0.0
  0
LINE
  5
3CE
  8
DATA
  6
CONTINUOUS
 62
     7
 10
761.2498275001999
 20
-357.7384213070059
 30
0.0
 11
761.2498275001999
 21
-367.4094653818956
 31
0.0
  0
LINE
  5
3CF
  8
DATA
  6
CONTINUOUS
 62
     7
 10
761.2498275001999
 20
-300.9631982746942
 30
0.0
 11
761.2498275001999
 21
-301.0756897635952
 31
0.0
  0
LINE
  5
3D0
  8
DATA
  6
CONTINUOUS
 62
     7
 10
822.6448373549038
 20
-353.1257822874481
 30
0.0
 11
774.2673014652
 21
-353.1257822874481
 31
0.0
  0
LINE
  5
3D1
  8
DATA
  6
CONTINUOUS
 62
     7
 10
822.6448373549038
 20
-353.1257822874481
 30
0.0
 11
822.3742428029364
 21
-352.8531995769381
 31
0.0
  0
LINE
  5
3D2
  8
DATA
  6
CONTINUOUS
 62
     7
 10
772.9973040052
 20
-304.595391010294
 30
0.0
 11
822.3742428029373
 21
-352.8531995769381
 31
0.0
  0
LINE
  5
3D3
  8
DATA
  6
CONTINUOUS
 62
     7
 10
767.1553156892005
 20
-374.6357509292952
 30
0.0
 11
767.1553156892005
 21
-361.2345944999929
 31
0.0
  0
LINE
  5
3D4
  8
DATA
  6
CONTINUOUS
 62
     7
 10
774.2673014652
 20
-353.1257822874481
 30
0.0
 11
774.2673014652
 21
-374.6357509292952
 31
0.0
  0
LINE
  5
3D5
  8
DATA
  6
CONTINUOUS
 62
     7
 10
767.1553156892005
 20
-374.6357509292952
 30
0.0
 11
813.4975230046002
 21
-374.6357509292952
 31
0.0
  0
LINE
  5
3D6
  8
DATA
  6
CONTINUOUS
 62
     7
 10
822.6448373549038
 20
-684.7531190314471
 30
0.0
 11
774.2673014652
 21
-684.7531190314471
 31
0.0
  0
LINE
  5
3D7
  8
DATA
  6
CONTINUOUS
 62
     7
 10
822.6448373549038
 20
-684.7531190314471
 30
0.0
 11
822.3742428029373
 21
-684.4805363209371
 31
0.0
  0
LINE
  5
3D8
  8
DATA
  6
CONTINUOUS
 62
     7
 10
772.9973040052009
 20
-636.2227277542952
 30
0.0
 11
822.3742428029373
 21
-684.4805363209371
 31
0.0
  0
LINE
  5
3D9
  8
DATA
  6
CONTINUOUS
 62
     7
 10
767.1553156892005
 20
-706.2630876732937
 30
0.0
 11
767.1553156892005
 21
-692.8619312439919
 31
0.0
  0
LINE
  5
3DA
  8
DATA
  6
CONTINUOUS
 62
     7
 10
774.2673014652
 20
-684.7531190314471
 30
0.0
 11
774.2673014652
 21
-706.2630876732937
 31
0.0
  0
LINE
  5
3DB
  8
DATA
  6
CONTINUOUS
 62
     7
 10
767.1553156892005
 20
-706.2630876732937
 30
0.0
 11
813.4975230046002
 21
-706.2630876732937
 31
0.0
  0
LINE
  5
3DC
  8
DATA
  6
CONTINUOUS
 62
     7
 10
817.6036299068455
 20
-369.0477621052919
 30
0.0
 11
821.7097368090899
 21
-361.9357763292951
 31
0.0
  0
LINE
  5
3DD
  8
DATA
  6
CONTINUOUS
 62
     7
 10
821.7097368090899
 20
-361.9357763292951
 30
0.0
 11
817.6036299068455
 21
-354.8237905532983
 31
0.0
  0
LINE
  5
3DE
  8
DATA
  6
CONTINUOUS
 62
     7
 10
809.3914161023522
 20
-354.8237905532983
 30
0.0
 11
817.6036299068455
 21
-354.8237905532983
 31
0.0
  0
LINE
  5
3DF
  8
DATA
  6
CONTINUOUS
 62
     7
 10
809.3914161023522
 20
-354.8237905532983
 30
0.0
 11
805.2853092001105
 21
-361.9357763292951
 31
0.0
  0
LINE
  5
3E0
  8
DATA
  6
CONTINUOUS
 62
     7
 10
805.2853092001105
 20
-361.9357763292951
 30
0.0
 11
809.3914161023549
 21
-369.0477621052919
 31
0.0
  0
LINE
  5
3E1
  8
DATA
  6
CONTINUOUS
 62
     7
 10
809.3914161023549
 20
-369.0477621052919
 30
0.0
 11
817.6036299068455
 21
-369.0477621052919
 31
0.0
  0
LINE
  5
3E2
  8
DATA
  6
CONTINUOUS
 62
     7
 10
817.6036299068455
 20
-700.6750988492931
 30
0.0
 11
821.7097368090899
 21
-693.5631130732936
 31
0.0
  0
LINE
  5
3E3
  8
DATA
  6
CONTINUOUS
 62
     7
 10
821.7097368090908
 20
-693.5631130732936
 30
0.0
 11
817.6036299068455
 21
-686.4511272972973
 31
0.0
  0
LINE
  5
3E4
  8
DATA
  6
CONTINUOUS
 62
     7
 10
809.3914161023522
 20
-686.4511272972973
 30
0.0
 11
817.6036299068455
 21
-686.4511272972973
 31
0.0
  0
LINE
  5
3E5
  8
DATA
  6
CONTINUOUS
 62
     7
 10
809.3914161023522
 20
-686.4511272972973
 30
0.0
 11
805.2853092001105
 21
-693.5631130732936
 31
0.0
  0
LINE
  5
3E6
  8
DATA
  6
CONTINUOUS
 62
     7
 10
805.2853092001105
 20
-693.5631130732936
 30
0.0
 11
809.3914161023558
 21
-700.6750988492931
 31
0.0
  0
LINE
  5
3E7
  8
DATA
  6
CONTINUOUS
 62
     7
 10
809.3914161023558
 20
-700.6750988492931
 30
0.0
 11
817.6036299068455
 21
-700.6750988492931
 31
0.0
  0
LINE
  5
3E8
  8
DATA
  6
CONTINUOUS
 62
     7
 10
758.5829328340005
 20
-503.9369923262975
 30
0.0
 11
758.5829328340005
 21
-496.0630080742972
 31
0.0
  0
LINE
  5
3E9
  8
DATA
  6
CONTINUOUS
 62
     7
 10
744.2319615360002
 20
-520.6374589252964
 30
0.0
 11
727.721994556
 21
-520.6374589252964
 31
0.0
  0
LINE
  5
3EA
  8
DATA
  6
CONTINUOUS
 62
     7
 10
744.2319615360002
 20
-479.3625414752983
 30
0.0
 11
727.721994556
 21
-479.3625414752983
 31
0.0
  0
LINE
  5
3EB
  8
DATA
  6
CONTINUOUS
 62
     7
 10
742.1999656000007
 20
-534.9249303502984
 30
0.0
 11
746.8227563544006
 21
-534.9249303502984
 31
0.0
  0
LINE
  5
3EC
  8
DATA
  6
CONTINUOUS
 62
     7
 10
742.1999656000007
 20
-465.0750700502963
 30
0.0
 11
746.8227563544006
 21
-465.0750700502963
 31
0.0
  0
LINE
  5
3ED
  8
DATA
  6
CONTINUOUS
 62
     7
 10
742.1999656000007
 20
-478.5370431262972
 30
0.0
 11
744.2319615360002
 21
-478.5370431262972
 31
0.0
  0
LINE
  5
3EE
  8
DATA
  6
CONTINUOUS
 62
     7
 10
744.2319615360002
 20
-521.462957274297
 30
0.0
 11
742.1999656000007
 21
-521.462957274297
 31
0.0
  0
LINE
  5
3EF
  8
DATA
  6
CONTINUOUS
 62
     7
 10
727.7499945
 20
-467.4662845387261
 30
0.0
 11
726.5499969000011
 21
-467.4662845387261
 31
0.0
  0
LINE
  5
3F0
  8
DATA
  6
CONTINUOUS
 62
     7
 10
727.7499945
 20
-473.6842303107169
 30
0.0
 11
727.5499949000005
 21
-473.6842303107169
 31
0.0
  0
LINE
  5
3F1
  8
DATA
  6
CONTINUOUS
 62
     7
 10
727.5499949000005
 20
-473.8624029357679
 30
0.0
 11
727.5499949000005
 21
-473.6842303107169
 31
0.0
  0
LINE
  5
3F2
  8
DATA
  6
CONTINUOUS
 62
     7
 10
727.7499945
 20
-473.8624029357679
 30
0.0
 11
727.5499949000005
 21
-473.8624029357679
 31
0.0
  0
LINE
  5
3F3
  8
DATA
  6
CONTINUOUS
 62
     7
 10
727.7499945
 20
-466.8656858972072
 30
0.0
 11
727.5499949000005
 21
-466.8656858972072
 31
0.0
  0
LINE
  5
3F4
  8
DATA
  6
CONTINUOUS
 62
     7
 10
727.7499945
 20
-477.5133242594688
 30
0.0
 11
726.5499969000011
 21
-477.5133242594688
 31
0.0
  0
LINE
  5
3F5
  8
DATA
  6
CONTINUOUS
 62
     7
 10
727.7499945
 20
-463.8709874957453
 30
0.0
 11
727.5499949000005
 21
-463.8709874957453
 31
0.0
  0
LINE
  5
3F6
  8
DATA
  6
CONTINUOUS
 62
     7
 10
727.5499949000005
 20
-466.8656858972072
 30
0.0
 11
727.5499949000005
 21
-463.8709874957453
 31
0.0
  0
LINE
  5
3F7
  8
DATA
  6
CONTINUOUS
 62
     7
 10
727.7499945
 20
-524.8906542516493
 30
0.0
 11
726.5499969000011
 21
-524.8906542516493
 31
0.0
  0
LINE
  5
3F8
  8
DATA
  6
CONTINUOUS
 62
     7
 10
727.7499945
 20
-531.0043123885735
 30
0.0
 11
727.5499949000005
 21
-531.0043123885735
 31
0.0
  0
LINE
  5
3F9
  8
DATA
  6
CONTINUOUS
 62
     7
 10
727.5499949000005
 20
-531.6414380959445
 30
0.0
 11
727.5499949000005
 21
-531.0043123885735
 31
0.0
  0
LINE
  5
3FA
  8
DATA
  6
CONTINUOUS
 62
     7
 10
727.7499945
 20
-531.6414380959445
 30
0.0
 11
727.5499949000005
 21
-531.6414380959445
 31
0.0
  0
LINE
  5
3FB
  8
DATA
  6
CONTINUOUS
 62
     7
 10
727.7499945
 20
-524.8593295785995
 30
0.0
 11
727.5499949000005
 21
-524.8593295785995
 31
0.0
  0
LINE
  5
3FC
  8
DATA
  6
CONTINUOUS
 62
     7
 10
727.7499945
 20
-535.3412980939584
 30
0.0
 11
726.5499969000011
 21
-535.3412980939584
 31
0.0
  0
LINE
  5
3FD
  8
DATA
  6
CONTINUOUS
 62
     7
 10
727.7499945
 20
-521.9277711478267
 30
0.0
 11
727.5499949000005
 21
-521.9277711478267
 31
0.0
  0
LINE
  5
3FE
  8
DATA
  6
CONTINUOUS
 62
     7
 10
727.5499949000005
 20
-524.8593295785995
 30
0.0
 11
727.5499949000005
 21
-521.9277711478267
 31
0.0
  0
LINE
  5
3FF
  8
DATA
  6
CONTINUOUS
 62
     7
 10
769.3655990619136
 20
-307.692287660997
 30
0.0
 11
760.9999280000002
 21
-306.9603862802924
 31
0.0
  0
LINE
  5
400
  8
DATA
  6
CONTINUOUS
 62
     7
 10
760.9999280000002
 20
-308.2255510165342
 30
0.0
 11
769.3655990619136
 21
-308.9574523972387
 31
0.0
  0
LINE
  5
401
  8
DATA
  6
CONTINUOUS
 62
     7
 10
769.3655990619136
 20
-355.7632185633465
 30
0.0
 11
760.9999280000002
 21
-356.4951199440511
 31
0.0
  0
LINE
  5
402
  8
DATA
  6
CONTINUOUS
 62
     7
 10
769.3655990619136
 20
-308.9574523972387
 30
0.0
 11
769.3655990619136
 21
-355.7632185633465
 31
0.0
  0
LINE
  5
403
  8
DATA
  6
CONTINUOUS
 62
     7
 10
760.9999280000002
 20
-357.7602846802929
 30
0.0
 11
769.3655990619136
 21
-357.0283832995883
 31
0.0
  0
LINE
  5
404
  8
DATA
  6
CONTINUOUS
 62
     7
 10
769.3655990619136
 20
-355.7632185633465
 30
0.0
 11
770.5249089500003
 21
-355.7632185633465
 31
0.0
  0
LINE
  5
405
  8
DATA
  6
CONTINUOUS
 62
     7
 10
770.5249089500003
 20
-355.7632185633465
 30
0.0
 11
770.5249089500003
 21
-308.9574523972387
 31
0.0
  0
LINE
  5
406
  8
DATA
  6
CONTINUOUS
 62
     7
 10
769.3655990619136
 20
-308.9574523972387
 30
0.0
 11
770.5249089500003
 21
-308.9574523972387
 31
0.0
  0
LINE
  5
407
  8
DATA
  6
CONTINUOUS
 62
     7
 10
769.3655990619145
 20
-642.9716171010004
 30
0.0
 11
760.9999280000002
 21
-642.2397157202959
 31
0.0
  0
LINE
  5
408
  8
DATA
  6
CONTINUOUS
 62
     7
 10
760.9999280000002
 20
-643.5048804565376
 30
0.0
 11
769.3655990619145
 21
-644.2367818372422
 31
0.0
  0
LINE
  5
409
  8
DATA
  6
CONTINUOUS
 62
     7
 10
769.3655990619145
 20
-691.04254800335
 30
0.0
 11
760.9999280000002
 21
-691.7744493840546
 31
0.0
  0
LINE
  5
40A
  8
DATA
  6
CONTINUOUS
 62
     7
 10
769.3655990619145
 20
-644.2367818372422
 30
0.0
 11
769.3655990619145
 21
-691.04254800335
 31
0.0
  0
LINE
  5
40B
  8
DATA
  6
CONTINUOUS
 62
     7
 10
760.9999280000002
 20
-693.0396141202964
 30
0.0
 11
769.3655990619145
 21
-692.3077127395918
 31
0.0
  0
LINE
  5
40C
  8
DATA
  6
CONTINUOUS
 62
     7
 10
770.5249089500003
 20
-644.2367818372422
 30
0.0
 11
769.3655990619145
 21
-644.2367818372422
 31
0.0
  0
LINE
  5
40D
  8
DATA
  6
CONTINUOUS
 62
     7
 10
770.5249089500003
 20
-691.04254800335
 30
0.0
 11
770.5249089500003
 21
-644.2367818372422
 31
0.0
  0
LINE
  5
40E
  8
DATA
  6
CONTINUOUS
 62
     7
 10
770.5249089500003
 20
-691.04254800335
 30
0.0
 11
769.3655990619145
 21
-691.04254800335
 31
0.0
  0
LINE
  5
40F
  8
DATA
  6
CONTINUOUS
 62
     7
 10
760.9999280000002
 20
-583.8198325602943
 30
0.0
 11
758.4599330800002
 21
-581.2798376402952
 31
0.0
  0
LINE
  5
410
  8
DATA
  6
CONTINUOUS
 62
     7
 10
742.9999640000005
 20
-593.9798122402954
 30
0.0
 11
760.9999280000002
 21
-593.9798122402954
 31
0.0
  0
LINE
  5
411
  8
DATA
  6
CONTINUOUS
 62
     7
 10
742.9999640000005
 20
-581.2798376402952
 30
0.0
 11
758.4599330800002
 21
-581.2798376402952
 31
0.0
  0
LINE
  5
412
  8
DATA
  6
CONTINUOUS
 62
     7
 10
758.4599330800002
 20
-754.5
 30
0.0
 11
760.9999280000002
 21
-751.9600050800004
 31
0.0
  0
LINE
  5
413
  8
DATA
  6
CONTINUOUS
 62
     7
 10
727.4999950000001
 20
-754.5
 30
0.0
 11
758.4599330800002
 21
-754.5
 31
0.0
  0
LINE
  5
414
  8
DATA
  6
CONTINUOUS
 62
     7
 10
727.4999950000001
 20
-245.5
 30
0.0
 11
758.4599330800002
 21
-245.5
 31
0.0
  0
LINE
  5
415
  8
DATA
  6
CONTINUOUS
 62
     7
 10
760.9999280000002
 20
-248.0399949199996
 30
0.0
 11
758.4599330800002
 21
-245.5
 31
0.0
  0
LINE
  5
416
  8
DATA
  6
CONTINUOUS
 62
     7
 10
742.9999640000005
 20
-406.0201881602939
 30
0.0
 11
760.9999280000002
 21
-406.0201881602939
 31
0.0
  0
LINE
  5
417
  8
DATA
  6
CONTINUOUS
 62
     7
 10
742.9999640000005
 20
-418.7201627602935
 30
0.0
 11
758.4599330800002
 21
-418.7201627602935
 31
0.0
  0
LINE
  5
418
  8
DATA
  6
CONTINUOUS
 62
     7
 10
742.1999656000007
 20
-463.805072590294
 30
0.0
 11
742.9999640000005
 21
-463.805072590294
 31
0.0
  0
LINE
  5
419
  8
DATA
  6
CONTINUOUS
 62
     7
 10
725.0
 20
-460.1133286278482
 30
0.0
 11
742.1999656000007
 21
-470.0437333970622
 31
0.0
  0
LINE
  5
41A
  8
DATA
  6
CONTINUOUS
 62
     7
 10
742.1999656000007
 20
-536.1949278102952
 30
0.0
 11
742.9999640000005
 21
-536.1949278102952
 31
0.0
  0
LINE
  5
41B
  8
DATA
  6
CONTINUOUS
 62
     7
 10
742.1999656000007
 20
-529.9562670035293
 30
0.0
 11
725.0
 21
-539.8866717727406
 31
0.0
  0
LINE
  5
41C
  8
DATA
  6
CONTINUOUS
 62
     7
 10
725.0
 20
-741.8000253999999
 30
0.0
 11
760.9999280000002
 21
-741.8000253999999
 31
0.0
  0
LINE
  5
41D
  8
DATA
  6
CONTINUOUS
 62
     7
 10
742.1999656000007
 20
-478.0000442002938
 30
0.0
 11
727.7499945
 21
-478.0000442002938
 31
0.0
  0
LINE
  5
41E
  8
DATA
  6
CONTINUOUS
 62
     7
 10
727.7499945
 20
-462.7900746202954
 30
0.0
 11
725.0
 21
-462.7900746202954
 31
0.0
  0
LINE
  5
41F
  8
DATA
  6
CONTINUOUS
 62
     7
 10
727.7499945
 20
-537.2099257802961
 30
0.0
 11
725.0
 21
-537.2099257802961
 31
0.0
  0
LINE
  5
420
  8
DATA
  6
CONTINUOUS
 62
     7
 10
727.7499945
 20
-521.999956200295
 30
0.0
 11
742.1999656000007
 21
-521.999956200295
 31
0.0
  0
LINE
  5
421
  8
DATA
  6
CONTINUOUS
 62
     7
 10
726.5499969000011
 20
-478.0000442002938
 30
0.0
 11
725.0
 21
-478.0000442002938
 31
0.0
  0
LINE
  5
422
  8
DATA
  6
CONTINUOUS
 62
     7
 10
726.5499969000011
 20
-521.999956200295
 30
0.0
 11
725.0
 21
-521.999956200295
 31
0.0
  0
LINE
  5
423
  8
DATA
  6
CONTINUOUS
 62
     7
 10
747.2755225376313
 20
-515.8660239184501
 30
0.0
 11
747.2755225376313
 21
-484.1339764821446
 31
0.0
  0
LINE
  5
424
  8
DATA
  6
CONTINUOUS
 62
     7
 10
763.5993228012003
 20
-363.7772726462963
 30
0.0
 11
763.5993228012003
 21
-357.5328671031616
 31
0.0
  0
LINE
  5
425
  8
DATA
  6
CONTINUOUS
 62
     7
 10
763.5993228012003
 20
-307.1878038574264
 30
0.0
 11
763.5993228012003
 21
-304.595391010294
 31
0.0
  0
LINE
  5
426
  8
DATA
  6
CONTINUOUS
 62
     7
 10
765.8853182292005
 20
-360.1214972707039
 30
0.0
 11
765.8853182292005
 21
-363.7772726462963
 31
0.0
  0
LINE
  5
427
  8
DATA
  6
CONTINUOUS
 62
     7
 10
774.2673014652
 20
-355.2391973601425
 30
0.0
 11
809.1515808705972
 21
-355.2391973601425
 31
0.0
  0
LINE
  5
428
  8
DATA
  6
CONTINUOUS
 62
     7
 10
817.8434651386015
 20
-355.2391973601425
 30
0.0
 11
824.2885000201704
 21
-355.2391973601425
 31
0.0
  0
LINE
  5
429
  8
DATA
  6
CONTINUOUS
 62
     7
 10
763.5993228012003
 20
-695.4046093902948
 30
0.0
 11
763.5993228012003
 21
-692.8121965431651
 31
0.0
  0
LINE
  5
42A
  8
DATA
  6
CONTINUOUS
 62
     7
 10
763.5993228012003
 20
-642.4671332974299
 30
0.0
 11
763.5993228012003
 21
-636.2227277542952
 31
0.0
  0
LINE
  5
42B
  8
DATA
  6
CONTINUOUS
 62
     7
 10
765.8853182292005
 20
-692.6121978583433
 30
0.0
 11
765.8853182292005
 21
-695.4046093902948
 31
0.0
  0
LINE
  5
42C
  8
DATA
  6
CONTINUOUS
 62
     7
 10
774.2673014652
 20
-686.8665341041442
 30
0.0
 11
809.1515808705972
 21
-686.8665341041442
 31
0.0
  0
LINE
  5
42D
  8
DATA
  6
CONTINUOUS
 62
     7
 10
817.8434651386015
 20
-686.8665341041442
 30
0.0
 11
824.2885000201704
 21
-686.8665341041442
 31
0.0
  0
LINE
  5
42E
  8
DATA
  6
CONTINUOUS
 62
     7
 10
767.1553156892005
 20
-692.8619312439919
 30
0.0
 11
767.1822291784392
 21
-692.4987328526818
 31
0.0
  0
LINE
  5
42F
  8
DATA
  6
CONTINUOUS
 62
     7
 10
758.0749338500009
 20
-495.5550090902984
 30
0.0
 11
758.0749338500009
 21
-504.4449913102962
 31
0.0
  0
LINE
  5
430
  8
DATA
  6
CONTINUOUS
 62
     7
 10
726.5499969000011
 20
-470.7900586202936
 30
0.0
 11
725.0
 21
-470.7900586202936
 31
0.0
  0
LINE
  5
431
  8
DATA
  6
CONTINUOUS
 62
     7
 10
726.5499969000011
 20
-529.2099417802951
 30
0.0
 11
725.0
 21
-529.2099417802951
 31
0.0
  0
LINE
  5
432
  8
DATA
  6
CONTINUOUS
 62
     7
 10
725.0
 20
-485.758628683096
 30
0.0
 11
725.1819996360009
 21
-485.758628683096
 31
0.0
  0
LINE
  5
433
  8
DATA
  6
CONTINUOUS
 62
     7
 10
725.1819996360009
 20
-514.2413717174959
 30
0.0
 11
725.0
 21
-514.2413717174959
 31
0.0
  0
LINE
  5
434
  8
DATA
  6
CONTINUOUS
 62
     7
 10
747.7879544240004
 20
-423.8003426513001
 30
0.0
 11
768.1965718313859
 21
-424.0865730720632
 31
0.0
  0
ARC
  5
435
  8
DATA
  6
CONTINUOUS
 62
     7
 10
767.6399245404322
 20
-429.6164187163682
 30
0.0
 40
5.557791742802676
 50
3.405209003503296
 51
84.2518348722648
  0
ARC
  5
436
  8
DATA
  6
CONTINUOUS
 62
     7
 10
813.9824447091879
 20
-692.6373621761368
 30
0.0
 40
15.8746378706716
 50
239.1299239735561
 51
272.741413708031
  0
ARC
  5
437
  8
DATA
  6
CONTINUOUS
 62
     7
 10
817.3013319526102
 20
-690.8903332035705
 30
0.0
 40
10.47217212685635
 50
11.39714592969253
 51
55.99910993064503
  0
ARC
  5
438
  8
DATA
  6
CONTINUOUS
 62
     7
 10
812.4331162456485
 20
-696.2842852082864
 30
0.0
 40
17.69564477462992
 50
52.69609463714011
 51
75.2320541185277
  0
ARC
  5
439
  8
DATA
  6
CONTINUOUS
 62
     7
 10
808.1180543644527
 20
-690.8100563589595
 30
0.0
 40
20.67215771682431
 50
320.5850177479421
 51
346.2735085958286
  0
ARC
  5
43A
  8
DATA
  6
CONTINUOUS
 62
     7
 10
815.2198199132713
 20
-697.6119491448911
 30
0.0
 40
10.89238181331574
 50
267.4842201896882
 51
324.5110170132776
  0
ARC
  5
43B
  8
DATA
  6
CONTINUOUS
 62
     7
 10
809.0353193031173
 20
-693.9981006559767
 30
0.0
 40
19.24126509861036
 50
354.879795885628
 51
15.60865747619073
  0
ARC
  5
43C
  8
DATA
  6
CONTINUOUS
 62
     7
 10
817.0173683249826
 20
-713.1153764432413
 30
0.0
 40
53.33568506601301
 50
90.21809548597686
 51
108.6459187968969
  0
ARC
  5
43D
  8
DATA
  6
CONTINUOUS
 62
     7
 10
815.2200608415935
 20
-688.7918520482064
 30
0.0
 40
29.05554673311981
 50
45.14157530028012
 51
86.85458377793589
  0
ARC
  5
43E
  8
DATA
  6
CONTINUOUS
 62
     7
 10
814.6002564362262
 20
-692.9983150832273
 30
0.0
 40
32.57271534516066
 50
4.638995631393789
 51
49.59232147046936
  0
ARC
  5
43F
  8
DATA
  6
CONTINUOUS
 62
     7
 10
817.9430071709339
 20
-694.7752538657627
 30
0.0
 40
29.4554585687575
 50
325.5044521165859
 51
8.613181925979177
  0
ARC
  5
440
  8
DATA
  6
CONTINUOUS
 62
     7
 10
800.7181975330938
 20
-680.3656643539356
 30
0.0
 40
51.85577908978628
 50
305.3603627964363
 51
323.1604934106147
  0
ARC
  5
441
  8
DATA
  6
CONTINUOUS
 62
     7
 10
813.425673452194
 20
-693.6244717516306
 30
0.0
 40
33.77275196917338
 50
260.6353555523847
 51
285.3009018812348
  0
ARC
  5
442
  8
DATA
  6
CONTINUOUS
 62
     7
 10
811.0914909520769
 20
-698.575501509213
 30
0.0
 40
28.54719623298869
 50
227.1477915368469
 51
263.6422131170652
  0
ARC
  5
443
  8
DATA
  6
CONTINUOUS
 62
     7
 10
812.1364151215464
 20
-694.8711431454897
 30
0.0
 40
32.02160020479872
 50
200.8399154106275
 51
230.2865597125874
  0
ARC
  5
444
  8
DATA
  6
CONTINUOUS
 62
     7
 10
803.5374187709413
 20
-669.9965176205081
 30
0.0
 40
59.26465922356628
 50
288.4954473395262
 51
297.3096797540155
  0
ARC
  5
445
  8
DATA
  6
CONTINUOUS
 62
     7
 10
813.4975230046002
 20
-361.9357763292955
 30
0.0
 40
36.93871533559048
 50
200.1092943518058
 51
115.5474250301204
  0
ARC
  5
446
  8
DATA
  6
CONTINUOUS
 62
     7
 10
813.9824447091879
 20
-361.0100254321387
 30
0.0
 40
15.8746378706716
 50
239.1299239735561
 51
272.741413708031
  0
ARC
  5
447
  8
DATA
  6
CONTINUOUS
 62
     7
 10
817.3013319526102
 20
-359.2629964595725
 30
0.0
 40
10.47217212685635
 50
11.39714592969253
 51
55.99910993064503
  0
ARC
  5
448
  8
DATA
  6
CONTINUOUS
 62
     7
 10
812.4331162456485
 20
-364.6569484642883
 30
0.0
 40
17.69564477462992
 50
52.69609463714011
 51
75.2320541185277
  0
ARC
  5
449
  8
DATA
  6
CONTINUOUS
 62
     7
 10
808.1180543644527
 20
-359.1827196149615
 30
0.0
 40
20.67215771682431
 50
320.5850177479421
 51
346.2735085958286
  0
ARC
  5
44A
  8
DATA
  6
CONTINUOUS
 62
     7
 10
815.2198199132713
 20
-365.9846124008931
 30
0.0
 40
10.89238181331574
 50
267.4842201896882
 51
324.5110170132776
  0
ARC
  5
44B
  8
DATA
  6
CONTINUOUS
 62
     7
 10
809.0353193031173
 20
-362.3707639119787
 30
0.0
 40
19.24126509861036
 50
354.879795885628
 51
15.60865747619073
  0
ARC
  5
44C
  8
DATA
  6
CONTINUOUS
 62
     7
 10
817.0173683249826
 20
-381.4880396992432
 30
0.0
 40
53.33568506601301
 50
90.21809548597686
 51
108.6459187968969
  0
ARC
  5
44D
  8
DATA
  6
CONTINUOUS
 62
     7
 10
815.2200608415935
 20
-357.1645153042083
 30
0.0
 40
29.05554673311981
 50
45.14157530028012
 51
86.85458377793589
  0
ARC
  5
44E
  8
DATA
  6
CONTINUOUS
 62
     7
 10
814.6002564362262
 20
-361.3709783392293
 30
0.0
 40
32.57271534516066
 50
4.638995631393789
 51
49.59232147046936
  0
ARC
  5
44F
  8
DATA
  6
CONTINUOUS
 62
     7
 10
817.9430071709339
 20
-363.1479171217646
 30
0.0
 40
29.4554585687575
 50
325.5044521165859
 51
8.613181925979177
  0
ARC
  5
450
  8
DATA
  6
CONTINUOUS
 62
     7
 10
800.7181975330938
 20
-348.7383276099375
 30
0.0
 40
51.85577908978628
 50
305.3603627964363
 51
323.1604934106147
  0
ARC
  5
451
  8
DATA
  6
CONTINUOUS
 62
     7
 10
813.425673452194
 20
-361.9971350076326
 30
0.0
 40
33.77275196917338
 50
260.6353555523847
 51
285.3009018812348
  0
ARC
  5
452
  8
DATA
  6
CONTINUOUS
 62
     7
 10
811.0914909520769
 20
-366.948164765215
 30
0.0
 40
28.54719623298869
 50
227.1477915368469
 51
263.6422131170652
  0
ARC
  5
453
  8
DATA
  6
CONTINUOUS
 62
     7
 10
803.5374187709413
 20
-338.3691808765101
 30
0.0
 40
59.26465922356628
 50
288.4954473395262
 51
297.3096797540155
  0
ARC
  5
454
  8
DATA
  6
CONTINUOUS
 62
     7
 10
812.1364151215464
 20
-363.2438064014915
 30
0.0
 40
32.02160020479872
 50
200.8399154106275
 51
230.2865597125875
  0
LINE
  5
455
  8
DATA
  6
CONTINUOUS
 62
     7
 10
768.2013921003079
 20
-575.8335806043178
 30
0.0
 11
747.7879544240004
 21
-576.1998478002961
 31
0.0
  0
LINE
  5
456
  8
DATA
  6
CONTINUOUS
 62
     7
 10
768.1965718313859
 20
-569.4945938921787
 30
0.0
 11
768.2013920976278
 21
-575.8335806043665
 31
0.0
  0
ARC
  5
457
  8
DATA
  6
CONTINUOUS
 62
     7
 10
767.7946790276961
 20
-570.4492135730806
 30
0.0
 40
5.399705903923551
 50
274.319685803369
 51
357.1924510018169
  0
ARC
  5
458
  8
DATA
  6
CONTINUOUS
 62
     7
 10
774.735712752752
 20
-363.8916702159474
 30
0.0
 40
10.77607312629713
 50
92.4913016276645
 51
113.0014820988399
  0
ARC
  5
459
  8
DATA
  6
CONTINUOUS
 62
     7
 10
770.9665608796716
 20
-360.2504821736304
 30
0.0
 40
5.082879496717323
 50
143.7800463904801
 51
178.5458864474279
  0
ARC
  5
45A
  8
DATA
  6
CONTINUOUS
 62
     7
 10
773.1978756499442
 20
-362.2305114244817
 30
0.0
 40
6.12408208629392
 50
120.9450433832049
 51
170.6408194902843
  0
ARC
  5
45B
  8
DATA
  6
CONTINUOUS
 62
     7
 10
775.456526290069
 20
-364.1105731688624
 30
0.0
 40
8.950729826311665
 50
97.63509151740863
 51
127.1690360818732
  0
LINE
  5
45C
  8
DATA
  6
CONTINUOUS
 62
     7
 10
767.1553156892005
 20
-364.2217717572953
 30
0.0
 11
766.8504327427272
 21
-364.2217717573051
 31
0.0
  0
ARC
  5
45D
  8
DATA
  6
CONTINUOUS
 62
     7
 10
774.7357127527611
 20
-695.5190069599497
 30
0.0
 40
10.77607312630127
 50
92.49130162771193
 51
113.0014820988779
  0
ARC
  5
45E
  8
DATA
  6
CONTINUOUS
 62
     7
 10
774.8371138153
 20
-693.6996450894269
 30
0.0
 40
6.856828118854777
 50
94.76685959178222
 51
128.9684290773901
  0
ARC
  5
45F
  8
DATA
  6
CONTINUOUS
 62
     7
 10
766.164710539604
 20
-692.8633017133242
 30
0.0
 40
0.9906060975954447
 50
0.0792667579291216
 51
21.08732144548386
  0
LINE
  5
460
  8
DATA
  6
CONTINUOUS
 62
     7
 10
766.8504327427271
 20
-695.8491085013037
 30
0.0
 11
767.1553156892005
 21
-695.8491085012938
 31
0.0
  0
ARC
  5
461
  8
DATA
  6
CONTINUOUS
 62
     7
 10
727.5959275517381
 20
-461.6967234625807
 30
0.0
 40
2.174749156663555
 50
250.3068465401947
 51
268.7897717837298
  0
ARC
  5
462
  8
DATA
  6
CONTINUOUS
 62
     7
 10
726.690021519996
 20
-463.4793926966751
 30
0.0
 40
0.1480411240848436
 50
198.941679181727
 51
222.9028845388919
  0
ARC
  5
463
  8
DATA
  6
CONTINUOUS
 62
     7
 10
727.3303795742837
 20
-462.5286623057247
 30
0.0
 40
1.302337933763701
 50
239.53953285216
 51
248.9722499893455
  0
ARC
  5
464
  8
DATA
  6
CONTINUOUS
 62
     7
 10
726.8551618820544
 20
-463.3299390393111
 30
0.0
 40
0.3707612915195691
 50
222.44785191514
 51
240.0689046583969
  0
ARC
  5
465
  8
DATA
  6
CONTINUOUS
 62
     7
 10
727.5392129025923
 20
-462.7171178533646
 30
0.0
 40
4.148582054854428
 50
260.762038979012
 51
270.1489095872989
  0
ARC
  5
466
  8
DATA
  6
CONTINUOUS
 62
     7
 10
727.0817853432841
 20
-465.3179072124793
 30
0.0
 40
1.508474098704633
 50
254.2563171661912
 51
262.0526681716434
  0
ARC
  5
467
  8
DATA
  6
CONTINUOUS
 62
     7
 10
726.726158586946
 20
-466.4895499298141
 30
0.0
 40
0.2853349655710607
 50
239.6530801977956
 51
259.1575557371719
  0
ARC
  5
468
  8
DATA
  6
CONTINUOUS
 62
     7
 10
726.6001688660695
 20
-466.6875887304533
 30
0.0
 40
0.0515116875356932
 50
193.0959734193976
 51
249.3436790226703
  0
ARC
  5
469
  8
DATA
  6
CONTINUOUS
 62
     7
 10
727.6176909801545
 20
-472.6177657067964
 30
0.0
 40
1.068611019353409
 50
182.3737180666707
 51
266.3679031722918
  0
ARC
  5
46A
  8
DATA
  6
CONTINUOUS
 62
     7
 10
727.6759756561404
 20
-472.737810106816
 30
0.0
 40
1.131627227424151
 50
185.7270663058841
 51
263.6081783720647
  0
ARC
  5
46B
  8
DATA
  6
CONTINUOUS
 62
     7
 10
727.5947640578111
 20
-472.2335532879899
 30
0.0
 40
5.870555010109364
 50
271.5152035777334
 51
280.8041883766017
  0
ARC
  5
46C
  8
DATA
  6
CONTINUOUS
 62
     7
 10
747.7125209751504
 20
-484.7026798216871
 30
0.0
 40
0.1856336457200168
 50
128.8919804478053
 51
159.7261704632055
  0
ARC
  5
46D
  8
DATA
  6
CONTINUOUS
 62
     7
 10
747.8238074753177
 20
-484.8800215417135
 30
0.0
 40
0.3943119670666481
 50
98.51705262304745
 51
125.2966481658256
  0
ARC
  5
46E
  8
DATA
  6
CONTINUOUS
 62
     7
 10
552.8996040949853
 20
-316.500367200294
 30
0.0
 40
172.1429510234609
 50
358.7259752723103
 51
1.274024727689607
  0
ARC
  5
46F
  8
DATA
  6
CONTINUOUS
 62
     7
 10
552.8996040949953
 20
-348.2503037002955
 30
0.0
 40
172.1429510234509
 50
358.7259752723103
 51
1.274024727689607
  0
ARC
  5
470
  8
DATA
  6
CONTINUOUS
 62
     7
 10
727.5236080003715
 20
-526.9462157737355
 30
0.0
 40
5.222910878120328
 50
71.2680244982427
 51
87.51574240622944
  0
ARC
  5
471
  8
DATA
  6
CONTINUOUS
 62
     7
 10
727.6885331627724
 20
-523.6439768199112
 30
0.0
 40
1.717305856529088
 50
73.20118206510433
 51
87.94898071790088
  0
ARC
  5
472
  8
DATA
  6
CONTINUOUS
 62
     7
 10
727.5101094296147
 20
-518.8745381281711
 30
0.0
 40
3.053493527594679
 50
257.5292429456683
 51
270.7484326027207
  0
ARC
  5
473
  8
DATA
  6
CONTINUOUS
 62
     7
 10
726.7545527450445
 20
-521.4340125350085
 30
0.0
 40
0.3807704549527788
 50
242.4025393801558
 51
249.817523529235
  0
ARC
  5
474
  8
DATA
  6
CONTINUOUS
 62
     7
 10
726.5978777714982
 20
-521.7216195730158
 30
0.0
 40
0.0536001540955861
 50
206.7094493833459
 51
248.413818447423
  0
ARC
  5
475
  8
DATA
  6
CONTINUOUS
 62
     7
 10
727.285690415154
 20
-519.8903696973684
 30
0.0
 40
2.013167815777441
 50
250.7866194825681
 51
257.5225308871108
  0
LINE
  5
476
  8
DATA
  6
CONTINUOUS
 62
     7
 10
727.5499949000005
 20
-524.8593295786013
 30
0.0
 11
726.5499969000011
 21
-524.8506495316356
 31
0.0
  0
ARC
  5
477
  8
DATA
  6
CONTINUOUS
 62
     7
 10
727.6926193595066
 20
-529.8682698278602
 30
0.0
 40
1.144960451806504
 50
183.6621645576493
 51
262.8442401070994
  0
ARC
  5
478
  8
DATA
  6
CONTINUOUS
 62
     7
 10
727.6845208257764
 20
-530.5099143838728
 30
0.0
 40
1.139492490403707
 50
185.3524830433222
 51
263.219976648783
  0
ARC
  5
479
  8
DATA
  6
CONTINUOUS
 62
     7
 10
558.6679302942355
 20
-651.7796966402946
 30
0.0
 40
166.3761002337961
 50
358.6818079589388
 51
1.318192041061252
  0
ARC
  5
47A
  8
DATA
  6
CONTINUOUS
 62
     7
 10
536.4764129047346
 20
-683.5296331402931
 30
0.0
 40
188.5624358340468
 50
358.836929718157
 51
1.16307028184292
  0
ARC
  5
47B
  8
DATA
  6
CONTINUOUS
 62
     7
 10
747.7017162011039
 20
-515.2908456615108
 30
0.0
 40
0.1780128002026591
 50
203.4353941355244
 51
238.0660265493216
  0
ARC
  5
47C
  8
DATA
  6
CONTINUOUS
 62
     7
 10
747.947594186222
 20
-514.906623417695
 30
0.0
 40
0.6341645551887064
 50
237.5749563776973
 51
253.6112606635918
  0
CIRCLE
  5
47D
  8
DATA
  6
CONTINUOUS
 62
     7
 10
-515.8286004049176
 20
-356.4112873782965
 30
0.0
 40
8.331183337600123
  0
CIRCLE
  5
47E
  8
DATA
  6
CONTINUOUS
 62
     7
 10
-515.8286004049176
 20
-311.9613762782951
 30
0.0
 40
8.331183337599668
  0
CIRCLE
  5
47F
  8
DATA
  6
CONTINUOUS
 62
     7
 10
-442.6767467089173
 20
-356.4112873782965
 30
0.0
 40
8.331183337600123
  0
CIRCLE
  5
480
  8
DATA
  6
CONTINUOUS
 62
     7
 10
-442.6767467089173
 20
-311.9613762782951
 30
0.0
 40
8.331183337599668
  0
CIRCLE
  5
481
  8
DATA
  6
CONTINUOUS
 62
     7
 10
-442.6767467089173
 20
-356.4112873782965
 30
0.0
 40
9.080481839000186
  0
CIRCLE
  5
482
  8
DATA
  6
CONTINUOUS
 62
     7
 10
-442.6767467089173
 20
-311.9613762782951
 30
0.0
 40
9.08048183899973
  0
CIRCLE
  5
483
  8
DATA
  6
CONTINUOUS
 62
     7
 10
-515.8286004049176
 20
-356.4112873782965
 30
0.0
 40
9.080481839000186
  0
CIRCLE
  5
484
  8
DATA
  6
CONTINUOUS
 62
     7
 10
-515.8286004049176
 20
-311.9613762782951
 30
0.0
 40
9.08048183899973
  0
ARC
  5
485
  8
DATA
  6
CONTINUOUS
 62
     7
 10
-489.3026919364654
 20
-333.9113604236181
 30
0.0
 40
7.94998409999971
 50
90.0
 51
180.0
  0
ARC
  5
486
  8
DATA
  6
CONTINUOUS
 62
     7
 10
-489.3026919364654
 20
-394.0113902387857
 30
0.0
 40
7.94998410000062
 50
180.0
 51
270.0
  0
ARC
  5
487
  8
DATA
  6
CONTINUOUS
 62
     7
 10
-469.2026551773686
 20
-394.0113902387857
 30
0.0
 40
7.949984100000165
 50
270.0
 51
0.0
  0
ARC
  5
488
  8
DATA
  6
CONTINUOUS
 62
     7
 10
-469.2026551773686
 20
-333.9113604236181
 30
0.0
 40
7.94998409999971
 50
0.0
 51
90.0
  0
LINE
  5
489
  8
DATA
  6
CONTINUOUS
 62
     7
 10
-497.2526614920405
 20
-394.0113917133795
 30
0.0
 11
-497.2526614920405
 21
-333.9113608432103
 31
0.0
  0
LINE
  5
48A
  8
DATA
  6
CONTINUOUS
 62
     7
 10
-469.2026535075217
 20
-401.9613762782951
 30
0.0
 11
-489.3026694765592
 21
-401.9613762782951
 31
0.0
  0
LINE
  5
48B
  8
DATA
  6
CONTINUOUS
 62
     7
 10
-461.2526614920405
 20
-333.9113608432103
 30
0.0
 11
-461.2526614920405
 21
-394.0113917133795
 31
0.0
  0
LINE
  5
48C
  8
DATA
  6
CONTINUOUS
 62
     7
 10
-489.3026694765592
 20
-325.9613762782951
 30
0.0
 11
-469.2026535075217
 21
-325.9613762782951
 31
0.0
  0
POLYLINE
  5
48D
  8
DATA
  6
CONTINUOUS
 62
     7
 66
     1
 10
0.0
 20
0.0
 30
0.0
 70
   129
  0
VERTEX
  5
81070000000000C3
  8
DATA
  6
CONTINUOUS
 62
     7
 10
-517.8286508338949
 20
-310.074502838072
 30
0.0
  0
VERTEX
  5
81070000000000C4
  8
DATA
  6
CONTINUOUS
 62
     7
 10
-518.462723776867
 20
-312.7500233311175
 30
0.0
  0
VERTEX
  5
81070000000000C5
  8
DATA
  6
CONTINUOUS
 62
     7
 10
-516.4626343169709
 20
-314.6368977199841
 30
0.0
  0
VERTEX
  5
81070000000000C6
  8
DATA
  6
CONTINUOUS
 62
     7
 10
-513.828591123154
 20
-313.8482478905198
 30
0.0
  0
VERTEX
  5
81070000000000C7
  8
DATA
  6
CONTINUOUS
 62
     7
 10
-513.1945181801818
 20
-311.1727273974743
 30
0.0
  0
VERTEX
  5
81070000000000C8
  8
DATA
  6
CONTINUOUS
 62
     7
 10
-515.1945480355532
 20
-309.2858567338931
 30
0.0
  0
SEQEND
  5
8107000000000107
  8
DATA
  6
CONTINUOUS
 62
     7
  0
CIRCLE
  5
495
  8
DATA
  6
CONTINUOUS
 62
     7
 10
-515.8286004049176
 20
-311.9613762782951
 30
0.0
 40
2.749620698673
  0
POLYLINE
  5
496
  8
DATA
  6
CONTINUOUS
 62
     7
 66
     1
 10
0.0
 20
0.0
 30
0.0
 70
   129
  0
VERTEX
  5
81070000000000C9
  8
DATA
  6
CONTINUOUS
 62
     7
 10
-517.8286508338949
 20
-354.5244139380734
 30
0.0
  0
VERTEX
  5
81070000000000CA
  8
DATA
  6
CONTINUOUS
 62
     7
 10
-518.462723776867
 20
-357.1999344311189
 30
0.0
  0
VERTEX
  5
81070000000000CB
  8
DATA
  6
CONTINUOUS
 62
     7
 10
-516.4626343169709
 20
-359.0868088199854
 30
0.0
  0
VERTEX
  5
81070000000000CC
  8
DATA
  6
CONTINUOUS
 62
     7
 10
-513.828591123154
 20
-358.2981589905212
 30
0.0
  0
VERTEX
  5
81070000000000CD
  8
DATA
  6
CONTINUOUS
 62
     7
 10
-513.1945181801818
 20
-355.6226384974757
 30
0.0
  0
VERTEX
  5
81070000000000CE
  8
DATA
  6
CONTINUOUS
 62
     7
 10
-515.1945480355532
 20
-353.7357678338944
 30
0.0
  0
SEQEND
  5
8107000000000108
  8
DATA
  6
CONTINUOUS
 62
     7
  0
CIRCLE
  5
49E
  8
DATA
  6
CONTINUOUS
 62
     7
 10
-515.8286004049176
 20
-356.4112873782965
 30
0.0
 40
2.749620698673
  0
POLYLINE
  5
49F
  8
DATA
  6
CONTINUOUS
 62
     7
 66
     1
 10
0.0
 20
0.0
 30
0.0
 70
   129
  0
VERTEX
  5
81070000000000CF
  8
DATA
  6
CONTINUOUS
 62
     7
 10
-444.6767971378947
 20
-310.074502838072
 30
0.0
  0
VERTEX
  5
81070000000000D0
  8
DATA
  6
CONTINUOUS
 62
     7
 10
-445.3108700808668
 20
-312.7500233311175
 30
0.0
  0
VERTEX
  5
81070000000000D1
  8
DATA
  6
CONTINUOUS
 62
     7
 10
-443.3107806209707
 20
-314.6368977199841
 30
0.0
  0
VERTEX
  5
81070000000000D2
  8
DATA
  6
CONTINUOUS
 62
     7
 10
-440.6767374271537
 20
-313.8482478905198
 30
0.0
  0
VERTEX
  5
81070000000000D3
  8
DATA
  6
CONTINUOUS
 62
     7
 10
-440.0426644841816
 20
-311.1727273974743
 30
0.0
  0
VERTEX
  5
81070000000000D4
  8
DATA
  6
CONTINUOUS
 62
     7
 10
-442.042694339553
 20
-309.2858567338931
 30
0.0
  0
SEQEND
  5
8107000000000109
  8
DATA
  6
CONTINUOUS
 62
     7
  0
CIRCLE
  5
4A7
  8
DATA
  6
CONTINUOUS
 62
     7
 10
-442.6767467089173
 20
-311.9613762782951
 30
0.0
 40
2.749620698673
  0
POLYLINE
  5
4A8
  8
DATA
  6
CONTINUOUS
 62
     7
 66
     1
 10
0.0
 20
0.0
 30
0.0
 70
   129
  0
VERTEX
  5
81070000000000D5
  8
DATA
  6
CONTINUOUS
 62
     7
 10
-444.6767971378947
 20
-354.5244139380734
 30
0.0
  0
VERTEX
  5
81070000000000D6
  8
DATA
  6
CONTINUOUS
 62
     7
 10
-445.3108700808668
 20
-357.1999344311189
 30
0.0
  0
VERTEX
  5
81070000000000D7
  8
DATA
  6
CONTINUOUS
 62
     7
 10
-443.3107806209707
 20
-359.0868088199854
 30
0.0
  0
VERTEX
  5
81070000000000D8
  8
DATA
  6
CONTINUOUS
 62
     7
 10
-440.6767374271537
 20
-358.2981589905212
 30
0.0
  0
VERTEX
  5
81070000000000D9
  8
DATA
  6
CONTINUOUS
 62
     7
 10
-440.0426644841816
 20
-355.6226384974757
 30
0.0
  0
VERTEX
  5
81070000000000DA
  8
DATA
  6
CONTINUOUS
 62
     7
 10
-442.042694339553
 20
-353.7357678338944
 30
0.0
  0
SEQEND
  5
810700000000010A
  8
DATA
  6
CONTINUOUS
 62
     7
  0
CIRCLE
  5
4B0
  8
DATA
  6
CONTINUOUS
 62
     7
 10
-442.6767467089173
 20
-356.4112873782965
 30
0.0
 40
2.749620698673
  0
ARC
  5
4B1
  8
DATA
  6
CONTINUOUS
 62
     7
 10
469.2026407771714
 20
-333.9113604236181
 30
0.0
 40
7.94998409999971
 50
90.0
 51
180.0
  0
ARC
  5
4B2
  8
DATA
  6
CONTINUOUS
 62
     7
 10
469.2026407771714
 20
-394.0113902387857
 30
0.0
 40
7.94998410000062
 50
180.0
 51
270.0
  0
ARC
  5
4B3
  8
DATA
  6
CONTINUOUS
 62
     7
 10
489.3026775362682
 20
-394.0113902387857
 30
0.0
 40
7.949984100000165
 50
270.0
 51
0.0
  0
ARC
  5
4B4
  8
DATA
  6
CONTINUOUS
 62
     7
 10
489.3026775362682
 20
-333.9113604236181
 30
0.0
 40
7.94998409999971
 50
0.0
 51
90.0
  0
LINE
  5
4B5
  8
DATA
  6
CONTINUOUS
 62
     7
 10
461.2526712215963
 20
-394.0113917133795
 30
0.0
 11
461.2526712215963
 21
-333.9113608432103
 31
0.0
  0
LINE
  5
4B6
  8
DATA
  6
CONTINUOUS
 62
     7
 10
489.302679206115
 20
-401.9613762782951
 30
0.0
 11
469.2026632370776
 21
-401.9613762782951
 31
0.0
  0
LINE
  5
4B7
  8
DATA
  6
CONTINUOUS
 62
     7
 10
497.2526712215963
 20
-333.9113608432103
 30
0.0
 11
497.2526712215963
 21
-394.0113917133795
 31
0.0
  0
LINE
  5
4B8
  8
DATA
  6
CONTINUOUS
 62
     7
 10
469.2026632370776
 20
-325.9613762782951
 30
0.0
 11
489.302679206115
 21
-325.9613762782951
 31
0.0
  0
CIRCLE
  5
4B9
  8
DATA
  6
CONTINUOUS
 62
     7
 10
442.6767323087192
 20
-643.588713022295
 30
0.0
 40
8.331183337600123
  0
CIRCLE
  5
4BA
  8
DATA
  6
CONTINUOUS
 62
     7
 10
515.8285860047204
 20
-688.0386241222936
 30
0.0
 40
8.331183337600123
  0
CIRCLE
  5
4BB
  8
DATA
  6
CONTINUOUS
 62
     7
 10
442.6767323087192
 20
-688.0386241222936
 30
0.0
 40
8.331183337600123
  0
CIRCLE
  5
4BC
  8
DATA
  6
CONTINUOUS
 62
     7
 10
515.8285860047204
 20
-643.588713022295
 30
0.0
 40
8.331183337600123
  0
CIRCLE
  5
4BD
  8
DATA
  6
CONTINUOUS
 62
     7
 10
442.6767323087192
 20
-643.588713022295
 30
0.0
 40
9.080481839000186
  0
CIRCLE
  5
4BE
  8
DATA
  6
CONTINUOUS
 62
     7
 10
442.6767323087192
 20
-688.0386241222936
 30
0.0
 40
9.080481839000186
  0
CIRCLE
  5
4BF
  8
DATA
  6
CONTINUOUS
 62
     7
 10
515.8285860047204
 20
-643.588713022295
 30
0.0
 40
9.080481839000186
  0
CIRCLE
  5
4C0
  8
DATA
  6
CONTINUOUS
 62
     7
 10
515.8285860047204
 20
-688.0386241222936
 30
0.0
 40
9.080481839000186
  0
POLYLINE
  5
4C1
  8
DATA
  6
CONTINUOUS
 62
     7
 66
     1
 10
0.0
 20
0.0
 30
0.0
 70
   129
  0
VERTEX
  5
81070000000000DB
  8
DATA
  6
CONTINUOUS
 62
     7
 10
513.1944813102027
 20
-644.3773736312976
 30
0.0
  0
VERTEX
  5
81070000000000DC
  8
DATA
  6
CONTINUOUS
 62
     7
 10
515.1945155946927
 20
-646.264254991262
 30
0.0
  0
VERTEX
  5
81070000000000DD
  8
DATA
  6
CONTINUOUS
 62
     7
 10
517.8286406261828
 20
-645.4755610547918
 30
0.0
  0
VERTEX
  5
81070000000000DE
  8
DATA
  6
CONTINUOUS
 62
     7
 10
518.4626685425756
 20
-642.8000871338495
 30
0.0
  0
VERTEX
  5
81070000000000DF
  8
DATA
  6
CONTINUOUS
 62
     7
 10
516.4626342580856
 20
-640.9132057738852
 30
0.0
  0
VERTEX
  5
81070000000000E0
  8
DATA
  6
CONTINUOUS
 62
     7
 10
513.8285422549957
 20
-641.7018499539296
 30
0.0
  0
SEQEND
  5
810700000000010B
  8
DATA
  6
CONTINUOUS
 62
     7
  0
CIRCLE
  5
4C9
  8
DATA
  6
CONTINUOUS
 62
     7
 10
515.8285860047204
 20
-643.588713022295
 30
0.0
 40
2.749620698672974
  0
POLYLINE
  5
4CA
  8
DATA
  6
CONTINUOUS
 62
     7
 66
     1
 10
0.0
 20
0.0
 30
0.0
 70
   129
  0
VERTEX
  5
81070000000000E1
  8
DATA
  6
CONTINUOUS
 62
     7
 10
513.1944813102027
 20
-688.8272847312962
 30
0.0
  0
VERTEX
  5
81070000000000E2
  8
DATA
  6
CONTINUOUS
 62
     7
 10
515.1945155946927
 20
-690.7141660912606
 30
0.0
  0
VERTEX
  5
81070000000000E3
  8
DATA
  6
CONTINUOUS
 62
     7
 10
517.8286406261828
 20
-689.9254721547904
 30
0.0
  0
VERTEX
  5
81070000000000E4
  8
DATA
  6
CONTINUOUS
 62
     7
 10
518.4626685425756
 20
-687.2499982338481
 30
0.0
  0
VERTEX
  5
81070000000000E5
  8
DATA
  6
CONTINUOUS
 62
     7
 10
516.4626342580856
 20
-685.3631168738839
 30
0.0
  0
VERTEX
  5
81070000000000E6
  8
DATA
  6
CONTINUOUS
 62
     7
 10
513.8285422549957
 20
-686.1517610539282
 30
0.0
  0
SEQEND
  5
810700000000010C
  8
DATA
  6
CONTINUOUS
 62
     7
  0
CIRCLE
  5
4D2
  8
DATA
  6
CONTINUOUS
 62
     7
 10
515.8285860047204
 20
-688.0386241222936
 30
0.0
 40
2.749620698672974
  0
POLYLINE
  5
4D3
  8
DATA
  6
CONTINUOUS
 62
     7
 66
     1
 10
0.0
 20
0.0
 30
0.0
 70
   129
  0
VERTEX
  5
81070000000000E7
  8
DATA
  6
CONTINUOUS
 62
     7
 10
440.0426276142016
 20
-688.8272847312962
 30
0.0
  0
VERTEX
  5
81070000000000E8
  8
DATA
  6
CONTINUOUS
 62
     7
 10
442.0426618986916
 20
-690.7141660912606
 30
0.0
  0
VERTEX
  5
81070000000000E9
  8
DATA
  6
CONTINUOUS
 62
     7
 10
444.6767869301817
 20
-689.9254721547904
 30
0.0
  0
VERTEX
  5
81070000000000EA
  8
DATA
  6
CONTINUOUS
 62
     7
 10
445.3108148465744
 20
-687.2499982338481
 30
0.0
  0
VERTEX
  5
81070000000000EB
  8
DATA
  6
CONTINUOUS
 62
     7
 10
443.3107805620845
 20
-685.3631168738839
 30
0.0
  0
VERTEX
  5
81070000000000EC
  8
DATA
  6
CONTINUOUS
 62
     7
 10
440.6766885589946
 20
-686.1517610539282
 30
0.0
  0
SEQEND
  5
810700000000010D
  8
DATA
  6
CONTINUOUS
 62
     7
  0
CIRCLE
  5
4DB
  8
DATA
  6
CONTINUOUS
 62
     7
 10
442.6767323087192
 20
-688.0386241222936
 30
0.0
 40
2.749620698672974
  0
POLYLINE
  5
4DC
  8
DATA
  6
CONTINUOUS
 62
     7
 66
     1
 10
0.0
 20
0.0
 30
0.0
 70
   129
  0
VERTEX
  5
81070000000000ED
  8
DATA
  6
CONTINUOUS
 62
     7
 10
440.0426276142016
 20
-644.3773736312976
 30
0.0
  0
VERTEX
  5
81070000000000EE
  8
DATA
  6
CONTINUOUS
 62
     7
 10
442.0426618986916
 20
-646.264254991262
 30
0.0
  0
VERTEX
  5
81070000000000EF
  8
DATA
  6
CONTINUOUS
 62
     7
 10
444.6767869301817
 20
-645.4755610547918
 30
0.0
  0
VERTEX
  5
81070000000000F0
  8
DATA
  6
CONTINUOUS
 62
     7
 10
445.3108148465744
 20
-642.8000871338495
 30
0.0
  0
VERTEX
  5
81070000000000F1
  8
DATA
  6
CONTINUOUS
 62
     7
 10
443.3107805620845
 20
-640.9132057738852
 30
0.0
  0
VERTEX
  5
81070000000000F2
  8
DATA
  6
CONTINUOUS
 62
     7
 10
440.6766885589946
 20
-641.7018499539296
 30
0.0
  0
SEQEND
  5
810700000000010E
  8
DATA
  6
CONTINUOUS
 62
     7
  0
CIRCLE
  5
4E4
  8
DATA
  6
CONTINUOUS
 62
     7
 10
442.6767323087192
 20
-643.588713022295
 30
0.0
 40
2.749620698672974
  0
ARC
  5
4E5
  8
DATA
  6
CONTINUOUS
 62
     7
 10
469.2026407771714
 20
-665.5386971676176
 30
0.0
 40
7.94998409999971
 50
90.0
 51
180.0
  0
ARC
  5
4E6
  8
DATA
  6
CONTINUOUS
 62
     7
 10
469.2026407771714
 20
-725.6387269827851
 30
0.0
 40
7.94998410000062
 50
180.0
 51
270.0
  0
ARC
  5
4E7
  8
DATA
  6
CONTINUOUS
 62
     7
 10
489.3026775362682
 20
-725.6387269827851
 30
0.0
 40
7.949984100000165
 50
270.0
 51
0.0
  0
ARC
  5
4E8
  8
DATA
  6
CONTINUOUS
 62
     7
 10
489.3026775362682
 20
-665.5386971676176
 30
0.0
 40
7.94998409999971
 50
0.0
 51
90.0
  0
LINE
  5
4E9
  8
DATA
  6
CONTINUOUS
 62
     7
 10
461.2526712215963
 20
-725.6387284573789
 30
0.0
 11
461.2526712215963
 21
-665.5386975872098
 31
0.0
  0
LINE
  5
4EA
  8
DATA
  6
CONTINUOUS
 62
     7
 10
489.302679206115
 20
-733.5887130222945
 30
0.0
 11
469.2026632370776
 21
-733.5887130222945
 31
0.0
  0
LINE
  5
4EB
  8
DATA
  6
CONTINUOUS
 62
     7
 10
497.2526712215963
 20
-665.5386975872098
 30
0.0
 11
497.2526712215963
 21
-725.6387284573789
 31
0.0
  0
LINE
  5
4EC
  8
DATA
  6
CONTINUOUS
 62
     7
 10
469.2026632370776
 20
-657.5887130222945
 30
0.0
 11
489.302679206115
 21
-657.5887130222945
 31
0.0
  0
ARC
  5
4ED
  8
DATA
  6
CONTINUOUS
 62
     7
 10
43.64991347433534
 20
-292.8499956446335
 30
0.0
 40
6.349987300000066
 50
0.0
 51
90.0
  0
ARC
  5
4EE
  8
DATA
  6
CONTINUOUS
 62
     7
 10
43.64991347433534
 20
-319.1500293892682
 30
0.0
 40
6.349987300000066
 50
270.0
 51
0.0
  0
ARC
  5
4EF
  8
DATA
  6
CONTINUOUS
 62
     7
 10
-43.64991192566595
 20
-292.8499956446335
 30
0.0
 40
6.349987300000066
 50
90.0
 51
180.0
  0
ARC
  5
4F0
  8
DATA
  6
CONTINUOUS
 62
     7
 10
-43.64991192566595
 20
-319.1500293892682
 30
0.0
 40
6.349987300000066
 50
180.0
 51
270.0
  0
LINE
  5
4F1
  8
DATA
  6
CONTINUOUS
 62
     7
 10
49.99990080326461
 20
-319.1500347381552
 30
0.0
 11
49.99990080326461
 21
-292.8500008027859
 31
0.0
  0
LINE
  5
4F2
  8
DATA
  6
CONTINUOUS
 62
     7
 10
43.64991346358966
 20
-286.500002869338
 30
0.0
 11
-43.64991346358966
 21
-286.500002869338
 31
0.0
  0
LINE
  5
4F3
  8
DATA
  6
CONTINUOUS
 62
     7
 10
-43.64991346358966
 20
-325.500002869338
 30
0.0
 11
43.64991346358966
 21
-325.500002869338
 31
0.0
  0
LINE
  5
4F4
  8
DATA
  6
CONTINUOUS
 62
     7
 10
-49.99989649590498
 20
-292.8500008027859
 30
0.0
 11
-49.99989649590498
 21
-319.1500347381552
 31
0.0
  0
ARC
  5
4F5
  8
DATA
  6
CONTINUOUS
 62
     7
 10
49.65001267107073
 20
-286.8499956445955
 30
0.0
 40
6.349987300000066
 50
0.0
 51
90.0
  0
ARC
  5
4F6
  8
DATA
  6
CONTINUOUS
 62
     7
 10
49.65001267107073
 20
-325.1500293892682
 30
0.0
 40
6.349987300000066
 50
270.0
 51
0.0
  0
ARC
  5
4F7
  8
DATA
  6
CONTINUOUS
 62
     7
 10
-49.65001542976097
 20
-286.8499956445955
 30
0.0
 40
6.349987300000066
 50
90.0
 51
180.0
  0
ARC
  5
4F8
  8
DATA
  6
CONTINUOUS
 62
     7
 10
-49.65001542976097
 20
-325.1500293892682
 30
0.0
 40
6.349987300000066
 50
180.0
 51
270.0
  0
LINE
  5
4F9
  8
DATA
  6
CONTINUOUS
 62
     7
 10
56.0
 20
-325.1500347381552
 30
0.0
 11
56.0
 21
-286.8500008027478
 31
0.0
  0
LINE
  5
4FA
  8
DATA
  6
CONTINUOUS
 62
     7
 10
49.65001266032505
 20
-280.5000028693
 30
0.0
 11
-49.65001696768468
 21
-280.5000028693
 31
0.0
  0
LINE
  5
4FB
  8
DATA
  6
CONTINUOUS
 62
     7
 10
-49.65001696768468
 20
-331.500002869338
 30
0.0
 11
49.65001266032505
 21
-331.500002869338
 31
0.0
  0
LINE
  5
4FC
  8
DATA
  6
CONTINUOUS
 62
     7
 10
-56.0
 20
-286.8500008027478
 30
0.0
 11
-56.0
 21
-325.1500347381552
 31
0.0
  0
ARC
  5
4FD
  8
DATA
  6
CONTINUOUS
 62
     7
 10
43.64991347433534
 20
-486.8499956446335
 30
0.0
 40
6.349987300000066
 50
0.0
 51
90.0
  0
ARC
  5
4FE
  8
DATA
  6
CONTINUOUS
 62
     7
 10
43.64991347433534
 20
-513.1500293892682
 30
0.0
 40
6.349987300000066
 50
270.0
 51
0.0
  0
ARC
  5
4FF
  8
DATA
  6
CONTINUOUS
 62
     7
 10
-43.64991192566595
 20
-486.8499956446335
 30
0.0
 40
6.349987300000066
 50
90.0
 51
180.0
  0
ARC
  5
500
  8
DATA
  6
CONTINUOUS
 62
     7
 10
-43.64991192566595
 20
-513.1500293892682
 30
0.0
 40
6.349987300000066
 50
180.0
 51
270.0
  0
LINE
  5
501
  8
DATA
  6
CONTINUOUS
 62
     7
 10
49.99990080326461
 20
-513.1500347381552
 30
0.0
 11
49.99990080326461
 21
-486.8500008027859
 31
0.0
  0
LINE
  5
502
  8
DATA
  6
CONTINUOUS
 62
     7
 10
43.64991346358966
 20
-480.500002869338
 30
0.0
 11
-43.64991346358966
 21
-480.500002869338
 31
0.0
  0
LINE
  5
503
  8
DATA
  6
CONTINUOUS
 62
     7
 10
-43.64991346358966
 20
-519.500002869338
 30
0.0
 11
43.64991346358966
 21
-519.500002869338
 31
0.0
  0
LINE
  5
504
  8
DATA
  6
CONTINUOUS
 62
     7
 10
-49.99989649590498
 20
-486.8500008027859
 30
0.0
 11
-49.99989649590498
 21
-513.1500347381552
 31
0.0
  0
ARC
  5
505
  8
DATA
  6
CONTINUOUS
 62
     7
 10
49.65001267107073
 20
-480.8499956445955
 30
0.0
 40
6.349987300000066
 50
0.0
 51
90.0
  0
ARC
  5
506
  8
DATA
  6
CONTINUOUS
 62
     7
 10
49.65001267107073
 20
-519.1500293892682
 30
0.0
 40
6.349987300000066
 50
270.0
 51
0.0
  0
ARC
  5
507
  8
DATA
  6
CONTINUOUS
 62
     7
 10
-49.65001542976097
 20
-480.8499956445955
 30
0.0
 40
6.349987300000066
 50
90.0
 51
180.0
  0
ARC
  5
508
  8
DATA
  6
CONTINUOUS
 62
     7
 10
-49.65001542976097
 20
-519.1500293892682
 30
0.0
 40
6.349987300000066
 50
180.0
 51
270.0
  0
LINE
  5
509
  8
DATA
  6
CONTINUOUS
 62
     7
 10
56.0
 20
-519.1500347381552
 30
0.0
 11
56.0
 21
-480.8500008027479
 31
0.0
  0
LINE
  5
50A
  8
DATA
  6
CONTINUOUS
 62
     7
 10
49.65001266032505
 20
-474.5000028693
 30
0.0
 11
-49.65001696768468
 21
-474.5000028693
 31
0.0
  0
LINE
  5
50B
  8
DATA
  6
CONTINUOUS
 62
     7
 10
-49.65001696768468
 20
-525.500002869338
 30
0.0
 11
49.65001266032505
 21
-525.500002869338
 31
0.0
  0
LINE
  5
50C
  8
DATA
  6
CONTINUOUS
 62
     7
 10
-56.0
 20
-480.8500008027479
 30
0.0
 11
-56.0
 21
-519.1500347381552
 31
0.0
  0
ARC
  5
50D
  8
DATA
  6
CONTINUOUS
 62
     7
 10
-657.2531790132141
 20
-890.704385195374
 30
0.0
 40
3.715460594462916
 50
260.1972507076207
 51
279.8027492923792
  0
ARC
  5
50E
  8
DATA
  6
CONTINUOUS
 62
     7
 10
-642.2021820708626
 20
-890.7043851953758
 30
0.0
 40
3.715460594461047
 50
260.1972507076228
 51
279.8027492923771
  0
ARC
  5
50F
  8
DATA
  6
CONTINUOUS
 62
     7
 10
-656.6205966450932
 20
-894.2549114900003
 30
0.0
 40
1.269997460000283
 50
185.0000000000125
 51
270.0
  0
ARC
  5
510
  8
DATA
  6
CONTINUOUS
 62
     7
 10
-642.8347644389862
 20
-894.2549114900003
 30
0.0
 40
1.269997460000013
 50
270.0
 51
354.9999999999857
  0
ARC
  5
511
  8
DATA
  6
CONTINUOUS
 62
     7
 10
-656.7526664920399
 20
-852.4999950000001
 30
0.0
 40
2.499995000000126
 50
90.0
 51
180.0
  0
LINE
  5
512
  8
DATA
  6
CONTINUOUS
 62
     7
 10
-549.2526614920405
 20
-871.8227563544006
 30
0.0
 11
-613.7526614920405
 21
-871.8227563544006
 31
0.0
  0
LINE
  5
513
  8
DATA
  6
CONTINUOUS
 62
     7
 10
-549.2526614920405
 20
-869.5874608250006
 30
0.0
 11
-549.2526614920405
 21
-871.8227563544006
 31
0.0
  0
LINE
  5
514
  8
DATA
  6
CONTINUOUS
 62
     7
 10
-642.8347644389862
 20
-894.3655990619136
 30
0.0
 11
-642.1028630582821
 21
-885.9999280000002
 31
0.0
  0
LINE
  5
515
  8
DATA
  6
CONTINUOUS
 62
     7
 10
-656.6205966450932
 20
-894.3655990619136
 30
0.0
 11
-642.8347644389862
 21
-894.3655990619136
 31
0.0
  0
LINE
  5
516
  8
DATA
  6
CONTINUOUS
 62
     7
 10
-657.3524980257978
 20
-885.9999280000002
 30
0.0
 11
-656.6205966450932
 21
-894.3655990619136
 31
0.0
  0
LINE
  5
517
  8
DATA
  6
CONTINUOUS
 62
     7
 10
-657.8857613813345
 20
-894.3655990619136
 30
0.0
 11
-658.6176627620391
 21
-885.9999280000002
 31
0.0
  0
LINE
  5
518
  8
DATA
  6
CONTINUOUS
 62
     7
 10
-658.6176627620391
 20
-885.9999280000002
 30
0.0
 11
-616.2926564120396
 21
-885.9999280000002
 31
0.0
  0
LINE
  5
519
  8
DATA
  6
CONTINUOUS
 62
     7
 10
-640.8376983220403
 20
-885.9999280000002
 30
0.0
 11
-641.5695997027449
 21
-894.3655990619136
 31
0.0
  0
LINE
  5
51A
  8
DATA
  6
CONTINUOUS
 62
     7
 10
-642.8347644389862
 20
-895.5249089500003
 30
0.0
 11
-656.6205966450932
 21
-895.5249089500003
 31
0.0
  0
LINE
  5
51B
  8
DATA
  6
CONTINUOUS
 62
     7
 10
-656.6205966450932
 20
-895.5249089500003
 30
0.0
 11
-656.6205966450932
 21
-894.3655990619136
 31
0.0
  0
LINE
  5
51C
  8
DATA
  6
CONTINUOUS
 62
     7
 10
-642.8347644389862
 20
-895.5249089500003
 30
0.0
 11
-642.8347644389862
 21
-894.3655990619136
 31
0.0
  0
LINE
  5
51D
  8
DATA
  6
CONTINUOUS
 62
     7
 10
-659.2526614920405
 20
-883.4599330800002
 30
0.0
 11
-613.7526614920405
 21
-883.4599330800002
 31
0.0
  0
LINE
  5
51E
  8
DATA
  6
CONTINUOUS
 62
     7
 10
-659.2526614920405
 20
-852.4999950000001
 30
0.0
 11
-659.2526614920405
 21
-883.4599330800002
 31
0.0
  0
LINE
  5
51F
  8
DATA
  6
CONTINUOUS
 62
     7
 10
-659.2526614920405
 20
-883.4599330800002
 30
0.0
 11
-656.7126665720382
 21
-885.9999280000002
 31
0.0
  0
LINE
  5
520
  8
DATA
  6
CONTINUOUS
 62
     7
 10
-613.7526614920405
 20
-867.9999640000005
 30
0.0
 11
-613.7526614920405
 21
-883.4599330800002
 31
0.0
  0
LINE
  5
521
  8
DATA
  6
CONTINUOUS
 62
     7
 10
-613.7526614920405
 20
-883.4599330800002
 30
0.0
 11
-616.2926564120396
 21
-885.9999280000002
 31
0.0
  0
LINE
  5
522
  8
DATA
  6
CONTINUOUS
 62
     7
 10
-656.7526664920399
 20
-850.0
 30
0.0
 11
656.7526664920395
 21
-850.0
 31
0.0
  0
LINE
  5
523
  8
DATA
  6
CONTINUOUS
 62
     7
 10
659.2526614920405
 20
-852.4999950000001
 30
0.0
 11
-659.2526614920405
 21
-852.4999950000001
 31
0.0
  0
LINE
  5
524
  8
DATA
  6
CONTINUOUS
 62
     7
 10
659.2526614920406
 20
-867.9999640000005
 30
0.0
 11
-659.2526614920405
 21
-867.9999640000005
 31
0.0
  0
LINE
  5
525
  8
DATA
  6
CONTINUOUS
 62
     7
 10
-523.1388883485231
 20
-879.7422776057019
 30
0.0
 11
-522.1785756400402
 21
-880.2967144064505
 31
0.0
  0
LINE
  5
526
  8
DATA
  6
CONTINUOUS
 62
     7
 10
-509.4786010400401
 20
-880.2967144064505
 30
0.0
 11
-522.1785756400402
 21
-880.2967144064505
 31
0.0
  0
ARC
  5
527
  8
DATA
  6
CONTINUOUS
 62
     7
 10
-594.8647244035467
 20
-872.2799554399999
 30
0.0
 40
0.2539994919998207
 50
90.0
 51
179.0000000001613
  0
ARC
  5
528
  8
DATA
  6
CONTINUOUS
 62
     7
 10
-563.6405985805334
 20
-872.2799554399999
 30
0.0
 40
0.2539994920001216
 50
0.9999999998387646
 51
90.0
  0
ARC
  5
529
  8
DATA
  6
CONTINUOUS
 62
     7
 10
-595.3772343476624
 20
-872.5339549320006
 30
0.0
 40
0.2539994919998207
 50
270.0
 51
359.0000000001612
  0
ARC
  5
52A
  8
DATA
  6
CONTINUOUS
 62
     7
 10
-563.1280886364177
 20
-872.5339549320006
 30
0.0
 40
0.2539994920001216
 50
180.9999999998388
 51
270.0
  0
ARC
  5
52B
  8
DATA
  6
CONTINUOUS
 62
     7
 10
-591.5678592377565
 20
-876.5979468040005
 30
0.0
 40
5.079989840000413
 50
181.0000000000033
 51
270.0
  0
ARC
  5
52C
  8
DATA
  6
CONTINUOUS
 62
     7
 10
-566.9374637463231
 20
-876.5979468040005
 30
0.0
 40
5.079989840000053
 50
270.0
 51
358.9999999999967
  0
ARC
  5
52D
  8
DATA
  6
CONTINUOUS
 62
     7
 10
-587.2492506036622
 20
-871.7719564560002
 30
0.0
 40
0.2539994919998207
 50
270.0
 51
348.4630409671186
  0
ARC
  5
52E
  8
DATA
  6
CONTINUOUS
 62
     7
 10
-571.2560723804179
 20
-871.7719564560002
 30
0.0
 40
0.2539994920002072
 50
191.5369590328815
 51
270.0
  0
ARC
  5
52F
  8
DATA
  6
CONTINUOUS
 62
     7
 10
-497.1596256780392
 20
-923.6385527226003
 30
0.0
 40
1.523996951999976
 50
142.7929789000406
 51
180.0
  0
ARC
  5
530
  8
DATA
  6
CONTINUOUS
 62
     7
 10
-497.1596256780392
 20
-953.3564932866002
 30
0.0
 40
1.523996951999834
 50
180.0
 51
217.2070210999594
  0
ARC
  5
531
  8
DATA
  6
CONTINUOUS
 62
     7
 10
-504.0176119620394
 20
-888.5993228012003
 30
0.0
 40
4.825990347999854
 50
150.8667672160347
 51
180.0
  0
ARC
  5
532
  8
DATA
  6
CONTINUOUS
 62
     7
 10
-454.4877110220416
 20
-888.5993228012003
 30
0.0
 40
4.825990348000232
 50
0.0
 51
29.13323278396536
  0
ARC
  5
533
  8
DATA
  6
CONTINUOUS
 62
     7
 10
-461.345697306039
 20
-953.3564932866002
 30
0.0
 40
1.523996952000338
 50
322.7929789000509
 51
0.0
  0
ARC
  5
534
  8
DATA
  6
CONTINUOUS
 62
     7
 10
-461.345697306039
 20
-923.6385527226003
 30
0.0
 40
1.523996952000289
 50
0.0
 51
37.20702109994909
  0
ARC
  5
535
  8
DATA
  6
CONTINUOUS
 62
     7
 10
-479.2526614920405
 20
-900.3975992045998
 30
0.0
 40
76.19984760000027
 50
259.9845898317861
 51
280.0154101682135
  0
ARC
  5
536
  8
DATA
  6
CONTINUOUS
 62
     7
 10
-479.2526614920405
 20
-976.5974468046006
 30
0.0
 40
76.19984760000027
 50
79.98458983178614
 51
100.0154101682136
  0
ARC
  5
537
  8
DATA
  6
CONTINUOUS
 62
     7
 10
-491.9526360920406
 20
-972.3096283762079
 30
0.0
 40
3.174993650000033
 50
180.0
 51
259.9845898317845
  0
ARC
  5
538
  8
DATA
  6
CONTINUOUS
 62
     7
 10
-491.9526360920406
 20
-904.6854176329925
 30
0.0
 40
3.174993650000065
 50
100.0154101682155
 51
180.0
  0
ARC
  5
539
  8
DATA
  6
CONTINUOUS
 62
     7
 10
-466.5526868920404
 20
-972.3096283762079
 30
0.0
 40
3.174993650000065
 50
280.0154101682154
 51
0.0
  0
ARC
  5
53A
  8
DATA
  6
CONTINUOUS
 62
     7
 10
-466.5526868920404
 20
-904.6854176329925
 30
0.0
 40
3.174993650000033
 50
0.0
 51
79.9845898317846
  0
ARC
  5
53B
  8
DATA
  6
CONTINUOUS
 62
     7
 10
-580.1671989171566
 20
-893.1079137840006
 30
0.0
 40
5.079989839999958
 50
181.0000000000034
 51
270.0
  0
ARC
  5
53C
  8
DATA
  6
CONTINUOUS
 62
     7
 10
-578.3381240669235
 20
-893.1079137840006
 30
0.0
 40
5.079989840000053
 50
270.0
 51
358.9999999999966
  0
ARC
  5
53D
  8
DATA
  6
CONTINUOUS
 62
     7
 10
-583.5347406367457
 20
-872.5958931246341
 30
0.0
 40
0.3006231015278072
 50
320.2918406256195
 51
11.02790138961143
  0
ARC
  5
53E
  8
DATA
  6
CONTINUOUS
 62
     7
 10
-574.9705823473339
 20
-872.595893124635
 30
0.0
 40
0.3006231015271913
 50
168.9720986102019
 51
219.7081593743579
  0
ARC
  5
53F
  8
DATA
  6
CONTINUOUS
 62
     7
 10
-464.3936912100401
 20
-899.2673014652
 30
0.0
 40
4.571990855999957
 50
0.0
 51
90.0
  0
ARC
  5
540
  8
DATA
  6
CONTINUOUS
 62
     7
 10
-464.3936912100401
 20
-899.2673014652
 30
0.0
 40
7.111985775999983
 50
0.0
 51
90.0
  0
ARC
  5
541
  8
DATA
  6
CONTINUOUS
 62
     7
 10
-494.1116317740409
 20
-899.2673014652
 30
0.0
 40
4.571990855999502
 50
90.0
 51
180.0
  0
ARC
  5
542
  8
DATA
  6
CONTINUOUS
 62
     7
 10
-494.1116317740409
 20
-899.2673014652
 30
0.0
 40
7.111985775999528
 50
90.0
 51
180.0
  0
LINE
  5
543
  8
DATA
  6
CONTINUOUS
 62
     7
 10
-563.3820494430668
 20
-872.5383878343691
 30
0.0
 11
-563.3866377738871
 21
-872.2755225376313
 31
0.0
  0
LINE
  5
544
  8
DATA
  6
CONTINUOUS
 62
     7
 10
-595.118685210193
 20
-872.2755225376313
 30
0.0
 11
-595.1232735410133
 21
-872.5383878343691
 31
0.0
  0
LINE
  5
545
  8
DATA
  6
CONTINUOUS
 62
     7
 10
-596.7151265670411
 20
-872.7879544240004
 30
0.0
 11
-596.6470753706992
 21
-876.6866048513848
 31
0.0
  0
LINE
  5
546
  8
DATA
  6
CONTINUOUS
 62
     7
 10
-561.8582476133809
 20
-876.6866048513848
 30
0.0
 11
-561.7901964170389
 21
-872.7879544240004
 31
0.0
  0
LINE
  5
547
  8
DATA
  6
CONTINUOUS
 62
     7
 10
-446.0295279384397
 20
-886.2498275001999
 30
0.0
 11
-446.0295279384397
 21
-882.4286028567831
 31
0.0
  0
LINE
  5
548
  8
DATA
  6
CONTINUOUS
 62
     7
 10
-512.4757950456412
 20
-881.1883701009583
 30
0.0
 11
-512.4757950456412
 21
-881.6849133033711
 31
0.0
  0
LINE
  5
549
  8
DATA
  6
CONTINUOUS
 62
     7
 10
-512.4757950456412
 20
-882.4286028567803
 30
0.0
 11
-512.4757950456412
 21
-886.2498275001999
 31
0.0
  0
LINE
  5
54A
  8
DATA
  6
CONTINUOUS
 62
     7
 10
-495.1276297420416
 20
-918.4419114069997
 30
0.0
 11
-498.3734219257237
 21
-922.7169967672653
 31
0.0
  0
LINE
  5
54B
  8
DATA
  6
CONTINUOUS
 62
     7
 10
-498.3734219257237
 20
-954.2780492419352
 30
0.0
 11
-495.1276297420384
 21
-958.5531346022008
 31
0.0
  0
LINE
  5
54C
  8
DATA
  6
CONTINUOUS
 62
     7
 10
-501.2236175500404
 20
-951.1974976046004
 30
0.0
 11
-498.6836226300413
 21
-951.1974976046004
 31
0.0
  0
LINE
  5
54D
  8
DATA
  6
CONTINUOUS
 62
     7
 10
-459.8217003540401
 20
-951.1974976046004
 30
0.0
 11
-457.2817054340405
 21
-951.1974976046004
 31
0.0
  0
LINE
  5
54E
  8
DATA
  6
CONTINUOUS
 62
     7
 10
-449.6617206740395
 20
-928.2744781483252
 30
0.0
 11
-449.6617206740395
 21
-888.5993228012003
 31
0.0
  0
LINE
  5
54F
  8
DATA
  6
CONTINUOUS
 62
     7
 10
-508.8436023100387
 20
-888.5993228012003
 30
0.0
 11
-508.8436023100387
 21
-928.2744781483252
 31
0.0
  0
LINE
  5
550
  8
DATA
  6
CONTINUOUS
 62
     7
 10
-506.6925830768362
 20
-930.2853092001096
 30
0.0
 11
-507.3196053580166
 21
-932.057129766983
 31
0.0
  0
LINE
  5
551
  8
DATA
  6
CONTINUOUS
 62
     7
 10
-507.3196053580166
 20
-944.9379162422174
 30
0.0
 11
-506.6925830768362
 21
-946.7097368090908
 31
0.0
  0
LINE
  5
552
  8
DATA
  6
CONTINUOUS
 62
     7
 10
-501.2236175500404
 20
-932.4015351966
 30
0.0
 11
-501.7316165340392
 21
-932.4015351966
 31
0.0
  0
LINE
  5
553
  8
DATA
  6
CONTINUOUS
 62
     7
 10
-501.7316165340392
 20
-944.5935108126005
 30
0.0
 11
-501.2236175500404
 21
-944.5935108126005
 31
0.0
  0
LINE
  5
554
  8
DATA
  6
CONTINUOUS
 62
     7
 10
-448.1377237220402
 20
-933.7350325296002
 30
0.0
 11
-450.4237191500781
 21
-933.7350325296002
 31
0.0
  0
LINE
  5
555
  8
DATA
  6
CONTINUOUS
 62
     7
 10
-450.4237191500781
 20
-943.2600134796003
 30
0.0
 11
-448.1377237220402
 21
-943.2600134796003
 31
0.0
  0
LINE
  5
556
  8
DATA
  6
CONTINUOUS
 62
     7
 10
-451.1708253177878
 20
-946.7097368090926
 30
0.0
 11
-450.4237191500781
 21
-944.378678390668
 31
0.0
  0
LINE
  5
557
  8
DATA
  6
CONTINUOUS
 62
     7
 10
-450.4237191500781
 20
-932.6163676185324
 30
0.0
 11
-451.1708253177878
 21
-930.2853092001096
 31
0.0
  0
LINE
  5
558
  8
DATA
  6
CONTINUOUS
 62
     7
 10
-463.3776932420399
 20
-958.5531346022008
 30
0.0
 11
-460.1319010583572
 21
-954.2780492419352
 31
0.0
  0
LINE
  5
559
  8
DATA
  6
CONTINUOUS
 62
     7
 10
-460.1319010583572
 20
-922.7169967672653
 30
0.0
 11
-463.3776932420399
 21
-918.4419114069997
 31
0.0
  0
LINE
  5
55A
  8
DATA
  6
CONTINUOUS
 62
     7
 10
-508.5182883315576
 20
-874.1042897009484
 30
0.0
 11
-509.4786010400401
 21
-873.5498529001998
 31
0.0
  0
LINE
  5
55B
  8
DATA
  6
CONTINUOUS
 62
     7
 10
-509.4786010400401
 20
-880.2967144064505
 30
0.0
 11
-508.5182883315576
 21
-879.7422776057019
 31
0.0
  0
LINE
  5
55C
  8
DATA
  6
CONTINUOUS
 62
     7
 10
-522.1785756400402
 20
-873.5498529001998
 30
0.0
 11
-523.1388883485231
 21
-874.1042897009484
 31
0.0
  0
LINE
  5
55D
  8
DATA
  6
CONTINUOUS
 62
     7
 10
-511.8871897144129
 20
-873.560063390647
 30
0.0
 11
-511.9047769511315
 21
-873.5498529001998
 31
0.0
  0
LINE
  5
55E
  8
DATA
  6
CONTINUOUS
 62
     7
 10
-518.8538480248496
 20
-882.20001828565
 30
0.0
 11
-519.1540938853698
 21
-882.3746070521656
 31
0.0
  0
LINE
  5
55F
  8
DATA
  6
CONTINUOUS
 62
     7
 10
-511.8598462775415
 20
-880.8190880784568
 30
0.0
 11
-511.8598462775415
 21
-880.6426995423462
 31
0.0
  0
LINE
  5
560
  8
DATA
  6
CONTINUOUS
 62
     7
 10
-519.797330402542
 20
-881.3482536867905
 30
0.0
 11
-519.797330402542
 21
-881.5246422229011
 31
0.0
  0
LINE
  5
561
  8
DATA
  6
CONTINUOUS
 62
     7
 10
-519.1864291075751
 20
-882.4235553836488
 30
0.0
 11
-518.7389991858306
 21
-882.8709853053933
 31
0.0
  0
LINE
  5
562
  8
DATA
  6
CONTINUOUS
 62
     7
 10
-512.9181774942497
 20
-882.8709853053933
 30
0.0
 11
-512.0144930452418
 21
-881.9673008563841
 31
0.0
  0
LINE
  5
563
  8
DATA
  6
CONTINUOUS
 62
     7
 10
-518.880788683289
 20
-882.0542228160539
 30
0.0
 11
-518.880788683289
 21
-882.2156839015497
 31
0.0
  0
LINE
  5
564
  8
DATA
  6
CONTINUOUS
 62
     7
 10
-518.880788683289
 20
-880.6431145271654
 30
0.0
 11
-518.880788683289
 21
-880.8045568496655
 31
0.0
  0
LINE
  5
565
  8
DATA
  6
CONTINUOUS
 62
     7
 10
-512.7763879967918
 20
-881.5250572077211
 30
0.0
 11
-512.7763879967918
 21
-881.36320235535
 31
0.0
  0
LINE
  5
566
  8
DATA
  6
CONTINUOUS
 62
     7
 10
-518.880788683289
 20
-882.0857465694708
 30
0.0
 11
-519.2553058684614
 21
-882.3035583864912
 31
0.0
  0
LINE
  5
567
  8
DATA
  6
CONTINUOUS
 62
     7
 10
-512.4757950456385
 20
-881.5550009516846
 30
0.0
 11
-512.7763879967918
 21
-881.3801784575398
 31
0.0
  0
LINE
  5
568
  8
DATA
  6
CONTINUOUS
 62
     7
 10
-519.797330402542
 20
-881.2184843826553
 30
0.0
 11
-519.797330402542
 21
-881.3482536867914
 31
0.0
  0
LINE
  5
569
  8
DATA
  6
CONTINUOUS
 62
     7
 10
-519.2546346781949
 20
-882.3553498130277
 30
0.0
 11
-519.1864291075724
 21
-882.4235553836497
 31
0.0
  0
LINE
  5
56A
  8
DATA
  6
CONTINUOUS
 62
     7
 10
-579.2526614920387
 20
-898.1879036240007
 30
0.0
 11
-579.2526614920387
 21
-872.8433614835913
 31
0.0
  0
LINE
  5
56B
  8
DATA
  6
CONTINUOUS
 62
     7
 10
-585.2464150500989
 20
-893.1965718313859
 30
0.0
 11
-585.6026487920401
 21
-872.7879544240004
 31
0.0
  0
LINE
  5
56C
  8
DATA
  6
CONTINUOUS
 62
     7
 10
-572.90267419204
 20
-872.7879544240004
 30
0.0
 11
-573.2589079339807
 21
-893.1965718313859
 31
0.0
  0
LINE
  5
56D
  8
DATA
  6
CONTINUOUS
 62
     7
 10
-578.3381240669235
 20
-898.1879036240007
 30
0.0
 11
-580.1671989171566
 21
-898.1879036240007
 31
0.0
  0
LINE
  5
56E
  8
DATA
  6
CONTINUOUS
 62
     7
 10
-588.506086275743
 20
-876.6866048513848
 30
0.0
 11
-588.5656452105789
 21
-872.7879544240004
 31
0.0
  0
LINE
  5
56F
  8
DATA
  6
CONTINUOUS
 62
     7
 10
-569.9396777735012
 20
-872.7879544240004
 30
0.0
 11
-569.9992367083339
 21
-876.6866048513848
 31
0.0
  0
LINE
  5
570
  8
DATA
  6
CONTINUOUS
 62
     7
 10
-585.4474735751808
 20
-881.6779366440005
 30
0.0
 11
-585.8040610868418
 21
-881.6779366440005
 31
0.0
  0
LINE
  5
571
  8
DATA
  6
CONTINUOUS
 62
     7
 10
-572.7012618972383
 20
-881.6779366440005
 30
0.0
 11
-573.0578494088993
 21
-881.6779366440005
 31
0.0
  0
LINE
  5
572
  8
DATA
  6
CONTINUOUS
 62
     7
 10
-594.8647244035467
 20
-872.025955948
 30
0.0
 11
-563.6405985840277
 21
-872.025955948
 31
0.0
  0
LINE
  5
573
  8
DATA
  6
CONTINUOUS
 62
     7
 10
-561.7901964170389
 20
-872.7879544240004
 30
0.0
 11
-596.7151265670411
 21
-872.7879544240004
 31
0.0
  0
LINE
  5
574
  8
DATA
  6
CONTINUOUS
 62
     7
 10
-585.8040610868418
 20
-881.6779366440005
 30
0.0
 11
-591.5678592377565
 21
-881.6779366440005
 31
0.0
  0
LINE
  5
575
  8
DATA
  6
CONTINUOUS
 62
     7
 10
-566.9374637463231
 20
-881.6779366440005
 30
0.0
 11
-572.7012618972383
 21
-881.6779366440005
 31
0.0
  0
LINE
  5
576
  8
DATA
  6
CONTINUOUS
 62
     7
 10
-509.281565690557
 20
-873.5498529001998
 30
0.0
 11
-476.6421268530314
 21
-873.5498529001998
 31
0.0
  0
LINE
  5
577
  8
DATA
  6
CONTINUOUS
 62
     7
 10
-476.6421268530314
 20
-873.5498529001998
 30
0.0
 11
-449.2185349662434
 21
-873.5498529001998
 31
0.0
  0
LINE
  5
578
  8
DATA
  6
CONTINUOUS
 62
     7
 10
-512.4757950456412
 20
-886.2498275001999
 30
0.0
 11
-446.0295279384397
 21
-886.2498275001999
 31
0.0
  0
LINE
  5
579
  8
DATA
  6
CONTINUOUS
 62
     7
 10
-526.2526614920405
 20
-869.5874608250006
 30
0.0
 11
-526.2526614920405
 21
-873.5498529001998
 31
0.0
  0
LINE
  5
57A
  8
DATA
  6
CONTINUOUS
 62
     7
 10
-526.2526614920405
 20
-873.5498529001998
 30
0.0
 11
-432.2526614920405
 21
-873.5498529001998
 31
0.0
  0
LINE
  5
57B
  8
DATA
  6
CONTINUOUS
 62
     7
 10
-432.2526614920405
 20
-869.5874608250006
 30
0.0
 11
-432.2526614920405
 21
-873.5498529001998
 31
0.0
  0
LINE
  5
57C
  8
DATA
  6
CONTINUOUS
 62
     7
 10
-498.6836226300413
 20
-953.1998051511091
 30
0.0
 11
-498.6836226300413
 21
-923.6490720061938
 31
0.0
  0
LINE
  5
57D
  8
DATA
  6
CONTINUOUS
 62
     7
 10
-498.6836226300413
 20
-938.4975230046002
 30
0.0
 11
-501.2236175500404
 21
-938.4975230046002
 31
0.0
  0
LINE
  5
57E
  8
DATA
  6
CONTINUOUS
 62
     7
 10
-457.2817054340405
 20
-938.4975230046002
 30
0.0
 11
-459.8217003540401
 21
-938.4975230046002
 31
0.0
  0
LINE
  5
57F
  8
DATA
  6
CONTINUOUS
 62
     7
 10
-457.2817054340405
 20
-899.2673014652
 30
0.0
 11
-457.2817054340405
 21
-951.1974976046004
 31
0.0
  0
LINE
  5
580
  8
DATA
  6
CONTINUOUS
 62
     7
 10
-459.8217003540387
 20
-953.3564932866002
 30
0.0
 11
-459.8217003540401
 21
-899.2673014652
 31
0.0
  0
LINE
  5
581
  8
DATA
  6
CONTINUOUS
 62
     7
 10
-464.3936912100401
 20
-894.6953106092005
 30
0.0
 11
-494.1116317740409
 21
-894.6953106092005
 31
0.0
  0
LINE
  5
582
  8
DATA
  6
CONTINUOUS
 62
     7
 10
-498.6836226300413
 20
-899.2673014652
 30
0.0
 11
-498.6836226300391
 21
-953.3564932866002
 31
0.0
  0
LINE
  5
583
  8
DATA
  6
CONTINUOUS
 62
     7
 10
-501.2236175500404
 20
-899.2673014652
 30
0.0
 11
-501.2236175500404
 21
-951.1974976046004
 31
0.0
  0
LINE
  5
584
  8
DATA
  6
CONTINUOUS
 62
     7
 10
-464.3936912100401
 20
-892.1553156892005
 30
0.0
 11
-494.1116317740409
 21
-892.1553156892005
 31
0.0
  0
LINE
  5
585
  8
DATA
  6
CONTINUOUS
 62
     7
 10
-493.5001515155211
 20
-890.8853182292005
 30
0.0
 11
-465.0051714685603
 21
-890.8853182292005
 31
0.0
  0
LINE
  5
586
  8
DATA
  6
CONTINUOUS
 62
     7
 10
-456.5167648789813
 20
-899.2673014652
 30
0.0
 11
-457.2817054340405
 21
-899.2673014652
 31
0.0
  0
LINE
  5
587
  8
DATA
  6
CONTINUOUS
 62
     7
 10
-501.2236175500404
 20
-899.2673014652
 30
0.0
 11
-501.9885581050969
 21
-899.2673014652
 31
0.0
  0
LINE
  5
588
  8
DATA
  6
CONTINUOUS
 62
     7
 10
-501.7316165340392
 20
-930.2853092001078
 30
0.0
 11
-506.6925830768362
 21
-930.2853092001105
 31
0.0
  0
LINE
  5
589
  8
DATA
  6
CONTINUOUS
 62
     7
 10
-501.7316165340392
 20
-930.2853092001078
 30
0.0
 11
-501.7316165340392
 21
-934.391416102354
 31
0.0
  0
LINE
  5
58A
  8
DATA
  6
CONTINUOUS
 62
     7
 10
-501.7316165340392
 20
-934.391416102354
 30
0.0
 11
-506.6925830768362
 21
-934.3914161023549
 31
0.0
  0
LINE
  5
58B
  8
DATA
  6
CONTINUOUS
 62
     7
 10
-501.7316165340392
 20
-934.391416102354
 30
0.0
 11
-501.7316165340392
 21
-942.6036299068473
 31
0.0
  0
LINE
  5
58C
  8
DATA
  6
CONTINUOUS
 62
     7
 10
-501.7316165340392
 20
-942.6036299068473
 30
0.0
 11
-506.6925830768362
 21
-942.6036299068455
 31
0.0
  0
LINE
  5
58D
  8
DATA
  6
CONTINUOUS
 62
     7
 10
-501.7316165340392
 20
-946.7097368090926
 30
0.0
 11
-506.6925830768362
 21
-946.7097368090899
 31
0.0
  0
LINE
  5
58E
  8
DATA
  6
CONTINUOUS
 62
     7
 10
-501.7316165340392
 20
-942.6036299068473
 30
0.0
 11
-501.7316165340392
 21
-946.7097368090926
 31
0.0
  0
LINE
  5
58F
  8
DATA
  6
CONTINUOUS
 62
     7
 10
-507.3196053580166
 20
-932.057129766983
 30
0.0
 11
-507.3196053580166
 21
-944.9379162422174
 31
0.0
  0
LINE
  5
590
  8
DATA
  6
CONTINUOUS
 62
     7
 10
-448.1377237220402
 20
-943.2600134796003
 30
0.0
 11
-448.1377237220402
 21
-933.7350325296002
 31
0.0
  0
LINE
  5
591
  8
DATA
  6
CONTINUOUS
 62
     7
 10
-457.2817054340405
 20
-934.391416102354
 30
0.0
 11
-451.1708253177878
 21
-934.3914161023549
 31
0.0
  0
LINE
  5
592
  8
DATA
  6
CONTINUOUS
 62
     7
 10
-457.2817054340405
 20
-930.2853092001078
 30
0.0
 11
-451.1708253177878
 21
-930.2853092001096
 31
0.0
  0
LINE
  5
593
  8
DATA
  6
CONTINUOUS
 62
     7
 10
-451.1708253177878
 20
-942.6036299068455
 30
0.0
 11
-457.2817054340405
 21
-942.6036299068473
 31
0.0
  0
LINE
  5
594
  8
DATA
  6
CONTINUOUS
 62
     7
 10
-457.2817054340405
 20
-946.7097368090926
 30
0.0
 11
-451.1708253177878
 21
-946.7097368090926
 31
0.0
  0
LINE
  5
595
  8
DATA
  6
CONTINUOUS
 62
     7
 10
-450.4237191500781
 20
-932.6163676185324
 30
0.0
 11
-450.4237191500781
 21
-944.378678390668
 31
0.0
  0
LINE
  5
596
  8
DATA
  6
CONTINUOUS
 62
     7
 10
-519.528006283764
 20
-879.7295564167889
 30
0.0
 11
-519.528006283764
 21
-874.1170108898614
 31
0.0
  0
LINE
  5
597
  8
DATA
  6
CONTINUOUS
 62
     7
 10
-512.1957733613492
 20
-879.7295564167889
 30
0.0
 11
-512.1957733613492
 21
-874.1170108898614
 31
0.0
  0
LINE
  5
598
  8
DATA
  6
CONTINUOUS
 62
     7
 10
-508.4963554176236
 20
-879.7295564167889
 30
0.0
 11
-508.4963554176236
 21
-874.1170108898614
 31
0.0
  0
LINE
  5
599
  8
DATA
  6
CONTINUOUS
 62
     7
 10
-523.1608212624567
 20
-879.7295564167889
 30
0.0
 11
-523.1608212624567
 21
-874.1170108898614
 31
0.0
  0
LINE
  5
59A
  8
DATA
  6
CONTINUOUS
 62
     7
 10
-518.7389991858306
 20
-882.8709853053933
 30
0.0
 11
-512.9181774942497
 21
-882.8709853053933
 31
0.0
  0
LINE
  5
59B
  8
DATA
  6
CONTINUOUS
 62
     7
 10
-555.2526614920405
 20
-869.5874608250006
 30
0.0
 11
-555.2526614920405
 21
-867.9999640000005
 31
0.0
  0
LINE
  5
59C
  8
DATA
  6
CONTINUOUS
 62
     7
 10
-419.2526614920405
 20
-869.5874608250006
 30
0.0
 11
-555.2526614920405
 21
-869.5874608250006
 31
0.0
  0
LINE
  5
59D
  8
DATA
  6
CONTINUOUS
 62
     7
 10
-419.2526614920405
 20
-869.5874608250006
 30
0.0
 11
-419.2526614920405
 21
-867.9999640000005
 31
0.0
  0
LINE
  5
59E
  8
DATA
  6
CONTINUOUS
 62
     7
 10
-595.1232735410133
 20
-872.5383878343691
 30
0.0
 11
-583.2396687967414
 21
-872.5383878343691
 31
0.0
  0
LINE
  5
59F
  8
DATA
  6
CONTINUOUS
 62
     7
 10
-575.2656541873396
 20
-872.5383878343691
 30
0.0
 11
-563.3820494430668
 21
-872.5383878343691
 31
0.0
  0
LINE
  5
5A0
  8
DATA
  6
CONTINUOUS
 62
     7
 10
-563.3866377738871
 20
-872.2755225376313
 30
0.0
 11
-595.118685210193
 21
-872.2755225376313
 31
0.0
  0
LINE
  5
5A1
  8
DATA
  6
CONTINUOUS
 62
     7
 10
-596.647075370696
 20
-876.6866048513857
 30
0.0
 11
-585.5345975956976
 21
-876.6866048513857
 31
0.0
  0
LINE
  5
5A2
  8
DATA
  6
CONTINUOUS
 62
     7
 10
-572.9707253883823
 20
-876.6866048513848
 30
0.0
 11
-561.8582476133809
 21
-876.6866048513848
 31
0.0
  0
LINE
  5
5A3
  8
DATA
  6
CONTINUOUS
 62
     7
 10
-508.4963554176236
 20
-875.0230499538002
 30
0.0
 11
-450.0089675664574
 21
-875.0230499538002
 31
0.0
  0
LINE
  5
5A4
  8
DATA
  6
CONTINUOUS
 62
     7
 10
-498.3734219257237
 20
-954.2780492419352
 30
0.0
 11
-498.3734219257237
 21
-922.7169967672653
 31
0.0
  0
LINE
  5
5A5
  8
DATA
  6
CONTINUOUS
 62
     7
 10
-449.6617206740395
 20
-888.5993228012003
 30
0.0
 11
-508.8436023100387
 21
-888.5993228012003
 31
0.0
  0
LINE
  5
5A6
  8
DATA
  6
CONTINUOUS
 62
     7
 10
-501.9885581050969
 20
-947.6448373549038
 30
0.0
 11
-501.9885581050969
 21
-946.7097368090926
 31
0.0
  0
LINE
  5
5A7
  8
DATA
  6
CONTINUOUS
 62
     7
 10
-501.9885581050969
 20
-930.2853092001078
 30
0.0
 11
-501.9885581050969
 21
-899.2673014652
 31
0.0
  0
LINE
  5
5A8
  8
DATA
  6
CONTINUOUS
 62
     7
 10
-456.5167648789813
 20
-899.2673014652
 30
0.0
 11
-456.5167648789813
 21
-930.2853092001078
 31
0.0
  0
LINE
  5
5A9
  8
DATA
  6
CONTINUOUS
 62
     7
 10
-456.5167648789813
 20
-946.7097368090926
 30
0.0
 11
-456.5167648789813
 21
-947.6448373549038
 31
0.0
  0
LINE
  5
5AA
  8
DATA
  6
CONTINUOUS
 62
     7
 10
-460.1319010583572
 20
-922.7169967672653
 30
0.0
 11
-460.1319010583572
 21
-954.2780492419352
 31
0.0
  0
LINE
  5
5AB
  8
DATA
  6
CONTINUOUS
 62
     7
 10
-492.5048089007353
 20
-901.5588076690092
 30
0.0
 11
-492.5048089007353
 21
-975.4362383401913
 31
0.0
  0
LINE
  5
5AC
  8
DATA
  6
CONTINUOUS
 62
     7
 10
-466.0005140833434
 20
-975.4362383401913
 30
0.0
 11
-466.0005140833434
 21
-901.5588076690092
 31
0.0
  0
ARC
  5
5AD
  8
DATA
  6
CONTINUOUS
 62
     7
 10
-585.6270617335018
 20
-879.6258697075348
 30
0.0
 40
2.059686258345814
 50
216.1260283564121
 51
265.0702008386781
  0
ARC
  5
5AE
  8
DATA
  6
CONTINUOUS
 62
     7
 10
-581.3068145959721
 20
-876.8346448954123
 30
0.0
 40
7.200793607220401
 50
178.8219816019812
 51
213.7978018608272
  0
LINE
  5
5AF
  8
DATA
  6
CONTINUOUS
 62
     7
 10
-573.0578494088966
 20
-881.6779366440005
 30
0.0
 11
-572.7012618972356
 21
-881.6779366440005
 31
0.0
  0
ARC
  5
5B0
  8
DATA
  6
CONTINUOUS
 62
     7
 10
-572.8782612505755
 20
-879.6258697075348
 30
0.0
 40
2.059686258345827
 50
274.9297991613219
 51
323.8739716435879
  0
ARC
  5
5B1
  8
DATA
  6
CONTINUOUS
 62
     7
 10
-577.1985083881052
 20
-876.8346448954123
 30
0.0
 40
7.200793607220375
 50
326.2021981391728
 51
1.178018398018821
  0
LINE
  5
5B2
  8
DATA
  6
CONTINUOUS
 62
     7
 10
-585.2464150500994
 20
-893.196571831385
 30
0.0
 11
-573.2589079339816
 21
-893.1965718313859
 31
0.0
  0
LINE
  5
5B3
  8
DATA
  6
CONTINUOUS
 62
     7
 10
-519.5013553054083
 20
-880.2967144064505
 30
0.0
 11
-518.880788683289
 21
-880.6575497375507
 31
0.0
  0
LINE
  5
5B4
  8
DATA
  6
CONTINUOUS
 62
     7
 10
-518.880788683289
 20
-880.6746105037528
 30
0.0
 11
-519.797330402542
 21
-881.2184843826553
 31
0.0
  0
LINE
  5
5B5
  8
DATA
  6
CONTINUOUS
 62
     7
 10
-519.7772119975209
 20
-881.3253265376015
 30
0.0
 11
-518.8546088855758
 21
-880.7893345633202
 31
0.0
  0
ARC
  5
5B6
  8
DATA
  6
CONTINUOUS
 62
     7
 10
-514.9162037228261
 20
-901.8665751823323
 30
0.0
 40
21.5905816524277
 50
92.51040771034708
 51
100.5810163418041
  0
ARC
  5
5B7
  8
DATA
  6
CONTINUOUS
 62
     7
 10
-511.3376908378336
 20
-930.9081776974779
 30
0.0
 40
50.66824594524125
 50
92.71280206099942
 51
98.56157982436658
  0
LINE
  5
5B8
  8
DATA
  6
CONTINUOUS
 62
     7
 10
-519.7946374071219
 20
-881.5246422229011
 30
0.0
 11
-518.880788683289
 21
-882.0542228160539
 31
0.0
  0
ARC
  5
5B9
  8
DATA
  6
CONTINUOUS
 62
     7
 10
-517.2496383395892
 20
-842.7530404165104
 30
0.0
 40
38.27108735251907
 50
272.5817031367903
 51
278.0959907613789
  0
ARC
  5
5BA
  8
DATA
  6
CONTINUOUS
 62
     7
 10
-514.2853679667093
 20
-920.8988350797447
 30
0.0
 40
39.93282131799263
 50
91.7800009468858
 51
97.93391769508675
  0
ARC
  5
5BB
  8
DATA
  6
CONTINUOUS
 62
     7
 10
-517.2496383395892
 20
-842.929428952621
 30
0.0
 40
38.27108735251907
 50
272.5817031367903
 51
278.0959907613789
  0
ARC
  5
5BC
  8
DATA
  6
CONTINUOUS
 62
     7
 10
-514.2853679667093
 20
-921.0752236158553
 30
0.0
 40
39.93282131799263
 50
91.7800009468858
 51
97.93391769508675
  0
LINE
  5
5BD
  8
DATA
  6
CONTINUOUS
 62
     7
 10
-512.4093429536013
 20
-880.3124016449474
 30
0.0
 11
-511.8598462775415
 21
-880.6426995423462
 31
0.0
  0
LINE
  5
5BE
  8
DATA
  6
CONTINUOUS
 62
     7
 10
-512.7763879967918
 20
-881.36320235535
 30
0.0
 11
-511.8598462775415
 21
-880.8190880784568
 31
0.0
  0
LINE
  5
5BF
  8
DATA
  6
CONTINUOUS
 62
     7
 10
-512.7763879967918
 20
-881.5250572077211
 30
0.0
 11
-512.0162159169884
 21
-881.9655779846389
 31
0.0
  0
ARC
  5
5C0
  8
DATA
  6
CONTINUOUS
 62
     7
 10
-514.8188237597386
 20
-903.770517959767
 30
0.0
 40
22.09291818228206
 50
93.38738583098457
 51
100.5945722424568
  0
ARC
  5
5C1
  8
DATA
  6
CONTINUOUS
 62
     7
 10
-517.4109305869649
 20
-853.461036772464
 30
0.0
 40
28.2844450048948
 50
272.6073901796955
 51
279.4307149882811
  0
ARC
  5
5C2
  8
DATA
  6
CONTINUOUS
 62
     7
 10
-514.8188237597386
 20
-903.932372812138
 30
0.0
 40
22.09291818228206
 50
93.38738583098457
 51
100.5945722424568
  0
ARC
  5
5C3
  8
DATA
  6
CONTINUOUS
 62
     7
 10
-517.4109305869649
 20
-853.6228916248351
 30
0.0
 40
28.2844450048948
 50
272.6073901796955
 51
279.4307149882811
  0
LINE
  5
5C4
  8
DATA
  6
CONTINUOUS
 62
     7
 10
-519.2553058684614
 20
-882.3035583864912
 30
0.0
 11
-519.2546346781949
 21
-882.3553498130277
 31
0.0
  0
ARC
  5
5C5
  8
DATA
  6
CONTINUOUS
 62
     7
 10
-517.1637028476348
 20
-825.3457941066627
 30
0.0
 40
56.85328968573337
 50
271.4503517335067
 51
275.1946636107773
  0
ARC
  5
5C6
  8
DATA
  6
CONTINUOUS
 62
     7
 10
-514.0495478071197
 20
-932.843015854226
 30
0.0
 40
50.68983321392164
 50
91.89381088302156
 51
95.80439809925598
  0
ARC
  5
5C7
  8
DATA
  6
CONTINUOUS
 62
     7
 10
-493.8346156433423
 20
-899.0356897187673
 30
0.0
 40
8.157231250292181
 50
87.6500903421182
 51
181.6270421743409
  0
ARC
  5
5C8
  8
DATA
  6
CONTINUOUS
 62
     7
 10
-494.1956741104859
 20
-891.6203379948886
 30
0.0
 40
0.541538777675647
 50
278.9279157736667
 51
342.4822272213348
  0
ARC
  5
5C9
  8
DATA
  6
CONTINUOUS
 62
     7
 10
-495.6382112873646
 20
-890.9257830578615
 30
0.0
 40
2.138442655376536
 50
336.3580200228794
 51
1.084248051758664
  0
ARC
  5
5CA
  8
DATA
  6
CONTINUOUS
 62
     7
 10
-462.8671116967076
 20
-890.9257830578586
 30
0.0
 40
2.138442655385762
 50
178.9157519483252
 51
203.6419799770985
  0
ARC
  5
5CB
  8
DATA
  6
CONTINUOUS
 62
     7
 10
-464.0570495342541
 20
-891.4383179523047
 30
0.0
 40
0.8428753101665811
 50
204.163494137401
 51
227.3886405192022
  0
ARC
  5
5CC
  8
DATA
  6
CONTINUOUS
 62
     7
 10
-464.3824439786931
 20
-891.7965437055173
 30
0.0
 40
0.3589482365035435
 50
226.9020375516705
 51
268.2044085525873
  0
ARC
  5
5CD
  8
DATA
  6
CONTINUOUS
 62
     7
 10
-464.6500182533147
 20
-899.0147379486336
 30
0.0
 40
8.13717388169908
 50
358.2213544602872
 51
92.50151302325446
  0
ARC
  5
5CE
  8
DATA
  6
CONTINUOUS
 62
     7
 10
-477.7273060066553
 20
-928.2470329617549
 30
0.0
 40
31.1163084069806
 50
180.0505359935954
 51
198.0063659244852
  0
ARC
  5
5CF
  8
DATA
  6
CONTINUOUS
 62
     7
 10
-499.621284544614
 20
-932.3383626512323
 30
0.0
 40
7.363307097016577
 50
163.8100777631347
 51
196.1899222368653
  0
ARC
  5
5D0
  8
DATA
  6
CONTINUOUS
 62
     7
 10
-477.9701519718604
 20
-938.4975230046002
 30
0.0
 40
29.01444747832954
 50
171.8642236709267
 51
188.1357763290733
  0
ARC
  5
5D1
  8
DATA
  6
CONTINUOUS
 62
     7
 10
-499.621284544614
 20
-944.6566833579682
 30
0.0
 40
7.363307097016577
 50
163.8100777631347
 51
196.1899222368653
  0
LINE
  5
5D2
  8
DATA
  6
CONTINUOUS
 62
     7
 10
-501.9885581050969
 20
-947.6448373549038
 30
0.0
 11
-502.725970884195
 21
-946.7097368090926
 31
0.0
  0
ARC
  5
5D3
  8
DATA
  6
CONTINUOUS
 62
     7
 10
-504.80939384668
 20
-949.9574482349799
 30
0.0
 40
3.647640794217383
 50
10.56739810181361
 51
39.34599012780593
  0
LINE
  5
5D4
  8
DATA
  6
CONTINUOUS
 62
     7
 10
-495.1276297420416
 20
-904.7277008712526
 30
0.0
 11
-495.1276297420407
 21
-972.3096283762079
 31
0.0
  0
ARC
  5
5D5
  8
DATA
  6
CONTINUOUS
 62
     7
 10
-478.8629343564477
 20
-927.7800612375004
 30
0.0
 40
27.29235246848936
 50
126.6249952300766
 51
136.571763929666
  0
LINE
  5
5D6
  8
DATA
  6
CONTINUOUS
 62
     7
 10
-463.3776932420403
 20
-904.6854176329925
 30
0.0
 11
-463.3776932420403
 21
-972.3096283762079
 31
0.0
  0
ARC
  5
5D7
  8
DATA
  6
CONTINUOUS
 62
     7
 10
-479.6430341616692
 20
-927.7805968341788
 30
0.0
 40
27.29318947210824
 50
43.42812103056642
 51
53.23498765557909
  0
ARC
  5
5D8
  8
DATA
  6
CONTINUOUS
 62
     7
 10
-480.6846324041794
 20
-928.2695931739709
 30
0.0
 40
31.0229121147413
 50
349.8529985324751
 51
359.9909780096173
  0
ARC
  5
5D9
  8
DATA
  6
CONTINUOUS
 62
     7
 10
-459.0076140686124
 20
-932.3383626512323
 30
0.0
 40
8.101252150020816
 50
345.3197675787662
 51
14.68023242123382
  0
ARC
  5
5DA
  8
DATA
  6
CONTINUOUS
 62
     7
 10
-482.9141185016725
 20
-938.4975230046002
 30
0.0
 40
32.00776118460533
 50
352.6295155285983
 51
7.370484471401653
  0
ARC
  5
5DB
  8
DATA
  6
CONTINUOUS
 62
     7
 10
-459.0076140686194
 20
-944.6566833579691
 30
0.0
 40
8.101252150027864
 50
345.3197675787726
 51
14.68023242122734
  0
LINE
  5
5DC
  8
DATA
  6
CONTINUOUS
 62
     7
 10
-456.5167648789818
 20
-947.6448373549038
 30
0.0
 11
-455.7793520998855
 21
-946.7097368090926
 31
0.0
  0
ARC
  5
5DD
  8
DATA
  6
CONTINUOUS
 62
     7
 10
-453.7247077160008
 20
-949.9440550355439
 30
0.0
 40
3.616902700422286
 50
140.529050490633
 51
169.5575612796158
  0
ARC
  5
5DE
  8
DATA
  6
CONTINUOUS
 62
     7
 10
-583.2320400553597
 20
-873.4931971584911
 30
0.0
 40
0.9548397997178505
 50
47.61212039684085
 51
90.45777242905504
  0
ARC
  5
5DF
  8
DATA
  6
CONTINUOUS
 62
     7
 10
-575.2398169970741
 20
-873.5388854937894
 30
0.0
 40
1.000831217991398
 50
91.47929681948817
 51
131.3829870873741
  0
ARC
  5
5E0
  8
DATA
  6
CONTINUOUS
 62
     7
 10
-515.8618898225566
 20
-868.1652013585208
 30
0.0
 40
12.13155875478609
 50
252.4104128793661
 51
287.5895871206339
  0
ARC
  5
5E1
  8
DATA
  6
CONTINUOUS
 62
     7
 10
-515.8618898225566
 20
-885.6813659481295
 30
0.0
 40
12.13155875478609
 50
72.41041287936616
 51
107.5895871206339
  0
ARC
  5
5E2
  8
DATA
  6
CONTINUOUS
 62
     7
 10
-521.3426985592391
 20
-877.1099715906576
 30
0.0
 40
3.186743277386305
 50
235.691795754452
 51
304.711910268933
  0
ARC
  5
5E3
  8
DATA
  6
CONTINUOUS
 62
     7
 10
-521.3426985592391
 20
-876.736595715993
 30
0.0
 40
3.186743277386515
 50
55.2880897310693
 51
124.3082042455456
  0
ARC
  5
5E4
  8
DATA
  6
CONTINUOUS
 62
     7
 10
-510.3460643894864
 20
-876.996847760774
 30
0.0
 40
3.299866645676534
 50
235.906813319048
 51
304.093186680952
  0
ARC
  5
5E5
  8
DATA
  6
CONTINUOUS
 62
     7
 10
-510.3460643894864
 20
-876.8497195458765
 30
0.0
 40
3.299866645676722
 50
55.90681331905022
 51
124.0931866809498
  0
LINE
  5
5E6
  8
DATA
  6
CONTINUOUS
 62
     7
 10
-449.9870346525238
 20
-879.7422776057019
 30
0.0
 11
-449.0267219440409
 21
-880.2967144064505
 31
0.0
  0
LINE
  5
5E7
  8
DATA
  6
CONTINUOUS
 62
     7
 10
-436.3267473440408
 20
-880.2967144064505
 30
0.0
 11
-449.0267219440409
 21
-880.2967144064505
 31
0.0
  0
LINE
  5
5E8
  8
DATA
  6
CONTINUOUS
 62
     7
 10
-439.3239413496419
 20
-881.1883701009583
 30
0.0
 11
-439.3239413496419
 21
-881.6849133033711
 31
0.0
  0
LINE
  5
5E9
  8
DATA
  6
CONTINUOUS
 62
     7
 10
-435.3664346355583
 20
-874.1042897009484
 30
0.0
 11
-436.3267473440408
 21
-873.5498529001998
 31
0.0
  0
LINE
  5
5EA
  8
DATA
  6
CONTINUOUS
 62
     7
 10
-436.3267473440408
 20
-880.2967144064505
 30
0.0
 11
-435.3664346355583
 21
-879.7422776057019
 31
0.0
  0
LINE
  5
5EB
  8
DATA
  6
CONTINUOUS
 62
     7
 10
-449.0267219440409
 20
-873.5498529001998
 30
0.0
 11
-449.9870346525238
 21
-874.1042897009484
 31
0.0
  0
LINE
  5
5EC
  8
DATA
  6
CONTINUOUS
 62
     7
 10
-438.7353360184136
 20
-873.560063390647
 30
0.0
 11
-438.7529232551321
 21
-873.5498529001998
 31
0.0
  0
LINE
  5
5ED
  8
DATA
  6
CONTINUOUS
 62
     7
 10
-445.7289349872897
 20
-882.2156839015497
 30
0.0
 11
-446.0291808478098
 21
-882.3902726680653
 31
0.0
  0
LINE
  5
5EE
  8
DATA
  6
CONTINUOUS
 62
     7
 10
-438.7079925815422
 20
-880.8190880784568
 30
0.0
 11
-438.7079925815422
 21
-880.6426995423462
 31
0.0
  0
LINE
  5
5EF
  8
DATA
  6
CONTINUOUS
 62
     7
 10
-446.6454767065427
 20
-881.3482536867905
 30
0.0
 11
-446.6454767065427
 21
-881.5246422229011
 31
0.0
  0
LINE
  5
5F0
  8
DATA
  6
CONTINUOUS
 62
     7
 10
-446.0345754115758
 20
-882.4235553836488
 30
0.0
 11
-445.5871454898313
 21
-882.8709853053933
 31
0.0
  0
LINE
  5
5F1
  8
DATA
  6
CONTINUOUS
 62
     7
 10
-439.7663237982504
 20
-882.8709853053933
 30
0.0
 11
-438.8626393492425
 21
-881.9673008563841
 31
0.0
  0
LINE
  5
5F2
  8
DATA
  6
CONTINUOUS
 62
     7
 10
-445.7289349872897
 20
-882.0542228160539
 30
0.0
 11
-445.7289349872897
 21
-882.2156839015497
 31
0.0
  0
LINE
  5
5F3
  8
DATA
  6
CONTINUOUS
 62
     7
 10
-445.7289349872897
 20
-880.6431145271654
 30
0.0
 11
-445.7289349872897
 21
-880.8045568496655
 31
0.0
  0
LINE
  5
5F4
  8
DATA
  6
CONTINUOUS
 62
     7
 10
-439.6245343007924
 20
-881.5250572077211
 30
0.0
 11
-439.6245343007924
 21
-881.36320235535
 31
0.0
  0
LINE
  5
5F5
  8
DATA
  6
CONTINUOUS
 62
     7
 10
-445.7289349872897
 20
-882.0857465694708
 30
0.0
 11
-446.1034521724621
 21
-882.3035583864912
 31
0.0
  0
LINE
  5
5F6
  8
DATA
  6
CONTINUOUS
 62
     7
 10
-439.3239413496392
 20
-881.5550009516846
 30
0.0
 11
-439.6245343007924
 21
-881.3801784575398
 31
0.0
  0
LINE
  5
5F7
  8
DATA
  6
CONTINUOUS
 62
     7
 10
-446.6454767065427
 20
-881.2184843826553
 30
0.0
 11
-446.6454767065427
 21
-881.3482536867914
 31
0.0
  0
LINE
  5
5F8
  8
DATA
  6
CONTINUOUS
 62
     7
 10
-446.1027809821956
 20
-882.3553498130277
 30
0.0
 11
-446.0345754115731
 21
-882.4235553836497
 31
0.0
  0
LINE
  5
5F9
  8
DATA
  6
CONTINUOUS
 62
     7
 10
-446.3761525877646
 20
-879.7295564167889
 30
0.0
 11
-446.3761525877646
 21
-874.1170108898614
 31
0.0
  0
LINE
  5
5FA
  8
DATA
  6
CONTINUOUS
 62
     7
 10
-439.0439196653499
 20
-879.7295564167889
 30
0.0
 11
-439.0439196653499
 21
-874.1170108898614
 31
0.0
  0
LINE
  5
5FB
  8
DATA
  6
CONTINUOUS
 62
     7
 10
-435.3445017216243
 20
-879.7295564167889
 30
0.0
 11
-435.3445017216243
 21
-874.1170108898614
 31
0.0
  0
LINE
  5
5FC
  8
DATA
  6
CONTINUOUS
 62
     7
 10
-450.0089675664574
 20
-879.7295564167889
 30
0.0
 11
-450.0089675664574
 21
-874.1170108898614
 31
0.0
  0
LINE
  5
5FD
  8
DATA
  6
CONTINUOUS
 62
     7
 10
-445.5871454898313
 20
-882.8709853053933
 30
0.0
 11
-439.7663237982504
 21
-882.8709853053933
 31
0.0
  0
LINE
  5
5FE
  8
DATA
  6
CONTINUOUS
 62
     7
 10
-446.349501609409
 20
-880.2967144064505
 30
0.0
 11
-445.7289349872897
 21
-880.6575497375507
 31
0.0
  0
LINE
  5
5FF
  8
DATA
  6
CONTINUOUS
 62
     7
 10
-445.7289349872897
 20
-880.6746105037528
 30
0.0
 11
-446.6454767065427
 21
-881.2184843826553
 31
0.0
  0
LINE
  5
600
  8
DATA
  6
CONTINUOUS
 62
     7
 10
-446.6253583015216
 20
-881.3253265376015
 30
0.0
 11
-445.7027551895765
 21
-880.7893345633202
 31
0.0
  0
ARC
  5
601
  8
DATA
  6
CONTINUOUS
 62
     7
 10
-441.7643500268268
 20
-901.8665751823323
 30
0.0
 40
21.5905816524277
 50
92.51040771034708
 51
100.5810163418041
  0
ARC
  5
602
  8
DATA
  6
CONTINUOUS
 62
     7
 10
-438.1858371418343
 20
-930.9081776974779
 30
0.0
 40
50.66824594524125
 50
92.71280206099942
 51
98.56157982436658
  0
LINE
  5
603
  8
DATA
  6
CONTINUOUS
 62
     7
 10
-446.6427837111225
 20
-881.5246422229011
 30
0.0
 11
-445.7289349872897
 21
-882.0542228160539
 31
0.0
  0
ARC
  5
604
  8
DATA
  6
CONTINUOUS
 62
     7
 10
-444.0977846435899
 20
-842.7530404165104
 30
0.0
 40
38.27108735251907
 50
272.5817031367903
 51
278.0959907613789
  0
ARC
  5
605
  8
DATA
  6
CONTINUOUS
 62
     7
 10
-441.13351427071
 20
-920.8988350797447
 30
0.0
 40
39.93282131799263
 50
91.7800009468858
 51
97.93391769508675
  0
ARC
  5
606
  8
DATA
  6
CONTINUOUS
 62
     7
 10
-444.0977846435899
 20
-842.929428952621
 30
0.0
 40
38.27108735251907
 50
272.5817031367903
 51
278.0959907613789
  0
ARC
  5
607
  8
DATA
  6
CONTINUOUS
 62
     7
 10
-441.13351427071
 20
-921.0752236158553
 30
0.0
 40
39.93282131799263
 50
91.7800009468858
 51
97.93391769508675
  0
LINE
  5
608
  8
DATA
  6
CONTINUOUS
 62
     7
 10
-439.2574892576019
 20
-880.3124016449474
 30
0.0
 11
-438.7079925815422
 21
-880.6426995423462
 31
0.0
  0
LINE
  5
609
  8
DATA
  6
CONTINUOUS
 62
     7
 10
-439.6245343007924
 20
-881.36320235535
 30
0.0
 11
-438.7079925815422
 21
-880.8190880784568
 31
0.0
  0
LINE
  5
60A
  8
DATA
  6
CONTINUOUS
 62
     7
 10
-439.6245343007924
 20
-881.5250572077211
 30
0.0
 11
-438.8643622209891
 21
-881.9655779846389
 31
0.0
  0
ARC
  5
60B
  8
DATA
  6
CONTINUOUS
 62
     7
 10
-441.6669700637393
 20
-903.770517959767
 30
0.0
 40
22.09291818228206
 50
93.38738583098457
 51
100.5945722424568
  0
ARC
  5
60C
  8
DATA
  6
CONTINUOUS
 62
     7
 10
-444.2590768909656
 20
-853.461036772464
 30
0.0
 40
28.2844450048948
 50
272.6073901796955
 51
279.4307149882811
  0
ARC
  5
60D
  8
DATA
  6
CONTINUOUS
 62
     7
 10
-441.6669700637393
 20
-903.932372812138
 30
0.0
 40
22.09291818228206
 50
93.38738583098457
 51
100.5945722424568
  0
ARC
  5
60E
  8
DATA
  6
CONTINUOUS
 62
     7
 10
-444.2590768909656
 20
-853.6228916248351
 30
0.0
 40
28.2844450048948
 50
272.6073901796955
 51
279.4307149882811
  0
LINE
  5
60F
  8
DATA
  6
CONTINUOUS
 62
     7
 10
-446.1034521724621
 20
-882.3035583864912
 30
0.0
 11
-446.1027809821956
 21
-882.3553498130277
 31
0.0
  0
ARC
  5
610
  8
DATA
  6
CONTINUOUS
 62
     7
 10
-444.0118491516355
 20
-825.3457941066627
 30
0.0
 40
56.85328968573337
 50
271.4503517335067
 51
275.1946636107773
  0
ARC
  5
611
  8
DATA
  6
CONTINUOUS
 62
     7
 10
-440.8976941111204
 20
-932.843015854226
 30
0.0
 40
50.68983321392164
 50
91.89381088302156
 51
95.80439809925598
  0
ARC
  5
612
  8
DATA
  6
CONTINUOUS
 62
     7
 10
-442.7100361265573
 20
-868.1652013585208
 30
0.0
 40
12.13155875478609
 50
252.4104128793661
 51
287.5895871206339
  0
ARC
  5
613
  8
DATA
  6
CONTINUOUS
 62
     7
 10
-442.7100361265573
 20
-885.6813659481295
 30
0.0
 40
12.13155875478609
 50
72.41041287936616
 51
107.5895871206339
  0
ARC
  5
614
  8
DATA
  6
CONTINUOUS
 62
     7
 10
-448.1908448632398
 20
-877.1099715906576
 30
0.0
 40
3.186743277386305
 50
235.691795754452
 51
304.711910268933
  0
ARC
  5
615
  8
DATA
  6
CONTINUOUS
 62
     7
 10
-448.1908448632398
 20
-876.736595715993
 30
0.0
 40
3.186743277386515
 50
55.2880897310693
 51
124.3082042455456
  0
ARC
  5
616
  8
DATA
  6
CONTINUOUS
 62
     7
 10
-437.1942106934871
 20
-876.996847760774
 30
0.0
 40
3.299866645676534
 50
235.906813319048
 51
304.093186680952
  0
ARC
  5
617
  8
DATA
  6
CONTINUOUS
 62
     7
 10
-437.1942106934871
 20
-876.8497195458765
 30
0.0
 40
3.299866645676722
 50
55.90681331905022
 51
124.0931866809498
  0
ARC
  5
618
  8
DATA
  6
CONTINUOUS
 62
     7
 10
657.2531790132143
 20
-890.704385195374
 30
0.0
 40
3.715460594462916
 50
260.1972507076207
 51
279.8027492923792
  0
ARC
  5
619
  8
DATA
  6
CONTINUOUS
 62
     7
 10
642.2021820708628
 20
-890.7043851953758
 30
0.0
 40
3.715460594461047
 50
260.1972507076228
 51
279.8027492923771
  0
ARC
  5
61A
  8
DATA
  6
CONTINUOUS
 62
     7
 10
656.6205966450934
 20
-894.2549114900003
 30
0.0
 40
1.269997460000013
 50
270.0
 51
354.9999999999874
  0
ARC
  5
61B
  8
DATA
  6
CONTINUOUS
 62
     7
 10
642.8347644389864
 20
-894.2549114900003
 30
0.0
 40
1.269997459999829
 50
185.0000000000143
 51
270.0
  0
ARC
  5
61C
  8
DATA
  6
CONTINUOUS
 62
     7
 10
656.7526664920401
 20
-852.4999950000001
 30
0.0
 40
2.499995000000126
 50
0.0
 51
90.0
  0
LINE
  5
61D
  8
DATA
  6
CONTINUOUS
 62
     7
 10
549.2526614920407
 20
-871.8227563544006
 30
0.0
 11
613.7526614920407
 21
-871.8227563544006
 31
0.0
  0
LINE
  5
61E
  8
DATA
  6
CONTINUOUS
 62
     7
 10
549.2526614920407
 20
-869.5874608250006
 30
0.0
 11
549.2526614920407
 21
-871.8227563544006
 31
0.0
  0
LINE
  5
61F
  8
DATA
  6
CONTINUOUS
 62
     7
 10
642.8347644389864
 20
-894.3655990619136
 30
0.0
 11
642.1028630582823
 21
-885.9999280000002
 31
0.0
  0
LINE
  5
620
  8
DATA
  6
CONTINUOUS
 62
     7
 10
656.6205966450934
 20
-894.3655990619136
 30
0.0
 11
642.8347644389864
 21
-894.3655990619136
 31
0.0
  0
LINE
  5
621
  8
DATA
  6
CONTINUOUS
 62
     7
 10
657.352498025798
 20
-885.9999280000002
 30
0.0
 11
656.6205966450934
 21
-894.3655990619136
 31
0.0
  0
LINE
  5
622
  8
DATA
  6
CONTINUOUS
 62
     7
 10
657.8857613813348
 20
-894.3655990619136
 30
0.0
 11
658.6176627620393
 21
-885.9999280000002
 31
0.0
  0
LINE
  5
623
  8
DATA
  6
CONTINUOUS
 62
     7
 10
658.6176627620393
 20
-885.9999280000002
 30
0.0
 11
616.2926564120398
 21
-885.9999280000002
 31
0.0
  0
LINE
  5
624
  8
DATA
  6
CONTINUOUS
 62
     7
 10
640.8376983220405
 20
-885.9999280000002
 30
0.0
 11
641.5695997027451
 21
-894.3655990619136
 31
0.0
  0
LINE
  5
625
  8
DATA
  6
CONTINUOUS
 62
     7
 10
642.8347644389864
 20
-895.5249089500003
 30
0.0
 11
656.6205966450934
 21
-895.5249089500003
 31
0.0
  0
LINE
  5
626
  8
DATA
  6
CONTINUOUS
 62
     7
 10
656.6205966450934
 20
-895.5249089500003
 30
0.0
 11
656.6205966450934
 21
-894.3655990619136
 31
0.0
  0
LINE
  5
627
  8
DATA
  6
CONTINUOUS
 62
     7
 10
642.8347644389864
 20
-895.5249089500003
 30
0.0
 11
642.8347644389864
 21
-894.3655990619136
 31
0.0
  0
LINE
  5
628
  8
DATA
  6
CONTINUOUS
 62
     7
 10
659.2526614920407
 20
-883.4599330800002
 30
0.0
 11
613.7526614920407
 21
-883.4599330800002
 31
0.0
  0
LINE
  5
629
  8
DATA
  6
CONTINUOUS
 62
     7
 10
659.2526614920407
 20
-852.4999950000001
 30
0.0
 11
659.2526614920407
 21
-883.4599330800002
 31
0.0
  0
LINE
  5
62A
  8
DATA
  6
CONTINUOUS
 62
     7
 10
659.2526614920407
 20
-883.4599330800002
 30
0.0
 11
656.7126665720384
 21
-885.9999280000002
 31
0.0
  0
LINE
  5
62B
  8
DATA
  6
CONTINUOUS
 62
     7
 10
613.7526614920407
 20
-867.9999640000005
 30
0.0
 11
613.7526614920407
 21
-883.4599330800002
 31
0.0
  0
LINE
  5
62C
  8
DATA
  6
CONTINUOUS
 62
     7
 10
613.7526614920407
 20
-883.4599330800002
 30
0.0
 11
616.2926564120398
 21
-885.9999280000002
 31
0.0
  0
LINE
  5
62D
  8
DATA
  6
CONTINUOUS
 62
     7
 10
523.1388883485233
 20
-879.7422776057019
 30
0.0
 11
522.1785756400404
 21
-880.2967144064505
 31
0.0
  0
LINE
  5
62E
  8
DATA
  6
CONTINUOUS
 62
     7
 10
509.4786010400403
 20
-880.2967144064505
 30
0.0
 11
522.1785756400404
 21
-880.2967144064505
 31
0.0
  0
ARC
  5
62F
  8
DATA
  6
CONTINUOUS
 62
     7
 10
594.8647244035469
 20
-872.2799554399999
 30
0.0
 40
0.2539994920001216
 50
0.9999999998387646
 51
90.0
  0
ARC
  5
630
  8
DATA
  6
CONTINUOUS
 62
     7
 10
563.6405985805336
 20
-872.2799554399999
 30
0.0
 40
0.2539994919998207
 50
90.0
 51
179.0000000001613
  0
ARC
  5
631
  8
DATA
  6
CONTINUOUS
 62
     7
 10
595.3772343476626
 20
-872.5339549320006
 30
0.0
 40
0.2539994920001216
 50
180.9999999998388
 51
270.0
  0
ARC
  5
632
  8
DATA
  6
CONTINUOUS
 62
     7
 10
563.1280886364179
 20
-872.5339549320006
 30
0.0
 40
0.2539994919998207
 50
270.0
 51
359.0000000001612
  0
ARC
  5
633
  8
DATA
  6
CONTINUOUS
 62
     7
 10
591.5678592377567
 20
-876.5979468040005
 30
0.0
 40
5.079989840000053
 50
270.0
 51
358.9999999999967
  0
ARC
  5
634
  8
DATA
  6
CONTINUOUS
 62
     7
 10
566.9374637463234
 20
-876.5979468040005
 30
0.0
 40
5.079989840000413
 50
181.0000000000033
 51
270.0
  0
ARC
  5
635
  8
DATA
  6
CONTINUOUS
 62
     7
 10
587.2492506036624
 20
-871.7719564560002
 30
0.0
 40
0.2539994920002072
 50
191.5369590328815
 51
270.0
  0
ARC
  5
636
  8
DATA
  6
CONTINUOUS
 62
     7
 10
571.2560723804181
 20
-871.7719564560002
 30
0.0
 40
0.2539994920007302
 50
270.0
 51
348.4630409671186
  0
ARC
  5
637
  8
DATA
  6
CONTINUOUS
 62
     7
 10
497.1596256780394
 20
-923.6385527226003
 30
0.0
 40
1.523996951999834
 50
0.0
 51
37.20702109995943
  0
ARC
  5
638
  8
DATA
  6
CONTINUOUS
 62
     7
 10
497.1596256780394
 20
-953.3564932866002
 30
0.0
 40
1.523996951999976
 50
322.7929789000406
 51
0.0
  0
ARC
  5
639
  8
DATA
  6
CONTINUOUS
 62
     7
 10
504.0176119620396
 20
-888.5993228012003
 30
0.0
 40
4.825990348000232
 50
0.0
 51
29.13323278396536
  0
ARC
  5
63A
  8
DATA
  6
CONTINUOUS
 62
     7
 10
454.4877110220418
 20
-888.5993228012003
 30
0.0
 40
4.825990347999854
 50
150.8667672160347
 51
180.0
  0
ARC
  5
63B
  8
DATA
  6
CONTINUOUS
 62
     7
 10
461.3456973060393
 20
-953.3564932866002
 30
0.0
 40
1.523996952000289
 50
180.0
 51
217.2070210999491
  0
ARC
  5
63C
  8
DATA
  6
CONTINUOUS
 62
     7
 10
461.3456973060393
 20
-923.6385527226003
 30
0.0
 40
1.523996952000338
 50
142.7929789000509
 51
180.0
  0
ARC
  5
63D
  8
DATA
  6
CONTINUOUS
 62
     7
 10
479.2526614920407
 20
-900.3975992045998
 30
0.0
 40
76.19984760000018
 50
259.9845898317865
 51
280.0154101682139
  0
ARC
  5
63E
  8
DATA
  6
CONTINUOUS
 62
     7
 10
479.2526614920407
 20
-976.5974468046006
 30
0.0
 40
76.19984760000018
 50
79.98458983178645
 51
100.0154101682139
  0
ARC
  5
63F
  8
DATA
  6
CONTINUOUS
 62
     7
 10
491.9526360920408
 20
-972.3096283762079
 30
0.0
 40
3.174993650000065
 50
280.0154101682154
 51
0.0
  0
ARC
  5
640
  8
DATA
  6
CONTINUOUS
 62
     7
 10
491.9526360920408
 20
-904.6854176329925
 30
0.0
 40
3.174993650000033
 50
0.0
 51
79.9845898317846
  0
ARC
  5
641
  8
DATA
  6
CONTINUOUS
 62
     7
 10
466.5526868920406
 20
-972.3096283762079
 30
0.0
 40
3.174993650000033
 50
180.0
 51
259.9845898317845
  0
ARC
  5
642
  8
DATA
  6
CONTINUOUS
 62
     7
 10
466.5526868920406
 20
-904.6854176329925
 30
0.0
 40
3.174993650000065
 50
100.0154101682155
 51
180.0
  0
ARC
  5
643
  8
DATA
  6
CONTINUOUS
 62
     7
 10
580.1671989171568
 20
-893.1079137840006
 30
0.0
 40
5.079989840000053
 50
270.0
 51
358.9999999999966
  0
ARC
  5
644
  8
DATA
  6
CONTINUOUS
 62
     7
 10
578.3381240669237
 20
-893.1079137840006
 30
0.0
 40
5.079989839999958
 50
181.0000000000034
 51
270.0
  0
ARC
  5
645
  8
DATA
  6
CONTINUOUS
 62
     7
 10
583.5347406367459
 20
-872.5958931246341
 30
0.0
 40
0.3006231015274637
 50
168.9720986103886
 51
219.7081593743805
  0
ARC
  5
646
  8
DATA
  6
CONTINUOUS
 62
     7
 10
574.9705823473341
 20
-872.595893124635
 30
0.0
 40
0.3006231015265265
 50
320.2918406256421
 51
11.02790138979816
  0
ARC
  5
647
  8
DATA
  6
CONTINUOUS
 62
     7
 10
464.3936912100403
 20
-899.2673014652
 30
0.0
 40
4.571990855999502
 50
90.0
 51
180.0
  0
ARC
  5
648
  8
DATA
  6
CONTINUOUS
 62
     7
 10
464.3936912100403
 20
-899.2673014652
 30
0.0
 40
7.111985775999528
 50
90.0
 51
180.0
  0
ARC
  5
649
  8
DATA
  6
CONTINUOUS
 62
     7
 10
494.1116317740411
 20
-899.2673014652
 30
0.0
 40
4.571990855999957
 50
0.0
 51
90.0
  0
ARC
  5
64A
  8
DATA
  6
CONTINUOUS
 62
     7
 10
494.1116317740411
 20
-899.2673014652
 30
0.0
 40
7.111985776000438
 50
0.0
 51
90.0
  0
LINE
  5
64B
  8
DATA
  6
CONTINUOUS
 62
     7
 10
563.382049443067
 20
-872.5383878343691
 30
0.0
 11
563.3866377738873
 21
-872.2755225376313
 31
0.0
  0
LINE
  5
64C
  8
DATA
  6
CONTINUOUS
 62
     7
 10
595.1186852101932
 20
-872.2755225376313
 30
0.0
 11
595.1232735410135
 21
-872.5383878343691
 31
0.0
  0
LINE
  5
64D
  8
DATA
  6
CONTINUOUS
 62
     7
 10
596.7151265670414
 20
-872.7879544240004
 30
0.0
 11
596.6470753706994
 21
-876.6866048513848
 31
0.0
  0
LINE
  5
64E
  8
DATA
  6
CONTINUOUS
 62
     7
 10
561.8582476133811
 20
-876.6866048513848
 30
0.0
 11
561.7901964170392
 21
-872.7879544240004
 31
0.0
  0
LINE
  5
64F
  8
DATA
  6
CONTINUOUS
 62
     7
 10
446.02952793844
 20
-886.2498275001999
 30
0.0
 11
446.02952793844
 21
-882.4286028567831
 31
0.0
  0
LINE
  5
650
  8
DATA
  6
CONTINUOUS
 62
     7
 10
512.4757950456415
 20
-881.1883701009583
 30
0.0
 11
512.4757950456415
 21
-881.6849133033711
 31
0.0
  0
LINE
  5
651
  8
DATA
  6
CONTINUOUS
 62
     7
 10
512.4757950456415
 20
-882.4286028567803
 30
0.0
 11
512.4757950456415
 21
-886.2498275001999
 31
0.0
  0
LINE
  5
652
  8
DATA
  6
CONTINUOUS
 62
     7
 10
495.1276297420418
 20
-918.4419114069997
 30
0.0
 11
498.373421925724
 21
-922.7169967672653
 31
0.0
  0
LINE
  5
653
  8
DATA
  6
CONTINUOUS
 62
     7
 10
498.373421925724
 20
-954.2780492419352
 30
0.0
 11
495.1276297420386
 21
-958.5531346022008
 31
0.0
  0
LINE
  5
654
  8
DATA
  6
CONTINUOUS
 62
     7
 10
501.2236175500407
 20
-951.1974976046004
 30
0.0
 11
498.6836226300416
 21
-951.1974976046004
 31
0.0
  0
LINE
  5
655
  8
DATA
  6
CONTINUOUS
 62
     7
 10
459.8217003540403
 20
-951.1974976046004
 30
0.0
 11
457.2817054340408
 21
-951.1974976046004
 31
0.0
  0
LINE
  5
656
  8
DATA
  6
CONTINUOUS
 62
     7
 10
449.6617206740398
 20
-928.2744781483252
 30
0.0
 11
449.6617206740398
 21
-888.5993228012003
 31
0.0
  0
LINE
  5
657
  8
DATA
  6
CONTINUOUS
 62
     7
 10
508.8436023100389
 20
-888.5993228012003
 30
0.0
 11
508.8436023100389
 21
-928.2744781483252
 31
0.0
  0
LINE
  5
658
  8
DATA
  6
CONTINUOUS
 62
     7
 10
506.6925830768364
 20
-930.2853092001096
 30
0.0
 11
507.3196053580168
 21
-932.057129766983
 31
0.0
  0
LINE
  5
659
  8
DATA
  6
CONTINUOUS
 62
     7
 10
507.3196053580168
 20
-944.9379162422174
 30
0.0
 11
506.6925830768364
 21
-946.7097368090908
 31
0.0
  0
LINE
  5
65A
  8
DATA
  6
CONTINUOUS
 62
     7
 10
501.2236175500407
 20
-932.4015351966
 30
0.0
 11
501.7316165340394
 21
-932.4015351966
 31
0.0
  0
LINE
  5
65B
  8
DATA
  6
CONTINUOUS
 62
     7
 10
501.7316165340394
 20
-944.5935108126005
 30
0.0
 11
501.2236175500407
 21
-944.5935108126005
 31
0.0
  0
LINE
  5
65C
  8
DATA
  6
CONTINUOUS
 62
     7
 10
448.1377237220404
 20
-933.7350325296002
 30
0.0
 11
450.4237191500783
 21
-933.7350325296002
 31
0.0
  0
LINE
  5
65D
  8
DATA
  6
CONTINUOUS
 62
     7
 10
450.4237191500783
 20
-943.2600134796003
 30
0.0
 11
448.1377237220404
 21
-943.2600134796003
 31
0.0
  0
LINE
  5
65E
  8
DATA
  6
CONTINUOUS
 62
     7
 10
451.1708253177881
 20
-946.7097368090926
 30
0.0
 11
450.4237191500783
 21
-944.378678390668
 31
0.0
  0
LINE
  5
65F
  8
DATA
  6
CONTINUOUS
 62
     7
 10
450.4237191500783
 20
-932.6163676185324
 30
0.0
 11
451.1708253177881
 21
-930.2853092001096
 31
0.0
  0
LINE
  5
660
  8
DATA
  6
CONTINUOUS
 62
     7
 10
463.3776932420401
 20
-958.5531346022008
 30
0.0
 11
460.1319010583575
 21
-954.2780492419352
 31
0.0
  0
LINE
  5
661
  8
DATA
  6
CONTINUOUS
 62
     7
 10
460.1319010583575
 20
-922.7169967672653
 30
0.0
 11
463.3776932420401
 21
-918.4419114069997
 31
0.0
  0
LINE
  5
662
  8
DATA
  6
CONTINUOUS
 62
     7
 10
508.5182883315579
 20
-874.1042897009484
 30
0.0
 11
509.4786010400403
 21
-873.5498529001998
 31
0.0
  0
LINE
  5
663
  8
DATA
  6
CONTINUOUS
 62
     7
 10
509.4786010400403
 20
-880.2967144064505
 30
0.0
 11
508.5182883315579
 21
-879.7422776057019
 31
0.0
  0
LINE
  5
664
  8
DATA
  6
CONTINUOUS
 62
     7
 10
522.1785756400404
 20
-873.5498529001998
 30
0.0
 11
523.1388883485233
 21
-874.1042897009484
 31
0.0
  0
LINE
  5
665
  8
DATA
  6
CONTINUOUS
 62
     7
 10
511.8871897144131
 20
-873.560063390647
 30
0.0
 11
511.9047769511317
 21
-873.5498529001998
 31
0.0
  0
LINE
  5
666
  8
DATA
  6
CONTINUOUS
 62
     7
 10
518.8538480248499
 20
-882.20001828565
 30
0.0
 11
519.15409388537
 21
-882.3746070521656
 31
0.0
  0
LINE
  5
667
  8
DATA
  6
CONTINUOUS
 62
     7
 10
511.8598462775417
 20
-880.8190880784568
 30
0.0
 11
511.8598462775417
 21
-880.6426995423462
 31
0.0
  0
LINE
  5
668
  8
DATA
  6
CONTINUOUS
 62
     7
 10
519.7973304025422
 20
-881.3482536867905
 30
0.0
 11
519.7973304025422
 21
-881.5246422229011
 31
0.0
  0
LINE
  5
669
  8
DATA
  6
CONTINUOUS
 62
     7
 10
519.1864291075753
 20
-882.4235553836488
 30
0.0
 11
518.7389991858308
 21
-882.8709853053933
 31
0.0
  0
LINE
  5
66A
  8
DATA
  6
CONTINUOUS
 62
     7
 10
512.9181774942499
 20
-882.8709853053933
 30
0.0
 11
512.014493045242
 21
-881.9673008563841
 31
0.0
  0
LINE
  5
66B
  8
DATA
  6
CONTINUOUS
 62
     7
 10
518.8807886832892
 20
-882.0542228160539
 30
0.0
 11
518.8807886832892
 21
-882.2156839015497
 31
0.0
  0
LINE
  5
66C
  8
DATA
  6
CONTINUOUS
 62
     7
 10
518.8807886832892
 20
-880.6431145271654
 30
0.0
 11
518.8807886832892
 21
-880.8045568496655
 31
0.0
  0
LINE
  5
66D
  8
DATA
  6
CONTINUOUS
 62
     7
 10
512.776387996792
 20
-881.5250572077211
 30
0.0
 11
512.776387996792
 21
-881.36320235535
 31
0.0
  0
LINE
  5
66E
  8
DATA
  6
CONTINUOUS
 62
     7
 10
518.8807886832892
 20
-882.0857465694708
 30
0.0
 11
519.2553058684616
 21
-882.3035583864912
 31
0.0
  0
LINE
  5
66F
  8
DATA
  6
CONTINUOUS
 62
     7
 10
512.4757950456387
 20
-881.5550009516846
 30
0.0
 11
512.776387996792
 21
-881.3801784575398
 31
0.0
  0
LINE
  5
670
  8
DATA
  6
CONTINUOUS
 62
     7
 10
519.7973304025422
 20
-881.2184843826553
 30
0.0
 11
519.7973304025422
 21
-881.3482536867914
 31
0.0
  0
LINE
  5
671
  8
DATA
  6
CONTINUOUS
 62
     7
 10
519.2546346781951
 20
-882.3553498130277
 30
0.0
 11
519.1864291075726
 21
-882.4235553836497
 31
0.0
  0
LINE
  5
672
  8
DATA
  6
CONTINUOUS
 62
     7
 10
579.2526614920389
 20
-898.1879036240007
 30
0.0
 11
579.2526614920389
 21
-872.8433614835913
 31
0.0
  0
LINE
  5
673
  8
DATA
  6
CONTINUOUS
 62
     7
 10
585.2464150500991
 20
-893.1965718313859
 30
0.0
 11
585.6026487920403
 21
-872.7879544240004
 31
0.0
  0
LINE
  5
674
  8
DATA
  6
CONTINUOUS
 62
     7
 10
572.9026741920402
 20
-872.7879544240004
 30
0.0
 11
573.2589079339809
 21
-893.1965718313859
 31
0.0
  0
LINE
  5
675
  8
DATA
  6
CONTINUOUS
 62
     7
 10
578.3381240669237
 20
-898.1879036240007
 30
0.0
 11
580.1671989171568
 21
-898.1879036240007
 31
0.0
  0
LINE
  5
676
  8
DATA
  6
CONTINUOUS
 62
     7
 10
588.5060862757432
 20
-876.6866048513848
 30
0.0
 11
588.5656452105791
 21
-872.7879544240004
 31
0.0
  0
LINE
  5
677
  8
DATA
  6
CONTINUOUS
 62
     7
 10
569.9396777735014
 20
-872.7879544240004
 30
0.0
 11
569.9992367083341
 21
-876.6866048513848
 31
0.0
  0
LINE
  5
678
  8
DATA
  6
CONTINUOUS
 62
     7
 10
585.447473575181
 20
-881.6779366440005
 30
0.0
 11
585.804061086842
 21
-881.6779366440005
 31
0.0
  0
LINE
  5
679
  8
DATA
  6
CONTINUOUS
 62
     7
 10
572.7012618972385
 20
-881.6779366440005
 30
0.0
 11
573.0578494088995
 21
-881.6779366440005
 31
0.0
  0
LINE
  5
67A
  8
DATA
  6
CONTINUOUS
 62
     7
 10
594.8647244035469
 20
-872.025955948
 30
0.0
 11
563.6405985840279
 21
-872.025955948
 31
0.0
  0
LINE
  5
67B
  8
DATA
  6
CONTINUOUS
 62
     7
 10
561.7901964170392
 20
-872.7879544240004
 30
0.0
 11
596.7151265670414
 21
-872.7879544240004
 31
0.0
  0
LINE
  5
67C
  8
DATA
  6
CONTINUOUS
 62
     7
 10
585.804061086842
 20
-881.6779366440005
 30
0.0
 11
591.5678592377567
 21
-881.6779366440005
 31
0.0
  0
LINE
  5
67D
  8
DATA
  6
CONTINUOUS
 62
     7
 10
566.9374637463234
 20
-881.6779366440005
 30
0.0
 11
572.7012618972385
 21
-881.6779366440005
 31
0.0
  0
LINE
  5
67E
  8
DATA
  6
CONTINUOUS
 62
     7
 10
509.2815656905573
 20
-873.5498529001998
 30
0.0
 11
476.6421268530316
 21
-873.5498529001998
 31
0.0
  0
LINE
  5
67F
  8
DATA
  6
CONTINUOUS
 62
     7
 10
476.6421268530316
 20
-873.5498529001998
 30
0.0
 11
449.2185349662436
 21
-873.5498529001998
 31
0.0
  0
LINE
  5
680
  8
DATA
  6
CONTINUOUS
 62
     7
 10
512.4757950456415
 20
-886.2498275001999
 30
0.0
 11
446.02952793844
 21
-886.2498275001999
 31
0.0
  0
LINE
  5
681
  8
DATA
  6
CONTINUOUS
 62
     7
 10
526.2526614920407
 20
-869.5874608250006
 30
0.0
 11
526.2526614920407
 21
-873.5498529001998
 31
0.0
  0
LINE
  5
682
  8
DATA
  6
CONTINUOUS
 62
     7
 10
526.2526614920407
 20
-873.5498529001998
 30
0.0
 11
432.2526614920407
 21
-873.5498529001998
 31
0.0
  0
LINE
  5
683
  8
DATA
  6
CONTINUOUS
 62
     7
 10
432.2526614920407
 20
-869.5874608250006
 30
0.0
 11
432.2526614920407
 21
-873.5498529001998
 31
0.0
  0
LINE
  5
684
  8
DATA
  6
CONTINUOUS
 62
     7
 10
498.6836226300416
 20
-953.1998051511091
 30
0.0
 11
498.6836226300416
 21
-923.6490720061938
 31
0.0
  0
LINE
  5
685
  8
DATA
  6
CONTINUOUS
 62
     7
 10
498.6836226300416
 20
-938.4975230046002
 30
0.0
 11
501.2236175500407
 21
-938.4975230046002
 31
0.0
  0
LINE
  5
686
  8
DATA
  6
CONTINUOUS
 62
     7
 10
457.2817054340408
 20
-938.4975230046002
 30
0.0
 11
459.8217003540403
 21
-938.4975230046002
 31
0.0
  0
LINE
  5
687
  8
DATA
  6
CONTINUOUS
 62
     7
 10
457.2817054340408
 20
-899.2673014652
 30
0.0
 11
457.2817054340408
 21
-951.1974976046004
 31
0.0
  0
LINE
  5
688
  8
DATA
  6
CONTINUOUS
 62
     7
 10
459.821700354039
 20
-953.3564932866002
 30
0.0
 11
459.8217003540403
 21
-899.2673014652
 31
0.0
  0
LINE
  5
689
  8
DATA
  6
CONTINUOUS
 62
     7
 10
464.3936912100403
 20
-894.6953106092005
 30
0.0
 11
494.1116317740411
 21
-894.6953106092005
 31
0.0
  0
LINE
  5
68A
  8
DATA
  6
CONTINUOUS
 62
     7
 10
498.6836226300416
 20
-899.2673014652
 30
0.0
 11
498.6836226300393
 21
-953.3564932866002
 31
0.0
  0
LINE
  5
68B
  8
DATA
  6
CONTINUOUS
 62
     7
 10
501.2236175500407
 20
-899.2673014652
 30
0.0
 11
501.2236175500407
 21
-951.1974976046004
 31
0.0
  0
LINE
  5
68C
  8
DATA
  6
CONTINUOUS
 62
     7
 10
464.3936912100403
 20
-892.1553156892005
 30
0.0
 11
494.1116317740411
 21
-892.1553156892005
 31
0.0
  0
LINE
  5
68D
  8
DATA
  6
CONTINUOUS
 62
     7
 10
493.5001515155213
 20
-890.8853182292005
 30
0.0
 11
465.0051714685605
 21
-890.8853182292005
 31
0.0
  0
LINE
  5
68E
  8
DATA
  6
CONTINUOUS
 62
     7
 10
456.5167648789816
 20
-899.2673014652
 30
0.0
 11
457.2817054340408
 21
-899.2673014652
 31
0.0
  0
LINE
  5
68F
  8
DATA
  6
CONTINUOUS
 62
     7
 10
501.2236175500407
 20
-899.2673014652
 30
0.0
 11
501.9885581050971
 21
-899.2673014652
 31
0.0
  0
LINE
  5
690
  8
DATA
  6
CONTINUOUS
 62
     7
 10
501.7316165340394
 20
-930.2853092001078
 30
0.0
 11
506.6925830768364
 21
-930.2853092001105
 31
0.0
  0
LINE
  5
691
  8
DATA
  6
CONTINUOUS
 62
     7
 10
501.7316165340394
 20
-930.2853092001078
 30
0.0
 11
501.7316165340394
 21
-934.391416102354
 31
0.0
  0
LINE
  5
692
  8
DATA
  6
CONTINUOUS
 62
     7
 10
501.7316165340394
 20
-934.391416102354
 30
0.0
 11
506.6925830768364
 21
-934.3914161023549
 31
0.0
  0
LINE
  5
693
  8
DATA
  6
CONTINUOUS
 62
     7
 10
501.7316165340394
 20
-934.391416102354
 30
0.0
 11
501.7316165340394
 21
-942.6036299068473
 31
0.0
  0
LINE
  5
694
  8
DATA
  6
CONTINUOUS
 62
     7
 10
501.7316165340394
 20
-942.6036299068473
 30
0.0
 11
506.6925830768364
 21
-942.6036299068455
 31
0.0
  0
LINE
  5
695
  8
DATA
  6
CONTINUOUS
 62
     7
 10
501.7316165340394
 20
-946.7097368090926
 30
0.0
 11
506.6925830768364
 21
-946.7097368090899
 31
0.0
  0
LINE
  5
696
  8
DATA
  6
CONTINUOUS
 62
     7
 10
501.7316165340394
 20
-942.6036299068473
 30
0.0
 11
501.7316165340394
 21
-946.7097368090926
 31
0.0
  0
LINE
  5
697
  8
DATA
  6
CONTINUOUS
 62
     7
 10
507.3196053580168
 20
-932.057129766983
 30
0.0
 11
507.3196053580168
 21
-944.9379162422174
 31
0.0
  0
LINE
  5
698
  8
DATA
  6
CONTINUOUS
 62
     7
 10
448.1377237220404
 20
-943.2600134796003
 30
0.0
 11
448.1377237220404
 21
-933.7350325296002
 31
0.0
  0
LINE
  5
699
  8
DATA
  6
CONTINUOUS
 62
     7
 10
457.2817054340408
 20
-934.391416102354
 30
0.0
 11
451.1708253177881
 21
-934.3914161023549
 31
0.0
  0
LINE
  5
69A
  8
DATA
  6
CONTINUOUS
 62
     7
 10
457.2817054340408
 20
-930.2853092001078
 30
0.0
 11
451.1708253177881
 21
-930.2853092001096
 31
0.0
  0
LINE
  5
69B
  8
DATA
  6
CONTINUOUS
 62
     7
 10
451.1708253177881
 20
-942.6036299068455
 30
0.0
 11
457.2817054340408
 21
-942.6036299068473
 31
0.0
  0
LINE
  5
69C
  8
DATA
  6
CONTINUOUS
 62
     7
 10
457.2817054340408
 20
-946.7097368090926
 30
0.0
 11
451.1708253177881
 21
-946.7097368090926
 31
0.0
  0
LINE
  5
69D
  8
DATA
  6
CONTINUOUS
 62
     7
 10
450.4237191500783
 20
-932.6163676185324
 30
0.0
 11
450.4237191500783
 21
-944.378678390668
 31
0.0
  0
LINE
  5
69E
  8
DATA
  6
CONTINUOUS
 62
     7
 10
519.5280062837642
 20
-879.7295564167889
 30
0.0
 11
519.5280062837642
 21
-874.1170108898614
 31
0.0
  0
LINE
  5
69F
  8
DATA
  6
CONTINUOUS
 62
     7
 10
512.1957733613494
 20
-879.7295564167889
 30
0.0
 11
512.1957733613494
 21
-874.1170108898614
 31
0.0
  0
LINE
  5
6A0
  8
DATA
  6
CONTINUOUS
 62
     7
 10
508.4963554176238
 20
-879.7295564167889
 30
0.0
 11
508.4963554176238
 21
-874.1170108898614
 31
0.0
  0
LINE
  5
6A1
  8
DATA
  6
CONTINUOUS
 62
     7
 10
523.1608212624569
 20
-879.7295564167889
 30
0.0
 11
523.1608212624569
 21
-874.1170108898614
 31
0.0
  0
LINE
  5
6A2
  8
DATA
  6
CONTINUOUS
 62
     7
 10
518.7389991858308
 20
-882.8709853053933
 30
0.0
 11
512.9181774942499
 21
-882.8709853053933
 31
0.0
  0
LINE
  5
6A3
  8
DATA
  6
CONTINUOUS
 62
     7
 10
555.2526614920407
 20
-869.5874608250006
 30
0.0
 11
555.2526614920407
 21
-867.9999640000005
 31
0.0
  0
LINE
  5
6A4
  8
DATA
  6
CONTINUOUS
 62
     7
 10
419.2526614920407
 20
-869.5874608250006
 30
0.0
 11
555.2526614920407
 21
-869.5874608250006
 31
0.0
  0
LINE
  5
6A5
  8
DATA
  6
CONTINUOUS
 62
     7
 10
419.2526614920407
 20
-869.5874608250006
 30
0.0
 11
419.2526614920407
 21
-867.9999640000005
 31
0.0
  0
LINE
  5
6A6
  8
DATA
  6
CONTINUOUS
 62
     7
 10
595.1232735410135
 20
-872.5383878343691
 30
0.0
 11
583.2396687967416
 21
-872.5383878343691
 31
0.0
  0
LINE
  5
6A7
  8
DATA
  6
CONTINUOUS
 62
     7
 10
575.2656541873398
 20
-872.5383878343691
 30
0.0
 11
563.382049443067
 21
-872.5383878343691
 31
0.0
  0
LINE
  5
6A8
  8
DATA
  6
CONTINUOUS
 62
     7
 10
563.3866377738873
 20
-872.2755225376313
 30
0.0
 11
595.1186852101932
 21
-872.2755225376313
 31
0.0
  0
LINE
  5
6A9
  8
DATA
  6
CONTINUOUS
 62
     7
 10
596.6470753706963
 20
-876.6866048513857
 30
0.0
 11
585.5345975956978
 21
-876.6866048513857
 31
0.0
  0
LINE
  5
6AA
  8
DATA
  6
CONTINUOUS
 62
     7
 10
572.9707253883826
 20
-876.6866048513848
 30
0.0
 11
561.8582476133811
 21
-876.6866048513848
 31
0.0
  0
LINE
  5
6AB
  8
DATA
  6
CONTINUOUS
 62
     7
 10
508.4963554176238
 20
-875.0230499538002
 30
0.0
 11
450.0089675664576
 21
-875.0230499538002
 31
0.0
  0
LINE
  5
6AC
  8
DATA
  6
CONTINUOUS
 62
     7
 10
498.373421925724
 20
-954.2780492419352
 30
0.0
 11
498.373421925724
 21
-922.7169967672653
 31
0.0
  0
LINE
  5
6AD
  8
DATA
  6
CONTINUOUS
 62
     7
 10
449.6617206740398
 20
-888.5993228012003
 30
0.0
 11
508.8436023100389
 21
-888.5993228012003
 31
0.0
  0
LINE
  5
6AE
  8
DATA
  6
CONTINUOUS
 62
     7
 10
501.9885581050971
 20
-947.6448373549038
 30
0.0
 11
501.9885581050971
 21
-946.7097368090926
 31
0.0
  0
LINE
  5
6AF
  8
DATA
  6
CONTINUOUS
 62
     7
 10
501.9885581050971
 20
-930.2853092001078
 30
0.0
 11
501.9885581050971
 21
-899.2673014652
 31
0.0
  0
LINE
  5
6B0
  8
DATA
  6
CONTINUOUS
 62
     7
 10
456.5167648789816
 20
-899.2673014652
 30
0.0
 11
456.5167648789816
 21
-930.2853092001078
 31
0.0
  0
LINE
  5
6B1
  8
DATA
  6
CONTINUOUS
 62
     7
 10
456.5167648789816
 20
-946.7097368090926
 30
0.0
 11
456.5167648789816
 21
-947.6448373549038
 31
0.0
  0
LINE
  5
6B2
  8
DATA
  6
CONTINUOUS
 62
     7
 10
460.1319010583575
 20
-922.7169967672653
 30
0.0
 11
460.1319010583575
 21
-954.2780492419352
 31
0.0
  0
LINE
  5
6B3
  8
DATA
  6
CONTINUOUS
 62
     7
 10
492.5048089007355
 20
-901.5588076690092
 30
0.0
 11
492.5048089007355
 21
-975.4362383401913
 31
0.0
  0
LINE
  5
6B4
  8
DATA
  6
CONTINUOUS
 62
     7
 10
466.0005140833437
 20
-975.4362383401913
 30
0.0
 11
466.0005140833437
 21
-901.5588076690092
 31
0.0
  0
ARC
  5
6B5
  8
DATA
  6
CONTINUOUS
 62
     7
 10
585.627061733502
 20
-879.6258697075348
 30
0.0
 40
2.059686258345827
 50
274.9297991613219
 51
323.8739716435879
  0
ARC
  5
6B6
  8
DATA
  6
CONTINUOUS
 62
     7
 10
581.3068145959724
 20
-876.8346448954123
 30
0.0
 40
7.200793607220375
 50
326.2021981391728
 51
1.178018398018821
  0
LINE
  5
6B7
  8
DATA
  6
CONTINUOUS
 62
     7
 10
573.0578494088968
 20
-881.6779366440005
 30
0.0
 11
572.7012618972358
 21
-881.6779366440005
 31
0.0
  0
ARC
  5
6B8
  8
DATA
  6
CONTINUOUS
 62
     7
 10
572.8782612505757
 20
-879.6258697075348
 30
0.0
 40
2.059686258345814
 50
216.1260283564121
 51
265.0702008386781
  0
ARC
  5
6B9
  8
DATA
  6
CONTINUOUS
 62
     7
 10
577.1985083881054
 20
-876.8346448954123
 30
0.0
 40
7.200793607220401
 50
178.8219816019812
 51
213.7978018608272
  0
LINE
  5
6BA
  8
DATA
  6
CONTINUOUS
 62
     7
 10
585.2464150500996
 20
-893.196571831385
 30
0.0
 11
573.2589079339818
 21
-893.1965718313859
 31
0.0
  0
LINE
  5
6BB
  8
DATA
  6
CONTINUOUS
 62
     7
 10
519.5013553054085
 20
-880.2967144064505
 30
0.0
 11
518.8807886832892
 21
-880.6575497375507
 31
0.0
  0
LINE
  5
6BC
  8
DATA
  6
CONTINUOUS
 62
     7
 10
518.8807886832892
 20
-880.6746105037528
 30
0.0
 11
519.7973304025422
 21
-881.2184843826553
 31
0.0
  0
LINE
  5
6BD
  8
DATA
  6
CONTINUOUS
 62
     7
 10
519.7772119975211
 20
-881.3253265376015
 30
0.0
 11
518.854608885576
 21
-880.7893345633202
 31
0.0
  0
ARC
  5
6BE
  8
DATA
  6
CONTINUOUS
 62
     7
 10
514.9162037228264
 20
-901.8665751823323
 30
0.0
 40
21.5905816524277
 50
79.41898365819596
 51
87.48959228965293
  0
ARC
  5
6BF
  8
DATA
  6
CONTINUOUS
 62
     7
 10
511.3376908378339
 20
-930.9081776974779
 30
0.0
 40
50.66824594524124
 50
81.43842017563345
 51
87.28719793900059
  0
LINE
  5
6C0
  8
DATA
  6
CONTINUOUS
 62
     7
 10
519.7946374071221
 20
-881.5246422229011
 30
0.0
 11
518.8807886832892
 21
-882.0542228160539
 31
0.0
  0
ARC
  5
6C1
  8
DATA
  6
CONTINUOUS
 62
     7
 10
517.2496383395894
 20
-842.7530404165104
 30
0.0
 40
38.27108735251907
 50
261.9040092386211
 51
267.4182968632097
  0
ARC
  5
6C2
  8
DATA
  6
CONTINUOUS
 62
     7
 10
514.2853679667095
 20
-920.8988350797447
 30
0.0
 40
39.93282131799263
 50
82.06608230491325
 51
88.21999905311424
  0
ARC
  5
6C3
  8
DATA
  6
CONTINUOUS
 62
     7
 10
517.2496383395894
 20
-842.929428952621
 30
0.0
 40
38.27108735251907
 50
261.9040092386211
 51
267.4182968632097
  0
ARC
  5
6C4
  8
DATA
  6
CONTINUOUS
 62
     7
 10
514.2853679667095
 20
-921.0752236158553
 30
0.0
 40
39.93282131799263
 50
82.06608230491325
 51
88.21999905311424
  0
LINE
  5
6C5
  8
DATA
  6
CONTINUOUS
 62
     7
 10
512.4093429536015
 20
-880.3124016449474
 30
0.0
 11
511.8598462775417
 21
-880.6426995423462
 31
0.0
  0
LINE
  5
6C6
  8
DATA
  6
CONTINUOUS
 62
     7
 10
512.776387996792
 20
-881.36320235535
 30
0.0
 11
511.8598462775417
 21
-880.8190880784568
 31
0.0
  0
LINE
  5
6C7
  8
DATA
  6
CONTINUOUS
 62
     7
 10
512.776387996792
 20
-881.5250572077211
 30
0.0
 11
512.0162159169886
 21
-881.9655779846389
 31
0.0
  0
ARC
  5
6C8
  8
DATA
  6
CONTINUOUS
 62
     7
 10
514.8188237597388
 20
-903.770517959767
 30
0.0
 40
22.09291818228206
 50
79.40542775754321
 51
86.61261416901542
  0
ARC
  5
6C9
  8
DATA
  6
CONTINUOUS
 62
     7
 10
517.4109305869652
 20
-853.461036772464
 30
0.0
 40
28.2844450048948
 50
260.5692850117189
 51
267.3926098203046
  0
ARC
  5
6CA
  8
DATA
  6
CONTINUOUS
 62
     7
 10
514.8188237597388
 20
-903.932372812138
 30
0.0
 40
22.09291818228206
 50
79.40542775754321
 51
86.61261416901542
  0
ARC
  5
6CB
  8
DATA
  6
CONTINUOUS
 62
     7
 10
517.4109305869652
 20
-853.6228916248351
 30
0.0
 40
28.2844450048948
 50
260.5692850117189
 51
267.3926098203046
  0
LINE
  5
6CC
  8
DATA
  6
CONTINUOUS
 62
     7
 10
519.2553058684616
 20
-882.3035583864912
 30
0.0
 11
519.2546346781951
 21
-882.3553498130277
 31
0.0
  0
ARC
  5
6CD
  8
DATA
  6
CONTINUOUS
 62
     7
 10
517.163702847635
 20
-825.3457941066627
 30
0.0
 40
56.85328968573337
 50
264.8053363892227
 51
268.5496482664933
  0
ARC
  5
6CE
  8
DATA
  6
CONTINUOUS
 62
     7
 10
514.0495478071199
 20
-932.843015854226
 30
0.0
 40
50.68983321392163
 50
84.19560190074405
 51
88.10618911697846
  0
ARC
  5
6CF
  8
DATA
  6
CONTINUOUS
 62
     7
 10
493.8346156433424
 20
-899.0356897187673
 30
0.0
 40
8.157231250292206
 50
358.3729578256591
 51
92.34990965788135
  0
ARC
  5
6D0
  8
DATA
  6
CONTINUOUS
 62
     7
 10
494.1956741104862
 20
-891.6203379948886
 30
0.0
 40
0.5415387776756645
 50
197.5177727786651
 51
261.0720842263333
  0
ARC
  5
6D1
  8
DATA
  6
CONTINUOUS
 62
     7
 10
495.6382112873648
 20
-890.9257830578615
 30
0.0
 40
2.138442655376554
 50
178.9157519482413
 51
203.6419799771205
  0
ARC
  5
6D2
  8
DATA
  6
CONTINUOUS
 62
     7
 10
462.8671116967078
 20
-890.9257830578586
 30
0.0
 40
2.138442655385845
 50
336.3580200229021
 51
1.084248051674706
  0
ARC
  5
6D3
  8
DATA
  6
CONTINUOUS
 62
     7
 10
464.0570495342542
 20
-891.4383179523047
 30
0.0
 40
0.8428753101666356
 50
312.6113594808006
 51
335.8365058626005
  0
ARC
  5
6D4
  8
DATA
  6
CONTINUOUS
 62
     7
 10
464.3824439786933
 20
-891.7965437055173
 30
0.0
 40
0.3589482365035233
 50
271.7955914474035
 51
313.0979624483228
  0
ARC
  5
6D5
  8
DATA
  6
CONTINUOUS
 62
     7
 10
464.650018253315
 20
-899.0147379486336
 30
0.0
 40
8.137173881699205
 50
87.49848697674598
 51
181.7786455397129
  0
ARC
  5
6D6
  8
DATA
  6
CONTINUOUS
 62
     7
 10
477.7273060066555
 20
-928.2470329617549
 30
0.0
 40
31.11630840698065
 50
341.9936340755149
 51
359.9494640064046
  0
ARC
  5
6D7
  8
DATA
  6
CONTINUOUS
 62
     7
 10
499.6212845446141
 20
-932.3383626512323
 30
0.0
 40
7.363307097016631
 50
343.8100777631348
 51
16.18992223686519
  0
ARC
  5
6D8
  8
DATA
  6
CONTINUOUS
 62
     7
 10
477.9701519718607
 20
-938.4975230046002
 30
0.0
 40
29.01444747832954
 50
351.8642236709267
 51
8.13577632907328
  0
ARC
  5
6D9
  8
DATA
  6
CONTINUOUS
 62
     7
 10
499.6212845446141
 20
-944.6566833579682
 30
0.0
 40
7.363307097016631
 50
343.8100777631348
 51
16.18992223686519
  0
LINE
  5
6DA
  8
DATA
  6
CONTINUOUS
 62
     7
 10
501.9885581050971
 20
-947.6448373549038
 30
0.0
 11
502.7259708841952
 21
-946.7097368090926
 31
0.0
  0
ARC
  5
6DB
  8
DATA
  6
CONTINUOUS
 62
     7
 10
504.8093938466802
 20
-949.9574482349799
 30
0.0
 40
3.647640794217431
 50
140.6540098721941
 51
169.4326018981864
  0
LINE
  5
6DC
  8
DATA
  6
CONTINUOUS
 62
     7
 10
495.1276297420418
 20
-904.7277008712526
 30
0.0
 11
495.1276297420409
 21
-972.3096283762079
 31
0.0
  0
ARC
  5
6DD
  8
DATA
  6
CONTINUOUS
 62
     7
 10
478.8629343564479
 20
-927.7800612375004
 30
0.0
 40
27.29235246848934
 50
43.42823607033403
 51
53.37500476992341
  0
LINE
  5
6DE
  8
DATA
  6
CONTINUOUS
 62
     7
 10
463.3776932420406
 20
-904.6854176329925
 30
0.0
 11
463.3776932420406
 21
-972.3096283762079
 31
0.0
  0
ARC
  5
6DF
  8
DATA
  6
CONTINUOUS
 62
     7
 10
479.6430341616694
 20
-927.7805968341788
 30
0.0
 40
27.29318947210827
 50
126.765012344421
 51
136.5718789694337
  0
ARC
  5
6E0
  8
DATA
  6
CONTINUOUS
 62
     7
 10
480.6846324041796
 20
-928.2695931739709
 30
0.0
 40
31.02291211474138
 50
180.0090219903827
 51
190.1470014675249
  0
ARC
  5
6E1
  8
DATA
  6
CONTINUOUS
 62
     7
 10
459.0076140686126
 20
-932.3383626512323
 30
0.0
 40
8.101252150020816
 50
165.3197675787662
 51
194.6802324212337
  0
ARC
  5
6E2
  8
DATA
  6
CONTINUOUS
 62
     7
 10
482.9141185016728
 20
-938.4975230046002
 30
0.0
 40
32.00776118460533
 50
172.6295155285983
 51
187.3704844714017
  0
ARC
  5
6E3
  8
DATA
  6
CONTINUOUS
 62
     7
 10
459.0076140686197
 20
-944.6566833579691
 30
0.0
 40
8.101252150027864
 50
165.3197675787726
 51
194.6802324212274
  0
LINE
  5
6E4
  8
DATA
  6
CONTINUOUS
 62
     7
 10
456.516764878982
 20
-947.6448373549038
 30
0.0
 11
455.7793520998857
 21
-946.7097368090926
 31
0.0
  0
ARC
  5
6E5
  8
DATA
  6
CONTINUOUS
 62
     7
 10
453.7247077160009
 20
-949.9440550355439
 30
0.0
 40
3.616902700422272
 50
10.44243872038404
 51
39.47094950936643
  0
ARC
  5
6E6
  8
DATA
  6
CONTINUOUS
 62
     7
 10
583.2320400553599
 20
-873.4931971584911
 30
0.0
 40
0.9548397997178565
 50
89.54222757094497
 51
132.3878796031591
  0
ARC
  5
6E7
  8
DATA
  6
CONTINUOUS
 62
     7
 10
575.2398169970743
 20
-873.5388854937894
 30
0.0
 40
1.000831217991398
 50
48.61701291262585
 51
88.52070318051184
  0
ARC
  5
6E8
  8
DATA
  6
CONTINUOUS
 62
     7
 10
515.8618898225568
 20
-868.1652013585208
 30
0.0
 40
12.13155875478609
 50
252.4104128793661
 51
287.5895871206339
  0
ARC
  5
6E9
  8
DATA
  6
CONTINUOUS
 62
     7
 10
515.8618898225568
 20
-885.6813659481295
 30
0.0
 40
12.13155875478609
 50
72.41041287936616
 51
107.5895871206339
  0
ARC
  5
6EA
  8
DATA
  6
CONTINUOUS
 62
     7
 10
521.3426985592394
 20
-877.1099715906576
 30
0.0
 40
3.186743277386328
 50
235.2880897310669
 51
304.308204245548
  0
ARC
  5
6EB
  8
DATA
  6
CONTINUOUS
 62
     7
 10
521.3426985592394
 20
-876.736595715993
 30
0.0
 40
3.186743277386493
 50
55.69179575445437
 51
124.7119102689307
  0
ARC
  5
6EC
  8
DATA
  6
CONTINUOUS
 62
     7
 10
510.3460643894866
 20
-876.996847760774
 30
0.0
 40
3.299866645676534
 50
235.906813319048
 51
304.093186680952
  0
ARC
  5
6ED
  8
DATA
  6
CONTINUOUS
 62
     7
 10
510.3460643894866
 20
-876.8497195458765
 30
0.0
 40
3.299866645676722
 50
55.90681331905022
 51
124.0931866809498
  0
LINE
  5
6EE
  8
DATA
  6
CONTINUOUS
 62
     7
 10
449.987034652524
 20
-879.7422776057019
 30
0.0
 11
449.0267219440411
 21
-880.2967144064505
 31
0.0
  0
LINE
  5
6EF
  8
DATA
  6
CONTINUOUS
 62
     7
 10
436.326747344041
 20
-880.2967144064505
 30
0.0
 11
449.0267219440411
 21
-880.2967144064505
 31
0.0
  0
LINE
  5
6F0
  8
DATA
  6
CONTINUOUS
 62
     7
 10
439.3239413496422
 20
-881.1883701009583
 30
0.0
 11
439.3239413496422
 21
-881.6849133033711
 31
0.0
  0
LINE
  5
6F1
  8
DATA
  6
CONTINUOUS
 62
     7
 10
435.3664346355586
 20
-874.1042897009484
 30
0.0
 11
436.326747344041
 21
-873.5498529001998
 31
0.0
  0
LINE
  5
6F2
  8
DATA
  6
CONTINUOUS
 62
     7
 10
436.326747344041
 20
-880.2967144064505
 30
0.0
 11
435.3664346355586
 21
-879.7422776057019
 31
0.0
  0
LINE
  5
6F3
  8
DATA
  6
CONTINUOUS
 62
     7
 10
449.0267219440411
 20
-873.5498529001998
 30
0.0
 11
449.987034652524
 21
-874.1042897009484
 31
0.0
  0
LINE
  5
6F4
  8
DATA
  6
CONTINUOUS
 62
     7
 10
438.7353360184138
 20
-873.560063390647
 30
0.0
 11
438.7529232551324
 21
-873.5498529001998
 31
0.0
  0
LINE
  5
6F5
  8
DATA
  6
CONTINUOUS
 62
     7
 10
445.7289349872899
 20
-882.2156839015497
 30
0.0
 11
446.02918084781
 21
-882.3902726680653
 31
0.0
  0
LINE
  5
6F6
  8
DATA
  6
CONTINUOUS
 62
     7
 10
438.7079925815424
 20
-880.8190880784568
 30
0.0
 11
438.7079925815424
 21
-880.6426995423462
 31
0.0
  0
LINE
  5
6F7
  8
DATA
  6
CONTINUOUS
 62
     7
 10
446.6454767065429
 20
-881.3482536867905
 30
0.0
 11
446.6454767065429
 21
-881.5246422229011
 31
0.0
  0
LINE
  5
6F8
  8
DATA
  6
CONTINUOUS
 62
     7
 10
446.034575411576
 20
-882.4235553836488
 30
0.0
 11
445.5871454898315
 21
-882.8709853053933
 31
0.0
  0
LINE
  5
6F9
  8
DATA
  6
CONTINUOUS
 62
     7
 10
439.7663237982506
 20
-882.8709853053933
 30
0.0
 11
438.8626393492427
 21
-881.9673008563841
 31
0.0
  0
LINE
  5
6FA
  8
DATA
  6
CONTINUOUS
 62
     7
 10
445.7289349872899
 20
-882.0542228160539
 30
0.0
 11
445.7289349872899
 21
-882.2156839015497
 31
0.0
  0
LINE
  5
6FB
  8
DATA
  6
CONTINUOUS
 62
     7
 10
445.7289349872899
 20
-880.6431145271654
 30
0.0
 11
445.7289349872899
 21
-880.8045568496655
 31
0.0
  0
LINE
  5
6FC
  8
DATA
  6
CONTINUOUS
 62
     7
 10
439.6245343007927
 20
-881.5250572077211
 30
0.0
 11
439.6245343007927
 21
-881.36320235535
 31
0.0
  0
LINE
  5
6FD
  8
DATA
  6
CONTINUOUS
 62
     7
 10
445.7289349872899
 20
-882.0857465694708
 30
0.0
 11
446.1034521724623
 21
-882.3035583864912
 31
0.0
  0
LINE
  5
6FE
  8
DATA
  6
CONTINUOUS
 62
     7
 10
439.3239413496394
 20
-881.5550009516846
 30
0.0
 11
439.6245343007927
 21
-881.3801784575398
 31
0.0
  0
LINE
  5
6FF
  8
DATA
  6
CONTINUOUS
 62
     7
 10
446.6454767065429
 20
-881.2184843826553
 30
0.0
 11
446.6454767065429
 21
-881.3482536867914
 31
0.0
  0
LINE
  5
700
  8
DATA
  6
CONTINUOUS
 62
     7
 10
446.1027809821958
 20
-882.3553498130277
 30
0.0
 11
446.0345754115733
 21
-882.4235553836497
 31
0.0
  0
LINE
  5
701
  8
DATA
  6
CONTINUOUS
 62
     7
 10
446.3761525877649
 20
-879.7295564167889
 30
0.0
 11
446.3761525877649
 21
-874.1170108898614
 31
0.0
  0
LINE
  5
702
  8
DATA
  6
CONTINUOUS
 62
     7
 10
439.0439196653501
 20
-879.7295564167889
 30
0.0
 11
439.0439196653501
 21
-874.1170108898614
 31
0.0
  0
LINE
  5
703
  8
DATA
  6
CONTINUOUS
 62
     7
 10
435.3445017216245
 20
-879.7295564167889
 30
0.0
 11
435.3445017216245
 21
-874.1170108898614
 31
0.0
  0
LINE
  5
704
  8
DATA
  6
CONTINUOUS
 62
     7
 10
450.0089675664576
 20
-879.7295564167889
 30
0.0
 11
450.0089675664576
 21
-874.1170108898614
 31
0.0
  0
LINE
  5
705
  8
DATA
  6
CONTINUOUS
 62
     7
 10
445.5871454898315
 20
-882.8709853053933
 30
0.0
 11
439.7663237982506
 21
-882.8709853053933
 31
0.0
  0
LINE
  5
706
  8
DATA
  6
CONTINUOUS
 62
     7
 10
446.3495016094092
 20
-880.2967144064505
 30
0.0
 11
445.7289349872899
 21
-880.6575497375507
 31
0.0
  0
LINE
  5
707
  8
DATA
  6
CONTINUOUS
 62
     7
 10
445.7289349872899
 20
-880.6746105037528
 30
0.0
 11
446.6454767065429
 21
-881.2184843826553
 31
0.0
  0
LINE
  5
708
  8
DATA
  6
CONTINUOUS
 62
     7
 10
446.6253583015218
 20
-881.3253265376015
 30
0.0
 11
445.7027551895767
 21
-880.7893345633202
 31
0.0
  0
ARC
  5
709
  8
DATA
  6
CONTINUOUS
 62
     7
 10
441.7643500268271
 20
-901.8665751823323
 30
0.0
 40
21.5905816524277
 50
79.41898365819596
 51
87.48959228965293
  0
ARC
  5
70A
  8
DATA
  6
CONTINUOUS
 62
     7
 10
438.1858371418346
 20
-930.9081776974779
 30
0.0
 40
50.66824594524124
 50
81.43842017563345
 51
87.28719793900059
  0
LINE
  5
70B
  8
DATA
  6
CONTINUOUS
 62
     7
 10
446.6427837111228
 20
-881.5246422229011
 30
0.0
 11
445.7289349872899
 21
-882.0542228160539
 31
0.0
  0
ARC
  5
70C
  8
DATA
  6
CONTINUOUS
 62
     7
 10
444.0977846435901
 20
-842.7530404165104
 30
0.0
 40
38.27108735251907
 50
261.9040092386211
 51
267.4182968632097
  0
ARC
  5
70D
  8
DATA
  6
CONTINUOUS
 62
     7
 10
441.1335142707102
 20
-920.8988350797447
 30
0.0
 40
39.93282131799263
 50
82.06608230491325
 51
88.21999905311424
  0
ARC
  5
70E
  8
DATA
  6
CONTINUOUS
 62
     7
 10
444.0977846435901
 20
-842.929428952621
 30
0.0
 40
38.27108735251907
 50
261.9040092386211
 51
267.4182968632097
  0
ARC
  5
70F
  8
DATA
  6
CONTINUOUS
 62
     7
 10
441.1335142707102
 20
-921.0752236158553
 30
0.0
 40
39.93282131799263
 50
82.06608230491325
 51
88.21999905311424
  0
LINE
  5
710
  8
DATA
  6
CONTINUOUS
 62
     7
 10
439.2574892576022
 20
-880.3124016449474
 30
0.0
 11
438.7079925815424
 21
-880.6426995423462
 31
0.0
  0
LINE
  5
711
  8
DATA
  6
CONTINUOUS
 62
     7
 10
439.6245343007927
 20
-881.36320235535
 30
0.0
 11
438.7079925815424
 21
-880.8190880784568
 31
0.0
  0
LINE
  5
712
  8
DATA
  6
CONTINUOUS
 62
     7
 10
439.6245343007927
 20
-881.5250572077211
 30
0.0
 11
438.8643622209893
 21
-881.9655779846389
 31
0.0
  0
ARC
  5
713
  8
DATA
  6
CONTINUOUS
 62
     7
 10
441.6669700637395
 20
-903.770517959767
 30
0.0
 40
22.09291818228206
 50
79.40542775754321
 51
86.61261416901542
  0
ARC
  5
714
  8
DATA
  6
CONTINUOUS
 62
     7
 10
444.2590768909658
 20
-853.461036772464
 30
0.0
 40
28.2844450048948
 50
260.5692850117189
 51
267.3926098203046
  0
ARC
  5
715
  8
DATA
  6
CONTINUOUS
 62
     7
 10
441.6669700637395
 20
-903.932372812138
 30
0.0
 40
22.09291818228206
 50
79.40542775754321
 51
86.61261416901542
  0
ARC
  5
716
  8
DATA
  6
CONTINUOUS
 62
     7
 10
444.2590768909658
 20
-853.6228916248351
 30
0.0
 40
28.2844450048948
 50
260.5692850117189
 51
267.3926098203046
  0
LINE
  5
717
  8
DATA
  6
CONTINUOUS
 62
     7
 10
446.1034521724623
 20
-882.3035583864912
 30
0.0
 11
446.1027809821958
 21
-882.3553498130277
 31
0.0
  0
ARC
  5
718
  8
DATA
  6
CONTINUOUS
 62
     7
 10
444.0118491516357
 20
-825.3457941066627
 30
0.0
 40
56.85328968573337
 50
264.8053363892227
 51
268.5496482664933
  0
ARC
  5
719
  8
DATA
  6
CONTINUOUS
 62
     7
 10
440.8976941111206
 20
-932.843015854226
 30
0.0
 40
50.68983321392163
 50
84.19560190074405
 51
88.10618911697846
  0
ARC
  5
71A
  8
DATA
  6
CONTINUOUS
 62
     7
 10
442.7100361265575
 20
-868.1652013585208
 30
0.0
 40
12.13155875478609
 50
252.4104128793661
 51
287.5895871206339
  0
ARC
  5
71B
  8
DATA
  6
CONTINUOUS
 62
     7
 10
442.7100361265575
 20
-885.6813659481295
 30
0.0
 40
12.13155875478609
 50
72.41041287936616
 51
107.5895871206339
  0
ARC
  5
71C
  8
DATA
  6
CONTINUOUS
 62
     7
 10
448.19084486324
 20
-877.1099715906576
 30
0.0
 40
3.186743277386328
 50
235.2880897310669
 51
304.308204245548
  0
ARC
  5
71D
  8
DATA
  6
CONTINUOUS
 62
     7
 10
448.19084486324
 20
-876.736595715993
 30
0.0
 40
3.186743277386493
 50
55.69179575445437
 51
124.7119102689307
  0
ARC
  5
71E
  8
DATA
  6
CONTINUOUS
 62
     7
 10
437.1942106934873
 20
-876.996847760774
 30
0.0
 40
3.299866645676534
 50
235.906813319048
 51
304.093186680952
  0
ARC
  5
71F
  8
DATA
  6
CONTINUOUS
 62
     7
 10
437.1942106934873
 20
-876.8497195458765
 30
0.0
 40
3.299866645676722
 50
55.90681331905022
 51
124.0931866809498
  0
ARC
  5
720
  8
DATA
  6
CONTINUOUS
 62
     7
 10
-58.50000000000001
 20
-381.5000028693379
 30
0.0
 40
5.0
 50
90.0
 51
180.0
  0
LINE
  5
721
  8
DATA
  6
CONTINUOUS
 62
     7
 10
-63.50000000000001
 20
-424.5000028693381
 30
0.0
 11
-63.5
 21
-381.5000028693379
 31
0.0
  0
ARC
  5
722
  8
DATA
  6
CONTINUOUS
 62
     7
 10
-58.50000000000003
 20
-424.5000028693381
 30
0.0
 40
4.999999999999979
 50
180.0
 51
270.0000000000002
  0
LINE
  5
723
  8
DATA
  6
CONTINUOUS
 62
     7
 10
58.50000000000001
 20
-429.5000028693381
 30
0.0
 11
-58.50000000000001
 21
-429.500002869338
 31
0.0
  0
ARC
  5
724
  8
DATA
  6
CONTINUOUS
 62
     7
 10
58.49999999999992
 20
-424.500002869338
 30
0.0
 40
5.000000000000057
 50
270.0000000000011
 51
359.9999999999993
  0
LINE
  5
725
  8
DATA
  6
CONTINUOUS
 62
     7
 10
63.5
 20
-381.5000028693379
 30
0.0
 11
63.5
 21
-424.5000028693381
 31
0.0
  0
ARC
  5
726
  8
DATA
  6
CONTINUOUS
 62
     7
 10
58.49999999999999
 20
-381.5000028693379
 30
0.0
 40
5.000000000000014
 50
0.0
 51
89.99999999999983
  0
LINE
  5
727
  8
DATA
  6
CONTINUOUS
 62
     7
 10
-58.50000000000001
 20
-376.5000028693379
 30
0.0
 11
58.5
 21
-376.5000028693379
 31
0.0
  0
POLYLINE
  5
728
  8
DATA
  6
CONTINUOUS
 62
     7
 66
     1
 10
0.0
 20
0.0
 30
0.0
 70
   129
  0
VERTEX
  5
81070000000000F3
  8
DATA
  6
CONTINUOUS
 62
     7
 10
-58.5
 20
-380.5000028693379
 30
0.0
  0
VERTEX
  5
81070000000000F4
  8
DATA
  6
CONTINUOUS
 62
     7
 10
-42.5
 20
-380.5000028693379
 30
0.0
  0
VERTEX
  5
81070000000000F5
  8
DATA
  6
CONTINUOUS
 62
     7
 10
-42.5
 20
-396.5000028693379
 30
0.0
  0
VERTEX
  5
81070000000000F6
  8
DATA
  6
CONTINUOUS
 62
     7
 10
-58.5
 20
-396.5000028693379
 30
0.0
  0
SEQEND
  5
810700000000010F
  8
DATA
  6
CONTINUOUS
 62
     7
  0
ARC
  5
72E
  8
DATA
  6
CONTINUOUS
 62
     7
 10
-53.735221
 20
-388.3346713693189
 30
0.0
 40
1.418369383842321
 50
264.6908562215353
 51
323.991199154244
  0
ARC
  5
72F
  8
DATA
  6
CONTINUOUS
 62
     7
 10
-53.9976975
 20
-388.3346713693189
 30
0.0
 40
1.418367080320613
 50
216.0088008457575
 51
275.3091437784649
  0
ARC
  5
730
  8
DATA
  6
CONTINUOUS
 62
     7
 10
-50.1310325
 20
-388.7028523693189
 30
0.0
 40
1.046436276444983
 50
273.8309816091152
 51
351.1351473098023
  0
ARC
  5
731
  8
DATA
  6
CONTINUOUS
 62
     7
 10
-50.120599
 20
-385.2894643693189
 30
0.0
 40
1.044851463101335
 50
8.226923859016672
 51
86.15412669215296
  0
ARC
  5
732
  8
DATA
  6
CONTINUOUS
 62
     7
 10
-50.23557025003473
 20
-388.9683736444557
 30
0.0
 40
0.1753307131501477
 50
307.6419024975724
 51
354.2670192893965
  0
LINE
  5
733
  8
DATA
  6
CONTINUOUS
 62
     7
 10
-54.7391525
 20
-386.2054453693189
 30
0.0
 11
-53.9171995
 21
-384.2469613693189
 31
0.0
  0
LINE
  5
734
  8
DATA
  6
CONTINUOUS
 62
     7
 10
-54.7391525
 20
-386.2054453693189
 30
0.0
 11
-55.5509635
 21
-384.2469613693189
 31
0.0
  0
LINE
  5
735
  8
DATA
  6
CONTINUOUS
 62
     7
 10
-48.5085325
 20
-389.7469613693189
 30
0.0
 11
-48.5085325
 21
-384.2469613693189
 31
0.0
  0
LINE
  5
736
  8
DATA
  6
CONTINUOUS
 62
     7
 10
-47.4531815
 20
-384.2469613693189
 30
0.0
 11
-47.4531815
 21
-388.9047133693189
 31
0.0
  0
LINE
  5
737
  8
DATA
  6
CONTINUOUS
 62
     7
 10
-53.531589
 20
-384.2469613693189
 30
0.0
 11
-53.531589
 21
-388.9047133693189
 31
0.0
  0
LINE
  5
738
  8
DATA
  6
CONTINUOUS
 62
     7
 10
-52.516828
 20
-384.2469613693189
 30
0.0
 11
-52.516828
 21
-388.9047133693189
 31
0.0
  0
LINE
  5
739
  8
DATA
  6
CONTINUOUS
 62
     7
 10
-51.9891525
 20
-384.2469613693189
 30
0.0
 11
-51.9891525
 21
-389.7469613693189
 31
0.0
  0
LINE
  5
73A
  8
DATA
  6
CONTINUOUS
 62
     7
 10
-51.065719
 20
-384.7644838693189
 30
0.0
 11
-51.065719
 21
-386.5301708693189
 31
0.0
  0
LINE
  5
73B
  8
DATA
  6
CONTINUOUS
 62
     7
 10
-49.0865
 20
-386.4280028693189
 30
0.0
 11
-49.0865
 21
-385.1399523693189
 31
0.0
  0
LINE
  5
73C
  8
DATA
  6
CONTINUOUS
 62
     7
 10
-50.0611165
 20
-385.0080293693189
 30
0.0
 11
-50.0611165
 21
-386.2866308693189
 31
0.0
  0
LINE
  5
73D
  8
DATA
  6
CONTINUOUS
 62
     7
 10
-54.3028045
 20
-388.0218643693189
 30
0.0
 11
-54.3028045
 21
-388.9047023693189
 31
0.0
  0
LINE
  5
73E
  8
DATA
  6
CONTINUOUS
 62
     7
 10
-54.3028045
 20
-388.0218643693189
 30
0.0
 11
-55.2160905
 21
-388.0218643693189
 31
0.0
  0
LINE
  5
73F
  8
DATA
  6
CONTINUOUS
 62
     7
 10
-55.2160905
 20
-388.0218643693189
 30
0.0
 11
-55.2160905
 21
-388.9047023693189
 31
0.0
  0
ARC
  5
740
  8
DATA
  6
CONTINUOUS
 62
     7
 10
-53.9152635
 20
-388.9166043693189
 30
0.0
 40
0.3838608544332631
 50
269.7118487927518
 51
1.775987005685465
  0
ARC
  5
741
  8
DATA
  6
CONTINUOUS
 62
     7
 10
-53.91913
 20
-388.9166043693189
 30
0.0
 40
0.3838588916027668
 50
178.2240129943086
 51
270.2881512072495
  0
ARC
  5
742
  8
DATA
  6
CONTINUOUS
 62
     7
 10
-54.5750985
 20
-388.8736108693189
 30
0.0
 40
0.6417401144969085
 50
182.7769954499939
 51
207.3596066671477
  0
CIRCLE
  5
743
  8
DATA
  6
CONTINUOUS
 62
     7
 10
-54.6833385
 20
-386.9665188693189
 30
0.0
 40
0.5225989999999996
  0
LINE
  5
744
  8
DATA
  6
CONTINUOUS
 62
     7
 10
-45.7585325
 20
-389.7469558693189
 30
0.0
 11
-48.5085325
 21
-389.7469558693189
 31
0.0
  0
LINE
  5
745
  8
DATA
  6
CONTINUOUS
 62
     7
 10
-45.7585325
 20
-389.7469558693189
 30
0.0
 11
-45.7585325
 21
-388.0218588693189
 31
0.0
  0
LINE
  5
746
  8
DATA
  6
CONTINUOUS
 62
     7
 10
-45.7585325
 20
-388.0218643693189
 30
0.0
 11
-46.6819605
 21
-388.0218643693189
 31
0.0
  0
LINE
  5
747
  8
DATA
  6
CONTINUOUS
 62
     7
 10
-46.6819605
 20
-388.0218643693189
 30
0.0
 11
-46.6819605
 21
-388.9047023693189
 31
0.0
  0
LINE
  5
748
  8
DATA
  6
CONTINUOUS
 62
     7
 10
-51.9891525
 20
-389.7469558693189
 30
0.0
 11
-50.0611165
 21
-389.7469503693189
 31
0.0
  0
LINE
  5
749
  8
DATA
  6
CONTINUOUS
 62
     7
 10
-51.0657245
 20
-389.2294278693189
 30
0.0
 11
-50.5684915
 21
-389.2294278693189
 31
0.0
  0
LINE
  5
74A
  8
DATA
  6
CONTINUOUS
 62
     7
 10
-51.065719
 20
-389.2294278693189
 30
0.0
 11
-51.065719
 21
-387.0578408693189
 31
0.0
  0
LINE
  5
74B
  8
DATA
  6
CONTINUOUS
 62
     7
 10
-51.0657245
 20
-387.0578408693189
 30
0.0
 11
-50.5684915
 21
-387.0578408693189
 31
0.0
  0
LINE
  5
74C
  8
DATA
  6
CONTINUOUS
 62
     7
 10
-50.0611165
 20
-388.9858878693189
 30
0.0
 11
-50.0611165
 21
-387.3013808693189
 31
0.0
  0
ARC
  5
74D
  8
DATA
  6
CONTINUOUS
 62
     7
 10
-53.15782
 20
-388.8736108693189
 30
0.0
 40
0.6417392013257966
 50
332.6403933328486
 51
357.2230045500045
  0
ARC
  5
74E
  8
DATA
  6
CONTINUOUS
 62
     7
 10
-47.0656405
 20
-388.9166043693189
 30
0.0
 40
0.3838608544332631
 50
269.7118487927507
 51
1.775987005685465
  0
ARC
  5
74F
  8
DATA
  6
CONTINUOUS
 62
     7
 10
-47.0695015
 20
-388.9166043693189
 30
0.0
 40
0.3838588916027597
 50
178.2240129943085
 51
270.2881512072494
  0
LINE
  5
750
  8
DATA
  6
CONTINUOUS
 62
     7
 10
-49.0869455
 20
-388.8641123693189
 30
0.0
 11
-49.0869455
 21
-387.4028613693189
 31
0.0
  0
LINE
  5
751
  8
DATA
  6
CONTINUOUS
 62
     7
 10
-51.0657245
 20
-386.5301708693189
 30
0.0
 11
-50.5684915
 21
-386.5301708693189
 31
0.0
  0
LINE
  5
752
  8
DATA
  6
CONTINUOUS
 62
     7
 10
-53.531589
 20
-384.2469613693189
 30
0.0
 11
-52.516828
 21
-384.2469613693189
 31
0.0
  0
LINE
  5
753
  8
DATA
  6
CONTINUOUS
 62
     7
 10
-55.5509635
 20
-384.2469613693189
 30
0.0
 11
-53.9171995
 21
-384.2469613693189
 31
0.0
  0
LINE
  5
754
  8
DATA
  6
CONTINUOUS
 62
     7
 10
-48.5085325
 20
-384.2469613693189
 30
0.0
 11
-47.4531815
 21
-384.2469613693189
 31
0.0
  0
LINE
  5
755
  8
DATA
  6
CONTINUOUS
 62
     7
 10
-51.9891525
 20
-384.2469613693189
 30
0.0
 11
-50.05051792951933
 21
-384.2469658208761
 31
0.0
  0
LINE
  5
756
  8
DATA
  6
CONTINUOUS
 62
     7
 10
-51.0657245
 20
-384.7644893693189
 30
0.0
 11
-50.5684915
 21
-384.7644893693189
 31
0.0
  0
ARC
  5
757
  8
DATA
  6
CONTINUOUS
 62
     7
 10
-50.56261999556823
 20
-388.2648994909961
 30
0.0
 40
0.9645462493599523
 50
269.6512199376174
 51
282.8264828068731
  0
ARC
  5
758
  8
DATA
  6
CONTINUOUS
 62
     7
 10
-50.45428618489332
 20
-388.6726905404938
 30
0.0
 40
0.543090847031267
 50
281.2331036226587
 51
306.8620088940602
  0
ARC
  5
759
  8
DATA
  6
CONTINUOUS
 62
     7
 10
-50.23557025003473
 20
-387.3188950941821
 30
0.0
 40
0.1753307131501444
 50
5.732980710603996
 51
52.35809750243124
  0
ARC
  5
75A
  8
DATA
  6
CONTINUOUS
 62
     7
 10
-50.56261999556823
 20
-388.0223692476417
 30
0.0
 40
0.964546249359955
 50
77.17351719312656
 51
90.34878006238263
  0
ARC
  5
75B
  8
DATA
  6
CONTINUOUS
 62
     7
 10
-50.45428618489332
 20
-387.614578198144
 30
0.0
 40
0.5430908470312356
 50
53.13799110593497
 51
78.76689637734208
  0
ARC
  5
75C
  8
DATA
  6
CONTINUOUS
 62
     7
 10
-49.6191695
 20
-387.4388368693189
 30
0.0
 40
0.5334384901525665
 50
3.86700635982266
 51
88.36163456789824
  0
ARC
  5
75D
  8
DATA
  6
CONTINUOUS
 62
     7
 10
-49.619659
 20
-386.3718808693189
 30
0.0
 40
0.5339685669712065
 50
271.6892821046482
 51
356.078282982655
  0
ARC
  5
75E
  8
DATA
  6
CONTINUOUS
 62
     7
 10
-50.23557025003473
 20
-386.2691166444557
 30
0.0
 40
0.1753307131501027
 50
307.6419024975838
 51
354.2670192893956
  0
ARC
  5
75F
  8
DATA
  6
CONTINUOUS
 62
     7
 10
-50.56261999556823
 20
-385.5656424909961
 30
0.0
 40
0.9645462493599523
 50
269.6512199376174
 51
282.8264828068731
  0
ARC
  5
760
  8
DATA
  6
CONTINUOUS
 62
     7
 10
-50.45428618489332
 20
-385.9734335404938
 30
0.0
 40
0.543090847031267
 50
281.2331036226587
 51
306.8620088940621
  0
ARC
  5
761
  8
DATA
  6
CONTINUOUS
 62
     7
 10
-50.23557025003473
 20
-385.0255435941821
 30
0.0
 40
0.1753307131501501
 50
5.73298071062248
 51
52.35809750242755
  0
ARC
  5
762
  8
DATA
  6
CONTINUOUS
 62
     7
 10
-50.56261999556823
 20
-385.7290177476418
 30
0.0
 40
0.9645462493600104
 50
77.17351719312731
 51
90.34878006238263
  0
ARC
  5
763
  8
DATA
  6
CONTINUOUS
 62
     7
 10
-50.45428618489332
 20
-385.321226698144
 30
0.0
 40
0.5430908470312811
 50
53.13799110593856
 51
78.76689637734208
  0
LINE
  5
764
  8
DATA
  6
CONTINUOUS
 62
     7
 10
-58.5
 20
-393.5000028693
 30
0.0
 11
-42.5
 21
-393.5000028693
 31
0.0
  0
TEXT
  5
765
  8
DATA
 62
     7
 10
-57.57650173611111
 20
-395.6769641323397
 30
0.0
 40
1.353922526041667
  1
JBL PROFESSIONAL
 41
0.7
 72
     1
 11
-50.5
 21
-395.0000028693189
 31
0.0
 73
     2
  0
TEXT
  5
766
  8
DATA
 62
     7
 10
-37.29841177082961
 20
-388.3133346037584
 30
0.0
 40
6.498828124999999
  1
VTX B28 ACC
 41
0.7
 11
-37.29841177082961
 21
-381.8145064787584
 31
0.0
 73
     3
  0
TEXT
  5
767
  8
DATA
 62
     7
 10
-37.29841177082961
 20
-393.7461123815361
 30
0.0
 40
3.790983072916667
  1
Accessory Casterboard & Cover
 41
0.7
 11
-37.29841177082961
 21
-389.9551293086195
 31
0.0
 73
     3
  0
VIEWPORT
  5
768
 67
     1
  8
0
 10
128.5
 20
97.5
 30
0.0
 40
314.226
 41
222.18
 68
     1
 69
     1
1001
ACAD
1000
MVIEW
1002
{
1070
    16
1010
0.0
1020
0.0
1030
0.0
1020
0.0
1030
0.0
1010
0.0
1020
0.0
1030
1.0
1020
0.0
1030
1.0
1040
0.0
1040
222.18
1040
128.5
1040
97.5
1040
50.0
1040
0.0
1040
0.0
1070
     0
1070
   100
1070
     0
1070
     3
1070
     0
1070
     0
1070
     0
1070
     0
1040
0.0
1040
0.0
1040
0.0
1040
10.0
1040
10.0
1040
10.0
1040
10.0
1070
     0
1002
{
1002
}
1002
}
  0
ENDSEC
  0
EOF
