  0
SECTION
  2
HEADER
  9
$ACADVER
  1
AC1009
  9
$DWGCODEPAGE
  3
ansi_932
  9
$INSBASE
 10
0.0
 20
0.0
 30
0.0
  9
$EXTMIN
 10
-1800.0
 20
-2698.168409531249
 30
0.0
  9
$EXTMAX
 10
1800.0
 20
2667.104485
 30
0.0
  9
$LIMMIN
 10
0.0
 20
0.0
  9
$LIMMAX
 10
0.0
 20
0.0
  9
$ORTHOMODE
 70
     0
  9
$REGENMODE
 70
     1
  9
$FILLMODE
 70
     1
  9
$QTEXTMODE
 70
     0
  9
$MIRRTEXT
 70
     1
  9
$DRAGMODE
 70
     2
  9
$LTSCALE
 40
101.6
  9
$OSMODE
 70
    37
  9
$ATTMODE
 70
     1
  9
$TEXTSIZE
 40
0.0
  9
$TRACEWID
 40
1.0
  9
$TEXTSTYLE
  7
STANDARD
  9
$CLAYER
  8
DATA
  9
$CELTYPE
  6
BYLAYER
  9
$CECOLOR
 62
   256
  9
$DIMSCALE
 40
1.0
  9
$DIMASZ
 40
0.18
  9
$DIMEXO
 40
0.0625
  9
$DIMDLI
 40
0.38
  9
$DIMRND
 40
0.0
  9
$DIMDLE
 40
0.0
  9
$DIMEXE
 40
0.18
  9
$DIMTP
 40
0.0
  9
$DIMTM
 40
0.0
  9
$DIMTXT
 40
0.18
  9
$DIMCEN
 40
0.09
  9
$DIMTSZ
 40
0.0
  9
$DIMTOL
 70
     0
  9
$DIMLIM
 70
     0
  9
$DIMTIH
 70
     1
  9
$DIMTOH
 70
     1
  9
$DIMSE1
 70
     0
  9
$DIMSE2
 70
     0
  9
$DIMTAD
 70
     0
  9
$DIMZIN
 70
     0
  9
$DIMBLK
  1

  9
$DIMASO
 70
     1
  9
$DIMSHO
 70
     1
  9
$DIMPOST
  1

  9
$DIMAPOST
  1

  9
$DIMALT
 70
     0
  9
$DIMALTD
 70
     2
  9
$DIMALTF
 40
25.4
  9
$DIMLFAC
 40
1.0
  9
$DIMTOFL
 70
     0
  9
$DIMTVP
 40
0.0
  9
$DIMTIX
 70
     0
  9
$DIMSOXD
 70
     0
  9
$DIMSAH
 70
     0
  9
$DIMBLK1
  1

  9
$DIMBLK2
  1

  9
$DIMSTYLE
  2
STANDARD
  9
$DIMCLRD
 70
     0
  9
$DIMCLRE
 70
     0
  9
$DIMCLRT
 70
     0
  9
$DIMTFAC
 40
1.0
  9
$DIMGAP
 40
0.09
  9
$LUNITS
 70
     2
  9
$LUPREC
 70
     2
  9
$SKETCHINC
 40
0.1
  9
$FILLETRAD
 40
0.0
  9
$AUNITS
 70
     0
  9
$AUPREC
 70
     0
  9
$MENU
  1
acad
  9
$ELEVATION
 40
0.0
  9
$PELEVATION
 40
0.0
  9
$THICKNESS
 40
0.0
  9
$LIMCHECK
 70
     0
  9
$CHAMFERA
 40
0.0
  9
$CHAMFERB
 40
0.0
  9
$SKPOLY
 70
     0
  9
$TDCREATE
 40
2459422.568755393
  9
$TDUPDATE
 40
2459422.569473669
  9
$TDINDWG
 40
2459422.194474213
  9
$TDUSRTIMER
 40
0.000718831
  9
$USRTIMER
 70
     1
  9
$ANGBASE
 50
0.0
  9
$ANGDIR
 70
     0
  9
$PDMODE
 70
     1
  9
$PDSIZE
 40
-2.0
  9
$PLINEWID
 40
0.0
  9
$COORDS
 70
     1
  9
$SPLFRAME
 70
     0
  9
$SPLINETYPE
 70
     6
  9
$SPLINESEGS
 70
     8
  9
$ATTDIA
 70
     1
  9
$ATTREQ
 70
     1
  9
$HANDLING
 70
     1
  9
$HANDSEED
  5
247
  9
$SURFTAB1
 70
     6
  9
$SURFTAB2
 70
     6
  9
$SURFTYPE
 70
     6
  9
$SURFU
 70
     6
  9
$SURFV
 70
     6
  9
$UCSNAME
  2

  9
$UCSORG
 10
0.0
 20
0.0
 30
0.0
  9
$UCSXDIR
 10
1.0
 20
0.0
 30
0.0
  9
$UCSYDIR
 10
0.0
 20
1.0
 30
0.0
  9
$PUCSNAME
  2

  9
$PUCSORG
 10
0.0
 20
0.0
 30
0.0
  9
$PUCSXDIR
 10
1.0
 20
0.0
 30
0.0
  9
$PUCSYDIR
 10
0.0
 20
1.0
 30
0.0
  9
$USERI1
 70
     0
  9
$USERI2
 70
     0
  9
$USERI3
 70
     0
  9
$USERI4
 70
     0
  9
$USERI5
 70
     0
  9
$USERR1
 40
0.0
  9
$USERR2
 40
0.0
  9
$USERR3
 40
0.0
  9
$USERR4
 40
0.0
  9
$USERR5
 40
0.0
  9
$WORLDVIEW
 70
     1
  9
$SHADEDGE
 70
     3
  9
$SHADEDIF
 70
    70
  9
$TILEMODE
 70
     1
  9
$MAXACTVP
 70
    64
  9
$PLIMCHECK
 70
     0
  9
$PEXTMIN
 10
1.000000000000000E+20
 20
1.000000000000000E+20
 30
1.000000000000000E+20
  9
$PEXTMAX
 10
-1.000000000000000E+20
 20
-1.000000000000000E+20
 30
-1.000000000000000E+20
  9
$PLIMMIN
 10
0.0
 20
0.0
  9
$PLIMMAX
 10
12.0
 20
9.0
  9
$UNITMODE
 70
     0
  9
$VISRETAIN
 70
     0
  9
$PLINEGEN
 70
     1
  9
$PSLTSCALE
 70
     0
  0
ENDSEC
  0
SECTION
  2
TABLES
  0
TABLE
  2
VPORT
 70
     1
  0
VPORT
  2
*ACTIVE
 70
     0
 10
0.0
 20
0.0
 11
1.0
 21
1.0
 12
0.0
 22
-3.531814999999369
 13
0.0
 23
0.0
 14
1.0
 24
1.0
 15
0.0
 25
0.0
 16
0.0
 26
0.0
 36
1.0
 17
0.0
 27
0.0
 37
0.0
 40
5341.272600000001
 41
2.794721407624634
 42
50.0
 43
0.0
 44
0.0
 50
0.0
 51
0.0
 71
     0
 72
  2000
 73
     1
 74
     1
 75
     0
 76
     0
 77
     0
 78
     0
  0
ENDTAB
  0
TABLE
  2
LTYPE
 70
    12
  0
LTYPE
  2
CONTINUOUS
 70
     0
  3
Solid line
 72
    65
 73
     0
 40
0.0
  0
ENDTAB
  0
TABLE
  2
LAYER
 70
     5
  0
LAYER
  2
0
 70
     0
 62
     7
  6
CONTINUOUS
  0
LAYER
  2
HIBINO-BASE
 70
     0
 62
     7
  6
CONTINUOUS
  0
LAYER
  2
SPEC
 70
     0
 62
     7
  6
CONTINUOUS
  0
LAYER
  2
DIMNSIONS
 70
     0
 62
     7
  6
CONTINUOUS
  0
LAYER
  2
DATA
 70
     0
 62
     7
  6
CONTINUOUS
  0
ENDTAB
  0
TABLE
  2
STYLE
 70
     2
  0
STYLE
  2
STANDARD
 70
     0
 40
0.0
 41
1.0
 50
0.0
 71
     0
 42
0.0
  3
txt
  4
BIGFONT.SHX
  0
ENDTAB
  0
TABLE
  2
VIEW
 70
     0
  0
ENDTAB
  0
TABLE
  2
UCS
 70
     0
  0
ENDTAB
  0
TABLE
  2
APPID
 70
     3
  0
APPID
  2
ACAD
 70
     0
  0
APPID
  2
ACAD_MLEADERVER
 70
     0
  0
APPID
  2
ACADANNOPO
 70
     0
  0
ENDTAB
  0
TABLE
  2
DIMSTYLE
 70
     1
  0
DIMSTYLE
  2
STANDARD
 70
     0
  3

  4

  5

  6

  7

 40
1.0
 41
0.18
 42
0.0625
 43
0.38
 44
0.18
 45
0.0
 46
0.0
 47
0.0
 48
0.0
140
0.18
141
0.09
142
0.0
143
25.4
144
1.0
145
0.0
146
1.0
147
0.09
 71
     0
 72
     0
 73
     1
 74
     1
 75
     0
 76
     0
 77
     0
 78
     0
170
     0
171
     2
172
     0
173
     0
174
     0
175
     0
176
     0
177
     0
178
     0
  0
ENDTAB
  0
ENDSEC
  0
SECTION
  2
BLOCKS
  0
BLOCK
  8
DATA
  2
$MODEL_SPACE
 70
     0
 10
0.0
 20
0.0
 30
0.0
  3
$MODEL_SPACE
  1

  0
ENDBLK
  5
1E5
  8
DATA
  0
BLOCK
 67
     1
  8
DATA
  2
$PAPER_SPACE
 70
     0
 10
0.0
 20
0.0
 30
0.0
  3
$PAPER_SPACE
  1

  0
ENDBLK
  5
1E3
 67
     1
  8
DATA
  0
ENDSEC
  0
SECTION
  2
ENTITIES
  0
LINE
  5
2D
  8
HIBINO-BASE
  6
CONTINUOUS
 62
     7
 10
-1800.0
 20
2667.104485
 30
0.0
 11
1800.0
 21
2667.104485
 31
0.0
  0
LINE
  5
2E
  8
HIBINO-BASE
  6
CONTINUOUS
 62
     7
 10
1800.0
 20
-2532.895514999999
 30
0.0
 11
-1800.0
 21
-2532.895514999999
 31
0.0
  0
LINE
  5
2F
  8
HIBINO-BASE
  6
CONTINUOUS
 62
     7
 10
-1800.0
 20
-2532.895514999999
 30
0.0
 11
-1800.0
 21
2667.104485
 31
0.0
  0
LINE
  5
30
  8
HIBINO-BASE
  6
CONTINUOUS
 62
     7
 10
1800.0
 20
2667.104485
 30
0.0
 11
1800.0
 21
-2532.895514999999
 31
0.0
  0
LINE
  5
31
  8
HIBINO-BASE
  6
CONTINUOUS
 62
     7
 10
0.0000000000002842
 20
-2082.895514999999
 30
0.0
 11
1800.0
 21
-2082.895514999999
 31
0.0
  0
LINE
  5
32
  8
HIBINO-BASE
  6
CONTINUOUS
 62
     7
 10
0.0000000000002842
 20
-2532.895514999999
 30
0.0
 11
0.0000000000002842
 21
-2082.895514999999
 31
0.0
  0
TEXT
  5
33
  8
HIBINO-BASE
 62
     7
 10
18.0000000000004
 20
-2133.069381666665
 30
0.0
 40
32.57682291666666
  1
NOTE
 41
0.7
 11
18.0000000000004
 21
-2100.492558749999
 31
0.0
 73
     3
  0
LINE
  5
34
  8
HIBINO-BASE
  6
CONTINUOUS
 62
     7
 10
700.0000000000002
 20
-2532.895514999999
 30
0.0
 11
700.0000000000002
 21
-2082.895514999999
 31
0.0
  0
TEXT
  5
35
  8
HIBINO-BASE
 62
     7
 10
717.9999999999998
 20
-2133.069381666665
 30
0.0
 40
32.57682291666666
  1
TITLE
 41
0.7
 11
717.9999999999998
 21
-2100.492558749999
 31
0.0
 73
     3
  0
LINE
  5
36
  8
HIBINO-BASE
  6
CONTINUOUS
 62
     7
 10
0.0000000000002842
 20
-2332.895514999999
 30
0.0
 11
1800.0
 21
-2332.895514999999
 31
0.0
  0
TEXT
  5
37
  8
HIBINO-BASE
 62
     7
 10
967.9999999999998
 20
-2381.942981666666
 30
0.0
 40
32.57682291666666
  1
DRAWN
 41
0.7
 11
967.9999999999998
 21
-2349.36615875
 31
0.0
 73
     3
  0
TEXT
  5
38
  8
HIBINO-BASE
 62
     7
 10
467.9999999999998
 20
-2381.942981666666
 30
0.0
 40
32.57682291666666
  1
DATE
 41
0.7
 11
467.9999999999998
 21
-2349.36615875
 31
0.0
 73
     3
  0
TEXT
  5
39
  8
HIBINO-BASE
 62
     7
 10
267.9999999999998
 20
-2381.942981666666
 30
0.0
 40
32.57682291666666
  1
SCALE
 41
0.7
 11
267.9999999999998
 21
-2349.36615875
 31
0.0
 73
     3
  0
TEXT
  5
3A
  8
HIBINO-BASE
 62
     7
 10
717.9999999999998
 20
-2381.942981666666
 30
0.0
 40
32.57682291666666
  1
DESIGN
 41
0.7
 11
717.9999999999998
 21
-2349.36615875
 31
0.0
 73
     3
  0
TEXT
  5
3B
  8
HIBINO-BASE
 62
     7
 10
1468.0
 20
-2381.942981666666
 30
0.0
 40
32.57682291666666
  1
DRAWING NO.
 41
0.7
 11
1468.0
 21
-2349.36615875
 31
0.0
 73
     3
  0
TEXT
  5
3C
  8
HIBINO-BASE
 62
     7
 10
1218.0
 20
-2381.942981666666
 30
0.0
 40
32.57682291666666
  1
CHECK
 41
0.7
 11
1218.0
 21
-2349.36615875
 31
0.0
 73
     3
  0
LINE
  5
3D
  8
HIBINO-BASE
  6
CONTINUOUS
 62
     7
 10
287.5000000000003
 20
-2507.895514999999
 30
0.0
 11
362.5000000000003
 21
-2432.895514999999
 31
0.0
  0
TEXT
  5
3E
  8
HIBINO-BASE
 62
     7
 10
275.0000000000003
 20
-2455.074381666666
 30
0.0
 40
32.57682291666666
  1
1
 41
0.7
 11
275.0000000000003
 21
-2422.497558749999
 31
0.0
 73
     3
  0
LINE
  5
3F
  8
HIBINO-BASE
  6
CONTINUOUS
 62
     7
 10
250.0000000000003
 20
-2532.895514999999
 30
0.0
 11
250.0000000000003
 21
-2332.895514999999
 31
0.0
  0
LINE
  5
40
  8
HIBINO-BASE
  6
CONTINUOUS
 62
     7
 10
449.9999999999997
 20
-2532.895514999999
 30
0.0
 11
449.9999999999997
 21
-2332.895514999999
 31
0.0
  0
LINE
  5
41
  8
HIBINO-BASE
  6
CONTINUOUS
 62
     7
 10
949.9999999999998
 20
-2332.895514999999
 30
0.0
 11
949.9999999999998
 21
-2532.895514999999
 31
0.0
  0
LINE
  5
42
  8
HIBINO-BASE
  6
CONTINUOUS
 62
     7
 10
1450.0
 20
-2332.895514999999
 30
0.0
 11
1450.0
 21
-2532.895514999999
 31
0.0
  0
LINE
  5
43
  8
HIBINO-BASE
  6
CONTINUOUS
 62
     7
 10
1200.0
 20
-2532.895514999999
 30
0.0
 11
1200.0
 21
-2332.895514999999
 31
0.0
  0
TEXT
  5
44
  8
HIBINO-BASE
 62
     7
 10
467.1308000000002
 20
-2475.622581666665
 30
0.0
 40
32.57682291666666
  1
'21.07.
 41
0.7
 11
467.1308000000002
 21
-2443.045758749999
 31
0.0
 73
     3
  0
TEXT
  5
45
  8
HIBINO-BASE
 62
     7
 10
350.0000000000003
 20
-2492.574381666666
 30
0.0
 40
32.57682291666666
  1
20
 41
0.7
 11
350.0000000000003
 21
-2459.997558749999
 31
0.0
 73
     3
  0
TEXT
  5
46
  8
HIBINO-BASE
 62
     7
 10
980.1162002206925
 20
-2475.622581666665
 30
0.0
 40
32.57682291666666
  1
N.Sasaki
 41
0.7
 11
980.1162002206925
 21
-2443.045758749999
 31
0.0
 73
     3
  0
TEXT
  5
47
  8
HIBINO-BASE
 62
     7
 10
77.66666666666737
 20
-2493.375514999999
 30
0.0
 40
65.15364583333333
  1
A4
 41
0.7
 11
77.66666666666737
 21
-2428.221869166666
 31
0.0
 73
     3
  0
TEXT
  5
48
  8
HIBINO-BASE
 62
     7
 10
19.16666666666657
 20
-2385.284614999999
 30
0.0
 40
32.57682291666666
  1
PAPER SIZE
 41
0.7
 11
19.16666666666657
 21
-2352.707792083333
 31
0.0
 73
     3
  0
TEXT
  5
49
  8
HIBINO-BASE
 62
     7
 10
-1656.319999999999
 20
-2661.069070999999
 30
0.0
 40
72.00088359374999
  1
Hibino Corporation
 41
0.7
 11
-1656.319999999999
 21
-2589.068187406249
 31
0.0
 73
     3
  0
TEXT
  5
4A
  8
HIBINO-BASE
 62
     7
 10
1001.3678
 20
-2661.069070999999
 30
0.0
 40
72.00088359374999
  1
ヒビノ株式会社
 41
0.7
 11
1001.3678
 21
-2589.068187406249
 31
0.0
 73
     3
  0
LINE
  5
4B
  8
SPEC
  6
CONTINUOUS
 62
     7
 10
-1650.0
 20
2467.104485000001
 30
0.0
 11
1300.0
 21
2467.104485000001
 31
0.0
  0
LINE
  5
4C
  8
SPEC
  6
CONTINUOUS
 62
     7
 10
-1650.0
 20
2392.104485
 30
0.0
 11
1300.0
 21
2392.104485
 31
0.0
  0
LINE
  5
4D
  8
SPEC
  6
CONTINUOUS
 62
     7
 10
-1650.0
 20
2467.104485000001
 30
0.0
 11
-1650.0
 21
2242.104485
 31
0.0
  0
TEXT
  5
4E
  8
SPEC
 62
     7
 10
-1625.0
 20
2494.969885
 30
0.0
 40
48.86523437500001
  1
仕様
 41
0.7
 11
-1625.0
 21
2543.835119375
 31
0.0
 73
     3
  0
LINE
  5
4F
  8
SPEC
  6
CONTINUOUS
 62
     7
 10
-1000.0
 20
2467.104485000001
 30
0.0
 11
-1000.0
 21
2242.104485
 31
0.0
  0
LINE
  5
50
  8
SPEC
  6
CONTINUOUS
 62
     7
 10
1300.0
 20
2467.104485000001
 30
0.0
 11
1300.0
 21
2242.104485
 31
0.0
  0
TEXT
  5
51
  8
SPEC
 62
     7
 10
-1632.0
 20
2407.862840555556
 30
0.0
 40
38.00629340277779
  1
寸法(W×H×D)
 41
0.7
 11
-1632.0
 21
2445.869133958334
 31
0.0
 73
     3
  0
TEXT
  5
52
  8
SPEC
 62
     7
 10
-1632.0
 20
2332.862840555556
 30
0.0
 40
38.00629340277779
  1
質量
 41
0.7
 11
-1632.0
 21
2370.869133958334
 31
0.0
 73
     3
  0
TEXT
  5
53
  8
SPEC
 62
     7
 10
-981.9999999999998
 20
2407.862840555556
 30
0.0
 40
38.00629340277779
  1
1318×133×63mm
 41
0.7
 11
-981.9999999999998
 21
2445.869133958334
 31
0.0
 73
     3
  0
TEXT
  5
54
  8
SPEC
 62
     7
 10
-981.9999999999998
 20
2332.862840555556
 30
0.0
 40
38.00629340277779
  1
8.3kg
 41
0.7
 11
-981.9999999999998
 21
2370.869133958334
 31
0.0
 73
     3
  0
LINE
  5
55
  8
SPEC
  6
CONTINUOUS
 62
     7
 10
-1650.0
 20
2317.104485
 30
0.0
 11
1300.0
 21
2317.104485
 31
0.0
  0
TEXT
  5
56
  8
SPEC
 62
     7
 10
-1632.0
 20
2257.862840555556
 30
0.0
 40
38.00629340277779
  1
付属品
 41
0.7
 11
-1632.0
 21
2295.869133958334
 31
0.0
 73
     3
  0
TEXT
  5
57
  8
SPEC
 62
     7
 10
-981.9999999999998
 20
2257.862840555556
 30
0.0
 40
38.00629340277779
  1
シャックル×2
 41
0.7
 11
-981.9999999999998
 21
2295.869133958334
 31
0.0
 73
     3
  0
LINE
  5
58
  8
SPEC
  6
CONTINUOUS
 62
     7
 10
-1650.0
 20
2242.104485
 30
0.0
 11
1300.0
 21
2242.104485
 31
0.0
  0
TEXT
  5
59
  8
DIMNSIONS
 62
     7
 10
-399.9999999999999
 20
-2287.505714999999
 30
0.0
 40
48.86523437500001
  1
(単位：mm)
 41
0.7
 11
-399.9999999999999
 21
-2238.640480624999
 31
0.0
 73
     3
  0
LINE
  5
5A
  8
DIMNSIONS
  6
CONTINUOUS
 62
     7
 10
-759.0
 20
-1024.0
 30
0.0
 11
-759.0
 21
-1151.698729810778
 31
0.0
  0
LINE
  5
5B
  8
DIMNSIONS
  6
CONTINUOUS
 62
     7
 10
559.0
 20
-1024.0
 30
0.0
 11
559.0
 21
-1151.698729810778
 31
0.0
  0
LINE
  5
5C
  8
DIMNSIONS
  6
CONTINUOUS
 62
     7
 10
-759.0
 20
-1131.698729810778
 30
0.0
 11
559.0
 21
-1131.698729810778
 31
0.0
  0
LINE
  5
5D
  8
DIMNSIONS
  6
CONTINUOUS
 62
     7
 10
-759.0
 20
-1131.698729810778
 30
0.0
 11
-719.00244140625
 21
-1120.981416286366
 31
0.0
  0
LINE
  5
5E
  8
DIMNSIONS
  6
CONTINUOUS
 62
     7
 10
-759.0
 20
-1131.698729810778
 30
0.0
 11
-719.00244140625
 21
-1142.41604333519
 31
0.0
  0
LINE
  5
5F
  8
DIMNSIONS
  6
CONTINUOUS
 62
     7
 10
559.0
 20
-1131.698729810778
 30
0.0
 11
519.00244140625
 21
-1142.41604333519
 31
0.0
  0
LINE
  5
60
  8
DIMNSIONS
  6
CONTINUOUS
 62
     7
 10
559.0
 20
-1131.698729810778
 30
0.0
 11
519.00244140625
 21
-1120.981416286366
 31
0.0
  0
TEXT
  5
61
  8
DIMNSIONS
 62
     7
 10
-170.5555555555555
 20
-1111.820952033
 30
0.0
 40
54.29470486111116
  1
1318
 41
0.7
 11
-170.5555555555555
 21
-1057.526247171889
 31
0.0
 73
     3
  0
LINE
  5
62
  8
DIMNSIONS
  6
CONTINUOUS
 62
     7
 10
-736.5
 20
-1001.6
 30
0.0
 11
-820.0
 21
-1001.6
 31
0.0
  0
LINE
  5
63
  8
DIMNSIONS
  6
CONTINUOUS
 62
     7
 10
-615.0
 20
-868.6
 30
0.0
 11
-820.0
 21
-868.6
 31
0.0
  0
LINE
  5
64
  8
DIMNSIONS
  6
CONTINUOUS
 62
     7
 10
-800.0
 20
-1001.6
 30
0.0
 11
-800.0
 21
-868.6
 31
0.0
  0
LINE
  5
65
  8
DIMNSIONS
  6
CONTINUOUS
 62
     7
 10
-800.0
 20
-1001.6
 30
0.0
 11
-810.7173135244118
 21
-961.6024414062499
 31
0.0
  0
LINE
  5
66
  8
DIMNSIONS
  6
CONTINUOUS
 62
     7
 10
-800.0
 20
-1001.6
 30
0.0
 11
-789.2826864755882
 21
-961.6024414062499
 31
0.0
  0
LINE
  5
67
  8
DIMNSIONS
  6
CONTINUOUS
 62
     7
 10
-800.0
 20
-868.6
 30
0.0
 11
-789.2826864755882
 21
-908.59755859375
 31
0.0
  0
LINE
  5
68
  8
DIMNSIONS
  6
CONTINUOUS
 62
     7
 10
-800.0
 20
-868.6
 30
0.0
 11
-810.7173135244118
 21
-908.59755859375
 31
0.0
  0
TEXT
  5
69
  8
DIMNSIONS
 62
     7
 10
-819.8777777777777
 20
-988.0166666666667
 30
0.0
 40
54.29470486111116
  1
133
 50
90.0
 41
0.7
 11
-874.1724826388889
 21
-988.0166666666667
 31
0.0
 73
     3
  0
LINE
  5
6A
  8
DIMNSIONS
  6
CONTINUOUS
 62
     7
 10
-778.0
 20
-781.5
 30
0.0
 11
-820.0
 21
-781.5
 31
0.0
  0
LINE
  5
6B
  8
DIMNSIONS
  6
CONTINUOUS
 62
     7
 10
-778.0
 20
-718.5
 30
0.0
 11
-820.0
 21
-718.5
 31
0.0
  0
LINE
  5
6C
  8
DIMNSIONS
  6
CONTINUOUS
 62
     7
 10
-800.0
 20
-718.5
 30
0.0
 11
-800.0
 21
-781.5
 31
0.0
  0
LINE
  5
6D
  8
DIMNSIONS
  6
CONTINUOUS
 62
     7
 10
-800.0
 20
-781.5
 30
0.0
 11
-800.0
 21
-851.5
 31
0.0
  0
LINE
  5
6E
  8
DIMNSIONS
  6
CONTINUOUS
 62
     7
 10
-800.0
 20
-781.5
 30
0.0
 11
-789.2826864755882
 21
-821.49755859375
 31
0.0
  0
LINE
  5
6F
  8
DIMNSIONS
  6
CONTINUOUS
 62
     7
 10
-800.0
 20
-781.5
 30
0.0
 11
-810.7173135244118
 21
-821.49755859375
 31
0.0
  0
LINE
  5
70
  8
DIMNSIONS
  6
CONTINUOUS
 62
     7
 10
-800.0
 20
-718.5
 30
0.0
 11
-800.0
 21
-648.5
 31
0.0
  0
LINE
  5
71
  8
DIMNSIONS
  6
CONTINUOUS
 62
     7
 10
-800.0
 20
-718.5
 30
0.0
 11
-810.7173135244118
 21
-678.50244140625
 31
0.0
  0
LINE
  5
72
  8
DIMNSIONS
  6
CONTINUOUS
 62
     7
 10
-800.0
 20
-718.5
 30
0.0
 11
-789.2826864755882
 21
-678.50244140625
 31
0.0
  0
TEXT
  5
73
  8
DIMNSIONS
 62
     7
 10
-829.8777777777777
 20
-820.5555555555555
 30
0.0
 40
54.29470486111116
  1
63.0
 50
90.0
 41
0.7
 11
-884.1724826388889
 21
-820.5555555555555
 31
0.0
 73
     3
  0
LINE
  5
74
  8
DIMNSIONS
  6
CONTINUOUS
 62
     7
 10
1176.0
 20
-308.8299999999994
 30
0.0
 11
1130.0
 21
-308.8299999999994
 31
0.0
  0
LINE
  5
75
  8
DIMNSIONS
  6
CONTINUOUS
 62
     7
 10
1176.0
 20
-419.8300000000002
 30
0.0
 11
1130.0
 21
-419.8300000000002
 31
0.0
  0
LINE
  5
76
  8
DIMNSIONS
  6
CONTINUOUS
 62
     7
 10
1150.0
 20
-308.8299999999994
 30
0.0
 11
1150.0
 21
-419.8300000000002
 31
0.0
  0
LINE
  5
77
  8
DIMNSIONS
  6
CONTINUOUS
 62
     7
 10
1150.0
 20
-308.8299999999994
 30
0.0
 11
1160.717313524412
 21
-348.8275585937494
 31
0.0
  0
LINE
  5
78
  8
DIMNSIONS
  6
CONTINUOUS
 62
     7
 10
1150.0
 20
-308.8299999999994
 30
0.0
 11
1139.282686475588
 21
-348.8275585937494
 31
0.0
  0
LINE
  5
79
  8
DIMNSIONS
  6
CONTINUOUS
 62
     7
 10
1150.0
 20
-419.8300000000002
 30
0.0
 11
1139.282686475588
 21
-379.8324414062502
 31
0.0
  0
LINE
  5
7A
  8
DIMNSIONS
  6
CONTINUOUS
 62
     7
 10
1150.0
 20
-419.8300000000002
 30
0.0
 11
1160.717313524412
 21
-379.8324414062502
 31
0.0
  0
TEXT
  5
7B
  8
DIMNSIONS
 62
     7
 10
1130.122222222222
 20
-417.2466666666665
 30
0.0
 40
54.29470486111116
  1
111
 50
90.0
 41
0.7
 11
1075.827517361111
 21
-417.2466666666665
 31
0.0
 73
     3
  0
LINE
  5
7C
  8
DIMNSIONS
  6
CONTINUOUS
 62
     7
 10
1261.223492937089
 20
-324.9800000000002
 30
0.0
 11
1261.223492937089
 21
-228.9800000000002
 31
0.0
  0
LINE
  5
7D
  8
DIMNSIONS
  6
CONTINUOUS
 62
     7
 10
1338.776507062912
 20
-324.9800000000002
 30
0.0
 11
1338.776507062912
 21
-228.9800000000002
 31
0.0
  0
LINE
  5
7E
  8
DIMNSIONS
  6
CONTINUOUS
 62
     7
 10
1338.776507062912
 20
-248.9800000000002
 30
0.0
 11
1261.223492937089
 21
-248.9800000000002
 31
0.0
  0
LINE
  5
7F
  8
DIMNSIONS
  6
CONTINUOUS
 62
     7
 10
1261.223492937089
 20
-248.9800000000002
 30
0.0
 11
1191.223492937089
 21
-248.9800000000002
 31
0.0
  0
LINE
  5
80
  8
DIMNSIONS
  6
CONTINUOUS
 62
     7
 10
1261.223492937089
 20
-248.9800000000002
 30
0.0
 11
1221.225934343339
 21
-259.697313524412
 31
0.0
  0
LINE
  5
81
  8
DIMNSIONS
  6
CONTINUOUS
 62
     7
 10
1261.223492937089
 20
-248.9800000000002
 30
0.0
 11
1221.225934343339
 21
-238.2626864755884
 31
0.0
  0
LINE
  5
82
  8
DIMNSIONS
  6
CONTINUOUS
 62
     7
 10
1338.776507062912
 20
-248.9800000000002
 30
0.0
 11
1408.776507062912
 21
-248.9800000000002
 31
0.0
  0
LINE
  5
83
  8
DIMNSIONS
  6
CONTINUOUS
 62
     7
 10
1338.776507062912
 20
-248.9800000000002
 30
0.0
 11
1378.774065656662
 21
-238.2626864755884
 31
0.0
  0
LINE
  5
84
  8
DIMNSIONS
  6
CONTINUOUS
 62
     7
 10
1338.776507062912
 20
-248.9800000000002
 30
0.0
 11
1378.774065656662
 21
-259.697313524412
 31
0.0
  0
TEXT
  5
85
  8
DIMNSIONS
 62
     7
 10
1229.444444444445
 20
-219.1022222222224
 30
0.0
 40
54.29470486111116
  1
77.6
 41
0.7
 11
1229.444444444445
 21
-164.8075173611113
 31
0.0
 73
     3
  0
TEXT
  5
86
  8
DATA
 62
     7
 10
-1760.0
 20
-2375.369959444444
 30
0.0
 40
38.00629340277779
  1
※仕様及び外観は予告なく変更されることがあります。
 41
0.7
 11
-1760.0
 21
-2337.363666041666
 31
0.0
 73
     3
  0
TEXT
  5
87
  8
DATA
 62
     7
 10
-1760.0
 20
-2424.758848333333
 30
0.0
 40
38.00629340277779
  1
　また、同一商品でも若干の個体差があることがあります。ご了承ください。
 41
0.7
 11
-1760.0
 21
-2386.752554930555
 31
0.0
 73
     3
  0
TEXT
  5
88
  8
DATA
 62
     7
 10
1000.0
 20
-2165.277714999999
 30
0.0
 40
48.86523437500001
  1
JBL PROFESSIONAL
 41
0.7
 11
1000.0
 21
-2116.412480624999
 31
0.0
 73
     3
  0
TEXT
  5
89
  8
DATA
 62
     7
 10
949.9999999999998
 20
-2237.356815
 30
0.0
 40
38.00629340277779
  1
サスペンションバー
 41
0.7
 11
949.9999999999998
 21
-2199.350521597222
 31
0.0
 73
     3
  0
TEXT
  5
8A
  8
DATA
 62
     7
 10
1000.0
 20
-2302.900426292103
 30
0.0
 40
48.86523437500001
  1
VTX-B28-SB
 41
0.7
 11
1000.0
 21
-2254.035191917103
 31
0.0
 73
     3
  0
ARC
  5
8B
  8
DATA
  6
CONTINUOUS
 62
     7
 10
1300.0
 20
-347.6299999999989
 30
0.0
 40
38.8000000000003
 50
320.9190184816998
 51
219.0809815182972
  0
ARC
  5
8C
  8
DATA
  6
CONTINUOUS
 62
     7
 10
1300.0
 20
-350.4299999999992
 30
0.0
 40
22.00000000000016
 50
323.3580718587859
 51
216.6419281412145
  0
LINE
  5
8D
  8
DATA
  6
CONTINUOUS
 62
     7
 10
1313.7
 20
-419.8300000000002
 30
0.0
 11
1329.0
 21
-419.8300000000002
 31
0.0
  0
LINE
  5
8E
  8
DATA
  6
CONTINUOUS
 62
     7
 10
1313.7
 20
-375.4961125825282
 30
0.0
 11
1313.7
 21
-419.8299999999994
 31
0.0
  0
LINE
  5
8F
  8
DATA
  6
CONTINUOUS
 62
     7
 10
1329.0
 20
-375.2423160926428
 30
0.0
 11
1329.0
 21
-419.8300000000002
 31
0.0
  0
ARC
  5
90
  8
DATA
  6
CONTINUOUS
 62
     7
 10
1333.7
 20
-375.4961125825282
 30
0.0
 40
20.00000000000003
 50
143.358071858786
 51
180.0
  0
ARC
  5
91
  8
DATA
  6
CONTINUOUS
 62
     7
 10
1334.0
 20
-375.2423160926428
 30
0.0
 40
5.000000000000012
 50
140.9190184816999
 51
180.0
  0
LINE
  5
92
  8
DATA
  6
CONTINUOUS
 62
     7
 10
1286.3
 20
-419.8300000000002
 30
0.0
 11
1271.0
 21
-419.8300000000002
 31
0.0
  0
LINE
  5
93
  8
DATA
  6
CONTINUOUS
 62
     7
 10
1286.3
 20
-375.4961125825282
 30
0.0
 11
1286.3
 21
-419.8299999999994
 31
0.0
  0
LINE
  5
94
  8
DATA
  6
CONTINUOUS
 62
     7
 10
1271.0
 20
-375.2423160926428
 30
0.0
 11
1271.0
 21
-419.8300000000002
 31
0.0
  0
ARC
  5
95
  8
DATA
  6
CONTINUOUS
 62
     7
 10
1266.299999999999
 20
-375.4961125825282
 30
0.0
 40
20.00000000000023
 50
0.0
 51
36.64192814121401
  0
ARC
  5
96
  8
DATA
  6
CONTINUOUS
 62
     7
 10
1266.0
 20
-375.2423160926428
 30
0.0
 40
5.0
 50
0.0
 51
39.08098151830018
  0
LINE
  5
97
  8
DATA
  6
CONTINUOUS
 62
     7
 10
1313.7
 20
-389.3800000000002
 30
0.0
 11
1286.3
 21
-389.3800000000002
 31
0.0
  0
LINE
  5
98
  8
DATA
  6
CONTINUOUS
 62
     7
 10
1313.7
 20
-408.5800000000002
 30
0.0
 11
1286.3
 21
-408.5800000000002
 31
0.0
  0
LINE
  5
99
  8
DATA
  6
CONTINUOUS
 62
     7
 10
1333.7
 20
-385.6800000000002
 30
0.0
 11
1333.7
 21
-412.2800000000001
 31
0.0
  0
LINE
  5
9A
  8
DATA
  6
CONTINUOUS
 62
     7
 10
1333.7
 20
-385.6800000000002
 30
0.0
 11
1329.0
 21
-385.6800000000002
 31
0.0
  0
LINE
  5
9B
  8
DATA
  6
CONTINUOUS
 62
     7
 10
1333.7
 20
-412.2800000000001
 30
0.0
 11
1329.0
 21
-412.2800000000001
 31
0.0
  0
LINE
  5
9C
  8
DATA
  6
CONTINUOUS
 62
     7
 10
1333.7
 20
-388.4800000000002
 30
0.0
 11
1343.573616007047
 21
-386.6590462282086
 31
0.0
  0
ARC
  5
9D
  8
DATA
  6
CONTINUOUS
 62
     7
 10
1291.549999999997
 20
-398.9800000000002
 30
0.0
 40
65.65000000000282
 50
348.5788137250011
 51
11.42118627499883
  0
LINE
  5
9E
  8
DATA
  6
CONTINUOUS
 62
     7
 10
1355.9
 20
-385.9800000000001
 30
0.0
 11
1348.264877955364
 21
-386.170878051116
 31
0.0
  0
LINE
  5
9F
  8
DATA
  6
CONTINUOUS
 62
     7
 10
1333.7
 20
-409.4800000000002
 30
0.0
 11
1343.573616007047
 21
-411.3009537717918
 31
0.0
  0
LINE
  5
A0
  8
DATA
  6
CONTINUOUS
 62
     7
 10
1355.9
 20
-411.9800000000002
 30
0.0
 11
1348.264877955364
 21
-411.7891219488844
 31
0.0
  0
CIRCLE
  5
A1
  8
DATA
  6
CONTINUOUS
 62
     7
 10
1343.75
 20
-398.9800000000002
 30
0.0
 40
5.450000000000045
  0
ARC
  5
A2
  8
DATA
  6
CONTINUOUS
 62
     7
 10
1349.01464369017
 20
-416.1615074433597
 30
0.0
 40
30.00000000000002
 50
91.43209618416454
 51
100.4494281577698
  0
ARC
  5
A3
  8
DATA
  6
CONTINUOUS
 62
     7
 10
1349.01464369017
 20
-381.7984925566407
 30
0.0
 40
30.00000000000007
 50
259.5505718422297
 51
268.567903815835
  0
LINE
  5
A4
  8
DATA
  6
CONTINUOUS
 62
     7
 10
1270.0
 20
-390.1300000000002
 30
0.0
 11
1270.0
 21
-407.8300000000002
 31
0.0
  0
LINE
  5
A5
  8
DATA
  6
CONTINUOUS
 62
     7
 10
1270.0
 20
-390.1300000000002
 30
0.0
 11
1271.0
 21
-390.1300000000002
 31
0.0
  0
LINE
  5
A6
  8
DATA
  6
CONTINUOUS
 62
     7
 10
1270.0
 20
-407.8300000000002
 30
0.0
 11
1271.0
 21
-407.8300000000002
 31
0.0
  0
LINE
  5
A7
  8
DATA
  6
CONTINUOUS
 62
     7
 10
1270.0
 20
-390.1300000000002
 30
0.0
 11
1271.0
 21
-401.5600523027617
 31
0.0
  0
LINE
  5
A8
  8
DATA
  6
CONTINUOUS
 62
     7
 10
1190.75
 20
-318.0799999999994
 30
0.0
 11
1190.75
 21
-374.872739682826
 31
0.0
  0
ARC
  5
A9
  8
DATA
  6
CONTINUOUS
 62
     7
 10
1200.0
 20
-318.0799999999994
 30
0.0
 40
9.25
 50
0.0000000000003411
 51
179.9999999999996
  0
ARC
  5
AA
  8
DATA
  6
CONTINUOUS
 62
     7
 10
1200.0
 20
-398.9800000000002
 30
0.0
 40
20.85000000000002
 50
128.6078770082206
 51
51.39212299177944
  0
LINE
  5
AB
  8
DATA
  6
CONTINUOUS
 62
     7
 10
1209.25
 20
-318.0799999999994
 30
0.0
 11
1209.25
 21
-374.872739682826
 31
0.0
  0
ARC
  5
AC
  8
DATA
  6
CONTINUOUS
 62
     7
 10
1180.75
 20
-374.872739682826
 30
0.0
 40
9.99999999999994
 50
308.6078770082196
 51
0.0
  0
ARC
  5
AD
  8
DATA
  6
CONTINUOUS
 62
     7
 10
1219.25
 20
-374.872739682826
 30
0.0
 40
10.0
 50
180.0
 51
231.3921229917804
  0
CIRCLE
  5
AE
  8
DATA
  6
CONTINUOUS
 62
     7
 10
1200.0
 20
-398.9800000000002
 30
0.0
 40
13.29999999999995
  0
ARC
  5
AF
  8
DATA
  6
CONTINUOUS
 62
     7
 10
1200.0
 20
-400.0
 30
0.0
 40
14.01999999999976
 50
68.22894589068294
 51
111.7710541093179
  0
ARC
  5
B0
  8
DATA
  6
CONTINUOUS
 62
     7
 10
1200.0
 20
-397.9600000000004
 30
0.0
 40
14.01999999999984
 50
248.2289458906821
 51
291.771054109317
  0
LINE
  5
B1
  8
DATA
  6
CONTINUOUS
 62
     7
 10
1194.8
 20
-386.9800000000002
 30
0.0
 11
1194.8
 21
-410.9800000000002
 31
0.0
  0
LINE
  5
B2
  8
DATA
  6
CONTINUOUS
 62
     7
 10
1205.2
 20
-386.9800000000002
 30
0.0
 11
1205.2
 21
-410.9800000000002
 31
0.0
  0
ARC
  5
B3
  8
DATA
  6
CONTINUOUS
 62
     7
 10
-753.9999999999989
 20
-723.5000000000011
 30
0.0
 40
5.000000000001137
 50
90.00000000001303
 51
179.999999999987
  0
LINE
  5
B4
  8
DATA
  6
CONTINUOUS
 62
     7
 10
-759.0
 20
-776.5
 30
0.0
 11
-759.0
 21
-754.0999999999998
 31
0.0
  0
LINE
  5
B5
  8
DATA
  6
CONTINUOUS
 62
     7
 10
-759.0
 20
-745.9000000000002
 30
0.0
 11
-759.0
 21
-723.5
 31
0.0
  0
ARC
  5
B6
  8
DATA
  6
CONTINUOUS
 62
     7
 10
-754.0
 20
-776.5000000000001
 30
0.0
 40
5.0
 50
179.9999999999987
 51
270.0
  0
LINE
  5
B7
  8
DATA
  6
CONTINUOUS
 62
     7
 10
554.0
 20
-781.5
 30
0.0
 11
-754.0
 21
-781.5
 31
0.0
  0
ARC
  5
B8
  8
DATA
  6
CONTINUOUS
 62
     7
 10
554.0
 20
-776.5
 30
0.0
 40
5.0
 50
270.0
 51
0.0
  0
LINE
  5
B9
  8
DATA
  6
CONTINUOUS
 62
     7
 10
559.0
 20
-723.5
 30
0.0
 11
559.0
 21
-745.9000000000002
 31
0.0
  0
LINE
  5
BA
  8
DATA
  6
CONTINUOUS
 62
     7
 10
559.0
 20
-754.0999999999998
 30
0.0
 11
559.0
 21
-776.5
 31
0.0
  0
ARC
  5
BB
  8
DATA
  6
CONTINUOUS
 62
     7
 10
553.9999999999997
 20
-723.5000000000003
 30
0.0
 40
5.000000000000341
 50
0.0000000000039222
 51
89.99999999999608
  0
LINE
  5
BC
  8
DATA
  6
CONTINUOUS
 62
     7
 10
-754.0
 20
-718.5
 30
0.0
 11
554.0
 21
-718.5
 31
0.0
  0
LINE
  5
BD
  8
DATA
  6
CONTINUOUS
 62
     7
 10
-759.0
 20
-1000.0
 30
0.0
 11
-759.0
 21
-961.0967119080444
 31
0.0
  0
LINE
  5
BE
  8
DATA
  6
CONTINUOUS
 62
     7
 10
559.0
 20
-1000.0
 30
0.0
 11
-759.0
 21
-1000.0
 31
0.0
  0
LINE
  5
BF
  8
DATA
  6
CONTINUOUS
 62
     7
 10
559.0
 20
-961.0967119080444
 30
0.0
 11
559.0
 21
-1000.0
 31
0.0
  0
LINE
  5
C0
  8
DATA
  6
CONTINUOUS
 62
     7
 10
-591.0
 20
-868.6
 30
0.0
 11
391.0
 21
-868.6
 31
0.0
  0
POLYLINE
  5
C1
  8
DATA
  6
CONTINUOUS
 62
     7
 66
     1
 10
0.0
 20
0.0
 30
0.0
 70
     1
  0
VERTEX
  5
222
  8
DATA
  6
CONTINUOUS
 62
     7
 10
372.5
 20
-1000.0
 30
0.0
  0
VERTEX
  5
223
  8
DATA
  6
CONTINUOUS
 62
     7
 10
512.5
 20
-1000.0
 30
0.0
  0
VERTEX
  5
224
  8
DATA
  6
CONTINUOUS
 62
     7
 10
512.5
 20
-1001.6
 30
0.0
  0
VERTEX
  5
225
  8
DATA
  6
CONTINUOUS
 62
     7
 10
372.5
 20
-1001.6
 30
0.0
  0
SEQEND
  5
240
  8
DATA
  6
CONTINUOUS
 62
     7
  0
POLYLINE
  5
C8
  8
DATA
  6
CONTINUOUS
 62
     7
 66
     1
 10
0.0
 20
0.0
 30
0.0
 70
     1
  0
VERTEX
  5
226
  8
DATA
  6
CONTINUOUS
 62
     7
 10
-712.5
 20
-1000.0
 30
0.0
  0
VERTEX
  5
227
  8
DATA
  6
CONTINUOUS
 62
     7
 10
-572.5
 20
-1000.0
 30
0.0
  0
VERTEX
  5
228
  8
DATA
  6
CONTINUOUS
 62
     7
 10
-572.5
 20
-1001.6
 30
0.0
  0
VERTEX
  5
229
  8
DATA
  6
CONTINUOUS
 62
     7
 10
-712.5
 20
-1001.6
 30
0.0
  0
SEQEND
  5
241
  8
DATA
  6
CONTINUOUS
 62
     7
  0
POLYLINE
  5
CF
  8
DATA
  6
CONTINUOUS
 62
     7
 66
     1
 10
0.0
 20
0.0
 30
0.0
 70
     1
  0
VERTEX
  5
22A
  8
DATA
  6
CONTINUOUS
 62
     7
 10
-350.8333333333333
 20
-1000.0
 30
0.0
  0
VERTEX
  5
22B
  8
DATA
  6
CONTINUOUS
 62
     7
 10
-210.8333333333333
 20
-1000.0
 30
0.0
  0
VERTEX
  5
22C
  8
DATA
  6
CONTINUOUS
 62
     7
 10
-210.8333333333333
 20
-1001.6
 30
0.0
  0
VERTEX
  5
22D
  8
DATA
  6
CONTINUOUS
 62
     7
 10
-350.8333333333333
 20
-1001.6
 30
0.0
  0
SEQEND
  5
242
  8
DATA
  6
CONTINUOUS
 62
     7
  0
POLYLINE
  5
D6
  8
DATA
  6
CONTINUOUS
 62
     7
 66
     1
 10
0.0
 20
0.0
 30
0.0
 70
     1
  0
VERTEX
  5
22E
  8
DATA
  6
CONTINUOUS
 62
     7
 10
10.83333333333337
 20
-1000.0
 30
0.0
  0
VERTEX
  5
22F
  8
DATA
  6
CONTINUOUS
 62
     7
 10
150.8333333333334
 20
-1000.0
 30
0.0
  0
VERTEX
  5
230
  8
DATA
  6
CONTINUOUS
 62
     7
 10
150.8333333333334
 20
-1001.6
 30
0.0
  0
VERTEX
  5
231
  8
DATA
  6
CONTINUOUS
 62
     7
 10
10.83333333333337
 20
-1001.6
 30
0.0
  0
SEQEND
  5
243
  8
DATA
  6
CONTINUOUS
 62
     7
  0
LINE
  5
DD
  8
DATA
  6
CONTINUOUS
 62
     7
 10
-759.0
 20
-996.4
 30
0.0
 11
559.0
 21
-996.4
 31
0.0
  0
LINE
  5
DE
  8
DATA
  6
CONTINUOUS
 62
     7
 10
550.9333755493975
 20
-947.7952720051235
 30
0.0
 11
402.1593118948997
 21
-873.6740121113528
 31
0.0
  0
CIRCLE
  5
DF
  8
DATA
  6
CONTINUOUS
 62
     7
 10
547.5
 20
-973.0
 30
0.0
 40
4.0
  0
ARC
  5
E0
  8
DATA
  6
CONTINUOUS
 62
     7
 10
544.0
 20
-961.0967119080444
 30
0.0
 40
15.0
 50
0.0
 51
62.46922149413343
  0
ARC
  5
E1
  8
DATA
  6
CONTINUOUS
 62
     7
 10
-744.0
 20
-961.0967119080443
 30
0.0
 40
14.99999999999998
 50
117.5307785058672
 51
180.0000000000004
  0
CIRCLE
  5
E2
  8
DATA
  6
CONTINUOUS
 62
     7
 10
-747.5
 20
-973.0
 30
0.0
 40
4.0
  0
CIRCLE
  5
E3
  8
DATA
  6
CONTINUOUS
 62
     7
 10
386.75
 20
-896.15
 30
0.0
 40
10.25
  0
CIRCLE
  5
E4
  8
DATA
  6
CONTINUOUS
 62
     7
 10
306.75
 20
-896.15
 30
0.0
 40
10.25
  0
CIRCLE
  5
E5
  8
DATA
  6
CONTINUOUS
 62
     7
 10
-100.0
 20
-896.15
 30
0.0
 40
10.25
  0
CIRCLE
  5
E6
  8
DATA
  6
CONTINUOUS
 62
     7
 10
-586.75
 20
-896.15
 30
0.0
 40
10.25
  0
CIRCLE
  5
E7
  8
DATA
  6
CONTINUOUS
 62
     7
 10
-506.75
 20
-896.15
 30
0.0
 40
10.25
  0
LINE
  5
E8
  8
DATA
  6
CONTINUOUS
 62
     7
 10
428.7430939331333
 20
-967.9
 30
0.0
 11
490.2999999999997
 21
-967.9
 31
0.0
  0
LINE
  5
E9
  8
DATA
  6
CONTINUOUS
 62
     7
 10
495.2663654198586
 20
-947.6277254831109
 30
0.0
 11
415.6559033665849
 21
-906.1307721378421
 31
0.0
  0
ARC
  5
EA
  8
DATA
  6
CONTINUOUS
 62
     7
 10
490.3000000000001
 20
-957.1555248497461
 30
0.0
 40
10.74447515025383
 50
269.9999999999994
 51
62.46922149413303
  0
LINE
  5
EB
  8
DATA
  6
CONTINUOUS
 62
     7
 10
398.406621076375
 20
-924.587071079648
 30
0.0
 11
424.5261367040689
 21
-965.5864980417341
 31
0.0
  0
ARC
  5
EC
  8
DATA
  6
CONTINUOUS
 62
     7
 10
386.75
 20
-896.15
 30
0.0
 40
25.24999999999995
 50
301.6511719403879
 51
331.5419481509542
  0
ARC
  5
ED
  8
DATA
  6
CONTINUOUS
 62
     7
 10
428.7430939331333
 20
-962.9
 30
0.0
 40
4.999999999999936
 50
212.5000000000006
 51
270.0000000000007
  0
ARC
  5
EE
  8
DATA
  6
CONTINUOUS
 62
     7
 10
402.6235783054375
 20
-921.9005730379151
 30
0.0
 40
4.999999999997712
 50
121.6511719403618
 51
212.4999999999997
  0
ARC
  5
EF
  8
DATA
  6
CONTINUOUS
 62
     7
 10
413.3447781834527
 20
-910.5645854388149
 30
0.0
 40
4.999999999999213
 50
62.46922149413308
 51
151.5419481509621
  0
LINE
  5
F0
  8
DATA
  6
CONTINUOUS
 62
     7
 10
320.0000000000002
 20
-967.9
 30
0.0
 11
381.0
 21
-967.9
 31
0.0
  0
ARC
  5
F1
  8
DATA
  6
CONTINUOUS
 62
     7
 10
359.5615841764891
 20
-931.4
 30
0.0
 40
5.000000000000004
 50
34.23860126209119
 51
128.5277488915286
  0
ARC
  5
F2
  8
DATA
  6
CONTINUOUS
 62
     7
 10
320.0000000000002
 20
-962.900000000001
 30
0.0
 40
4.99999999999895
 50
122.4999999999962
 51
269.9999999999974
  0
ARC
  5
F3
  8
DATA
  6
CONTINUOUS
 62
     7
 10
381.0
 20
-962.9000000000001
 30
0.0
 40
4.999999999999886
 50
270.0
 51
34.23860126209047
  0
LINE
  5
F4
  8
DATA
  6
CONTINUOUS
 62
     7
 10
363.6950926778903
 20
-928.5867976487917
 30
0.0
 11
385.1335085014013
 21
-960.0867976487917
 31
0.0
  0
LINE
  5
F5
  8
DATA
  6
CONTINUOUS
 62
     7
 10
316.8855320590141
 20
-958.9884671234194
 30
0.0
 11
356.4471162355032
 21
-927.4884671234194
 31
0.0
  0
ARC
  5
F6
  8
DATA
  6
CONTINUOUS
 62
     7
 10
306.75
 20
-896.15
 30
0.0
 40
26.25
 50
182.292442775955
 51
242.6064464046111
  0
LINE
  5
F7
  8
DATA
  6
CONTINUOUS
 62
     7
 10
214.0000000000009
 20
-892.4
 30
0.0
 11
275.5250100080081
 21
-892.4
 31
0.0
  0
LINE
  5
F8
  8
DATA
  6
CONTINUOUS
 62
     7
 10
295.7136569638028
 20
-927.6150576701757
 30
0.0
 11
259.1797248768218
 21
-960.4414765723109
 31
0.0
  0
ARC
  5
F9
  8
DATA
  6
CONTINUOUS
 62
     7
 10
256.2671301696814
 20
-956.37739093444
 30
0.0
 40
5.000000000001034
 50
215.6279072914196
 51
318.2526631895369
  0
ARC
  5
FA
  8
DATA
  6
CONTINUOUS
 62
     7
 10
214.0000000000008
 20
-897.4000000000011
 30
0.0
 40
5.000000000000796
 50
90.00000000000034
 51
215.6279072914189
  0
LINE
  5
FB
  8
DATA
  6
CONTINUOUS
 62
     7
 10
252.9359143621294
 20
-960.3125947071416
 30
0.0
 11
209.9359143621303
 21
-900.3125947071414
 31
0.0
  0
ARC
  5
FC
  8
DATA
  6
CONTINUOUS
 62
     7
 10
292.3718783472668
 20
-923.895848657757
 30
0.0
 40
4.999999999999338
 50
311.9402852404752
 51
62.60644640461739
  0
ARC
  5
FD
  8
DATA
  6
CONTINUOUS
 62
     7
 10
275.525010008008
 20
-897.4
 30
0.0
 40
5.000000000000052
 50
2.292442775956385
 51
90.0
  0
LINE
  5
FE
  8
DATA
  6
CONTINUOUS
 62
     7
 10
126.0
 20
-967.9
 30
0.0
 11
206.0
 21
-967.9
 31
0.0
  0
ARC
  5
FF
  8
DATA
  6
CONTINUOUS
 62
     7
 10
176.0
 20
-929.4
 30
0.0
 40
5.000000000000018
 50
41.84515713520754
 51
123.8220852174949
  0
ARC
  5
100
  8
DATA
  6
CONTINUOUS
 62
     7
 10
126.0
 20
-962.9
 30
0.0
 40
4.999999999999956
 50
123.8220852174946
 51
270.0
  0
ARC
  5
101
  8
DATA
  6
CONTINUOUS
 62
     7
 10
206.0
 20
-962.8999999999999
 30
0.0
 40
5.000000000000114
 50
270.0
 51
41.84515713520659
  0
LINE
  5
102
  8
DATA
  6
CONTINUOUS
 62
     7
 10
123.2169205737973
 20
-958.7461501101451
 30
0.0
 11
173.2169205737973
 21
-925.2461501101451
 31
0.0
  0
LINE
  5
103
  8
DATA
  6
CONTINUOUS
 62
     7
 10
179.7247522342204
 20
-926.0644009842803
 30
0.0
 11
209.7247522342204
 21
-959.5644009842803
 31
0.0
  0
LINE
  5
104
  8
DATA
  6
CONTINUOUS
 62
     7
 10
-22.0
 20
-892.4
 30
0.0
 11
146.0
 21
-892.4
 31
0.0
  0
ARC
  5
105
  8
DATA
  6
CONTINUOUS
 62
     7
 10
-22.0
 20
-897.4
 30
0.0
 40
5.0
 50
90.0
 51
229.0567378612944
  0
ARC
  5
106
  8
DATA
  6
CONTINUOUS
 62
     7
 10
146.0
 20
-897.4
 30
0.0
 40
4.999999999999988
 50
305.3026195024663
 51
90.0
  0
ARC
  5
107
  8
DATA
  6
CONTINUOUS
 62
     7
 10
53.49999999999997
 20
-962.9
 30
0.0
 40
4.999999999999947
 50
229.0567378612938
 51
305.3026195024678
  0
LINE
  5
108
  8
DATA
  6
CONTINUOUS
 62
     7
 10
50.22344326573898
 20
-966.6767944036138
 30
0.0
 11
-25.27655673426102
 21
-901.1767944036138
 31
0.0
  0
LINE
  5
109
  8
DATA
  6
CONTINUOUS
 62
     7
 10
148.8894746836369
 20
-901.4805558509377
 30
0.0
 11
56.38947468363691
 21
-966.9805558509377
 31
0.0
  0
LINE
  5
10A
  8
DATA
  6
CONTINUOUS
 62
     7
 10
-636.7430939331334
 20
-967.9
 30
0.0
 11
-698.2999999999997
 21
-967.9
 31
0.0
  0
LINE
  5
10B
  8
DATA
  6
CONTINUOUS
 62
     7
 10
-703.2663654198586
 20
-947.6277254831109
 30
0.0
 11
-623.655903366585
 21
-906.1307721378421
 31
0.0
  0
ARC
  5
10C
  8
DATA
  6
CONTINUOUS
 62
     7
 10
-698.3000000000001
 20
-957.1555248497461
 30
0.0
 40
10.74447515025387
 50
117.530778505867
 51
270.0000000000006
  0
LINE
  5
10D
  8
DATA
  6
CONTINUOUS
 62
     7
 10
-606.406621076375
 20
-924.587071079648
 30
0.0
 11
-632.5261367040689
 21
-965.5864980417341
 31
0.0
  0
ARC
  5
10E
  8
DATA
  6
CONTINUOUS
 62
     7
 10
-594.75
 20
-896.15
 30
0.0
 40
25.24999999999998
 50
208.4580518490458
 51
238.3488280596122
  0
ARC
  5
10F
  8
DATA
  6
CONTINUOUS
 62
     7
 10
-636.7430939331333
 20
-962.9
 30
0.0
 40
5.0
 50
269.9999999999987
 51
327.4999999999998
  0
ARC
  5
110
  8
DATA
  6
CONTINUOUS
 62
     7
 10
-610.6235783054376
 20
-921.9005730379151
 30
0.0
 40
4.999999999997778
 50
327.5000000000007
 51
58.3488280596365
  0
ARC
  5
111
  8
DATA
  6
CONTINUOUS
 62
     7
 10
-621.3447781834527
 20
-910.5645854388149
 30
0.0
 40
4.99999999999919
 50
28.45805184903796
 51
117.5307785058669
  0
LINE
  5
112
  8
DATA
  6
CONTINUOUS
 62
     7
 10
-528.0000000000002
 20
-967.9
 30
0.0
 11
-589.0
 21
-967.9
 31
0.0
  0
ARC
  5
113
  8
DATA
  6
CONTINUOUS
 62
     7
 10
-567.5615841764891
 20
-931.4
 30
0.0
 40
5.00000000000005
 50
51.47225110847145
 51
145.7613987379088
  0
ARC
  5
114
  8
DATA
  6
CONTINUOUS
 62
     7
 10
-528.0000000000002
 20
-962.900000000001
 30
0.0
 40
4.999999999998977
 50
270.0000000000026
 51
57.50000000000441
  0
ARC
  5
115
  8
DATA
  6
CONTINUOUS
 62
     7
 10
-589.0
 20
-962.9000000000001
 30
0.0
 40
4.99999999999994
 50
145.7613987379099
 51
270.0
  0
LINE
  5
116
  8
DATA
  6
CONTINUOUS
 62
     7
 10
-571.6950926778904
 20
-928.5867976487917
 30
0.0
 11
-593.1335085014014
 21
-960.0867976487917
 31
0.0
  0
LINE
  5
117
  8
DATA
  6
CONTINUOUS
 62
     7
 10
-524.8855320590142
 20
-958.9884671234194
 30
0.0
 11
-564.4471162355032
 21
-927.4884671234194
 31
0.0
  0
ARC
  5
118
  8
DATA
  6
CONTINUOUS
 62
     7
 10
-514.75
 20
-896.15
 30
0.0
 40
26.25000000000002
 50
297.3935535953889
 51
357.7075572240449
  0
LINE
  5
119
  8
DATA
  6
CONTINUOUS
 62
     7
 10
-422.0000000000009
 20
-892.4
 30
0.0
 11
-483.5250100080081
 21
-892.4
 31
0.0
  0
LINE
  5
11A
  8
DATA
  6
CONTINUOUS
 62
     7
 10
-503.7136569638028
 20
-927.6150576701757
 30
0.0
 11
-467.1797248768218
 21
-960.4414765723109
 31
0.0
  0
ARC
  5
11B
  8
DATA
  6
CONTINUOUS
 62
     7
 10
-464.2671301696814
 20
-956.37739093444
 30
0.0
 40
5.000000000001059
 50
221.7473368104627
 51
324.3720927085799
  0
ARC
  5
11C
  8
DATA
  6
CONTINUOUS
 62
     7
 10
-422.0000000000009
 20
-897.4000000000011
 30
0.0
 40
5.000000000000763
 50
324.3720927085814
 51
89.99999999999866
  0
LINE
  5
11D
  8
DATA
  6
CONTINUOUS
 62
     7
 10
-460.9359143621293
 20
-960.3125947071416
 30
0.0
 11
-417.9359143621303
 21
-900.3125947071414
 31
0.0
  0
ARC
  5
11E
  8
DATA
  6
CONTINUOUS
 62
     7
 10
-500.3718783472668
 20
-923.895848657757
 30
0.0
 40
4.999999999999275
 50
117.3935535953832
 51
228.0597147595248
  0
ARC
  5
11F
  8
DATA
  6
CONTINUOUS
 62
     7
 10
-483.5250100080081
 20
-897.4
 30
0.0
 40
5.0
 50
90.0
 51
177.7075572240436
  0
LINE
  5
120
  8
DATA
  6
CONTINUOUS
 62
     7
 10
-334.0
 20
-967.9
 30
0.0
 11
-414.0
 21
-967.9
 31
0.0
  0
ARC
  5
121
  8
DATA
  6
CONTINUOUS
 62
     7
 10
-384.0
 20
-929.4
 30
0.0
 40
4.999999999999972
 50
56.17791478250515
 51
138.1548428647927
  0
ARC
  5
122
  8
DATA
  6
CONTINUOUS
 62
     7
 10
-334.0
 20
-962.9
 30
0.0
 40
5.0
 50
270.0
 51
56.17791478250624
  0
ARC
  5
123
  8
DATA
  6
CONTINUOUS
 62
     7
 10
-414.0
 20
-962.8999999999999
 30
0.0
 40
4.999999999999963
 50
138.1548428647937
 51
270.0
  0
LINE
  5
124
  8
DATA
  6
CONTINUOUS
 62
     7
 10
-331.2169205737973
 20
-958.7461501101451
 30
0.0
 11
-381.2169205737973
 21
-925.2461501101451
 31
0.0
  0
LINE
  5
125
  8
DATA
  6
CONTINUOUS
 62
     7
 10
-387.7247522342204
 20
-926.0644009842803
 30
0.0
 11
-417.7247522342204
 21
-959.5644009842803
 31
0.0
  0
LINE
  5
126
  8
DATA
  6
CONTINUOUS
 62
     7
 10
-186.0
 20
-892.4
 30
0.0
 11
-354.0
 21
-892.4
 31
0.0
  0
ARC
  5
127
  8
DATA
  6
CONTINUOUS
 62
     7
 10
-186.0
 20
-897.4
 30
0.0
 40
5.000000000000013
 50
310.9432621387052
 51
89.99999999999997
  0
ARC
  5
128
  8
DATA
  6
CONTINUOUS
 62
     7
 10
-354.0
 20
-897.4
 30
0.0
 40
5.0
 50
90.0
 51
234.6973804975332
  0
ARC
  5
129
  8
DATA
  6
CONTINUOUS
 62
     7
 10
-261.5
 20
-962.9
 30
0.0
 40
4.999999999999927
 50
234.6973804975325
 51
310.9432621387061
  0
LINE
  5
12A
  8
DATA
  6
CONTINUOUS
 62
     7
 10
-258.223443265739
 20
-966.6767944036138
 30
0.0
 11
-182.723443265739
 21
-901.1767944036138
 31
0.0
  0
LINE
  5
12B
  8
DATA
  6
CONTINUOUS
 62
     7
 10
-356.889474683637
 20
-901.4805558509377
 30
0.0
 11
-264.389474683637
 21
-966.9805558509377
 31
0.0
  0
LINE
  5
12C
  8
DATA
  6
CONTINUOUS
 62
     7
 10
-595.4703023109703
 20
-872.1
 30
0.0
 11
395.4703023109704
 21
-872.1
 31
0.0
  0
LINE
  5
12D
  8
DATA
  6
CONTINUOUS
 62
     7
 10
-591.0
 20
-868.6
 30
0.0
 11
-591.0
 21
-872.1
 31
0.0
  0
LINE
  5
12E
  8
DATA
  6
CONTINUOUS
 62
     7
 10
391.0
 20
-868.6
 30
0.0
 11
391.0
 21
-872.1
 31
0.0
  0
ARC
  5
12F
  8
DATA
  6
CONTINUOUS
 62
     7
 10
395.4703023109702
 20
-887.1
 30
0.0
 40
15.00000000000011
 50
63.51689046376536
 51
89.99999999999913
  0
LINE
  5
130
  8
DATA
  6
CONTINUOUS
 62
     7
 10
-750.9333755493974
 20
-947.7952720051235
 30
0.0
 11
-602.1593118948996
 21
-873.6740121113528
 31
0.0
  0
ARC
  5
131
  8
DATA
  6
CONTINUOUS
 62
     7
 10
-595.4703023109705
 20
-887.1000000000001
 30
0.0
 40
15.00000000000011
 50
89.99999999999913
 51
116.4831095362329
  0
LINE
  5
132
  8
DATA
  6
CONTINUOUS
 62
     7
 10
527.8196601125009
 20
-738.9
 30
0.0
 11
391.8655927938304
 21
-738.9
 31
0.0
  0
LINE
  5
133
  8
DATA
  6
CONTINUOUS
 62
     7
 10
-590.1344072061696
 20
-738.9
 30
0.0
 11
-727.819660112501
 21
-738.9
 31
0.0
  0
LINE
  5
134
  8
DATA
  6
CONTINUOUS
 62
     7
 10
527.819660112501
 20
-761.1
 30
0.0
 11
391.8655927938304
 21
-761.1
 31
0.0
  0
LINE
  5
135
  8
DATA
  6
CONTINUOUS
 62
     7
 10
-590.1344072061695
 20
-761.1
 30
0.0
 11
-726.0884745248402
 21
-761.1
 31
0.0
  0
LINE
  5
136
  8
DATA
  6
CONTINUOUS
 62
     7
 10
-726.0884745248402
 20
-761.1
 30
0.0
 11
-727.819660112501
 21
-761.1
 31
0.0
  0
LINE
  5
137
  8
DATA
  6
CONTINUOUS
 62
     7
 10
527.8196601125009
 20
-742.4
 30
0.0
 11
391.8655927938304
 21
-742.4
 31
0.0
  0
LINE
  5
138
  8
DATA
  6
CONTINUOUS
 62
     7
 10
-590.1344072061696
 20
-742.4
 30
0.0
 11
-727.819660112501
 21
-742.4
 31
0.0
  0
LINE
  5
139
  8
DATA
  6
CONTINUOUS
 62
     7
 10
527.819660112501
 20
-757.6
 30
0.0
 11
391.8655927938304
 21
-757.6
 31
0.0
  0
LINE
  5
13A
  8
DATA
  6
CONTINUOUS
 62
     7
 10
-590.1344072061697
 20
-757.6
 30
0.0
 11
-727.819660112501
 21
-757.6
 31
0.0
  0
LINE
  5
13B
  8
DATA
  6
CONTINUOUS
 62
     7
 10
-736.0
 20
-745.9000000000002
 30
0.0
 11
-759.0
 21
-745.9000000000002
 31
0.0
  0
LINE
  5
13C
  8
DATA
  6
CONTINUOUS
 62
     7
 10
-737.180339887499
 20
-742.4000000000002
 30
0.0
 11
-759.0
 21
-742.4000000000002
 31
0.0
  0
LINE
  5
13D
  8
DATA
  6
CONTINUOUS
 62
     7
 10
-734.9442719099991
 20
-745.3721359549997
 30
0.0
 11
-730.0557280900009
 21
-742.9278640450004
 31
0.0
  0
LINE
  5
13E
  8
DATA
  6
CONTINUOUS
 62
     7
 10
-734.9442719099991
 20
-741.8721359549997
 30
0.0
 11
-730.0557280900009
 21
-739.4278640450004
 31
0.0
  0
LINE
  5
13F
  8
DATA
  6
CONTINUOUS
 62
     7
 10
-736.0
 20
-754.0999999999998
 30
0.0
 11
-759.0
 21
-754.0999999999998
 31
0.0
  0
LINE
  5
140
  8
DATA
  6
CONTINUOUS
 62
     7
 10
-737.180339887499
 20
-757.5999999999998
 30
0.0
 11
-759.0
 21
-757.5999999999998
 31
0.0
  0
LINE
  5
141
  8
DATA
  6
CONTINUOUS
 62
     7
 10
-734.9442719099991
 20
-754.6278640450003
 30
0.0
 11
-730.0557280900009
 21
-757.0721359549996
 31
0.0
  0
LINE
  5
142
  8
DATA
  6
CONTINUOUS
 62
     7
 10
-734.9442719099991
 20
-758.1278640450003
 30
0.0
 11
-733.1653213362911
 21
-759.0173393318544
 31
0.0
  0
LINE
  5
143
  8
DATA
  6
CONTINUOUS
 62
     7
 10
-733.1653213362911
 20
-759.0173393318544
 30
0.0
 11
-730.0557280900009
 21
-760.5721359549996
 31
0.0
  0
ARC
  5
144
  8
DATA
  6
CONTINUOUS
 62
     7
 10
-737.180339887499
 20
-740.9000000000002
 30
0.0
 40
5.0
 50
270.0
 51
296.5650511770797
  0
ARC
  5
145
  8
DATA
  6
CONTINUOUS
 62
     7
 10
-737.180339887499
 20
-737.4000000000002
 30
0.0
 40
5.0
 50
270.0
 51
296.5650511770797
  0
ARC
  5
146
  8
DATA
  6
CONTINUOUS
 62
     7
 10
-727.819660112501
 20
-743.9000000000001
 30
0.0
 40
5.000000000000114
 50
90.0
 51
116.5650511770792
  0
ARC
  5
147
  8
DATA
  6
CONTINUOUS
 62
     7
 10
-727.819660112501
 20
-747.4000000000001
 30
0.0
 40
5.000000000000114
 50
90.0
 51
116.5650511770792
  0
ARC
  5
148
  8
DATA
  6
CONTINUOUS
 62
     7
 10
-727.8196601125012
 20
-752.6
 30
0.0
 40
4.999999999999935
 50
243.4349488229226
 51
270.0000000000026
  0
ARC
  5
149
  8
DATA
  6
CONTINUOUS
 62
     7
 10
-737.180339887499
 20
-759.0999999999998
 30
0.0
 40
5.000000000000037
 50
63.43494882292026
 51
90.0
  0
ARC
  5
14A
  8
DATA
  6
CONTINUOUS
 62
     7
 10
-737.1803398874988
 20
-762.5999999999998
 30
0.0
 40
4.999999999999935
 50
63.43494882292259
 51
90.00000000000261
  0
ARC
  5
14B
  8
DATA
  6
CONTINUOUS
 62
     7
 10
-727.819660112501
 20
-756.1
 30
0.0
 40
5.000000000000037
 50
243.4349488229202
 51
270.0
  0
LINE
  5
14C
  8
DATA
  6
CONTINUOUS
 62
     7
 10
536.0
 20
-745.9000000000002
 30
0.0
 11
559.0
 21
-745.9000000000002
 31
0.0
  0
LINE
  5
14D
  8
DATA
  6
CONTINUOUS
 62
     7
 10
537.180339887499
 20
-742.4000000000002
 30
0.0
 11
559.0
 21
-742.4000000000002
 31
0.0
  0
LINE
  5
14E
  8
DATA
  6
CONTINUOUS
 62
     7
 10
534.9442719099991
 20
-745.3721359549997
 30
0.0
 11
530.0557280900008
 21
-742.9278640450004
 31
0.0
  0
LINE
  5
14F
  8
DATA
  6
CONTINUOUS
 62
     7
 10
534.9442719099991
 20
-741.8721359549997
 30
0.0
 11
530.0557280900008
 21
-739.4278640450004
 31
0.0
  0
LINE
  5
150
  8
DATA
  6
CONTINUOUS
 62
     7
 10
536.0
 20
-754.0999999999998
 30
0.0
 11
559.0
 21
-754.0999999999998
 31
0.0
  0
LINE
  5
151
  8
DATA
  6
CONTINUOUS
 62
     7
 10
537.180339887499
 20
-757.5999999999998
 30
0.0
 11
559.0
 21
-757.5999999999998
 31
0.0
  0
LINE
  5
152
  8
DATA
  6
CONTINUOUS
 62
     7
 10
534.9442719099991
 20
-754.6278640450003
 30
0.0
 11
530.0557280900009
 21
-757.0721359549996
 31
0.0
  0
LINE
  5
153
  8
DATA
  6
CONTINUOUS
 62
     7
 10
534.9442719099991
 20
-758.1278640450003
 30
0.0
 11
530.0557280900009
 21
-760.5721359549996
 31
0.0
  0
ARC
  5
154
  8
DATA
  6
CONTINUOUS
 62
     7
 10
537.180339887499
 20
-740.9000000000002
 30
0.0
 40
5.000000000000037
 50
243.4349488229202
 51
270.0
  0
ARC
  5
155
  8
DATA
  6
CONTINUOUS
 62
     7
 10
537.180339887499
 20
-737.4000000000002
 30
0.0
 40
5.000000000000037
 50
243.4349488229202
 51
270.0
  0
ARC
  5
156
  8
DATA
  6
CONTINUOUS
 62
     7
 10
537.180339887499
 20
-759.0999999999998
 30
0.0
 40
5.0
 50
90.0
 51
116.5650511770798
  0
ARC
  5
157
  8
DATA
  6
CONTINUOUS
 62
     7
 10
537.1803398874988
 20
-762.5999999999998
 30
0.0
 40
5.0
 50
89.99999999999739
 51
116.5650511770774
  0
ARC
  5
158
  8
DATA
  6
CONTINUOUS
 62
     7
 10
527.819660112501
 20
-743.9
 30
0.0
 40
4.999999999999986
 50
63.43494882292143
 51
90.00000000000132
  0
ARC
  5
159
  8
DATA
  6
CONTINUOUS
 62
     7
 10
527.819660112501
 20
-747.4
 30
0.0
 40
4.999999999999986
 50
63.43494882292143
 51
90.00000000000132
  0
ARC
  5
15A
  8
DATA
  6
CONTINUOUS
 62
     7
 10
527.8196601125011
 20
-752.6
 30
0.0
 40
5.0
 50
269.9999999999987
 51
296.5650511770785
  0
ARC
  5
15B
  8
DATA
  6
CONTINUOUS
 62
     7
 10
527.8196601125011
 20
-756.0999999999999
 30
0.0
 40
5.000000000000114
 50
269.9999999999987
 51
296.565051177078
  0
POLYLINE
  5
15C
  8
DATA
  6
CONTINUOUS
 62
     7
 66
     1
 10
0.0
 20
0.0
 30
0.0
 70
     1
  0
VERTEX
  5
232
  8
DATA
  6
CONTINUOUS
 62
     7
 10
-590.1344072061696
 20
-736.9000000000001
 30
0.0
  0
VERTEX
  5
233
  8
DATA
  6
CONTINUOUS
 62
     7
 10
391.8655927938304
 20
-736.9000000000001
 30
0.0
  0
VERTEX
  5
234
  8
DATA
  6
CONTINUOUS
 62
     7
 10
391.8655927938304
 20
-763.1
 30
0.0
  0
VERTEX
  5
235
  8
DATA
  6
CONTINUOUS
 62
     7
 10
-590.1344072061696
 20
-763.1
 30
0.0
  0
SEQEND
  5
244
  8
DATA
  6
CONTINUOUS
 62
     7
  0
CIRCLE
  5
163
  8
DATA
  6
CONTINUOUS
 62
     7
 10
427.0
 20
-981.4
 30
0.0
 40
3.0
  0
CIRCLE
  5
164
  8
DATA
  6
CONTINUOUS
 62
     7
 10
-627.0
 20
-981.4
 30
0.0
 40
4.299999999999955
  0
LINE
  5
165
  8
DATA
  6
CONTINUOUS
 62
     7
 10
422.0
 20
-737.3
 30
0.0
 11
440.0
 21
-737.3
 31
0.0
  0
LINE
  5
166
  8
DATA
  6
CONTINUOUS
 62
     7
 10
422.0
 20
-738.9
 30
0.0
 11
422.0
 21
-737.3
 31
0.0
  0
LINE
  5
167
  8
DATA
  6
CONTINUOUS
 62
     7
 10
440.0
 20
-737.3
 30
0.0
 11
456.5668789808919
 21
-732.4273885350318
 31
0.0
  0
LINE
  5
168
  8
DATA
  6
CONTINUOUS
 62
     7
 10
440.0
 20
-738.9
 30
0.0
 11
457.0
 21
-733.9
 31
0.0
  0
LINE
  5
169
  8
DATA
  6
CONTINUOUS
 62
     7
 10
457.0
 20
-733.9
 30
0.0
 11
456.5668789808919
 21
-732.4273885350318
 31
0.0
  0
LINE
  5
16A
  8
DATA
  6
CONTINUOUS
 62
     7
 10
-652.0
 20
-987.9
 30
0.0
 11
-627.0
 21
-987.9
 31
0.0
  0
LINE
  5
16B
  8
DATA
  6
CONTINUOUS
 62
     7
 10
-627.0
 20
-974.9
 30
0.0
 11
-652.0
 21
-974.9
 31
0.0
  0
ARC
  5
16C
  8
DATA
  6
CONTINUOUS
 62
     7
 10
-628.7249999999999
 20
-981.4
 30
0.0
 40
6.724999999999977
 50
284.8628159423442
 51
75.13718405765573
  0
ARC
  5
16D
  8
DATA
  6
CONTINUOUS
 62
     7
 10
-650.2750000000001
 20
-981.4
 30
0.0
 40
6.724999999999977
 50
104.8628159423443
 51
255.1371840576558
  0
CIRCLE
  5
16E
  8
DATA
  6
CONTINUOUS
 62
     7
 10
-652.0
 20
-981.4
 30
0.0
 40
1.600000000000136
  0
LINE
  5
16F
  8
DATA
  6
CONTINUOUS
 62
     7
 10
-640.0
 20
-987.9
 30
0.0
 11
-640.0
 21
-974.9
 31
0.0
  0
CIRCLE
  5
170
  8
DATA
  6
CONTINUOUS
 62
     7
 10
-627.0
 20
-981.4
 30
0.0
 40
1.399999999999977
  0
LINE
  5
171
  8
DATA
  6
CONTINUOUS
 62
     7
 10
422.7
 20
-735.96
 30
0.0
 11
431.3
 21
-735.96
 31
0.0
  0
LINE
  5
172
  8
DATA
  6
CONTINUOUS
 62
     7
 10
422.7
 20
-735.96
 30
0.0
 11
422.7
 21
-737.3
 31
0.0
  0
LINE
  5
173
  8
DATA
  6
CONTINUOUS
 62
     7
 10
431.3
 20
-735.96
 30
0.0
 11
431.3
 21
-737.3
 31
0.0
  0
LINE
  5
174
  8
DATA
  6
CONTINUOUS
 62
     7
 10
-622.0
 20
-762.7
 30
0.0
 11
-640.0
 21
-762.7
 31
0.0
  0
LINE
  5
175
  8
DATA
  6
CONTINUOUS
 62
     7
 10
-622.0
 20
-761.1
 30
0.0
 11
-622.0
 21
-762.7
 31
0.0
  0
LINE
  5
176
  8
DATA
  6
CONTINUOUS
 62
     7
 10
-640.0
 20
-762.7
 30
0.0
 11
-656.5668789808919
 21
-767.5726114649682
 31
0.0
  0
LINE
  5
177
  8
DATA
  6
CONTINUOUS
 62
     7
 10
-640.0
 20
-761.1
 30
0.0
 11
-657.0
 21
-766.1
 31
0.0
  0
LINE
  5
178
  8
DATA
  6
CONTINUOUS
 62
     7
 10
-657.0
 20
-766.1
 30
0.0
 11
-656.5668789808919
 21
-767.5726114649682
 31
0.0
  0
LINE
  5
179
  8
DATA
  6
CONTINUOUS
 62
     7
 10
-622.7
 20
-764.04
 30
0.0
 11
-631.3
 21
-764.04
 31
0.0
  0
LINE
  5
17A
  8
DATA
  6
CONTINUOUS
 62
     7
 10
-622.7
 20
-764.04
 30
0.0
 11
-622.7
 21
-762.7
 31
0.0
  0
LINE
  5
17B
  8
DATA
  6
CONTINUOUS
 62
     7
 10
-631.3
 20
-764.04
 30
0.0
 11
-631.3
 21
-762.7
 31
0.0
  0
LINE
  5
17C
  8
DATA
  6
CONTINUOUS
 62
     7
 10
424.0
 20
-764.3000000000001
 30
0.0
 11
430.0
 21
-764.3000000000001
 31
0.0
  0
LINE
  5
17D
  8
DATA
  6
CONTINUOUS
 62
     7
 10
424.0
 20
-764.3000000000001
 30
0.0
 11
424.0
 21
-761.1
 31
0.0
  0
LINE
  5
17E
  8
DATA
  6
CONTINUOUS
 62
     7
 10
430.0
 20
-764.3000000000001
 30
0.0
 11
430.0
 21
-761.1
 31
0.0
  0
LINE
  5
17F
  8
DATA
  6
CONTINUOUS
 62
     7
 10
-630.0
 20
-735.6999999999999
 30
0.0
 11
-624.0
 21
-735.6999999999999
 31
0.0
  0
LINE
  5
180
  8
DATA
  6
CONTINUOUS
 62
     7
 10
-630.0
 20
-735.6999999999999
 30
0.0
 11
-630.0
 21
-738.9
 31
0.0
  0
LINE
  5
181
  8
DATA
  6
CONTINUOUS
 62
     7
 10
-624.0
 20
-735.6999999999999
 30
0.0
 11
-624.0
 21
-738.9
 31
0.0
  0
LINE
  5
182
  8
DATA
  6
CONTINUOUS
 62
     7
 10
424.5
 20
-757.6
 30
0.0
 11
424.5
 21
-742.4
 31
0.0
  0
LINE
  5
183
  8
DATA
  6
CONTINUOUS
 62
     7
 10
429.5
 20
-757.6
 30
0.0
 11
429.5
 21
-742.4
 31
0.0
  0
LINE
  5
184
  8
DATA
  6
CONTINUOUS
 62
     7
 10
-624.5
 20
-757.6
 30
0.0
 11
-624.5
 21
-742.4
 31
0.0
  0
LINE
  5
185
  8
DATA
  6
CONTINUOUS
 62
     7
 10
-629.5
 20
-757.6
 30
0.0
 11
-629.5
 21
-742.4
 31
0.0
  0
POLYLINE
  5
186
  8
DATA
  6
CONTINUOUS
 62
     7
 66
     1
 10
0.0
 20
0.0
 30
0.0
 70
     1
  0
VERTEX
  5
236
  8
DATA
  6
CONTINUOUS
 62
     7
 10
593.5
 20
-996.3999999999999
 30
0.0
  0
VERTEX
  5
237
  8
DATA
  6
CONTINUOUS
 62
     7
 10
656.5
 20
-996.3999999999999
 30
0.0
  0
VERTEX
  5
238
  8
DATA
  6
CONTINUOUS
 62
     7
 10
656.5
 20
-1000.0
 30
0.0
  0
VERTEX
  5
239
  8
DATA
  6
CONTINUOUS
 62
     7
 10
593.5
 20
-1000.0
 30
0.0
  0
SEQEND
  5
245
  8
DATA
  6
CONTINUOUS
 62
     7
  0
LINE
  5
18D
  8
DATA
  6
CONTINUOUS
 62
     7
 10
629.0999999999998
 20
-940.3552614078549
 30
0.0
 11
629.0999999999998
 21
-996.3999999999999
 31
0.0
  0
LINE
  5
18E
  8
DATA
  6
CONTINUOUS
 62
     7
 10
632.5999999999998
 20
-940.3552614078549
 30
0.0
 11
632.5999999999998
 21
-996.3999999999999
 31
0.0
  0
LINE
  5
18F
  8
DATA
  6
CONTINUOUS
 62
     7
 10
620.9000000000002
 20
-940.3552614078549
 30
0.0
 11
620.9000000000002
 21
-996.3999999999999
 31
0.0
  0
LINE
  5
190
  8
DATA
  6
CONTINUOUS
 62
     7
 10
617.4000000000002
 20
-940.3552614078549
 30
0.0
 11
617.4000000000002
 21
-996.3999999999999
 31
0.0
  0
LINE
  5
191
  8
DATA
  6
CONTINUOUS
 62
     7
 10
617.4
 20
-872.1
 30
0.0
 11
617.4
 21
-936.8677662994244
 31
0.0
  0
LINE
  5
192
  8
DATA
  6
CONTINUOUS
 62
     7
 10
617.4000000000002
 20
-940.3552614078549
 30
0.0
 11
613.9
 21
-936.8677662994244
 31
0.0
  0
LINE
  5
193
  8
DATA
  6
CONTINUOUS
 62
     7
 10
617.4
 20
-936.8677662994244
 30
0.0
 11
620.9000000000002
 21
-940.3552614078549
 31
0.0
  0
LINE
  5
194
  8
DATA
  6
CONTINUOUS
 62
     7
 10
632.6
 20
-872.1
 30
0.0
 11
632.6
 21
-936.8677662994244
 31
0.0
  0
LINE
  5
195
  8
DATA
  6
CONTINUOUS
 62
     7
 10
636.1
 20
-872.1
 30
0.0
 11
636.1
 21
-996.3999999999999
 31
0.0
  0
LINE
  5
196
  8
DATA
  6
CONTINUOUS
 62
     7
 10
632.5999999999998
 20
-940.3552614078549
 30
0.0
 11
636.1
 21
-936.8677662994244
 31
0.0
  0
LINE
  5
197
  8
DATA
  6
CONTINUOUS
 62
     7
 10
632.6
 20
-936.8677662994244
 30
0.0
 11
629.0999999999998
 21
-940.3552614078549
 31
0.0
  0
LINE
  5
198
  8
DATA
  6
CONTINUOUS
 62
     7
 10
613.9
 20
-872.1
 30
0.0
 11
613.9
 21
-996.3999999999999
 31
0.0
  0
LINE
  5
199
  8
DATA
  6
CONTINUOUS
 62
     7
 10
611.9
 20
-872.1
 30
0.0
 11
636.1
 21
-872.1
 31
0.0
  0
POLYLINE
  5
19A
  8
DATA
  6
CONTINUOUS
 62
     7
 66
     1
 10
0.0
 20
0.0
 30
0.0
 70
     1
  0
VERTEX
  5
23A
  8
DATA
  6
CONTINUOUS
 62
     7
 10
611.9
 20
-868.6
 30
0.0
  0
VERTEX
  5
23B
  8
DATA
  6
CONTINUOUS
 62
     7
 10
638.0999999999999
 20
-868.6
 30
0.0
  0
VERTEX
  5
23C
  8
DATA
  6
CONTINUOUS
 62
     7
 10
638.0999999999999
 20
-872.1
 30
0.0
  0
VERTEX
  5
23D
  8
DATA
  6
CONTINUOUS
 62
     7
 10
611.9
 20
-872.1
 30
0.0
  0
SEQEND
  5
246
  8
DATA
  6
CONTINUOUS
 62
     7
  0
LINE
  5
1A1
  8
DATA
  6
CONTINUOUS
 62
     7
 10
637.7
 20
-974.9
 30
0.0
 11
637.7
 21
-987.9
 31
0.0
  0
LINE
  5
1A2
  8
DATA
  6
CONTINUOUS
 62
     7
 10
639.04
 20
-977.1
 30
0.0
 11
639.04
 21
-985.6999999999999
 31
0.0
  0
LINE
  5
1A3
  8
DATA
  6
CONTINUOUS
 62
     7
 10
639.04
 20
-977.1
 30
0.0
 11
637.7
 21
-977.1
 31
0.0
  0
LINE
  5
1A4
  8
DATA
  6
CONTINUOUS
 62
     7
 10
639.04
 20
-985.6999999999999
 30
0.0
 11
637.7
 21
-985.6999999999999
 31
0.0
  0
LINE
  5
1A5
  8
DATA
  6
CONTINUOUS
 62
     7
 10
610.6999999999999
 20
-978.4
 30
0.0
 11
610.6999999999999
 21
-984.4
 31
0.0
  0
LINE
  5
1A6
  8
DATA
  6
CONTINUOUS
 62
     7
 10
610.6999999999999
 20
-978.4
 30
0.0
 11
613.9
 21
-978.4
 31
0.0
  0
LINE
  5
1A7
  8
DATA
  6
CONTINUOUS
 62
     7
 10
610.6999999999999
 20
-984.4
 30
0.0
 11
613.9
 21
-984.4
 31
0.0
  0
LINE
  5
1A8
  8
DATA
  6
CONTINUOUS
 62
     7
 10
620.9000000000002
 20
-978.9
 30
0.0
 11
629.0999999999998
 21
-978.9
 31
0.0
  0
LINE
  5
1A9
  8
DATA
  6
CONTINUOUS
 62
     7
 10
620.9000000000002
 20
-983.9
 30
0.0
 11
629.0999999999998
 21
-983.9
 31
0.0
  0
LINE
  5
1AA
  8
DATA
  6
CONTINUOUS
 62
     7
 10
637.7
 20
-987.9
 30
0.0
 11
636.1
 21
-987.9
 31
0.0
  0
LINE
  5
1AB
  8
DATA
  6
CONTINUOUS
 62
     7
 10
636.1
 20
-974.9
 30
0.0
 11
637.7
 21
-974.9
 31
0.0
  0
TEXT
  5
1AC
  8
DATA
 62
     7
 10
1138.514872685185
 20
-527.1473524305555
 30
0.0
 40
54.29470486111116
  1
シャックル
 41
0.7
 72
     1
 11
1250.0
 21
-500.0
 31
0.0
 73
     2
  0
LINE
  5
1AD
  8
DATA
  6
CONTINUOUS
 62
     7
 10
1050.0
 20
-550.0
 30
0.0
 11
1450.0
 21
-550.0
 31
0.0
  0
LINE
  5
1AE
  8
DATA
  6
CONTINUOUS
 62
     7
 10
536.0
 20
-745.9000000000002
 30
0.0
 11
536.0
 21
-754.0999999999998
 31
0.0
  0
LINE
  5
1AF
  8
DATA
  6
CONTINUOUS
 62
     7
 10
-736.0
 20
-745.9000000000002
 30
0.0
 11
-736.0
 21
-754.0999999999998
 31
0.0
  0
ENDSEC
  0
EOF
