  0
SECTION
  2
HEADER
  9
$ACADVER
  1
AC1009
  9
$INSBASE
 10
0.0
 20
0.0
 30
0.0
  9
$EXTMIN
 10
-444.7935243309289
 20
-688.10956819777812
 30
-0.0015258207003583
  9
$EXTMAX
 10
455.2614073097597
 20
650.04075378504137
 30
0.0000000349246037
  9
$LIMMIN
 10
0.0
 20
0.0
  9
$LIMMAX
 10
0.0
 20
0.0
  9
$ORTHOMODE
 70
     0
  9
$REGENMODE
 70
     1
  9
$FILLMODE
 70
     1
  9
$QTEXTMODE
 70
     0
  9
$MIRRTEXT
 70
     1
  9
$DRAGMODE
 70
     2
  9
$LTSCALE
 40
25.399999999999999
  9
$OSMODE
 70
   231
  9
$ATTMODE
 70
     1
  9
$TEXTSIZE
 40
0.0
  9
$TRACEWID
 40
1.0
  9
$TEXTSTYLE
  7
STANDARD
  9
$CLAYER
  8
DATA
  9
$CELTYPE
  6
BYLAYER
  9
$CECOLOR
 62
   256
  9
$DIMSCALE
 40
1.0
  9
$DIMASZ
 40
0.18
  9
$DIMEXO
 40
0.0625
  9
$DIMDLI
 40
0.38
  9
$DIMRND
 40
0.0
  9
$DIMDLE
 40
0.0
  9
$DIMEXE
 40
0.18
  9
$DIMTP
 40
0.0
  9
$DIMTM
 40
0.0
  9
$DIMTXT
 40
0.18
  9
$DIMCEN
 40
0.09
  9
$DIMTSZ
 40
0.0
  9
$DIMTOL
 70
     0
  9
$DIMLIM
 70
     0
  9
$DIMTIH
 70
     1
  9
$DIMTOH
 70
     1
  9
$DIMSE1
 70
     0
  9
$DIMSE2
 70
     0
  9
$DIMTAD
 70
     0
  9
$DIMZIN
 70
     0
  9
$DIMBLK
  1

  9
$DIMASO
 70
     1
  9
$DIMSHO
 70
     1
  9
$DIMPOST
  1

  9
$DIMAPOST
  1

  9
$DIMALT
 70
     0
  9
$DIMALTD
 70
     2
  9
$DIMALTF
 40
25.399999999999999
  9
$DIMLFAC
 40
1.0
  9
$DIMTOFL
 70
     0
  9
$DIMTVP
 40
0.0
  9
$DIMTIX
 70
     0
  9
$DIMSOXD
 70
     0
  9
$DIMSAH
 70
     0
  9
$DIMBLK1
  1

  9
$DIMBLK2
  1

  9
$DIMSTYLE
  2
STANDARD
  9
$DIMCLRD
 70
     0
  9
$DIMCLRE
 70
     0
  9
$DIMCLRT
 70
     0
  9
$DIMTFAC
 40
1.0
  9
$DIMGAP
 40
0.09
  9
$LUNITS
 70
     2
  9
$LUPREC
 70
     4
  9
$SKETCHINC
 40
0.1
  9
$FILLETRAD
 40
0.0
  9
$AUNITS
 70
     0
  9
$AUPREC
 70
     0
  9
$MENU
  1
acad
  9
$ELEVATION
 40
0.0
  9
$PELEVATION
 40
0.0
  9
$THICKNESS
 40
0.0
  9
$LIMCHECK
 70
     0
  9
$BLIPMODE
 70
     0
  9
$CHAMFERA
 40
0.0
  9
$CHAMFERB
 40
0.0
  9
$SKPOLY
 70
     0
  9
$TDCREATE
 40
2455475.6106250002
  9
$TDUPDATE
 40
2455475.6180846761
  9
$TDINDWG
 40
0.0003752315
  9
$TDUSRTIMER
 40
0.0003750463
  9
$USRTIMER
 70
     1
  9
$ANGBASE
 50
0.0
  9
$ANGDIR
 70
     0
  9
$PDMODE
 70
     1
  9
$PDSIZE
 40
-2.0
  9
$PLINEWID
 40
0.0
  9
$COORDS
 70
     0
  9
$SPLFRAME
 70
     0
  9
$SPLINETYPE
 70
     6
  9
$SPLINESEGS
 70
     8
  9
$ATTDIA
 70
     0
  9
$ATTREQ
 70
     1
  9
$HANDLING
 70
     1
  9
$HANDSEED
  5
1184
  9
$SURFTAB1
 70
     6
  9
$SURFTAB2
 70
     6
  9
$SURFTYPE
 70
     6
  9
$SURFU
 70
     6
  9
$SURFV
 70
     6
  9
$UCSNAME
  2

  9
$UCSORG
 10
0.0
 20
0.0
 30
0.0
  9
$UCSXDIR
 10
1.0
 20
0.0
 30
0.0
  9
$UCSYDIR
 10
0.0
 20
1.0
 30
0.0
  9
$PUCSNAME
  2

  9
$PUCSORG
 10
0.0
 20
0.0
 30
0.0
  9
$PUCSXDIR
 10
1.0
 20
0.0
 30
0.0
  9
$PUCSYDIR
 10
0.0
 20
1.0
 30
0.0
  9
$USERI1
 70
     0
  9
$USERI2
 70
     0
  9
$USERI3
 70
     0
  9
$USERI4
 70
     0
  9
$USERI5
 70
     0
  9
$USERR1
 40
0.0
  9
$USERR2
 40
0.0
  9
$USERR3
 40
0.0
  9
$USERR4
 40
0.0
  9
$USERR5
 40
0.0
  9
$WORLDVIEW
 70
     1
  9
$SHADEDGE
 70
     3
  9
$SHADEDIF
 70
    70
  9
$TILEMODE
 70
     1
  9
$MAXACTVP
 70
    64
  9
$PLIMCHECK
 70
     0
  9
$PEXTMIN
 10
1.0000000000000000E+020
 20
1.0000000000000000E+020
 30
1.0000000000000000E+020
  9
$PEXTMAX
 10
-1.0000000000000000E+020
 20
-1.0000000000000000E+020
 30
-1.0000000000000000E+020
  9
$PLIMMIN
 10
0.0
 20
0.0
  9
$PLIMMAX
 10
12.0
 20
9.0
  9
$UNITMODE
 70
     0
  9
$VISRETAIN
 70
     0
  9
$PLINEGEN
 70
     1
  9
$PSLTSCALE
 70
     0
  0
ENDSEC
  0
SECTION
  2
TABLES
  0
TABLE
  2
VPORT
 70
     1
  0
VPORT
  2
*ACTIVE
 70
     0
 10
0.0
 20
0.0
 11
1.0
 21
1.0
 12
5.2339414894154279
 22
-19.034407206368311
 13
0.0
 23
0.0
 14
1.0
 24
1.0
 15
0.0
 25
0.0
 16
0.0
 26
0.0
 36
1.0
 17
0.0
 27
0.0
 37
0.0
 40
1348.00173539619
 41
1.9619164619164611
 42
50.0
 43
0.0
 44
0.0
 50
0.0
 51
0.0
 71
     0
 72
  2000
 73
     1
 74
     1
 75
     0
 76
     0
 77
     0
 78
     0
  0
ENDTAB
  0
TABLE
  2
LTYPE
 70
    11
  0
LTYPE
  2
CONTINUOUS
 70
     0
  3
Solid line
 72
    65
 73
     0
 40
0.0
  0
ENDTAB
  0
TABLE
  2
LAYER
 70
     5
  0
LAYER
  2
0
 70
     0
 62
     7
  6
CONTINUOUS
  0
LAYER
  2
DATA
 70
     0
 62
     7
  6
CONTINUOUS
  0
LAYER
  2
HIBINO-BASE
 70
     0
 62
     7
  6
CONTINUOUS
  0
LAYER
  2
SPEC
 70
     0
 62
     7
  6
CONTINUOUS
  0
LAYER
  2
DIMNSIONS
 70
     0
 62
     7
  6
CONTINUOUS
  0
ENDTAB
  0
TABLE
  2
STYLE
 70
     3
  0
STYLE
  2
STANDARD
 70
     0
 40
0.0
 41
1.0
 50
0.0
 71
     0
 42
0.0
  3
txt
  4
BIGFONT.SHX
  0
ENDTAB
  0
TABLE
  2
VIEW
 70
     0
  0
ENDTAB
  0
TABLE
  2
UCS
 70
     0
  0
ENDTAB
  0
TABLE
  2
APPID
 70
     3
  0
APPID
  2
ACAD
 70
     0
  0
APPID
  2
ACADANNOTATIVE
 70
     0
  0
APPID
  2
ACAD_MLEADERVER
 70
     0
  0
ENDTAB
  0
TABLE
  2
DIMSTYLE
 70
     2
  0
DIMSTYLE
  2
STANDARD
 70
     0
  3

  4

  5

  6

  7

 40
1.0
 41
0.18
 42
0.0625
 43
0.38
 44
0.18
 45
0.0
 46
0.0
 47
0.0
 48
0.0
140
0.18
141
0.09
142
0.0
143
25.399999999999999
144
1.0
145
0.0
146
1.0
147
0.09
 71
     0
 72
     0
 73
     1
 74
     1
 75
     0
 76
     0
 77
     0
 78
     0
170
     0
171
     2
172
     0
173
     0
174
     0
175
     0
176
     0
177
     0
178
     0
  0
ENDTAB
  0
ENDSEC
  0
SECTION
  2
BLOCKS
  0
BLOCK
  8
0
  2
$MODEL_SPACE
 70
     0
 10
0.0
 20
0.0
 30
0.0
  3
$MODEL_SPACE
  1

  0
ENDBLK
  5
AAE
  8
0
  0
BLOCK
 67
     1
  8
0
  2
$PAPER_SPACE
 70
     0
 10
0.0
 20
0.0
 30
0.0
  3
$PAPER_SPACE
  1

  0
ENDBLK
  5
AAA
 67
     1
  8
0
  0
BLOCK
  8
DATA
  2
RACK___
 70
     0
 10
0.0
 20
0.0
 30
0.0
  3
RACK___
  1

  0
ARC
  5
2E
  8
0
  6
CONTINUOUS
 62
     7
 10
-2.2999999999998968
 20
0.0
 30
0.0
 40
3.1999999999999882
 50
90.000000000002018
 51
269.99999999999801
  0
ARC
  5
2F
  8
0
  6
CONTINUOUS
 62
     7
 10
2.2999999999999541
 20
-0.0000000000000568
 30
0.0
 40
3.1999999999999882
 50
270.0
 51
90.0
  0
LINE
  5
30
  8
0
  6
CONTINUOUS
 62
     7
 10
2.2999999999999541
 20
3.1999999999999882
 30
0.0
 11
-2.3500000000000218
 21
3.1999999999999882
 31
0.0
  0
LINE
  5
31
  8
0
  6
CONTINUOUS
 62
     7
 10
-2.3000000000000109
 20
-3.200000000000045
 30
0.0
 11
2.2999999999999541
 21
-3.200000000000045
 31
0.0
  0
ENDBLK
  5
32
  8
DATA
  0
ENDSEC
  0
SECTION
  2
ENTITIES
  0
LINE
  5
33
  8
HIBINO-BASE
  6
CONTINUOUS
 62
     7
 10
-444.76606060606048
 20
650.0
 30
0.0
 11
455.23393939393929
 21
650.0
 31
0.0
  0
LINE
  5
34
  8
HIBINO-BASE
  6
CONTINUOUS
 62
     7
 10
455.23393939393929
 20
-650.0
 30
0.0
 11
-444.76606060606048
 21
-650.0
 31
0.0
  0
LINE
  5
35
  8
HIBINO-BASE
  6
CONTINUOUS
 62
     7
 10
-444.76606060606048
 20
-650.0
 30
0.0
 11
-444.76606060606048
 21
650.0
 31
0.0
  0
TEXT
  5
36
  8
HIBINO-BASE
 62
     7
 10
-408.84606060606041
 20
-682.04338899999993
 30
0.0
 40
18.00022089843749
  1
Hibino Corporation
 41
0.7
 11
-408.84606060606041
 21
-664.04316810156229
 31
0.0
 73
     3
  0
LINE
  5
37
  8
HIBINO-BASE
  6
CONTINUOUS
 62
     7
 10
455.23393939393929
 20
650.0
 30
0.0
 11
455.23393939393929
 21
-650.0
 31
0.0
  0
LINE
  5
38
  8
HIBINO-BASE
  6
CONTINUOUS
 62
     7
 10
5.2339393939393926
 20
-537.49999999999989
 30
0.0
 11
455.23393939393929
 21
-537.49999999999989
 31
0.0
  0
LINE
  5
39
  8
HIBINO-BASE
  6
CONTINUOUS
 62
     7
 10
5.2339393939393926
 20
-650.0
 30
0.0
 11
5.2339393939393926
 21
-537.49999999999989
 31
0.0
  0
TEXT
  5
3A
  8
HIBINO-BASE
 62
     7
 10
9.7339393939393943
 20
-550.04346666666652
 30
0.0
 40
8.1442057291666661
  1
NOTE
 41
0.7
 11
9.7339393939393943
 21
-541.89926093749978
 31
0.0
 73
     3
  0
LINE
  5
3B
  8
HIBINO-BASE
  6
CONTINUOUS
 62
     7
 10
180.23393939393941
 20
-650.0
 30
0.0
 11
180.23393939393941
 21
-537.49999999999989
 31
0.0
  0
TEXT
  5
3C
  8
HIBINO-BASE
 62
     7
 10
184.73393939393941
 20
-550.04346666666652
 30
0.0
 40
8.1442057291666661
  1
TITLE
 41
0.7
 11
184.73393939393941
 21
-541.89926093749978
 31
0.0
 73
     3
  0
TEXT
  5
3D
  8
HIBINO-BASE
 62
     7
 10
255.57588939393929
 20
-682.04338899999993
 30
0.0
 40
18.00022089843749
  1
ヒビノ株式会社
 41
0.7
 11
255.57588939393929
 21
-664.04316810156229
 31
0.0
 73
     3
  0
LINE
  5
3E
  8
HIBINO-BASE
  6
CONTINUOUS
 62
     7
 10
5.2339393939393926
 20
-599.99999999999989
 30
0.0
 11
455.23393939393929
 21
-599.99999999999989
 31
0.0
  0
TEXT
  5
3F
  8
HIBINO-BASE
 62
     7
 10
247.23393939393941
 20
-612.26186666666649
 30
0.0
 40
8.1442057291666661
  1
DRAWN
 41
0.7
 11
247.23393939393941
 21
-604.11766093749975
 31
0.0
 73
     3
  0
TEXT
  5
40
  8
HIBINO-BASE
 62
     7
 10
122.23393939393939
 20
-612.26186666666649
 30
0.0
 40
8.1442057291666661
  1
DATE
 41
0.7
 11
122.23393939393939
 21
-604.11766093749975
 31
0.0
 73
     3
  0
TEXT
  5
41
  8
HIBINO-BASE
 62
     7
 10
72.233939393939394
 20
-612.26186666666649
 30
0.0
 40
8.1442057291666661
  1
SCALE
 41
0.7
 11
72.233939393939394
 21
-604.11766093749975
 31
0.0
 73
     3
  0
TEXT
  5
42
  8
HIBINO-BASE
 62
     7
 10
184.73393939393941
 20
-612.26186666666649
 30
0.0
 40
8.1442057291666661
  1
DESIGN
 41
0.7
 11
184.73393939393941
 21
-604.11766093749975
 31
0.0
 73
     3
  0
TEXT
  5
43
  8
HIBINO-BASE
 62
     7
 10
372.23393939393929
 20
-612.26186666666649
 30
0.0
 40
8.1442057291666661
  1
DRAWING NO.
 41
0.7
 11
372.23393939393929
 21
-604.11766093749975
 31
0.0
 73
     3
  0
TEXT
  5
44
  8
HIBINO-BASE
 62
     7
 10
309.73393939393929
 20
-612.26186666666649
 30
0.0
 40
8.1442057291666661
  1
CHECK
 41
0.7
 11
309.73393939393929
 21
-604.11766093749975
 31
0.0
 73
     3
  0
LINE
  5
45
  8
HIBINO-BASE
  6
CONTINUOUS
 62
     7
 10
77.108939393939366
 20
-643.75
 30
0.0
 11
95.858939393939394
 21
-624.99999999999989
 31
0.0
  0
TEXT
  5
46
  8
HIBINO-BASE
 62
     7
 10
77.394846838830588
 20
-633.52347858749306
 30
0.0
 40
9.5015733506944446
  1
1
 41
0.7
 11
77.394846838830588
 21
-624.0219052367986
 31
0.0
 73
     3
  0
LINE
  5
47
  8
HIBINO-BASE
  6
CONTINUOUS
 62
     7
 10
67.73393939393938
 20
-650.0
 30
0.0
 11
67.73393939393938
 21
-599.99999999999989
 31
0.0
  0
LINE
  5
48
  8
HIBINO-BASE
  6
CONTINUOUS
 62
     7
 10
117.73393939393939
 20
-650.0
 30
0.0
 11
117.73393939393939
 21
-599.99999999999989
 31
0.0
  0
LINE
  5
49
  8
HIBINO-BASE
  6
CONTINUOUS
 62
     7
 10
242.73393939393929
 20
-599.99999999999989
 30
0.0
 11
242.73393939393929
 21
-650.0
 31
0.0
  0
LINE
  5
4A
  8
HIBINO-BASE
  6
CONTINUOUS
 62
     7
 10
367.73393939393929
 20
-599.99999999999989
 30
0.0
 11
367.73393939393929
 21
-650.0
 31
0.0
  0
LINE
  5
4B
  8
HIBINO-BASE
  6
CONTINUOUS
 62
     7
 10
305.23393939393929
 20
-650.0
 30
0.0
 11
305.23393939393929
 21
-599.99999999999989
 31
0.0
  0
TEXT
  5
4C
  8
HIBINO-BASE
 62
     7
 10
122.0166393939394
 20
-637.19871111111115
 30
0.0
 40
9.5015733506944446
  1
'05.11.
 41
0.7
 11
122.0166393939394
 21
-627.69713776041669
 31
0.0
 73
     3
  0
TEXT
  5
4D
  8
HIBINO-BASE
 62
     7
 10
91.759394409684774
 20
-642.89847858749306
 30
0.0
 40
9.5015733506944446
  1
5
 41
0.7
 11
91.759394409684774
 21
-633.3969052367986
 31
0.0
 73
     3
  0
TEXT
  5
4E
  8
HIBINO-BASE
 62
     7
 10
24.65060606060614
 20
-640.11999999999989
 30
0.0
 40
16.288411458333329
  1
A4
 41
0.7
 11
24.65060606060614
 21
-623.83158854166652
 31
0.0
 73
     3
  0
TEXT
  5
4F
  8
HIBINO-BASE
 62
     7
 10
10.02560606060606
 20
-613.09727499999985
 30
0.0
 40
8.1442057291666661
  1
PAPER SIZE
 41
0.7
 11
10.02560606060606
 21
-604.95306927083334
 31
0.0
 73
     3
  0
TEXT
  5
50
  8
HIBINO-BASE
 62
     7
 10
-391.52586504840963
 20
-624.82703740169939
 30
0.0
 40
8.1442057291666661
  1
仕様および外観は予告なく変更されることがありますので、ご了承ください。
 41
0.7
 11
-391.52586504840963
 21
-616.68283167253276
 31
0.0
 73
     3
  0
TEXT
  5
51
  8
HIBINO-BASE
 62
     7
 10
249.04552247485219
 20
-637.45603978607414
 30
0.0
 40
9.5015733506944446
  1
T.Ohtake
 41
0.7
 11
249.04552247485219
 21
-627.95446643537969
 31
0.0
 73
     3
  0
TEXT
  5
52
  8
HIBINO-BASE
 62
     7
 10
316.09793487153229
 20
-637.44206226476035
 30
0.0
 40
9.5015733506944446
  1
Y.Ishii
 41
0.7
 11
316.09793487153229
 21
-627.9404889140659
 31
0.0
 73
     3
  0
LINE
  5
53
  8
SPEC
  6
CONTINUOUS
 62
     7
 10
-399.942780603872
 20
600.03202521605965
 30
0.0
 11
337.55721939612789
 21
600.03202521605965
 31
0.0
  0
LINE
  5
54
  8
SPEC
  6
CONTINUOUS
 62
     7
 10
-399.942780603872
 20
581.28202521605965
 30
0.0
 11
337.55721939612789
 21
581.28202521605965
 31
0.0
  0
LINE
  5
55
  8
SPEC
  6
CONTINUOUS
 62
     7
 10
-237.44278060387279
 20
506.28202521605971
 30
0.0
 11
337.55721939612789
 21
506.28202521605971
 31
0.0
  0
LINE
  5
56
  8
SPEC
  6
CONTINUOUS
 62
     7
 10
-399.942780603872
 20
525.03202521605965
 30
0.0
 11
337.55721939612789
 21
525.03202521605965
 31
0.0
  0
LINE
  5
57
  8
SPEC
  6
CONTINUOUS
 62
     7
 10
-237.44278060387279
 20
543.78202521605965
 30
0.0
 11
337.55721939612789
 21
543.78202521605965
 31
0.0
  0
LINE
  5
58
  8
SPEC
  6
CONTINUOUS
 62
     7
 10
-237.44278060387279
 20
487.53202521605971
 30
0.0
 11
337.55721939612789
 21
487.53202521605971
 31
0.0
  0
LINE
  5
59
  8
SPEC
  6
CONTINUOUS
 62
     7
 10
-237.44278060387279
 20
450.03202521605959
 30
0.0
 11
337.55721939612789
 21
450.03202521605971
 31
0.0
  0
LINE
  5
5A
  8
SPEC
  6
CONTINUOUS
 62
     7
 10
-399.942780603872
 20
468.78202521605971
 30
0.0
 11
337.55721939612789
 21
468.78202521605971
 31
0.0
  0
LINE
  5
5B
  8
SPEC
  6
CONTINUOUS
 62
     7
 10
-237.44278060387279
 20
431.28202521605959
 30
0.0
 11
337.55721939612789
 21
431.28202521605971
 31
0.0
  0
LINE
  5
5C
  8
SPEC
  6
CONTINUOUS
 62
     7
 10
-399.942780603872
 20
412.53202521605959
 30
0.0
 11
337.55721939612789
 21
412.53202521605959
 31
0.0
  0
LINE
  5
5D
  8
SPEC
  6
CONTINUOUS
 62
     7
 10
-237.44278060387279
 20
562.53202521605965
 30
0.0
 11
337.55721939612789
 21
562.53202521605965
 31
0.0
  0
LINE
  5
5E
  8
SPEC
  6
CONTINUOUS
 62
     7
 10
-399.942780603872
 20
375.03202521605971
 30
0.0
 11
337.55721939612789
 21
375.03202521605971
 31
0.0
  0
LINE
  5
5F
  8
SPEC
  6
CONTINUOUS
 62
     7
 10
-399.942780603872
 20
337.53202521605982
 30
0.0
 11
337.55721939612789
 21
337.53202521605982
 31
0.0
  0
LINE
  5
60
  8
SPEC
  6
CONTINUOUS
 62
     7
 10
-399.942780603872
 20
281.28202521605971
 30
0.0
 11
337.55721939612789
 21
281.28202521605971
 31
0.0
  0
LINE
  5
61
  8
SPEC
  6
CONTINUOUS
 62
     7
 10
-399.942780603872
 20
600.03202521605965
 30
0.0
 11
-399.942780603872
 21
281.28202521605971
 31
0.0
  0
TEXT
  5
62
  8
SPEC
 62
     7
 10
-386.437066787003
 20
606.99837521605957
 30
0.0
 40
12.21630859375
  1
仕様
 41
0.7
 11
-386.437066787003
 21
619.21468380980957
 31
0.0
 73
     3
  0
LINE
  5
63
  8
SPEC
  6
CONTINUOUS
 62
     7
 10
-237.44278060387279
 20
600.03202521605965
 30
0.0
 11
-237.44278060387279
 21
281.28202521605971
 31
0.0
  0
LINE
  5
64
  8
SPEC
  6
CONTINUOUS
 62
     7
 10
337.55721939612789
 20
600.03202521605965
 30
0.0
 11
337.55721939612789
 21
281.28202521605971
 31
0.0
  0
TEXT
  5
65
  8
SPEC
 62
     7
 10
-394.08695223547079
 20
585.63879206445665
 30
0.0
 40
9.5015733506944446
  1
形式
 41
0.7
 11
-394.08695223547079
 21
595.14036541515111
 31
0.0
 73
     3
  0
LINE
  5
66
  8
SPEC
  6
CONTINUOUS
 62
     7
 10
-237.44278060387279
 20
431.28202521605959
 30
0.0
 11
337.55721939612789
 21
431.28202521605971
 31
0.0
  0
LINE
  5
67
  8
SPEC
  6
CONTINUOUS
 62
     7
 10
-237.44278060387279
 20
431.28202521605959
 30
0.0
 11
337.55721939612789
 21
431.28202521605971
 31
0.0
  0
LINE
  5
68
  8
SPEC
  6
CONTINUOUS
 62
     7
 10
-399.942780603872
 20
393.78202521605971
 30
0.0
 11
337.55721939612789
 21
393.78202521605971
 31
0.0
  0
LINE
  5
69
  8
SPEC
  6
CONTINUOUS
 62
     7
 10
-399.942780603872
 20
356.28202521605971
 30
0.0
 11
337.55721939612789
 21
356.28202521605971
 31
0.0
  0
LINE
  5
6A
  8
SPEC
  6
CONTINUOUS
 62
     7
 10
-399.942780603872
 20
318.78202521605982
 30
0.0
 11
337.55721939612789
 21
318.78202521605982
 31
0.0
  0
LINE
  5
6B
  8
SPEC
  6
CONTINUOUS
 62
     7
 10
-399.942780603872
 20
300.03202521605982
 30
0.0
 11
337.55721939612789
 21
300.03202521605982
 31
0.0
  0
TEXT
  5
6C
  8
SPEC
 62
     7
 10
-394.22500048273309
 20
567.22299905928855
 30
0.0
 40
9.5015733506944446
  1
デジタル入出力
 41
0.7
 11
-394.22500048273309
 21
576.7245724099829
 31
0.0
 73
     3
  0
TEXT
  5
6D
  8
SPEC
 62
     7
 10
-231.27335198648299
 20
548.20290555143185
 30
0.0
 40
9.5015733506944446
  1
端子・型式 RCA,S/PDIF,24ビット
 41
0.7
 11
-231.27335198648299
 21
557.70447890212631
 31
0.0
 73
     3
  0
TEXT
  5
6E
  8
SPEC
 62
     7
 10
-231.24509587766289
 20
529.80973462391705
 30
0.0
 40
9.5015733506944446
  1
サンプリングレート 48kHz/44.1kHz
 41
0.7
 11
-231.24509587766289
 21
539.31130797461151
 31
0.0
 73
     3
  0
TEXT
  5
6F
  8
SPEC
 62
     7
 10
-231.00637108708159
 20
398.28654118374328
 30
0.0
 40
9.5015733506944446
  1
24ビット,48kHz/44.1kHz
 41
0.7
 11
-231.00637108708159
 21
407.78811453443768
 31
0.0
 73
     3
  0
TEXT
  5
70
  8
SPEC
 62
     7
 10
-393.68425953313277
 20
379.81871955123398
 30
0.0
 40
9.5015733506944446
  1
周波数特性
 41
0.7
 11
-393.68425953313277
 21
389.3202929019285
 31
0.0
 73
     3
  0
TEXT
  5
71
  8
SPEC
 62
     7
 10
-393.66266067827081
 20
360.93049474863642
 30
0.0
 40
9.5015733506944446
  1
THD＋N
 41
0.7
 11
-393.66266067827081
 21
370.43206809933082
 31
0.0
 73
     3
  0
TEXT
  5
72
  8
SPEC
 62
     7
 10
-230.8474767671257
 20
360.6676571521192
 30
0.0
 40
9.5015733506944446
  1
0.05％以下(20Hz～20kHz)
 41
0.7
 11
-230.8474767671257
 21
370.1692305028136
 31
0.0
 73
     3
  0
TEXT
  5
73
  8
SPEC
 62
     7
 10
-393.79251042342202
 20
323.60318874503758
 30
0.0
 40
9.5015733506944446
  1
電源
 41
0.7
 11
-393.79251042342202
 21
333.1047620957321
 31
0.0
 73
     3
  0
TEXT
  5
74
  8
SPEC
 62
     7
 10
-230.76427540187589
 20
323.46979243826598
 30
0.0
 40
9.5015733506944446
  1
AC100V,50/60Hz
 41
0.7
 11
-230.76427540187589
 21
332.9713657889605
 31
0.0
 73
     3
  0
TEXT
  5
75
  8
SPEC
 62
     7
 10
-393.90137631459572
 20
304.7195474023232
 30
0.0
 40
9.5015733506944446
  1
消費電力
 41
0.7
 11
-393.90137631459572
 21
314.22112075301771
 31
0.0
 73
     3
  0
TEXT
  5
76
  8
SPEC
 62
     7
 10
-231.68639320057059
 20
304.62166505474949
 30
0.0
 40
9.5015733506944446
  1
12.5W
 41
0.7
 11
-231.68639320057059
 21
314.12323840544389
 31
0.0
 73
     3
  0
TEXT
  5
77
  8
SPEC
 62
     7
 10
-394.24218589246078
 20
286.65511153252078
 30
0.0
 40
9.5015733506944446
  1
寸法　
 41
0.7
 11
-394.24218589246078
 21
296.15668488321529
 31
0.0
 73
     3
  0
TEXT
  5
78
  8
SPEC
 62
     7
 10
-230.99963049715311
 20
286.12834904154721
 30
0.0
 40
9.5015733506944446
  1
483(W)X45(H)X140(D)mm（突起部含まず）
 41
0.7
 11
-230.99963049715311
 21
295.62992239224172
 31
0.0
 73
     3
  0
TEXT
  5
79
  8
SPEC
 62
     7
 10
-231.09785889272339
 20
379.70085758612203
 30
0.0
 40
9.5015733506944446
  1
20Hz～20kHz(\U+00B11dB)
 41
0.7
 11
-231.09785889272339
 21
389.20243093681648
 31
0.0
 73
     3
  0
TEXT
  5
7A
  8
SPEC
 62
     7
 10
-393.46771756568199
 20
454.60085797886251
 30
0.0
 40
9.5015733506944446
  1
音声出力
 41
0.7
 11
-393.46771756568199
 21
464.10243132955691
 31
0.0
 73
     3
  0
TEXT
  5
7B
  8
SPEC
 62
     7
 10
-393.18504872352202
 20
398.37410248925778
 30
0.0
 40
9.5015733506944446
  1
A/D-D/A変換
 41
0.7
 11
-393.18504872352202
 21
407.87567583995218
 31
0.0
 73
     3
  0
TEXT
  5
7C
  8
SPEC
 62
     7
 10
-231.6866865348214
 20
567.22967157210064
 30
0.0
 40
9.5015733506944446
  1
チャンネル数 2
 41
0.7
 11
-231.6866865348214
 21
576.7312449227951
 31
0.0
 73
     3
  0
TEXT
  5
7D
  8
SPEC
 62
     7
 10
-231.74683819331079
 20
436.37900047813872
 30
0.0
 40
9.5015733506944446
  1
インピーダンス 600\U+03A9以下
 41
0.7
 11
-231.74683819331079
 21
445.88057382883312
 31
0.0
 73
     3
  0
TEXT
  5
7E
  8
SPEC
 62
     7
 10
-231.070153625345
 20
417.25104906975952
 30
0.0
 40
9.5015733506944446
  1
最大レベル +26dBu(バランス)
 41
0.7
 11
-231.070153625345
 21
426.75262242045397
 31
0.0
 73
     3
  0
TEXT
  5
7F
  8
SPEC
 62
     7
 10
-230.98458320850051
 20
473.53515686203519
 30
0.0
 40
9.5015733506944446
  1
最大レベル +20dBu
 41
0.7
 11
-230.98458320850051
 21
483.03673021272971
 31
0.0
 73
     3
  0
TEXT
  5
80
  8
SPEC
 62
     7
 10
-231.74722607141399
 20
492.67624648615669
 30
0.0
 40
9.5015733506944446
  1
インピーダンス 50k\U+03A9(バランス）
 41
0.7
 11
-231.74722607141399
 21
502.1778198368512
 31
0.0
 73
     3
  0
TEXT
  5
81
  8
SPEC
 62
     7
 10
-394.66641594006148
 20
342.3401920006192
 30
0.0
 40
9.5015733506944446
  1
ダイナミックレンジ
 41
0.7
 11
-394.66641594006148
 21
351.8417653513136
 31
0.0
 73
     3
  0
TEXT
  5
82
  8
SPEC
 62
     7
 10
-231.77864862960649
 20
342.13173383296328
 30
0.0
 40
9.5015733506944446
  1
101dB
 41
0.7
 11
-231.77864862960649
 21
351.63330718365768
 31
0.0
 73
     3
  0
TEXT
  5
83
  8
SPEC
 62
     7
 10
-231.07762126594059
 20
585.58339743394913
 30
0.0
 40
9.5015733506944446
  1
2ch マルチエフェクタ 
 41
0.7
 11
-231.07762126594059
 21
595.08497078464359
 31
0.0
 73
     3
  0
TEXT
  5
84
  8
SPEC
 62
     7
 10
-393.5591651169612
 20
510.7983144818532
 30
0.0
 40
9.5015733506944446
  1
音声入力
 41
0.7
 11
-393.5591651169612
 21
520.29988783254771
 31
0.0
 73
     3
  0
TEXT
  5
85
  8
SPEC
 62
     7
 10
-231.23286379782189
 20
511.02530528097702
 30
0.0
 40
9.5015733506944446
  1
端子・型式 XLR 電子バランス 標準フォーンジャック(3P),電子バランス 
 41
0.7
 11
-231.23286379782189
 21
520.52687863167148
 31
0.0
 73
     3
  0
TEXT
  5
86
  8
SPEC
 62
     7
 10
-231.1868513020033
 20
454.65810250910641
 30
0.0
 40
9.5015733506944446
  1
端子・型式 XLR 電子バランス 標準フォーンジャック(3P),電子バランス 
 41
0.7
 11
-231.1868513020033
 21
464.15967585980093
 31
0.0
 73
     3
  0
LINE
  5
87
  8
SPEC
  6
CONTINUOUS
 62
     7
 10
-399.942780603872
 20
262.53202521605971
 30
0.0
 11
337.55721939612789
 21
262.53202521605971
 31
0.0
  0
LINE
  5
88
  8
SPEC
  6
CONTINUOUS
 62
     7
 10
-399.942780603872
 20
262.53202521605971
 30
0.0
 11
-399.942780603872
 21
281.28202521605971
 31
0.0
  0
LINE
  5
89
  8
SPEC
  6
CONTINUOUS
 62
     7
 10
-237.44278060387279
 20
281.28202521605971
 30
0.0
 11
-237.44278060387279
 21
262.53202521605971
 31
0.0
  0
LINE
  5
8A
  8
SPEC
  6
CONTINUOUS
 62
     7
 10
337.55721939612789
 20
262.53202521605971
 30
0.0
 11
337.55721939612789
 21
281.28202521605971
 31
0.0
  0
TEXT
  5
8B
  8
SPEC
 62
     7
 10
-394.34722222222217
 20
267.84641102024602
 30
0.0
 40
9.5015733506944464
  1
重量
 41
0.7
 11
-394.34722222222217
 21
277.34798437094042
 31
0.0
 73
     3
  0
TEXT
  5
8C
  8
SPEC
 62
     7
 10
-231.51461660746531
 20
267.60467526867109
 30
0.0
 40
9.5015733506944464
  1
1.4kg
 41
0.7
 11
-231.51461660746531
 21
277.1062486193656
 31
0.0
 73
     3
  0
TEXT
  5
8D
  8
DIMNSIONS
 62
     7
 10
-94.766060606060606
 20
-588.65255000000002
 30
0.0
 40
12.21630859375
  1
(単位：mm)
 41
0.7
 11
-94.766060606060606
 21
-576.43624140625002
 31
0.0
 73
     3
  0
LINE
  5
8E
  8
DIMNSIONS
  6
CONTINUOUS
 62
     7
 10
-336.0
 20
-120.0000000000276
 30
0.0
 11
-336.0
 21
-65.0
 31
0.0
  0
LINE
  5
8F
  8
DIMNSIONS
  6
CONTINUOUS
 62
     7
 10
99.0
 20
-120.0000000000276
 30
0.0
 11
99.0
 21
-65.0
 31
0.0
  0
LINE
  5
90
  8
DIMNSIONS
  6
CONTINUOUS
 62
     7
 10
-336.0
 20
-75.0
 30
0.0
 11
99.0
 21
-75.0
 31
0.0
  0
LINE
  5
91
  8
DIMNSIONS
  6
CONTINUOUS
 62
     7
 10
-336.0
 20
-75.0
 30
0.0
 11
-323.49688720703131
 21
-71.649801024248802
 31
0.0
  0
LINE
  5
92
  8
DIMNSIONS
  6
CONTINUOUS
 62
     7
 10
-336.0
 20
-75.0
 30
0.0
 11
-323.49688720703131
 21
-78.350198975751212
 31
0.0
  0
LINE
  5
93
  8
DIMNSIONS
  6
CONTINUOUS
 62
     7
 10
99.0
 20
-75.0
 30
0.0
 11
86.49688720703125
 21
-78.350198975751212
 31
0.0
  0
LINE
  5
94
  8
DIMNSIONS
  6
CONTINUOUS
 62
     7
 10
99.0
 20
-75.0
 30
0.0
 11
86.49688720703125
 21
-71.649801024248802
 31
0.0
  0
TEXT
  5
95
  8
DIMNSIONS
 62
     7
 10
-131.7291666666666
 20
-70.030555555555566
 30
0.0
 40
13.57367621527778
  1
435
 41
0.7
 11
-131.7291666666666
 21
-56.45687934027778
 31
0.0
 73
     3
  0
LINE
  5
96
  8
DIMNSIONS
  6
CONTINUOUS
 62
     7
 10
95.900000000000006
 20
-120.0000000000276
 30
0.0
 11
95.900000000000006
 21
-90.0
 31
0.0
  0
LINE
  5
97
  8
DIMNSIONS
  6
CONTINUOUS
 62
     7
 10
-333.0
 20
-120.0000000000276
 30
0.0
 11
-333.0
 21
-90.0
 31
0.0
  0
LINE
  5
98
  8
DIMNSIONS
  6
CONTINUOUS
 62
     7
 10
95.900000000000006
 20
-100.0
 30
0.0
 11
-333.0
 21
-100.0
 31
0.0
  0
LINE
  5
99
  8
DIMNSIONS
  6
CONTINUOUS
 62
     7
 10
95.900000000000006
 20
-100.0
 30
0.0
 11
83.396887207031256
 21
-103.3501989757512
 31
0.0
  0
LINE
  5
9A
  8
DIMNSIONS
  6
CONTINUOUS
 62
     7
 10
95.900000000000006
 20
-100.0
 30
0.0
 11
83.396887207031256
 21
-96.649801024248788
 31
0.0
  0
LINE
  5
9B
  8
DIMNSIONS
  6
CONTINUOUS
 62
     7
 10
-333.0
 20
-100.0
 30
0.0
 11
-320.49688720703119
 21
-96.649801024248788
 31
0.0
  0
LINE
  5
9C
  8
DIMNSIONS
  6
CONTINUOUS
 62
     7
 10
-333.0
 20
-100.0
 30
0.0
 11
-320.49688720703119
 21
-103.3501989757512
 31
0.0
  0
TEXT
  5
9D
  8
DIMNSIONS
 62
     7
 10
-131.77916666666661
 20
-95.030555555555566
 30
0.0
 40
13.57367621527778
  1
429
 41
0.7
 11
-131.77916666666661
 21
-81.45687934027778
 31
0.0
 73
     3
  0
LINE
  5
9E
  8
DIMNSIONS
  6
CONTINUOUS
 62
     7
 10
-298.37236076367037
 20
-124.5021496458626
 30
0.0
 11
-410.0
 21
-124.5021496458626
 31
0.0
  0
LINE
  5
9F
  8
DIMNSIONS
  6
CONTINUOUS
 62
     7
 10
-346.0
 20
-130.0000000000276
 30
0.0
 11
-410.0
 21
-130.0000000000276
 31
0.0
  0
LINE
  5
A0
  8
DIMNSIONS
  6
CONTINUOUS
 62
     7
 10
-400.0
 20
-130.0000000000276
 30
0.0
 11
-400.0
 21
-124.5021496458626
 31
0.0
  0
LINE
  5
A1
  8
DIMNSIONS
  6
CONTINUOUS
 62
     7
 10
-400.0
 20
-124.5021496458626
 30
0.0
 11
-400.0
 21
-73.541666666666657
 31
0.0
  0
LINE
  5
A2
  8
DIMNSIONS
  6
CONTINUOUS
 62
     7
 10
-400.0
 20
-124.5021496458626
 30
0.0
 11
-403.35019897575108
 21
-111.99903685289379
 31
0.0
  0
LINE
  5
A3
  8
DIMNSIONS
  6
CONTINUOUS
 62
     7
 10
-400.0
 20
-124.5021496458626
 30
0.0
 11
-396.6498010242488
 21
-111.99903685289379
 31
0.0
  0
LINE
  5
A4
  8
DIMNSIONS
  6
CONTINUOUS
 62
     7
 10
-400.0
 20
-130.0000000000276
 30
0.0
 11
-400.0
 21
-155.0000000000276
 31
0.0
  0
LINE
  5
A5
  8
DIMNSIONS
  6
CONTINUOUS
 62
     7
 10
-400.0
 20
-130.0000000000276
 30
0.0
 11
-396.6498010242488
 21
-142.5031127929964
 31
0.0
  0
LINE
  5
A6
  8
DIMNSIONS
  6
CONTINUOUS
 62
     7
 10
-400.0
 20
-130.0000000000276
 30
0.0
 11
-403.35019897575108
 21
-142.5031127929964
 31
0.0
  0
TEXT
  5
A7
  8
DIMNSIONS
 62
     7
 10
-404.96944444444449
 20
-100.0
 30
0.0
 40
13.57367621527778
  1
5.5
 50
90.0
 41
0.7
 11
-418.54312065972221
 21
-100.0
 31
0.0
 73
     3
  0
LINE
  5
A8
  8
DIMNSIONS
  6
CONTINUOUS
 62
     7
 10
-346.0
 20
-130.0000000000276
 30
0.0
 11
-410.0
 21
-130.0000000000276
 31
0.0
  0
LINE
  5
A9
  8
DIMNSIONS
  6
CONTINUOUS
 62
     7
 10
-370.0
 20
-270.00000000002768
 30
0.0
 11
-410.0
 21
-270.00000000002768
 31
0.0
  0
LINE
  5
AA
  8
DIMNSIONS
  6
CONTINUOUS
 62
     7
 10
-400.0
 20
-130.0000000000276
 30
0.0
 11
-400.0
 21
-270.00000000002768
 31
0.0
  0
LINE
  5
AB
  8
DIMNSIONS
  6
CONTINUOUS
 62
     7
 10
-400.0
 20
-130.0000000000276
 30
0.0
 11
-396.6498010242488
 21
-142.5031127929964
 31
0.0
  0
LINE
  5
AC
  8
DIMNSIONS
  6
CONTINUOUS
 62
     7
 10
-400.0
 20
-130.0000000000276
 30
0.0
 11
-403.35019897575108
 21
-142.5031127929964
 31
0.0
  0
LINE
  5
AD
  8
DIMNSIONS
  6
CONTINUOUS
 62
     7
 10
-400.0
 20
-270.00000000002768
 30
0.0
 11
-403.35019897575108
 21
-257.49688720705888
 31
0.0
  0
LINE
  5
AE
  8
DIMNSIONS
  6
CONTINUOUS
 62
     7
 10
-400.0
 20
-270.00000000002768
 30
0.0
 11
-396.6498010242488
 21
-257.49688720705888
 31
0.0
  0
TEXT
  5
AF
  8
DIMNSIONS
 62
     7
 10
-404.96944444444449
 20
-213.2291666666944
 30
0.0
 40
13.57367621527778
  1
140
 50
90.0
 41
0.7
 11
-418.54312065972221
 21
-213.2291666666944
 31
0.0
 73
     3
  0
LINE
  5
B0
  8
DIMNSIONS
  6
CONTINUOUS
 62
     7
 10
-370.0
 20
-267.00000000002768
 30
0.0
 11
-385.0
 21
-267.00000000002768
 31
0.0
  0
LINE
  5
B1
  8
DIMNSIONS
  6
CONTINUOUS
 62
     7
 10
-370.0
 20
-270.00000000002768
 30
0.0
 11
-385.0
 21
-270.00000000002768
 31
0.0
  0
LINE
  5
B2
  8
DIMNSIONS
  6
CONTINUOUS
 62
     7
 10
-375.0
 20
-270.00000000002768
 30
0.0
 11
-375.0
 21
-267.00000000002768
 31
0.0
  0
LINE
  5
B3
  8
DIMNSIONS
  6
CONTINUOUS
 62
     7
 10
-375.0
 20
-267.00000000002768
 30
0.0
 11
-375.0
 21
-241.1805555555556
 31
0.0
  0
LINE
  5
B4
  8
DIMNSIONS
  6
CONTINUOUS
 62
     7
 10
-375.0
 20
-267.00000000002768
 30
0.0
 11
-378.3501989757512
 21
-254.4968872070589
 31
0.0
  0
LINE
  5
B5
  8
DIMNSIONS
  6
CONTINUOUS
 62
     7
 10
-375.0
 20
-267.00000000002768
 30
0.0
 11
-371.6498010242488
 21
-254.4968872070589
 31
0.0
  0
LINE
  5
B6
  8
DIMNSIONS
  6
CONTINUOUS
 62
     7
 10
-375.0
 20
-270.00000000002768
 30
0.0
 11
-375.0
 21
-295.00000000002768
 31
0.0
  0
LINE
  5
B7
  8
DIMNSIONS
  6
CONTINUOUS
 62
     7
 10
-375.0
 20
-270.00000000002768
 30
0.0
 11
-371.6498010242488
 21
-282.50311279299638
 31
0.0
  0
LINE
  5
B8
  8
DIMNSIONS
  6
CONTINUOUS
 62
     7
 10
-375.0
 20
-270.00000000002768
 30
0.0
 11
-378.3501989757512
 21
-282.50311279299638
 31
0.0
  0
TEXT
  5
B9
  8
DIMNSIONS
 62
     7
 10
-379.96944444444449
 20
-250.0
 30
0.0
 40
13.57367621527778
  1
3
 50
90.0
 41
0.7
 11
-393.54312065972232
 21
-250.0
 31
0.0
 73
     3
  0
LINE
  5
BA
  8
DIMNSIONS
  6
CONTINUOUS
 62
     7
 10
-370.0
 20
-270.00000000002768
 30
0.0
 11
-410.0
 21
-270.00000000002768
 31
0.0
  0
LINE
  5
BB
  8
DIMNSIONS
  6
CONTINUOUS
 62
     7
 10
-13.99999999999998
 20
-289.99843752532081
 30
0.0
 11
-410.0
 21
-289.99843752532081
 31
0.0
  0
LINE
  5
BC
  8
DIMNSIONS
  6
CONTINUOUS
 62
     7
 10
-400.0
 20
-289.99843752532081
 30
0.0
 11
-400.0
 21
-270.00000000002768
 31
0.0
  0
LINE
  5
BD
  8
DIMNSIONS
  6
CONTINUOUS
 62
     7
 10
-400.0
 20
-270.00000000002768
 30
0.0
 11
-400.0
 21
-245.00000000002771
 31
0.0
  0
LINE
  5
BE
  8
DIMNSIONS
  6
CONTINUOUS
 62
     7
 10
-400.0
 20
-270.00000000002768
 30
0.0
 11
-403.35019897575108
 21
-257.49688720705888
 31
0.0
  0
LINE
  5
BF
  8
DIMNSIONS
  6
CONTINUOUS
 62
     7
 10
-400.0
 20
-270.00000000002768
 30
0.0
 11
-396.6498010242488
 21
-257.49688720705888
 31
0.0
  0
LINE
  5
C0
  8
DIMNSIONS
  6
CONTINUOUS
 62
     7
 10
-400.0
 20
-289.99843752532081
 30
0.0
 11
-400.0
 21
-317.63888888888891
 31
0.0
  0
LINE
  5
C1
  8
DIMNSIONS
  6
CONTINUOUS
 62
     7
 10
-400.0
 20
-289.99843752532081
 30
0.0
 11
-396.6498010242488
 21
-302.50155031828962
 31
0.0
  0
LINE
  5
C2
  8
DIMNSIONS
  6
CONTINUOUS
 62
     7
 10
-400.0
 20
-289.99843752532081
 30
0.0
 11
-403.35019897575108
 21
-302.50155031828962
 31
0.0
  0
TEXT
  5
C3
  8
DIMNSIONS
 62
     7
 10
-404.96944444444449
 20
-317.63888888888891
 30
0.0
 40
13.57367621527778
  1
20
 50
90.0
 41
0.7
 11
-418.54312065972221
 21
-317.63888888888891
 31
0.0
 73
     3
  0
LINE
  5
C4
  8
DIMNSIONS
  6
CONTINUOUS
 62
     7
 10
-370.0
 20
-385.0
 30
0.0
 11
-410.0
 21
-385.0
 31
0.0
  0
LINE
  5
C5
  8
DIMNSIONS
  6
CONTINUOUS
 62
     7
 10
-370.0
 20
-430.0
 30
0.0
 11
-410.0
 21
-430.0
 31
0.0
  0
LINE
  5
C6
  8
DIMNSIONS
  6
CONTINUOUS
 62
     7
 10
-400.0
 20
-385.0
 30
0.0
 11
-400.0
 21
-430.0
 31
0.0
  0
LINE
  5
C7
  8
DIMNSIONS
  6
CONTINUOUS
 62
     7
 10
-400.0
 20
-385.0
 30
0.0
 11
-396.6498010242488
 21
-397.50311279296881
 31
0.0
  0
LINE
  5
C8
  8
DIMNSIONS
  6
CONTINUOUS
 62
     7
 10
-400.0
 20
-385.0
 30
0.0
 11
-403.35019897575108
 21
-397.50311279296881
 31
0.0
  0
LINE
  5
C9
  8
DIMNSIONS
  6
CONTINUOUS
 62
     7
 10
-400.0
 20
-430.0
 30
0.0
 11
-403.35019897575108
 21
-417.49688720703119
 31
0.0
  0
LINE
  5
CA
  8
DIMNSIONS
  6
CONTINUOUS
 62
     7
 10
-400.0
 20
-430.0
 30
0.0
 11
-396.6498010242488
 21
-417.49688720703119
 31
0.0
  0
TEXT
  5
CB
  8
DIMNSIONS
 62
     7
 10
-404.96944444444449
 20
-416.31944444444451
 30
0.0
 40
13.57367621527778
  1
45
 50
90.0
 41
0.7
 11
-418.54312065972221
 21
-416.31944444444451
 31
0.0
 73
     3
  0
LINE
  5
CC
  8
DIMNSIONS
  6
CONTINUOUS
 62
     7
 10
-360.0
 20
-440.0
 30
0.0
 11
-360.0
 21
-485.0
 31
0.0
  0
LINE
  5
CD
  8
DIMNSIONS
  6
CONTINUOUS
 62
     7
 10
123.0
 20
-440.0
 30
0.0
 11
123.0
 21
-485.0
 31
0.0
  0
LINE
  5
CE
  8
DIMNSIONS
  6
CONTINUOUS
 62
     7
 10
-360.0
 20
-475.0
 30
0.0
 11
123.0
 21
-475.0
 31
0.0
  0
LINE
  5
CF
  8
DIMNSIONS
  6
CONTINUOUS
 62
     7
 10
-360.0
 20
-475.0
 30
0.0
 11
-347.49688720703119
 21
-471.6498010242488
 31
0.0
  0
LINE
  5
D0
  8
DIMNSIONS
  6
CONTINUOUS
 62
     7
 10
-360.0
 20
-475.0
 30
0.0
 11
-347.49688720703119
 21
-478.35019897575108
 31
0.0
  0
LINE
  5
D1
  8
DIMNSIONS
  6
CONTINUOUS
 62
     7
 10
123.0
 20
-475.0
 30
0.0
 11
110.49688720703119
 21
-478.35019897575108
 31
0.0
  0
LINE
  5
D2
  8
DIMNSIONS
  6
CONTINUOUS
 62
     7
 10
123.0
 20
-475.0
 30
0.0
 11
110.49688720703119
 21
-471.6498010242488
 31
0.0
  0
TEXT
  5
D3
  8
DIMNSIONS
 62
     7
 10
-131.7291666666666
 20
-470.03055555555551
 30
0.0
 40
13.57367621527778
  1
483
 41
0.7
 11
-131.7291666666666
 21
-456.45687934027768
 31
0.0
 73
     3
  0
ARC
  5
D4
  8
DATA
  6
CONTINUOUS
 62
     7
 10
-183.99167543042489
 20
-277.25215577264129
 30
0.0
 40
6.7946054874776367
 50
96.407952184101973
 51
186.3190283932378
  0
ARC
  5
D5
  8
DATA
  6
CONTINUOUS
 62
     7
 10
-207.00832456957511
 20
-277.25215577264129
 30
0.0
 40
6.7946054874776642
 50
353.68097160676223
 51
83.592047815897999
  0
TEXT
  5
D6
  8
DATA
 62
     7
 10
233.5088757718411
 20
-554.70254116979902
 30
0.0
 40
12.21630859375
  1
Lexicon
 41
0.7
 11
233.5088757718411
 21
-542.48623257604902
 31
0.0
 73
     3
  0
TEXT
  5
D7
  8
DATA
 62
     7
 10
220.93854430266461
 20
-592.97932292120095
 30
0.0
 40
12.21630859375
  1
MPX 550
 41
0.7
 11
220.93854430266461
 21
-580.76301432745095
 31
0.0
 73
     3
  0
TEXT
  5
D8
  8
DATA
 62
     7
 10
221.8203204563921
 20
-572.14856676542945
 30
0.0
 40
9.5015733506944446
  1
2ch マルチエフェクタ 
 41
0.7
 11
221.8203204563921
 21
-562.64699341473488
 31
0.0
 73
     3
  0
POLYLINE
  5
D9
  8
DATA
  6
CONTINUOUS
 62
     7
 66
     1
 10
0.0
 20
0.0
 30
0.0
 70
     1
  0
VERTEX
  5
ADB
  8
DATA
  6
CONTINUOUS
 62
     7
 10
-360.0
 20
-385.0
 30
0.0
  0
VERTEX
  5
ADC
  8
DATA
  6
CONTINUOUS
 62
     7
 10
123.0
 20
-385.0
 30
0.0
  0
VERTEX
  5
ADD
  8
DATA
  6
CONTINUOUS
 62
     7
 10
123.0
 20
-430.0
 30
0.0
  0
VERTEX
  5
ADE
  8
DATA
  6
CONTINUOUS
 62
     7
 10
-360.0
 20
-430.0
 30
0.0
  0
SEQEND
  5
ADF
  8
DATA
  6
CONTINUOUS
 62
     7
  0
POLYLINE
  5
E0
  8
DATA
  6
CONTINUOUS
 62
     7
 66
     1
 10
0.0
 20
0.0
 30
0.0
  0
VERTEX
  5
AE0
  8
DATA
  6
CONTINUOUS
 62
     7
 10
123.0
 20
-267.00000000002768
 30
0.0
  0
VERTEX
  5
AE1
  8
DATA
  6
CONTINUOUS
 62
     7
 10
123.0
 20
-270.00000000002768
 30
0.0
  0
VERTEX
  5
AE2
  8
DATA
  6
CONTINUOUS
 62
     7
 10
-360.0
 20
-270.00000000002768
 30
0.0
  0
VERTEX
  5
AE3
  8
DATA
  6
CONTINUOUS
 62
     7
 10
-360.0
 20
-267.00000000002768
 30
0.0
  0
SEQEND
  5
AE4
  8
DATA
  6
CONTINUOUS
 62
     7
  0
POLYLINE
  5
E7
  8
DATA
  6
CONTINUOUS
 62
     7
 66
     1
 10
0.0
 20
0.0
 30
0.0
 70
     1
  0
VERTEX
  5
AE5
  8
DATA
  6
CONTINUOUS
 62
     7
 10
-359.9999999520353
 20
84.999999951971603
 30
0.0
  0
VERTEX
  5
AE6
  8
DATA
  6
CONTINUOUS
 62
     7
 10
123.0000000479648
 20
84.999999951971603
 30
0.0
  0
VERTEX
  5
AE7
  8
DATA
  6
CONTINUOUS
 62
     7
 10
123.0000000479648
 20
39.999999951971603
 30
0.0
  0
VERTEX
  5
AE8
  8
DATA
  6
CONTINUOUS
 62
     7
 10
-359.9999999520353
 20
39.999999951971603
 30
0.0
  0
SEQEND
  5
AE9
  8
DATA
  6
CONTINUOUS
 62
     7
  0
INSERT
  5
EE
  8
DATA
 62
     7
  2
RACK___
 10
-351.0
 20
-391.59999999999991
 30
0.0
  0
INSERT
  5
EF
  8
DATA
 62
     7
  2
RACK___
 10
-351.0
 20
-423.39999999999992
 30
0.0
  0
INSERT
  5
F0
  8
DATA
 62
     7
  2
RACK___
 10
114.0
 20
-391.59999999999991
 30
0.0
  0
INSERT
  5
F1
  8
DATA
 62
     7
  2
RACK___
 10
114.0
 20
-423.39999999999992
 30
0.0
  0
LINE
  5
F2
  8
DATA
  6
CONTINUOUS
 62
     7
 10
-360.0
 20
-267.00000000002768
 30
0.0
 11
-333.0
 21
-267.00000000002768
 31
0.0
  0
LINE
  5
F3
  8
DATA
  6
CONTINUOUS
 62
     7
 10
96.0
 20
-267.00000000002768
 30
0.0
 11
123.0
 21
-267.00000000002768
 31
0.0
  0
INSERT
  5
F4
  8
DATA
 62
     7
  2
RACK___
 10
114.0000000479648
 20
46.59999995197154
 30
0.0
 50
180.0
  0
INSERT
  5
F5
  8
DATA
 62
     7
  2
RACK___
 10
114.0000000479648
 20
78.399999951971651
 30
0.0
 50
180.0
  0
INSERT
  5
F6
  8
DATA
 62
     7
  2
RACK___
 10
-350.99999995203518
 20
46.59999995197154
 30
0.0
 50
180.0
  0
INSERT
  5
F7
  8
DATA
 62
     7
  2
RACK___
 10
-350.99999995203518
 20
78.399999951971651
 30
0.0
 50
180.0
  0
CIRCLE
  5
F8
  8
DATA
  6
CONTINUOUS
 62
     7
 10
-81.423962144749581
 20
72.735751396818273
 30
0.0
 40
4.1500000000000332
  0
CIRCLE
  5
F9
  8
DATA
  6
CONTINUOUS
 62
     7
 10
-81.423962144749581
 20
58.377483180751277
 30
0.0
 40
4.1500000000000332
  0
CIRCLE
  5
FA
  8
DATA
  6
CONTINUOUS
 62
     7
 10
-81.423962144749581
 20
72.735751396818273
 30
0.0
 40
1.7000000000000171
  0
CIRCLE
  5
FB
  8
DATA
  6
CONTINUOUS
 62
     7
 10
-81.423962144749581
 20
58.377483180751277
 30
0.0
 40
1.7000000000000171
  0
CIRCLE
  5
FC
  8
DATA
  6
CONTINUOUS
 62
     7
 10
-75.68379317520953
 20
65.627483180751341
 30
0.0
 40
2.5999999999999939
  0
TEXT
  5
FD
  8
DATA
 62
     7
 10
-76.326180304067933
 20
51.373330516511402
 30
0.0
 40
2.693359375
  1
S/PDIF
 50
180.0
 41
0.7
 11
-76.326180304067933
 21
48.679971141511402
 31
0.0
 73
     3
  0
TEXT
  5
FE
  8
DATA
 62
     7
 10
-86.775594271850267
 20
59.915062300444447
 30
0.0
 40
2.693359375
  1
IN
 50
180.0
 41
0.7
 11
-86.775594271850267
 21
57.22170292544444
 31
0.0
 73
     3
  0
TEXT
  5
FF
  8
DATA
 62
     7
 10
-87.576180323936214
 20
74.173330516511399
 30
0.0
 40
2.693359375
  1
OUT
 50
180.0
 41
0.7
 11
-87.576180323936214
 21
71.479971141511399
 31
0.0
 73
     3
  0
POLYLINE
  5
100
  8
DATA
  6
CONTINUOUS
 62
     7
 66
     1
 10
0.0
 20
0.0
 30
0.0
  0
VERTEX
  5
AEA
  8
DATA
  6
CONTINUOUS
 62
     7
 10
-75.43379317520953
 20
65.377483180751341
 30
0.0
  0
VERTEX
  5
AEB
  8
DATA
  6
CONTINUOUS
 62
     7
 10
-75.43379317520953
 20
63.627483180751327
 30
0.0
  0
VERTEX
  5
AEC
  8
DATA
  6
CONTINUOUS
 62
     7
 10
-75.93379317520953
 20
63.627483180751327
 30
0.0
  0
VERTEX
  5
AED
  8
DATA
  6
CONTINUOUS
 62
     7
 10
-75.93379317520953
 20
65.377483180751341
 30
0.0
  0
SEQEND
  5
AEE
  8
DATA
  6
CONTINUOUS
 62
     7
  0
POLYLINE
  5
107
  8
DATA
  6
CONTINUOUS
 62
     7
 66
     1
 10
0.0
 20
0.0
 30
0.0
  0
VERTEX
  5
AEF
  8
DATA
  6
CONTINUOUS
 62
     7
 10
-75.43379317520953
 20
65.877483180751341
 30
0.0
  0
VERTEX
  5
AF0
  8
DATA
  6
CONTINUOUS
 62
     7
 10
-75.43379317520953
 20
67.627483180751341
 30
0.0
  0
VERTEX
  5
AF1
  8
DATA
  6
CONTINUOUS
 62
     7
 10
-75.93379317520953
 20
67.627483180751341
 30
0.0
  0
VERTEX
  5
AF2
  8
DATA
  6
CONTINUOUS
 62
     7
 10
-75.93379317520953
 20
65.877483180751341
 30
0.0
  0
SEQEND
  5
AF3
  8
DATA
  6
CONTINUOUS
 62
     7
  0
POLYLINE
  5
10E
  8
DATA
  6
CONTINUOUS
 62
     7
 66
     1
 10
0.0
 20
0.0
 30
0.0
  0
VERTEX
  5
AF4
  8
DATA
  6
CONTINUOUS
 62
     7
 10
-75.93379317520953
 20
65.377483180751341
 30
0.0
  0
VERTEX
  5
AF5
  8
DATA
  6
CONTINUOUS
 62
     7
 10
-77.68379317520953
 20
65.377483180751341
 30
0.0
  0
VERTEX
  5
AF6
  8
DATA
  6
CONTINUOUS
 62
     7
 10
-77.68379317520953
 20
65.877483180751341
 30
0.0
  0
VERTEX
  5
AF7
  8
DATA
  6
CONTINUOUS
 62
     7
 10
-75.93379317520953
 20
65.877483180751341
 30
0.0
  0
SEQEND
  5
AF8
  8
DATA
  6
CONTINUOUS
 62
     7
  0
POLYLINE
  5
115
  8
DATA
  6
CONTINUOUS
 62
     7
 66
     1
 10
0.0
 20
0.0
 30
0.0
  0
VERTEX
  5
AF9
  8
DATA
  6
CONTINUOUS
 62
     7
 10
-75.43379317520953
 20
65.377483180751341
 30
0.0
  0
VERTEX
  5
AFA
  8
DATA
  6
CONTINUOUS
 62
     7
 10
-73.68379317520953
 20
65.377483180751341
 30
0.0
  0
VERTEX
  5
AFB
  8
DATA
  6
CONTINUOUS
 62
     7
 10
-73.68379317520953
 20
65.877483180751341
 30
0.0
  0
VERTEX
  5
AFC
  8
DATA
  6
CONTINUOUS
 62
     7
 10
-75.43379317520953
 20
65.877483180751341
 30
0.0
  0
SEQEND
  5
AFD
  8
DATA
  6
CONTINUOUS
 62
     7
  0
TEXT
  5
11C
  8
DATA
 62
     7
 10
-53.948994228664937
 20
72.184350118035454
 30
0.0
 40
2.30859375
  1
 T-TAP
 50
180.0
 41
0.7
 11
-53.948994228664937
 21
69.875756368035454
 31
0.0
 73
     3
  0
TEXT
  5
11D
  8
DATA
 62
     7
 10
-53.948994228664937
 20
75.184350118035454
 30
0.0
 40
2.30859375
  1
 R-BYP
 50
180.0
 41
0.7
 11
-53.948994228664937
 21
72.875756368035454
 31
0.0
 73
     3
  0
TEXT
  5
11E
  8
DATA
 62
     7
 10
-53.948994228664937
 20
78.184350118035454
 30
0.0
 40
2.30859375
  1
 S-GND
 50
180.0
 41
0.7
 11
-53.948994228664937
 21
75.875756368035454
 31
0.0
 73
     3
  0
TEXT
  5
11F
  8
DATA
 62
     7
 10
-30.861068643422751
 20
50.346946253773488
 30
0.0
 40
2.30859375
  1
OUT/THRU
 50
180.0
 41
0.7
 11
-30.861068643422751
 21
48.038352503773503
 31
0.0
 73
     3
  0
TEXT
  5
120
  8
DATA
 62
     7
 10
-14.09845342577432
 20
50.403517561512167
 30
0.0
 40
2.30859375
  1
IN
 50
180.0
 41
0.7
 11
-14.09845342577432
 21
48.094923811512167
 31
0.0
 73
     3
  0
CIRCLE
  5
121
  8
DATA
  6
CONTINUOUS
 62
     7
 10
-16.265435723064989
 20
62.108458216956521
 30
0.0
 40
8.2500000000000071
  0
CIRCLE
  5
122
  8
DATA
  6
CONTINUOUS
 62
     7
 10
-16.268839186745652
 20
61.972932356068974
 30
0.0
 40
6.9000000000000012
  0
CIRCLE
  5
123
  8
DATA
  6
CONTINUOUS
 62
     7
 10
-18.855922412619918
 20
61.928394593890623
 30
0.0
 40
0.5519621081381703
  0
CIRCLE
  5
124
  8
DATA
  6
CONTINUOUS
 62
     7
 10
-17.837139153216381
 20
60.175212272242042
 30
0.0
 40
0.5522307728991206
  0
CIRCLE
  5
125
  8
DATA
  6
CONTINUOUS
 62
     7
 10
-16.01787685920473
 20
59.189358539726342
 30
0.0
 40
0.5505590016105355
  0
CIRCLE
  5
126
  8
DATA
  6
CONTINUOUS
 62
     7
 10
-14.158976102822891
 20
60.179561911894737
 30
0.0
 40
0.5526399569132444
  0
CIRCLE
  5
127
  8
DATA
  6
CONTINUOUS
 62
     7
 10
-13.11265252007172
 20
61.916104278752471
 30
0.0
 40
0.5441980039814436
  0
POLYLINE
  5
128
  8
DATA
  6
CONTINUOUS
 62
     7
 66
     1
 10
0.0
 20
0.0
 30
0.0
  0
VERTEX
  5
AFE
  8
DATA
  6
CONTINUOUS
 62
     7
 10
-15.687915917699449
 20
59.630086337052767
 30
0.0
  0
VERTEX
  5
AFF
  8
DATA
  6
CONTINUOUS
 62
     7
 10
-15.687915917699449
 20
60.509455609846832
 30
0.0
  0
VERTEX
  5
B00
  8
DATA
  6
CONTINUOUS
 62
     7
 10
-16.369894262941639
 20
60.509455609846832
 30
0.0
  0
VERTEX
  5
B01
  8
DATA
  6
CONTINUOUS
 62
     7
 10
-16.369894262941639
 20
59.612677523143887
 30
0.0
  0
SEQEND
  5
B02
  8
DATA
  6
CONTINUOUS
 62
     7
  0
POLYLINE
  5
12F
  8
DATA
  6
CONTINUOUS
 62
     7
 66
     1
 10
0.0
 20
0.0
 30
0.0
  0
VERTEX
  5
B03
  8
DATA
  6
CONTINUOUS
 62
     7
 10
-15.687915917699449
 20
58.748630742399961
 30
0.0
  0
VERTEX
  5
B04
  8
DATA
  6
CONTINUOUS
 62
     7
 10
-15.687915917699449
 20
57.891500233788733
 30
0.0
  0
VERTEX
  5
B05
  8
DATA
  6
CONTINUOUS
 62
     7
 10
-16.369894262941639
 20
57.891500233788733
 30
0.0
  0
VERTEX
  5
B06
  8
DATA
  6
CONTINUOUS
 62
     7
 10
-16.369894262941639
 20
58.766039556308797
 30
0.0
  0
SEQEND
  5
B07
  8
DATA
  6
CONTINUOUS
 62
     7
  0
POLYLINE
  5
136
  8
DATA
  6
CONTINUOUS
 62
     7
 66
     1
 10
0.0
 20
0.0
 30
0.0
  0
VERTEX
  5
B08
  8
DATA
  6
CONTINUOUS
 62
     7
 10
-14.21394200962802
 20
60.72946160373936
 30
0.0
  0
VERTEX
  5
B09
  8
DATA
  6
CONTINUOUS
 62
     7
 10
-14.82988540720137
 20
61.345405001312542
 30
0.0
  0
VERTEX
  5
B0A
  8
DATA
  6
CONTINUOUS
 62
     7
 10
-15.3138796649055
 20
60.86141074360841
 30
0.0
  0
VERTEX
  5
B0B
  8
DATA
  6
CONTINUOUS
 62
     7
 10
-14.7065665910149
 20
60.254097669718028
 30
0.0
  0
SEQEND
  5
B0C
  8
DATA
  6
CONTINUOUS
 62
     7
  0
POLYLINE
  5
13D
  8
DATA
  6
CONTINUOUS
 62
     7
 66
     1
 10
0.0
 20
0.0
 30
0.0
  0
VERTEX
  5
B0D
  8
DATA
  6
CONTINUOUS
 62
     7
 10
-13.60907641102116
 20
60.124596005132723
 30
0.0
  0
VERTEX
  5
B0E
  8
DATA
  6
CONTINUOUS
 62
     7
 10
-12.9819344590135
 20
59.497454053125232
 30
0.0
  0
VERTEX
  5
B0F
  8
DATA
  6
CONTINUOUS
 62
     7
 10
-13.465928716717629
 20
59.013459795421113
 30
0.0
  0
VERTEX
  5
B10
  8
DATA
  6
CONTINUOUS
 62
     7
 10
-14.08444034501332
 20
59.6319714237166
 30
0.0
  0
SEQEND
  5
B11
  8
DATA
  6
CONTINUOUS
 62
     7
  0
POLYLINE
  5
144
  8
DATA
  6
CONTINUOUS
 62
     7
 66
     1
 10
0.0
 20
0.0
 30
0.0
  0
VERTEX
  5
B12
  8
DATA
  6
CONTINUOUS
 62
     7
 10
-17.891683283139709
 20
59.625681777678167
 30
0.0
  0
VERTEX
  5
B13
  8
DATA
  6
CONTINUOUS
 62
     7
 10
-18.503929979670339
 20
59.013459795421113
 30
0.0
  0
VERTEX
  5
B14
  8
DATA
  6
CONTINUOUS
 62
     7
 10
-18.98792423737445
 20
59.497454053125232
 30
0.0
  0
VERTEX
  5
B15
  8
DATA
  6
CONTINUOUS
 62
     7
 10
-18.384359845952702
 20
60.100994080747931
 30
0.0
  0
SEQEND
  5
B16
  8
DATA
  6
CONTINUOUS
 62
     7
  0
POLYLINE
  5
14B
  8
DATA
  6
CONTINUOUS
 62
     7
 66
     1
 10
0.0
 20
0.0
 30
0.0
  0
VERTEX
  5
B17
  8
DATA
  6
CONTINUOUS
 62
     7
 10
-17.287606457298718
 20
60.229734219034967
 30
0.0
  0
VERTEX
  5
B18
  8
DATA
  6
CONTINUOUS
 62
     7
 10
-16.655904433107679
 20
60.86141074360841
 30
0.0
  0
VERTEX
  5
B19
  8
DATA
  6
CONTINUOUS
 62
     7
 10
-17.139898690811769
 20
61.345405001312542
 30
0.0
  0
VERTEX
  5
B1A
  8
DATA
  6
CONTINUOUS
 62
     7
 10
-17.76289887193732
 20
60.722429968541363
 30
0.0
  0
SEQEND
  5
B1B
  8
DATA
  6
CONTINUOUS
 62
     7
  0
POLYLINE
  5
152
  8
DATA
  6
CONTINUOUS
 62
     7
 66
     1
 10
0.0
 20
0.0
 30
0.0
  0
VERTEX
  5
B1C
  8
DATA
  6
CONTINUOUS
 62
     7
 10
-13.176599585832969
 20
62.456532109555091
 30
0.0
  0
VERTEX
  5
B1D
  8
DATA
  6
CONTINUOUS
 62
     7
 10
-13.817883850479801
 20
63.105479063622717
 30
0.0
  0
VERTEX
  5
B1E
  8
DATA
  6
CONTINUOUS
 62
     7
 10
-14.301878108183301
 20
62.621484805918612
 30
0.0
  0
VERTEX
  5
B1F
  8
DATA
  6
CONTINUOUS
 62
     7
 10
-13.6530570873841
 20
61.980247642744722
 30
0.0
  0
SEQEND
  5
B20
  8
DATA
  6
CONTINUOUS
 62
     7
  0
POLYLINE
  5
159
  8
DATA
  6
CONTINUOUS
 62
     7
 66
     1
 10
0.0
 20
0.0
 30
0.0
  0
VERTEX
  5
B21
  8
DATA
  6
CONTINUOUS
 62
     7
 10
-12.57302234868345
 20
61.845742743300399
 30
0.0
  0
VERTEX
  5
B22
  8
DATA
  6
CONTINUOUS
 62
     7
 10
-11.96993290229187
 20
61.23544699640302
 30
0.0
  0
VERTEX
  5
B23
  8
DATA
  6
CONTINUOUS
 62
     7
 10
-12.43192063933841
 20
60.773384660980462
 30
0.0
  0
VERTEX
  5
B24
  8
DATA
  6
CONTINUOUS
 62
     7
 10
-13.04216006250709
 20
61.376491194254541
 30
0.0
  0
SEQEND
  5
B25
  8
DATA
  6
CONTINUOUS
 62
     7
  0
POLYLINE
  5
160
  8
DATA
  6
CONTINUOUS
 62
     7
 66
     1
 10
0.0
 20
0.0
 30
0.0
  0
VERTEX
  5
B26
  8
DATA
  6
CONTINUOUS
 62
     7
 10
-18.929930679034889
 20
61.381416582142087
 30
0.0
  0
VERTEX
  5
B27
  8
DATA
  6
CONTINUOUS
 62
     7
 10
-19.537938057049502
 20
60.773384660980462
 30
0.0
  0
VERTEX
  5
B28
  8
DATA
  6
CONTINUOUS
 62
     7
 10
-20.021932314753631
 20
61.23544699640302
 30
0.0
  0
VERTEX
  5
B29
  8
DATA
  6
CONTINUOUS
 62
     7
 10
-19.403753099574121
 20
61.860987567432559
 30
0.0
  0
SEQEND
  5
B2A
  8
DATA
  6
CONTINUOUS
 62
     7
  0
POLYLINE
  5
167
  8
DATA
  6
CONTINUOUS
 62
     7
 66
     1
 10
0.0
 20
0.0
 30
0.0
  0
VERTEX
  5
B2B
  8
DATA
  6
CONTINUOUS
 62
     7
 10
-18.308947388713499
 20
62.002424939403042
 30
0.0
  0
VERTEX
  5
B2C
  8
DATA
  6
CONTINUOUS
 62
     7
 10
-17.68991251048686
 20
62.621484805918612
 30
0.0
  0
VERTEX
  5
B2D
  8
DATA
  6
CONTINUOUS
 62
     7
 10
-18.173906768190331
 20
63.105479063622717
 30
0.0
  0
VERTEX
  5
B2E
  8
DATA
  6
CONTINUOUS
 62
     7
 10
-18.7950049061408
 20
62.476984810922751
 30
0.0
  0
SEQEND
  5
B2F
  8
DATA
  6
CONTINUOUS
 62
     7
  0
POLYLINE
  5
16E
  8
DATA
  6
CONTINUOUS
 62
     7
 66
     1
 10
0.0
 20
0.0
 30
0.0
  0
VERTEX
  5
B30
  8
DATA
  6
CONTINUOUS
 62
     7
 10
-14.83797146860624
 20
67.518142229023965
 30
0.0
  0
VERTEX
  5
B31
  8
DATA
  6
CONTINUOUS
 62
     7
 10
-14.83797146860624
 20
65.856868352217916
 30
0.0
  0
VERTEX
  5
B32
  8
DATA
  6
CONTINUOUS
 62
     7
 10
-17.237971468606251
 20
65.856868352217916
 30
0.0
  0
VERTEX
  5
B33
  8
DATA
  6
CONTINUOUS
 62
     7
 10
-17.237971468606251
 20
67.518142229023965
 30
0.0
  0
SEQEND
  5
B34
  8
DATA
  6
CONTINUOUS
 62
     7
  0
ARC
  5
175
  8
DATA
  6
CONTINUOUS
 62
     7
 10
-16.03797146860623
 20
62.397422965657761
 30
0.0
 40
5.2594453865602091
 50
103.18882270300421
 51
76.811177296996121
  0
LINE
  5
176
  8
DATA
  6
CONTINUOUS
 62
     7
 10
-85.572360763670375
 20
-125.0043031222161
 30
0.0
 11
-77.272360763670378
 21
-125.0043031222161
 31
0.0
  0
LINE
  5
177
  8
DATA
  6
CONTINUOUS
 62
     7
 10
-336.0
 20
-267.00000000002768
 30
0.0
 11
-336.0
 21
-130.0000000000276
 31
0.0
  0
LINE
  5
178
  8
DATA
  6
CONTINUOUS
 62
     7
 10
99.0
 20
-267.00000000002768
 30
0.0
 11
99.0
 21
-130.0000000000276
 31
0.0
  0
LINE
  5
179
  8
DATA
  6
CONTINUOUS
 62
     7
 10
-333.0
 20
-267.00000000002768
 30
0.0
 11
-333.0
 21
-130.0000000000276
 31
0.0
  0
LINE
  5
17A
  8
DATA
  6
CONTINUOUS
 62
     7
 10
96.0
 20
-267.00000000002768
 30
0.0
 11
96.0
 21
-130.0000000000276
 31
0.0
  0
LINE
  5
17B
  8
DATA
  6
CONTINUOUS
 62
     7
 10
-333.0
 20
-255.00000000002771
 30
0.0
 11
96.0
 21
-255.00000000002771
 31
0.0
  0
LINE
  5
17C
  8
DATA
  6
CONTINUOUS
 62
     7
 10
-333.0
 20
-132.0000000000276
 30
0.0
 11
96.0
 21
-132.0000000000276
 31
0.0
  0
LINE
  5
17D
  8
DATA
  6
CONTINUOUS
 62
     7
 10
99.0
 20
-130.0000000000276
 30
0.0
 11
95.900000000000006
 21
-130.0000000000276
 31
0.0
  0
LINE
  5
17E
  8
DATA
  6
CONTINUOUS
 62
     7
 10
-336.0
 20
-130.0000000000276
 30
0.0
 11
-333.0
 21
-130.0000000000276
 31
0.0
  0
ARC
  5
17F
  8
DATA
  6
CONTINUOUS
 62
     7
 10
-309.5
 20
-409.98980866724338
 30
0.0
 40
5.9000000000000163
 50
94.763950297846606
 51
85.236049702151149
  0
ARC
  5
180
  8
DATA
  6
CONTINUOUS
 62
     7
 10
-309.5
 20
-409.98980866724338
 30
0.0
 40
8.6000000000000139
 50
93.266295856749039
 51
86.733704143249398
  0
ARC
  5
181
  8
DATA
  6
CONTINUOUS
 62
     7
 10
-309.5
 20
-409.98980866724338
 30
0.0
 40
9.4599999999999582
 50
92.969080444413365
 51
87.030919555585285
  0
LINE
  5
182
  8
DATA
  6
CONTINUOUS
 62
     7
 10
-309.9899999999999
 20
-409.98980866724338
 30
0.0
 11
-309.9899999999999
 21
-400.54250746531221
 31
0.0
  0
LINE
  5
183
  8
DATA
  6
CONTINUOUS
 62
     7
 10
-309.00999999999988
 20
-409.98980866724338
 30
0.0
 11
-309.00999999999988
 21
-400.54250746531221
 31
0.0
  0
LINE
  5
184
  8
DATA
  6
CONTINUOUS
 62
     7
 10
-309.9899999999999
 20
-409.98980866724338
 30
0.0
 11
-309.00999999999988
 21
-409.98980866724338
 31
0.0
  0
CIRCLE
  5
185
  8
DATA
  6
CONTINUOUS
 62
     7
 10
-245.5
 20
-410.0
 30
0.0
 40
4.7549999999999963
  0
CIRCLE
  5
186
  8
DATA
  6
CONTINUOUS
 62
     7
 10
-245.5
 20
-410.0
 30
0.0
 40
10.75
  0
CIRCLE
  5
187
  8
DATA
  6
CONTINUOUS
 62
     7
 10
-245.5
 20
-410.0
 30
0.0
 40
11.15
  0
CIRCLE
  5
188
  8
DATA
  6
CONTINUOUS
 62
     7
 10
-220.5
 20
-410.0
 30
0.0
 40
4.7549999999999963
  0
CIRCLE
  5
189
  8
DATA
  6
CONTINUOUS
 62
     7
 10
-220.5
 20
-410.0
 30
0.0
 40
10.75
  0
CIRCLE
  5
18A
  8
DATA
  6
CONTINUOUS
 62
     7
 10
-220.5
 20
-410.0
 30
0.0
 40
11.15
  0
CIRCLE
  5
18B
  8
DATA
  6
CONTINUOUS
 62
     7
 10
-195.5
 20
-410.0
 30
0.0
 40
4.7549999999999963
  0
CIRCLE
  5
18C
  8
DATA
  6
CONTINUOUS
 62
     7
 10
-195.5
 20
-410.0
 30
0.0
 40
10.75
  0
CIRCLE
  5
18D
  8
DATA
  6
CONTINUOUS
 62
     7
 10
-195.5
 20
-410.0
 30
0.0
 40
11.15
  0
CIRCLE
  5
18E
  8
DATA
  6
CONTINUOUS
 62
     7
 10
-170.5
 20
-410.0
 30
0.0
 40
4.7549999999999963
  0
CIRCLE
  5
18F
  8
DATA
  6
CONTINUOUS
 62
     7
 10
-170.5
 20
-410.0
 30
0.0
 40
10.75
  0
CIRCLE
  5
190
  8
DATA
  6
CONTINUOUS
 62
     7
 10
-170.5
 20
-410.0
 30
0.0
 40
11.15
  0
LINE
  5
191
  8
DATA
  6
CONTINUOUS
 62
     7
 10
-142.5
 20
-419.0
 30
0.0
 11
-57.5
 21
-419.0
 31
0.0
  0
LINE
  5
192
  8
DATA
  6
CONTINUOUS
 62
     7
 10
-142.5
 20
-397.39999999999998
 30
0.0
 11
-57.5
 21
-397.39999999999998
 31
0.0
  0
POLYLINE
  5
193
  8
DATA
  6
CONTINUOUS
 62
     7
 66
     1
 10
0.0
 20
0.0
 30
0.0
 70
     1
  0
VERTEX
  5
B35
  8
DATA
  6
CONTINUOUS
 62
     7
 10
-142.5
 20
-397.39999999999998
 30
0.0
  0
VERTEX
  5
B36
  8
DATA
  6
CONTINUOUS
 62
     7
 10
-57.5
 20
-397.39999999999998
 30
0.0
  0
VERTEX
  5
B37
  8
DATA
  6
CONTINUOUS
 62
     7
 10
-57.5
 20
-419.0
 30
0.0
  0
VERTEX
  5
B38
  8
DATA
  6
CONTINUOUS
 62
     7
 10
-142.5
 20
-419.0
 30
0.0
  0
SEQEND
  5
B39
  8
DATA
  6
CONTINUOUS
 62
     7
  0
LINE
  5
19A
  8
DATA
  6
CONTINUOUS
 62
     7
 10
81.0
 20
-396.47996533031488
 30
0.0
 11
71.5
 21
-396.47996533031488
 31
0.0
  0
LINE
  5
19B
  8
DATA
  6
CONTINUOUS
 62
     7
 10
81.0
 20
-417.47996533031483
 30
0.0
 11
71.5
 21
-417.47996533031483
 31
0.0
  0
LINE
  5
19C
  8
DATA
  6
CONTINUOUS
 62
     7
 10
71.5
 20
-417.47996533031483
 30
0.0
 11
71.5
 21
-396.47996533031488
 31
0.0
  0
LINE
  5
19D
  8
DATA
  6
CONTINUOUS
 62
     7
 10
81.0
 20
-417.47996533031483
 30
0.0
 11
81.0
 21
-396.47996533031488
 31
0.0
  0
LINE
  5
19E
  8
DATA
  6
CONTINUOUS
 62
     7
 10
73.950000000000031
 20
-415.02996533031478
 30
0.0
 11
73.950000000000031
 21
-398.92996533031487
 31
0.0
  0
LINE
  5
19F
  8
DATA
  6
CONTINUOUS
 62
     7
 10
78.549999999999955
 20
-415.02996533031478
 30
0.0
 11
78.549999999999955
 21
-398.92996533031487
 31
0.0
  0
LINE
  5
1A0
  8
DATA
  6
CONTINUOUS
 62
     7
 10
78.549999999999955
 20
-398.92996533031487
 30
0.0
 11
73.950000000000031
 21
-398.92996533031487
 31
0.0
  0
LINE
  5
1A1
  8
DATA
  6
CONTINUOUS
 62
     7
 10
78.549999999999955
 20
-415.02996533031478
 30
0.0
 11
73.950000000000031
 21
-415.02996533031478
 31
0.0
  0
LINE
  5
1A2
  8
DATA
  6
CONTINUOUS
 62
     7
 10
73.950000000000031
 20
-400.89999999999992
 30
0.0
 11
78.549999999999955
 21
-400.89999999999992
 31
0.0
  0
CIRCLE
  5
1A3
  8
DATA
  6
CONTINUOUS
 62
     7
 10
76.25
 20
-413.05000000000001
 30
0.0
 40
0.827647267862328
  0
LINE
  5
1A4
  8
DATA
  6
CONTINUOUS
 62
     7
 10
76.25
 20
-401.94999999999999
 30
0.0
 11
76.25
 21
-403.64999999999998
 31
0.0
  0
CIRCLE
  5
1A5
  8
DATA
  6
CONTINUOUS
 62
     7
 10
-3.9999999999999849
 20
-410.0
 30
0.0
 40
7.5
  0
CIRCLE
  5
1A6
  8
DATA
  6
CONTINUOUS
 62
     7
 10
-3.9999999999999849
 20
-410.0
 30
0.0
 40
13.35
  0
CIRCLE
  5
1A7
  8
DATA
  6
CONTINUOUS
 62
     7
 10
-3.9999999999999849
 20
-410.0
 30
0.0
 40
13.65
  0
ARC
  5
1A8
  8
DATA
  6
CONTINUOUS
 62
     7
 10
46.115261423066727
 20
-415.5
 30
0.0
 40
3.0
 50
90.0
 51
270.0
  0
ARC
  5
1A9
  8
DATA
  6
CONTINUOUS
 62
     7
 10
56.115261423066727
 20
-415.5
 30
0.0
 40
3.0
 50
270.0
 51
90.0
  0
LINE
  5
1AA
  8
DATA
  6
CONTINUOUS
 62
     7
 10
46.115261423066727
 20
-412.5
 30
0.0
 11
56.115261423066727
 21
-412.5
 31
0.0
  0
POLYLINE
  5
1AB
  8
DATA
  6
CONTINUOUS
 62
     7
 66
     1
 10
0.0
 20
0.0
 30
0.0
 70
     1
  0
VERTEX
  5
B3A
  8
DATA
  6
CONTINUOUS
 62
     7
 10
44.279770319039272
 20
-414.64999999999992
 30
0.0
  0
VERTEX
  5
B3B
  8
DATA
  6
CONTINUOUS
 62
     7
 10
47.979770319039261
 20
-414.64999999999992
 30
0.0
  0
VERTEX
  5
B3C
  8
DATA
  6
CONTINUOUS
 62
     7
 10
47.979770319039261
 20
-416.34999999999991
 30
0.0
  0
VERTEX
  5
B3D
  8
DATA
  6
CONTINUOUS
 62
     7
 10
44.279770319039272
 20
-416.34999999999991
 30
0.0
  0
SEQEND
  5
B3E
  8
DATA
  6
CONTINUOUS
 62
     7
  0
LINE
  5
1B2
  8
DATA
  6
CONTINUOUS
 62
     7
 10
46.115261423066727
 20
-418.5
 30
0.0
 11
56.115261423066727
 21
-418.5
 31
0.0
  0
ARC
  5
1B3
  8
DATA
  6
CONTINUOUS
 62
     7
 10
31.015261423066729
 20
-415.5
 30
0.0
 40
3.0
 50
270.0
 51
90.0
  0
ARC
  5
1B4
  8
DATA
  6
CONTINUOUS
 62
     7
 10
21.015261423066718
 20
-415.5
 30
0.0
 40
3.0
 50
90.0
 51
270.0
  0
LINE
  5
1B5
  8
DATA
  6
CONTINUOUS
 62
     7
 10
31.015261423066729
 20
-418.5
 30
0.0
 11
21.015261423066718
 21
-418.5
 31
0.0
  0
POLYLINE
  5
1B6
  8
DATA
  6
CONTINUOUS
 62
     7
 66
     1
 10
0.0
 20
0.0
 30
0.0
 70
     1
  0
VERTEX
  5
B3F
  8
DATA
  6
CONTINUOUS
 62
     7
 10
29.150752527094191
 20
-414.64999999999992
 30
0.0
  0
VERTEX
  5
B40
  8
DATA
  6
CONTINUOUS
 62
     7
 10
32.85075252709418
 20
-414.64999999999992
 30
0.0
  0
VERTEX
  5
B41
  8
DATA
  6
CONTINUOUS
 62
     7
 10
32.85075252709418
 20
-416.34999999999991
 30
0.0
  0
VERTEX
  5
B42
  8
DATA
  6
CONTINUOUS
 62
     7
 10
29.150752527094191
 20
-416.34999999999991
 30
0.0
  0
SEQEND
  5
B43
  8
DATA
  6
CONTINUOUS
 62
     7
  0
LINE
  5
1BD
  8
DATA
  6
CONTINUOUS
 62
     7
 10
31.015261423066729
 20
-412.5
 30
0.0
 11
21.015261423066718
 21
-412.5
 31
0.0
  0
ARC
  5
1BE
  8
DATA
  6
CONTINUOUS
 62
     7
 10
-39.504738576933278
 20
-415.5
 30
0.0
 40
3.0
 50
90.0
 51
270.0
  0
ARC
  5
1BF
  8
DATA
  6
CONTINUOUS
 62
     7
 10
-29.504738576933281
 20
-415.5
 30
0.0
 40
3.0
 50
270.0
 51
90.0
  0
LINE
  5
1C0
  8
DATA
  6
CONTINUOUS
 62
     7
 10
-39.504738576933278
 20
-412.5
 30
0.0
 11
-29.504738576933281
 21
-412.5
 31
0.0
  0
POLYLINE
  5
1C1
  8
DATA
  6
CONTINUOUS
 62
     7
 66
     1
 10
0.0
 20
0.0
 30
0.0
 70
     1
  0
VERTEX
  5
B44
  8
DATA
  6
CONTINUOUS
 62
     7
 10
-41.340229680960718
 20
-414.64999999999992
 30
0.0
  0
VERTEX
  5
B45
  8
DATA
  6
CONTINUOUS
 62
     7
 10
-37.640229680960744
 20
-414.64999999999992
 30
0.0
  0
VERTEX
  5
B46
  8
DATA
  6
CONTINUOUS
 62
     7
 10
-37.640229680960744
 20
-416.34999999999991
 30
0.0
  0
VERTEX
  5
B47
  8
DATA
  6
CONTINUOUS
 62
     7
 10
-41.340229680960718
 20
-416.34999999999991
 30
0.0
  0
SEQEND
  5
B48
  8
DATA
  6
CONTINUOUS
 62
     7
  0
LINE
  5
1C8
  8
DATA
  6
CONTINUOUS
 62
     7
 10
-39.504738576933278
 20
-418.5
 30
0.0
 11
-29.504738576933281
 21
-418.5
 31
0.0
  0
ARC
  5
1C9
  8
DATA
  6
CONTINUOUS
 62
     7
 10
-39.504738576933278
 20
-402.5
 30
0.0
 40
3.0
 50
90.0
 51
270.0
  0
ARC
  5
1CA
  8
DATA
  6
CONTINUOUS
 62
     7
 10
-29.504738576933281
 20
-402.5
 30
0.0
 40
3.0
 50
270.0
 51
90.0
  0
LINE
  5
1CB
  8
DATA
  6
CONTINUOUS
 62
     7
 10
-39.504738576933278
 20
-399.5
 30
0.0
 11
-29.504738576933281
 21
-399.5
 31
0.0
  0
POLYLINE
  5
1CC
  8
DATA
  6
CONTINUOUS
 62
     7
 66
     1
 10
0.0
 20
0.0
 30
0.0
 70
     1
  0
VERTEX
  5
B49
  8
DATA
  6
CONTINUOUS
 62
     7
 10
-41.340229680960718
 20
-401.64999999999992
 30
0.0
  0
VERTEX
  5
B4A
  8
DATA
  6
CONTINUOUS
 62
     7
 10
-37.640229680960744
 20
-401.64999999999992
 30
0.0
  0
VERTEX
  5
B4B
  8
DATA
  6
CONTINUOUS
 62
     7
 10
-37.640229680960744
 20
-403.35000000000002
 30
0.0
  0
VERTEX
  5
B4C
  8
DATA
  6
CONTINUOUS
 62
     7
 10
-41.340229680960718
 20
-403.35000000000002
 30
0.0
  0
SEQEND
  5
B4D
  8
DATA
  6
CONTINUOUS
 62
     7
  0
LINE
  5
1D3
  8
DATA
  6
CONTINUOUS
 62
     7
 10
-39.504738576933278
 20
-405.49999999999989
 30
0.0
 11
-29.504738576933281
 21
-405.49999999999989
 31
0.0
  0
ARC
  5
1D4
  8
DATA
  6
CONTINUOUS
 62
     7
 10
-277.95961094558709
 20
-415.5
 30
0.0
 40
3.0
 50
90.0
 51
270.0
  0
ARC
  5
1D5
  8
DATA
  6
CONTINUOUS
 62
     7
 10
-267.95961094558709
 20
-415.5
 30
0.0
 40
3.0
 50
270.0
 51
90.0
  0
LINE
  5
1D6
  8
DATA
  6
CONTINUOUS
 62
     7
 10
-277.95961094558709
 20
-412.5
 30
0.0
 11
-267.95961094558709
 21
-412.5
 31
0.0
  0
POLYLINE
  5
1D7
  8
DATA
  6
CONTINUOUS
 62
     7
 66
     1
 10
0.0
 20
0.0
 30
0.0
 70
     1
  0
VERTEX
  5
B4E
  8
DATA
  6
CONTINUOUS
 62
     7
 10
-279.79510204961463
 20
-414.64999999999992
 30
0.0
  0
VERTEX
  5
B4F
  8
DATA
  6
CONTINUOUS
 62
     7
 10
-276.09510204961452
 20
-414.64999999999992
 30
0.0
  0
VERTEX
  5
B50
  8
DATA
  6
CONTINUOUS
 62
     7
 10
-276.09510204961452
 20
-416.34999999999991
 30
0.0
  0
VERTEX
  5
B51
  8
DATA
  6
CONTINUOUS
 62
     7
 10
-279.79510204961463
 20
-416.34999999999991
 30
0.0
  0
SEQEND
  5
B52
  8
DATA
  6
CONTINUOUS
 62
     7
  0
LINE
  5
1DE
  8
DATA
  6
CONTINUOUS
 62
     7
 10
-277.95961094558709
 20
-418.5
 30
0.0
 11
-267.95961094558709
 21
-418.5
 31
0.0
  0
ARC
  5
1DF
  8
DATA
  6
CONTINUOUS
 62
     7
 10
-277.95961094558709
 20
-402.5
 30
0.0
 40
3.0
 50
90.0
 51
270.0
  0
ARC
  5
1E0
  8
DATA
  6
CONTINUOUS
 62
     7
 10
-267.95961094558709
 20
-402.5
 30
0.0
 40
3.0
 50
270.0
 51
90.0
  0
LINE
  5
1E1
  8
DATA
  6
CONTINUOUS
 62
     7
 10
-277.95961094558709
 20
-399.5
 30
0.0
 11
-267.95961094558709
 21
-399.5
 31
0.0
  0
POLYLINE
  5
1E2
  8
DATA
  6
CONTINUOUS
 62
     7
 66
     1
 10
0.0
 20
0.0
 30
0.0
 70
     1
  0
VERTEX
  5
B53
  8
DATA
  6
CONTINUOUS
 62
     7
 10
-279.79510204961463
 20
-401.64999999999992
 30
0.0
  0
VERTEX
  5
B54
  8
DATA
  6
CONTINUOUS
 62
     7
 10
-276.09510204961452
 20
-401.64999999999992
 30
0.0
  0
VERTEX
  5
B55
  8
DATA
  6
CONTINUOUS
 62
     7
 10
-276.09510204961452
 20
-403.35000000000002
 30
0.0
  0
VERTEX
  5
B56
  8
DATA
  6
CONTINUOUS
 62
     7
 10
-279.79510204961463
 20
-403.35000000000002
 30
0.0
  0
SEQEND
  5
B57
  8
DATA
  6
CONTINUOUS
 62
     7
  0
LINE
  5
1E9
  8
DATA
  6
CONTINUOUS
 62
     7
 10
-277.95961094558709
 20
-405.49999999999989
 30
0.0
 11
-267.95961094558709
 21
-405.49999999999989
 31
0.0
  0
TEXT
  5
1EA
  8
DATA
 62
     7
 10
87.484652829039646
 20
-406.33028958668802
 30
0.0
 40
3.84765625
  1
MPX 550
 41
0.7
 11
87.484652829039646
 21
-402.48263333668791
 31
0.0
 73
     3
  0
TEXT
  5
1EB
  8
DATA
 62
     7
 10
87.515144250279363
 20
-410.83300677670371
 30
0.0
 40
2.30859375
  1
Dual Channel Processor
 41
0.7
 11
87.515144250279363
 21
-408.52441302670371
 31
0.0
 73
     3
  0
LINE
  5
1EC
  8
DATA
  6
CONTINUOUS
 62
     7
 10
84.999999999999986
 20
-429.30000000000001
 30
0.0
 11
84.999999999999986
 21
-392.30000000000001
 31
0.0
  0
LINE
  5
1ED
  8
DATA
  6
CONTINUOUS
 62
     7
 10
84.999999999999986
 20
-392.30000000000001
 30
0.0
 11
16.99999910320215
 21
-392.30000000000001
 31
0.0
  0
LINE
  5
1EE
  8
DATA
  6
CONTINUOUS
 62
     7
 10
84.999999999999986
 20
-429.30000000000001
 30
0.0
 11
-295.5
 21
-429.30000000000001
 31
0.0
  0
LINE
  5
1EF
  8
DATA
  6
CONTINUOUS
 62
     7
 10
-295.5
 20
-429.30000000000001
 30
0.0
 11
-295.5
 21
-414.2999999999999
 31
0.0
  0
POLYLINE
  5
1F0
  8
DATA
  6
CONTINUOUS
 62
     7
 66
     1
 10
0.0
 20
0.0
 30
0.0
 70
   128
  0
VERTEX
  5
B58
  8
DATA
  6
CONTINUOUS
 62
     7
 10
17.0
 20
-392.30000000000001
 30
0.0
  0
VERTEX
  5
B59
  8
DATA
  6
CONTINUOUS
 62
     7
 10
19.268783229894812
 20
-392.48258154465083
 30
0.0
  0
VERTEX
  5
B5A
  8
DATA
  6
CONTINUOUS
 62
     7
 10
21.473068016739241
 20
-392.66950201849812
 30
0.0
  0
VERTEX
  5
B5B
  8
DATA
  6
CONTINUOUS
 62
     7
 10
23.612854360533252
 20
-392.86076142154212
 30
0.0
  0
VERTEX
  5
B5C
  8
DATA
  6
CONTINUOUS
 62
     7
 10
25.688142261276891
 20
-393.0563597537826
 30
0.0
  0
VERTEX
  5
B5D
  8
DATA
  6
CONTINUOUS
 62
     7
 10
27.698931718970108
 20
-393.25629701521967
 30
0.0
  0
VERTEX
  5
B5E
  8
DATA
  6
CONTINUOUS
 62
     7
 10
29.64522273361295
 20
-393.46057320585351
 30
0.0
  0
VERTEX
  5
B5F
  8
DATA
  6
CONTINUOUS
 62
     7
 10
31.527015305205399
 20
-393.66918832568399
 30
0.0
  0
VERTEX
  5
B60
  8
DATA
  6
CONTINUOUS
 62
     7
 10
33.344309433747441
 20
-393.8821423747109
 30
0.0
  0
VERTEX
  5
B61
  8
DATA
  6
CONTINUOUS
 62
     7
 10
35.097105119239089
 20
-394.09943535293462
 30
0.0
  0
VERTEX
  5
B62
  8
DATA
  6
CONTINUOUS
 62
     7
 10
36.785402361680347
 20
-394.32106726035482
 30
0.0
  0
VERTEX
  5
B63
  8
DATA
  6
CONTINUOUS
 62
     7
 10
38.409201161071223
 20
-394.54703809697162
 30
0.0
  0
VERTEX
  5
B64
  8
DATA
  6
CONTINUOUS
 62
     7
 10
39.968501517411681
 20
-394.77734786278512
 30
0.0
  0
VERTEX
  5
B65
  8
DATA
  6
CONTINUOUS
 62
     7
 10
41.463303430701743
 20
-395.01199655779521
 30
0.0
  0
VERTEX
  5
B66
  8
DATA
  6
CONTINUOUS
 62
     7
 10
42.893606900941421
 20
-395.2509841820019
 30
0.0
  0
VERTEX
  5
B67
  8
DATA
  6
CONTINUOUS
 62
     7
 10
44.259411928130703
 20
-395.49431073540518
 30
0.0
  0
VERTEX
  5
B68
  8
DATA
  6
CONTINUOUS
 62
     7
 10
45.560718512269581
 20
-395.74197621800522
 30
0.0
  0
VERTEX
  5
B69
  8
DATA
  6
CONTINUOUS
 62
     7
 10
46.797526653358069
 20
-395.99398062980163
 30
0.0
  0
VERTEX
  5
B6A
  8
DATA
  6
CONTINUOUS
 62
     7
 10
47.969836351396161
 20
-396.25032397079491
 30
0.0
  0
VERTEX
  5
B6B
  8
DATA
  6
CONTINUOUS
 62
     7
 10
49.077647606383863
 20
-396.51100624098461
 30
0.0
  0
VERTEX
  5
B6C
  8
DATA
  6
CONTINUOUS
 62
     7
 10
50.120960418321161
 20
-396.77602744037091
 30
0.0
  0
VERTEX
  5
B6D
  8
DATA
  6
CONTINUOUS
 62
     7
 10
51.099774787208069
 20
-397.0453875689538
 30
0.0
  0
VERTEX
  5
B6E
  8
DATA
  6
CONTINUOUS
 62
     7
 10
52.014090713044567
 20
-397.31908662673339
 30
0.0
  0
VERTEX
  5
B6F
  8
DATA
  6
CONTINUOUS
 62
     7
 10
52.86390819583071
 20
-397.5971246137097
 30
0.0
  0
VERTEX
  5
B70
  8
DATA
  6
CONTINUOUS
 62
     7
 10
53.649227235566428
 20
-397.87950152988259
 30
0.0
  0
VERTEX
  5
B71
  8
DATA
  6
CONTINUOUS
 62
     7
 10
54.370047832251743
 20
-398.16621737525202
 30
0.0
  0
VERTEX
  5
B72
  8
DATA
  6
CONTINUOUS
 62
     7
 10
55.02636998588666
 20
-398.45727214981798
 30
0.0
  0
VERTEX
  5
B73
  8
DATA
  6
CONTINUOUS
 62
     7
 10
55.618193696471209
 20
-398.75266585358082
 30
0.0
  0
VERTEX
  5
B74
  8
DATA
  6
CONTINUOUS
 62
     7
 10
56.145518964005348
 20
-399.05239848654003
 30
0.0
  0
VERTEX
  5
B75
  8
DATA
  6
CONTINUOUS
 62
     7
 10
56.608345788489103
 20
-399.35647004869588
 30
0.0
  0
VERTEX
  5
B76
  8
DATA
  6
CONTINUOUS
 62
     7
 10
57.006674169922462
 20
-399.66488054004839
 30
0.0
  0
VERTEX
  5
B77
  8
DATA
  6
CONTINUOUS
 62
     7
 10
57.340504108305403
 20
-399.97762996059748
 30
0.0
  0
VERTEX
  5
B78
  8
DATA
  6
CONTINUOUS
 62
     7
 10
57.609835603637961
 20
-400.29471831034311
 30
0.0
  0
VERTEX
  5
B79
  8
DATA
  6
CONTINUOUS
 62
     7
 10
57.814668655920123
 20
-400.61614558928562
 30
0.0
  0
VERTEX
  5
B7A
  8
DATA
  6
CONTINUOUS
 62
     7
 10
57.955003265151888
 20
-400.9419117974245
 30
0.0
  0
VERTEX
  5
B7B
  8
DATA
  6
CONTINUOUS
 62
     7
 10
58.030839431333263
 20
-401.27201693476002
 30
0.0
  0
VERTEX
  5
B7C
  8
DATA
  6
CONTINUOUS
 62
     7
 10
58.042177154464248
 20
-401.6064610012923
 30
0.0
  0
VERTEX
  5
B7D
  8
DATA
  6
CONTINUOUS
 62
     7
 10
57.989016434544823
 20
-401.9452439970209
 30
0.0
  0
VERTEX
  5
B7E
  8
DATA
  6
CONTINUOUS
 62
     7
 10
57.871357271575008
 20
-402.28836592194648
 30
0.0
  0
VERTEX
  5
B7F
  8
DATA
  6
CONTINUOUS
 62
     7
 10
57.689199665554803
 20
-402.63582677606843
 30
0.0
  0
VERTEX
  5
B80
  8
DATA
  6
CONTINUOUS
 62
     7
 10
57.442543616484187
 20
-402.98762655938719
 30
0.0
  0
VERTEX
  5
B81
  8
DATA
  6
CONTINUOUS
 62
     7
 10
57.131389124363182
 20
-403.34376527190233
 30
0.0
  0
VERTEX
  5
B82
  8
DATA
  6
CONTINUOUS
 62
     7
 10
56.755736189191779
 20
-403.70424291361428
 30
0.0
  0
VERTEX
  5
B83
  8
DATA
  6
CONTINUOUS
 62
     7
 10
56.315584810970009
 20
-404.0690594845226
 30
0.0
  0
VERTEX
  5
B84
  8
DATA
  6
CONTINUOUS
 62
     7
 10
55.81093498969782
 20
-404.43821498462762
 30
0.0
  0
VERTEX
  5
B85
  8
DATA
  6
CONTINUOUS
 62
     7
 10
55.241786725375242
 20
-404.81170941392941
 30
0.0
  0
VERTEX
  5
B86
  8
DATA
  6
CONTINUOUS
 62
     7
 10
54.60814001800226
 20
-405.18954277242761
 30
0.0
  0
VERTEX
  5
B87
  8
DATA
  6
CONTINUOUS
 62
     7
 10
53.909994867578888
 20
-405.57171506012247
 30
0.0
  0
VERTEX
  5
B88
  8
DATA
  6
CONTINUOUS
 62
     7
 10
53.147351274105141
 20
-405.95822627701421
 30
0.0
  0
VERTEX
  5
B89
  8
DATA
  6
CONTINUOUS
 62
     7
 10
52.320209237580968
 20
-406.34907642310242
 30
0.0
  0
VERTEX
  5
B8A
  8
DATA
  6
CONTINUOUS
 62
     7
 10
51.428568758006421
 20
-406.74426549838711
 30
0.0
  0
VERTEX
  5
B8B
  8
DATA
  6
CONTINUOUS
 62
     7
 10
50.472429835381462
 20
-407.1437935028685
 30
0.0
  0
VERTEX
  5
B8C
  8
DATA
  6
CONTINUOUS
 62
     7
 10
49.451792469706113
 20
-407.54766043654649
 30
0.0
  0
VERTEX
  5
B8D
  8
DATA
  6
CONTINUOUS
 62
     7
 10
48.366656660980382
 20
-407.95586629942107
 30
0.0
  0
VERTEX
  5
B8E
  8
DATA
  6
CONTINUOUS
 62
     7
 10
47.217022409204219
 20
-408.36841109149231
 30
0.0
  0
VERTEX
  5
B8F
  8
DATA
  6
CONTINUOUS
 62
     7
 10
46.002889714377702
 20
-408.78529481276013
 30
0.0
  0
VERTEX
  5
B90
  8
DATA
  6
CONTINUOUS
 62
     7
 10
44.72425857650078
 20
-409.2065174632246
 30
0.0
  0
VERTEX
  5
B91
  8
DATA
  6
CONTINUOUS
 62
     7
 10
43.381128995573448
 20
-409.63207904288561
 30
0.0
  0
VERTEX
  5
B92
  8
DATA
  6
CONTINUOUS
 62
     7
 10
41.973500971595719
 20
-410.06197955174321
 30
0.0
  0
VERTEX
  5
B93
  8
DATA
  6
CONTINUOUS
 62
     7
 10
40.501374504567607
 20
-410.49621898979763
 30
0.0
  0
VERTEX
  5
B94
  8
DATA
  6
CONTINUOUS
 62
     7
 10
38.964749594489113
 20
-410.93479735704841
 30
0.0
  0
VERTEX
  5
B95
  8
DATA
  6
CONTINUOUS
 62
     7
 10
37.363626241360201
 20
-411.3777146534959
 30
0.0
  0
VERTEX
  5
B96
  8
DATA
  6
CONTINUOUS
 62
     7
 10
35.698004445180899
 20
-411.8249708791401
 30
0.0
  0
VERTEX
  5
B97
  8
DATA
  6
CONTINUOUS
 62
     7
 10
33.967884205951201
 20
-412.27656603398071
 30
0.0
  0
VERTEX
  5
B98
  8
DATA
  6
CONTINUOUS
 62
     7
 10
32.173265523671112
 20
-412.73250011801821
 30
0.0
  0
VERTEX
  5
B99
  8
DATA
  6
CONTINUOUS
 62
     7
 10
32.173265523671112
 20
-412.73250011801821
 30
0.0
  0
SEQEND
  5
B9A
  8
DATA
  6
CONTINUOUS
 62
     7
  0
POLYLINE
  5
234
  8
DATA
  6
CONTINUOUS
 62
     7
 66
     1
 10
0.0
 20
0.0
 30
0.0
 70
   128
  0
VERTEX
  5
B9B
  8
DATA
  6
CONTINUOUS
 62
     7
 10
18.05582382278774
 20
-415.99169016419518
 30
0.0
  0
VERTEX
  5
B9C
  8
DATA
  6
CONTINUOUS
 62
     7
 10
17.891178505514731
 20
-416.02704074930568
 30
0.0
  0
VERTEX
  5
B9D
  8
DATA
  6
CONTINUOUS
 62
     7
 10
17.72619494627094
 20
-416.0624140885771
 30
0.0
  0
VERTEX
  5
B9E
  8
DATA
  6
CONTINUOUS
 62
     7
 10
17.56087314505637
 20
-416.09781018200971
 30
0.0
  0
VERTEX
  5
B9F
  8
DATA
  6
CONTINUOUS
 62
     7
 10
17.395213101871029
 20
-416.13322902960351
 30
0.0
  0
VERTEX
  5
BA0
  8
DATA
  6
CONTINUOUS
 62
     7
 10
17.229214816714912
 20
-416.16867063135828
 30
0.0
  0
VERTEX
  5
BA1
  8
DATA
  6
CONTINUOUS
 62
     7
 10
17.06287828958801
 20
-416.20413498727402
 30
0.0
  0
VERTEX
  5
BA2
  8
DATA
  6
CONTINUOUS
 62
     7
 10
16.896203520490321
 20
-416.23962209735112
 30
0.0
  0
VERTEX
  5
BA3
  8
DATA
  6
CONTINUOUS
 62
     7
 10
16.729190509421858
 20
-416.27513196158912
 30
0.0
  0
VERTEX
  5
BA4
  8
DATA
  6
CONTINUOUS
 62
     7
 10
16.561839256382619
 20
-416.3106645799881
 30
0.0
  0
VERTEX
  5
BA5
  8
DATA
  6
CONTINUOUS
 62
     7
 10
16.39414976137261
 20
-416.34621995254821
 30
0.0
  0
VERTEX
  5
BA6
  8
DATA
  6
CONTINUOUS
 62
     7
 10
16.22612202439181
 20
-416.38179807926957
 30
0.0
  0
VERTEX
  5
BA7
  8
DATA
  6
CONTINUOUS
 62
     7
 10
16.057756045440239
 20
-416.41739896015179
 30
0.0
  0
VERTEX
  5
BA8
  8
DATA
  6
CONTINUOUS
 62
     7
 10
15.889051824517891
 20
-416.45302259519519
 30
0.0
  0
VERTEX
  5
BA9
  8
DATA
  6
CONTINUOUS
 62
     7
 10
15.72000936162476
 20
-416.48866898439968
 30
0.0
  0
VERTEX
  5
BAA
  8
DATA
  6
CONTINUOUS
 62
     7
 10
15.55062865676085
 20
-416.5243381277653
 30
0.0
  0
VERTEX
  5
BAB
  8
DATA
  6
CONTINUOUS
 62
     7
 10
15.38090970992617
 20
-416.56003002529189
 30
0.0
  0
VERTEX
  5
BAC
  8
DATA
  6
CONTINUOUS
 62
     7
 10
15.21085252112071
 20
-416.59574467697962
 30
0.0
  0
VERTEX
  5
BAD
  8
DATA
  6
CONTINUOUS
 62
     7
 10
15.040457090344461
 20
-416.63148208282848
 30
0.0
  0
VERTEX
  5
BAE
  8
DATA
  6
CONTINUOUS
 62
     7
 10
14.86972341759744
 20
-416.66724224283831
 30
0.0
  0
VERTEX
  5
BAF
  8
DATA
  6
CONTINUOUS
 62
     7
 10
14.698651502879651
 20
-416.70302515700928
 30
0.0
  0
VERTEX
  5
BB0
  8
DATA
  6
CONTINUOUS
 62
     7
 10
14.527241346191071
 20
-416.73883082534121
 30
0.0
  0
VERTEX
  5
BB1
  8
DATA
  6
CONTINUOUS
 62
     7
 10
14.355492947531721
 20
-416.77465924783439
 30
0.0
  0
VERTEX
  5
BB2
  8
DATA
  6
CONTINUOUS
 62
     7
 10
14.183406306901579
 20
-416.81051042448883
 30
0.0
  0
VERTEX
  5
BB3
  8
DATA
  6
CONTINUOUS
 62
     7
 10
14.01098142430067
 20
-416.846384355304
 30
0.0
  0
VERTEX
  5
BB4
  8
DATA
  6
CONTINUOUS
 62
     7
 10
13.838218299728981
 20
-416.8822810402803
 30
0.0
  0
VERTEX
  5
BB5
  8
DATA
  6
CONTINUOUS
 62
     7
 10
13.665116933186511
 20
-416.91820047941769
 30
0.0
  0
VERTEX
  5
BB6
  8
DATA
  6
CONTINUOUS
 62
     7
 10
13.491677324673271
 20
-416.95414267271622
 30
0.0
  0
VERTEX
  5
BB7
  8
DATA
  6
CONTINUOUS
 62
     7
 10
13.31789947418925
 20
-416.99010762017582
 30
0.0
  0
VERTEX
  5
BB8
  8
DATA
  6
CONTINUOUS
 62
     7
 10
13.14378338173444
 20
-417.0260953217965
 30
0.0
  0
VERTEX
  5
BB9
  8
DATA
  6
CONTINUOUS
 62
     7
 10
12.969329047308859
 20
-417.06210577757821
 30
0.0
  0
VERTEX
  5
BBA
  8
DATA
  6
CONTINUOUS
 62
     7
 10
12.794536470912499
 20
-417.09813898752111
 30
0.0
  0
VERTEX
  5
BBB
  8
DATA
  6
CONTINUOUS
 62
     7
 10
12.61940565254536
 20
-417.13419495162492
 30
0.0
  0
VERTEX
  5
BBC
  8
DATA
  6
CONTINUOUS
 62
     7
 10
12.44393659220745
 20
-417.17027366988992
 30
0.0
  0
VERTEX
  5
BBD
  8
DATA
  6
CONTINUOUS
 62
     7
 10
12.268129289898759
 20
-417.20637514231589
 30
0.0
  0
VERTEX
  5
BBE
  8
DATA
  6
CONTINUOUS
 62
     7
 10
12.091983745619279
 20
-417.24249936890322
 30
0.0
  0
VERTEX
  5
BBF
  8
DATA
  6
CONTINUOUS
 62
     7
 10
11.915499959369029
 20
-417.27864634965141
 30
0.0
  0
VERTEX
  5
BC0
  8
DATA
  6
CONTINUOUS
 62
     7
 10
11.738677931148001
 20
-417.31481608456079
 30
0.0
  0
VERTEX
  5
BC1
  8
DATA
  6
CONTINUOUS
 62
     7
 10
11.5615176609562
 20
-417.35100857363108
 30
0.0
  0
VERTEX
  5
BC2
  8
DATA
  6
CONTINUOUS
 62
     7
 10
11.384019148793611
 20
-417.3872238168625
 30
0.0
  0
VERTEX
  5
BC3
  8
DATA
  6
CONTINUOUS
 62
     7
 10
11.206182394660249
 20
-417.42346181425512
 30
0.0
  0
VERTEX
  5
BC4
  8
DATA
  6
CONTINUOUS
 62
     7
 10
11.02800739855611
 20
-417.45972256580882
 30
0.0
  0
VERTEX
  5
BC5
  8
DATA
  6
CONTINUOUS
 62
     7
 10
10.849494160481189
 20
-417.49600607152342
 30
0.0
  0
VERTEX
  5
BC6
  8
DATA
  6
CONTINUOUS
 62
     7
 10
10.67064268043549
 20
-417.53231233139911
 30
0.0
  0
VERTEX
  5
BC7
  8
DATA
  6
CONTINUOUS
 62
     7
 10
10.491452958419019
 20
-417.56864134543611
 30
0.0
  0
VERTEX
  5
BC8
  8
DATA
  6
CONTINUOUS
 62
     7
 10
10.311924994431759
 20
-417.60499311363401
 30
0.0
  0
VERTEX
  5
BC9
  8
DATA
  6
CONTINUOUS
 62
     7
 10
10.13205878847373
 20
-417.64136763599288
 30
0.0
  0
VERTEX
  5
BCA
  8
DATA
  6
CONTINUOUS
 62
     7
 10
9.9518543405449194
 20
-417.677764912513
 30
0.0
  0
VERTEX
  5
BCB
  8
DATA
  6
CONTINUOUS
 62
     7
 10
9.7713116506453304
 20
-417.7141849431942
 30
0.0
  0
VERTEX
  5
BCC
  8
DATA
  6
CONTINUOUS
 62
     7
 10
9.5904307187749591
 20
-417.75062772803659
 30
0.0
  0
VERTEX
  5
BCD
  8
DATA
  6
CONTINUOUS
 62
     7
 10
9.4092115449338163
 20
-417.78709326703989
 30
0.0
  0
VERTEX
  5
BCE
  8
DATA
  6
CONTINUOUS
 62
     7
 10
9.2276541291218912
 20
-417.82358156020427
 30
0.0
  0
VERTEX
  5
BCF
  8
DATA
  6
CONTINUOUS
 62
     7
 10
9.0457584713391928
 20
-417.86009260752979
 30
0.0
  0
VERTEX
  5
BD0
  8
DATA
  6
CONTINUOUS
 62
     7
 10
8.8635245715857103
 20
-417.89662640901639
 30
0.0
  0
VERTEX
  5
BD1
  8
DATA
  6
CONTINUOUS
 62
     7
 10
8.6809524298614527
 20
-417.93318296466401
 30
0.0
  0
VERTEX
  5
BD2
  8
DATA
  6
CONTINUOUS
 62
     7
 10
8.4980420461664163
 20
-417.96976227447283
 30
0.0
  0
VERTEX
  5
BD3
  8
DATA
  6
CONTINUOUS
 62
     7
 10
8.3147934205006013
 20
-418.00636433844249
 30
0.0
  0
VERTEX
  5
BD4
  8
DATA
  6
CONTINUOUS
 62
     7
 10
8.1312065528640058
 20
-418.04298915657353
 30
0.0
  0
VERTEX
  5
BD5
  8
DATA
  6
CONTINUOUS
 62
     7
 10
7.947281443256637
 20
-418.07963672886552
 30
0.0
  0
VERTEX
  5
BD6
  8
DATA
  6
CONTINUOUS
 62
     7
 10
7.7630180916784859
 20
-418.11630705531849
 30
0.0
  0
VERTEX
  5
BD7
  8
DATA
  6
CONTINUOUS
 62
     7
 10
7.5784164981295579
 20
-418.15300013593259
 30
0.0
  0
VERTEX
  5
BD8
  8
DATA
  6
CONTINUOUS
 62
     7
 10
7.393476662609852
 20
-418.18971597070788
 30
0.0
  0
VERTEX
  5
BD9
  8
DATA
  6
CONTINUOUS
 62
     7
 10
7.2081985851193693
 20
-418.22645455964408
 30
0.0
  0
VERTEX
  5
BDA
  8
DATA
  6
CONTINUOUS
 62
     7
 10
7.0225822656581052
 20
-418.26321590274159
 30
0.0
  0
VERTEX
  5
BDB
  8
DATA
  6
CONTINUOUS
 62
     7
 10
6.836627704226065
 20
-418.2999999999999
 30
0.0
  0
VERTEX
  5
BDC
  8
DATA
  6
CONTINUOUS
 62
     7
 10
6.836627704226065
 20
-418.2999999999999
 30
0.0
  0
SEQEND
  5
BDD
  8
DATA
  6
CONTINUOUS
 62
     7
  0
POLYLINE
  5
278
  8
DATA
  6
CONTINUOUS
 62
     7
 66
     1
 10
0.0
 20
0.0
 30
0.0
 70
   128
  0
VERTEX
  5
BDE
  8
DATA
  6
CONTINUOUS
 62
     7
 10
-295.5
 20
-414.2999999999999
 30
0.0
  0
VERTEX
  5
BDF
  8
DATA
  6
CONTINUOUS
 62
     7
 10
-295.27012207715057
 20
-414.32224995311282
 30
0.0
  0
VERTEX
  5
BE0
  8
DATA
  6
CONTINUOUS
 62
     7
 10
-295.04032654475247
 20
-414.34448003110771
 30
0.0
  0
VERTEX
  5
BE1
  8
DATA
  6
CONTINUOUS
 62
     7
 10
-294.81061340280547
 20
-414.36669023398503
 30
0.0
  0
VERTEX
  5
BE2
  8
DATA
  6
CONTINUOUS
 62
     7
 10
-294.5809826513098
 20
-414.38888056174449
 30
0.0
  0
VERTEX
  5
BE3
  8
DATA
  6
CONTINUOUS
 62
     7
 10
-294.35143429026522
 20
-414.41105101438632
 30
0.0
  0
VERTEX
  5
BE4
  8
DATA
  6
CONTINUOUS
 62
     7
 10
-294.12196831967202
 20
-414.43320159191012
 30
0.0
  0
VERTEX
  5
BE5
  8
DATA
  6
CONTINUOUS
 62
     7
 10
-293.89258473952992
 20
-414.45533229431618
 30
0.0
  0
VERTEX
  5
BE6
  8
DATA
  6
CONTINUOUS
 62
     7
 10
-293.66328354983898
 20
-414.47744312160472
 30
0.0
  0
VERTEX
  5
BE7
  8
DATA
  6
CONTINUOUS
 62
     7
 10
-293.43406475059942
 20
-414.49953407377541
 30
0.0
  0
VERTEX
  5
BE8
  8
DATA
  6
CONTINUOUS
 62
     7
 10
-293.2049283418109
 20
-414.52160515082812
 30
0.0
  0
VERTEX
  5
BE9
  8
DATA
  6
CONTINUOUS
 62
     7
 10
-292.9758743234737
 20
-414.54365635276309
 30
0.0
  0
VERTEX
  5
BEA
  8
DATA
  6
CONTINUOUS
 62
     7
 10
-292.74690269558761
 20
-414.56568767958061
 30
0.0
  0
VERTEX
  5
BEB
  8
DATA
  6
CONTINUOUS
 62
     7
 10
-292.51801345815278
 20
-414.58769913128009
 30
0.0
  0
VERTEX
  5
BEC
  8
DATA
  6
CONTINUOUS
 62
     7
 10
-292.28920661116922
 20
-414.60969070786189
 30
0.0
  0
VERTEX
  5
BED
  8
DATA
  6
CONTINUOUS
 62
     7
 10
-292.06048215463687
 20
-414.63166240932588
 30
0.0
  0
VERTEX
  5
BEE
  8
DATA
  6
CONTINUOUS
 62
     7
 10
-291.83184008855568
 20
-414.65361423567208
 30
0.0
  0
VERTEX
  5
BEF
  8
DATA
  6
CONTINUOUS
 62
     7
 10
-291.60328041292581
 20
-414.6755461869007
 30
0.0
  0
VERTEX
  5
BF0
  8
DATA
  6
CONTINUOUS
 62
     7
 10
-291.3748031277471
 20
-414.69745826301141
 30
0.0
  0
VERTEX
  5
BF1
  8
DATA
  6
CONTINUOUS
 62
     7
 10
-291.1464082330196
 20
-414.71935046400421
 30
0.0
  0
VERTEX
  5
BF2
  8
DATA
  6
CONTINUOUS
 62
     7
 10
-290.9180957287432
 20
-414.74122278987937
 30
0.0
  0
VERTEX
  5
BF3
  8
DATA
  6
CONTINUOUS
 62
     7
 10
-290.68986561491812
 20
-414.76307524063691
 30
0.0
  0
VERTEX
  5
BF4
  8
DATA
  6
CONTINUOUS
 62
     7
 10
-290.4617178915442
 20
-414.78490781627647
 30
0.0
  0
VERTEX
  5
BF5
  8
DATA
  6
CONTINUOUS
 62
     7
 10
-290.23365255862149
 20
-414.80672051679829
 30
0.0
  0
VERTEX
  5
BF6
  8
DATA
  6
CONTINUOUS
 62
     7
 10
-290.0056696161501
 20
-414.82851334220243
 30
0.0
  0
VERTEX
  5
BF7
  8
DATA
  6
CONTINUOUS
 62
     7
 10
-289.77776906412981
 20
-414.85028629248859
 30
0.0
  0
VERTEX
  5
BF8
  8
DATA
  6
CONTINUOUS
 62
     7
 10
-289.54995090256079
 20
-414.87203936765718
 30
0.0
  0
VERTEX
  5
BF9
  8
DATA
  6
CONTINUOUS
 62
     7
 10
-289.32221513144287
 20
-414.89377256770791
 30
0.0
  0
VERTEX
  5
BFA
  8
DATA
  6
CONTINUOUS
 62
     7
 10
-289.09456175077628
 20
-414.9154858926409
 30
0.0
  0
VERTEX
  5
BFB
  8
DATA
  6
CONTINUOUS
 62
     7
 10
-288.86699076056078
 20
-414.93717934245609
 30
0.0
  0
VERTEX
  5
BFC
  8
DATA
  6
CONTINUOUS
 62
     7
 10
-288.63950216079672
 20
-414.95885291715371
 30
0.0
  0
VERTEX
  5
BFD
  8
DATA
  6
CONTINUOUS
 62
     7
 10
-288.41209595148371
 20
-414.98050661673341
 30
0.0
  0
VERTEX
  5
BFE
  8
DATA
  6
CONTINUOUS
 62
     7
 10
-288.1847721326219
 20
-415.00214044119508
 30
0.0
  0
VERTEX
  5
BFF
  8
DATA
  6
CONTINUOUS
 62
     7
 10
-287.95753070421131
 20
-415.02375439053941
 30
0.0
  0
VERTEX
  5
C00
  8
DATA
  6
CONTINUOUS
 62
     7
 10
-287.73037166625198
 20
-415.04534846476571
 30
0.0
  0
VERTEX
  5
C01
  8
DATA
  6
CONTINUOUS
 62
     7
 10
-287.50329501874381
 20
-415.06692266387432
 30
0.0
  0
VERTEX
  5
C02
  8
DATA
  6
CONTINUOUS
 62
     7
 10
-287.27630076168691
 20
-415.08847698786508
 30
0.0
  0
VERTEX
  5
C03
  8
DATA
  6
CONTINUOUS
 62
     7
 10
-287.04938889508128
 20
-415.1100114367382
 30
0.0
  0
VERTEX
  5
C04
  8
DATA
  6
CONTINUOUS
 62
     7
 10
-286.82255941892669
 20
-415.13152601049359
 30
0.0
  0
VERTEX
  5
C05
  8
DATA
  6
CONTINUOUS
 62
     7
 10
-286.59581233322348
 20
-415.15302070913111
 30
0.0
  0
VERTEX
  5
C06
  8
DATA
  6
CONTINUOUS
 62
     7
 10
-286.36914763797142
 20
-415.17449553265089
 30
0.0
  0
VERTEX
  5
C07
  8
DATA
  6
CONTINUOUS
 62
     7
 10
-286.14256533317052
 20
-415.19595048105271
 30
0.0
  0
VERTEX
  5
C08
  8
DATA
  6
CONTINUOUS
 62
     7
 10
-285.91606541882101
 20
-415.21738555433689
 30
0.0
  0
VERTEX
  5
C09
  8
DATA
  6
CONTINUOUS
 62
     7
 10
-285.68964789492247
 20
-415.23880075250338
 30
0.0
  0
VERTEX
  5
C0A
  8
DATA
  6
CONTINUOUS
 62
     7
 10
-285.46331276147532
 20
-415.26019607555207
 30
0.0
  0
VERTEX
  5
C0B
  8
DATA
  6
CONTINUOUS
 62
     7
 10
-285.23706001847933
 20
-415.28157152348291
 30
0.0
  0
VERTEX
  5
C0C
  8
DATA
  6
CONTINUOUS
 62
     7
 10
-285.01088966593449
 20
-415.30292709629612
 30
0.0
  0
VERTEX
  5
C0D
  8
DATA
  6
CONTINUOUS
 62
     7
 10
-284.7848017038408
 20
-415.32426279399158
 30
0.0
  0
VERTEX
  5
C0E
  8
DATA
  6
CONTINUOUS
 62
     7
 10
-284.55879613219849
 20
-415.34557861656918
 30
0.0
  0
VERTEX
  5
C0F
  8
DATA
  6
CONTINUOUS
 62
     7
 10
-284.3328729510074
 20
-415.3668745640291
 30
0.0
  0
VERTEX
  5
C10
  8
DATA
  6
CONTINUOUS
 62
     7
 10
-284.10703216026729
 20
-415.38815063637122
 30
0.0
  0
VERTEX
  5
C11
  8
DATA
  6
CONTINUOUS
 62
     7
 10
-283.88127375997868
 20
-415.40940683359531
 30
0.0
  0
VERTEX
  5
C12
  8
DATA
  6
CONTINUOUS
 62
     7
 10
-283.65559775014111
 20
-415.43064315570177
 30
0.0
  0
VERTEX
  5
C13
  8
DATA
  6
CONTINUOUS
 62
     7
 10
-283.43000413075492
 20
-415.4518596026906
 30
0.0
  0
VERTEX
  5
C14
  8
DATA
  6
CONTINUOUS
 62
     7
 10
-283.20449290181978
 20
-415.47305617456158
 30
0.0
  0
VERTEX
  5
C15
  8
DATA
  6
CONTINUOUS
 62
     7
 10
-282.9790640633359
 20
-415.49423287131481
 30
0.0
  0
VERTEX
  5
C16
  8
DATA
  6
CONTINUOUS
 62
     7
 10
-282.75371761530329
 20
-415.51538969295029
 30
0.0
  0
VERTEX
  5
C17
  8
DATA
  6
CONTINUOUS
 62
     7
 10
-282.52845355772178
 20
-415.53652663946798
 30
0.0
  0
VERTEX
  5
C18
  8
DATA
  6
CONTINUOUS
 62
     7
 10
-282.30327189059147
 20
-415.55764371086781
 30
0.0
  0
VERTEX
  5
C19
  8
DATA
  6
CONTINUOUS
 62
     7
 10
-282.0781726139125
 20
-415.57874090714978
 30
0.0
  0
VERTEX
  5
C1A
  8
DATA
  6
CONTINUOUS
 62
     7
 10
-281.85315572768468
 20
-415.59981822831418
 30
0.0
  0
VERTEX
  5
C1B
  8
DATA
  6
CONTINUOUS
 62
     7
 10
-281.62822123190813
 20
-415.62087567436089
 30
0.0
  0
VERTEX
  5
C1C
  8
DATA
  6
CONTINUOUS
 62
     7
 10
-281.40336912658279
 20
-415.64191324528969
 30
0.0
  0
VERTEX
  5
C1D
  8
DATA
  6
CONTINUOUS
 62
     7
 10
-281.1785994117086
 20
-415.6629309411008
 30
0.0
  0
VERTEX
  5
C1E
  8
DATA
  6
CONTINUOUS
 62
     7
 10
-280.95391208728557
 20
-415.68392876179399
 30
0.0
  0
VERTEX
  5
C1F
  8
DATA
  6
CONTINUOUS
 62
     7
 10
-280.95391208728557
 20
-415.68392876179399
 30
0.0
  0
SEQEND
  5
C20
  8
DATA
  6
CONTINUOUS
 62
     7
  0
POLYLINE
  5
2BC
  8
DATA
  6
CONTINUOUS
 62
     7
 66
     1
 10
0.0
 20
0.0
 30
0.0
 70
   128
  0
VERTEX
  5
C21
  8
DATA
  6
CONTINUOUS
 62
     7
 10
-279.79496557750878
 20
-415.79204262003719
 30
0.0
  0
VERTEX
  5
C22
  8
DATA
  6
CONTINUOUS
 62
     7
 10
-279.79496272924939
 20
-415.79204288534117
 30
0.0
  0
VERTEX
  5
C23
  8
DATA
  6
CONTINUOUS
 62
     7
 10
-279.79495988158322
 20
-415.79204315058968
 30
0.0
  0
VERTEX
  5
C24
  8
DATA
  6
CONTINUOUS
 62
     7
 10
-279.79495703451022
 20
-415.7920434157831
 30
0.0
  0
VERTEX
  5
C25
  8
DATA
  6
CONTINUOUS
 62
     7
 10
-279.79495418803049
 20
-415.7920436809211
 30
0.0
  0
VERTEX
  5
C26
  8
DATA
  6
CONTINUOUS
 62
     7
 10
-279.79495134214397
 20
-415.79204394600401
 30
0.0
  0
VERTEX
  5
C27
  8
DATA
  6
CONTINUOUS
 62
     7
 10
-279.79494849685091
 20
-415.79204421103162
 30
0.0
  0
VERTEX
  5
C28
  8
DATA
  6
CONTINUOUS
 62
     7
 10
-279.794945652151
 20
-415.79204447600398
 30
0.0
  0
VERTEX
  5
C29
  8
DATA
  6
CONTINUOUS
 62
     7
 10
-279.79494280804442
 20
-415.79204474092091
 30
0.0
  0
VERTEX
  5
C2A
  8
DATA
  6
CONTINUOUS
 62
     7
 10
-279.79493996453112
 20
-415.79204500578282
 30
0.0
  0
VERTEX
  5
C2B
  8
DATA
  6
CONTINUOUS
 62
     7
 10
-279.79493712161099
 20
-415.7920452705892
 30
0.0
  0
VERTEX
  5
C2C
  8
DATA
  6
CONTINUOUS
 62
     7
 10
-279.79493427928412
 20
-415.79204553534032
 30
0.0
  0
VERTEX
  5
C2D
  8
DATA
  6
CONTINUOUS
 62
     7
 10
-279.79493143755047
 20
-415.79204580003642
 30
0.0
  0
VERTEX
  5
C2E
  8
DATA
  6
CONTINUOUS
 62
     7
 10
-279.79492859641039
 20
-415.79204606467698
 30
0.0
  0
VERTEX
  5
C2F
  8
DATA
  6
CONTINUOUS
 62
     7
 10
-279.79492575586329
 20
-415.79204632926252
 30
0.0
  0
VERTEX
  5
C30
  8
DATA
  6
CONTINUOUS
 62
     7
 10
-279.79492291590952
 20
-415.7920465937928
 30
0.0
  0
VERTEX
  5
C31
  8
DATA
  6
CONTINUOUS
 62
     7
 10
-279.79492007654898
 20
-415.79204685826761
 30
0.0
  0
VERTEX
  5
C32
  8
DATA
  6
CONTINUOUS
 62
     7
 10
-279.79491723778182
 20
-415.79204712268739
 30
0.0
  0
VERTEX
  5
C33
  8
DATA
  6
CONTINUOUS
 62
     7
 10
-279.79491439960788
 20
-415.79204738705192
 30
0.0
  0
VERTEX
  5
C34
  8
DATA
  6
CONTINUOUS
 62
     7
 10
-279.7949115620271
 20
-415.7920476513608
 30
0.0
  0
VERTEX
  5
C35
  8
DATA
  6
CONTINUOUS
 62
     7
 10
-279.7949087250397
 20
-415.79204791561472
 30
0.0
  0
VERTEX
  5
C36
  8
DATA
  6
CONTINUOUS
 62
     7
 10
-279.79490588864547
 20
-415.79204817981349
 30
0.0
  0
VERTEX
  5
C37
  8
DATA
  6
CONTINUOUS
 62
     7
 10
-279.79490305284469
 20
-415.79204844395679
 30
0.0
  0
VERTEX
  5
C38
  8
DATA
  6
CONTINUOUS
 62
     7
 10
-279.79490021763701
 20
-415.79204870804489
 30
0.0
  0
VERTEX
  5
C39
  8
DATA
  6
CONTINUOUS
 62
     7
 10
-279.79489738302271
 20
-415.79204897207768
 30
0.0
  0
VERTEX
  5
C3A
  8
DATA
  6
CONTINUOUS
 62
     7
 10
-279.79489454900158
 20
-415.79204923605522
 30
0.0
  0
VERTEX
  5
C3B
  8
DATA
  6
CONTINUOUS
 62
     7
 10
-279.79489171557378
 20
-415.79204949997768
 30
0.0
  0
VERTEX
  5
C3C
  8
DATA
  6
CONTINUOUS
 62
     7
 10
-279.79488888273931
 20
-415.79204976384472
 30
0.0
  0
VERTEX
  5
C3D
  8
DATA
  6
CONTINUOUS
 62
     7
 10
-279.79488605049801
 20
-415.79205002765639
 30
0.0
  0
VERTEX
  5
C3E
  8
DATA
  6
CONTINUOUS
 62
     7
 10
-279.79488321884992
 20
-415.79205029141292
 30
0.0
  0
VERTEX
  5
C3F
  8
DATA
  6
CONTINUOUS
 62
     7
 10
-279.79488038779522
 20
-415.79205055511432
 30
0.0
  0
VERTEX
  5
C40
  8
DATA
  6
CONTINUOUS
 62
     7
 10
-279.79487755733368
 20
-415.79205081876017
 30
0.0
  0
VERTEX
  5
C41
  8
DATA
  6
CONTINUOUS
 62
     7
 10
-279.79487472746553
 20
-415.79205108235101
 30
0.0
  0
VERTEX
  5
C42
  8
DATA
  6
CONTINUOUS
 62
     7
 10
-279.79487189819048
 20
-415.79205134588648
 30
0.0
  0
VERTEX
  5
C43
  8
DATA
  6
CONTINUOUS
 62
     7
 10
-279.79486906950888
 20
-415.79205160936658
 30
0.0
  0
VERTEX
  5
C44
  8
DATA
  6
CONTINUOUS
 62
     7
 10
-279.79486624142038
 20
-415.7920518727916
 30
0.0
  0
VERTEX
  5
C45
  8
DATA
  6
CONTINUOUS
 62
     7
 10
-279.79486341392521
 20
-415.7920521361612
 30
0.0
  0
VERTEX
  5
C46
  8
DATA
  6
CONTINUOUS
 62
     7
 10
-279.79486058702338
 20
-415.79205239947572
 30
0.0
  0
VERTEX
  5
C47
  8
DATA
  6
CONTINUOUS
 62
     7
 10
-279.79485776071471
 20
-415.79205266273487
 30
0.0
  0
VERTEX
  5
C48
  8
DATA
  6
CONTINUOUS
 62
     7
 10
-279.79485493499919
 20
-415.79205292593878
 30
0.0
  0
VERTEX
  5
C49
  8
DATA
  6
CONTINUOUS
 62
     7
 10
-279.79485210987718
 20
-415.79205318908743
 30
0.0
  0
VERTEX
  5
C4A
  8
DATA
  6
CONTINUOUS
 62
     7
 10
-279.79484928534839
 20
-415.79205345218082
 30
0.0
  0
VERTEX
  5
C4B
  8
DATA
  6
CONTINUOUS
 62
     7
 10
-279.79484646141282
 20
-415.79205371521903
 30
0.0
  0
VERTEX
  5
C4C
  8
DATA
  6
CONTINUOUS
 62
     7
 10
-279.79484363807052
 20
-415.79205397820181
 30
0.0
  0
VERTEX
  5
C4D
  8
DATA
  6
CONTINUOUS
 62
     7
 10
-279.79484081532149
 20
-415.79205424112951
 30
0.0
  0
VERTEX
  5
C4E
  8
DATA
  6
CONTINUOUS
 62
     7
 10
-279.79483799316569
 20
-415.79205450400178
 30
0.0
  0
VERTEX
  5
C4F
  8
DATA
  6
CONTINUOUS
 62
     7
 10
-279.79483517160332
 20
-415.79205476681881
 30
0.0
  0
VERTEX
  5
C50
  8
DATA
  6
CONTINUOUS
 62
     7
 10
-279.79483235063401
 20
-415.79205502958058
 30
0.0
  0
VERTEX
  5
C51
  8
DATA
  6
CONTINUOUS
 62
     7
 10
-279.79482953025803
 20
-415.79205529228722
 30
0.0
  0
VERTEX
  5
C52
  8
DATA
  6
CONTINUOUS
 62
     7
 10
-279.79482671047532
 20
-415.79205555493837
 30
0.0
  0
VERTEX
  5
C53
  8
DATA
  6
CONTINUOUS
 62
     7
 10
-279.79482389128577
 20
-415.79205581753439
 30
0.0
  0
VERTEX
  5
C54
  8
DATA
  6
CONTINUOUS
 62
     7
 10
-279.79482107268967
 20
-415.7920560800751
 30
0.0
  0
VERTEX
  5
C55
  8
DATA
  6
CONTINUOUS
 62
     7
 10
-279.79481825468679
 20
-415.79205634256073
 30
0.0
  0
VERTEX
  5
C56
  8
DATA
  6
CONTINUOUS
 62
     7
 10
-279.79481543727718
 20
-415.79205660499082
 30
0.0
  0
VERTEX
  5
C57
  8
DATA
  6
CONTINUOUS
 62
     7
 10
-279.79481262046079
 20
-415.79205686736577
 30
0.0
  0
VERTEX
  5
C58
  8
DATA
  6
CONTINUOUS
 62
     7
 10
-279.79480980423767
 20
-415.79205712968547
 30
0.0
  0
VERTEX
  5
C59
  8
DATA
  6
CONTINUOUS
 62
     7
 10
-279.79480698860789
 20
-415.7920573919501
 30
0.0
  0
VERTEX
  5
C5A
  8
DATA
  6
CONTINUOUS
 62
     7
 10
-279.79480417357121
 20
-415.79205765415918
 30
0.0
  0
VERTEX
  5
C5B
  8
DATA
  6
CONTINUOUS
 62
     7
 10
-279.79480135912797
 20
-415.79205791631313
 30
0.0
  0
VERTEX
  5
C5C
  8
DATA
  6
CONTINUOUS
 62
     7
 10
-279.7947985452779
 20
-415.79205817841171
 30
0.0
  0
VERTEX
  5
C5D
  8
DATA
  6
CONTINUOUS
 62
     7
 10
-279.79479573202121
 20
-415.79205844045509
 30
0.0
  0
VERTEX
  5
C5E
  8
DATA
  6
CONTINUOUS
 62
     7
 10
-279.79479291935758
 20
-415.7920587024434
 30
0.0
  0
VERTEX
  5
C5F
  8
DATA
  6
CONTINUOUS
 62
     7
 10
-279.79479010728738
 20
-415.79205896437622
 30
0.0
  0
VERTEX
  5
C60
  8
DATA
  6
CONTINUOUS
 62
     7
 10
-279.79478729581052
 20
-415.7920592262538
 30
0.0
  0
VERTEX
  5
C61
  8
DATA
  6
CONTINUOUS
 62
     7
 10
-279.79478448492671
 20
-415.79205948807612
 30
0.0
  0
VERTEX
  5
C62
  8
DATA
  6
CONTINUOUS
 62
     7
 10
-279.79478448492671
 20
-415.79205948807612
 30
0.0
  0
SEQEND
  5
C63
  8
DATA
  6
CONTINUOUS
 62
     7
  0
POLYLINE
  5
300
  8
DATA
  6
CONTINUOUS
 62
     7
 66
     1
 10
0.0
 20
0.0
 30
0.0
 70
   128
  0
VERTEX
  5
C64
  8
DATA
  6
CONTINUOUS
 62
     7
 10
-276.09510746393858
 20
-416.13499828886017
 30
0.0
  0
VERTEX
  5
C65
  8
DATA
  6
CONTINUOUS
 62
     7
 10
-276.095099637239
 20
-416.13499901079371
 30
0.0
  0
VERTEX
  5
C66
  8
DATA
  6
CONTINUOUS
 62
     7
 10
-276.09509181052152
 20
-416.1349997327286
 30
0.0
  0
VERTEX
  5
C67
  8
DATA
  6
CONTINUOUS
 62
     7
 10
-276.09508398378642
 20
-416.13500045466532
 30
0.0
  0
VERTEX
  5
C68
  8
DATA
  6
CONTINUOUS
 62
     7
 10
-276.09507615703342
 20
-416.13500117660362
 30
0.0
  0
VERTEX
  5
C69
  8
DATA
  6
CONTINUOUS
 62
     7
 10
-276.09506833026279
 20
-416.13500189854352
 30
0.0
  0
VERTEX
  5
C6A
  8
DATA
  6
CONTINUOUS
 62
     7
 10
-276.09506050347431
 20
-416.13500262048501
 30
0.0
  0
VERTEX
  5
C6B
  8
DATA
  6
CONTINUOUS
 62
     7
 10
-276.09505267666822
 20
-416.13500334242821
 30
0.0
  0
VERTEX
  5
C6C
  8
DATA
  6
CONTINUOUS
 62
     7
 10
-276.09504484984421
 20
-416.13500406437288
 30
0.0
  0
VERTEX
  5
C6D
  8
DATA
  6
CONTINUOUS
 62
     7
 10
-276.09503702300242
 20
-416.13500478631931
 30
0.0
  0
VERTEX
  5
C6E
  8
DATA
  6
CONTINUOUS
 62
     7
 10
-276.09502919614289
 20
-416.13500550826728
 30
0.0
  0
VERTEX
  5
C6F
  8
DATA
  6
CONTINUOUS
 62
     7
 10
-276.09502136926562
 20
-416.1350062302169
 30
0.0
  0
VERTEX
  5
C70
  8
DATA
  6
CONTINUOUS
 62
     7
 10
-276.09501354237062
 20
-416.13500695216828
 30
0.0
  0
VERTEX
  5
C71
  8
DATA
  6
CONTINUOUS
 62
     7
 10
-276.09500571545789
 20
-416.1350076741212
 30
0.0
  0
VERTEX
  5
C72
  8
DATA
  6
CONTINUOUS
 62
     7
 10
-276.09499788852742
 20
-416.13500839607559
 30
0.0
  0
VERTEX
  5
C73
  8
DATA
  6
CONTINUOUS
 62
     7
 10
-276.09499006157898
 20
-416.1350091180318
 30
0.0
  0
VERTEX
  5
C74
  8
DATA
  6
CONTINUOUS
 62
     7
 10
-276.09498223461298
 20
-416.13500983998949
 30
0.0
  0
VERTEX
  5
C75
  8
DATA
  6
CONTINUOUS
 62
     7
 10
-276.09497440762908
 20
-416.13501056194889
 30
0.0
  0
VERTEX
  5
C76
  8
DATA
  6
CONTINUOUS
 62
     7
 10
-276.09496658062761
 20
-416.13501128390988
 30
0.0
  0
VERTEX
  5
C77
  8
DATA
  6
CONTINUOUS
 62
     7
 10
-276.09495875360818
 20
-416.13501200587262
 30
0.0
  0
VERTEX
  5
C78
  8
DATA
  6
CONTINUOUS
 62
     7
 10
-276.09495092657107
 20
-416.13501272783679
 30
0.0
  0
VERTEX
  5
C79
  8
DATA
  6
CONTINUOUS
 62
     7
 10
-276.09494309951629
 20
-416.1350134498025
 30
0.0
  0
VERTEX
  5
C7A
  8
DATA
  6
CONTINUOUS
 62
     7
 10
-276.09493527244359
 20
-416.13501417177008
 30
0.0
  0
VERTEX
  5
C7B
  8
DATA
  6
CONTINUOUS
 62
     7
 10
-276.09492744535322
 20
-416.1350148937392
 30
0.0
  0
VERTEX
  5
C7C
  8
DATA
  6
CONTINUOUS
 62
     7
 10
-276.09491961824511
 20
-416.13501561571002
 30
0.0
  0
VERTEX
  5
C7D
  8
DATA
  6
CONTINUOUS
 62
     7
 10
-276.0949117911191
 20
-416.1350163376822
 30
0.0
  0
VERTEX
  5
C7E
  8
DATA
  6
CONTINUOUS
 62
     7
 10
-276.09490396397553
 20
-416.13501705965638
 30
0.0
  0
VERTEX
  5
C7F
  8
DATA
  6
CONTINUOUS
 62
     7
 10
-276.09489613681399
 20
-416.13501778163197
 30
0.0
  0
VERTEX
  5
C80
  8
DATA
  6
CONTINUOUS
 62
     7
 10
-276.09488830963488
 20
-416.1350185036091
 30
0.0
  0
VERTEX
  5
C81
  8
DATA
  6
CONTINUOUS
 62
     7
 10
-276.09488048243799
 20
-416.135019225588
 30
0.0
  0
VERTEX
  5
C82
  8
DATA
  6
CONTINUOUS
 62
     7
 10
-276.09487265522318
 20
-416.13501994756848
 30
0.0
  0
VERTEX
  5
C83
  8
DATA
  6
CONTINUOUS
 62
     7
 10
-276.0948648279907
 20
-416.1350206695505
 30
0.0
  0
VERTEX
  5
C84
  8
DATA
  6
CONTINUOUS
 62
     7
 10
-276.09485700074049
 20
-416.13502139153428
 30
0.0
  0
VERTEX
  5
C85
  8
DATA
  6
CONTINUOUS
 62
     7
 10
-276.09484917347248
 20
-416.1350221135196
 30
0.0
  0
VERTEX
  5
C86
  8
DATA
  6
CONTINUOUS
 62
     7
 10
-276.09484134618668
 20
-416.13502283550662
 30
0.0
  0
VERTEX
  5
C87
  8
DATA
  6
CONTINUOUS
 62
     7
 10
-276.09483351888321
 20
-416.13502355749517
 30
0.0
  0
VERTEX
  5
C88
  8
DATA
  6
CONTINUOUS
 62
     7
 10
-276.09482569156199
 20
-416.13502427948538
 30
0.0
  0
VERTEX
  5
C89
  8
DATA
  6
CONTINUOUS
 62
     7
 10
-276.09481786422288
 20
-416.13502500147717
 30
0.0
  0
VERTEX
  5
C8A
  8
DATA
  6
CONTINUOUS
 62
     7
 10
-276.09481003686608
 20
-416.13502572347079
 30
0.0
  0
VERTEX
  5
C8B
  8
DATA
  6
CONTINUOUS
 62
     7
 10
-276.0948022094916
 20
-416.13502644546571
 30
0.0
  0
VERTEX
  5
C8C
  8
DATA
  6
CONTINUOUS
 62
     7
 10
-276.09479438209922
 20
-416.13502716746251
 30
0.0
  0
VERTEX
  5
C8D
  8
DATA
  6
CONTINUOUS
 62
     7
 10
-276.09478655468922
 20
-416.13502788946079
 30
0.0
  0
VERTEX
  5
C8E
  8
DATA
  6
CONTINUOUS
 62
     7
 10
-276.09477872726131
 20
-416.13502861146083
 30
0.0
  0
VERTEX
  5
C8F
  8
DATA
  6
CONTINUOUS
 62
     7
 10
-276.09477089981573
 20
-416.13502933346228
 30
0.0
  0
VERTEX
  5
C90
  8
DATA
  6
CONTINUOUS
 62
     7
 10
-276.09476307235229
 20
-416.13503005546562
 30
0.0
  0
VERTEX
  5
C91
  8
DATA
  6
CONTINUOUS
 62
     7
 10
-276.09475524487118
 20
-416.13503077747038
 30
0.0
  0
VERTEX
  5
C92
  8
DATA
  6
CONTINUOUS
 62
     7
 10
-276.09474741737228
 20
-416.13503149947678
 30
0.0
  0
VERTEX
  5
C93
  8
DATA
  6
CONTINUOUS
 62
     7
 10
-276.09473958985558
 20
-416.13503222148489
 30
0.0
  0
VERTEX
  5
C94
  8
DATA
  6
CONTINUOUS
 62
     7
 10
-276.0947317623212
 20
-416.13503294349459
 30
0.0
  0
VERTEX
  5
C95
  8
DATA
  6
CONTINUOUS
 62
     7
 10
-276.09472393476898
 20
-416.13503366550589
 30
0.0
  0
VERTEX
  5
C96
  8
DATA
  6
CONTINUOUS
 62
     7
 10
-276.09471610719908
 20
-416.13503438751877
 30
0.0
  0
VERTEX
  5
C97
  8
DATA
  6
CONTINUOUS
 62
     7
 10
-276.09470827961138
 20
-416.13503510953342
 30
0.0
  0
VERTEX
  5
C98
  8
DATA
  6
CONTINUOUS
 62
     7
 10
-276.0947004520059
 20
-416.1350358315496
 30
0.0
  0
VERTEX
  5
C99
  8
DATA
  6
CONTINUOUS
 62
     7
 10
-276.09469262438267
 20
-416.13503655356737
 30
0.0
  0
VERTEX
  5
C9A
  8
DATA
  6
CONTINUOUS
 62
     7
 10
-276.09468479674172
 20
-416.1350372755868
 30
0.0
  0
VERTEX
  5
C9B
  8
DATA
  6
CONTINUOUS
 62
     7
 10
-276.09467696908303
 20
-416.13503799760792
 30
0.0
  0
VERTEX
  5
C9C
  8
DATA
  6
CONTINUOUS
 62
     7
 10
-276.09466914140648
 20
-416.13503871963047
 30
0.0
  0
VERTEX
  5
C9D
  8
DATA
  6
CONTINUOUS
 62
     7
 10
-276.09466131371221
 20
-416.1350394416549
 30
0.0
  0
VERTEX
  5
C9E
  8
DATA
  6
CONTINUOUS
 62
     7
 10
-276.0946534860002
 20
-416.1350401636808
 30
0.0
  0
VERTEX
  5
C9F
  8
DATA
  6
CONTINUOUS
 62
     7
 10
-276.09464565827051
 20
-416.13504088570829
 30
0.0
  0
VERTEX
  5
CA0
  8
DATA
  6
CONTINUOUS
 62
     7
 10
-276.09463783052291
 20
-416.13504160773761
 30
0.0
  0
VERTEX
  5
CA1
  8
DATA
  6
CONTINUOUS
 62
     7
 10
-276.09463000275758
 20
-416.13504232976823
 30
0.0
  0
VERTEX
  5
CA2
  8
DATA
  6
CONTINUOUS
 62
     7
 10
-276.0946221749744
 20
-416.13504305180078
 30
0.0
  0
VERTEX
  5
CA3
  8
DATA
  6
CONTINUOUS
 62
     7
 10
-276.09461434717372
 20
-416.13504377383481
 30
0.0
  0
VERTEX
  5
CA4
  8
DATA
  6
CONTINUOUS
 62
     7
 10
-276.09460651935512
 20
-416.13504449587049
 30
0.0
  0
VERTEX
  5
CA5
  8
DATA
  6
CONTINUOUS
 62
     7
 10
-276.09460651935512
 20
-416.13504449587049
 30
0.0
  0
SEQEND
  5
CA6
  8
DATA
  6
CONTINUOUS
 62
     7
  0
POLYLINE
  5
344
  8
DATA
  6
CONTINUOUS
 62
     7
 66
     1
 10
0.0
 20
0.0
 30
0.0
 70
   128
  0
VERTEX
  5
CA7
  8
DATA
  6
CONTINUOUS
 62
     7
 10
-265.4245166857994
 20
-417.10492578499969
 30
0.0
  0
VERTEX
  5
CA8
  8
DATA
  6
CONTINUOUS
 62
     7
 10
-265.22933111180703
 20
-417.12239583353369
 30
0.0
  0
VERTEX
  5
CA9
  8
DATA
  6
CONTINUOUS
 62
     7
 10
-265.03421107982263
 20
-417.13985007131419
 30
0.0
  0
VERTEX
  5
CAA
  8
DATA
  6
CONTINUOUS
 62
     7
 10
-264.8391565898462
 20
-417.15728849834107
 30
0.0
  0
VERTEX
  5
CAB
  8
DATA
  6
CONTINUOUS
 62
     7
 10
-264.6441676418778
 20
-417.17471111461441
 30
0.0
  0
VERTEX
  5
CAC
  8
DATA
  6
CONTINUOUS
 62
     7
 10
-264.44924423591738
 20
-417.19211792013391
 30
0.0
  0
VERTEX
  5
CAD
  8
DATA
  6
CONTINUOUS
 62
     7
 10
-264.2543863719651
 20
-417.20950891489969
 30
0.0
  0
VERTEX
  5
CAE
  8
DATA
  6
CONTINUOUS
 62
     7
 10
-264.05959405002091
 20
-417.22688409891191
 30
0.0
  0
VERTEX
  5
CAF
  8
DATA
  6
CONTINUOUS
 62
     7
 10
-263.86486727008452
 20
-417.24424347217041
 30
0.0
  0
VERTEX
  5
CB0
  8
DATA
  6
CONTINUOUS
 62
     7
 10
-263.67020603215627
 20
-417.26158703467519
 30
0.0
  0
VERTEX
  5
CB1
  8
DATA
  6
CONTINUOUS
 62
     7
 10
-263.47561033623589
 20
-417.2789147864263
 30
0.0
  0
VERTEX
  5
CB2
  8
DATA
  6
CONTINUOUS
 62
     7
 10
-263.28108018232359
 20
-417.29622672742391
 30
0.0
  0
VERTEX
  5
CB3
  8
DATA
  6
CONTINUOUS
 62
     7
 10
-263.08661557041933
 20
-417.31352285766781
 30
0.0
  0
VERTEX
  5
CB4
  8
DATA
  6
CONTINUOUS
 62
     7
 10
-262.89221650052309
 20
-417.33080317715792
 30
0.0
  0
VERTEX
  5
CB5
  8
DATA
  6
CONTINUOUS
 62
     7
 10
-262.69788297263477
 20
-417.34806768589442
 30
0.0
  0
VERTEX
  5
CB6
  8
DATA
  6
CONTINUOUS
 62
     7
 10
-262.5036149867546
 20
-417.36531638387743
 30
0.0
  0
VERTEX
  5
CB7
  8
DATA
  6
CONTINUOUS
 62
     7
 10
-262.30941254288251
 20
-417.38254927110648
 30
0.0
  0
VERTEX
  5
CB8
  8
DATA
  6
CONTINUOUS
 62
     7
 10
-262.11527564101829
 20
-417.39976634758199
 30
0.0
  0
VERTEX
  5
CB9
  8
DATA
  6
CONTINUOUS
 62
     7
 10
-261.92120428116209
 20
-417.41696761330383
 30
0.0
  0
VERTEX
  5
CBA
  8
DATA
  6
CONTINUOUS
 62
     7
 10
-261.72719846331398
 20
-417.434153068272
 30
0.0
  0
VERTEX
  5
CBB
  8
DATA
  6
CONTINUOUS
 62
     7
 10
-261.5332581874739
 20
-417.4513227124865
 30
0.0
  0
VERTEX
  5
CBC
  8
DATA
  6
CONTINUOUS
 62
     7
 10
-261.33938345364169
 20
-417.46847654594751
 30
0.0
  0
VERTEX
  5
CBD
  8
DATA
  6
CONTINUOUS
 62
     7
 10
-261.14557426181761
 20
-417.48561456865463
 30
0.0
  0
VERTEX
  5
CBE
  8
DATA
  6
CONTINUOUS
 62
     7
 10
-260.95183061200157
 20
-417.50273678060807
 30
0.0
  0
VERTEX
  5
CBF
  8
DATA
  6
CONTINUOUS
 62
     7
 10
-260.7581525041935
 20
-417.51984318180791
 30
0.0
  0
VERTEX
  5
CC0
  8
DATA
  6
CONTINUOUS
 62
     7
 10
-260.56453993839352
 20
-417.5369337722542
 30
0.0
  0
VERTEX
  5
CC1
  8
DATA
  6
CONTINUOUS
 62
     7
 10
-260.37099291460152
 20
-417.55400855194659
 30
0.0
  0
VERTEX
  5
CC2
  8
DATA
  6
CONTINUOUS
 62
     7
 10
-260.17751143281743
 20
-417.57106752088561
 30
0.0
  0
VERTEX
  5
CC3
  8
DATA
  6
CONTINUOUS
 62
     7
 10
-259.98409549304142
 20
-417.58811067907072
 30
0.0
  0
VERTEX
  5
CC4
  8
DATA
  6
CONTINUOUS
 62
     7
 10
-259.79074509527339
 20
-417.60513802650217
 30
0.0
  0
VERTEX
  5
CC5
  8
DATA
  6
CONTINUOUS
 62
     7
 10
-259.59746023951351
 20
-417.62214956318002
 30
0.0
  0
VERTEX
  5
CC6
  8
DATA
  6
CONTINUOUS
 62
     7
 10
-259.40424092576148
 20
-417.63914528910419
 30
0.0
  0
VERTEX
  5
CC7
  8
DATA
  6
CONTINUOUS
 62
     7
 10
-259.2110871540176
 20
-417.6561252042747
 30
0.0
  0
VERTEX
  5
CC8
  8
DATA
  6
CONTINUOUS
 62
     7
 10
-259.0179989242817
 20
-417.67308930869171
 30
0.0
  0
VERTEX
  5
CC9
  8
DATA
  6
CONTINUOUS
 62
     7
 10
-258.82497623655382
 20
-417.69003760235489
 30
0.0
  0
VERTEX
  5
CCA
  8
DATA
  6
CONTINUOUS
 62
     7
 10
-258.63201909083398
 20
-417.70697008526429
 30
0.0
  0
VERTEX
  5
CCB
  8
DATA
  6
CONTINUOUS
 62
     7
 10
-258.43912748712211
 20
-417.72388675742019
 30
0.0
  0
VERTEX
  5
CCC
  8
DATA
  6
CONTINUOUS
 62
     7
 10
-258.24630142541821
 20
-417.74078761882242
 30
0.0
  0
VERTEX
  5
CCD
  8
DATA
  6
CONTINUOUS
 62
     7
 10
-258.0535409057224
 20
-417.75767266947088
 30
0.0
  0
VERTEX
  5
CCE
  8
DATA
  6
CONTINUOUS
 62
     7
 10
-257.86084592803462
 20
-417.77454190936578
 30
0.0
  0
VERTEX
  5
CCF
  8
DATA
  6
CONTINUOUS
 62
     7
 10
-257.66821649235482
 20
-417.79139533850679
 30
0.0
  0
VERTEX
  5
CD0
  8
DATA
  6
CONTINUOUS
 62
     7
 10
-257.47565259868298
 20
-417.80823295689453
 30
0.0
  0
VERTEX
  5
CD1
  8
DATA
  6
CONTINUOUS
 62
     7
 10
-257.2831542470193
 20
-417.8250547645282
 30
0.0
  0
VERTEX
  5
CD2
  8
DATA
  6
CONTINUOUS
 62
     7
 10
-257.09072143736353
 20
-417.84186076140838
 30
0.0
  0
VERTEX
  5
CD3
  8
DATA
  6
CONTINUOUS
 62
     7
 10
-256.89835416971567
 20
-417.85865094753501
 30
0.0
  0
VERTEX
  5
CD4
  8
DATA
  6
CONTINUOUS
 62
     7
 10
-256.70605244407602
 20
-417.87542532290792
 30
0.0
  0
VERTEX
  5
CD5
  8
DATA
  6
CONTINUOUS
 62
     7
 10
-256.51381626044429
 20
-417.8921838875271
 30
0.0
  0
VERTEX
  5
CD6
  8
DATA
  6
CONTINUOUS
 62
     7
 10
-256.32164561882058
 20
-417.9089266413925
 30
0.0
  0
VERTEX
  5
CD7
  8
DATA
  6
CONTINUOUS
 62
     7
 10
-256.12954051920502
 20
-417.9256535845044
 30
0.0
  0
VERTEX
  5
CD8
  8
DATA
  6
CONTINUOUS
 62
     7
 10
-255.93750096159729
 20
-417.9423647168627
 30
0.0
  0
VERTEX
  5
CD9
  8
DATA
  6
CONTINUOUS
 62
     7
 10
-255.74552694599771
 20
-417.9590600384671
 30
0.0
  0
VERTEX
  5
CDA
  8
DATA
  6
CONTINUOUS
 62
     7
 10
-255.5536184724061
 20
-417.97573954931801
 30
0.0
  0
VERTEX
  5
CDB
  8
DATA
  6
CONTINUOUS
 62
     7
 10
-255.36177554082249
 20
-417.99240324941519
 30
0.0
  0
VERTEX
  5
CDC
  8
DATA
  6
CONTINUOUS
 62
     7
 10
-255.16999815124689
 20
-418.00905113875888
 30
0.0
  0
VERTEX
  5
CDD
  8
DATA
  6
CONTINUOUS
 62
     7
 10
-254.97828630367931
 20
-418.02568321734861
 30
0.0
  0
VERTEX
  5
CDE
  8
DATA
  6
CONTINUOUS
 62
     7
 10
-254.7866399981198
 20
-418.0422994851848
 30
0.0
  0
VERTEX
  5
CDF
  8
DATA
  6
CONTINUOUS
 62
     7
 10
-254.59505923456831
 20
-418.05889994226709
 30
0.0
  0
VERTEX
  5
CE0
  8
DATA
  6
CONTINUOUS
 62
     7
 10
-254.40354401302471
 20
-418.07548458859611
 30
0.0
  0
VERTEX
  5
CE1
  8
DATA
  6
CONTINUOUS
 62
     7
 10
-254.21209433348929
 20
-418.0920534241713
 30
0.0
  0
VERTEX
  5
CE2
  8
DATA
  6
CONTINUOUS
 62
     7
 10
-254.02071019596181
 20
-418.10860644899282
 30
0.0
  0
VERTEX
  5
CE3
  8
DATA
  6
CONTINUOUS
 62
     7
 10
-253.82939160044231
 20
-418.12514366306073
 30
0.0
  0
VERTEX
  5
CE4
  8
DATA
  6
CONTINUOUS
 62
     7
 10
-253.63813854693089
 20
-418.14166506637491
 30
0.0
  0
VERTEX
  5
CE5
  8
DATA
  6
CONTINUOUS
 62
     7
 10
-253.44695103542739
 20
-418.15817065893532
 30
0.0
  0
VERTEX
  5
CE6
  8
DATA
  6
CONTINUOUS
 62
     7
 10
-253.25582906593201
 20
-418.17466044074229
 30
0.0
  0
VERTEX
  5
CE7
  8
DATA
  6
CONTINUOUS
 62
     7
 10
-253.06477263844459
 20
-418.19113441179542
 30
0.0
  0
VERTEX
  5
CE8
  8
DATA
  6
CONTINUOUS
 62
     7
 10
-253.06477263844459
 20
-418.19113441179542
 30
0.0
  0
SEQEND
  5
CE9
  8
DATA
  6
CONTINUOUS
 62
     7
  0
POLYLINE
  5
388
  8
DATA
  6
CONTINUOUS
 62
     7
 66
     1
 10
0.0
 20
0.0
 30
0.0
 70
   128
  0
VERTEX
  5
CEA
  8
DATA
  6
CONTINUOUS
 62
     7
 10
-252.395938559456
 20
-418.24872494346619
 30
0.0
  0
VERTEX
  5
CEB
  8
DATA
  6
CONTINUOUS
 62
     7
 10
-252.3958964437924
 20
-418.24872856593993
 30
0.0
  0
VERTEX
  5
CEC
  8
DATA
  6
CONTINUOUS
 62
     7
 10
-252.39585432813661
 20
-418.24873218841242
 30
0.0
  0
VERTEX
  5
CED
  8
DATA
  6
CONTINUOUS
 62
     7
 10
-252.39581221248849
 20
-418.24873581088389
 30
0.0
  0
VERTEX
  5
CEE
  8
DATA
  6
CONTINUOUS
 62
     7
 10
-252.39577009684839
 20
-418.24873943335399
 30
0.0
  0
VERTEX
  5
CEF
  8
DATA
  6
CONTINUOUS
 62
     7
 10
-252.39572798121591
 20
-418.24874305582313
 30
0.0
  0
VERTEX
  5
CF0
  8
DATA
  6
CONTINUOUS
 62
     7
 10
-252.3956858655913
 20
-418.24874667829113
 30
0.0
  0
VERTEX
  5
CF1
  8
DATA
  6
CONTINUOUS
 62
     7
 10
-252.3956437499744
 20
-418.24875030075759
 30
0.0
  0
VERTEX
  5
CF2
  8
DATA
  6
CONTINUOUS
 62
     7
 10
-252.39560163436539
 20
-418.24875392322321
 30
0.0
  0
VERTEX
  5
CF3
  8
DATA
  6
CONTINUOUS
 62
     7
 10
-252.39555951876409
 20
-418.24875754568768
 30
0.0
  0
VERTEX
  5
CF4
  8
DATA
  6
CONTINUOUS
 62
     7
 10
-252.39551740317069
 20
-418.24876116815079
 30
0.0
  0
VERTEX
  5
CF5
  8
DATA
  6
CONTINUOUS
 62
     7
 10
-252.39547528758499
 20
-418.24876479061282
 30
0.0
  0
VERTEX
  5
CF6
  8
DATA
  6
CONTINUOUS
 62
     7
 10
-252.39543317200719
 20
-418.24876841307372
 30
0.0
  0
VERTEX
  5
CF7
  8
DATA
  6
CONTINUOUS
 62
     7
 10
-252.39539105643709
 20
-418.24877203553348
 30
0.0
  0
VERTEX
  5
CF8
  8
DATA
  6
CONTINUOUS
 62
     7
 10
-252.3953489408749
 20
-418.24877565799198
 30
0.0
  0
VERTEX
  5
CF9
  8
DATA
  6
CONTINUOUS
 62
     7
 10
-252.3953068253204
 20
-418.24877928044953
 30
0.0
  0
VERTEX
  5
CFA
  8
DATA
  6
CONTINUOUS
 62
     7
 10
-252.3952647097737
 20
-418.24878290290559
 30
0.0
  0
VERTEX
  5
CFB
  8
DATA
  6
CONTINUOUS
 62
     7
 10
-252.39522259423481
 20
-418.2487865253608
 30
0.0
  0
VERTEX
  5
CFC
  8
DATA
  6
CONTINUOUS
 62
     7
 10
-252.39518047870371
 20
-418.24879014781447
 30
0.0
  0
VERTEX
  5
CFD
  8
DATA
  6
CONTINUOUS
 62
     7
 10
-252.39513836318039
 20
-418.2487937702673
 30
0.0
  0
VERTEX
  5
CFE
  8
DATA
  6
CONTINUOUS
 62
     7
 10
-252.3950962476649
 20
-418.24879739271881
 30
0.0
  0
VERTEX
  5
CFF
  8
DATA
  6
CONTINUOUS
 62
     7
 10
-252.3950541321573
 20
-418.24880101516919
 30
0.0
  0
VERTEX
  5
D00
  8
DATA
  6
CONTINUOUS
 62
     7
 10
-252.39501201665729
 20
-418.24880463761838
 30
0.0
  0
VERTEX
  5
D01
  8
DATA
  6
CONTINUOUS
 62
     7
 10
-252.3949699011653
 20
-418.24880826006648
 30
0.0
  0
VERTEX
  5
D02
  8
DATA
  6
CONTINUOUS
 62
     7
 10
-252.39492778568089
 20
-418.24881188251328
 30
0.0
  0
VERTEX
  5
D03
  8
DATA
  6
CONTINUOUS
 62
     7
 10
-252.39488567020439
 20
-418.24881550495911
 30
0.0
  0
VERTEX
  5
D04
  8
DATA
  6
CONTINUOUS
 62
     7
 10
-252.3948435547357
 20
-418.24881912740358
 30
0.0
  0
VERTEX
  5
D05
  8
DATA
  6
CONTINUOUS
 62
     7
 10
-252.3948014392748
 20
-418.24882274984702
 30
0.0
  0
VERTEX
  5
D06
  8
DATA
  6
CONTINUOUS
 62
     7
 10
-252.39475932382169
 20
-418.24882637228922
 30
0.0
  0
VERTEX
  5
D07
  8
DATA
  6
CONTINUOUS
 62
     7
 10
-252.39471720837639
 20
-418.24882999473027
 30
0.0
  0
VERTEX
  5
D08
  8
DATA
  6
CONTINUOUS
 62
     7
 10
-252.3946750929388
 20
-418.24883361717019
 30
0.0
  0
VERTEX
  5
D09
  8
DATA
  6
CONTINUOUS
 62
     7
 10
-252.3946329775091
 20
-418.2488372396088
 30
0.0
  0
VERTEX
  5
D0A
  8
DATA
  6
CONTINUOUS
 62
     7
 10
-252.3945908620872
 20
-418.24884086204639
 30
0.0
  0
VERTEX
  5
D0B
  8
DATA
  6
CONTINUOUS
 62
     7
 10
-252.394548746673
 20
-418.24884448448267
 30
0.0
  0
VERTEX
  5
D0C
  8
DATA
  6
CONTINUOUS
 62
     7
 10
-252.39450663126669
 20
-418.24884810691799
 30
0.0
  0
VERTEX
  5
D0D
  8
DATA
  6
CONTINUOUS
 62
     7
 10
-252.39446451586809
 20
-418.248851729352
 30
0.0
  0
VERTEX
  5
D0E
  8
DATA
  6
CONTINUOUS
 62
     7
 10
-252.3944224004774
 20
-418.24885535178493
 30
0.0
  0
VERTEX
  5
D0F
  8
DATA
  6
CONTINUOUS
 62
     7
 10
-252.3943802850944
 20
-418.24885897421677
 30
0.0
  0
VERTEX
  5
D10
  8
DATA
  6
CONTINUOUS
 62
     7
 10
-252.3943381697193
 20
-418.2488625966472
 30
0.0
  0
VERTEX
  5
D11
  8
DATA
  6
CONTINUOUS
 62
     7
 10
-252.39429605435191
 20
-418.24886621907677
 30
0.0
  0
VERTEX
  5
D12
  8
DATA
  6
CONTINUOUS
 62
     7
 10
-252.39425393899239
 20
-418.24886984150481
 30
0.0
  0
VERTEX
  5
D13
  8
DATA
  6
CONTINUOUS
 62
     7
 10
-252.39421182364049
 20
-418.24887346393189
 30
0.0
  0
VERTEX
  5
D14
  8
DATA
  6
CONTINUOUS
 62
     7
 10
-252.3941697082966
 20
-418.2488770863576
 30
0.0
  0
VERTEX
  5
D15
  8
DATA
  6
CONTINUOUS
 62
     7
 10
-252.3941275929605
 20
-418.24888070878251
 30
0.0
  0
VERTEX
  5
D16
  8
DATA
  6
CONTINUOUS
 62
     7
 10
-252.3940854776321
 20
-418.248884331206
 30
0.0
  0
VERTEX
  5
D17
  8
DATA
  6
CONTINUOUS
 62
     7
 10
-252.39404336231149
 20
-418.24888795362841
 30
0.0
  0
VERTEX
  5
D18
  8
DATA
  6
CONTINUOUS
 62
     7
 10
-252.3940012469987
 20
-418.24889157604969
 30
0.0
  0
VERTEX
  5
D19
  8
DATA
  6
CONTINUOUS
 62
     7
 10
-252.39395913169369
 20
-418.24889519846971
 30
0.0
  0
VERTEX
  5
D1A
  8
DATA
  6
CONTINUOUS
 62
     7
 10
-252.3939170163965
 20
-418.24889882088871
 30
0.0
  0
VERTEX
  5
D1B
  8
DATA
  6
CONTINUOUS
 62
     7
 10
-252.3938749011071
 20
-418.24890244330629
 30
0.0
  0
VERTEX
  5
D1C
  8
DATA
  6
CONTINUOUS
 62
     7
 10
-252.39383278582551
 20
-418.24890606572302
 30
0.0
  0
VERTEX
  5
D1D
  8
DATA
  6
CONTINUOUS
 62
     7
 10
-252.39379067055171
 20
-418.24890968813833
 30
0.0
  0
VERTEX
  5
D1E
  8
DATA
  6
CONTINUOUS
 62
     7
 10
-252.3937485552857
 20
-418.24891331055261
 30
0.0
  0
VERTEX
  5
D1F
  8
DATA
  6
CONTINUOUS
 62
     7
 10
-252.3937064400275
 20
-418.2489169329657
 30
0.0
  0
VERTEX
  5
D20
  8
DATA
  6
CONTINUOUS
 62
     7
 10
-252.39366432477709
 20
-418.24892055537771
 30
0.0
  0
VERTEX
  5
D21
  8
DATA
  6
CONTINUOUS
 62
     7
 10
-252.39362220953441
 20
-418.24892417778841
 30
0.0
  0
VERTEX
  5
D22
  8
DATA
  6
CONTINUOUS
 62
     7
 10
-252.39358009429961
 20
-418.24892780019792
 30
0.0
  0
VERTEX
  5
D23
  8
DATA
  6
CONTINUOUS
 62
     7
 10
-252.39353797907251
 20
-418.24893142260629
 30
0.0
  0
VERTEX
  5
D24
  8
DATA
  6
CONTINUOUS
 62
     7
 10
-252.3934958638533
 20
-418.24893504501358
 30
0.0
  0
VERTEX
  5
D25
  8
DATA
  6
CONTINUOUS
 62
     7
 10
-252.39345374864189
 20
-418.24893866741968
 30
0.0
  0
VERTEX
  5
D26
  8
DATA
  6
CONTINUOUS
 62
     7
 10
-252.39341163343829
 20
-418.24894228982453
 30
0.0
  0
VERTEX
  5
D27
  8
DATA
  6
CONTINUOUS
 62
     7
 10
-252.39336951824239
 20
-418.24894591222812
 30
0.0
  0
VERTEX
  5
D28
  8
DATA
  6
CONTINUOUS
 62
     7
 10
-252.3933274030544
 20
-418.24894953463081
 30
0.0
  0
VERTEX
  5
D29
  8
DATA
  6
CONTINUOUS
 62
     7
 10
-252.39328528787411
 20
-418.24895315703219
 30
0.0
  0
VERTEX
  5
D2A
  8
DATA
  6
CONTINUOUS
 62
     7
 10
-252.39324317270169
 20
-418.24895677943232
 30
0.0
  0
VERTEX
  5
D2B
  8
DATA
  6
CONTINUOUS
 62
     7
 10
-252.39324317270169
 20
-418.24895677943232
 30
0.0
  0
SEQEND
  5
D2C
  8
DATA
  6
CONTINUOUS
 62
     7
  0
POLYLINE
  5
3CC
  8
DATA
  6
CONTINUOUS
 62
     7
 66
     1
 10
0.0
 20
0.0
 30
0.0
 70
   128
  0
VERTEX
  5
D2D
  8
DATA
  6
CONTINUOUS
 62
     7
 10
-245.50024791307069
 20
-418.83511236452478
 30
0.0
  0
VERTEX
  5
D2E
  8
DATA
  6
CONTINUOUS
 62
     7
 10
-245.50024521717771
 20
-418.83511259111123
 30
0.0
  0
VERTEX
  5
D2F
  8
DATA
  6
CONTINUOUS
 62
     7
 10
-245.50024252114889
 20
-418.83511281770899
 30
0.0
  0
VERTEX
  5
D30
  8
DATA
  6
CONTINUOUS
 62
     7
 10
-245.50023982498439
 20
-418.83511304431812
 30
0.0
  0
VERTEX
  5
D31
  8
DATA
  6
CONTINUOUS
 62
     7
 10
-245.50023712868409
 20
-418.83511327093879
 30
0.0
  0
VERTEX
  5
D32
  8
DATA
  6
CONTINUOUS
 62
     7
 10
-245.50023443224811
 20
-418.83511349757077
 30
0.0
  0
VERTEX
  5
D33
  8
DATA
  6
CONTINUOUS
 62
     7
 10
-245.50023173567649
 20
-418.8351137242143
 30
0.0
  0
VERTEX
  5
D34
  8
DATA
  6
CONTINUOUS
 62
     7
 10
-245.500229038969
 20
-418.83511395086907
 30
0.0
  0
VERTEX
  5
D35
  8
DATA
  6
CONTINUOUS
 62
     7
 10
-245.50022634212601
 20
-418.83511417753527
 30
0.0
  0
VERTEX
  5
D36
  8
DATA
  6
CONTINUOUS
 62
     7
 10
-245.500223645147
 20
-418.8351144042129
 30
0.0
  0
VERTEX
  5
D37
  8
DATA
  6
CONTINUOUS
 62
     7
 10
-245.50022094803239
 20
-418.8351146309019
 30
0.0
  0
VERTEX
  5
D38
  8
DATA
  6
CONTINUOUS
 62
     7
 10
-245.5002182507821
 20
-418.83511485760232
 30
0.0
  0
VERTEX
  5
D39
  8
DATA
  6
CONTINUOUS
 62
     7
 10
-245.50021555339609
 20
-418.83511508431428
 30
0.0
  0
VERTEX
  5
D3A
  8
DATA
  6
CONTINUOUS
 62
     7
 10
-245.50021285587439
 20
-418.8351153110375
 30
0.0
  0
VERTEX
  5
D3B
  8
DATA
  6
CONTINUOUS
 62
     7
 10
-245.50021015821679
 20
-418.8351155377722
 30
0.0
  0
VERTEX
  5
D3C
  8
DATA
  6
CONTINUOUS
 62
     7
 10
-245.5002074604237
 20
-418.83511576451832
 30
0.0
  0
VERTEX
  5
D3D
  8
DATA
  6
CONTINUOUS
 62
     7
 10
-245.50020476249469
 20
-418.83511599127581
 30
0.0
  0
VERTEX
  5
D3E
  8
DATA
  6
CONTINUOUS
 62
     7
 10
-245.50020206443
 20
-418.83511621804462
 30
0.0
  0
VERTEX
  5
D3F
  8
DATA
  6
CONTINUOUS
 62
     7
 10
-245.50019936622959
 20
-418.83511644482479
 30
0.0
  0
VERTEX
  5
D40
  8
DATA
  6
CONTINUOUS
 62
     7
 10
-245.50019666789359
 20
-418.83511667161662
 30
0.0
  0
VERTEX
  5
D41
  8
DATA
  6
CONTINUOUS
 62
     7
 10
-245.5001939694217
 20
-418.8351168984197
 30
0.0
  0
VERTEX
  5
D42
  8
DATA
  6
CONTINUOUS
 62
     7
 10
-245.5001912708141
 20
-418.83511712523421
 30
0.0
  0
VERTEX
  5
D43
  8
DATA
  6
CONTINUOUS
 62
     7
 10
-245.50018857207081
 20
-418.83511735206008
 30
0.0
  0
VERTEX
  5
D44
  8
DATA
  6
CONTINUOUS
 62
     7
 10
-245.50018587319181
 20
-418.83511757889733
 30
0.0
  0
VERTEX
  5
D45
  8
DATA
  6
CONTINUOUS
 62
     7
 10
-245.5001831741771
 20
-418.83511780574622
 30
0.0
  0
VERTEX
  5
D46
  8
DATA
  6
CONTINUOUS
 62
     7
 10
-245.50018047502661
 20
-418.8351180326062
 30
0.0
  0
VERTEX
  5
D47
  8
DATA
  6
CONTINUOUS
 62
     7
 10
-245.50017777574041
 20
-418.83511825947772
 30
0.0
  0
VERTEX
  5
D48
  8
DATA
  6
CONTINUOUS
 62
     7
 10
-245.5001750763185
 20
-418.83511848636073
 30
0.0
  0
VERTEX
  5
D49
  8
DATA
  6
CONTINUOUS
 62
     7
 10
-245.50017237676079
 20
-418.83511871325521
 30
0.0
  0
VERTEX
  5
D4A
  8
DATA
  6
CONTINUOUS
 62
     7
 10
-245.5001696770675
 20
-418.83511894016078
 30
0.0
  0
VERTEX
  5
D4B
  8
DATA
  6
CONTINUOUS
 62
     7
 10
-245.50016697723839
 20
-418.83511916707801
 30
0.0
  0
VERTEX
  5
D4C
  8
DATA
  6
CONTINUOUS
 62
     7
 10
-245.5001642772736
 20
-418.83511939400648
 30
0.0
  0
VERTEX
  5
D4D
  8
DATA
  6
CONTINUOUS
 62
     7
 10
-245.500161577173
 20
-418.8351196209465
 30
0.0
  0
VERTEX
  5
D4E
  8
DATA
  6
CONTINUOUS
 62
     7
 10
-245.50015887693669
 20
-418.83511984789777
 30
0.0
  0
VERTEX
  5
D4F
  8
DATA
  6
CONTINUOUS
 62
     7
 10
-245.5001561765647
 20
-418.8351200748607
 30
0.0
  0
VERTEX
  5
D50
  8
DATA
  6
CONTINUOUS
 62
     7
 10
-245.50015347605699
 20
-418.83512030183482
 30
0.0
  0
VERTEX
  5
D51
  8
DATA
  6
CONTINUOUS
 62
     7
 10
-245.50015077541349
 20
-418.83512052882043
 30
0.0
  0
VERTEX
  5
D52
  8
DATA
  6
CONTINUOUS
 62
     7
 10
-245.5001480746343
 20
-418.83512075581729
 30
0.0
  0
VERTEX
  5
D53
  8
DATA
  6
CONTINUOUS
 62
     7
 10
-245.5001453737195
 20
-418.83512098282569
 30
0.0
  0
VERTEX
  5
D54
  8
DATA
  6
CONTINUOUS
 62
     7
 10
-245.50014267266889
 20
-418.83512120984551
 30
0.0
  0
VERTEX
  5
D55
  8
DATA
  6
CONTINUOUS
 62
     7
 10
-245.5001399714825
 20
-418.83512143687682
 30
0.0
  0
VERTEX
  5
D56
  8
DATA
  6
CONTINUOUS
 62
     7
 10
-245.50013727016039
 20
-418.83512166391932
 30
0.0
  0
VERTEX
  5
D57
  8
DATA
  6
CONTINUOUS
 62
     7
 10
-245.50013456870261
 20
-418.83512189097343
 30
0.0
  0
VERTEX
  5
D58
  8
DATA
  6
CONTINUOUS
 62
     7
 10
-245.5001318671091
 20
-418.83512211803878
 30
0.0
  0
VERTEX
  5
D59
  8
DATA
  6
CONTINUOUS
 62
     7
 10
-245.5001291653798
 20
-418.83512234511568
 30
0.0
  0
VERTEX
  5
D5A
  8
DATA
  6
CONTINUOUS
 62
     7
 10
-245.5001264635149
 20
-418.83512257220389
 30
0.0
  0
VERTEX
  5
D5B
  8
DATA
  6
CONTINUOUS
 62
     7
 10
-245.5001237615142
 20
-418.83512279930352
 30
0.0
  0
VERTEX
  5
D5C
  8
DATA
  6
CONTINUOUS
 62
     7
 10
-245.5001210593777
 20
-418.83512302641441
 30
0.0
  0
VERTEX
  5
D5D
  8
DATA
  6
CONTINUOUS
 62
     7
 10
-245.50011835710561
 20
-418.83512325353678
 30
0.0
  0
VERTEX
  5
D5E
  8
DATA
  6
CONTINUOUS
 62
     7
 10
-245.50011565469771
 20
-418.8351234806708
 30
0.0
  0
VERTEX
  5
D5F
  8
DATA
  6
CONTINUOUS
 62
     7
 10
-245.5001129521541
 20
-418.83512370781608
 30
0.0
  0
VERTEX
  5
D60
  8
DATA
  6
CONTINUOUS
 62
     7
 10
-245.5001102494748
 20
-418.83512393497278
 30
0.0
  0
VERTEX
  5
D61
  8
DATA
  6
CONTINUOUS
 62
     7
 10
-245.50010754665971
 20
-418.83512416214091
 30
0.0
  0
VERTEX
  5
D62
  8
DATA
  6
CONTINUOUS
 62
     7
 10
-245.5001048437089
 20
-418.8351243893203
 30
0.0
  0
VERTEX
  5
D63
  8
DATA
  6
CONTINUOUS
 62
     7
 10
-245.50010214062249
 20
-418.83512461651111
 30
0.0
  0
VERTEX
  5
D64
  8
DATA
  6
CONTINUOUS
 62
     7
 10
-245.50009943740019
 20
-418.8351248437134
 30
0.0
  0
VERTEX
  5
D65
  8
DATA
  6
CONTINUOUS
 62
     7
 10
-245.50009673404219
 20
-418.83512507092712
 30
0.0
  0
VERTEX
  5
D66
  8
DATA
  6
CONTINUOUS
 62
     7
 10
-245.5000940305485
 20
-418.83512529815221
 30
0.0
  0
VERTEX
  5
D67
  8
DATA
  6
CONTINUOUS
 62
     7
 10
-245.5000913269192
 20
-418.83512552538872
 30
0.0
  0
VERTEX
  5
D68
  8
DATA
  6
CONTINUOUS
 62
     7
 10
-245.500088623154
 20
-418.8351257526366
 30
0.0
  0
VERTEX
  5
D69
  8
DATA
  6
CONTINUOUS
 62
     7
 10
-245.50008591925319
 20
-418.83512597989602
 30
0.0
  0
VERTEX
  5
D6A
  8
DATA
  6
CONTINUOUS
 62
     7
 10
-245.50008321521651
 20
-418.8351262071667
 30
0.0
  0
VERTEX
  5
D6B
  8
DATA
  6
CONTINUOUS
 62
     7
 10
-245.5000805110443
 20
-418.8351264344488
 30
0.0
  0
VERTEX
  5
D6C
  8
DATA
  6
CONTINUOUS
 62
     7
 10
-245.50007780673619
 20
-418.83512666174232
 30
0.0
  0
VERTEX
  5
D6D
  8
DATA
  6
CONTINUOUS
 62
     7
 10
-245.5000751022925
 20
-418.83512688904722
 30
0.0
  0
VERTEX
  5
D6E
  8
DATA
  6
CONTINUOUS
 62
     7
 10
-245.5000751022925
 20
-418.83512688904722
 30
0.0
  0
SEQEND
  5
D6F
  8
DATA
  6
CONTINUOUS
 62
     7
  0
POLYLINE
  5
410
  8
DATA
  6
CONTINUOUS
 62
     7
 66
     1
 10
0.0
 20
0.0
 30
0.0
 70
   128
  0
VERTEX
  5
D70
  8
DATA
  6
CONTINUOUS
 62
     7
 10
-240.08428434488499
 20
-419.28601780646051
 30
0.0
  0
VERTEX
  5
D71
  8
DATA
  6
CONTINUOUS
 62
     7
 10
-240.08428148318279
 20
-419.2860180424164
 30
0.0
  0
VERTEX
  5
D72
  8
DATA
  6
CONTINUOUS
 62
     7
 10
-240.08427862110071
 20
-419.28601827840362
 30
0.0
  0
VERTEX
  5
D73
  8
DATA
  6
CONTINUOUS
 62
     7
 10
-240.0842757586386
 20
-419.2860185144221
 30
0.0
  0
VERTEX
  5
D74
  8
DATA
  6
CONTINUOUS
 62
     7
 10
-240.0842728957966
 20
-419.2860187504719
 30
0.0
  0
VERTEX
  5
D75
  8
DATA
  6
CONTINUOUS
 62
     7
 10
-240.08427003257481
 20
-419.28601898655319
 30
0.0
  0
VERTEX
  5
D76
  8
DATA
  6
CONTINUOUS
 62
     7
 10
-240.0842671689729
 20
-419.28601922266569
 30
0.0
  0
VERTEX
  5
D77
  8
DATA
  6
CONTINUOUS
 62
     7
 10
-240.084264304991
 20
-419.28601945880968
 30
0.0
  0
VERTEX
  5
D78
  8
DATA
  6
CONTINUOUS
 62
     7
 10
-240.08426144062929
 20
-419.28601969498459
 30
0.0
  0
VERTEX
  5
D79
  8
DATA
  6
CONTINUOUS
 62
     7
 10
-240.08425857588759
 20
-419.28601993119111
 30
0.0
  0
VERTEX
  5
D7A
  8
DATA
  6
CONTINUOUS
 62
     7
 10
-240.084255710766
 20
-419.28602016742889
 30
0.0
  0
VERTEX
  5
D7B
  8
DATA
  6
CONTINUOUS
 62
     7
 10
-240.0842528452645
 20
-419.28602040369822
 30
0.0
  0
VERTEX
  5
D7C
  8
DATA
  6
CONTINUOUS
 62
     7
 10
-240.08424997938289
 20
-419.28602063999853
 30
0.0
  0
VERTEX
  5
D7D
  8
DATA
  6
CONTINUOUS
 62
     7
 10
-240.08424711312159
 20
-419.28602087633033
 30
0.0
  0
VERTEX
  5
D7E
  8
DATA
  6
CONTINUOUS
 62
     7
 10
-240.08424424648021
 20
-419.2860211126935
 30
0.0
  0
VERTEX
  5
D7F
  8
DATA
  6
CONTINUOUS
 62
     7
 10
-240.08424137945889
 20
-419.28602134908789
 30
0.0
  0
VERTEX
  5
D80
  8
DATA
  6
CONTINUOUS
 62
     7
 10
-240.0842385120576
 20
-419.28602158551359
 30
0.0
  0
VERTEX
  5
D81
  8
DATA
  6
CONTINUOUS
 62
     7
 10
-240.08423564427639
 20
-419.28602182197091
 30
0.0
  0
VERTEX
  5
D82
  8
DATA
  6
CONTINUOUS
 62
     7
 10
-240.0842327761153
 20
-419.28602205845908
 30
0.0
  0
VERTEX
  5
D83
  8
DATA
  6
CONTINUOUS
 62
     7
 10
-240.0842299075741
 20
-419.28602229497881
 30
0.0
  0
VERTEX
  5
D84
  8
DATA
  6
CONTINUOUS
 62
     7
 10
-240.08422703865321
 20
-419.28602253153002
 30
0.0
  0
VERTEX
  5
D85
  8
DATA
  6
CONTINUOUS
 62
     7
 10
-240.0842241693523
 20
-419.28602276811239
 30
0.0
  0
VERTEX
  5
D86
  8
DATA
  6
CONTINUOUS
 62
     7
 10
-240.0842212996713
 20
-419.28602300472591
 30
0.0
  0
VERTEX
  5
D87
  8
DATA
  6
CONTINUOUS
 62
     7
 10
-240.0842184296105
 20
-419.28602324137108
 30
0.0
  0
VERTEX
  5
D88
  8
DATA
  6
CONTINUOUS
 62
     7
 10
-240.08421555916971
 20
-419.2860234780473
 30
0.0
  0
VERTEX
  5
D89
  8
DATA
  6
CONTINUOUS
 62
     7
 10
-240.084212688349
 20
-419.28602371475512
 30
0.0
  0
VERTEX
  5
D8A
  8
DATA
  6
CONTINUOUS
 62
     7
 10
-240.08420981714841
 20
-419.28602395149397
 30
0.0
  0
VERTEX
  5
D8B
  8
DATA
  6
CONTINUOUS
 62
     7
 10
-240.08420694556779
 20
-419.28602418826449
 30
0.0
  0
VERTEX
  5
D8C
  8
DATA
  6
CONTINUOUS
 62
     7
 10
-240.08420407360731
 20
-419.2860244250661
 30
0.0
  0
VERTEX
  5
D8D
  8
DATA
  6
CONTINUOUS
 62
     7
 10
-240.08420120126689
 20
-419.28602466189898
 30
0.0
  0
VERTEX
  5
D8E
  8
DATA
  6
CONTINUOUS
 62
     7
 10
-240.08419832854639
 20
-419.28602489876329
 30
0.0
  0
VERTEX
  5
D8F
  8
DATA
  6
CONTINUOUS
 62
     7
 10
-240.08419545544609
 20
-419.28602513565897
 30
0.0
  0
VERTEX
  5
D90
  8
DATA
  6
CONTINUOUS
 62
     7
 10
-240.08419258196579
 20
-419.28602537258593
 30
0.0
  0
VERTEX
  5
D91
  8
DATA
  6
CONTINUOUS
 62
     7
 10
-240.08418970810561
 20
-419.2860256095442
 30
0.0
  0
VERTEX
  5
D92
  8
DATA
  6
CONTINUOUS
 62
     7
 10
-240.0841868338654
 20
-419.28602584653368
 30
0.0
  0
VERTEX
  5
D93
  8
DATA
  6
CONTINUOUS
 62
     7
 10
-240.08418395924539
 20
-419.2860260835547
 30
0.0
  0
VERTEX
  5
D94
  8
DATA
  6
CONTINUOUS
 62
     7
 10
-240.08418108424539
 20
-419.28602632060688
 30
0.0
  0
VERTEX
  5
D95
  8
DATA
  6
CONTINUOUS
 62
     7
 10
-240.08417820886541
 20
-419.2860265576906
 30
0.0
  0
VERTEX
  5
D96
  8
DATA
  6
CONTINUOUS
 62
     7
 10
-240.08417533310549
 20
-419.28602679480548
 30
0.0
  0
VERTEX
  5
D97
  8
DATA
  6
CONTINUOUS
 62
     7
 10
-240.08417245696569
 20
-419.28602703195162
 30
0.0
  0
VERTEX
  5
D98
  8
DATA
  6
CONTINUOUS
 62
     7
 10
-240.08416958044589
 20
-419.28602726912919
 30
0.0
  0
VERTEX
  5
D99
  8
DATA
  6
CONTINUOUS
 62
     7
 10
-240.08416670354609
 20
-419.28602750633797
 30
0.0
  0
VERTEX
  5
D9A
  8
DATA
  6
CONTINUOUS
 62
     7
 10
-240.08416382626649
 20
-419.2860277435783
 30
0.0
  0
VERTEX
  5
D9B
  8
DATA
  6
CONTINUOUS
 62
     7
 10
-240.08416094860681
 20
-419.28602798084972
 30
0.0
  0
VERTEX
  5
D9C
  8
DATA
  6
CONTINUOUS
 62
     7
 10
-240.0841580705673
 20
-419.28602821815258
 30
0.0
  0
VERTEX
  5
D9D
  8
DATA
  6
CONTINUOUS
 62
     7
 10
-240.0841551921479
 20
-419.28602845548681
 30
0.0
  0
VERTEX
  5
D9E
  8
DATA
  6
CONTINUOUS
 62
     7
 10
-240.0841523133484
 20
-419.28602869285231
 30
0.0
  0
VERTEX
  5
D9F
  8
DATA
  6
CONTINUOUS
 62
     7
 10
-240.08414943416909
 20
-419.28602893024902
 30
0.0
  0
VERTEX
  5
DA0
  8
DATA
  6
CONTINUOUS
 62
     7
 10
-240.08414655460979
 20
-419.28602916767721
 30
0.0
  0
VERTEX
  5
DA1
  8
DATA
  6
CONTINUOUS
 62
     7
 10
-240.0841436746706
 20
-419.28602940513667
 30
0.0
  0
VERTEX
  5
DA2
  8
DATA
  6
CONTINUOUS
 62
     7
 10
-240.08414079435141
 20
-419.28602964262751
 30
0.0
  0
VERTEX
  5
DA3
  8
DATA
  6
CONTINUOUS
 62
     7
 10
-240.0841379136522
 20
-419.28602988014961
 30
0.0
  0
VERTEX
  5
DA4
  8
DATA
  6
CONTINUOUS
 62
     7
 10
-240.0841350325733
 20
-419.28603011770309
 30
0.0
  0
VERTEX
  5
DA5
  8
DATA
  6
CONTINUOUS
 62
     7
 10
-240.0841321511142
 20
-419.28603035528772
 30
0.0
  0
VERTEX
  5
DA6
  8
DATA
  6
CONTINUOUS
 62
     7
 10
-240.08412926927531
 20
-419.2860305929039
 30
0.0
  0
VERTEX
  5
DA7
  8
DATA
  6
CONTINUOUS
 62
     7
 10
-240.0841263870565
 20
-419.2860308305514
 30
0.0
  0
VERTEX
  5
DA8
  8
DATA
  6
CONTINUOUS
 62
     7
 10
-240.08412350445769
 20
-419.28603106822999
 30
0.0
  0
VERTEX
  5
DA9
  8
DATA
  6
CONTINUOUS
 62
     7
 10
-240.08412062147889
 20
-419.28603130594013
 30
0.0
  0
VERTEX
  5
DAA
  8
DATA
  6
CONTINUOUS
 62
     7
 10
-240.0841177381202
 20
-419.28603154368142
 30
0.0
  0
VERTEX
  5
DAB
  8
DATA
  6
CONTINUOUS
 62
     7
 10
-240.0841148543816
 20
-419.28603178145408
 30
0.0
  0
VERTEX
  5
DAC
  8
DATA
  6
CONTINUOUS
 62
     7
 10
-240.08411197026311
 20
-419.28603201925819
 30
0.0
  0
VERTEX
  5
DAD
  8
DATA
  6
CONTINUOUS
 62
     7
 10
-240.0841090857646
 20
-419.28603225709361
 30
0.0
  0
VERTEX
  5
DAE
  8
DATA
  6
CONTINUOUS
 62
     7
 10
-240.08410620088611
 20
-419.2860324949603
 30
0.0
  0
VERTEX
  5
DAF
  8
DATA
  6
CONTINUOUS
 62
     7
 10
-240.08410331562769
 20
-419.2860327328583
 30
0.0
  0
VERTEX
  5
DB0
  8
DATA
  6
CONTINUOUS
 62
     7
 10
-240.08410042998941
 20
-419.28603297078757
 30
0.0
  0
VERTEX
  5
DB1
  8
DATA
  6
CONTINUOUS
 62
     7
 10
-240.08410042998941
 20
-419.28603297078757
 30
0.0
  0
SEQEND
  5
DB2
  8
DATA
  6
CONTINUOUS
 62
     7
  0
POLYLINE
  5
454
  8
DATA
  6
CONTINUOUS
 62
     7
 66
     1
 10
0.0
 20
0.0
 30
0.0
 70
   128
  0
VERTEX
  5
DB3
  8
DATA
  6
CONTINUOUS
 62
     7
 10
-239.4121834015142
 20
-419.34136688643241
 30
0.0
  0
VERTEX
  5
DB4
  8
DATA
  6
CONTINUOUS
 62
     7
 10
-239.16870059350529
 20
-419.36138482000069
 30
0.0
  0
VERTEX
  5
DB5
  8
DATA
  6
CONTINUOUS
 62
     7
 10
-238.92532981222359
 20
-419.3813757292674
 30
0.0
  0
VERTEX
  5
DB6
  8
DATA
  6
CONTINUOUS
 62
     7
 10
-238.68207105766899
 20
-419.40133961423271
 30
0.0
  0
VERTEX
  5
DB7
  8
DATA
  6
CONTINUOUS
 62
     7
 10
-238.43892432984131
 20
-419.4212764748965
 30
0.0
  0
VERTEX
  5
DB8
  8
DATA
  6
CONTINUOUS
 62
     7
 10
-238.19588962874079
 20
-419.44118631125878
 30
0.0
  0
VERTEX
  5
DB9
  8
DATA
  6
CONTINUOUS
 62
     7
 10
-237.9529669543673
 20
-419.46106912331959
 30
0.0
  0
VERTEX
  5
DBA
  8
DATA
  6
CONTINUOUS
 62
     7
 10
-237.71015630672079
 20
-419.480924911079
 30
0.0
  0
VERTEX
  5
DBB
  8
DATA
  6
CONTINUOUS
 62
     7
 10
-237.46745768580141
 20
-419.50075367453678
 30
0.0
  0
VERTEX
  5
DBC
  8
DATA
  6
CONTINUOUS
 62
     7
 10
-237.22487109160909
 20
-419.5205554136931
 30
0.0
  0
VERTEX
  5
DBD
  8
DATA
  6
CONTINUOUS
 62
     7
 10
-236.98239652414389
 20
-419.54033012854791
 30
0.0
  0
VERTEX
  5
DBE
  8
DATA
  6
CONTINUOUS
 62
     7
 10
-236.7400339834056
 20
-419.56007781910142
 30
0.0
  0
VERTEX
  5
DBF
  8
DATA
  6
CONTINUOUS
 62
     7
 10
-236.49778346939439
 20
-419.57979848535319
 30
0.0
  0
VERTEX
  5
DC0
  8
DATA
  6
CONTINUOUS
 62
     7
 10
-236.25564498211031
 20
-419.59949212730368
 30
0.0
  0
VERTEX
  5
DC1
  8
DATA
  6
CONTINUOUS
 62
     7
 10
-236.01361852155321
 20
-419.61915874495247
 30
0.0
  0
VERTEX
  5
DC2
  8
DATA
  6
CONTINUOUS
 62
     7
 10
-235.77170408772321
 20
-419.63879833829998
 30
0.0
  0
VERTEX
  5
DC3
  8
DATA
  6
CONTINUOUS
 62
     7
 10
-235.5299016806203
 20
-419.65841090734602
 30
0.0
  0
VERTEX
  5
DC4
  8
DATA
  6
CONTINUOUS
 62
     7
 10
-235.2882113002444
 20
-419.67799645209038
 30
0.0
  0
VERTEX
  5
DC5
  8
DATA
  6
CONTINUOUS
 62
     7
 10
-235.04663294659551
 20
-419.69755497253323
 30
0.0
  0
VERTEX
  5
DC6
  8
DATA
  6
CONTINUOUS
 62
     7
 10
-234.8051666196738
 20
-419.71708646867478
 30
0.0
  0
VERTEX
  5
DC7
  8
DATA
  6
CONTINUOUS
 62
     7
 10
-234.56381231947901
 20
-419.7365909405147
 30
0.0
  0
VERTEX
  5
DC8
  8
DATA
  6
CONTINUOUS
 62
     7
 10
-234.32257004601129
 20
-419.75606838805311
 30
0.0
  0
VERTEX
  5
DC9
  8
DATA
  6
CONTINUOUS
 62
     7
 10
-234.0814397992707
 20
-419.77551881129
 30
0.0
  0
VERTEX
  5
DCA
  8
DATA
  6
CONTINUOUS
 62
     7
 10
-233.84042157925711
 20
-419.79494221022549
 30
0.0
  0
VERTEX
  5
DCB
  8
DATA
  6
CONTINUOUS
 62
     7
 10
-233.59951538597059
 20
-419.81433858485963
 30
0.0
  0
VERTEX
  5
DCC
  8
DATA
  6
CONTINUOUS
 62
     7
 10
-233.35872121941119
 20
-419.83370793519208
 30
0.0
  0
VERTEX
  5
DCD
  8
DATA
  6
CONTINUOUS
 62
     7
 10
-233.11803907957881
 20
-419.85305026122319
 30
0.0
  0
VERTEX
  5
DCE
  8
DATA
  6
CONTINUOUS
 62
     7
 10
-232.8774689664734
 20
-419.87236556295261
 30
0.0
  0
VERTEX
  5
DCF
  8
DATA
  6
CONTINUOUS
 62
     7
 10
-232.6370108800952
 20
-419.8916538403808
 30
0.0
  0
VERTEX
  5
DD0
  8
DATA
  6
CONTINUOUS
 62
     7
 10
-232.3966648204439
 20
-419.9109150935073
 30
0.0
  0
VERTEX
  5
DD1
  8
DATA
  6
CONTINUOUS
 62
     7
 10
-232.1564307875197
 20
-419.93014932233223
 30
0.0
  0
VERTEX
  5
DD2
  8
DATA
  6
CONTINUOUS
 62
     7
 10
-231.91630878132261
 20
-419.94935652685592
 30
0.0
  0
VERTEX
  5
DD3
  8
DATA
  6
CONTINUOUS
 62
     7
 10
-231.6762988018526
 20
-419.9685367070781
 30
0.0
  0
VERTEX
  5
DD4
  8
DATA
  6
CONTINUOUS
 62
     7
 10
-231.43640084910959
 20
-419.98768986299859
 30
0.0
  0
VERTEX
  5
DD5
  8
DATA
  6
CONTINUOUS
 62
     7
 10
-231.19661492309359
 20
-420.0068159946178
 30
0.0
  0
VERTEX
  5
DD6
  8
DATA
  6
CONTINUOUS
 62
     7
 10
-230.95694102380469
 20
-420.02591510193531
 30
0.0
  0
VERTEX
  5
DD7
  8
DATA
  6
CONTINUOUS
 62
     7
 10
-230.7173791512428
 20
-420.04498718495148
 30
0.0
  0
VERTEX
  5
DD8
  8
DATA
  6
CONTINUOUS
 62
     7
 10
-230.477929305408
 20
-420.06403224366602
 30
0.0
  0
VERTEX
  5
DD9
  8
DATA
  6
CONTINUOUS
 62
     7
 10
-230.23859148630029
 20
-420.0830502780791
 30
0.0
  0
VERTEX
  5
DDA
  8
DATA
  6
CONTINUOUS
 62
     7
 10
-229.9993656939196
 20
-420.10204128819089
 30
0.0
  0
VERTEX
  5
DDB
  8
DATA
  6
CONTINUOUS
 62
     7
 10
-229.760251928266
 20
-420.12100527400122
 30
0.0
  0
VERTEX
  5
DDC
  8
DATA
  6
CONTINUOUS
 62
     7
 10
-229.5212501893395
 20
-420.13994223550969
 30
0.0
  0
VERTEX
  5
DDD
  8
DATA
  6
CONTINUOUS
 62
     7
 10
-229.28236047714
 20
-420.15885217271699
 30
0.0
  0
VERTEX
  5
DDE
  8
DATA
  6
CONTINUOUS
 62
     7
 10
-229.04358279166749
 20
-420.17773508562271
 30
0.0
  0
VERTEX
  5
DDF
  8
DATA
  6
CONTINUOUS
 62
     7
 10
-228.8049171329221
 20
-420.19659097422692
 30
0.0
  0
VERTEX
  5
DE0
  8
DATA
  6
CONTINUOUS
 62
     7
 10
-228.56636350090369
 20
-420.21541983852961
 30
0.0
  0
VERTEX
  5
DE1
  8
DATA
  6
CONTINUOUS
 62
     7
 10
-228.32792189561249
 20
-420.2342216785309
 30
0.0
  0
VERTEX
  5
DE2
  8
DATA
  6
CONTINUOUS
 62
     7
 10
-228.0895923170483
 20
-420.25299649423067
 30
0.0
  0
VERTEX
  5
DE3
  8
DATA
  6
CONTINUOUS
 62
     7
 10
-227.85137476521109
 20
-420.27174428562898
 30
0.0
  0
VERTEX
  5
DE4
  8
DATA
  6
CONTINUOUS
 62
     7
 10
-227.613269240101
 20
-420.29046505272572
 30
0.0
  0
VERTEX
  5
DE5
  8
DATA
  6
CONTINUOUS
 62
     7
 10
-227.37527574171801
 20
-420.30915879552111
 30
0.0
  0
VERTEX
  5
DE6
  8
DATA
  6
CONTINUOUS
 62
     7
 10
-227.13739427006189
 20
-420.32782551401488
 30
0.0
  0
VERTEX
  5
DE7
  8
DATA
  6
CONTINUOUS
 62
     7
 10
-226.89962482513289
 20
-420.34646520820718
 30
0.0
  0
VERTEX
  5
DE8
  8
DATA
  6
CONTINUOUS
 62
     7
 10
-226.66196740693101
 20
-420.36507787809791
 30
0.0
  0
VERTEX
  5
DE9
  8
DATA
  6
CONTINUOUS
 62
     7
 10
-226.4244220154562
 20
-420.38366352368718
 30
0.0
  0
VERTEX
  5
DEA
  8
DATA
  6
CONTINUOUS
 62
     7
 10
-226.1869886507084
 20
-420.40222214497521
 30
0.0
  0
VERTEX
  5
DEB
  8
DATA
  6
CONTINUOUS
 62
     7
 10
-225.94966731268769
 20
-420.42075374196139
 30
0.0
  0
VERTEX
  5
DEC
  8
DATA
  6
CONTINUOUS
 62
     7
 10
-225.712458001394
 20
-420.43925831464628
 30
0.0
  0
VERTEX
  5
DED
  8
DATA
  6
CONTINUOUS
 62
     7
 10
-225.4753607168274
 20
-420.45773586302971
 30
0.0
  0
VERTEX
  5
DEE
  8
DATA
  6
CONTINUOUS
 62
     7
 10
-225.2383754589878
 20
-420.47618638711151
 30
0.0
  0
VERTEX
  5
DEF
  8
DATA
  6
CONTINUOUS
 62
     7
 10
-225.00150222787531
 20
-420.49460988689202
 30
0.0
  0
VERTEX
  5
DF0
  8
DATA
  6
CONTINUOUS
 62
     7
 10
-224.7647410234899
 20
-420.5130063623709
 30
0.0
  0
VERTEX
  5
DF1
  8
DATA
  6
CONTINUOUS
 62
     7
 10
-224.5280918458314
 20
-420.53137581354821
 30
0.0
  0
VERTEX
  5
DF2
  8
DATA
  6
CONTINUOUS
 62
     7
 10
-224.2915546949001
 20
-420.54971824042423
 30
0.0
  0
VERTEX
  5
DF3
  8
DATA
  6
CONTINUOUS
 62
     7
 10
-224.05512957069581
 20
-420.56803364299873
 30
0.0
  0
VERTEX
  5
DF4
  8
DATA
  6
CONTINUOUS
 62
     7
 10
-224.05512957069581
 20
-420.56803364299873
 30
0.0
  0
SEQEND
  5
DF5
  8
DATA
  6
CONTINUOUS
 62
     7
  0
POLYLINE
  5
498
  8
DATA
  6
CONTINUOUS
 62
     7
 66
     1
 10
0.0
 20
0.0
 30
0.0
 70
   128
  0
VERTEX
  5
DF6
  8
DATA
  6
CONTINUOUS
 62
     7
 10
-218.59431178602691
 20
-420.98590932106038
 30
0.0
  0
VERTEX
  5
DF7
  8
DATA
  6
CONTINUOUS
 62
     7
 10
-213.9492538580196
 20
-421.33340396230921
 30
0.0
  0
VERTEX
  5
DF8
  8
DATA
  6
CONTINUOUS
 62
     7
 10
-209.34885444126729
 20
-421.67012559336638
 30
0.0
  0
VERTEX
  5
DF9
  8
DATA
  6
CONTINUOUS
 62
     7
 10
-204.79311353577
 20
-421.99607421423173
 30
0.0
  0
VERTEX
  5
DFA
  8
DATA
  6
CONTINUOUS
 62
     7
 10
-200.28203114152771
 20
-422.3112498249053
 30
0.0
  0
VERTEX
  5
DFB
  8
DATA
  6
CONTINUOUS
 62
     7
 10
-195.8156072585405
 20
-422.61565242538711
 30
0.0
  0
VERTEX
  5
DFC
  8
DATA
  6
CONTINUOUS
 62
     7
 10
-191.39384188680839
 20
-422.90928201567721
 30
0.0
  0
VERTEX
  5
DFD
  8
DATA
  6
CONTINUOUS
 62
     7
 10
-187.01673502633119
 20
-423.19213859577548
 30
0.0
  0
VERTEX
  5
DFE
  8
DATA
  6
CONTINUOUS
 62
     7
 10
-182.6842866771091
 20
-423.46422216568197
 30
0.0
  0
VERTEX
  5
DFF
  8
DATA
  6
CONTINUOUS
 62
     7
 10
-178.39649683914189
 20
-423.72553272539687
 30
0.0
  0
VERTEX
  5
E00
  8
DATA
  6
CONTINUOUS
 62
     7
 10
-174.1533655124299
 20
-423.97607027491989
 30
0.0
  0
VERTEX
  5
E01
  8
DATA
  6
CONTINUOUS
 62
     7
 10
-169.95489269697291
 20
-424.2158348142512
 30
0.0
  0
VERTEX
  5
E02
  8
DATA
  6
CONTINUOUS
 62
     7
 10
-165.80107839277079
 20
-424.44482634339067
 30
0.0
  0
VERTEX
  5
E03
  8
DATA
  6
CONTINUOUS
 62
     7
 10
-161.6919225998239
 20
-424.6630448623385
 30
0.0
  0
VERTEX
  5
E04
  8
DATA
  6
CONTINUOUS
 62
     7
 10
-157.62742531813191
 20
-424.8704903710946
 30
0.0
  0
VERTEX
  5
E05
  8
DATA
  6
CONTINUOUS
 62
     7
 10
-153.60758654769501
 20
-425.06716286965877
 30
0.0
  0
VERTEX
  5
E06
  8
DATA
  6
CONTINUOUS
 62
     7
 10
-149.63240628851321
 20
-425.25306235803129
 30
0.0
  0
VERTEX
  5
E07
  8
DATA
  6
CONTINUOUS
 62
     7
 10
-145.70188454058641
 20
-425.42818883621197
 30
0.0
  0
VERTEX
  5
E08
  8
DATA
  6
CONTINUOUS
 62
     7
 10
-141.81602130391451
 20
-425.592542304201
 30
0.0
  0
VERTEX
  5
E09
  8
DATA
  6
CONTINUOUS
 62
     7
 10
-137.97481657849769
 20
-425.74612276199821
 30
0.0
  0
VERTEX
  5
E0A
  8
DATA
  6
CONTINUOUS
 62
     7
 10
-134.17827036433599
 20
-425.8889302096037
 30
0.0
  0
VERTEX
  5
E0B
  8
DATA
  6
CONTINUOUS
 62
     7
 10
-130.4263826614293
 20
-426.02096464701748
 30
0.0
  0
VERTEX
  5
E0C
  8
DATA
  6
CONTINUOUS
 62
     7
 10
-126.71915346977769
 20
-426.14222607423937
 30
0.0
  0
VERTEX
  5
E0D
  8
DATA
  6
CONTINUOUS
 62
     7
 10
-123.056582789381
 20
-426.25271449126961
 30
0.0
  0
VERTEX
  5
E0E
  8
DATA
  6
CONTINUOUS
 62
     7
 10
-119.43867062023941
 20
-426.35242989810808
 30
0.0
  0
VERTEX
  5
E0F
  8
DATA
  6
CONTINUOUS
 62
     7
 10
-115.8654169623528
 20
-426.44137229475479
 30
0.0
  0
VERTEX
  5
E10
  8
DATA
  6
CONTINUOUS
 62
     7
 10
-112.33682181572129
 20
-426.51954168120972
 30
0.0
  0
VERTEX
  5
E11
  8
DATA
  6
CONTINUOUS
 62
     7
 10
-108.8528851803447
 20
-426.58693805747282
 30
0.0
  0
VERTEX
  5
E12
  8
DATA
  6
CONTINUOUS
 62
     7
 10
-105.4136070562233
 20
-426.64356142354433
 30
0.0
  0
VERTEX
  5
E13
  8
DATA
  6
CONTINUOUS
 62
     7
 10
-102.01898744335681
 20
-426.68941177942389
 30
0.0
  0
VERTEX
  5
E14
  8
DATA
  6
CONTINUOUS
 62
     7
 10
-98.669026341745408
 20
-426.7244891251118
 30
0.0
  0
VERTEX
  5
E15
  8
DATA
  6
CONTINUOUS
 62
     7
 10
-95.363723751389017
 20
-426.74879346060789
 30
0.0
  0
VERTEX
  5
E16
  8
DATA
  6
CONTINUOUS
 62
     7
 10
-92.103079672287635
 20
-426.76232478591243
 30
0.0
  0
VERTEX
  5
E17
  8
DATA
  6
CONTINUOUS
 62
     7
 10
-88.887094104441346
 20
-426.76508310102503
 30
0.0
  0
VERTEX
  5
E18
  8
DATA
  6
CONTINUOUS
 62
     7
 10
-85.715767047850051
 20
-426.75706840594592
 30
0.0
  0
VERTEX
  5
E19
  8
DATA
  6
CONTINUOUS
 62
     7
 10
-82.589098502513806
 20
-426.73828070067498
 30
0.0
  0
VERTEX
  5
E1A
  8
DATA
  6
CONTINUOUS
 62
     7
 10
-79.507088468432556
 20
-426.70871998521238
 30
0.0
  0
VERTEX
  5
E1B
  8
DATA
  6
CONTINUOUS
 62
     7
 10
-76.469736945606371
 20
-426.66838625955802
 30
0.0
  0
VERTEX
  5
E1C
  8
DATA
  6
CONTINUOUS
 62
     7
 10
-73.477043934035208
 20
-426.61727952371177
 30
0.0
  0
VERTEX
  5
E1D
  8
DATA
  6
CONTINUOUS
 62
     7
 10
-70.529009433719054
 20
-426.55539977767381
 30
0.0
  0
VERTEX
  5
E1E
  8
DATA
  6
CONTINUOUS
 62
     7
 10
-67.625633444657979
 20
-426.4827470214442
 30
0.0
  0
VERTEX
  5
E1F
  8
DATA
  6
CONTINUOUS
 62
     7
 10
-64.766915966851883
 20
-426.39932125502293
 30
0.0
  0
VERTEX
  5
E20
  8
DATA
  6
CONTINUOUS
 62
     7
 10
-61.952857000300881
 20
-426.30512247840971
 30
0.0
  0
VERTEX
  5
E21
  8
DATA
  6
CONTINUOUS
 62
     7
 10
-59.183456545004873
 20
-426.20015069160479
 30
0.0
  0
VERTEX
  5
E22
  8
DATA
  6
CONTINUOUS
 62
     7
 10
-56.458714600963887
 20
-426.08440589460793
 30
0.0
  0
VERTEX
  5
E23
  8
DATA
  6
CONTINUOUS
 62
     7
 10
-53.778631168177952
 20
-425.95788808741969
 30
0.0
  0
VERTEX
  5
E24
  8
DATA
  6
CONTINUOUS
 62
     7
 10
-51.143206246647061
 20
-425.82059727003929
 30
0.0
  0
VERTEX
  5
E25
  8
DATA
  6
CONTINUOUS
 62
     7
 10
-48.552439836371192
 20
-425.67253344246728
 30
0.0
  0
VERTEX
  5
E26
  8
DATA
  6
CONTINUOUS
 62
     7
 10
-46.006331937350339
 20
-425.51369660470363
 30
0.0
  0
VERTEX
  5
E27
  8
DATA
  6
CONTINUOUS
 62
     7
 10
-43.504882549584522
 20
-425.34408675674803
 30
0.0
  0
VERTEX
  5
E28
  8
DATA
  6
CONTINUOUS
 62
     7
 10
-41.048091673073749
 20
-425.16370389860077
 30
0.0
  0
VERTEX
  5
E29
  8
DATA
  6
CONTINUOUS
 62
     7
 10
-38.635959307818013
 20
-424.97254803026181
 30
0.0
  0
VERTEX
  5
E2A
  8
DATA
  6
CONTINUOUS
 62
     7
 10
-36.268485453817291
 20
-424.77061915173113
 30
0.0
  0
VERTEX
  5
E2B
  8
DATA
  6
CONTINUOUS
 62
     7
 10
-33.945670111071621
 20
-424.55791726300862
 30
0.0
  0
VERTEX
  5
E2C
  8
DATA
  6
CONTINUOUS
 62
     7
 10
-31.667513279580959
 20
-424.3344423640944
 30
0.0
  0
VERTEX
  5
E2D
  8
DATA
  6
CONTINUOUS
 62
     7
 10
-29.43401495934534
 20
-424.10019445498841
 30
0.0
  0
VERTEX
  5
E2E
  8
DATA
  6
CONTINUOUS
 62
     7
 10
-27.245175150364751
 20
-423.85517353569048
 30
0.0
  0
VERTEX
  5
E2F
  8
DATA
  6
CONTINUOUS
 62
     7
 10
-25.10099385263921
 20
-423.5993796062009
 30
0.0
  0
VERTEX
  5
E30
  8
DATA
  6
CONTINUOUS
 62
     7
 10
-23.001471066168691
 20
-423.33281266651971
 30
0.0
  0
VERTEX
  5
E31
  8
DATA
  6
CONTINUOUS
 62
     7
 10
-20.94660679095319
 20
-423.05547271664659
 30
0.0
  0
VERTEX
  5
E32
  8
DATA
  6
CONTINUOUS
 62
     7
 10
-18.93640102699273
 20
-422.7673597565817
 30
0.0
  0
VERTEX
  5
E33
  8
DATA
  6
CONTINUOUS
 62
     7
 10
-16.970853774287299
 20
-422.46847378632521
 30
0.0
  0
VERTEX
  5
E34
  8
DATA
  6
CONTINUOUS
 62
     7
 10
-15.04996503283691
 20
-422.15881480587689
 30
0.0
  0
VERTEX
  5
E35
  8
DATA
  6
CONTINUOUS
 62
     7
 10
-13.173734802641549
 20
-421.83838281523691
 30
0.0
  0
VERTEX
  5
E36
  8
DATA
  6
CONTINUOUS
 62
     7
 10
-11.34216308370122
 20
-421.50717781440488
 30
0.0
  0
VERTEX
  5
E37
  8
DATA
  6
CONTINUOUS
 62
     7
 10
-11.34216308370122
 20
-421.50717781440488
 30
0.0
  0
SEQEND
  5
E38
  8
DATA
  6
CONTINUOUS
 62
     7
  0
TEXT
  5
4DC
  8
DATA
 62
     7
 10
-317.0
 20
-395.87939306042421
 30
0.0
 40
2.693359375
  1
Input Trim 
 41
0.7
 11
-317.0
 21
-393.18603368542421
 31
0.0
 73
     3
  0
TEXT
  5
4DD
  8
DATA
 62
     7
 10
-294.32242775830332
 20
-403.41503503800072
 30
0.0
 40
2.30859375
  1
Edited
 41
0.7
 11
-294.32242775830332
 21
-401.10644128800072
 31
0.0
 73
     3
  0
TEXT
  5
4DE
  8
DATA
 62
     7
 10
-281.0561054044577
 20
-397.3932296598594
 30
0.0
 40
2.30859375
  1
Edit Pages
 41
0.7
 11
-281.0561054044577
 21
-395.0846359098594
 31
0.0
 73
     3
  0
TEXT
  5
4DF
  8
DATA
 62
     7
 10
-277.69800302025362
 20
-422.45299005196517
 30
0.0
 40
2.30859375
  1
System
 41
0.7
 11
-277.69800302025362
 21
-420.14439630196512
 31
0.0
 73
     3
  0
TEXT
  5
4E0
  8
DATA
 62
     7
 10
-249.6535460979357
 20
-426.37999999999988
 30
0.0
 40
2.30859375
  1
Select
 41
0.7
 11
-249.6535460979357
 21
-424.07140625
 31
0.0
 73
     3
  0
TEXT
  5
4E1
  8
DATA
 62
     7
 10
-199.98165324502071
 20
-426.28305779249649
 30
0.0
 40
2.30859375
  1
Change
 41
0.7
 11
-199.98165324502071
 21
-423.97446404249649
 31
0.0
 73
     3
  0
LINE
  5
4E2
  8
DATA
  6
CONTINUOUS
 62
     7
 10
-201.59999999999999
 20
-425.28337693939989
 30
0.0
 11
-239.0
 21
-425.28337693939989
 31
0.0
  0
LINE
  5
4E3
  8
DATA
  6
CONTINUOUS
 62
     7
 10
-273.39999999999998
 20
-425.28337693939989
 30
0.0
 11
-252.0
 21
-425.28337693939989
 31
0.0
  0
LINE
  5
4E4
  8
DATA
  6
CONTINUOUS
 62
     7
 10
-273.39999999999998
 20
-425.28337693939989
 30
0.0
 11
-273.39999999999998
 21
-423.2000000000001
 31
0.0
  0
LINE
  5
4E5
  8
DATA
  6
CONTINUOUS
 62
     7
 10
-281.55000000000001
 20
-402.35000000000002
 30
0.0
 11
-284.35000000000002
 21
-402.35000000000002
 31
0.0
  0
TEXT
  5
4E6
  8
DATA
 62
     7
 10
-246.40000000000001
 20
-395.61000000000001
 30
0.0
 40
2.693359375
  1
1
 41
0.7
 11
-246.40000000000001
 21
-392.91664062500001
 31
0.0
 73
     3
  0
TEXT
  5
4E7
  8
DATA
 62
     7
 10
-221.34338549617269
 20
-395.50457681297843
 30
0.0
 40
2.693359375
  1
2
 41
0.7
 11
-221.34338549617269
 21
-392.81121743797843
 31
0.0
 73
     3
  0
TEXT
  5
4E8
  8
DATA
 62
     7
 10
-196.47288406489201
 20
-395.61000000000001
 30
0.0
 40
2.693359375
  1
3
 41
0.7
 11
-196.47288406489201
 21
-392.91664062500001
 31
0.0
 73
     3
  0
TEXT
  5
4E9
  8
DATA
 62
     7
 10
-171.5674608778705
 20
-395.50457681297843
 30
0.0
 40
2.693359375
  1
4
 41
0.7
 11
-171.5674608778705
 21
-392.81121743797843
 31
0.0
 73
     3
  0
TEXT
  5
4EA
  8
DATA
 62
     7
 10
-211.58915362595681
 20
-390.55576812978421
 30
0.0
 40
2.693359375
  1
EDIT
 41
0.7
 11
-211.58915362595681
 21
-387.86240875478421
 31
0.0
 73
     3
  0
LINE
  5
4EB
  8
DATA
  6
CONTINUOUS
 62
     7
 10
-245.5
 20
-389.17830725191368
 30
0.0
 11
-213.59999999999999
 21
-389.17830725191368
 31
0.0
  0
LINE
  5
4EC
  8
DATA
  6
CONTINUOUS
 62
     7
 10
-170.5
 20
-389.17830725191368
 30
0.0
 11
-203.0
 21
-389.17830725191368
 31
0.0
  0
TEXT
  5
4ED
  8
DATA
 62
     7
 10
-126.3433854961727
 20
-423.137115935108
 30
0.0
 40
2.693359375
  1
1
 41
0.7
 11
-126.3433854961727
 21
-420.44375656010811
 31
0.0
 73
     3
  0
TEXT
  5
4EE
  8
DATA
 62
     7
 10
-109.2379623091511
 20
-423.16542318702159
 30
0.0
 40
2.693359375
  1
2
 41
0.7
 11
-109.2379623091511
 21
-420.47206381202159
 31
0.0
 73
     3
  0
TEXT
  5
4EF
  8
DATA
 62
     7
 10
-92.343385496172701
 20
-423.2316927480864
 30
0.0
 40
2.693359375
  1
3
 41
0.7
 11
-92.343385496172701
 21
-420.53833337308629
 31
0.0
 73
     3
  0
TEXT
  5
4F0
  8
DATA
 62
     7
 10
-75.494576812978423
 20
-423.22084637404322
 30
0.0
 40
2.693359375
  1
4
 41
0.7
 11
-75.494576812978423
 21
-420.52748699904311
 31
0.0
 73
     3
  0
TEXT
  5
4F1
  8
DATA
 62
     7
 10
-37.465423300667773
 20
-397.57126956106481
 30
0.0
 40
2.30859375
  1
Load 
 41
0.7
 11
-37.465423300667773
 21
-395.26267581106481
 31
0.0
 73
     3
  0
TEXT
  5
4F2
  8
DATA
 62
     7
 10
-38.883730438935281
 20
-422.28542318702159
 30
0.0
 40
2.30859375
  1
Bypass
 41
0.7
 11
-38.883730438935281
 21
-419.97682943702159
 31
0.0
 73
     3
  0
TEXT
  5
4F3
  8
DATA
 62
     7
 10
-10.80780621468606
 20
-392.902037690849
 30
0.0
 40
3.078125
  1
PROGRAM
 41
0.7
 11
-10.80780621468606
 21
-389.823912690849
 31
0.0
 73
     3
  0
TEXT
  5
4F4
  8
DATA
 62
     7
 10
-13.14880868319422
 20
-427.51796230915107
 30
0.0
 40
2.30859375
  1
Push for Bank
 41
0.7
 11
-13.14880868319422
 21
-425.20936855915107
 31
0.0
 73
     3
  0
TEXT
  5
4F5
  8
DATA
 62
     7
 10
22.032539122129482
 20
-422.96915362595678
 30
0.0
 40
2.30859375
  1
Store
 41
0.7
 11
22.032539122129482
 21
-420.66055987595672
 31
0.0
 73
     3
  0
TEXT
  5
4F6
  8
DATA
 62
     7
 10
43.98611307254685
 20
-423.00169274808633
 30
0.0
 40
2.30859375
  1
Tap/Cancel
 41
0.7
 11
43.98611307254685
 21
-420.69309899808633
 31
0.0
 73
     3
  0
TEXT
  5
4F7
  8
DATA
 62
     7
 10
35.072778785586728
 20
-405.55233142439857
 30
0.0
 40
2.30859375
  1
Learn
 41
0.7
 11
35.072778785586728
 21
-403.24373767439857
 31
0.0
 73
     3
  0
LINE
  5
4F8
  8
DATA
  6
CONTINUOUS
 62
     7
 10
26.015261423066729
 20
-406.39999999999998
 30
0.0
 11
26.015261423066729
 21
-404.6963015267911
 31
0.0
  0
LINE
  5
4F9
  8
DATA
  6
CONTINUOUS
 62
     7
 10
51.115261423066727
 20
-406.39999999999998
 30
0.0
 11
51.115261423066727
 21
-404.6963015267911
 31
0.0
  0
LINE
  5
4FA
  8
DATA
  6
CONTINUOUS
 62
     7
 10
26.015261423066729
 20
-404.6963015267911
 30
0.0
 11
33.850000000000001
 21
-404.6963015267911
 31
0.0
  0
LINE
  5
4FB
  8
DATA
  6
CONTINUOUS
 62
     7
 10
51.115261423066727
 20
-404.6963015267911
 30
0.0
 11
43.200000000000003
 21
-404.6963015267911
 31
0.0
  0
TEXT
  5
4FC
  8
DATA
 62
     7
 10
72.652962183755335
 20
-396.15206013648469
 30
0.0
 40
2.30859375
  1
Power
 41
0.7
 11
72.652962183755335
 21
-393.84346638648481
 31
0.0
 73
     3
  0
LINE
  5
4FD
  8
DATA
  6
CONTINUOUS
 62
     7
 10
71.5
 20
-272.00000000002768
 30
0.0
 11
81.0
 21
-272.00000000002768
 31
0.0
  0
LINE
  5
4FE
  8
DATA
  6
CONTINUOUS
 62
     7
 10
73.950000000000031
 20
-275.00000000002768
 30
0.0
 11
78.549999999999955
 21
-275.00000000002768
 31
0.0
  0
LINE
  5
4FF
  8
DATA
  6
CONTINUOUS
 62
     7
 10
71.5
 20
-272.00000000002768
 30
0.0
 11
71.5
 21
-270.00000000002768
 31
0.0
  0
LINE
  5
500
  8
DATA
  6
CONTINUOUS
 62
     7
 10
81.0
 20
-272.00000000002768
 30
0.0
 11
81.0
 21
-270.00000000002768
 31
0.0
  0
LINE
  5
501
  8
DATA
  6
CONTINUOUS
 62
     7
 10
73.950000000000031
 20
-275.00000000002768
 30
0.0
 11
73.950000000000031
 21
-272.00000000002768
 31
0.0
  0
LINE
  5
502
  8
DATA
  6
CONTINUOUS
 62
     7
 10
78.549999999999955
 20
-275.00000000002768
 30
0.0
 11
78.549999999999955
 21
-272.00000000002768
 31
0.0
  0
LINE
  5
503
  8
DATA
  6
CONTINUOUS
 62
     7
 10
-11.49999999999998
 20
-289.24063729250008
 30
0.0
 11
-11.99999999999998
 21
-277.99843752532081
 31
0.0
  0
LINE
  5
504
  8
DATA
  6
CONTINUOUS
 62
     7
 10
3.5000000000000142
 20
-289.24063729250008
 30
0.0
 11
4.0000000000000142
 21
-277.99843752532081
 31
0.0
  0
LINE
  5
505
  8
DATA
  6
CONTINUOUS
 62
     7
 10
-17.34999999999998
 20
-270.60000000002771
 30
0.0
 11
-17.34999999999998
 21
-270.00000000002768
 31
0.0
  0
LINE
  5
506
  8
DATA
  6
CONTINUOUS
 62
     7
 10
9.3500000000000156
 20
-270.60000000002771
 30
0.0
 11
9.3500000000000156
 21
-270.00000000002768
 31
0.0
  0
LINE
  5
507
  8
DATA
  6
CONTINUOUS
 62
     7
 10
-310.02272476373957
 20
-285.17663832256818
 30
0.0
 11
-310.02272476373957
 21
-270.00063729250002
 31
0.0
  0
LINE
  5
508
  8
DATA
  6
CONTINUOUS
 62
     7
 10
-309.04272476373961
 20
-285.17663832256818
 30
0.0
 11
-309.04272476373961
 21
-270.00063729250002
 31
0.0
  0
ARC
  5
509
  8
DATA
  6
CONTINUOUS
 62
     7
 10
-319.83274235736712
 20
-273.40166821049269
 30
0.0
 40
3.8032193044035112
 50
358.3346968230494
 51
63.412325756786863
  0
ARC
  5
50A
  8
DATA
  6
CONTINUOUS
 62
     7
 10
-299.23270717011201
 20
-273.40166821049269
 30
0.0
 40
3.803219304403521
 50
116.5876742432131
 51
181.6653031769506
  0
ARC
  5
50B
  8
DATA
  6
CONTINUOUS
 62
     7
 10
-309.53265109408949
 20
-252.3260608966645
 30
0.0
 40
32.85057742598628
 50
259.6102722946822
 51
269.14521458219463
  0
ARC
  5
50C
  8
DATA
  6
CONTINUOUS
 62
     7
 10
-309.53265109408949
 20
-252.3260608966645
 30
0.0
 40
32.850577425986287
 50
270.85452840986238
 51
280.38972770531791
  0
LINE
  5
50D
  8
DATA
  6
CONTINUOUS
 62
     7
 10
-315.45701628693132
 20
-284.63801432388038
 30
0.0
 11
-316.03112937329291
 21
-273.5121933058636
 31
0.0
  0
LINE
  5
50E
  8
DATA
  6
CONTINUOUS
 62
     7
 10
-303.60828590124771
 20
-284.63801432388038
 30
0.0
 11
-303.03432015418622
 21
-273.5121933058636
 31
0.0
  0
LINE
  5
50F
  8
DATA
  6
CONTINUOUS
 62
     7
 10
-200.255
 20
-289.00000000002768
 30
0.0
 11
-190.745
 21
-289.00000000002768
 31
0.0
  0
LINE
  5
510
  8
DATA
  6
CONTINUOUS
 62
     7
 10
-200.255
 20
-289.00000000002768
 30
0.0
 11
-200.255
 21
-278.00000000002768
 31
0.0
  0
LINE
  5
511
  8
DATA
  6
CONTINUOUS
 62
     7
 10
-190.745
 20
-289.00000000002768
 30
0.0
 11
-190.745
 21
-278.00000000002768
 31
0.0
  0
LINE
  5
512
  8
DATA
  6
CONTINUOUS
 62
     7
 10
-206.25
 20
-270.50000000002768
 30
0.0
 11
-206.25
 21
-270.00000000002768
 31
0.0
  0
LINE
  5
513
  8
DATA
  6
CONTINUOUS
 62
     7
 10
-184.75
 20
-270.50000000002768
 30
0.0
 11
-184.75
 21
-270.00000000002768
 31
0.0
  0
LINE
  5
514
  8
DATA
  6
CONTINUOUS
 62
     7
 10
-280.9579438157009
 20
-272.00000000002768
 30
0.0
 11
-264.96127807547509
 21
-272.00000000002768
 31
0.0
  0
LINE
  5
515
  8
DATA
  6
CONTINUOUS
 62
     7
 10
-42.489700888253118
 20
-272.00000000002768
 30
0.0
 11
-26.506405706820249
 21
-272.00000000002768
 31
0.0
  0
LINE
  5
516
  8
DATA
  6
CONTINUOUS
 62
     7
 10
18.030299111746871
 20
-272.00000000002768
 30
0.0
 11
34.013594293179693
 21
-272.00000000002768
 31
0.0
  0
LINE
  5
517
  8
DATA
  6
CONTINUOUS
 62
     7
 10
43.130299111746893
 20
-272.00000000002768
 30
0.0
 11
59.100223734386567
 21
-272.00000000002768
 31
0.0
  0
LINE
  5
518
  8
DATA
  6
CONTINUOUS
 62
     7
 10
59.100223734386567
 20
-272.00000000002768
 30
0.0
 11
59.100223734386567
 21
-270.00000000002768
 31
0.0
  0
LINE
  5
519
  8
DATA
  6
CONTINUOUS
 62
     7
 10
43.130299111746893
 20
-272.00000000002768
 30
0.0
 11
43.130299111746893
 21
-270.00000000002768
 31
0.0
  0
LINE
  5
51A
  8
DATA
  6
CONTINUOUS
 62
     7
 10
34.013594293179693
 20
-272.00000000002768
 30
0.0
 11
34.013594293179693
 21
-270.00000000002768
 31
0.0
  0
LINE
  5
51B
  8
DATA
  6
CONTINUOUS
 62
     7
 10
18.030299111746871
 20
-272.00000000002768
 30
0.0
 11
18.030299111746871
 21
-270.00000000002768
 31
0.0
  0
LINE
  5
51C
  8
DATA
  6
CONTINUOUS
 62
     7
 10
-26.506405706820249
 20
-272.00000000002768
 30
0.0
 11
-26.506405706820249
 21
-270.00000000002768
 31
0.0
  0
LINE
  5
51D
  8
DATA
  6
CONTINUOUS
 62
     7
 10
-42.489700888253118
 20
-272.00000000002768
 30
0.0
 11
-42.489700888253118
 21
-270.00000000002768
 31
0.0
  0
LINE
  5
51E
  8
DATA
  6
CONTINUOUS
 62
     7
 10
-280.9579438157009
 20
-272.00000000002768
 30
0.0
 11
-280.9579438157009
 21
-270.00000000002768
 31
0.0
  0
LINE
  5
51F
  8
DATA
  6
CONTINUOUS
 62
     7
 10
-264.96127807547509
 20
-272.00000000002768
 30
0.0
 11
-264.96127807547509
 21
-270.00000000002768
 31
0.0
  0
CIRCLE
  5
520
  8
DATA
  6
CONTINUOUS
 62
     7
 10
92.0
 20
-250.50000000002771
 30
0.0
 40
2.6500000000000048
  0
POLYLINE
  5
521
  8
DATA
  6
CONTINUOUS
 62
     7
 66
     1
 10
0.0
 20
0.0
 30
0.0
  0
VERTEX
  5
E39
  8
DATA
  6
CONTINUOUS
 62
     7
 10
92.399999999999963
 20
-250.75000000002771
 30
0.0
  0
VERTEX
  5
E3A
  8
DATA
  6
CONTINUOUS
 62
     7
 10
92.399999999999963
 20
-252.30000000002769
 30
0.0
  0
VERTEX
  5
E3B
  8
DATA
  6
CONTINUOUS
 62
     7
 10
91.600000000000009
 20
-252.30000000002769
 30
0.0
  0
VERTEX
  5
E3C
  8
DATA
  6
CONTINUOUS
 62
     7
 10
91.600000000000009
 20
-250.75000000002771
 30
0.0
  0
SEQEND
  5
E3D
  8
DATA
  6
CONTINUOUS
 62
     7
  0
POLYLINE
  5
528
  8
DATA
  6
CONTINUOUS
 62
     7
 66
     1
 10
0.0
 20
0.0
 30
0.0
  0
VERTEX
  5
E3E
  8
DATA
  6
CONTINUOUS
 62
     7
 10
92.399999999999963
 20
-250.25000000002771
 30
0.0
  0
VERTEX
  5
E3F
  8
DATA
  6
CONTINUOUS
 62
     7
 10
92.399999999999963
 20
-248.7000000000277
 30
0.0
  0
VERTEX
  5
E40
  8
DATA
  6
CONTINUOUS
 62
     7
 10
91.600000000000009
 20
-248.7000000000277
 30
0.0
  0
VERTEX
  5
E41
  8
DATA
  6
CONTINUOUS
 62
     7
 10
91.600000000000009
 20
-250.25000000002771
 30
0.0
  0
SEQEND
  5
E42
  8
DATA
  6
CONTINUOUS
 62
     7
  0
POLYLINE
  5
52F
  8
DATA
  6
CONTINUOUS
 62
     7
 66
     1
 10
0.0
 20
0.0
 30
0.0
  0
VERTEX
  5
E43
  8
DATA
  6
CONTINUOUS
 62
     7
 10
91.600000000000009
 20
-250.25000000002771
 30
0.0
  0
VERTEX
  5
E44
  8
DATA
  6
CONTINUOUS
 62
     7
 10
90.200000000000017
 20
-250.25000000002771
 30
0.0
  0
VERTEX
  5
E45
  8
DATA
  6
CONTINUOUS
 62
     7
 10
90.200000000000017
 20
-250.75000000002771
 30
0.0
  0
VERTEX
  5
E46
  8
DATA
  6
CONTINUOUS
 62
     7
 10
91.600000000000009
 20
-250.75000000002771
 30
0.0
  0
SEQEND
  5
E47
  8
DATA
  6
CONTINUOUS
 62
     7
  0
POLYLINE
  5
536
  8
DATA
  6
CONTINUOUS
 62
     7
 66
     1
 10
0.0
 20
0.0
 30
0.0
  0
VERTEX
  5
E48
  8
DATA
  6
CONTINUOUS
 62
     7
 10
92.399999999999963
 20
-250.75000000002771
 30
0.0
  0
VERTEX
  5
E49
  8
DATA
  6
CONTINUOUS
 62
     7
 10
93.799999999999997
 20
-250.75000000002771
 30
0.0
  0
VERTEX
  5
E4A
  8
DATA
  6
CONTINUOUS
 62
     7
 10
93.799999999999997
 20
-250.25000000002771
 30
0.0
  0
VERTEX
  5
E4B
  8
DATA
  6
CONTINUOUS
 62
     7
 10
92.399999999999963
 20
-250.25000000002771
 30
0.0
  0
SEQEND
  5
E4C
  8
DATA
  6
CONTINUOUS
 62
     7
  0
CIRCLE
  5
53D
  8
DATA
  6
CONTINUOUS
 62
     7
 10
-170.0
 20
-250.50000000002771
 30
0.0
 40
2.6500000000000048
  0
POLYLINE
  5
53E
  8
DATA
  6
CONTINUOUS
 62
     7
 66
     1
 10
0.0
 20
0.0
 30
0.0
  0
VERTEX
  5
E4D
  8
DATA
  6
CONTINUOUS
 62
     7
 10
-169.59999999999999
 20
-250.75000000002771
 30
0.0
  0
VERTEX
  5
E4E
  8
DATA
  6
CONTINUOUS
 62
     7
 10
-169.59999999999999
 20
-252.30000000002769
 30
0.0
  0
VERTEX
  5
E4F
  8
DATA
  6
CONTINUOUS
 62
     7
 10
-170.39999999999989
 20
-252.30000000002769
 30
0.0
  0
VERTEX
  5
E50
  8
DATA
  6
CONTINUOUS
 62
     7
 10
-170.39999999999989
 20
-250.75000000002771
 30
0.0
  0
SEQEND
  5
E51
  8
DATA
  6
CONTINUOUS
 62
     7
  0
POLYLINE
  5
545
  8
DATA
  6
CONTINUOUS
 62
     7
 66
     1
 10
0.0
 20
0.0
 30
0.0
  0
VERTEX
  5
E52
  8
DATA
  6
CONTINUOUS
 62
     7
 10
-169.59999999999999
 20
-250.25000000002771
 30
0.0
  0
VERTEX
  5
E53
  8
DATA
  6
CONTINUOUS
 62
     7
 10
-169.59999999999999
 20
-248.7000000000277
 30
0.0
  0
VERTEX
  5
E54
  8
DATA
  6
CONTINUOUS
 62
     7
 10
-170.39999999999989
 20
-248.7000000000277
 30
0.0
  0
VERTEX
  5
E55
  8
DATA
  6
CONTINUOUS
 62
     7
 10
-170.39999999999989
 20
-250.25000000002771
 30
0.0
  0
SEQEND
  5
E56
  8
DATA
  6
CONTINUOUS
 62
     7
  0
POLYLINE
  5
54C
  8
DATA
  6
CONTINUOUS
 62
     7
 66
     1
 10
0.0
 20
0.0
 30
0.0
  0
VERTEX
  5
E57
  8
DATA
  6
CONTINUOUS
 62
     7
 10
-170.39999999999989
 20
-250.25000000002771
 30
0.0
  0
VERTEX
  5
E58
  8
DATA
  6
CONTINUOUS
 62
     7
 10
-171.80000000000001
 20
-250.25000000002771
 30
0.0
  0
VERTEX
  5
E59
  8
DATA
  6
CONTINUOUS
 62
     7
 10
-171.80000000000001
 20
-250.75000000002771
 30
0.0
  0
VERTEX
  5
E5A
  8
DATA
  6
CONTINUOUS
 62
     7
 10
-170.39999999999989
 20
-250.75000000002771
 30
0.0
  0
SEQEND
  5
E5B
  8
DATA
  6
CONTINUOUS
 62
     7
  0
POLYLINE
  5
553
  8
DATA
  6
CONTINUOUS
 62
     7
 66
     1
 10
0.0
 20
0.0
 30
0.0
  0
VERTEX
  5
E5C
  8
DATA
  6
CONTINUOUS
 62
     7
 10
-169.59999999999999
 20
-250.75000000002771
 30
0.0
  0
VERTEX
  5
E5D
  8
DATA
  6
CONTINUOUS
 62
     7
 10
-168.19999999999999
 20
-250.75000000002771
 30
0.0
  0
VERTEX
  5
E5E
  8
DATA
  6
CONTINUOUS
 62
     7
 10
-168.19999999999999
 20
-250.25000000002771
 30
0.0
  0
VERTEX
  5
E5F
  8
DATA
  6
CONTINUOUS
 62
     7
 10
-169.59999999999999
 20
-250.25000000002771
 30
0.0
  0
SEQEND
  5
E60
  8
DATA
  6
CONTINUOUS
 62
     7
  0
CIRCLE
  5
55A
  8
DATA
  6
CONTINUOUS
 62
     7
 10
-329.0
 20
-250.50000000002771
 30
0.0
 40
2.6499999999999768
  0
POLYLINE
  5
55B
  8
DATA
  6
CONTINUOUS
 62
     7
 66
     1
 10
0.0
 20
0.0
 30
0.0
  0
VERTEX
  5
E61
  8
DATA
  6
CONTINUOUS
 62
     7
 10
-328.60000000000002
 20
-250.75000000002771
 30
0.0
  0
VERTEX
  5
E62
  8
DATA
  6
CONTINUOUS
 62
     7
 10
-328.60000000000002
 20
-252.30000000002769
 30
0.0
  0
VERTEX
  5
E63
  8
DATA
  6
CONTINUOUS
 62
     7
 10
-329.39999999999998
 20
-252.30000000002769
 30
0.0
  0
VERTEX
  5
E64
  8
DATA
  6
CONTINUOUS
 62
     7
 10
-329.39999999999998
 20
-250.75000000002771
 30
0.0
  0
SEQEND
  5
E65
  8
DATA
  6
CONTINUOUS
 62
     7
  0
POLYLINE
  5
562
  8
DATA
  6
CONTINUOUS
 62
     7
 66
     1
 10
0.0
 20
0.0
 30
0.0
  0
VERTEX
  5
E66
  8
DATA
  6
CONTINUOUS
 62
     7
 10
-328.60000000000002
 20
-250.25000000002771
 30
0.0
  0
VERTEX
  5
E67
  8
DATA
  6
CONTINUOUS
 62
     7
 10
-328.60000000000002
 20
-248.7000000000277
 30
0.0
  0
VERTEX
  5
E68
  8
DATA
  6
CONTINUOUS
 62
     7
 10
-329.39999999999998
 20
-248.7000000000277
 30
0.0
  0
VERTEX
  5
E69
  8
DATA
  6
CONTINUOUS
 62
     7
 10
-329.39999999999998
 20
-250.25000000002771
 30
0.0
  0
SEQEND
  5
E6A
  8
DATA
  6
CONTINUOUS
 62
     7
  0
POLYLINE
  5
569
  8
DATA
  6
CONTINUOUS
 62
     7
 66
     1
 10
0.0
 20
0.0
 30
0.0
  0
VERTEX
  5
E6B
  8
DATA
  6
CONTINUOUS
 62
     7
 10
-329.39999999999998
 20
-250.25000000002771
 30
0.0
  0
VERTEX
  5
E6C
  8
DATA
  6
CONTINUOUS
 62
     7
 10
-330.80000000000001
 20
-250.25000000002771
 30
0.0
  0
VERTEX
  5
E6D
  8
DATA
  6
CONTINUOUS
 62
     7
 10
-330.80000000000001
 20
-250.75000000002771
 30
0.0
  0
VERTEX
  5
E6E
  8
DATA
  6
CONTINUOUS
 62
     7
 10
-329.39999999999998
 20
-250.75000000002771
 30
0.0
  0
SEQEND
  5
E6F
  8
DATA
  6
CONTINUOUS
 62
     7
  0
POLYLINE
  5
570
  8
DATA
  6
CONTINUOUS
 62
     7
 66
     1
 10
0.0
 20
0.0
 30
0.0
  0
VERTEX
  5
E70
  8
DATA
  6
CONTINUOUS
 62
     7
 10
-328.60000000000002
 20
-250.75000000002771
 30
0.0
  0
VERTEX
  5
E71
  8
DATA
  6
CONTINUOUS
 62
     7
 10
-327.19999999999999
 20
-250.75000000002771
 30
0.0
  0
VERTEX
  5
E72
  8
DATA
  6
CONTINUOUS
 62
     7
 10
-327.19999999999999
 20
-250.25000000002771
 30
0.0
  0
VERTEX
  5
E73
  8
DATA
  6
CONTINUOUS
 62
     7
 10
-328.60000000000002
 20
-250.25000000002771
 30
0.0
  0
SEQEND
  5
E74
  8
DATA
  6
CONTINUOUS
 62
     7
  0
CIRCLE
  5
577
  8
DATA
  6
CONTINUOUS
 62
     7
 10
-19.0
 20
-147.5000000000276
 30
0.0
 40
1.3999999999999979
  0
CIRCLE
  5
578
  8
DATA
  6
CONTINUOUS
 62
     7
 10
-25.5
 20
-147.5000000000276
 30
0.0
 40
1.3999999999999979
  0
CIRCLE
  5
579
  8
DATA
  6
CONTINUOUS
 62
     7
 10
-32.0
 20
-147.5000000000276
 30
0.0
 40
1.3999999999999979
  0
CIRCLE
  5
57A
  8
DATA
  6
CONTINUOUS
 62
     7
 10
-38.5
 20
-147.5000000000276
 30
0.0
 40
1.3999999999999979
  0
CIRCLE
  5
57B
  8
DATA
  6
CONTINUOUS
 62
     7
 10
-45.0
 20
-147.5000000000276
 30
0.0
 40
1.3999999999999979
  0
CIRCLE
  5
57C
  8
DATA
  6
CONTINUOUS
 62
     7
 10
-51.5
 20
-147.5000000000276
 30
0.0
 40
1.3999999999999979
  0
CIRCLE
  5
57D
  8
DATA
  6
CONTINUOUS
 62
     7
 10
-19.0
 20
-154.0000000000276
 30
0.0
 40
1.3999999999999979
  0
CIRCLE
  5
57E
  8
DATA
  6
CONTINUOUS
 62
     7
 10
-25.5
 20
-154.0000000000276
 30
0.0
 40
1.3999999999999979
  0
CIRCLE
  5
57F
  8
DATA
  6
CONTINUOUS
 62
     7
 10
-32.0
 20
-154.0000000000276
 30
0.0
 40
1.3999999999999979
  0
CIRCLE
  5
580
  8
DATA
  6
CONTINUOUS
 62
     7
 10
-38.5
 20
-154.0000000000276
 30
0.0
 40
1.3999999999999979
  0
CIRCLE
  5
581
  8
DATA
  6
CONTINUOUS
 62
     7
 10
-45.0
 20
-154.0000000000276
 30
0.0
 40
1.3999999999999979
  0
CIRCLE
  5
582
  8
DATA
  6
CONTINUOUS
 62
     7
 10
-51.5
 20
-154.0000000000276
 30
0.0
 40
1.3999999999999979
  0
CIRCLE
  5
583
  8
DATA
  6
CONTINUOUS
 62
     7
 10
-19.0
 20
-160.5000000000276
 30
0.0
 40
1.3999999999999979
  0
CIRCLE
  5
584
  8
DATA
  6
CONTINUOUS
 62
     7
 10
-25.5
 20
-160.5000000000276
 30
0.0
 40
1.3999999999999979
  0
CIRCLE
  5
585
  8
DATA
  6
CONTINUOUS
 62
     7
 10
-32.0
 20
-160.5000000000276
 30
0.0
 40
1.3999999999999979
  0
CIRCLE
  5
586
  8
DATA
  6
CONTINUOUS
 62
     7
 10
-38.5
 20
-160.5000000000276
 30
0.0
 40
1.3999999999999979
  0
CIRCLE
  5
587
  8
DATA
  6
CONTINUOUS
 62
     7
 10
-45.0
 20
-160.5000000000276
 30
0.0
 40
1.3999999999999979
  0
CIRCLE
  5
588
  8
DATA
  6
CONTINUOUS
 62
     7
 10
-51.5
 20
-160.5000000000276
 30
0.0
 40
1.3999999999999979
  0
CIRCLE
  5
589
  8
DATA
  6
CONTINUOUS
 62
     7
 10
-19.0
 20
-167.0000000000276
 30
0.0
 40
1.3999999999999979
  0
CIRCLE
  5
58A
  8
DATA
  6
CONTINUOUS
 62
     7
 10
-25.5
 20
-167.0000000000276
 30
0.0
 40
1.3999999999999979
  0
CIRCLE
  5
58B
  8
DATA
  6
CONTINUOUS
 62
     7
 10
-32.0
 20
-167.0000000000276
 30
0.0
 40
1.3999999999999979
  0
CIRCLE
  5
58C
  8
DATA
  6
CONTINUOUS
 62
     7
 10
-38.5
 20
-167.0000000000276
 30
0.0
 40
1.3999999999999979
  0
CIRCLE
  5
58D
  8
DATA
  6
CONTINUOUS
 62
     7
 10
-45.0
 20
-167.0000000000276
 30
0.0
 40
1.3999999999999979
  0
CIRCLE
  5
58E
  8
DATA
  6
CONTINUOUS
 62
     7
 10
-51.5
 20
-167.0000000000276
 30
0.0
 40
1.3999999999999979
  0
CIRCLE
  5
58F
  8
DATA
  6
CONTINUOUS
 62
     7
 10
-19.0
 20
-173.5000000000276
 30
0.0
 40
1.3999999999999979
  0
CIRCLE
  5
590
  8
DATA
  6
CONTINUOUS
 62
     7
 10
-25.5
 20
-173.5000000000276
 30
0.0
 40
1.3999999999999979
  0
CIRCLE
  5
591
  8
DATA
  6
CONTINUOUS
 62
     7
 10
-32.0
 20
-173.5000000000276
 30
0.0
 40
1.3999999999999979
  0
CIRCLE
  5
592
  8
DATA
  6
CONTINUOUS
 62
     7
 10
-38.5
 20
-173.5000000000276
 30
0.0
 40
1.3999999999999979
  0
CIRCLE
  5
593
  8
DATA
  6
CONTINUOUS
 62
     7
 10
-45.0
 20
-173.5000000000276
 30
0.0
 40
1.3999999999999979
  0
CIRCLE
  5
594
  8
DATA
  6
CONTINUOUS
 62
     7
 10
-51.5
 20
-173.5000000000276
 30
0.0
 40
1.3999999999999979
  0
CIRCLE
  5
595
  8
DATA
  6
CONTINUOUS
 62
     7
 10
-19.0
 20
-180.0000000000276
 30
0.0
 40
1.3999999999999979
  0
CIRCLE
  5
596
  8
DATA
  6
CONTINUOUS
 62
     7
 10
-25.5
 20
-180.0000000000276
 30
0.0
 40
1.3999999999999979
  0
CIRCLE
  5
597
  8
DATA
  6
CONTINUOUS
 62
     7
 10
-32.0
 20
-180.0000000000276
 30
0.0
 40
1.3999999999999979
  0
CIRCLE
  5
598
  8
DATA
  6
CONTINUOUS
 62
     7
 10
-38.5
 20
-180.0000000000276
 30
0.0
 40
1.3999999999999979
  0
CIRCLE
  5
599
  8
DATA
  6
CONTINUOUS
 62
     7
 10
-45.0
 20
-180.0000000000276
 30
0.0
 40
1.3999999999999979
  0
CIRCLE
  5
59A
  8
DATA
  6
CONTINUOUS
 62
     7
 10
-51.5
 20
-180.0000000000276
 30
0.0
 40
1.3999999999999979
  0
CIRCLE
  5
59B
  8
DATA
  6
CONTINUOUS
 62
     7
 10
-19.0
 20
-186.5000000000276
 30
0.0
 40
1.3999999999999979
  0
CIRCLE
  5
59C
  8
DATA
  6
CONTINUOUS
 62
     7
 10
-25.5
 20
-186.5000000000276
 30
0.0
 40
1.3999999999999979
  0
CIRCLE
  5
59D
  8
DATA
  6
CONTINUOUS
 62
     7
 10
-32.0
 20
-186.5000000000276
 30
0.0
 40
1.3999999999999979
  0
CIRCLE
  5
59E
  8
DATA
  6
CONTINUOUS
 62
     7
 10
-38.5
 20
-186.5000000000276
 30
0.0
 40
1.3999999999999979
  0
CIRCLE
  5
59F
  8
DATA
  6
CONTINUOUS
 62
     7
 10
-45.0
 20
-186.5000000000276
 30
0.0
 40
1.3999999999999979
  0
CIRCLE
  5
5A0
  8
DATA
  6
CONTINUOUS
 62
     7
 10
-51.5
 20
-186.5000000000276
 30
0.0
 40
1.3999999999999979
  0
CIRCLE
  5
5A1
  8
DATA
  6
CONTINUOUS
 62
     7
 10
-19.0
 20
-193.0000000000276
 30
0.0
 40
1.3999999999999979
  0
CIRCLE
  5
5A2
  8
DATA
  6
CONTINUOUS
 62
     7
 10
-25.5
 20
-193.0000000000276
 30
0.0
 40
1.3999999999999979
  0
CIRCLE
  5
5A3
  8
DATA
  6
CONTINUOUS
 62
     7
 10
-32.0
 20
-193.0000000000276
 30
0.0
 40
1.3999999999999979
  0
CIRCLE
  5
5A4
  8
DATA
  6
CONTINUOUS
 62
     7
 10
-38.5
 20
-193.0000000000276
 30
0.0
 40
1.3999999999999979
  0
CIRCLE
  5
5A5
  8
DATA
  6
CONTINUOUS
 62
     7
 10
-45.0
 20
-193.0000000000276
 30
0.0
 40
1.3999999999999979
  0
CIRCLE
  5
5A6
  8
DATA
  6
CONTINUOUS
 62
     7
 10
-51.5
 20
-193.0000000000276
 30
0.0
 40
1.3999999999999979
  0
CIRCLE
  5
5A7
  8
DATA
  6
CONTINUOUS
 62
     7
 10
-19.0
 20
-199.5000000000276
 30
0.0
 40
1.3999999999999979
  0
CIRCLE
  5
5A8
  8
DATA
  6
CONTINUOUS
 62
     7
 10
-25.5
 20
-199.5000000000276
 30
0.0
 40
1.3999999999999979
  0
CIRCLE
  5
5A9
  8
DATA
  6
CONTINUOUS
 62
     7
 10
-32.0
 20
-199.5000000000276
 30
0.0
 40
1.3999999999999979
  0
CIRCLE
  5
5AA
  8
DATA
  6
CONTINUOUS
 62
     7
 10
-38.5
 20
-199.5000000000276
 30
0.0
 40
1.3999999999999979
  0
CIRCLE
  5
5AB
  8
DATA
  6
CONTINUOUS
 62
     7
 10
-45.0
 20
-199.5000000000276
 30
0.0
 40
1.3999999999999979
  0
CIRCLE
  5
5AC
  8
DATA
  6
CONTINUOUS
 62
     7
 10
-51.5
 20
-199.5000000000276
 30
0.0
 40
1.3999999999999979
  0
CIRCLE
  5
5AD
  8
DATA
  6
CONTINUOUS
 62
     7
 10
-19.0
 20
-206.0000000000276
 30
0.0
 40
1.3999999999999979
  0
CIRCLE
  5
5AE
  8
DATA
  6
CONTINUOUS
 62
     7
 10
-25.5
 20
-206.0000000000276
 30
0.0
 40
1.3999999999999979
  0
CIRCLE
  5
5AF
  8
DATA
  6
CONTINUOUS
 62
     7
 10
-32.0
 20
-206.0000000000276
 30
0.0
 40
1.3999999999999979
  0
CIRCLE
  5
5B0
  8
DATA
  6
CONTINUOUS
 62
     7
 10
-38.5
 20
-206.0000000000276
 30
0.0
 40
1.3999999999999979
  0
CIRCLE
  5
5B1
  8
DATA
  6
CONTINUOUS
 62
     7
 10
-45.0
 20
-206.0000000000276
 30
0.0
 40
1.3999999999999979
  0
CIRCLE
  5
5B2
  8
DATA
  6
CONTINUOUS
 62
     7
 10
-51.5
 20
-206.0000000000276
 30
0.0
 40
1.3999999999999979
  0
CIRCLE
  5
5B3
  8
DATA
  6
CONTINUOUS
 62
     7
 10
-19.0
 20
-212.5000000000276
 30
0.0
 40
1.3999999999999979
  0
CIRCLE
  5
5B4
  8
DATA
  6
CONTINUOUS
 62
     7
 10
-25.5
 20
-212.5000000000276
 30
0.0
 40
1.3999999999999979
  0
CIRCLE
  5
5B5
  8
DATA
  6
CONTINUOUS
 62
     7
 10
-32.0
 20
-212.5000000000276
 30
0.0
 40
1.3999999999999979
  0
CIRCLE
  5
5B6
  8
DATA
  6
CONTINUOUS
 62
     7
 10
-38.5
 20
-212.5000000000276
 30
0.0
 40
1.3999999999999979
  0
CIRCLE
  5
5B7
  8
DATA
  6
CONTINUOUS
 62
     7
 10
-45.0
 20
-212.5000000000276
 30
0.0
 40
1.3999999999999979
  0
CIRCLE
  5
5B8
  8
DATA
  6
CONTINUOUS
 62
     7
 10
-51.5
 20
-212.5000000000276
 30
0.0
 40
1.3999999999999979
  0
CIRCLE
  5
5B9
  8
DATA
  6
CONTINUOUS
 62
     7
 10
-19.0
 20
-219.0000000000276
 30
0.0
 40
1.3999999999999979
  0
CIRCLE
  5
5BA
  8
DATA
  6
CONTINUOUS
 62
     7
 10
-25.5
 20
-219.0000000000276
 30
0.0
 40
1.3999999999999979
  0
CIRCLE
  5
5BB
  8
DATA
  6
CONTINUOUS
 62
     7
 10
-32.0
 20
-219.0000000000276
 30
0.0
 40
1.3999999999999979
  0
CIRCLE
  5
5BC
  8
DATA
  6
CONTINUOUS
 62
     7
 10
-38.5
 20
-219.0000000000276
 30
0.0
 40
1.3999999999999979
  0
CIRCLE
  5
5BD
  8
DATA
  6
CONTINUOUS
 62
     7
 10
-45.0
 20
-219.0000000000276
 30
0.0
 40
1.3999999999999979
  0
CIRCLE
  5
5BE
  8
DATA
  6
CONTINUOUS
 62
     7
 10
-51.5
 20
-219.0000000000276
 30
0.0
 40
1.3999999999999979
  0
CIRCLE
  5
5BF
  8
DATA
  6
CONTINUOUS
 62
     7
 10
-19.0
 20
-225.5000000000276
 30
0.0
 40
1.3999999999999979
  0
CIRCLE
  5
5C0
  8
DATA
  6
CONTINUOUS
 62
     7
 10
-25.5
 20
-225.5000000000276
 30
0.0
 40
1.3999999999999979
  0
CIRCLE
  5
5C1
  8
DATA
  6
CONTINUOUS
 62
     7
 10
-32.0
 20
-225.5000000000276
 30
0.0
 40
1.3999999999999979
  0
CIRCLE
  5
5C2
  8
DATA
  6
CONTINUOUS
 62
     7
 10
-38.5
 20
-225.5000000000276
 30
0.0
 40
1.3999999999999979
  0
CIRCLE
  5
5C3
  8
DATA
  6
CONTINUOUS
 62
     7
 10
-45.0
 20
-225.5000000000276
 30
0.0
 40
1.3999999999999979
  0
CIRCLE
  5
5C4
  8
DATA
  6
CONTINUOUS
 62
     7
 10
-51.5
 20
-225.5000000000276
 30
0.0
 40
1.3999999999999979
  0
CIRCLE
  5
5C5
  8
DATA
  6
CONTINUOUS
 62
     7
 10
-19.0
 20
-232.0000000000276
 30
0.0
 40
1.3999999999999979
  0
CIRCLE
  5
5C6
  8
DATA
  6
CONTINUOUS
 62
     7
 10
-25.5
 20
-232.0000000000276
 30
0.0
 40
1.3999999999999979
  0
CIRCLE
  5
5C7
  8
DATA
  6
CONTINUOUS
 62
     7
 10
-32.0
 20
-232.0000000000276
 30
0.0
 40
1.3999999999999979
  0
CIRCLE
  5
5C8
  8
DATA
  6
CONTINUOUS
 62
     7
 10
-38.5
 20
-232.0000000000276
 30
0.0
 40
1.3999999999999979
  0
CIRCLE
  5
5C9
  8
DATA
  6
CONTINUOUS
 62
     7
 10
-45.0
 20
-232.0000000000276
 30
0.0
 40
1.3999999999999979
  0
CIRCLE
  5
5CA
  8
DATA
  6
CONTINUOUS
 62
     7
 10
-51.5
 20
-232.0000000000276
 30
0.0
 40
1.3999999999999979
  0
CIRCLE
  5
5CB
  8
DATA
  6
CONTINUOUS
 62
     7
 10
-19.0
 20
-238.5000000000276
 30
0.0
 40
1.3999999999999979
  0
CIRCLE
  5
5CC
  8
DATA
  6
CONTINUOUS
 62
     7
 10
-25.5
 20
-238.5000000000276
 30
0.0
 40
1.3999999999999979
  0
CIRCLE
  5
5CD
  8
DATA
  6
CONTINUOUS
 62
     7
 10
-32.0
 20
-238.5000000000276
 30
0.0
 40
1.3999999999999979
  0
CIRCLE
  5
5CE
  8
DATA
  6
CONTINUOUS
 62
     7
 10
-38.5
 20
-238.5000000000276
 30
0.0
 40
1.3999999999999979
  0
CIRCLE
  5
5CF
  8
DATA
  6
CONTINUOUS
 62
     7
 10
-45.0
 20
-238.5000000000276
 30
0.0
 40
1.3999999999999979
  0
CIRCLE
  5
5D0
  8
DATA
  6
CONTINUOUS
 62
     7
 10
-51.5
 20
-238.5000000000276
 30
0.0
 40
1.3999999999999979
  0
CIRCLE
  5
5D1
  8
DATA
  6
CONTINUOUS
 62
     7
 10
-19.0
 20
-245.0000000000276
 30
0.0
 40
1.3999999999999979
  0
CIRCLE
  5
5D2
  8
DATA
  6
CONTINUOUS
 62
     7
 10
-25.5
 20
-245.0000000000276
 30
0.0
 40
1.3999999999999979
  0
CIRCLE
  5
5D3
  8
DATA
  6
CONTINUOUS
 62
     7
 10
-32.0
 20
-245.0000000000276
 30
0.0
 40
1.3999999999999979
  0
CIRCLE
  5
5D4
  8
DATA
  6
CONTINUOUS
 62
     7
 10
-38.5
 20
-245.0000000000276
 30
0.0
 40
1.3999999999999979
  0
CIRCLE
  5
5D5
  8
DATA
  6
CONTINUOUS
 62
     7
 10
-45.0
 20
-245.0000000000276
 30
0.0
 40
1.3999999999999979
  0
CIRCLE
  5
5D6
  8
DATA
  6
CONTINUOUS
 62
     7
 10
-51.5
 20
-245.0000000000276
 30
0.0
 40
1.3999999999999979
  0
LINE
  5
5D7
  8
DATA
  6
CONTINUOUS
 62
     7
 10
-336.00118033387042
 20
84.999999951971603
 30
0.0
 11
-336.00118033387042
 21
39.999999951971603
 31
0.0
  0
LINE
  5
5D8
  8
DATA
  6
CONTINUOUS
 62
     7
 10
-333.00118033387042
 20
84.999999951971603
 30
0.0
 11
-333.00118033387042
 21
39.999999951971603
 31
0.0
  0
LINE
  5
5D9
  8
DATA
  6
CONTINUOUS
 62
     7
 10
98.998819666129663
 20
39.999999951971603
 30
0.0
 11
98.998819666129663
 21
84.999999951971603
 31
0.0
  0
LINE
  5
5DA
  8
DATA
  6
CONTINUOUS
 62
     7
 10
95.998819666129648
 20
84.999999951971603
 30
0.0
 11
95.998819666129648
 21
39.999999951971603
 31
0.0
  0
LINE
  5
5DB
  8
DATA
  6
CONTINUOUS
 62
     7
 10
95.998819666129648
 20
42.499999951971603
 30
0.0
 11
-333.00118033387042
 21
42.499999951971603
 31
0.0
  0
LINE
  5
5DC
  8
DATA
  6
CONTINUOUS
 62
     7
 10
-333.00118033387042
 20
82.499999951971603
 30
0.0
 11
95.998819666129648
 21
82.499999951971603
 31
0.0
  0
LINE
  5
5DD
  8
DATA
  6
CONTINUOUS
 62
     7
 10
-336.00118033387042
 20
56.999999951971603
 30
0.0
 11
-333.00118033387042
 21
56.999999951971603
 31
0.0
  0
LINE
  5
5DE
  8
DATA
  6
CONTINUOUS
 62
     7
 10
-336.00118033387042
 20
67.999999951971603
 30
0.0
 11
-333.00118033387042
 21
67.999999951971603
 31
0.0
  0
LINE
  5
5DF
  8
DATA
  6
CONTINUOUS
 62
     7
 10
98.998819666129663
 20
56.999999951971603
 30
0.0
 11
95.998819666129648
 21
56.999999951971603
 31
0.0
  0
LINE
  5
5E0
  8
DATA
  6
CONTINUOUS
 62
     7
 10
95.998819666129648
 20
67.999999951971603
 30
0.0
 11
98.998819666129663
 21
67.999999951971603
 31
0.0
  0
POLYLINE
  5
5E1
  8
DATA
  6
CONTINUOUS
 62
     7
 66
     1
 10
0.0
 20
0.0
 30
0.0
 70
     1
  0
VERTEX
  5
E75
  8
DATA
  6
CONTINUOUS
 62
     7
 10
33.998819666129627
 20
76.096794084377493
 30
0.0
  0
VERTEX
  5
E76
  8
DATA
  6
CONTINUOUS
 62
     7
 10
63.99881966612962
 20
76.096794084377493
 30
0.0
  0
VERTEX
  5
E77
  8
DATA
  6
CONTINUOUS
 62
     7
 10
63.99881966612962
 20
55.0967940843775
 30
0.0
  0
VERTEX
  5
E78
  8
DATA
  6
CONTINUOUS
 62
     7
 10
33.998819666129627
 20
55.0967940843775
 30
0.0
  0
SEQEND
  5
E79
  8
DATA
  6
CONTINUOUS
 62
     7
  0
LINE
  5
5E8
  8
DATA
  6
CONTINUOUS
 62
     7
 10
61.49881966612962
 20
57.896794084377483
 30
0.0
 11
36.498819666129627
 21
57.896794084377483
 31
0.0
  0
LINE
  5
5E9
  8
DATA
  6
CONTINUOUS
 62
     7
 10
61.49881966612962
 20
68.296794084377495
 30
0.0
 11
61.49881966612962
 21
57.896794084377483
 31
0.0
  0
LINE
  5
5EA
  8
DATA
  6
CONTINUOUS
 62
     7
 10
36.498819666129627
 20
68.296794084377495
 30
0.0
 11
36.498819666129627
 21
57.896794084377483
 31
0.0
  0
LINE
  5
5EB
  8
DATA
  6
CONTINUOUS
 62
     7
 10
56.49881966612962
 20
73.296794084377495
 30
0.0
 11
61.49881966612962
 21
68.296794084377495
 31
0.0
  0
LINE
  5
5EC
  8
DATA
  6
CONTINUOUS
 62
     7
 10
41.49881966612962
 20
73.296794084377495
 30
0.0
 11
36.498819666129627
 21
68.296794084377495
 31
0.0
  0
LINE
  5
5ED
  8
DATA
  6
CONTINUOUS
 62
     7
 10
56.49881966612962
 20
73.296794084377495
 30
0.0
 11
41.49881966612962
 21
73.296794084377495
 31
0.0
  0
POLYLINE
  5
5EE
  8
DATA
  6
CONTINUOUS
 62
     7
 66
     1
 10
0.0
 20
0.0
 30
0.0
 70
     1
  0
VERTEX
  5
E7A
  8
DATA
  6
CONTINUOUS
 62
     7
 10
47.99881966612962
 20
69.927446285808344
 30
0.0
  0
VERTEX
  5
E7B
  8
DATA
  6
CONTINUOUS
 62
     7
 10
49.99881966612962
 20
69.927446285808344
 30
0.0
  0
VERTEX
  5
E7C
  8
DATA
  6
CONTINUOUS
 62
     7
 10
49.99881966612962
 20
66.127446285808318
 30
0.0
  0
VERTEX
  5
E7D
  8
DATA
  6
CONTINUOUS
 62
     7
 10
47.99881966612962
 20
66.127446285808318
 30
0.0
  0
SEQEND
  5
E7E
  8
DATA
  6
CONTINUOUS
 62
     7
  0
POLYLINE
  5
5F5
  8
DATA
  6
CONTINUOUS
 62
     7
 66
     1
 10
0.0
 20
0.0
 30
0.0
 70
     1
  0
VERTEX
  5
E7F
  8
DATA
  6
CONTINUOUS
 62
     7
 10
41.198819666129559
 20
65.796794084377495
 30
0.0
  0
VERTEX
  5
E80
  8
DATA
  6
CONTINUOUS
 62
     7
 10
43.198819666129559
 20
65.796794084377495
 30
0.0
  0
VERTEX
  5
E81
  8
DATA
  6
CONTINUOUS
 62
     7
 10
43.198819666129559
 20
61.996794084377491
 30
0.0
  0
VERTEX
  5
E82
  8
DATA
  6
CONTINUOUS
 62
     7
 10
41.198819666129559
 20
61.996794084377491
 30
0.0
  0
SEQEND
  5
E83
  8
DATA
  6
CONTINUOUS
 62
     7
  0
POLYLINE
  5
5FC
  8
DATA
  6
CONTINUOUS
 62
     7
 66
     1
 10
0.0
 20
0.0
 30
0.0
 70
     1
  0
VERTEX
  5
E84
  8
DATA
  6
CONTINUOUS
 62
     7
 10
54.798819666129582
 20
65.796794084377495
 30
0.0
  0
VERTEX
  5
E85
  8
DATA
  6
CONTINUOUS
 62
     7
 10
56.798819666129582
 20
65.796794084377495
 30
0.0
  0
VERTEX
  5
E86
  8
DATA
  6
CONTINUOUS
 62
     7
 10
56.798819666129582
 20
61.996794084377491
 30
0.0
  0
VERTEX
  5
E87
  8
DATA
  6
CONTINUOUS
 62
     7
 10
54.798819666129582
 20
61.996794084377491
 30
0.0
  0
SEQEND
  5
E88
  8
DATA
  6
CONTINUOUS
 62
     7
  0
CIRCLE
  5
603
  8
DATA
  6
CONTINUOUS
 62
     7
 10
70.046879785570539
 20
65.746794084377484
 30
0.0
 40
2.6499999999999768
  0
POLYLINE
  5
604
  8
DATA
  6
CONTINUOUS
 62
     7
 66
     1
 10
0.0
 20
0.0
 30
0.0
  0
VERTEX
  5
E89
  8
DATA
  6
CONTINUOUS
 62
     7
 10
69.646879785570547
 20
65.996794084377484
 30
0.0
  0
VERTEX
  5
E8A
  8
DATA
  6
CONTINUOUS
 62
     7
 10
69.646879785570547
 20
67.546794084377495
 30
0.0
  0
VERTEX
  5
E8B
  8
DATA
  6
CONTINUOUS
 62
     7
 10
70.446879785570502
 20
67.546794084377495
 30
0.0
  0
VERTEX
  5
E8C
  8
DATA
  6
CONTINUOUS
 62
     7
 10
70.446879785570502
 20
65.996794084377484
 30
0.0
  0
SEQEND
  5
E8D
  8
DATA
  6
CONTINUOUS
 62
     7
  0
POLYLINE
  5
60B
  8
DATA
  6
CONTINUOUS
 62
     7
 66
     1
 10
0.0
 20
0.0
 30
0.0
  0
VERTEX
  5
E8E
  8
DATA
  6
CONTINUOUS
 62
     7
 10
69.646879785570547
 20
65.496794084377484
 30
0.0
  0
VERTEX
  5
E8F
  8
DATA
  6
CONTINUOUS
 62
     7
 10
69.646879785570547
 20
63.94679408437748
 30
0.0
  0
VERTEX
  5
E90
  8
DATA
  6
CONTINUOUS
 62
     7
 10
70.446879785570502
 20
63.94679408437748
 30
0.0
  0
VERTEX
  5
E91
  8
DATA
  6
CONTINUOUS
 62
     7
 10
70.446879785570502
 20
65.496794084377484
 30
0.0
  0
SEQEND
  5
E92
  8
DATA
  6
CONTINUOUS
 62
     7
  0
POLYLINE
  5
612
  8
DATA
  6
CONTINUOUS
 62
     7
 66
     1
 10
0.0
 20
0.0
 30
0.0
  0
VERTEX
  5
E93
  8
DATA
  6
CONTINUOUS
 62
     7
 10
70.446879785570502
 20
65.496794084377484
 30
0.0
  0
VERTEX
  5
E94
  8
DATA
  6
CONTINUOUS
 62
     7
 10
71.84687978557055
 20
65.496794084377484
 30
0.0
  0
VERTEX
  5
E95
  8
DATA
  6
CONTINUOUS
 62
     7
 10
71.84687978557055
 20
65.996794084377484
 30
0.0
  0
VERTEX
  5
E96
  8
DATA
  6
CONTINUOUS
 62
     7
 10
70.446879785570502
 20
65.996794084377484
 30
0.0
  0
SEQEND
  5
E97
  8
DATA
  6
CONTINUOUS
 62
     7
  0
POLYLINE
  5
619
  8
DATA
  6
CONTINUOUS
 62
     7
 66
     1
 10
0.0
 20
0.0
 30
0.0
  0
VERTEX
  5
E98
  8
DATA
  6
CONTINUOUS
 62
     7
 10
69.646879785570547
 20
65.996794084377484
 30
0.0
  0
VERTEX
  5
E99
  8
DATA
  6
CONTINUOUS
 62
     7
 10
68.246879785570513
 20
65.996794084377484
 30
0.0
  0
VERTEX
  5
E9A
  8
DATA
  6
CONTINUOUS
 62
     7
 10
68.246879785570513
 20
65.496794084377484
 30
0.0
  0
VERTEX
  5
E9B
  8
DATA
  6
CONTINUOUS
 62
     7
 10
69.646879785570547
 20
65.496794084377484
 30
0.0
  0
SEQEND
  5
E9C
  8
DATA
  6
CONTINUOUS
 62
     7
  0
CIRCLE
  5
620
  8
DATA
  6
CONTINUOUS
 62
     7
 10
-9.339149021128863
 20
53.998167884433578
 30
0.0
 40
2.0006999999999939
  0
POLYLINE
  5
621
  8
DATA
  6
CONTINUOUS
 62
     7
 66
     1
 10
0.0
 20
0.0
 30
0.0
  0
VERTEX
  5
E9D
  8
DATA
  6
CONTINUOUS
 62
     7
 10
-9.1467740211288646
 20
53.805792884433572
 30
0.0
  0
VERTEX
  5
E9E
  8
DATA
  6
CONTINUOUS
 62
     7
 10
-9.1467740211288646
 20
52.45916788443359
 30
0.0
  0
VERTEX
  5
E9F
  8
DATA
  6
CONTINUOUS
 62
     7
 10
-9.5315240211288614
 20
52.45916788443359
 30
0.0
  0
VERTEX
  5
EA0
  8
DATA
  6
CONTINUOUS
 62
     7
 10
-9.5315240211288614
 20
53.805792884433572
 30
0.0
  0
SEQEND
  5
EA1
  8
DATA
  6
CONTINUOUS
 62
     7
  0
POLYLINE
  5
628
  8
DATA
  6
CONTINUOUS
 62
     7
 66
     1
 10
0.0
 20
0.0
 30
0.0
  0
VERTEX
  5
EA2
  8
DATA
  6
CONTINUOUS
 62
     7
 10
-9.1467740211288646
 20
54.190542884433583
 30
0.0
  0
VERTEX
  5
EA3
  8
DATA
  6
CONTINUOUS
 62
     7
 10
-9.1467740211288646
 20
55.5371678844336
 30
0.0
  0
VERTEX
  5
EA4
  8
DATA
  6
CONTINUOUS
 62
     7
 10
-9.5315240211288614
 20
55.5371678844336
 30
0.0
  0
VERTEX
  5
EA5
  8
DATA
  6
CONTINUOUS
 62
     7
 10
-9.5315240211288614
 20
54.190542884433583
 30
0.0
  0
SEQEND
  5
EA6
  8
DATA
  6
CONTINUOUS
 62
     7
  0
POLYLINE
  5
62F
  8
DATA
  6
CONTINUOUS
 62
     7
 66
     1
 10
0.0
 20
0.0
 30
0.0
  0
VERTEX
  5
EA7
  8
DATA
  6
CONTINUOUS
 62
     7
 10
-9.5315240211288614
 20
53.805792884433572
 30
0.0
  0
VERTEX
  5
EA8
  8
DATA
  6
CONTINUOUS
 62
     7
 10
-10.87814902112888
 20
53.805792884433572
 30
0.0
  0
VERTEX
  5
EA9
  8
DATA
  6
CONTINUOUS
 62
     7
 10
-10.87814902112888
 20
54.190542884433583
 30
0.0
  0
VERTEX
  5
EAA
  8
DATA
  6
CONTINUOUS
 62
     7
 10
-9.5315240211288614
 20
54.190542884433583
 30
0.0
  0
SEQEND
  5
EAB
  8
DATA
  6
CONTINUOUS
 62
     7
  0
POLYLINE
  5
636
  8
DATA
  6
CONTINUOUS
 62
     7
 66
     1
 10
0.0
 20
0.0
 30
0.0
  0
VERTEX
  5
EAC
  8
DATA
  6
CONTINUOUS
 62
     7
 10
-9.1467740211288646
 20
53.805792884433572
 30
0.0
  0
VERTEX
  5
EAD
  8
DATA
  6
CONTINUOUS
 62
     7
 10
-7.8001490211288456
 20
53.805792884433572
 30
0.0
  0
VERTEX
  5
EAE
  8
DATA
  6
CONTINUOUS
 62
     7
 10
-7.8001490211288456
 20
54.190542884433583
 30
0.0
  0
VERTEX
  5
EAF
  8
DATA
  6
CONTINUOUS
 62
     7
 10
-9.1467740211288646
 20
54.190542884433583
 30
0.0
  0
SEQEND
  5
EB0
  8
DATA
  6
CONTINUOUS
 62
     7
  0
CIRCLE
  5
63D
  8
DATA
  6
CONTINUOUS
 62
     7
 10
-22.707695134530891
 20
53.998167884433578
 30
0.0
 40
2.0006999999999939
  0
POLYLINE
  5
63E
  8
DATA
  6
CONTINUOUS
 62
     7
 66
     1
 10
0.0
 20
0.0
 30
0.0
  0
VERTEX
  5
EB1
  8
DATA
  6
CONTINUOUS
 62
     7
 10
-22.900070134530889
 20
53.805792884433572
 30
0.0
  0
VERTEX
  5
EB2
  8
DATA
  6
CONTINUOUS
 62
     7
 10
-22.900070134530889
 20
52.45916788443359
 30
0.0
  0
VERTEX
  5
EB3
  8
DATA
  6
CONTINUOUS
 62
     7
 10
-22.515320134530889
 20
52.45916788443359
 30
0.0
  0
VERTEX
  5
EB4
  8
DATA
  6
CONTINUOUS
 62
     7
 10
-22.515320134530889
 20
53.805792884433572
 30
0.0
  0
SEQEND
  5
EB5
  8
DATA
  6
CONTINUOUS
 62
     7
  0
POLYLINE
  5
645
  8
DATA
  6
CONTINUOUS
 62
     7
 66
     1
 10
0.0
 20
0.0
 30
0.0
  0
VERTEX
  5
EB6
  8
DATA
  6
CONTINUOUS
 62
     7
 10
-22.900070134530889
 20
54.190542884433583
 30
0.0
  0
VERTEX
  5
EB7
  8
DATA
  6
CONTINUOUS
 62
     7
 10
-22.900070134530889
 20
55.5371678844336
 30
0.0
  0
VERTEX
  5
EB8
  8
DATA
  6
CONTINUOUS
 62
     7
 10
-22.515320134530889
 20
55.5371678844336
 30
0.0
  0
VERTEX
  5
EB9
  8
DATA
  6
CONTINUOUS
 62
     7
 10
-22.515320134530889
 20
54.190542884433583
 30
0.0
  0
SEQEND
  5
EBA
  8
DATA
  6
CONTINUOUS
 62
     7
  0
POLYLINE
  5
64C
  8
DATA
  6
CONTINUOUS
 62
     7
 66
     1
 10
0.0
 20
0.0
 30
0.0
  0
VERTEX
  5
EBB
  8
DATA
  6
CONTINUOUS
 62
     7
 10
-22.515320134530889
 20
53.805792884433572
 30
0.0
  0
VERTEX
  5
EBC
  8
DATA
  6
CONTINUOUS
 62
     7
 10
-21.168695134530878
 20
53.805792884433572
 30
0.0
  0
VERTEX
  5
EBD
  8
DATA
  6
CONTINUOUS
 62
     7
 10
-21.168695134530878
 20
54.190542884433583
 30
0.0
  0
VERTEX
  5
EBE
  8
DATA
  6
CONTINUOUS
 62
     7
 10
-22.515320134530889
 20
54.190542884433583
 30
0.0
  0
SEQEND
  5
EBF
  8
DATA
  6
CONTINUOUS
 62
     7
  0
POLYLINE
  5
653
  8
DATA
  6
CONTINUOUS
 62
     7
 66
     1
 10
0.0
 20
0.0
 30
0.0
  0
VERTEX
  5
EC0
  8
DATA
  6
CONTINUOUS
 62
     7
 10
-22.900070134530889
 20
53.805792884433572
 30
0.0
  0
VERTEX
  5
EC1
  8
DATA
  6
CONTINUOUS
 62
     7
 10
-24.24669513453091
 20
53.805792884433572
 30
0.0
  0
VERTEX
  5
EC2
  8
DATA
  6
CONTINUOUS
 62
     7
 10
-24.24669513453091
 20
54.190542884433583
 30
0.0
  0
VERTEX
  5
EC3
  8
DATA
  6
CONTINUOUS
 62
     7
 10
-22.900070134530889
 20
54.190542884433583
 30
0.0
  0
SEQEND
  5
EC4
  8
DATA
  6
CONTINUOUS
 62
     7
  0
CIRCLE
  5
65A
  8
DATA
  6
CONTINUOUS
 62
     7
 10
-38.125137273782983
 20
62.108458216956521
 30
0.0
 40
8.2500000000000071
  0
CIRCLE
  5
65B
  8
DATA
  6
CONTINUOUS
 62
     7
 10
-38.128540737463631
 20
61.972932356068974
 30
0.0
 40
6.9000000000000092
  0
CIRCLE
  5
65C
  8
DATA
  6
CONTINUOUS
 62
     7
 10
-40.71562396333789
 20
61.928394593890623
 30
0.0
 40
0.5519621081381703
  0
CIRCLE
  5
65D
  8
DATA
  6
CONTINUOUS
 62
     7
 10
-39.696840703934363
 20
60.175212272242042
 30
0.0
 40
0.5522307728991206
  0
CIRCLE
  5
65E
  8
DATA
  6
CONTINUOUS
 62
     7
 10
-37.877578409922712
 20
59.189358539726342
 30
0.0
 40
0.5505590016105373
  0
CIRCLE
  5
65F
  8
DATA
  6
CONTINUOUS
 62
     7
 10
-36.01867765354087
 20
60.179561911894737
 30
0.0
 40
0.5526399569132444
  0
CIRCLE
  5
660
  8
DATA
  6
CONTINUOUS
 62
     7
 10
-34.972354070789692
 20
61.916104278752471
 30
0.0
 40
0.5441980039814436
  0
POLYLINE
  5
661
  8
DATA
  6
CONTINUOUS
 62
     7
 66
     1
 10
0.0
 20
0.0
 30
0.0
  0
VERTEX
  5
EC5
  8
DATA
  6
CONTINUOUS
 62
     7
 10
-37.547617468417442
 20
59.630086337052767
 30
0.0
  0
VERTEX
  5
EC6
  8
DATA
  6
CONTINUOUS
 62
     7
 10
-37.547617468417442
 20
60.509455609846832
 30
0.0
  0
VERTEX
  5
EC7
  8
DATA
  6
CONTINUOUS
 62
     7
 10
-38.229595813659621
 20
60.509455609846832
 30
0.0
  0
VERTEX
  5
EC8
  8
DATA
  6
CONTINUOUS
 62
     7
 10
-38.229595813659621
 20
59.612677523143887
 30
0.0
  0
SEQEND
  5
EC9
  8
DATA
  6
CONTINUOUS
 62
     7
  0
POLYLINE
  5
668
  8
DATA
  6
CONTINUOUS
 62
     7
 66
     1
 10
0.0
 20
0.0
 30
0.0
  0
VERTEX
  5
ECA
  8
DATA
  6
CONTINUOUS
 62
     7
 10
-37.547617468417442
 20
58.748630742399961
 30
0.0
  0
VERTEX
  5
ECB
  8
DATA
  6
CONTINUOUS
 62
     7
 10
-37.547617468417442
 20
57.891500233788733
 30
0.0
  0
VERTEX
  5
ECC
  8
DATA
  6
CONTINUOUS
 62
     7
 10
-38.229595813659621
 20
57.891500233788733
 30
0.0
  0
VERTEX
  5
ECD
  8
DATA
  6
CONTINUOUS
 62
     7
 10
-38.229595813659621
 20
58.766039556308797
 30
0.0
  0
SEQEND
  5
ECE
  8
DATA
  6
CONTINUOUS
 62
     7
  0
POLYLINE
  5
66F
  8
DATA
  6
CONTINUOUS
 62
     7
 66
     1
 10
0.0
 20
0.0
 30
0.0
  0
VERTEX
  5
ECF
  8
DATA
  6
CONTINUOUS
 62
     7
 10
-36.073643560346007
 20
60.72946160373936
 30
0.0
  0
VERTEX
  5
ED0
  8
DATA
  6
CONTINUOUS
 62
     7
 10
-36.68958695791936
 20
61.345405001312542
 30
0.0
  0
VERTEX
  5
ED1
  8
DATA
  6
CONTINUOUS
 62
     7
 10
-37.173581215623479
 20
60.86141074360841
 30
0.0
  0
VERTEX
  5
ED2
  8
DATA
  6
CONTINUOUS
 62
     7
 10
-36.566268141732877
 20
60.254097669718028
 30
0.0
  0
SEQEND
  5
ED3
  8
DATA
  6
CONTINUOUS
 62
     7
  0
POLYLINE
  5
676
  8
DATA
  6
CONTINUOUS
 62
     7
 66
     1
 10
0.0
 20
0.0
 30
0.0
  0
VERTEX
  5
ED4
  8
DATA
  6
CONTINUOUS
 62
     7
 10
-35.46877796173915
 20
60.124596005132723
 30
0.0
  0
VERTEX
  5
ED5
  8
DATA
  6
CONTINUOUS
 62
     7
 10
-34.841636009731481
 20
59.497454053125232
 30
0.0
  0
VERTEX
  5
ED6
  8
DATA
  6
CONTINUOUS
 62
     7
 10
-35.325630267435614
 20
59.013459795421113
 30
0.0
  0
VERTEX
  5
ED7
  8
DATA
  6
CONTINUOUS
 62
     7
 10
-35.944141895731299
 20
59.6319714237166
 30
0.0
  0
SEQEND
  5
ED8
  8
DATA
  6
CONTINUOUS
 62
     7
  0
POLYLINE
  5
67D
  8
DATA
  6
CONTINUOUS
 62
     7
 66
     1
 10
0.0
 20
0.0
 30
0.0
  0
VERTEX
  5
ED9
  8
DATA
  6
CONTINUOUS
 62
     7
 10
-39.751384833857692
 20
59.625681777678167
 30
0.0
  0
VERTEX
  5
EDA
  8
DATA
  6
CONTINUOUS
 62
     7
 10
-40.363631530388318
 20
59.013459795421113
 30
0.0
  0
VERTEX
  5
EDB
  8
DATA
  6
CONTINUOUS
 62
     7
 10
-40.847625788092408
 20
59.497454053125232
 30
0.0
  0
VERTEX
  5
EDC
  8
DATA
  6
CONTINUOUS
 62
     7
 10
-40.244061396670681
 20
60.100994080747931
 30
0.0
  0
SEQEND
  5
EDD
  8
DATA
  6
CONTINUOUS
 62
     7
  0
POLYLINE
  5
684
  8
DATA
  6
CONTINUOUS
 62
     7
 66
     1
 10
0.0
 20
0.0
 30
0.0
  0
VERTEX
  5
EDE
  8
DATA
  6
CONTINUOUS
 62
     7
 10
-39.147308008016701
 20
60.229734219034967
 30
0.0
  0
VERTEX
  5
EDF
  8
DATA
  6
CONTINUOUS
 62
     7
 10
-38.515605983825658
 20
60.86141074360841
 30
0.0
  0
VERTEX
  5
EE0
  8
DATA
  6
CONTINUOUS
 62
     7
 10
-38.999600241529762
 20
61.345405001312542
 30
0.0
  0
VERTEX
  5
EE1
  8
DATA
  6
CONTINUOUS
 62
     7
 10
-39.622600422655303
 20
60.722429968541363
 30
0.0
  0
SEQEND
  5
EE2
  8
DATA
  6
CONTINUOUS
 62
     7
  0
POLYLINE
  5
68B
  8
DATA
  6
CONTINUOUS
 62
     7
 66
     1
 10
0.0
 20
0.0
 30
0.0
  0
VERTEX
  5
EE3
  8
DATA
  6
CONTINUOUS
 62
     7
 10
-35.036301136550946
 20
62.456532109555091
 30
0.0
  0
VERTEX
  5
EE4
  8
DATA
  6
CONTINUOUS
 62
     7
 10
-35.677585401197781
 20
63.105479063622717
 30
0.0
  0
VERTEX
  5
EE5
  8
DATA
  6
CONTINUOUS
 62
     7
 10
-36.161579658901282
 20
62.621484805918612
 30
0.0
  0
VERTEX
  5
EE6
  8
DATA
  6
CONTINUOUS
 62
     7
 10
-35.512758638102078
 20
61.980247642744722
 30
0.0
  0
SEQEND
  5
EE7
  8
DATA
  6
CONTINUOUS
 62
     7
  0
POLYLINE
  5
692
  8
DATA
  6
CONTINUOUS
 62
     7
 66
     1
 10
0.0
 20
0.0
 30
0.0
  0
VERTEX
  5
EE8
  8
DATA
  6
CONTINUOUS
 62
     7
 10
-34.432723899401431
 20
61.845742743300399
 30
0.0
  0
VERTEX
  5
EE9
  8
DATA
  6
CONTINUOUS
 62
     7
 10
-33.829634453009859
 20
61.23544699640302
 30
0.0
  0
VERTEX
  5
EEA
  8
DATA
  6
CONTINUOUS
 62
     7
 10
-34.291622190056401
 20
60.773384660980462
 30
0.0
  0
VERTEX
  5
EEB
  8
DATA
  6
CONTINUOUS
 62
     7
 10
-34.901861613225073
 20
61.376491194254541
 30
0.0
  0
SEQEND
  5
EEC
  8
DATA
  6
CONTINUOUS
 62
     7
  0
POLYLINE
  5
699
  8
DATA
  6
CONTINUOUS
 62
     7
 66
     1
 10
0.0
 20
0.0
 30
0.0
  0
VERTEX
  5
EED
  8
DATA
  6
CONTINUOUS
 62
     7
 10
-40.789632229752883
 20
61.381416582142087
 30
0.0
  0
VERTEX
  5
EEE
  8
DATA
  6
CONTINUOUS
 62
     7
 10
-41.397639607767474
 20
60.773384660980462
 30
0.0
  0
VERTEX
  5
EEF
  8
DATA
  6
CONTINUOUS
 62
     7
 10
-41.881633865471613
 20
61.23544699640302
 30
0.0
  0
VERTEX
  5
EF0
  8
DATA
  6
CONTINUOUS
 62
     7
 10
-41.26345465029209
 20
61.860987567432559
 30
0.0
  0
SEQEND
  5
EF1
  8
DATA
  6
CONTINUOUS
 62
     7
  0
POLYLINE
  5
6A0
  8
DATA
  6
CONTINUOUS
 62
     7
 66
     1
 10
0.0
 20
0.0
 30
0.0
  0
VERTEX
  5
EF2
  8
DATA
  6
CONTINUOUS
 62
     7
 10
-40.168648939431492
 20
62.002424939403042
 30
0.0
  0
VERTEX
  5
EF3
  8
DATA
  6
CONTINUOUS
 62
     7
 10
-39.549614061204842
 20
62.621484805918612
 30
0.0
  0
VERTEX
  5
EF4
  8
DATA
  6
CONTINUOUS
 62
     7
 10
-40.033608318908321
 20
63.105479063622717
 30
0.0
  0
VERTEX
  5
EF5
  8
DATA
  6
CONTINUOUS
 62
     7
 10
-40.654706456858783
 20
62.476984810922751
 30
0.0
  0
SEQEND
  5
EF6
  8
DATA
  6
CONTINUOUS
 62
     7
  0
POLYLINE
  5
6A7
  8
DATA
  6
CONTINUOUS
 62
     7
 66
     1
 10
0.0
 20
0.0
 30
0.0
  0
VERTEX
  5
EF7
  8
DATA
  6
CONTINUOUS
 62
     7
 10
-36.697673019324213
 20
67.518142229023965
 30
0.0
  0
VERTEX
  5
EF8
  8
DATA
  6
CONTINUOUS
 62
     7
 10
-36.697673019324213
 20
65.856868352217916
 30
0.0
  0
VERTEX
  5
EF9
  8
DATA
  6
CONTINUOUS
 62
     7
 10
-39.097673019324219
 20
65.856868352217916
 30
0.0
  0
VERTEX
  5
EFA
  8
DATA
  6
CONTINUOUS
 62
     7
 10
-39.097673019324219
 20
67.518142229023965
 30
0.0
  0
SEQEND
  5
EFB
  8
DATA
  6
CONTINUOUS
 62
     7
  0
ARC
  5
6AE
  8
DATA
  6
CONTINUOUS
 62
     7
 10
-37.897673019324209
 20
62.397422965657761
 30
0.0
 40
5.2594453865602091
 50
103.18882270300421
 51
76.811177296996092
  0
CIRCLE
  5
6AF
  8
DATA
  6
CONTINUOUS
 62
     7
 10
-31.19885057184684
 20
53.998167884433578
 30
0.0
 40
2.0006999999999939
  0
POLYLINE
  5
6B0
  8
DATA
  6
CONTINUOUS
 62
     7
 66
     1
 10
0.0
 20
0.0
 30
0.0
  0
VERTEX
  5
EFC
  8
DATA
  6
CONTINUOUS
 62
     7
 10
-31.006475571846838
 20
53.805792884433572
 30
0.0
  0
VERTEX
  5
EFD
  8
DATA
  6
CONTINUOUS
 62
     7
 10
-31.006475571846838
 20
52.45916788443359
 30
0.0
  0
VERTEX
  5
EFE
  8
DATA
  6
CONTINUOUS
 62
     7
 10
-31.391225571846832
 20
52.45916788443359
 30
0.0
  0
VERTEX
  5
EFF
  8
DATA
  6
CONTINUOUS
 62
     7
 10
-31.391225571846832
 20
53.805792884433572
 30
0.0
  0
SEQEND
  5
F00
  8
DATA
  6
CONTINUOUS
 62
     7
  0
POLYLINE
  5
6B7
  8
DATA
  6
CONTINUOUS
 62
     7
 66
     1
 10
0.0
 20
0.0
 30
0.0
  0
VERTEX
  5
F01
  8
DATA
  6
CONTINUOUS
 62
     7
 10
-31.006475571846838
 20
54.190542884433583
 30
0.0
  0
VERTEX
  5
F02
  8
DATA
  6
CONTINUOUS
 62
     7
 10
-31.006475571846838
 20
55.5371678844336
 30
0.0
  0
VERTEX
  5
F03
  8
DATA
  6
CONTINUOUS
 62
     7
 10
-31.391225571846832
 20
55.5371678844336
 30
0.0
  0
VERTEX
  5
F04
  8
DATA
  6
CONTINUOUS
 62
     7
 10
-31.391225571846832
 20
54.190542884433583
 30
0.0
  0
SEQEND
  5
F05
  8
DATA
  6
CONTINUOUS
 62
     7
  0
POLYLINE
  5
6BE
  8
DATA
  6
CONTINUOUS
 62
     7
 66
     1
 10
0.0
 20
0.0
 30
0.0
  0
VERTEX
  5
F06
  8
DATA
  6
CONTINUOUS
 62
     7
 10
-31.391225571846832
 20
53.805792884433572
 30
0.0
  0
VERTEX
  5
F07
  8
DATA
  6
CONTINUOUS
 62
     7
 10
-32.737850571846863
 20
53.805792884433572
 30
0.0
  0
VERTEX
  5
F08
  8
DATA
  6
CONTINUOUS
 62
     7
 10
-32.737850571846863
 20
54.190542884433583
 30
0.0
  0
VERTEX
  5
F09
  8
DATA
  6
CONTINUOUS
 62
     7
 10
-31.391225571846832
 20
54.190542884433583
 30
0.0
  0
SEQEND
  5
F0A
  8
DATA
  6
CONTINUOUS
 62
     7
  0
POLYLINE
  5
6C5
  8
DATA
  6
CONTINUOUS
 62
     7
 66
     1
 10
0.0
 20
0.0
 30
0.0
  0
VERTEX
  5
F0B
  8
DATA
  6
CONTINUOUS
 62
     7
 10
-31.006475571846838
 20
53.805792884433572
 30
0.0
  0
VERTEX
  5
F0C
  8
DATA
  6
CONTINUOUS
 62
     7
 10
-29.659850571846821
 20
53.805792884433572
 30
0.0
  0
VERTEX
  5
F0D
  8
DATA
  6
CONTINUOUS
 62
     7
 10
-29.659850571846821
 20
54.190542884433583
 30
0.0
  0
VERTEX
  5
F0E
  8
DATA
  6
CONTINUOUS
 62
     7
 10
-31.006475571846838
 20
54.190542884433583
 30
0.0
  0
SEQEND
  5
F0F
  8
DATA
  6
CONTINUOUS
 62
     7
  0
CIRCLE
  5
6CC
  8
DATA
  6
CONTINUOUS
 62
     7
 10
-44.567396685248873
 20
53.998167884433578
 30
0.0
 40
2.0006999999999939
  0
POLYLINE
  5
6CD
  8
DATA
  6
CONTINUOUS
 62
     7
 66
     1
 10
0.0
 20
0.0
 30
0.0
  0
VERTEX
  5
F10
  8
DATA
  6
CONTINUOUS
 62
     7
 10
-44.759771685248872
 20
53.805792884433572
 30
0.0
  0
VERTEX
  5
F11
  8
DATA
  6
CONTINUOUS
 62
     7
 10
-44.759771685248872
 20
52.45916788443359
 30
0.0
  0
VERTEX
  5
F12
  8
DATA
  6
CONTINUOUS
 62
     7
 10
-44.375021685248882
 20
52.45916788443359
 30
0.0
  0
VERTEX
  5
F13
  8
DATA
  6
CONTINUOUS
 62
     7
 10
-44.375021685248882
 20
53.805792884433572
 30
0.0
  0
SEQEND
  5
F14
  8
DATA
  6
CONTINUOUS
 62
     7
  0
POLYLINE
  5
6D4
  8
DATA
  6
CONTINUOUS
 62
     7
 66
     1
 10
0.0
 20
0.0
 30
0.0
  0
VERTEX
  5
F15
  8
DATA
  6
CONTINUOUS
 62
     7
 10
-44.759771685248872
 20
54.190542884433583
 30
0.0
  0
VERTEX
  5
F16
  8
DATA
  6
CONTINUOUS
 62
     7
 10
-44.759771685248872
 20
55.5371678844336
 30
0.0
  0
VERTEX
  5
F17
  8
DATA
  6
CONTINUOUS
 62
     7
 10
-44.375021685248882
 20
55.5371678844336
 30
0.0
  0
VERTEX
  5
F18
  8
DATA
  6
CONTINUOUS
 62
     7
 10
-44.375021685248882
 20
54.190542884433583
 30
0.0
  0
SEQEND
  5
F19
  8
DATA
  6
CONTINUOUS
 62
     7
  0
POLYLINE
  5
6DB
  8
DATA
  6
CONTINUOUS
 62
     7
 66
     1
 10
0.0
 20
0.0
 30
0.0
  0
VERTEX
  5
F1A
  8
DATA
  6
CONTINUOUS
 62
     7
 10
-44.375021685248882
 20
53.805792884433572
 30
0.0
  0
VERTEX
  5
F1B
  8
DATA
  6
CONTINUOUS
 62
     7
 10
-43.028396685248843
 20
53.805792884433572
 30
0.0
  0
VERTEX
  5
F1C
  8
DATA
  6
CONTINUOUS
 62
     7
 10
-43.028396685248843
 20
54.190542884433583
 30
0.0
  0
VERTEX
  5
F1D
  8
DATA
  6
CONTINUOUS
 62
     7
 10
-44.375021685248882
 20
54.190542884433583
 30
0.0
  0
SEQEND
  5
F1E
  8
DATA
  6
CONTINUOUS
 62
     7
  0
POLYLINE
  5
6E2
  8
DATA
  6
CONTINUOUS
 62
     7
 66
     1
 10
0.0
 20
0.0
 30
0.0
  0
VERTEX
  5
F1F
  8
DATA
  6
CONTINUOUS
 62
     7
 10
-44.759771685248872
 20
53.805792884433572
 30
0.0
  0
VERTEX
  5
F20
  8
DATA
  6
CONTINUOUS
 62
     7
 10
-46.106396685248882
 20
53.805792884433572
 30
0.0
  0
VERTEX
  5
F21
  8
DATA
  6
CONTINUOUS
 62
     7
 10
-46.106396685248882
 20
54.190542884433583
 30
0.0
  0
VERTEX
  5
F22
  8
DATA
  6
CONTINUOUS
 62
     7
 10
-44.759771685248872
 20
54.190542884433583
 30
0.0
  0
SEQEND
  5
F23
  8
DATA
  6
CONTINUOUS
 62
     7
  0
TEXT
  5
6E9
  8
DATA
 62
     7
 10
-22.877592207042909
 20
46.890525350086847
 30
0.0
 40
3.078125
  1
MIDI
 50
180.0
 41
0.7
 11
-22.877592207042909
 21
43.812400350086847
 31
0.0
 73
     3
  0
LINE
  5
6EA
  8
DATA
  6
CONTINUOUS
 62
     7
 10
-15.841478783152381
 20
46.650525350086852
 30
0.0
 11
-15.841478783152381
 21
45.280073817598577
 31
0.0
  0
LINE
  5
6EB
  8
DATA
  6
CONTINUOUS
 62
     7
 10
-37.301180333870363
 20
46.550525350086843
 30
0.0
 11
-37.301180333870363
 21
45.280073817598577
 31
0.0
  0
LINE
  5
6EC
  8
DATA
  6
CONTINUOUS
 62
     7
 10
-15.841478783152381
 20
45.280073817598577
 30
0.0
 11
-21.84147878315239
 21
45.280073817598577
 31
0.0
  0
LINE
  5
6ED
  8
DATA
  6
CONTINUOUS
 62
     7
 10
-37.301180333870363
 20
45.280073817598577
 30
0.0
 11
-31.701180333870361
 21
45.280073817598577
 31
0.0
  0
CIRCLE
  5
6EE
  8
DATA
  6
CONTINUOUS
 62
     7
 10
-306.17367309489191
 20
64.238627968010661
 30
0.0
 40
10.95000000000004
  0
ARC
  5
6EF
  8
DATA
  6
CONTINUOUS
 62
     7
 10
-306.17367309489191
 20
64.238627968010661
 30
0.0
 40
9.800000000000054
 50
120.67742447255669
 51
59.322575527443959
  0
CIRCLE
  5
6F0
  8
DATA
  6
CONTINUOUS
 62
     7
 10
-306.17367309489191
 20
64.238627968010661
 30
0.0
 40
7.8000000000000673
  0
CIRCLE
  5
6F1
  8
DATA
  6
CONTINUOUS
 62
     7
 10
-306.17367309489191
 20
60.049287304127901
 30
0.0
 40
1.25
  0
CIRCLE
  5
6F2
  8
DATA
  6
CONTINUOUS
 62
     7
 10
-301.92367309489202
 20
64.238627968010661
 30
0.0
 40
1.2499999999999429
  0
CIRCLE
  5
6F3
  8
DATA
  6
CONTINUOUS
 62
     7
 10
-310.42367309489191
 20
64.238627968010661
 30
0.0
 40
1.25
  0
LINE
  5
6F4
  8
DATA
  6
CONTINUOUS
 62
     7
 10
-301.17367309489202
 20
72.667150970292894
 30
0.0
 11
-301.17367309489202
 21
73.980419384377626
 31
0.0
  0
LINE
  5
6F5
  8
DATA
  6
CONTINUOUS
 62
     7
 10
-311.17367309489202
 20
73.980419384377598
 30
0.0
 11
-311.17367309489202
 21
72.66715097029288
 31
0.0
  0
CIRCLE
  5
6F6
  8
DATA
  6
CONTINUOUS
 62
     7
 10
-296.6359167990928
 20
54.633564635236731
 30
0.0
 40
2.0006999999999939
  0
POLYLINE
  5
6F7
  8
DATA
  6
CONTINUOUS
 62
     7
 66
     1
 10
0.0
 20
0.0
 30
0.0
  0
VERTEX
  5
F24
  8
DATA
  6
CONTINUOUS
 62
     7
 10
-296.44354179909288
 20
54.441189635236739
 30
0.0
  0
VERTEX
  5
F25
  8
DATA
  6
CONTINUOUS
 62
     7
 10
-296.44354179909288
 20
53.094564635236758
 30
0.0
  0
VERTEX
  5
F26
  8
DATA
  6
CONTINUOUS
 62
     7
 10
-296.82829179909288
 20
53.094564635236758
 30
0.0
  0
VERTEX
  5
F27
  8
DATA
  6
CONTINUOUS
 62
     7
 10
-296.82829179909288
 20
54.441189635236739
 30
0.0
  0
SEQEND
  5
F28
  8
DATA
  6
CONTINUOUS
 62
     7
  0
POLYLINE
  5
6FE
  8
DATA
  6
CONTINUOUS
 62
     7
 66
     1
 10
0.0
 20
0.0
 30
0.0
  0
VERTEX
  5
F29
  8
DATA
  6
CONTINUOUS
 62
     7
 10
-296.44354179909288
 20
54.825939635236743
 30
0.0
  0
VERTEX
  5
F2A
  8
DATA
  6
CONTINUOUS
 62
     7
 10
-296.44354179909288
 20
56.17256463523676
 30
0.0
  0
VERTEX
  5
F2B
  8
DATA
  6
CONTINUOUS
 62
     7
 10
-296.82829179909288
 20
56.17256463523676
 30
0.0
  0
VERTEX
  5
F2C
  8
DATA
  6
CONTINUOUS
 62
     7
 10
-296.82829179909288
 20
54.825939635236743
 30
0.0
  0
SEQEND
  5
F2D
  8
DATA
  6
CONTINUOUS
 62
     7
  0
POLYLINE
  5
705
  8
DATA
  6
CONTINUOUS
 62
     7
 66
     1
 10
0.0
 20
0.0
 30
0.0
  0
VERTEX
  5
F2E
  8
DATA
  6
CONTINUOUS
 62
     7
 10
-296.82829179909288
 20
54.441189635236739
 30
0.0
  0
VERTEX
  5
F2F
  8
DATA
  6
CONTINUOUS
 62
     7
 10
-298.17491679909278
 20
54.441189635236739
 30
0.0
  0
VERTEX
  5
F30
  8
DATA
  6
CONTINUOUS
 62
     7
 10
-298.17491679909278
 20
54.825939635236743
 30
0.0
  0
VERTEX
  5
F31
  8
DATA
  6
CONTINUOUS
 62
     7
 10
-296.82829179909288
 20
54.825939635236743
 30
0.0
  0
SEQEND
  5
F32
  8
DATA
  6
CONTINUOUS
 62
     7
  0
POLYLINE
  5
70C
  8
DATA
  6
CONTINUOUS
 62
     7
 66
     1
 10
0.0
 20
0.0
 30
0.0
  0
VERTEX
  5
F33
  8
DATA
  6
CONTINUOUS
 62
     7
 10
-296.44354179909288
 20
54.441189635236739
 30
0.0
  0
VERTEX
  5
F34
  8
DATA
  6
CONTINUOUS
 62
     7
 10
-295.09691679909292
 20
54.441189635236739
 30
0.0
  0
VERTEX
  5
F35
  8
DATA
  6
CONTINUOUS
 62
     7
 10
-295.09691679909292
 20
54.825939635236743
 30
0.0
  0
VERTEX
  5
F36
  8
DATA
  6
CONTINUOUS
 62
     7
 10
-296.44354179909288
 20
54.825939635236743
 30
0.0
  0
SEQEND
  5
F37
  8
DATA
  6
CONTINUOUS
 62
     7
  0
CIRCLE
  5
713
  8
DATA
  6
CONTINUOUS
 62
     7
 10
-315.77629420581661
 20
73.773942041960453
 30
0.0
 40
2.0007000000000521
  0
POLYLINE
  5
714
  8
DATA
  6
CONTINUOUS
 62
     7
 66
     1
 10
0.0
 20
0.0
 30
0.0
  0
VERTEX
  5
F38
  8
DATA
  6
CONTINUOUS
 62
     7
 10
-315.58391920581658
 20
73.581567041960454
 30
0.0
  0
VERTEX
  5
F39
  8
DATA
  6
CONTINUOUS
 62
     7
 10
-315.58391920581658
 20
72.234942041960451
 30
0.0
  0
VERTEX
  5
F3A
  8
DATA
  6
CONTINUOUS
 62
     7
 10
-315.96866920581658
 20
72.234942041960451
 30
0.0
  0
VERTEX
  5
F3B
  8
DATA
  6
CONTINUOUS
 62
     7
 10
-315.96866920581658
 20
73.581567041960454
 30
0.0
  0
SEQEND
  5
F3C
  8
DATA
  6
CONTINUOUS
 62
     7
  0
POLYLINE
  5
71B
  8
DATA
  6
CONTINUOUS
 62
     7
 66
     1
 10
0.0
 20
0.0
 30
0.0
  0
VERTEX
  5
F3D
  8
DATA
  6
CONTINUOUS
 62
     7
 10
-315.58391920581658
 20
73.966317041960451
 30
0.0
  0
VERTEX
  5
F3E
  8
DATA
  6
CONTINUOUS
 62
     7
 10
-315.58391920581658
 20
75.312942041960483
 30
0.0
  0
VERTEX
  5
F3F
  8
DATA
  6
CONTINUOUS
 62
     7
 10
-315.96866920581658
 20
75.312942041960483
 30
0.0
  0
VERTEX
  5
F40
  8
DATA
  6
CONTINUOUS
 62
     7
 10
-315.96866920581658
 20
73.966317041960451
 30
0.0
  0
SEQEND
  5
F41
  8
DATA
  6
CONTINUOUS
 62
     7
  0
POLYLINE
  5
722
  8
DATA
  6
CONTINUOUS
 62
     7
 66
     1
 10
0.0
 20
0.0
 30
0.0
  0
VERTEX
  5
F42
  8
DATA
  6
CONTINUOUS
 62
     7
 10
-315.96866920581658
 20
73.581567041960454
 30
0.0
  0
VERTEX
  5
F43
  8
DATA
  6
CONTINUOUS
 62
     7
 10
-317.3152942058166
 20
73.581567041960454
 30
0.0
  0
VERTEX
  5
F44
  8
DATA
  6
CONTINUOUS
 62
     7
 10
-317.3152942058166
 20
73.966317041960451
 30
0.0
  0
VERTEX
  5
F45
  8
DATA
  6
CONTINUOUS
 62
     7
 10
-315.96866920581658
 20
73.966317041960451
 30
0.0
  0
SEQEND
  5
F46
  8
DATA
  6
CONTINUOUS
 62
     7
  0
POLYLINE
  5
729
  8
DATA
  6
CONTINUOUS
 62
     7
 66
     1
 10
0.0
 20
0.0
 30
0.0
  0
VERTEX
  5
F47
  8
DATA
  6
CONTINUOUS
 62
     7
 10
-315.58391920581658
 20
73.581567041960454
 30
0.0
  0
VERTEX
  5
F48
  8
DATA
  6
CONTINUOUS
 62
     7
 10
-314.23729420581662
 20
73.581567041960454
 30
0.0
  0
VERTEX
  5
F49
  8
DATA
  6
CONTINUOUS
 62
     7
 10
-314.23729420581662
 20
73.966317041960451
 30
0.0
  0
VERTEX
  5
F4A
  8
DATA
  6
CONTINUOUS
 62
     7
 10
-315.58391920581658
 20
73.966317041960451
 30
0.0
  0
SEQEND
  5
F4B
  8
DATA
  6
CONTINUOUS
 62
     7
  0
POLYLINE
  5
730
  8
DATA
  6
CONTINUOUS
 62
     7
 66
     1
 10
0.0
 20
0.0
 30
0.0
 70
     1
  0
VERTEX
  5
F4C
  8
DATA
  6
CONTINUOUS
 62
     7
 10
-329.41460815026852
 20
67.499999951971603
 30
0.0
  0
VERTEX
  5
F4D
  8
DATA
  6
CONTINUOUS
 62
     7
 10
-326.41460815026852
 20
67.499999951971603
 30
0.0
  0
VERTEX
  5
F4E
  8
DATA
  6
CONTINUOUS
 62
     7
 10
-326.41460815026852
 20
57.499999951971603
 30
0.0
  0
VERTEX
  5
F4F
  8
DATA
  6
CONTINUOUS
 62
     7
 10
-329.41460815026852
 20
57.499999951971603
 30
0.0
  0
SEQEND
  5
F50
  8
DATA
  6
CONTINUOUS
 62
     7
  0
POLYLINE
  5
737
  8
DATA
  6
CONTINUOUS
 62
     7
 66
     1
 10
0.0
 20
0.0
 30
0.0
 70
     1
  0
VERTEX
  5
F51
  8
DATA
  6
CONTINUOUS
 62
     7
 10
89.354223263343044
 20
67.499999951971603
 30
0.0
  0
VERTEX
  5
F52
  8
DATA
  6
CONTINUOUS
 62
     7
 10
92.354223263343044
 20
67.499999951971603
 30
0.0
  0
VERTEX
  5
F53
  8
DATA
  6
CONTINUOUS
 62
     7
 10
92.354223263343044
 20
57.499999951971603
 30
0.0
  0
VERTEX
  5
F54
  8
DATA
  6
CONTINUOUS
 62
     7
 10
89.354223263343044
 20
57.499999951971603
 30
0.0
  0
SEQEND
  5
F55
  8
DATA
  6
CONTINUOUS
 62
     7
  0
CIRCLE
  5
73E
  8
DATA
  6
CONTINUOUS
 62
     7
 10
-283.1511803338704
 20
58.605246713327027
 30
0.0
 40
5.3000000000000114
  0
CIRCLE
  5
73F
  8
DATA
  6
CONTINUOUS
 62
     7
 10
-283.1511803338704
 20
58.605246713327027
 30
0.0
 40
3.25
  0
CIRCLE
  5
740
  8
DATA
  6
CONTINUOUS
 62
     7
 10
-283.1511803338704
 20
58.605246713327027
 30
0.0
 40
8.6500000000000341
  0
POLYLINE
  5
741
  8
DATA
  6
CONTINUOUS
 62
     7
 66
     1
 10
0.0
 20
0.0
 30
0.0
 70
     1
  0
VERTEX
  5
F56
  8
DATA
  6
CONTINUOUS
 62
     7
 10
-275.19214045375048
 20
55.217594991756108
 30
0.0
  0
VERTEX
  5
F57
  8
DATA
  6
CONTINUOUS
 62
     7
 10
-276.23786794375599
 20
63.804151578458807
 30
0.0
  0
VERTEX
  5
F58
  8
DATA
  6
CONTINUOUS
 62
     7
 10
-284.19690782387568
 20
67.191803300029761
 30
0.0
  0
VERTEX
  5
F59
  8
DATA
  6
CONTINUOUS
 62
     7
 10
-291.11022021399032
 20
61.992898434897967
 30
0.0
  0
VERTEX
  5
F5A
  8
DATA
  6
CONTINUOUS
 62
     7
 10
-290.06449272398481
 20
53.406341848195247
 30
0.0
  0
VERTEX
  5
F5B
  8
DATA
  6
CONTINUOUS
 62
     7
 10
-282.10545284386501
 20
50.018690126624321
 30
0.0
  0
SEQEND
  5
F5C
  8
DATA
  6
CONTINUOUS
 62
     7
  0
CIRCLE
  5
74A
  8
DATA
  6
CONTINUOUS
 62
     7
 10
-262.2228135571437
 20
58.605246713327027
 30
0.0
 40
5.3000000000000114
  0
CIRCLE
  5
74B
  8
DATA
  6
CONTINUOUS
 62
     7
 10
-262.2228135571437
 20
58.605246713327027
 30
0.0
 40
3.25
  0
CIRCLE
  5
74C
  8
DATA
  6
CONTINUOUS
 62
     7
 10
-262.2228135571437
 20
58.605246713327027
 30
0.0
 40
8.6500000000000341
  0
POLYLINE
  5
74D
  8
DATA
  6
CONTINUOUS
 62
     7
 66
     1
 10
0.0
 20
0.0
 30
0.0
 70
     1
  0
VERTEX
  5
F5D
  8
DATA
  6
CONTINUOUS
 62
     7
 10
-254.26377367702389
 20
55.217594991756108
 30
0.0
  0
VERTEX
  5
F5E
  8
DATA
  6
CONTINUOUS
 62
     7
 10
-255.30950116702931
 20
63.804151578458807
 30
0.0
  0
VERTEX
  5
F5F
  8
DATA
  6
CONTINUOUS
 62
     7
 10
-263.2685410471492
 20
67.191803300029761
 30
0.0
  0
VERTEX
  5
F60
  8
DATA
  6
CONTINUOUS
 62
     7
 10
-270.18185343726361
 20
61.992898434897967
 30
0.0
  0
VERTEX
  5
F61
  8
DATA
  6
CONTINUOUS
 62
     7
 10
-269.13612594725828
 20
53.406341848195247
 30
0.0
  0
VERTEX
  5
F62
  8
DATA
  6
CONTINUOUS
 62
     7
 10
-261.17708606713842
 20
50.018690126624321
 30
0.0
  0
SEQEND
  5
F63
  8
DATA
  6
CONTINUOUS
 62
     7
  0
CIRCLE
  5
756
  8
DATA
  6
CONTINUOUS
 62
     7
 10
-240.81837210435231
 20
64.238627968010661
 30
0.0
 40
10.94999999999999
  0
ARC
  5
757
  8
DATA
  6
CONTINUOUS
 62
     7
 10
-240.81837210435231
 20
64.238627968010661
 30
0.0
 40
9.8000000000000362
 50
120.67742447255659
 51
59.322575527443668
  0
CIRCLE
  5
758
  8
DATA
  6
CONTINUOUS
 62
     7
 10
-240.81837210435231
 20
64.238627968010661
 30
0.0
 40
7.7999999999999829
  0
CIRCLE
  5
759
  8
DATA
  6
CONTINUOUS
 62
     7
 10
-240.81837210435231
 20
60.049287304127901
 30
0.0
 40
1.25
  0
CIRCLE
  5
75A
  8
DATA
  6
CONTINUOUS
 62
     7
 10
-236.56837210435231
 20
64.238627968010661
 30
0.0
 40
1.2499999999999709
  0
CIRCLE
  5
75B
  8
DATA
  6
CONTINUOUS
 62
     7
 10
-245.06837210435211
 20
64.238627968010661
 30
0.0
 40
1.25
  0
LINE
  5
75C
  8
DATA
  6
CONTINUOUS
 62
     7
 10
-235.81837210435231
 20
72.667150970292894
 30
0.0
 11
-235.81837210435231
 21
73.980419384377626
 31
0.0
  0
LINE
  5
75D
  8
DATA
  6
CONTINUOUS
 62
     7
 10
-245.81837210435231
 20
73.980419384377598
 30
0.0
 11
-245.81837210435231
 21
72.66715097029288
 31
0.0
  0
CIRCLE
  5
75E
  8
DATA
  6
CONTINUOUS
 62
     7
 10
-231.28061580855319
 20
54.633564635236731
 30
0.0
 40
2.0006999999999939
  0
POLYLINE
  5
75F
  8
DATA
  6
CONTINUOUS
 62
     7
 66
     1
 10
0.0
 20
0.0
 30
0.0
  0
VERTEX
  5
F64
  8
DATA
  6
CONTINUOUS
 62
     7
 10
-231.08824080855319
 20
54.441189635236739
 30
0.0
  0
VERTEX
  5
F65
  8
DATA
  6
CONTINUOUS
 62
     7
 10
-231.08824080855319
 20
53.094564635236758
 30
0.0
  0
VERTEX
  5
F66
  8
DATA
  6
CONTINUOUS
 62
     7
 10
-231.47299080855319
 20
53.094564635236758
 30
0.0
  0
VERTEX
  5
F67
  8
DATA
  6
CONTINUOUS
 62
     7
 10
-231.47299080855319
 20
54.441189635236739
 30
0.0
  0
SEQEND
  5
F68
  8
DATA
  6
CONTINUOUS
 62
     7
  0
POLYLINE
  5
766
  8
DATA
  6
CONTINUOUS
 62
     7
 66
     1
 10
0.0
 20
0.0
 30
0.0
  0
VERTEX
  5
F69
  8
DATA
  6
CONTINUOUS
 62
     7
 10
-231.08824080855319
 20
54.825939635236743
 30
0.0
  0
VERTEX
  5
F6A
  8
DATA
  6
CONTINUOUS
 62
     7
 10
-231.08824080855319
 20
56.17256463523676
 30
0.0
  0
VERTEX
  5
F6B
  8
DATA
  6
CONTINUOUS
 62
     7
 10
-231.47299080855319
 20
56.17256463523676
 30
0.0
  0
VERTEX
  5
F6C
  8
DATA
  6
CONTINUOUS
 62
     7
 10
-231.47299080855319
 20
54.825939635236743
 30
0.0
  0
SEQEND
  5
F6D
  8
DATA
  6
CONTINUOUS
 62
     7
  0
POLYLINE
  5
76D
  8
DATA
  6
CONTINUOUS
 62
     7
 66
     1
 10
0.0
 20
0.0
 30
0.0
  0
VERTEX
  5
F6E
  8
DATA
  6
CONTINUOUS
 62
     7
 10
-231.47299080855319
 20
54.441189635236739
 30
0.0
  0
VERTEX
  5
F6F
  8
DATA
  6
CONTINUOUS
 62
     7
 10
-232.81961580855321
 20
54.441189635236739
 30
0.0
  0
VERTEX
  5
F70
  8
DATA
  6
CONTINUOUS
 62
     7
 10
-232.81961580855321
 20
54.825939635236743
 30
0.0
  0
VERTEX
  5
F71
  8
DATA
  6
CONTINUOUS
 62
     7
 10
-231.47299080855319
 20
54.825939635236743
 30
0.0
  0
SEQEND
  5
F72
  8
DATA
  6
CONTINUOUS
 62
     7
  0
POLYLINE
  5
774
  8
DATA
  6
CONTINUOUS
 62
     7
 66
     1
 10
0.0
 20
0.0
 30
0.0
  0
VERTEX
  5
F73
  8
DATA
  6
CONTINUOUS
 62
     7
 10
-231.08824080855319
 20
54.441189635236739
 30
0.0
  0
VERTEX
  5
F74
  8
DATA
  6
CONTINUOUS
 62
     7
 10
-229.74161580855309
 20
54.441189635236739
 30
0.0
  0
VERTEX
  5
F75
  8
DATA
  6
CONTINUOUS
 62
     7
 10
-229.74161580855309
 20
54.825939635236743
 30
0.0
  0
VERTEX
  5
F76
  8
DATA
  6
CONTINUOUS
 62
     7
 10
-231.08824080855319
 20
54.825939635236743
 30
0.0
  0
SEQEND
  5
F77
  8
DATA
  6
CONTINUOUS
 62
     7
  0
CIRCLE
  5
77B
  8
DATA
  6
CONTINUOUS
 62
     7
 10
-250.42099321527681
 20
73.773942041960453
 30
0.0
 40
2.0006999999999939
  0
POLYLINE
  5
77C
  8
DATA
  6
CONTINUOUS
 62
     7
 66
     1
 10
0.0
 20
0.0
 30
0.0
  0
VERTEX
  5
F78
  8
DATA
  6
CONTINUOUS
 62
     7
 10
-250.2286182152769
 20
73.581567041960454
 30
0.0
  0
VERTEX
  5
F79
  8
DATA
  6
CONTINUOUS
 62
     7
 10
-250.2286182152769
 20
72.234942041960451
 30
0.0
  0
VERTEX
  5
F7A
  8
DATA
  6
CONTINUOUS
 62
     7
 10
-250.61336821527681
 20
72.234942041960451
 30
0.0
  0
VERTEX
  5
F7B
  8
DATA
  6
CONTINUOUS
 62
     7
 10
-250.61336821527681
 20
73.581567041960454
 30
0.0
  0
SEQEND
  5
F7C
  8
DATA
  6
CONTINUOUS
 62
     7
  0
POLYLINE
  5
783
  8
DATA
  6
CONTINUOUS
 62
     7
 66
     1
 10
0.0
 20
0.0
 30
0.0
  0
VERTEX
  5
F7D
  8
DATA
  6
CONTINUOUS
 62
     7
 10
-250.2286182152769
 20
73.966317041960451
 30
0.0
  0
VERTEX
  5
F7E
  8
DATA
  6
CONTINUOUS
 62
     7
 10
-250.2286182152769
 20
75.312942041960483
 30
0.0
  0
VERTEX
  5
F7F
  8
DATA
  6
CONTINUOUS
 62
     7
 10
-250.61336821527681
 20
75.312942041960483
 30
0.0
  0
VERTEX
  5
F80
  8
DATA
  6
CONTINUOUS
 62
     7
 10
-250.61336821527681
 20
73.966317041960451
 30
0.0
  0
SEQEND
  5
F81
  8
DATA
  6
CONTINUOUS
 62
     7
  0
POLYLINE
  5
78A
  8
DATA
  6
CONTINUOUS
 62
     7
 66
     1
 10
0.0
 20
0.0
 30
0.0
  0
VERTEX
  5
F82
  8
DATA
  6
CONTINUOUS
 62
     7
 10
-250.61336821527681
 20
73.581567041960454
 30
0.0
  0
VERTEX
  5
F83
  8
DATA
  6
CONTINUOUS
 62
     7
 10
-251.9599932152768
 20
73.581567041960454
 30
0.0
  0
VERTEX
  5
F84
  8
DATA
  6
CONTINUOUS
 62
     7
 10
-251.9599932152768
 20
73.966317041960451
 30
0.0
  0
VERTEX
  5
F85
  8
DATA
  6
CONTINUOUS
 62
     7
 10
-250.61336821527681
 20
73.966317041960451
 30
0.0
  0
SEQEND
  5
F86
  8
DATA
  6
CONTINUOUS
 62
     7
  0
POLYLINE
  5
791
  8
DATA
  6
CONTINUOUS
 62
     7
 66
     1
 10
0.0
 20
0.0
 30
0.0
  0
VERTEX
  5
F87
  8
DATA
  6
CONTINUOUS
 62
     7
 10
-250.2286182152769
 20
73.581567041960454
 30
0.0
  0
VERTEX
  5
F88
  8
DATA
  6
CONTINUOUS
 62
     7
 10
-248.88199321527679
 20
73.581567041960454
 30
0.0
  0
VERTEX
  5
F89
  8
DATA
  6
CONTINUOUS
 62
     7
 10
-248.88199321527679
 20
73.966317041960451
 30
0.0
  0
VERTEX
  5
F8A
  8
DATA
  6
CONTINUOUS
 62
     7
 10
-250.2286182152769
 20
73.966317041960451
 30
0.0
  0
SEQEND
  5
F8B
  8
DATA
  6
CONTINUOUS
 62
     7
  0
CIRCLE
  5
798
  8
DATA
  6
CONTINUOUS
 62
     7
 10
-215.9687479263076
 20
64.03487458138369
 30
0.0
 40
11.0
  0
CIRCLE
  5
799
  8
DATA
  6
CONTINUOUS
 62
     7
 10
-215.9687479263076
 20
64.03487458138369
 30
0.0
 40
8.25
  0
CIRCLE
  5
79A
  8
DATA
  6
CONTINUOUS
 62
     7
 10
-215.9687479263076
 20
59.845533917500902
 30
0.0
 40
1.25
  0
CIRCLE
  5
79B
  8
DATA
  6
CONTINUOUS
 62
     7
 10
-211.7187479263076
 20
64.03487458138369
 30
0.0
 40
1.25
  0
CIRCLE
  5
79C
  8
DATA
  6
CONTINUOUS
 62
     7
 10
-220.2187479263076
 20
64.03487458138369
 30
0.0
 40
1.25
  0
CIRCLE
  5
79D
  8
DATA
  6
CONTINUOUS
 62
     7
 10
-206.4309916305084
 20
54.429811248609752
 30
0.0
 40
2.0006999999999939
  0
POLYLINE
  5
79E
  8
DATA
  6
CONTINUOUS
 62
     7
 66
     1
 10
0.0
 20
0.0
 30
0.0
  0
VERTEX
  5
F8C
  8
DATA
  6
CONTINUOUS
 62
     7
 10
-206.23861663050849
 20
54.237436248609747
 30
0.0
  0
VERTEX
  5
F8D
  8
DATA
  6
CONTINUOUS
 62
     7
 10
-206.23861663050849
 20
52.890811248609772
 30
0.0
  0
VERTEX
  5
F8E
  8
DATA
  6
CONTINUOUS
 62
     7
 10
-206.62336663050851
 20
52.890811248609772
 30
0.0
  0
VERTEX
  5
F8F
  8
DATA
  6
CONTINUOUS
 62
     7
 10
-206.62336663050851
 20
54.237436248609747
 30
0.0
  0
SEQEND
  5
F90
  8
DATA
  6
CONTINUOUS
 62
     7
  0
POLYLINE
  5
7A5
  8
DATA
  6
CONTINUOUS
 62
     7
 66
     1
 10
0.0
 20
0.0
 30
0.0
  0
VERTEX
  5
F91
  8
DATA
  6
CONTINUOUS
 62
     7
 10
-206.23861663050849
 20
54.622186248609736
 30
0.0
  0
VERTEX
  5
F92
  8
DATA
  6
CONTINUOUS
 62
     7
 10
-206.23861663050849
 20
55.968811248609761
 30
0.0
  0
VERTEX
  5
F93
  8
DATA
  6
CONTINUOUS
 62
     7
 10
-206.62336663050851
 20
55.968811248609761
 30
0.0
  0
VERTEX
  5
F94
  8
DATA
  6
CONTINUOUS
 62
     7
 10
-206.62336663050851
 20
54.622186248609736
 30
0.0
  0
SEQEND
  5
F95
  8
DATA
  6
CONTINUOUS
 62
     7
  0
POLYLINE
  5
7AC
  8
DATA
  6
CONTINUOUS
 62
     7
 66
     1
 10
0.0
 20
0.0
 30
0.0
  0
VERTEX
  5
F96
  8
DATA
  6
CONTINUOUS
 62
     7
 10
-206.62336663050851
 20
54.237436248609747
 30
0.0
  0
VERTEX
  5
F97
  8
DATA
  6
CONTINUOUS
 62
     7
 10
-207.96999163050859
 20
54.237436248609747
 30
0.0
  0
VERTEX
  5
F98
  8
DATA
  6
CONTINUOUS
 62
     7
 10
-207.96999163050859
 20
54.622186248609736
 30
0.0
  0
VERTEX
  5
F99
  8
DATA
  6
CONTINUOUS
 62
     7
 10
-206.62336663050851
 20
54.622186248609736
 30
0.0
  0
SEQEND
  5
F9A
  8
DATA
  6
CONTINUOUS
 62
     7
  0
POLYLINE
  5
7B3
  8
DATA
  6
CONTINUOUS
 62
     7
 66
     1
 10
0.0
 20
0.0
 30
0.0
  0
VERTEX
  5
F9B
  8
DATA
  6
CONTINUOUS
 62
     7
 10
-206.23861663050849
 20
54.237436248609747
 30
0.0
  0
VERTEX
  5
F9C
  8
DATA
  6
CONTINUOUS
 62
     7
 10
-204.8919916305085
 20
54.237436248609747
 30
0.0
  0
VERTEX
  5
F9D
  8
DATA
  6
CONTINUOUS
 62
     7
 10
-204.8919916305085
 20
54.622186248609736
 30
0.0
  0
VERTEX
  5
F9E
  8
DATA
  6
CONTINUOUS
 62
     7
 10
-206.23861663050849
 20
54.622186248609736
 30
0.0
  0
SEQEND
  5
F9F
  8
DATA
  6
CONTINUOUS
 62
     7
  0
CIRCLE
  5
7BA
  8
DATA
  6
CONTINUOUS
 62
     7
 10
-225.57136903723219
 20
73.570188655333453
 30
0.0
 40
2.0006999999999939
  0
POLYLINE
  5
7BB
  8
DATA
  6
CONTINUOUS
 62
     7
 66
     1
 10
0.0
 20
0.0
 30
0.0
  0
VERTEX
  5
FA0
  8
DATA
  6
CONTINUOUS
 62
     7
 10
-225.37899403723219
 20
73.377813655333455
 30
0.0
  0
VERTEX
  5
FA1
  8
DATA
  6
CONTINUOUS
 62
     7
 10
-225.37899403723219
 20
72.031188655333452
 30
0.0
  0
VERTEX
  5
FA2
  8
DATA
  6
CONTINUOUS
 62
     7
 10
-225.76374403723219
 20
72.031188655333452
 30
0.0
  0
VERTEX
  5
FA3
  8
DATA
  6
CONTINUOUS
 62
     7
 10
-225.76374403723219
 20
73.377813655333455
 30
0.0
  0
SEQEND
  5
FA4
  8
DATA
  6
CONTINUOUS
 62
     7
  0
POLYLINE
  5
7C2
  8
DATA
  6
CONTINUOUS
 62
     7
 66
     1
 10
0.0
 20
0.0
 30
0.0
  0
VERTEX
  5
FA5
  8
DATA
  6
CONTINUOUS
 62
     7
 10
-225.37899403723219
 20
73.762563655333452
 30
0.0
  0
VERTEX
  5
FA6
  8
DATA
  6
CONTINUOUS
 62
     7
 10
-225.37899403723219
 20
75.109188655333469
 30
0.0
  0
VERTEX
  5
FA7
  8
DATA
  6
CONTINUOUS
 62
     7
 10
-225.76374403723219
 20
75.109188655333469
 30
0.0
  0
VERTEX
  5
FA8
  8
DATA
  6
CONTINUOUS
 62
     7
 10
-225.76374403723219
 20
73.762563655333452
 30
0.0
  0
SEQEND
  5
FA9
  8
DATA
  6
CONTINUOUS
 62
     7
  0
POLYLINE
  5
7C9
  8
DATA
  6
CONTINUOUS
 62
     7
 66
     1
 10
0.0
 20
0.0
 30
0.0
  0
VERTEX
  5
FAA
  8
DATA
  6
CONTINUOUS
 62
     7
 10
-225.76374403723219
 20
73.377813655333455
 30
0.0
  0
VERTEX
  5
FAB
  8
DATA
  6
CONTINUOUS
 62
     7
 10
-227.1103690372322
 20
73.377813655333455
 30
0.0
  0
VERTEX
  5
FAC
  8
DATA
  6
CONTINUOUS
 62
     7
 10
-227.1103690372322
 20
73.762563655333452
 30
0.0
  0
VERTEX
  5
FAD
  8
DATA
  6
CONTINUOUS
 62
     7
 10
-225.76374403723219
 20
73.762563655333452
 30
0.0
  0
SEQEND
  5
FAE
  8
DATA
  6
CONTINUOUS
 62
     7
  0
POLYLINE
  5
7D0
  8
DATA
  6
CONTINUOUS
 62
     7
 66
     1
 10
0.0
 20
0.0
 30
0.0
  0
VERTEX
  5
FAF
  8
DATA
  6
CONTINUOUS
 62
     7
 10
-225.37899403723219
 20
73.377813655333455
 30
0.0
  0
VERTEX
  5
FB0
  8
DATA
  6
CONTINUOUS
 62
     7
 10
-224.0323690372322
 20
73.377813655333455
 30
0.0
  0
VERTEX
  5
FB1
  8
DATA
  6
CONTINUOUS
 62
     7
 10
-224.0323690372322
 20
73.762563655333452
 30
0.0
  0
VERTEX
  5
FB2
  8
DATA
  6
CONTINUOUS
 62
     7
 10
-225.37899403723219
 20
73.762563655333452
 30
0.0
  0
SEQEND
  5
FB3
  8
DATA
  6
CONTINUOUS
 62
     7
  0
ARC
  5
7D7
  8
DATA
  6
CONTINUOUS
 62
     7
 10
-215.9687479263076
 20
64.03487458138369
 30
0.0
 40
8.0000000000000071
 50
67.975687162957854
 51
112.0243128370421
  0
LINE
  5
7D8
  8
DATA
  6
CONTINUOUS
 62
     7
 10
-212.9687479263076
 20
71.45107306847936
 30
0.0
 11
-212.9687479263076
 21
71.720087655853405
 31
0.0
  0
LINE
  5
7D9
  8
DATA
  6
CONTINUOUS
 62
     7
 10
-218.9687479263076
 20
71.45107306847936
 30
0.0
 11
-218.9687479263076
 21
71.720087655853405
 31
0.0
  0
CIRCLE
  5
7DA
  8
DATA
  6
CONTINUOUS
 62
     7
 10
-194.1523263842013
 20
58.605246713327027
 30
0.0
 40
5.3000000000000114
  0
CIRCLE
  5
7DB
  8
DATA
  6
CONTINUOUS
 62
     7
 10
-194.1523263842013
 20
58.605246713327027
 30
0.0
 40
3.25
  0
POLYLINE
  5
7DC
  8
DATA
  6
CONTINUOUS
 62
     7
 66
     1
 10
0.0
 20
0.0
 30
0.0
 70
     1
  0
VERTEX
  5
FB4
  8
DATA
  6
CONTINUOUS
 62
     7
 10
-186.19328650408141
 20
55.217594991756108
 30
0.0
  0
VERTEX
  5
FB5
  8
DATA
  6
CONTINUOUS
 62
     7
 10
-187.23901399408689
 20
63.804151578458807
 30
0.0
  0
VERTEX
  5
FB6
  8
DATA
  6
CONTINUOUS
 62
     7
 10
-195.19805387420669
 20
67.191803300029761
 30
0.0
  0
VERTEX
  5
FB7
  8
DATA
  6
CONTINUOUS
 62
     7
 10
-202.11136626432119
 20
61.992898434897967
 30
0.0
  0
VERTEX
  5
FB8
  8
DATA
  6
CONTINUOUS
 62
     7
 10
-201.0656387743158
 20
53.406341848195247
 30
0.0
  0
VERTEX
  5
FB9
  8
DATA
  6
CONTINUOUS
 62
     7
 10
-193.10659889419591
 20
50.018690126624321
 30
0.0
  0
SEQEND
  5
FBA
  8
DATA
  6
CONTINUOUS
 62
     7
  0
CIRCLE
  5
7E5
  8
DATA
  6
CONTINUOUS
 62
     7
 10
-173.2239596074746
 20
58.605246713327027
 30
0.0
 40
5.3000000000000114
  0
CIRCLE
  5
7E6
  8
DATA
  6
CONTINUOUS
 62
     7
 10
-173.2239596074746
 20
58.605246713327027
 30
0.0
 40
3.25
  0
POLYLINE
  5
7E7
  8
DATA
  6
CONTINUOUS
 62
     7
 66
     1
 10
0.0
 20
0.0
 30
0.0
 70
     1
  0
VERTEX
  5
FBB
  8
DATA
  6
CONTINUOUS
 62
     7
 10
-165.26491972735479
 20
55.217594991756108
 30
0.0
  0
VERTEX
  5
FBC
  8
DATA
  6
CONTINUOUS
 62
     7
 10
-166.3106472173603
 20
63.804151578458807
 30
0.0
  0
VERTEX
  5
FBD
  8
DATA
  6
CONTINUOUS
 62
     7
 10
-174.2696870974801
 20
67.191803300029761
 30
0.0
  0
VERTEX
  5
FBE
  8
DATA
  6
CONTINUOUS
 62
     7
 10
-181.1829994875946
 20
61.992898434897967
 30
0.0
  0
VERTEX
  5
FBF
  8
DATA
  6
CONTINUOUS
 62
     7
 10
-180.1372719975891
 20
53.406341848195247
 30
0.0
  0
VERTEX
  5
FC0
  8
DATA
  6
CONTINUOUS
 62
     7
 10
-172.17823211746929
 20
50.018690126624321
 30
0.0
  0
SEQEND
  5
FC1
  8
DATA
  6
CONTINUOUS
 62
     7
  0
CIRCLE
  5
7F0
  8
DATA
  6
CONTINUOUS
 62
     7
 10
-146.96874792630749
 20
64.03487458138369
 30
0.0
 40
11.0
  0
CIRCLE
  5
7F1
  8
DATA
  6
CONTINUOUS
 62
     7
 10
-146.96874792630749
 20
64.03487458138369
 30
0.0
 40
8.25
  0
CIRCLE
  5
7F2
  8
DATA
  6
CONTINUOUS
 62
     7
 10
-146.96874792630749
 20
59.845533917500902
 30
0.0
 40
1.25
  0
CIRCLE
  5
7F3
  8
DATA
  6
CONTINUOUS
 62
     7
 10
-142.71874792630749
 20
64.03487458138369
 30
0.0
 40
1.25
  0
CIRCLE
  5
7F4
  8
DATA
  6
CONTINUOUS
 62
     7
 10
-151.2187479263076
 20
64.03487458138369
 30
0.0
 40
1.25
  0
CIRCLE
  5
7F5
  8
DATA
  6
CONTINUOUS
 62
     7
 10
-137.43099163050849
 20
54.429811248609752
 30
0.0
 40
2.0006999999999939
  0
POLYLINE
  5
7F6
  8
DATA
  6
CONTINUOUS
 62
     7
 66
     1
 10
0.0
 20
0.0
 30
0.0
  0
VERTEX
  5
FC2
  8
DATA
  6
CONTINUOUS
 62
     7
 10
-137.23861663050849
 20
54.237436248609747
 30
0.0
  0
VERTEX
  5
FC3
  8
DATA
  6
CONTINUOUS
 62
     7
 10
-137.23861663050849
 20
52.890811248609772
 30
0.0
  0
VERTEX
  5
FC4
  8
DATA
  6
CONTINUOUS
 62
     7
 10
-137.6233666305086
 20
52.890811248609772
 30
0.0
  0
VERTEX
  5
FC5
  8
DATA
  6
CONTINUOUS
 62
     7
 10
-137.6233666305086
 20
54.237436248609747
 30
0.0
  0
SEQEND
  5
FC6
  8
DATA
  6
CONTINUOUS
 62
     7
  0
POLYLINE
  5
7FD
  8
DATA
  6
CONTINUOUS
 62
     7
 66
     1
 10
0.0
 20
0.0
 30
0.0
  0
VERTEX
  5
FC7
  8
DATA
  6
CONTINUOUS
 62
     7
 10
-137.23861663050849
 20
54.622186248609736
 30
0.0
  0
VERTEX
  5
FC8
  8
DATA
  6
CONTINUOUS
 62
     7
 10
-137.23861663050849
 20
55.968811248609761
 30
0.0
  0
VERTEX
  5
FC9
  8
DATA
  6
CONTINUOUS
 62
     7
 10
-137.6233666305086
 20
55.968811248609761
 30
0.0
  0
VERTEX
  5
FCA
  8
DATA
  6
CONTINUOUS
 62
     7
 10
-137.6233666305086
 20
54.622186248609736
 30
0.0
  0
SEQEND
  5
FCB
  8
DATA
  6
CONTINUOUS
 62
     7
  0
POLYLINE
  5
804
  8
DATA
  6
CONTINUOUS
 62
     7
 66
     1
 10
0.0
 20
0.0
 30
0.0
  0
VERTEX
  5
FCC
  8
DATA
  6
CONTINUOUS
 62
     7
 10
-137.6233666305086
 20
54.237436248609747
 30
0.0
  0
VERTEX
  5
FCD
  8
DATA
  6
CONTINUOUS
 62
     7
 10
-138.9699916305085
 20
54.237436248609747
 30
0.0
  0
VERTEX
  5
FCE
  8
DATA
  6
CONTINUOUS
 62
     7
 10
-138.9699916305085
 20
54.622186248609736
 30
0.0
  0
VERTEX
  5
FCF
  8
DATA
  6
CONTINUOUS
 62
     7
 10
-137.6233666305086
 20
54.622186248609736
 30
0.0
  0
SEQEND
  5
FD0
  8
DATA
  6
CONTINUOUS
 62
     7
  0
POLYLINE
  5
80B
  8
DATA
  6
CONTINUOUS
 62
     7
 66
     1
 10
0.0
 20
0.0
 30
0.0
  0
VERTEX
  5
FD1
  8
DATA
  6
CONTINUOUS
 62
     7
 10
-137.23861663050849
 20
54.237436248609747
 30
0.0
  0
VERTEX
  5
FD2
  8
DATA
  6
CONTINUOUS
 62
     7
 10
-135.8919916305085
 20
54.237436248609747
 30
0.0
  0
VERTEX
  5
FD3
  8
DATA
  6
CONTINUOUS
 62
     7
 10
-135.8919916305085
 20
54.622186248609736
 30
0.0
  0
VERTEX
  5
FD4
  8
DATA
  6
CONTINUOUS
 62
     7
 10
-137.23861663050849
 20
54.622186248609736
 30
0.0
  0
SEQEND
  5
FD5
  8
DATA
  6
CONTINUOUS
 62
     7
  0
CIRCLE
  5
812
  8
DATA
  6
CONTINUOUS
 62
     7
 10
-156.57136903723219
 20
73.570188655333453
 30
0.0
 40
2.0006999999999939
  0
POLYLINE
  5
813
  8
DATA
  6
CONTINUOUS
 62
     7
 66
     1
 10
0.0
 20
0.0
 30
0.0
  0
VERTEX
  5
FD6
  8
DATA
  6
CONTINUOUS
 62
     7
 10
-156.37899403723219
 20
73.377813655333455
 30
0.0
  0
VERTEX
  5
FD7
  8
DATA
  6
CONTINUOUS
 62
     7
 10
-156.37899403723219
 20
72.031188655333452
 30
0.0
  0
VERTEX
  5
FD8
  8
DATA
  6
CONTINUOUS
 62
     7
 10
-156.76374403723219
 20
72.031188655333452
 30
0.0
  0
VERTEX
  5
FD9
  8
DATA
  6
CONTINUOUS
 62
     7
 10
-156.76374403723219
 20
73.377813655333455
 30
0.0
  0
SEQEND
  5
FDA
  8
DATA
  6
CONTINUOUS
 62
     7
  0
POLYLINE
  5
81A
  8
DATA
  6
CONTINUOUS
 62
     7
 66
     1
 10
0.0
 20
0.0
 30
0.0
  0
VERTEX
  5
FDB
  8
DATA
  6
CONTINUOUS
 62
     7
 10
-156.37899403723219
 20
73.762563655333452
 30
0.0
  0
VERTEX
  5
FDC
  8
DATA
  6
CONTINUOUS
 62
     7
 10
-156.37899403723219
 20
75.109188655333469
 30
0.0
  0
VERTEX
  5
FDD
  8
DATA
  6
CONTINUOUS
 62
     7
 10
-156.76374403723219
 20
75.109188655333469
 30
0.0
  0
VERTEX
  5
FDE
  8
DATA
  6
CONTINUOUS
 62
     7
 10
-156.76374403723219
 20
73.762563655333452
 30
0.0
  0
SEQEND
  5
FDF
  8
DATA
  6
CONTINUOUS
 62
     7
  0
POLYLINE
  5
821
  8
DATA
  6
CONTINUOUS
 62
     7
 66
     1
 10
0.0
 20
0.0
 30
0.0
  0
VERTEX
  5
FE0
  8
DATA
  6
CONTINUOUS
 62
     7
 10
-156.76374403723219
 20
73.377813655333455
 30
0.0
  0
VERTEX
  5
FE1
  8
DATA
  6
CONTINUOUS
 62
     7
 10
-158.1103690372322
 20
73.377813655333455
 30
0.0
  0
VERTEX
  5
FE2
  8
DATA
  6
CONTINUOUS
 62
     7
 10
-158.1103690372322
 20
73.762563655333452
 30
0.0
  0
VERTEX
  5
FE3
  8
DATA
  6
CONTINUOUS
 62
     7
 10
-156.76374403723219
 20
73.762563655333452
 30
0.0
  0
SEQEND
  5
FE4
  8
DATA
  6
CONTINUOUS
 62
     7
  0
POLYLINE
  5
828
  8
DATA
  6
CONTINUOUS
 62
     7
 66
     1
 10
0.0
 20
0.0
 30
0.0
  0
VERTEX
  5
FE5
  8
DATA
  6
CONTINUOUS
 62
     7
 10
-156.37899403723219
 20
73.377813655333455
 30
0.0
  0
VERTEX
  5
FE6
  8
DATA
  6
CONTINUOUS
 62
     7
 10
-155.0323690372322
 20
73.377813655333455
 30
0.0
  0
VERTEX
  5
FE7
  8
DATA
  6
CONTINUOUS
 62
     7
 10
-155.0323690372322
 20
73.762563655333452
 30
0.0
  0
VERTEX
  5
FE8
  8
DATA
  6
CONTINUOUS
 62
     7
 10
-156.37899403723219
 20
73.762563655333452
 30
0.0
  0
SEQEND
  5
FE9
  8
DATA
  6
CONTINUOUS
 62
     7
  0
ARC
  5
82F
  8
DATA
  6
CONTINUOUS
 62
     7
 10
-146.96874792630749
 20
64.03487458138369
 30
0.0
 40
8.0000000000000071
 50
67.975687162957854
 51
112.0243128370421
  0
LINE
  5
830
  8
DATA
  6
CONTINUOUS
 62
     7
 10
-143.9687479263076
 20
71.45107306847936
 30
0.0
 11
-143.9687479263076
 21
71.720087655853405
 31
0.0
  0
LINE
  5
831
  8
DATA
  6
CONTINUOUS
 62
     7
 10
-149.96874792630749
 20
71.45107306847936
 30
0.0
 11
-149.96874792630749
 21
71.720087655853405
 31
0.0
  0
CIRCLE
  5
832
  8
DATA
  6
CONTINUOUS
 62
     7
 10
-59.141478783152401
 20
58.605246713327027
 30
0.0
 40
5.3000000000000043
  0
CIRCLE
  5
833
  8
DATA
  6
CONTINUOUS
 62
     7
 10
-59.141478783152401
 20
58.605246713327027
 30
0.0
 40
3.25
  0
POLYLINE
  5
834
  8
DATA
  6
CONTINUOUS
 62
     7
 66
     1
 10
0.0
 20
0.0
 30
0.0
 70
     1
  0
VERTEX
  5
FEA
  8
DATA
  6
CONTINUOUS
 62
     7
 10
-51.182438903032541
 20
55.217594991756108
 30
0.0
  0
VERTEX
  5
FEB
  8
DATA
  6
CONTINUOUS
 62
     7
 10
-52.228166393037931
 20
63.804151578458807
 30
0.0
  0
VERTEX
  5
FEC
  8
DATA
  6
CONTINUOUS
 62
     7
 10
-60.187206273157777
 20
67.191803300029761
 30
0.0
  0
VERTEX
  5
FED
  8
DATA
  6
CONTINUOUS
 62
     7
 10
-67.100518663272254
 20
61.992898434897967
 30
0.0
  0
VERTEX
  5
FEE
  8
DATA
  6
CONTINUOUS
 62
     7
 10
-66.054791173266807
 20
53.406341848195247
 30
0.0
  0
VERTEX
  5
FEF
  8
DATA
  6
CONTINUOUS
 62
     7
 10
-58.095751293146961
 20
50.018690126624321
 30
0.0
  0
SEQEND
  5
FF0
  8
DATA
  6
CONTINUOUS
 62
     7
  0
TEXT
  5
83D
  8
DATA
 62
     7
 10
59.29960107332608
 20
49.261989436176641
 30
0.0
 40
3.078125
  1
100-240V～
 50
180.0
 41
0.7
 11
59.29960107332608
 21
46.183864436176641
 31
0.0
 73
     3
  0
TEXT
  5
83E
  8
DATA
 62
     7
 10
59.29960107332608
 20
53.261989436176641
 30
0.0
 40
3.078125
  1
50-60Hz,12W
 50
180.0
 41
0.7
 11
59.29960107332608
 21
50.183864436176641
 31
0.0
 73
     3
  0
TEXT
  5
83F
  8
DATA
 62
     7
 10
-159.66597831563939
 20
71.454611174009528
 30
0.0
 40
2.30859375
  1
LEFT
 50
180.0
 41
0.7
 11
-159.66597831563939
 21
69.146017424009528
 31
0.0
 73
     3
  0
TEXT
  5
840
  8
DATA
 62
     7
 10
-195.2434319429681
 20
71.215395416032621
 30
0.0
 40
2.30859375
  1
RIGHT
 50
180.0
 41
0.7
 11
-195.2434319429681
 21
68.906801666032621
 31
0.0
 73
     3
  0
TEXT
  5
841
  8
DATA
 62
     7
 10
-176.5011807279233
 20
48.03679408437749
 30
0.0
 40
3.078125
  1
OUT PUT
 50
180.0
 41
0.7
 11
-176.5011807279233
 21
44.95866908437749
 31
0.0
 73
     3
  0
TEXT
  5
842
  8
DATA
 62
     7
 10
-222.5766685283337
 20
48.207198120839358
 30
0.0
 40
3.078125
  1
ANALOG
 50
180.0
 41
0.7
 11
-222.5766685283337
 21
45.129073120839358
 31
0.0
 73
     3
  0
TEXT
  5
843
  8
DATA
 62
     7
 10
-253.1854059631747
 20
71.454611174009528
 30
0.0
 40
2.30859375
  1
LEFT
 50
180.0
 41
0.7
 11
-253.1854059631747
 21
69.146017424009528
 31
0.0
 73
     3
  0
TEXT
  5
844
  8
DATA
 62
     7
 10
-286.75164748111757
 20
71.215395416032621
 30
0.0
 40
2.30859375
  1
RIGHT
 50
180.0
 41
0.7
 11
-286.75164748111757
 21
68.906801666032621
 31
0.0
 73
     3
  0
TEXT
  5
845
  8
DATA
 62
     7
 10
-267.61852039464009
 20
47.9837301086854
 30
0.0
 40
3.078125
  1
INPUT
 50
180.0
 41
0.7
 11
-267.61852039464009
 21
44.9056051086854
 31
0.0
 73
     3
  0
LINE
  5
846
  8
DATA
  6
CONTINUOUS
 62
     7
 10
33.99763923632964
 20
-130.0000000000276
 30
0.0
 11
63.997639236329633
 21
-130.0000000000276
 31
0.0
  0
LINE
  5
847
  8
DATA
  6
CONTINUOUS
 62
     7
 10
33.99763923632964
 20
-130.0000000000276
 30
0.0
 11
33.99763923632964
 21
-132.0000000000276
 31
0.0
  0
LINE
  5
848
  8
DATA
  6
CONTINUOUS
 62
     7
 10
63.997639236329633
 20
-130.0000000000276
 30
0.0
 11
63.997639236329633
 21
-132.0000000000276
 31
0.0
  0
LINE
  5
849
  8
DATA
  6
CONTINUOUS
 62
     7
 10
-64.442360763670393
 20
-124.5021496458626
 30
0.0
 11
-53.842360763670349
 21
-124.5021496458626
 31
0.0
  0
LINE
  5
84A
  8
DATA
  6
CONTINUOUS
 62
     7
 10
-67.101400643790214
 20
-127.5021496458626
 30
0.0
 11
-51.1833208835505
 21
-127.5021496458626
 31
0.0
  0
LINE
  5
84B
  8
DATA
  6
CONTINUOUS
 62
     7
 10
-64.442360763670393
 20
-124.5021496458626
 30
0.0
 11
-64.442360763670393
 21
-127.5021496458626
 31
0.0
  0
LINE
  5
84C
  8
DATA
  6
CONTINUOUS
 62
     7
 10
-53.842360763670349
 20
-124.5021496458626
 30
0.0
 11
-53.842360763670349
 21
-127.5021496458626
 31
0.0
  0
LINE
  5
84D
  8
DATA
  6
CONTINUOUS
 62
     7
 10
-67.101400643790214
 20
-127.5021496458626
 30
0.0
 11
-67.101400643790214
 21
-132.0000000000276
 31
0.0
  0
LINE
  5
84E
  8
DATA
  6
CONTINUOUS
 62
     7
 10
-51.1833208835505
 20
-127.5021496458626
 30
0.0
 11
-51.1833208835505
 21
-132.0000000000276
 31
0.0
  0
LINE
  5
84F
  8
DATA
  6
CONTINUOUS
 62
     7
 10
-66.055673153784852
 20
-127.5021496458626
 30
0.0
 11
-66.055673153784852
 21
-132.0000000000276
 31
0.0
  0
LINE
  5
850
  8
DATA
  6
CONTINUOUS
 62
     7
 10
-58.096633273664921
 20
-127.5021496458626
 30
0.0
 11
-58.096633273664921
 21
-132.0000000000276
 31
0.0
  0
LINE
  5
851
  8
DATA
  6
CONTINUOUS
 62
     7
 10
-85.572360763670375
 20
-125.0043031222161
 30
0.0
 11
-85.572360763670375
 21
-132.0000000000276
 31
0.0
  0
LINE
  5
852
  8
DATA
  6
CONTINUOUS
 62
     7
 10
-77.272360763670378
 20
-125.0043031222161
 30
0.0
 11
-77.272360763670378
 21
-132.0000000000276
 31
0.0
  0
LINE
  5
853
  8
DATA
  6
CONTINUOUS
 62
     7
 10
-178.44236076367039
 20
-124.5021496458626
 30
0.0
 11
-167.84236076367031
 21
-124.5021496458626
 31
0.0
  0
LINE
  5
854
  8
DATA
  6
CONTINUOUS
 62
     7
 10
-181.1014006437901
 20
-127.5021496458626
 30
0.0
 11
-165.18332088355049
 21
-127.5021496458626
 31
0.0
  0
LINE
  5
855
  8
DATA
  6
CONTINUOUS
 62
     7
 10
-178.44236076367039
 20
-124.5021496458626
 30
0.0
 11
-178.44236076367039
 21
-127.5021496458626
 31
0.0
  0
LINE
  5
856
  8
DATA
  6
CONTINUOUS
 62
     7
 10
-167.84236076367031
 20
-124.5021496458626
 30
0.0
 11
-167.84236076367031
 21
-127.5021496458626
 31
0.0
  0
LINE
  5
857
  8
DATA
  6
CONTINUOUS
 62
     7
 10
-181.1014006437901
 20
-127.5021496458626
 30
0.0
 11
-181.1014006437901
 21
-132.0000000000276
 31
0.0
  0
LINE
  5
858
  8
DATA
  6
CONTINUOUS
 62
     7
 10
-165.18332088355049
 20
-127.5021496458626
 30
0.0
 11
-165.18332088355049
 21
-132.0000000000276
 31
0.0
  0
LINE
  5
859
  8
DATA
  6
CONTINUOUS
 62
     7
 10
-180.0556731537848
 20
-127.5021496458626
 30
0.0
 11
-180.0556731537848
 21
-132.0000000000276
 31
0.0
  0
LINE
  5
85A
  8
DATA
  6
CONTINUOUS
 62
     7
 10
-172.09663327366491
 20
-127.5021496458626
 30
0.0
 11
-172.09663327366491
 21
-132.0000000000276
 31
0.0
  0
LINE
  5
85B
  8
DATA
  6
CONTINUOUS
 62
     7
 10
-199.3723607636704
 20
-124.5021496458626
 30
0.0
 11
-188.77236076367041
 21
-124.5021496458626
 31
0.0
  0
LINE
  5
85C
  8
DATA
  6
CONTINUOUS
 62
     7
 10
-202.03140064379031
 20
-127.5021496458626
 30
0.0
 11
-186.1133208835505
 21
-127.5021496458626
 31
0.0
  0
LINE
  5
85D
  8
DATA
  6
CONTINUOUS
 62
     7
 10
-199.3723607636704
 20
-124.5021496458626
 30
0.0
 11
-199.3723607636704
 21
-127.5021496458626
 31
0.0
  0
LINE
  5
85E
  8
DATA
  6
CONTINUOUS
 62
     7
 10
-188.77236076367041
 20
-124.5021496458626
 30
0.0
 11
-188.77236076367041
 21
-127.5021496458626
 31
0.0
  0
LINE
  5
85F
  8
DATA
  6
CONTINUOUS
 62
     7
 10
-202.03140064379031
 20
-127.5021496458626
 30
0.0
 11
-202.03140064379031
 21
-132.0000000000276
 31
0.0
  0
LINE
  5
860
  8
DATA
  6
CONTINUOUS
 62
     7
 10
-186.1133208835505
 20
-127.5021496458626
 30
0.0
 11
-186.1133208835505
 21
-132.0000000000276
 31
0.0
  0
LINE
  5
861
  8
DATA
  6
CONTINUOUS
 62
     7
 10
-200.9856731537848
 20
-127.5021496458626
 30
0.0
 11
-200.9856731537848
 21
-132.0000000000276
 31
0.0
  0
LINE
  5
862
  8
DATA
  6
CONTINUOUS
 62
     7
 10
-193.0266332736648
 20
-127.5021496458626
 30
0.0
 11
-193.0266332736648
 21
-132.0000000000276
 31
0.0
  0
LINE
  5
863
  8
DATA
  6
CONTINUOUS
 62
     7
 10
-267.44236076367042
 20
-124.5021496458626
 30
0.0
 11
-256.8423607636704
 21
-124.5021496458626
 31
0.0
  0
LINE
  5
864
  8
DATA
  6
CONTINUOUS
 62
     7
 10
-270.10140064379021
 20
-127.5021496458626
 30
0.0
 11
-254.18332088355049
 21
-127.5021496458626
 31
0.0
  0
LINE
  5
865
  8
DATA
  6
CONTINUOUS
 62
     7
 10
-267.44236076367042
 20
-124.5021496458626
 30
0.0
 11
-267.44236076367042
 21
-127.5021496458626
 31
0.0
  0
LINE
  5
866
  8
DATA
  6
CONTINUOUS
 62
     7
 10
-256.8423607636704
 20
-124.5021496458626
 30
0.0
 11
-256.8423607636704
 21
-127.5021496458626
 31
0.0
  0
LINE
  5
867
  8
DATA
  6
CONTINUOUS
 62
     7
 10
-270.10140064379021
 20
-127.5021496458626
 30
0.0
 11
-270.10140064379021
 21
-132.0000000000276
 31
0.0
  0
LINE
  5
868
  8
DATA
  6
CONTINUOUS
 62
     7
 10
-254.18332088355049
 20
-127.5021496458626
 30
0.0
 11
-254.18332088355049
 21
-132.0000000000276
 31
0.0
  0
LINE
  5
869
  8
DATA
  6
CONTINUOUS
 62
     7
 10
-269.05567315378482
 20
-127.5021496458626
 30
0.0
 11
-269.05567315378482
 21
-132.0000000000276
 31
0.0
  0
LINE
  5
86A
  8
DATA
  6
CONTINUOUS
 62
     7
 10
-261.09663327366479
 20
-127.5021496458626
 30
0.0
 11
-261.09663327366479
 21
-132.0000000000276
 31
0.0
  0
LINE
  5
86B
  8
DATA
  6
CONTINUOUS
 62
     7
 10
-288.37236076367037
 20
-124.5021496458626
 30
0.0
 11
-277.77236076367041
 21
-124.5021496458626
 31
0.0
  0
LINE
  5
86C
  8
DATA
  6
CONTINUOUS
 62
     7
 10
-291.03140064379022
 20
-127.5021496458626
 30
0.0
 11
-275.1133208835505
 21
-127.5021496458626
 31
0.0
  0
LINE
  5
86D
  8
DATA
  6
CONTINUOUS
 62
     7
 10
-288.37236076367037
 20
-124.5021496458626
 30
0.0
 11
-288.37236076367037
 21
-127.5021496458626
 31
0.0
  0
LINE
  5
86E
  8
DATA
  6
CONTINUOUS
 62
     7
 10
-277.77236076367041
 20
-124.5021496458626
 30
0.0
 11
-277.77236076367041
 21
-127.5021496458626
 31
0.0
  0
LINE
  5
86F
  8
DATA
  6
CONTINUOUS
 62
     7
 10
-291.03140064379022
 20
-127.5021496458626
 30
0.0
 11
-291.03140064379022
 21
-132.0000000000276
 31
0.0
  0
LINE
  5
870
  8
DATA
  6
CONTINUOUS
 62
     7
 10
-275.1133208835505
 20
-127.5021496458626
 30
0.0
 11
-275.1133208835505
 21
-132.0000000000276
 31
0.0
  0
LINE
  5
871
  8
DATA
  6
CONTINUOUS
 62
     7
 10
-289.98567315378477
 20
-127.5021496458626
 30
0.0
 11
-289.98567315378477
 21
-132.0000000000276
 31
0.0
  0
LINE
  5
872
  8
DATA
  6
CONTINUOUS
 62
     7
 10
-282.02663327366491
 20
-127.5021496458626
 30
0.0
 11
-282.02663327366491
 21
-132.0000000000276
 31
0.0
  0
LINE
  5
873
  8
DATA
  6
CONTINUOUS
 62
     7
 10
-317.12485352469201
 20
-130.5000000000276
 30
0.0
 11
-295.22485352469192
 21
-130.5000000000276
 31
0.0
  0
LINE
  5
874
  8
DATA
  6
CONTINUOUS
 62
     7
 10
-317.12485352469201
 20
-130.5000000000276
 30
0.0
 11
-317.12485352469201
 21
-132.0000000000276
 31
0.0
  0
LINE
  5
875
  8
DATA
  6
CONTINUOUS
 62
     7
 10
-251.824853524692
 20
-130.5000000000276
 30
0.0
 11
-229.92485352469191
 21
-130.5000000000276
 31
0.0
  0
LINE
  5
876
  8
DATA
  6
CONTINUOUS
 62
     7
 10
-251.824853524692
 20
-130.5000000000276
 30
0.0
 11
-251.824853524692
 21
-132.0000000000276
 31
0.0
  0
LINE
  5
877
  8
DATA
  6
CONTINUOUS
 62
     7
 10
-226.924853524692
 20
-130.5000000000276
 30
0.0
 11
-205.02485352469191
 21
-130.5000000000276
 31
0.0
  0
LINE
  5
878
  8
DATA
  6
CONTINUOUS
 62
     7
 10
-226.924853524692
 20
-130.5000000000276
 30
0.0
 11
-226.924853524692
 21
-132.0000000000276
 31
0.0
  0
LINE
  5
879
  8
DATA
  6
CONTINUOUS
 62
     7
 10
-157.92485352469191
 20
-130.5000000000276
 30
0.0
 11
-136.02485352469191
 21
-130.5000000000276
 31
0.0
  0
LINE
  5
87A
  8
DATA
  6
CONTINUOUS
 62
     7
 10
-157.92485352469191
 20
-130.5000000000276
 30
0.0
 11
-157.92485352469191
 21
-132.0000000000276
 31
0.0
  0
LINE
  5
87B
  8
DATA
  6
CONTINUOUS
 62
     7
 10
-73.084973605009552
 20
-130.5000000000276
 30
0.0
 11
-77.272360763670378
 21
-130.5000000000276
 31
0.0
  0
LINE
  5
87C
  8
DATA
  6
CONTINUOUS
 62
     7
 10
-73.084973605009552
 20
-130.5000000000276
 30
0.0
 11
-73.084973605009552
 21
-132.0000000000276
 31
0.0
  0
LINE
  5
87D
  8
DATA
  6
CONTINUOUS
 62
     7
 10
67.395699355770546
 20
-130.5000000000276
 30
0.0
 11
72.6956993557705
 21
-130.5000000000276
 31
0.0
  0
LINE
  5
87E
  8
DATA
  6
CONTINUOUS
 62
     7
 10
67.395699355770546
 20
-130.5000000000276
 30
0.0
 11
67.395699355770546
 21
-132.0000000000276
 31
0.0
  0
LINE
  5
87F
  8
DATA
  6
CONTINUOUS
 62
     7
 10
72.6956993557705
 20
-130.5000000000276
 30
0.0
 11
72.6956993557705
 21
-132.0000000000276
 31
0.0
  0
LINE
  5
880
  8
DATA
  6
CONTINUOUS
 62
     7
 10
-46.569277115048848
 20
-130.8750000000276
 30
0.0
 11
-42.567877115048873
 21
-130.8750000000276
 31
0.0
  0
LINE
  5
881
  8
DATA
  6
CONTINUOUS
 62
     7
 10
-33.20073100164683
 20
-130.8750000000276
 30
0.0
 11
-29.19933100164684
 21
-130.8750000000276
 31
0.0
  0
LINE
  5
882
  8
DATA
  6
CONTINUOUS
 62
     7
 10
-24.709575564330901
 20
-130.8750000000276
 30
0.0
 11
-20.708175564330901
 21
-130.8750000000276
 31
0.0
  0
LINE
  5
883
  8
DATA
  6
CONTINUOUS
 62
     7
 10
-11.341029450928859
 20
-130.8750000000276
 30
0.0
 11
-7.3396294509288671
 21
-130.8750000000276
 31
0.0
  0
LINE
  5
884
  8
DATA
  6
CONTINUOUS
 62
     7
 10
-46.569277115048848
 20
-130.8750000000276
 30
0.0
 11
-46.569277115048848
 21
-132.0000000000276
 31
0.0
  0
LINE
  5
885
  8
DATA
  6
CONTINUOUS
 62
     7
 10
-42.567877115048873
 20
-130.8750000000276
 30
0.0
 11
-42.567877115048873
 21
-132.0000000000276
 31
0.0
  0
LINE
  5
886
  8
DATA
  6
CONTINUOUS
 62
     7
 10
-33.20073100164683
 20
-130.8750000000276
 30
0.0
 11
-33.20073100164683
 21
-132.0000000000276
 31
0.0
  0
LINE
  5
887
  8
DATA
  6
CONTINUOUS
 62
     7
 10
-29.19933100164684
 20
-130.8750000000276
 30
0.0
 11
-29.19933100164684
 21
-132.0000000000276
 31
0.0
  0
LINE
  5
888
  8
DATA
  6
CONTINUOUS
 62
     7
 10
-24.709575564330901
 20
-130.8750000000276
 30
0.0
 11
-24.709575564330901
 21
-132.0000000000276
 31
0.0
  0
LINE
  5
889
  8
DATA
  6
CONTINUOUS
 62
     7
 10
-20.708175564330901
 20
-130.8750000000276
 30
0.0
 11
-20.708175564330901
 21
-132.0000000000276
 31
0.0
  0
LINE
  5
88A
  8
DATA
  6
CONTINUOUS
 62
     7
 10
-11.341029450928859
 20
-130.8750000000276
 30
0.0
 11
-11.341029450928859
 21
-132.0000000000276
 31
0.0
  0
LINE
  5
88B
  8
DATA
  6
CONTINUOUS
 62
     7
 10
-7.3396294509288671
 20
-130.8750000000276
 30
0.0
 11
-7.3396294509288671
 21
-132.0000000000276
 31
0.0
  0
LINE
  5
88C
  8
DATA
  6
CONTINUOUS
 62
     7
 10
-317.12485352469201
 20
-130.5000000000276
 30
0.0
 11
-317.77817463561672
 21
-130.5000000000276
 31
0.0
  0
LINE
  5
88D
  8
DATA
  6
CONTINUOUS
 62
     7
 10
-317.77817463561672
 20
-130.5000000000276
 30
0.0
 11
-317.77817463561672
 21
-132.0000000000276
 31
0.0
  0
LINE
  5
88E
  8
DATA
  6
CONTINUOUS
 62
     7
 10
-298.63779722889291
 20
-130.5000000000276
 30
0.0
 11
-298.63779722889291
 21
-132.0000000000276
 31
0.0
  0
LINE
  5
88F
  8
DATA
  6
CONTINUOUS
 62
     7
 10
-295.22485352469192
 20
-130.5000000000276
 30
0.0
 11
-294.63639722889292
 21
-130.5000000000276
 31
0.0
  0
LINE
  5
890
  8
DATA
  6
CONTINUOUS
 62
     7
 10
-294.63639722889292
 20
-130.5000000000276
 30
0.0
 11
-294.63639722889292
 21
-132.0000000000276
 31
0.0
  0
LINE
  5
891
  8
DATA
  6
CONTINUOUS
 62
     7
 10
-251.824853524692
 20
-130.5000000000276
 30
0.0
 11
-252.42287364507681
 21
-130.5000000000276
 31
0.0
  0
LINE
  5
892
  8
DATA
  6
CONTINUOUS
 62
     7
 10
-252.42287364507681
 20
-130.5000000000276
 30
0.0
 11
-252.42287364507681
 21
-132.0000000000276
 31
0.0
  0
LINE
  5
893
  8
DATA
  6
CONTINUOUS
 62
     7
 10
-233.28249623835319
 20
-130.5000000000276
 30
0.0
 11
-233.28249623835319
 21
-132.0000000000276
 31
0.0
  0
LINE
  5
894
  8
DATA
  6
CONTINUOUS
 62
     7
 10
-229.92485352469191
 20
-130.5000000000276
 30
0.0
 11
-229.2810962383532
 21
-130.5000000000276
 31
0.0
  0
LINE
  5
895
  8
DATA
  6
CONTINUOUS
 62
     7
 10
-229.2810962383532
 20
-130.5000000000276
 30
0.0
 11
-229.2810962383532
 21
-132.0000000000276
 31
0.0
  0
LINE
  5
896
  8
DATA
  6
CONTINUOUS
 62
     7
 10
-226.924853524692
 20
-130.5000000000276
 30
0.0
 11
-227.57324946703221
 21
-130.5000000000276
 31
0.0
  0
LINE
  5
897
  8
DATA
  6
CONTINUOUS
 62
     7
 10
-227.57324946703221
 20
-130.5000000000276
 30
0.0
 11
-227.57324946703221
 21
-132.0000000000276
 31
0.0
  0
LINE
  5
898
  8
DATA
  6
CONTINUOUS
 62
     7
 10
-208.4328720603084
 20
-130.5000000000276
 30
0.0
 11
-208.4328720603084
 21
-132.0000000000276
 31
0.0
  0
LINE
  5
899
  8
DATA
  6
CONTINUOUS
 62
     7
 10
-205.02485352469191
 20
-130.5000000000276
 30
0.0
 11
-204.43147206030849
 21
-130.5000000000276
 31
0.0
  0
LINE
  5
89A
  8
DATA
  6
CONTINUOUS
 62
     7
 10
-204.43147206030849
 20
-130.5000000000276
 30
0.0
 11
-204.43147206030849
 21
-132.0000000000276
 31
0.0
  0
LINE
  5
89B
  8
DATA
  6
CONTINUOUS
 62
     7
 10
-157.92485352469191
 20
-130.5000000000276
 30
0.0
 11
-158.57324946703221
 21
-130.5000000000276
 31
0.0
  0
LINE
  5
89C
  8
DATA
  6
CONTINUOUS
 62
     7
 10
-139.43287206030851
 20
-130.5000000000276
 30
0.0
 11
-139.43287206030851
 21
-132.0000000000276
 31
0.0
  0
LINE
  5
89D
  8
DATA
  6
CONTINUOUS
 62
     7
 10
-158.57324946703221
 20
-130.5000000000276
 30
0.0
 11
-158.57324946703221
 21
-132.0000000000276
 31
0.0
  0
LINE
  5
89E
  8
DATA
  6
CONTINUOUS
 62
     7
 10
-136.02485352469191
 20
-130.5000000000276
 30
0.0
 11
-135.43147206030861
 21
-130.5000000000276
 31
0.0
  0
LINE
  5
89F
  8
DATA
  6
CONTINUOUS
 62
     7
 10
-135.43147206030861
 20
-130.5000000000276
 30
0.0
 11
-135.43147206030861
 21
-132.0000000000276
 31
0.0
  0
POLYLINE
  5
8A0
  8
DATA
  6
CONTINUOUS
 62
     7
 66
     1
 10
0.0
 20
0.0
 30
0.0
  0
VERTEX
  5
FF1
  8
DATA
  6
CONTINUOUS
 62
     7
 10
360.0
 20
-412.96766427230318
 30
0.0
  0
VERTEX
  5
FF2
  8
DATA
  6
CONTINUOUS
 62
     7
 10
360.0
 20
-430.0
 30
0.0
  0
VERTEX
  5
FF3
  8
DATA
  6
CONTINUOUS
 62
     7
 10
220.0
 20
-430.0
 30
0.0
  0
VERTEX
  5
FF4
  8
DATA
  6
CONTINUOUS
 62
     7
 10
220.0
 20
-385.0
 30
0.0
  0
VERTEX
  5
FF5
  8
DATA
  6
CONTINUOUS
 62
     7
 10
360.0
 20
-385.0
 30
0.0
  0
VERTEX
  5
FF6
  8
DATA
  6
CONTINUOUS
 62
     7
 10
360.0
 20
-401.96766427230313
 30
0.0
  0
SEQEND
  5
FF7
  8
DATA
  6
CONTINUOUS
 62
     7
  0
LINE
  5
8A9
  8
DATA
  6
CONTINUOUS
 62
     7
 10
223.0
 20
-430.0
 30
0.0
 11
223.0
 21
-385.0
 31
0.0
  0
LINE
  5
8AA
  8
DATA
  6
CONTINUOUS
 62
     7
 10
360.0
 20
-401.96766427230313
 30
0.0
 11
357.0
 21
-401.96766427230313
 31
0.0
  0
LINE
  5
8AB
  8
DATA
  6
CONTINUOUS
 62
     7
 10
360.0
 20
-412.96766427230318
 30
0.0
 11
357.0
 21
-412.96766427230318
 31
0.0
  0
LINE
  5
8AC
  8
DATA
  6
CONTINUOUS
 62
     7
 10
357.0
 20
-412.96766427230318
 30
0.0
 11
357.0
 21
-401.96766427230313
 31
0.0
  0
POLYLINE
  5
8AD
  8
DATA
  6
CONTINUOUS
 62
     7
 66
     1
 10
0.0
 20
0.0
 30
0.0
 70
   128
  0
VERTEX
  5
FF8
  8
DATA
  6
CONTINUOUS
 62
     7
 10
200.7643567587574
 20
-402.5341420545443
 30
0.0
  0
VERTEX
  5
FF9
  8
DATA
  6
CONTINUOUS
 62
     7
 10
200.71773428349599
 20
-402.7685170545443
 30
0.0
  0
VERTEX
  5
FFA
  8
DATA
  6
CONTINUOUS
 62
     7
 10
200.6725918868143
 20
-403.00289205454442
 30
0.0
  0
VERTEX
  5
FFB
  8
DATA
  6
CONTINUOUS
 62
     7
 10
200.62892956871229
 20
-403.2372670545443
 30
0.0
  0
VERTEX
  5
FFC
  8
DATA
  6
CONTINUOUS
 62
     7
 10
200.58674732918999
 20
-403.4716420545443
 30
0.0
  0
VERTEX
  5
FFD
  8
DATA
  6
CONTINUOUS
 62
     7
 10
200.5460451682475
 20
-403.7060170545443
 30
0.0
  0
VERTEX
  5
FFE
  8
DATA
  6
CONTINUOUS
 62
     7
 10
200.50682308588469
 20
-403.9403920545443
 30
0.0
  0
VERTEX
  5
FFF
  8
DATA
  6
CONTINUOUS
 62
     7
 10
200.4690810821017
 20
-404.17476705454442
 30
0.0
  0
VERTEX
  5
1000
  8
DATA
  6
CONTINUOUS
 62
     7
 10
200.43281915689829
 20
-404.4091420545443
 30
0.0
  0
VERTEX
  5
1001
  8
DATA
  6
CONTINUOUS
 62
     7
 10
200.3980373102747
 20
-404.6435170545443
 30
0.0
  0
VERTEX
  5
1002
  8
DATA
  6
CONTINUOUS
 62
     7
 10
200.36473554223079
 20
-404.8778920545443
 30
0.0
  0
VERTEX
  5
1003
  8
DATA
  6
CONTINUOUS
 62
     7
 10
200.33291385276669
 20
-405.1122670545443
 30
0.0
  0
VERTEX
  5
1004
  8
DATA
  6
CONTINUOUS
 62
     7
 10
200.3025722418823
 20
-405.34664205454442
 30
0.0
  0
VERTEX
  5
1005
  8
DATA
  6
CONTINUOUS
 62
     7
 10
200.27371070957761
 20
-405.5810170545443
 30
0.0
  0
VERTEX
  5
1006
  8
DATA
  6
CONTINUOUS
 62
     7
 10
200.24632925585249
 20
-405.8153920545443
 30
0.0
  0
VERTEX
  5
1007
  8
DATA
  6
CONTINUOUS
 62
     7
 10
200.22042788070729
 20
-406.0497670545443
 30
0.0
  0
VERTEX
  5
1008
  8
DATA
  6
CONTINUOUS
 62
     7
 10
200.1960065841418
 20
-406.2841420545443
 30
0.0
  0
VERTEX
  5
1009
  8
DATA
  6
CONTINUOUS
 62
     7
 10
200.17306536615601
 20
-406.51851705454442
 30
0.0
  0
VERTEX
  5
100A
  8
DATA
  6
CONTINUOUS
 62
     7
 10
200.15160422675001
 20
-406.7528920545443
 30
0.0
  0
VERTEX
  5
100B
  8
DATA
  6
CONTINUOUS
 62
     7
 10
200.13162316592371
 20
-406.9872670545443
 30
0.0
  0
VERTEX
  5
100C
  8
DATA
  6
CONTINUOUS
 62
     7
 10
200.11312218367701
 20
-407.2216420545443
 30
0.0
  0
VERTEX
  5
100D
  8
DATA
  6
CONTINUOUS
 62
     7
 10
200.0961012800102
 20
-407.4560170545443
 30
0.0
  0
VERTEX
  5
100E
  8
DATA
  6
CONTINUOUS
 62
     7
 10
200.08056045492299
 20
-407.69039205454442
 30
0.0
  0
VERTEX
  5
100F
  8
DATA
  6
CONTINUOUS
 62
     7
 10
200.06649970841559
 20
-407.9247670545443
 30
0.0
  0
VERTEX
  5
1010
  8
DATA
  6
CONTINUOUS
 62
     7
 10
200.05391904048801
 20
-408.1591420545443
 30
0.0
  0
VERTEX
  5
1011
  8
DATA
  6
CONTINUOUS
 62
     7
 10
200.04281845113999
 20
-408.3935170545443
 30
0.0
  0
VERTEX
  5
1012
  8
DATA
  6
CONTINUOUS
 62
     7
 10
200.03319794037171
 20
-408.6278920545443
 30
0.0
  0
VERTEX
  5
1013
  8
DATA
  6
CONTINUOUS
 62
     7
 10
200.02505750818321
 20
-408.86226705454442
 30
0.0
  0
VERTEX
  5
1014
  8
DATA
  6
CONTINUOUS
 62
     7
 10
200.0183971545745
 20
-409.0966420545443
 30
0.0
  0
VERTEX
  5
1015
  8
DATA
  6
CONTINUOUS
 62
     7
 10
200.01321687954541
 20
-409.3310170545443
 30
0.0
  0
VERTEX
  5
1016
  8
DATA
  6
CONTINUOUS
 62
     7
 10
200.00951668309611
 20
-409.5653920545443
 30
0.0
  0
VERTEX
  5
1017
  8
DATA
  6
CONTINUOUS
 62
     7
 10
200.00729656522651
 20
-409.7997670545443
 30
0.0
  0
VERTEX
  5
1018
  8
DATA
  6
CONTINUOUS
 62
     7
 10
200.00655652593659
 20
-410.03414205454442
 30
0.0
  0
VERTEX
  5
1019
  8
DATA
  6
CONTINUOUS
 62
     7
 10
200.00729656522651
 20
-410.2685170545443
 30
0.0
  0
VERTEX
  5
101A
  8
DATA
  6
CONTINUOUS
 62
     7
 10
200.00951668309611
 20
-410.5028920545443
 30
0.0
  0
VERTEX
  5
101B
  8
DATA
  6
CONTINUOUS
 62
     7
 10
200.01321687954541
 20
-410.7372670545443
 30
0.0
  0
VERTEX
  5
101C
  8
DATA
  6
CONTINUOUS
 62
     7
 10
200.0183971545745
 20
-410.9716420545443
 30
0.0
  0
VERTEX
  5
101D
  8
DATA
  6
CONTINUOUS
 62
     7
 10
200.02505750818321
 20
-411.20601705454442
 30
0.0
  0
VERTEX
  5
101E
  8
DATA
  6
CONTINUOUS
 62
     7
 10
200.03319794037171
 20
-411.4403920545443
 30
0.0
  0
VERTEX
  5
101F
  8
DATA
  6
CONTINUOUS
 62
     7
 10
200.04281845113999
 20
-411.6747670545443
 30
0.0
  0
VERTEX
  5
1020
  8
DATA
  6
CONTINUOUS
 62
     7
 10
200.05391904048801
 20
-411.9091420545443
 30
0.0
  0
VERTEX
  5
1021
  8
DATA
  6
CONTINUOUS
 62
     7
 10
200.06649970841559
 20
-412.1435170545443
 30
0.0
  0
VERTEX
  5
1022
  8
DATA
  6
CONTINUOUS
 62
     7
 10
200.08056045492299
 20
-412.37789205454442
 30
0.0
  0
VERTEX
  5
1023
  8
DATA
  6
CONTINUOUS
 62
     7
 10
200.0961012800102
 20
-412.6122670545443
 30
0.0
  0
VERTEX
  5
1024
  8
DATA
  6
CONTINUOUS
 62
     7
 10
200.11312218367701
 20
-412.8466420545443
 30
0.0
  0
VERTEX
  5
1025
  8
DATA
  6
CONTINUOUS
 62
     7
 10
200.13162316592371
 20
-413.0810170545443
 30
0.0
  0
VERTEX
  5
1026
  8
DATA
  6
CONTINUOUS
 62
     7
 10
200.15160422675001
 20
-413.3153920545443
 30
0.0
  0
VERTEX
  5
1027
  8
DATA
  6
CONTINUOUS
 62
     7
 10
200.17306536615601
 20
-413.54976705454442
 30
0.0
  0
VERTEX
  5
1028
  8
DATA
  6
CONTINUOUS
 62
     7
 10
200.1960065841418
 20
-413.7841420545443
 30
0.0
  0
VERTEX
  5
1029
  8
DATA
  6
CONTINUOUS
 62
     7
 10
200.22042788070729
 20
-414.0185170545443
 30
0.0
  0
VERTEX
  5
102A
  8
DATA
  6
CONTINUOUS
 62
     7
 10
200.24632925585249
 20
-414.2528920545443
 30
0.0
  0
VERTEX
  5
102B
  8
DATA
  6
CONTINUOUS
 62
     7
 10
200.27371070957761
 20
-414.4872670545443
 30
0.0
  0
VERTEX
  5
102C
  8
DATA
  6
CONTINUOUS
 62
     7
 10
200.3025722418823
 20
-414.72164205454442
 30
0.0
  0
VERTEX
  5
102D
  8
DATA
  6
CONTINUOUS
 62
     7
 10
200.33291385276669
 20
-414.9560170545443
 30
0.0
  0
VERTEX
  5
102E
  8
DATA
  6
CONTINUOUS
 62
     7
 10
200.36473554223079
 20
-415.1903920545443
 30
0.0
  0
VERTEX
  5
102F
  8
DATA
  6
CONTINUOUS
 62
     7
 10
200.3980373102747
 20
-415.4247670545443
 30
0.0
  0
VERTEX
  5
1030
  8
DATA
  6
CONTINUOUS
 62
     7
 10
200.43281915689829
 20
-415.6591420545443
 30
0.0
  0
VERTEX
  5
1031
  8
DATA
  6
CONTINUOUS
 62
     7
 10
200.4690810821017
 20
-415.89351705454442
 30
0.0
  0
VERTEX
  5
1032
  8
DATA
  6
CONTINUOUS
 62
     7
 10
200.50682308588469
 20
-416.1278920545443
 30
0.0
  0
VERTEX
  5
1033
  8
DATA
  6
CONTINUOUS
 62
     7
 10
200.5460451682475
 20
-416.3622670545443
 30
0.0
  0
VERTEX
  5
1034
  8
DATA
  6
CONTINUOUS
 62
     7
 10
200.58674732918999
 20
-416.5966420545443
 30
0.0
  0
VERTEX
  5
1035
  8
DATA
  6
CONTINUOUS
 62
     7
 10
200.62892956871229
 20
-416.8310170545443
 30
0.0
  0
VERTEX
  5
1036
  8
DATA
  6
CONTINUOUS
 62
     7
 10
200.6725918868143
 20
-417.06539205454442
 30
0.0
  0
VERTEX
  5
1037
  8
DATA
  6
CONTINUOUS
 62
     7
 10
200.71773428349599
 20
-417.2997670545443
 30
0.0
  0
VERTEX
  5
1038
  8
DATA
  6
CONTINUOUS
 62
     7
 10
200.7643567587574
 20
-417.5341420545443
 30
0.0
  0
VERTEX
  5
1039
  8
DATA
  6
CONTINUOUS
 62
     7
 10
200.7643567587574
 20
-417.5341420545443
 30
0.0
  0
SEQEND
  5
103A
  8
DATA
  6
CONTINUOUS
 62
     7
  0
LINE
  5
8F1
  8
DATA
  6
CONTINUOUS
 62
     7
 10
200.7643567587574
 20
-402.5341420545443
 30
0.0
 11
212.00655652593659
 21
-402.0341420545443
 31
0.0
  0
LINE
  5
8F2
  8
DATA
  6
CONTINUOUS
 62
     7
 10
200.7643567587574
 20
-417.5341420545443
 30
0.0
 11
212.00655652593659
 21
-418.03414205454442
 31
0.0
  0
POLYLINE
  5
8F3
  8
DATA
  6
CONTINUOUS
 62
     7
 66
     1
 10
0.0
 20
0.0
 30
0.0
 70
   128
  0
VERTEX
  5
103B
  8
DATA
  6
CONTINUOUS
 62
     7
 10
212.00655652593659
 20
-402.0341420545443
 30
0.0
  0
VERTEX
  5
103C
  8
DATA
  6
CONTINUOUS
 62
     7
 10
212.05824088751351
 20
-402.0186342703492
 30
0.0
  0
VERTEX
  5
103D
  8
DATA
  6
CONTINUOUS
 62
     7
 10
212.10977044518799
 20
-402.00302615089879
 30
0.0
  0
VERTEX
  5
103E
  8
DATA
  6
CONTINUOUS
 62
     7
 10
212.1611451989601
 20
-401.98731769619332
 30
0.0
  0
VERTEX
  5
103F
  8
DATA
  6
CONTINUOUS
 62
     7
 10
212.21236514883
 20
-401.97150890623271
 30
0.0
  0
VERTEX
  5
1040
  8
DATA
  6
CONTINUOUS
 62
     7
 10
212.2634302947975
 20
-401.95559978101687
 30
0.0
  0
VERTEX
  5
1041
  8
DATA
  6
CONTINUOUS
 62
     7
 10
212.31434063686271
 20
-401.9395903205459
 30
0.0
  0
VERTEX
  5
1042
  8
DATA
  6
CONTINUOUS
 62
     7
 10
212.3650961750256
 20
-401.92348052481969
 30
0.0
  0
VERTEX
  5
1043
  8
DATA
  6
CONTINUOUS
 62
     7
 10
212.41569690928611
 20
-401.90727039383842
 30
0.0
  0
VERTEX
  5
1044
  8
DATA
  6
CONTINUOUS
 62
     7
 10
212.46614283964419
 20
-401.89095992760201
 30
0.0
  0
VERTEX
  5
1045
  8
DATA
  6
CONTINUOUS
 62
     7
 10
212.5164339661001
 20
-401.87454912611048
 30
0.0
  0
VERTEX
  5
1046
  8
DATA
  6
CONTINUOUS
 62
     7
 10
212.56657028865359
 20
-401.85803798936371
 30
0.0
  0
VERTEX
  5
1047
  8
DATA
  6
CONTINUOUS
 62
     7
 10
212.6165518073048
 20
-401.84142651736181
 30
0.0
  0
VERTEX
  5
1048
  8
DATA
  6
CONTINUOUS
 62
     7
 10
212.66637852205369
 20
-401.82471471010479
 30
0.0
  0
VERTEX
  5
1049
  8
DATA
  6
CONTINUOUS
 62
     7
 10
212.7160504329002
 20
-401.80790256759252
 30
0.0
  0
VERTEX
  5
104A
  8
DATA
  6
CONTINUOUS
 62
     7
 10
212.7655675398444
 20
-401.7909900898253
 30
0.0
  0
VERTEX
  5
104B
  8
DATA
  6
CONTINUOUS
 62
     7
 10
212.8149298428863
 20
-401.77397727680273
 30
0.0
  0
VERTEX
  5
104C
  8
DATA
  6
CONTINUOUS
 62
     7
 10
212.8641373420258
 20
-401.75686412852502
 30
0.0
  0
VERTEX
  5
104D
  8
DATA
  6
CONTINUOUS
 62
     7
 10
212.91319003726301
 20
-401.73965064499208
 30
0.0
  0
VERTEX
  5
104E
  8
DATA
  6
CONTINUOUS
 62
     7
 10
212.9620879285979
 20
-401.72233682620418
 30
0.0
  0
VERTEX
  5
104F
  8
DATA
  6
CONTINUOUS
 62
     7
 10
213.01083101603041
 20
-401.7049226721611
 30
0.0
  0
VERTEX
  5
1050
  8
DATA
  6
CONTINUOUS
 62
     7
 10
213.0594192995606
 20
-401.68740818286273
 30
0.0
  0
VERTEX
  5
1051
  8
DATA
  6
CONTINUOUS
 62
     7
 10
213.10785277918851
 20
-401.66979335830928
 30
0.0
  0
VERTEX
  5
1052
  8
DATA
  6
CONTINUOUS
 62
     7
 10
213.15613145491409
 20
-401.65207819850082
 30
0.0
  0
VERTEX
  5
1053
  8
DATA
  6
CONTINUOUS
 62
     7
 10
213.2042553267373
 20
-401.63426270343689
 30
0.0
  0
VERTEX
  5
1054
  8
DATA
  6
CONTINUOUS
 62
     7
 10
213.2522243946581
 20
-401.616346873118
 30
0.0
  0
VERTEX
  5
1055
  8
DATA
  6
CONTINUOUS
 62
     7
 10
213.3000386586767
 20
-401.59833070754399
 30
0.0
  0
VERTEX
  5
1056
  8
DATA
  6
CONTINUOUS
 62
     7
 10
213.34769811879301
 20
-401.5802142067148
 30
0.0
  0
VERTEX
  5
1057
  8
DATA
  6
CONTINUOUS
 62
     7
 10
213.39520277500691
 20
-401.56199737063042
 30
0.0
  0
VERTEX
  5
1058
  8
DATA
  6
CONTINUOUS
 62
     7
 10
213.44255262731841
 20
-401.5436801992908
 30
0.0
  0
VERTEX
  5
1059
  8
DATA
  6
CONTINUOUS
 62
     7
 10
213.4897476757277
 20
-401.52526269269617
 30
0.0
  0
VERTEX
  5
105A
  8
DATA
  6
CONTINUOUS
 62
     7
 10
213.53678792023459
 20
-401.50674485084642
 30
0.0
  0
VERTEX
  5
105B
  8
DATA
  6
CONTINUOUS
 62
     7
 10
213.58367336083921
 20
-401.48812667374131
 30
0.0
  0
VERTEX
  5
105C
  8
DATA
  6
CONTINUOUS
 62
     7
 10
213.63040399754129
 20
-401.46940816138118
 30
0.0
  0
VERTEX
  5
105D
  8
DATA
  6
CONTINUOUS
 62
     7
 10
213.6769798303412
 20
-401.4505893137657
 30
0.0
  0
VERTEX
  5
105E
  8
DATA
  6
CONTINUOUS
 62
     7
 10
213.72340085923889
 20
-401.43167013089538
 30
0.0
  0
VERTEX
  5
105F
  8
DATA
  6
CONTINUOUS
 62
     7
 10
213.7696670842341
 20
-401.41265061276982
 30
0.0
  0
VERTEX
  5
1060
  8
DATA
  6
CONTINUOUS
 62
     7
 10
213.81577850532699
 20
-401.39353075938891
 30
0.0
  0
VERTEX
  5
1061
  8
DATA
  6
CONTINUOUS
 62
     7
 10
213.86173512251759
 20
-401.3743105707531
 30
0.0
  0
VERTEX
  5
1062
  8
DATA
  6
CONTINUOUS
 62
     7
 10
213.90753693580589
 20
-401.35499004686199
 30
0.0
  0
VERTEX
  5
1063
  8
DATA
  6
CONTINUOUS
 62
     7
 10
213.9531839451918
 20
-401.33556918771569
 30
0.0
  0
VERTEX
  5
1064
  8
DATA
  6
CONTINUOUS
 62
     7
 10
213.99867615067529
 20
-401.31604799331433
 30
0.0
  0
VERTEX
  5
1065
  8
DATA
  6
CONTINUOUS
 62
     7
 10
214.04401355225659
 20
-401.29642646365772
 30
0.0
  0
VERTEX
  5
1066
  8
DATA
  6
CONTINUOUS
 62
     7
 10
214.08919614993559
 20
-401.27670459874599
 30
0.0
  0
VERTEX
  5
1067
  8
DATA
  6
CONTINUOUS
 62
     7
 10
214.1342239437121
 20
-401.25688239857919
 30
0.0
  0
VERTEX
  5
1068
  8
DATA
  6
CONTINUOUS
 62
     7
 10
214.17909693358641
 20
-401.23695986315721
 30
0.0
  0
VERTEX
  5
1069
  8
DATA
  6
CONTINUOUS
 62
     7
 10
214.2238151195584
 20
-401.21693699247999
 30
0.0
  0
VERTEX
  5
106A
  8
DATA
  6
CONTINUOUS
 62
     7
 10
214.26837850162789
 20
-401.19681378654758
 30
0.0
  0
VERTEX
  5
106B
  8
DATA
  6
CONTINUOUS
 62
     7
 10
214.31278707979521
 20
-401.17659024536022
 30
0.0
  0
VERTEX
  5
106C
  8
DATA
  6
CONTINUOUS
 62
     7
 10
214.35704085406019
 20
-401.15626636891761
 30
0.0
  0
VERTEX
  5
106D
  8
DATA
  6
CONTINUOUS
 62
     7
 10
214.40113982442281
 20
-401.13584215721983
 30
0.0
  0
VERTEX
  5
106E
  8
DATA
  6
CONTINUOUS
 62
     7
 10
214.44508399088301
 20
-401.1153176102668
 30
0.0
  0
VERTEX
  5
106F
  8
DATA
  6
CONTINUOUS
 62
     7
 10
214.48887335344099
 20
-401.0946927280587
 30
0.0
  0
VERTEX
  5
1070
  8
DATA
  6
CONTINUOUS
 62
     7
 10
214.53250791209661
 20
-401.07396751059542
 30
0.0
  0
VERTEX
  5
1071
  8
DATA
  6
CONTINUOUS
 62
     7
 10
214.5759876668499
 20
-401.0531419578769
 30
0.0
  0
VERTEX
  5
1072
  8
DATA
  6
CONTINUOUS
 62
     7
 10
214.6193126177009
 20
-401.03221606990343
 30
0.0
  0
VERTEX
  5
1073
  8
DATA
  6
CONTINUOUS
 62
     7
 10
214.66248276464941
 20
-401.01118984667471
 30
0.0
  0
VERTEX
  5
1074
  8
DATA
  6
CONTINUOUS
 62
     7
 10
214.7054981076958
 20
-400.99006328819081
 30
0.0
  0
VERTEX
  5
1075
  8
DATA
  6
CONTINUOUS
 62
     7
 10
214.7483586468397
 20
-400.96883639445173
 30
0.0
  0
VERTEX
  5
1076
  8
DATA
  6
CONTINUOUS
 62
     7
 10
214.79106438208129
 20
-400.94750916545757
 30
0.0
  0
VERTEX
  5
1077
  8
DATA
  6
CONTINUOUS
 62
     7
 10
214.83361531342061
 20
-400.92608160120818
 30
0.0
  0
VERTEX
  5
1078
  8
DATA
  6
CONTINUOUS
 62
     7
 10
214.87601144085761
 20
-400.90455370170372
 30
0.0
  0
VERTEX
  5
1079
  8
DATA
  6
CONTINUOUS
 62
     7
 10
214.91825276439221
 20
-400.88292546694402
 30
0.0
  0
VERTEX
  5
107A
  8
DATA
  6
CONTINUOUS
 62
     7
 10
214.9603392840246
 20
-400.86119689692919
 30
0.0
  0
VERTEX
  5
107B
  8
DATA
  6
CONTINUOUS
 62
     7
 10
215.0022709997545
 20
-400.83936799165917
 30
0.0
  0
VERTEX
  5
107C
  8
DATA
  6
CONTINUOUS
 62
     7
 10
215.0022709997545
 20
-400.83936799165917
 30
0.0
  0
SEQEND
  5
107D
  8
DATA
  6
CONTINUOUS
 62
     7
  0
POLYLINE
  5
937
  8
DATA
  6
CONTINUOUS
 62
     7
 66
     1
 10
0.0
 20
0.0
 30
0.0
 70
   128
  0
VERTEX
  5
107E
  8
DATA
  6
CONTINUOUS
 62
     7
 10
212.00655652593659
 20
-418.03414205454442
 30
0.0
  0
VERTEX
  5
107F
  8
DATA
  6
CONTINUOUS
 62
     7
 10
212.17317792897879
 20
-418.0846669568881
 30
0.0
  0
VERTEX
  5
1080
  8
DATA
  6
CONTINUOUS
 62
     7
 10
212.338179623554
 20
-418.13624166391941
 30
0.0
  0
VERTEX
  5
1081
  8
DATA
  6
CONTINUOUS
 62
     7
 10
212.50156160966219
 20
-418.18886617563811
 30
0.0
  0
VERTEX
  5
1082
  8
DATA
  6
CONTINUOUS
 62
     7
 10
212.66332388730359
 20
-418.2425404920445
 30
0.0
  0
VERTEX
  5
1083
  8
DATA
  6
CONTINUOUS
 62
     7
 10
212.8234664564778
 20
-418.29726461313822
 30
0.0
  0
VERTEX
  5
1084
  8
DATA
  6
CONTINUOUS
 62
     7
 10
212.98198931718511
 20
-418.35303853891941
 30
0.0
  0
VERTEX
  5
1085
  8
DATA
  6
CONTINUOUS
 62
     7
 10
213.1388924694256
 20
-418.4098622693881
 30
0.0
  0
VERTEX
  5
1086
  8
DATA
  6
CONTINUOUS
 62
     7
 10
213.2941759131989
 20
-418.4677358045443
 30
0.0
  0
VERTEX
  5
1087
  8
DATA
  6
CONTINUOUS
 62
     7
 10
213.44783964850529
 20
-418.52665914438808
 30
0.0
  0
VERTEX
  5
1088
  8
DATA
  6
CONTINUOUS
 62
     7
 10
213.59988367534481
 20
-418.5866322889193
 30
0.0
  0
VERTEX
  5
1089
  8
DATA
  6
CONTINUOUS
 62
     7
 10
213.75030799371731
 20
-418.64765523813821
 30
0.0
  0
VERTEX
  5
108A
  8
DATA
  6
CONTINUOUS
 62
     7
 10
213.8991126036228
 20
-418.70972799204429
 30
0.0
  0
VERTEX
  5
108B
  8
DATA
  6
CONTINUOUS
 62
     7
 10
214.0462975050614
 20
-418.77285055063822
 30
0.0
  0
VERTEX
  5
108C
  8
DATA
  6
CONTINUOUS
 62
     7
 10
214.19186269803299
 20
-418.83702291391933
 30
0.0
  0
VERTEX
  5
108D
  8
DATA
  6
CONTINUOUS
 62
     7
 10
214.33580818253751
 20
-418.90224508188822
 30
0.0
  0
VERTEX
  5
108E
  8
DATA
  6
CONTINUOUS
 62
     7
 10
214.47813395857531
 20
-418.96851705454429
 30
0.0
  0
VERTEX
  5
108F
  8
DATA
  6
CONTINUOUS
 62
     7
 10
214.61884002614599
 20
-419.03583883188821
 30
0.0
  0
VERTEX
  5
1090
  8
DATA
  6
CONTINUOUS
 62
     7
 10
214.7579263852497
 20
-419.1042104139193
 30
0.0
  0
VERTEX
  5
1091
  8
DATA
  6
CONTINUOUS
 62
     7
 10
214.89539303588651
 20
-419.17363180063808
 30
0.0
  0
VERTEX
  5
1092
  8
DATA
  6
CONTINUOUS
 62
     7
 10
215.03123997805619
 20
-419.2441029920443
 30
0.0
  0
VERTEX
  5
1093
  8
DATA
  6
CONTINUOUS
 62
     7
 10
215.16546721175899
 20
-419.31562398813821
 30
0.0
  0
VERTEX
  5
1094
  8
DATA
  6
CONTINUOUS
 62
     7
 10
215.29807473699481
 20
-419.38819478891941
 30
0.0
  0
VERTEX
  5
1095
  8
DATA
  6
CONTINUOUS
 62
     7
 10
215.4290625537638
 20
-419.46181539438822
 30
0.0
  0
VERTEX
  5
1096
  8
DATA
  6
CONTINUOUS
 62
     7
 10
215.55843066206569
 20
-419.5364858045445
 30
0.0
  0
VERTEX
  5
1097
  8
DATA
  6
CONTINUOUS
 62
     7
 10
215.6861790619007
 20
-419.61220601938822
 30
0.0
  0
VERTEX
  5
1098
  8
DATA
  6
CONTINUOUS
 62
     7
 10
215.8123077532687
 20
-419.68897603891941
 30
0.0
  0
VERTEX
  5
1099
  8
DATA
  6
CONTINUOUS
 62
     7
 10
215.9368167361697
 20
-419.76679586313821
 30
0.0
  0
VERTEX
  5
109A
  8
DATA
  6
CONTINUOUS
 62
     7
 10
216.05970601060369
 20
-419.8456654920443
 30
0.0
  0
VERTEX
  5
109B
  8
DATA
  6
CONTINUOUS
 62
     7
 10
216.18097557657089
 20
-419.92558492563808
 30
0.0
  0
VERTEX
  5
109C
  8
DATA
  6
CONTINUOUS
 62
     7
 10
216.30062543407101
 20
-420.00655416391947
 30
0.0
  0
VERTEX
  5
109D
  8
DATA
  6
CONTINUOUS
 62
     7
 10
216.4186555831042
 20
-420.08857320688821
 30
0.0
  0
VERTEX
  5
109E
  8
DATA
  6
CONTINUOUS
 62
     7
 10
216.53506602367031
 20
-420.17164205454441
 30
0.0
  0
VERTEX
  5
109F
  8
DATA
  6
CONTINUOUS
 62
     7
 10
216.64985675576949
 20
-420.25576070688811
 30
0.0
  0
VERTEX
  5
10A0
  8
DATA
  6
CONTINUOUS
 62
     7
 10
216.7630277794018
 20
-420.34092916391938
 30
0.0
  0
VERTEX
  5
10A1
  8
DATA
  6
CONTINUOUS
 62
     7
 10
216.87457909456711
 20
-420.42714742563822
 30
0.0
  0
VERTEX
  5
10A2
  8
DATA
  6
CONTINUOUS
 62
     7
 10
216.98451070126541
 20
-420.51441549204452
 30
0.0
  0
VERTEX
  5
10A3
  8
DATA
  6
CONTINUOUS
 62
     7
 10
217.0928225994968
 20
-420.60273336313821
 30
0.0
  0
VERTEX
  5
10A4
  8
DATA
  6
CONTINUOUS
 62
     7
 10
217.19951478926109
 20
-420.69210103891942
 30
0.0
  0
VERTEX
  5
10A5
  8
DATA
  6
CONTINUOUS
 62
     7
 10
217.30458727055861
 20
-420.78251851938819
 30
0.0
  0
VERTEX
  5
10A6
  8
DATA
  6
CONTINUOUS
 62
     7
 10
217.40804004338901
 20
-420.87398580454447
 30
0.0
  0
VERTEX
  5
10A7
  8
DATA
  6
CONTINUOUS
 62
     7
 10
217.5098731077525
 20
-420.96650289438821
 30
0.0
  0
VERTEX
  5
10A8
  8
DATA
  6
CONTINUOUS
 62
     7
 10
217.610086463649
 20
-421.06006978891941
 30
0.0
  0
VERTEX
  5
10A9
  8
DATA
  6
CONTINUOUS
 62
     7
 10
217.70868011107859
 20
-421.15468648813822
 30
0.0
  0
VERTEX
  5
10AA
  8
DATA
  6
CONTINUOUS
 62
     7
 10
217.8056540500412
 20
-421.2503529920445
 30
0.0
  0
VERTEX
  5
10AB
  8
DATA
  6
CONTINUOUS
 62
     7
 10
217.90100828053679
 20
-421.34706930063822
 30
0.0
  0
VERTEX
  5
10AC
  8
DATA
  6
CONTINUOUS
 62
     7
 10
217.99474280256541
 20
-421.44483541391941
 30
0.0
  0
VERTEX
  5
10AD
  8
DATA
  6
CONTINUOUS
 62
     7
 10
218.08685761612711
 20
-421.54365133188821
 30
0.0
  0
VERTEX
  5
10AE
  8
DATA
  6
CONTINUOUS
 62
     7
 10
218.17735272122181
 20
-421.6435170545443
 30
0.0
  0
VERTEX
  5
10AF
  8
DATA
  6
CONTINUOUS
 62
     7
 10
218.26622811784961
 20
-421.74443258188808
 30
0.0
  0
VERTEX
  5
10B0
  8
DATA
  6
CONTINUOUS
 62
     7
 10
218.35348380601039
 20
-421.8463979139193
 30
0.0
  0
VERTEX
  5
10B1
  8
DATA
  6
CONTINUOUS
 62
     7
 10
218.43911978570409
 20
-421.9494130506381
 30
0.0
  0
VERTEX
  5
10B2
  8
DATA
  6
CONTINUOUS
 62
     7
 10
218.52313605693089
 20
-422.05347799204429
 30
0.0
  0
VERTEX
  5
10B3
  8
DATA
  6
CONTINUOUS
 62
     7
 10
218.6055326196909
 20
-422.15859273813822
 30
0.0
  0
VERTEX
  5
10B4
  8
DATA
  6
CONTINUOUS
 62
     7
 10
218.6863094739837
 20
-422.26475728891938
 30
0.0
  0
VERTEX
  5
10B5
  8
DATA
  6
CONTINUOUS
 62
     7
 10
218.7654666198097
 20
-422.37197164438811
 30
0.0
  0
VERTEX
  5
10B6
  8
DATA
  6
CONTINUOUS
 62
     7
 10
218.8430040571688
 20
-422.48023580454452
 30
0.0
  0
VERTEX
  5
10B7
  8
DATA
  6
CONTINUOUS
 62
     7
 10
218.91892178606079
 20
-422.58954976938821
 30
0.0
  0
VERTEX
  5
10B8
  8
DATA
  6
CONTINUOUS
 62
     7
 10
218.9932198064858
 20
-422.69991353891947
 30
0.0
  0
VERTEX
  5
10B9
  8
DATA
  6
CONTINUOUS
 62
     7
 10
219.0658981184439
 20
-422.81132711313808
 30
0.0
  0
VERTEX
  5
10BA
  8
DATA
  6
CONTINUOUS
 62
     7
 10
219.13695672193501
 20
-422.9237904920443
 30
0.0
  0
VERTEX
  5
10BB
  8
DATA
  6
CONTINUOUS
 62
     7
 10
219.2063956169591
 20
-423.03730367563821
 30
0.0
  0
VERTEX
  5
10BC
  8
DATA
  6
CONTINUOUS
 62
     7
 10
219.27421480351629
 20
-423.15186666391941
 30
0.0
  0
VERTEX
  5
10BD
  8
DATA
  6
CONTINUOUS
 62
     7
 10
219.34041428160651
 20
-423.26747945688822
 30
0.0
  0
VERTEX
  5
10BE
  8
DATA
  6
CONTINUOUS
 62
     7
 10
219.40499405122969
 20
-423.38414205454438
 30
0.0
  0
VERTEX
  5
10BF
  8
DATA
  6
CONTINUOUS
 62
     7
 10
219.40499405122969
 20
-423.38414205454438
 30
0.0
  0
SEQEND
  5
10C0
  8
DATA
  6
CONTINUOUS
 62
     7
  0
LINE
  5
97B
  8
DATA
  6
CONTINUOUS
 62
     7
 10
220.0
 20
-396.6841420545444
 30
0.0
 11
220.00499405122969
 21
-396.6841420545444
 31
0.0
  0
LINE
  5
97C
  8
DATA
  6
CONTINUOUS
 62
     7
 10
219.40499405122969
 20
-423.38414205454438
 30
0.0
 11
220.00499405122969
 21
-423.38414205454438
 31
0.0
  0
LINE
  5
97D
  8
DATA
  6
CONTINUOUS
 62
     7
 10
218.0022777855072
 20
-396.47996533031488
 30
0.0
 11
220.0
 21
-396.47996533031488
 31
0.0
  0
LINE
  5
97E
  8
DATA
  6
CONTINUOUS
 62
     7
 10
218.0022777855072
 20
-417.47996533031483
 30
0.0
 11
220.0
 21
-417.47996533031483
 31
0.0
  0
LINE
  5
97F
  8
DATA
  6
CONTINUOUS
 62
     7
 10
218.0022777855072
 20
-417.47996533031483
 30
0.0
 11
218.0022777855072
 21
-396.47996533031488
 31
0.0
  0
POLYLINE
  5
980
  8
DATA
  6
CONTINUOUS
 62
     7
 66
     1
 10
0.0
 20
0.0
 30
0.0
 70
   128
  0
VERTEX
  5
10C1
  8
DATA
  6
CONTINUOUS
 62
     7
 10
218.0022777855072
 20
-398.92996533031487
 30
0.0
  0
VERTEX
  5
10C2
  8
DATA
  6
CONTINUOUS
 62
     7
 10
217.9368438828416
 20
-398.944312549036
 30
0.0
  0
VERTEX
  5
10C3
  8
DATA
  6
CONTINUOUS
 62
     7
 10
217.87199915168921
 20
-398.95888388118522
 30
0.0
  0
VERTEX
  5
10C4
  8
DATA
  6
CONTINUOUS
 62
     7
 10
217.80774359205
 20
-398.9736793267632
 30
0.0
  0
VERTEX
  5
10C5
  8
DATA
  6
CONTINUOUS
 62
     7
 10
217.74407720392401
 20
-398.98869888576911
 30
0.0
  0
VERTEX
  5
10C6
  8
DATA
  6
CONTINUOUS
 62
     7
 10
217.6809999873112
 20
-399.00394255820368
 30
0.0
  0
VERTEX
  5
10C7
  8
DATA
  6
CONTINUOUS
 62
     7
 10
217.6185119422116
 20
-399.01941034406627
 30
0.0
  0
VERTEX
  5
10C8
  8
DATA
  6
CONTINUOUS
 62
     7
 10
217.5566130686251
 20
-399.03510224335741
 30
0.0
  0
VERTEX
  5
10C9
  8
DATA
  6
CONTINUOUS
 62
     7
 10
217.49530336655189
 20
-399.05101825607682
 30
0.0
  0
VERTEX
  5
10CA
  8
DATA
  6
CONTINUOUS
 62
     7
 10
217.4345828359917
 20
-399.0671583822247
 30
0.0
  0
VERTEX
  5
10CB
  8
DATA
  6
CONTINUOUS
 62
     7
 10
217.3744514769449
 20
-399.0835226218008
 30
0.0
  0
VERTEX
  5
10CC
  8
DATA
  6
CONTINUOUS
 62
     7
 10
217.31490928941119
 20
-399.1001109748052
 30
0.0
  0
VERTEX
  5
10CD
  8
DATA
  6
CONTINUOUS
 62
     7
 10
217.25595627339081
 20
-399.11692344123799
 30
0.0
  0
VERTEX
  5
10CE
  8
DATA
  6
CONTINUOUS
 62
     7
 10
217.1975924288835
 20
-399.13396002109909
 30
0.0
  0
VERTEX
  5
10CF
  8
DATA
  6
CONTINUOUS
 62
     7
 10
217.1398177558894
 20
-399.15122071438873
 30
0.0
  0
VERTEX
  5
10D0
  8
DATA
  6
CONTINUOUS
 62
     7
 10
217.08263225440859
 20
-399.16870552110652
 30
0.0
  0
VERTEX
  5
10D1
  8
DATA
  6
CONTINUOUS
 62
     7
 10
217.02603592444089
 20
-399.18641444125262
 30
0.0
  0
VERTEX
  5
10D2
  8
DATA
  6
CONTINUOUS
 62
     7
 10
216.9700287659864
 20
-399.20434747482722
 30
0.0
  0
VERTEX
  5
10D3
  8
DATA
  6
CONTINUOUS
 62
     7
 10
216.91461077904501
 20
-399.22250462183001
 30
0.0
  0
VERTEX
  5
10D4
  8
DATA
  6
CONTINUOUS
 62
     7
 10
216.8597819636168
 20
-399.2408858822613
 30
0.0
  0
VERTEX
  5
10D5
  8
DATA
  6
CONTINUOUS
 62
     7
 10
216.805542319702
 20
-399.25949125612078
 30
0.0
  0
VERTEX
  5
10D6
  8
DATA
  6
CONTINUOUS
 62
     7
 10
216.7518918473003
 20
-399.27832074340859
 30
0.0
  0
VERTEX
  5
10D7
  8
DATA
  6
CONTINUOUS
 62
     7
 10
216.6988305464117
 20
-399.29737434412499
 30
0.0
  0
VERTEX
  5
10D8
  8
DATA
  6
CONTINUOUS
 62
     7
 10
216.6463584170364
 20
-399.31665205826943
 30
0.0
  0
VERTEX
  5
10D9
  8
DATA
  6
CONTINUOUS
 62
     7
 10
216.5944754591743
 20
-399.33615388584229
 30
0.0
  0
VERTEX
  5
10DA
  8
DATA
  6
CONTINUOUS
 62
     7
 10
216.54318167282531
 20
-399.35587982684359
 30
0.0
  0
VERTEX
  5
10DB
  8
DATA
  6
CONTINUOUS
 62
     7
 10
216.49247705798959
 20
-399.37582988127321
 30
0.0
  0
VERTEX
  5
10DC
  8
DATA
  6
CONTINUOUS
 62
     7
 10
216.44236161466699
 20
-399.39600404913119
 30
0.0
  0
VERTEX
  5
10DD
  8
DATA
  6
CONTINUOUS
 62
     7
 10
216.39283534285761
 20
-399.41640233041738
 30
0.0
  0
VERTEX
  5
10DE
  8
DATA
  6
CONTINUOUS
 62
     7
 10
216.34389824256149
 20
-399.43702472513212
 30
0.0
  0
VERTEX
  5
10DF
  8
DATA
  6
CONTINUOUS
 62
     7
 10
216.29555031377839
 20
-399.45787123327511
 30
0.0
  0
VERTEX
  5
10E0
  8
DATA
  6
CONTINUOUS
 62
     7
 10
216.2477915565087
 20
-399.47894185484643
 30
0.0
  0
VERTEX
  5
10E1
  8
DATA
  6
CONTINUOUS
 62
     7
 10
216.20062197075211
 20
-399.50023658984588
 30
0.0
  0
VERTEX
  5
10E2
  8
DATA
  6
CONTINUOUS
 62
     7
 10
216.1540415565087
 20
-399.52175543827389
 30
0.0
  0
VERTEX
  5
10E3
  8
DATA
  6
CONTINUOUS
 62
     7
 10
216.10805031377839
 20
-399.54349840013032
 30
0.0
  0
VERTEX
  5
10E4
  8
DATA
  6
CONTINUOUS
 62
     7
 10
216.06264824256149
 20
-399.56546547541512
 30
0.0
  0
VERTEX
  5
10E5
  8
DATA
  6
CONTINUOUS
 62
     7
 10
216.01783534285761
 20
-399.58765666412802
 30
0.0
  0
VERTEX
  5
10E6
  8
DATA
  6
CONTINUOUS
 62
     7
 10
215.97361161466699
 20
-399.61007196626952
 30
0.0
  0
VERTEX
  5
10E7
  8
DATA
  6
CONTINUOUS
 62
     7
 10
215.92997705798959
 20
-399.63271138183921
 30
0.0
  0
VERTEX
  5
10E8
  8
DATA
  6
CONTINUOUS
 62
     7
 10
215.88693167282531
 20
-399.65557491083717
 30
0.0
  0
VERTEX
  5
10E9
  8
DATA
  6
CONTINUOUS
 62
     7
 10
215.8444754591743
 20
-399.67866255326362
 30
0.0
  0
VERTEX
  5
10EA
  8
DATA
  6
CONTINUOUS
 62
     7
 10
215.8026084170364
 20
-399.70197430911838
 30
0.0
  0
VERTEX
  5
10EB
  8
DATA
  6
CONTINUOUS
 62
     7
 10
215.76133054641181
 20
-399.72551017840141
 30
0.0
  0
VERTEX
  5
10EC
  8
DATA
  6
CONTINUOUS
 62
     7
 10
215.7206418473003
 20
-399.74927016111292
 30
0.0
  0
VERTEX
  5
10ED
  8
DATA
  6
CONTINUOUS
 62
     7
 10
215.680542319702
 20
-399.77325425725269
 30
0.0
  0
VERTEX
  5
10EE
  8
DATA
  6
CONTINUOUS
 62
     7
 10
215.64103196361691
 20
-399.79746246682078
 30
0.0
  0
VERTEX
  5
10EF
  8
DATA
  6
CONTINUOUS
 62
     7
 10
215.60211077904501
 20
-399.82189478981729
 30
0.0
  0
VERTEX
  5
10F0
  8
DATA
  6
CONTINUOUS
 62
     7
 10
215.5637787659864
 20
-399.84655122624201
 30
0.0
  0
VERTEX
  5
10F1
  8
DATA
  6
CONTINUOUS
 62
     7
 10
215.52603592444089
 20
-399.87143177609522
 30
0.0
  0
VERTEX
  5
10F2
  8
DATA
  6
CONTINUOUS
 62
     7
 10
215.48888225440859
 20
-399.89653643937658
 30
0.0
  0
VERTEX
  5
10F3
  8
DATA
  6
CONTINUOUS
 62
     7
 10
215.4523177558894
 20
-399.92186521608647
 30
0.0
  0
VERTEX
  5
10F4
  8
DATA
  6
CONTINUOUS
 62
     7
 10
215.4163424288835
 20
-399.94741810622457
 30
0.0
  0
VERTEX
  5
10F5
  8
DATA
  6
CONTINUOUS
 62
     7
 10
215.38095627339081
 20
-399.97319510979122
 30
0.0
  0
VERTEX
  5
10F6
  8
DATA
  6
CONTINUOUS
 62
     7
 10
215.34615928941119
 20
-399.99919622678601
 30
0.0
  0
VERTEX
  5
10F7
  8
DATA
  6
CONTINUOUS
 62
     7
 10
215.3119514769449
 20
-400.02542145720912
 30
0.0
  0
VERTEX
  5
10F8
  8
DATA
  6
CONTINUOUS
 62
     7
 10
215.2783328359917
 20
-400.05187080106072
 30
0.0
  0
VERTEX
  5
10F9
  8
DATA
  6
CONTINUOUS
 62
     7
 10
215.24530336655189
 20
-400.07854425834051
 30
0.0
  0
VERTEX
  5
10FA
  8
DATA
  6
CONTINUOUS
 62
     7
 10
215.2128630686251
 20
-400.1054418290488
 30
0.0
  0
VERTEX
  5
10FB
  8
DATA
  6
CONTINUOUS
 62
     7
 10
215.18101194221151
 20
-400.13256351318529
 30
0.0
  0
VERTEX
  5
10FC
  8
DATA
  6
CONTINUOUS
 62
     7
 10
215.1497499873112
 20
-400.15990931075021
 30
0.0
  0
VERTEX
  5
10FD
  8
DATA
  6
CONTINUOUS
 62
     7
 10
215.11907720392401
 20
-400.18747922174362
 30
0.0
  0
VERTEX
  5
10FE
  8
DATA
  6
CONTINUOUS
 62
     7
 10
215.08899359205
 20
-400.21527324616511
 30
0.0
  0
VERTEX
  5
10FF
  8
DATA
  6
CONTINUOUS
 62
     7
 10
215.05949915168921
 20
-400.24329138401498
 30
0.0
  0
VERTEX
  5
1100
  8
DATA
  6
CONTINUOUS
 62
     7
 10
215.0305938828416
 20
-400.27153363529328
 30
0.0
  0
VERTEX
  5
1101
  8
DATA
  6
CONTINUOUS
 62
     7
 10
215.0022777855072
 20
-400.30000000000001
 30
0.0
  0
VERTEX
  5
1102
  8
DATA
  6
CONTINUOUS
 62
     7
 10
215.0022777855072
 20
-400.30000000000001
 30
0.0
  0
SEQEND
  5
1103
  8
DATA
  6
CONTINUOUS
 62
     7
  0
POLYLINE
  5
9C4
  8
DATA
  6
CONTINUOUS
 62
     7
 66
     1
 10
0.0
 20
0.0
 30
0.0
 70
   128
  0
VERTEX
  5
1104
  8
DATA
  6
CONTINUOUS
 62
     7
 10
215.0022777855072
 20
-400.30000000000001
 30
0.0
  0
VERTEX
  5
1105
  8
DATA
  6
CONTINUOUS
 62
     7
 10
215.06743199048049
 20
-400.36584563078702
 30
0.0
  0
VERTEX
  5
1106
  8
DATA
  6
CONTINUOUS
 62
     7
 10
215.1320059032324
 20
-400.43208108281891
 30
0.0
  0
VERTEX
  5
1107
  8
DATA
  6
CONTINUOUS
 62
     7
 10
215.19599952376299
 20
-400.49870635609568
 30
0.0
  0
VERTEX
  5
1108
  8
DATA
  6
CONTINUOUS
 62
     7
 10
215.2594128520721
 20
-400.56572145061722
 30
0.0
  0
VERTEX
  5
1109
  8
DATA
  6
CONTINUOUS
 62
     7
 10
215.32224588816001
 20
-400.63312636638369
 30
0.0
  0
VERTEX
  5
110A
  8
DATA
  6
CONTINUOUS
 62
     7
 10
215.38449863202641
 20
-400.7009211033951
 30
0.0
  0
VERTEX
  5
110B
  8
DATA
  6
CONTINUOUS
 62
     7
 10
215.4461710836714
 20
-400.76910566165111
 30
0.0
  0
VERTEX
  5
110C
  8
DATA
  6
CONTINUOUS
 62
     7
 10
215.507263243095
 20
-400.83768004115223
 30
0.0
  0
VERTEX
  5
110D
  8
DATA
  6
CONTINUOUS
 62
     7
 10
215.56777511029739
 20
-400.90664424189822
 30
0.0
  0
VERTEX
  5
110E
  8
DATA
  6
CONTINUOUS
 62
     7
 10
215.6277066852783
 20
-400.97599826388881
 30
0.0
  0
VERTEX
  5
110F
  8
DATA
  6
CONTINUOUS
 62
     7
 10
215.68705796803781
 20
-401.0457421071244
 30
0.0
  0
VERTEX
  5
1110
  8
DATA
  6
CONTINUOUS
 62
     7
 10
215.745828958576
 20
-401.11587577160492
 30
0.0
  0
VERTEX
  5
1111
  8
DATA
  6
CONTINUOUS
 62
     7
 10
215.80401965689279
 20
-401.18639925733032
 30
0.0
  0
VERTEX
  5
1112
  8
DATA
  6
CONTINUOUS
 62
     7
 10
215.86163006298821
 20
-401.25731256430038
 30
0.0
  0
VERTEX
  5
1113
  8
DATA
  6
CONTINUOUS
 62
     7
 10
215.9186601768622
 20
-401.32861569251543
 30
0.0
  0
VERTEX
  5
1114
  8
DATA
  6
CONTINUOUS
 62
     7
 10
215.97510999851491
 20
-401.40030864197519
 30
0.0
  0
VERTEX
  5
1115
  8
DATA
  6
CONTINUOUS
 62
     7
 10
216.0309795279463
 20
-401.47239141268
 30
0.0
  0
VERTEX
  5
1116
  8
DATA
  6
CONTINUOUS
 62
     7
 10
216.08626876515621
 20
-401.54486400462957
 30
0.0
  0
VERTEX
  5
1117
  8
DATA
  6
CONTINUOUS
 62
     7
 10
216.14097771014471
 20
-401.61772641782397
 30
0.0
  0
VERTEX
  5
1118
  8
DATA
  6
CONTINUOUS
 62
     7
 10
216.19510636291199
 20
-401.6909786522632
 30
0.0
  0
VERTEX
  5
1119
  8
DATA
  6
CONTINUOUS
 62
     7
 10
216.24865472345769
 20
-401.76462070794742
 30
0.0
  0
VERTEX
  5
111A
  8
DATA
  6
CONTINUOUS
 62
     7
 10
216.30162279178211
 20
-401.8386525848764
 30
0.0
  0
VERTEX
  5
111B
  8
DATA
  6
CONTINUOUS
 62
     7
 10
216.35401056788521
 20
-401.91307428305032
 30
0.0
  0
VERTEX
  5
111C
  8
DATA
  6
CONTINUOUS
 62
     7
 10
216.40581805176689
 20
-401.98788580246912
 30
0.0
  0
VERTEX
  5
111D
  8
DATA
  6
CONTINUOUS
 62
     7
 10
216.45704524342719
 20
-402.06308714313269
 30
0.0
  0
VERTEX
  5
111E
  8
DATA
  6
CONTINUOUS
 62
     7
 10
216.50769214286609
 20
-402.13867830504108
 30
0.0
  0
VERTEX
  5
111F
  8
DATA
  6
CONTINUOUS
 62
     7
 10
216.55775875008371
 20
-402.2146592881943
 30
0.0
  0
VERTEX
  5
1120
  8
DATA
  6
CONTINUOUS
 62
     7
 10
216.60724506507989
 20
-402.29103009259251
 30
0.0
  0
VERTEX
  5
1121
  8
DATA
  6
CONTINUOUS
 62
     7
 10
216.65615108785479
 20
-402.3677907182356
 30
0.0
  0
VERTEX
  5
1122
  8
DATA
  6
CONTINUOUS
 62
     7
 10
216.7044768184081
 20
-402.4449411651234
 30
0.0
  0
VERTEX
  5
1123
  8
DATA
  6
CONTINUOUS
 62
     7
 10
216.7522222567402
 20
-402.52248143325619
 30
0.0
  0
VERTEX
  5
1124
  8
DATA
  6
CONTINUOUS
 62
     7
 10
216.7993874028509
 20
-402.60041152263369
 30
0.0
  0
VERTEX
  5
1125
  8
DATA
  6
CONTINUOUS
 62
     7
 10
216.8459722567402
 20
-402.67873143325619
 30
0.0
  0
VERTEX
  5
1126
  8
DATA
  6
CONTINUOUS
 62
     7
 10
216.8919768184081
 20
-402.7574411651234
 30
0.0
  0
VERTEX
  5
1127
  8
DATA
  6
CONTINUOUS
 62
     7
 10
216.93740108785471
 20
-402.8365407182356
 30
0.0
  0
VERTEX
  5
1128
  8
DATA
  6
CONTINUOUS
 62
     7
 10
216.98224506507989
 20
-402.91603009259262
 30
0.0
  0
VERTEX
  5
1129
  8
DATA
  6
CONTINUOUS
 62
     7
 10
217.02650875008371
 20
-402.9959092881943
 30
0.0
  0
VERTEX
  5
112A
  8
DATA
  6
CONTINUOUS
 62
     7
 10
217.07019214286609
 20
-403.07617830504108
 30
0.0
  0
VERTEX
  5
112B
  8
DATA
  6
CONTINUOUS
 62
     7
 10
217.11329524342719
 20
-403.1568371431328
 30
0.0
  0
VERTEX
  5
112C
  8
DATA
  6
CONTINUOUS
 62
     7
 10
217.15581805176689
 20
-403.23788580246901
 30
0.0
  0
VERTEX
  5
112D
  8
DATA
  6
CONTINUOUS
 62
     7
 10
217.19776056788521
 20
-403.31932428305032
 30
0.0
  0
VERTEX
  5
112E
  8
DATA
  6
CONTINUOUS
 62
     7
 10
217.23912279178211
 20
-403.4011525848764
 30
0.0
  0
VERTEX
  5
112F
  8
DATA
  6
CONTINUOUS
 62
     7
 10
217.27990472345769
 20
-403.48337070794742
 30
0.0
  0
VERTEX
  5
1130
  8
DATA
  6
CONTINUOUS
 62
     7
 10
217.32010636291199
 20
-403.5659786522632
 30
0.0
  0
VERTEX
  5
1131
  8
DATA
  6
CONTINUOUS
 62
     7
 10
217.3597277101448
 20
-403.64897641782397
 30
0.0
  0
VERTEX
  5
1132
  8
DATA
  6
CONTINUOUS
 62
     7
 10
217.39876876515621
 20
-403.73236400462952
 30
0.0
  0
VERTEX
  5
1133
  8
DATA
  6
CONTINUOUS
 62
     7
 10
217.4372295279463
 20
-403.81614141268
 30
0.0
  0
VERTEX
  5
1134
  8
DATA
  6
CONTINUOUS
 62
     7
 10
217.47510999851491
 20
-403.9003086419753
 30
0.0
  0
VERTEX
  5
1135
  8
DATA
  6
CONTINUOUS
 62
     7
 10
217.51241017686229
 20
-403.98486569251543
 30
0.0
  0
VERTEX
  5
1136
  8
DATA
  6
CONTINUOUS
 62
     7
 10
217.54913006298821
 20
-404.06981256430032
 30
0.0
  0
VERTEX
  5
1137
  8
DATA
  6
CONTINUOUS
 62
     7
 10
217.58526965689279
 20
-404.15514925733032
 30
0.0
  0
VERTEX
  5
1138
  8
DATA
  6
CONTINUOUS
 62
     7
 10
217.620828958576
 20
-404.24087577160492
 30
0.0
  0
VERTEX
  5
1139
  8
DATA
  6
CONTINUOUS
 62
     7
 10
217.65580796803781
 20
-404.3269921071244
 30
0.0
  0
VERTEX
  5
113A
  8
DATA
  6
CONTINUOUS
 62
     7
 10
217.69020668527821
 20
-404.41349826388893
 30
0.0
  0
VERTEX
  5
113B
  8
DATA
  6
CONTINUOUS
 62
     7
 10
217.72402511029739
 20
-404.50039424189822
 30
0.0
  0
VERTEX
  5
113C
  8
DATA
  6
CONTINUOUS
 62
     7
 10
217.757263243095
 20
-404.58768004115223
 30
0.0
  0
VERTEX
  5
113D
  8
DATA
  6
CONTINUOUS
 62
     7
 10
217.7899210836714
 20
-404.67535566165111
 30
0.0
  0
VERTEX
  5
113E
  8
DATA
  6
CONTINUOUS
 62
     7
 10
217.82199863202641
 20
-404.7634211033951
 30
0.0
  0
VERTEX
  5
113F
  8
DATA
  6
CONTINUOUS
 62
     7
 10
217.85349588816001
 20
-404.85187636638369
 30
0.0
  0
VERTEX
  5
1140
  8
DATA
  6
CONTINUOUS
 62
     7
 10
217.8844128520721
 20
-404.94072145061722
 30
0.0
  0
VERTEX
  5
1141
  8
DATA
  6
CONTINUOUS
 62
     7
 10
217.91474952376291
 20
-405.02995635609562
 30
0.0
  0
VERTEX
  5
1142
  8
DATA
  6
CONTINUOUS
 62
     7
 10
217.9445059032324
 20
-405.11958108281891
 30
0.0
  0
VERTEX
  5
1143
  8
DATA
  6
CONTINUOUS
 62
     7
 10
217.97368199048049
 20
-405.20959563078702
 30
0.0
  0
VERTEX
  5
1144
  8
DATA
  6
CONTINUOUS
 62
     7
 10
218.0022777855072
 20
-405.2999999999999
 30
0.0
  0
VERTEX
  5
1145
  8
DATA
  6
CONTINUOUS
 62
     7
 10
218.0022777855072
 20
-405.2999999999999
 30
0.0
  0
SEQEND
  5
1146
  8
DATA
  6
CONTINUOUS
 62
     7
  0
LINE
  5
A08
  8
DATA
  6
CONTINUOUS
 62
     7
 10
215.0022709997545
 20
-400.83936799165917
 30
0.0
 11
215.34687585005531
 21
-400.66000000000003
 31
0.0
  0
LINE
  5
A09
  8
DATA
  6
CONTINUOUS
 62
     7
 10
364.5079650572024
 20
-398.26239882464262
 30
0.0
 11
364.5079650572024
 21
-408.86239882464258
 31
0.0
  0
LINE
  5
A0A
  8
DATA
  6
CONTINUOUS
 62
     7
 10
361.5079650572024
 20
-395.60335894452282
 30
0.0
 11
361.5079650572024
 21
-411.52143870476237
 31
0.0
  0
LINE
  5
A0B
  8
DATA
  6
CONTINUOUS
 62
     7
 10
364.5079650572024
 20
-398.26239882464262
 30
0.0
 11
361.5079650572024
 21
-398.26239882464262
 31
0.0
  0
LINE
  5
A0C
  8
DATA
  6
CONTINUOUS
 62
     7
 10
364.5079650572024
 20
-408.86239882464258
 30
0.0
 11
361.5079650572024
 21
-408.86239882464258
 31
0.0
  0
LINE
  5
A0D
  8
DATA
  6
CONTINUOUS
 62
     7
 10
361.5079650572024
 20
-395.60335894452282
 30
0.0
 11
360.0
 21
-395.60335894452282
 31
0.0
  0
LINE
  5
A0E
  8
DATA
  6
CONTINUOUS
 62
     7
 10
361.5079650572024
 20
-411.52143870476237
 30
0.0
 11
357.01011470303729
 21
-411.52143870476237
 31
0.0
  0
LINE
  5
A0F
  8
DATA
  6
CONTINUOUS
 62
     7
 10
361.5079650572024
 20
-396.64908643452821
 30
0.0
 11
360.0
 21
-396.64908643452821
 31
0.0
  0
LINE
  5
A10
  8
DATA
  6
CONTINUOUS
 62
     7
 10
361.5079650572024
 20
-404.60812631464802
 30
0.0
 11
357.01011470303729
 21
-404.60812631464802
 31
0.0
  0
LINE
  5
A11
  8
DATA
  6
CONTINUOUS
 62
     7
 10
364.0
 20
-413.49000000000001
 30
0.0
 11
360.0
 21
-413.49000000000001
 31
0.0
  0
LINE
  5
A12
  8
DATA
  6
CONTINUOUS
 62
     7
 10
364.0
 20
-421.9899999999999
 30
0.0
 11
360.0
 21
-421.9899999999999
 31
0.0
  0
LINE
  5
A13
  8
DATA
  6
CONTINUOUS
 62
     7
 10
364.0
 20
-421.9899999999999
 30
0.0
 11
364.0
 21
-413.49000000000001
 31
0.0
  0
LINE
  5
A14
  8
DATA
  6
CONTINUOUS
 62
     7
 10
-309.98999999999978
 20
-400.54250746531278
 30
0.0
 11
-309.00999999999999
 21
-400.54250746531278
 31
0.0
  0
LINE
  5
A15
  8
DATA
  6
CONTINUOUS
 62
     7
 10
-309.49999999999989
 20
-400.54250746531278
 30
0.0
 11
-309.49999999999989
 21
-400.234908228167
 31
0.0
  0
LINE
  5
A16
  8
DATA
  6
CONTINUOUS
 62
     7
 10
-318.95682431925491
 20
-410.23490822816711
 30
0.0
 11
-319.49999999999989
 21
-410.23490822816711
 31
0.0
  0
LINE
  5
A17
  8
DATA
  6
CONTINUOUS
 62
     7
 10
-299.49999999999989
 20
-410.23490822816711
 30
0.0
 11
-300.04317568074498
 21
-410.23490822816711
 31
0.0
  0
LINE
  5
A18
  8
DATA
  6
CONTINUOUS
 62
     7
 10
-317.79666896433542
 20
-405.4448241682307
 30
0.0
 11
-318.16025403784641
 21
-405.23490822816581
 31
0.0
  0
LINE
  5
A19
  8
DATA
  6
CONTINUOUS
 62
     7
 10
-314.3357343129959
 20
-401.85917070615369
 30
0.0
 11
-314.50000000000352
 21
-401.57465419031649
 31
0.0
  0
LINE
  5
A1A
  8
DATA
  6
CONTINUOUS
 62
     7
 10
-301.20333103566441
 20
-405.4448241682307
 30
0.0
 11
-300.83974596215342
 21
-405.23490822816581
 31
0.0
  0
LINE
  5
A1B
  8
DATA
  6
CONTINUOUS
 62
     7
 10
-304.66426568700388
 20
-401.85917070615369
 30
0.0
 11
-304.49999999999631
 21
-401.57465419031649
 31
0.0
  0
LINE
  5
A1C
  8
DATA
  6
CONTINUOUS
 62
     7
 10
-317.79666896433542
 20
-415.02499228810342
 30
0.0
 11
-318.16025403784641
 21
-415.23490822816819
 31
0.0
  0
LINE
  5
A1D
  8
DATA
  6
CONTINUOUS
 62
     7
 10
-314.3357343129959
 20
-418.61064575018042
 30
0.0
 11
-314.50000000000352
 21
-418.89516226601768
 31
0.0
  0
LINE
  5
A1E
  8
DATA
  6
CONTINUOUS
 62
     7
 10
-301.20333103566441
 20
-415.02499228810342
 30
0.0
 11
-300.83974596215342
 21
-415.23490822816819
 31
0.0
  0
LINE
  5
A1F
  8
DATA
  6
CONTINUOUS
 62
     7
 10
-304.66426568700388
 20
-418.61064575018042
 30
0.0
 11
-304.49999999999631
 21
-418.89516226601768
 31
0.0
  0
LINE
  5
A20
  8
DATA
  6
CONTINUOUS
 62
     7
 10
-317.79666896433542
 20
-415.02499228810342
 30
0.0
 11
-317.57371125458519
 21
-414.92000000000002
 31
0.0
  0
LINE
  5
A21
  8
DATA
  6
CONTINUOUS
 62
     7
 10
-314.3357343129959
 20
-418.61064575018042
 30
0.0
 11
-314.0929876245861
 21
-418.25999999999988
 31
0.0
  0
LINE
  5
A22
  8
DATA
  6
CONTINUOUS
 62
     7
 10
-304.66426568700388
 20
-418.61064575018042
 30
0.0
 11
-304.87118341550268
 21
-418.24000000000001
 31
0.0
  0
LINE
  5
A23
  8
DATA
  6
CONTINUOUS
 62
     7
 10
-301.20333103566441
 20
-415.02499228810342
 30
0.0
 11
-301.41410975366807
 21
-414.89999999999998
 31
0.0
  0
LINE
  5
A24
  8
DATA
  6
CONTINUOUS
 62
     7
 10
-309.49999999999989
 20
-400.234908228167
 30
0.0
 11
-309.49999999999989
 21
-400.16000000000003
 31
0.0
  0
LINE
  5
A25
  8
DATA
  6
CONTINUOUS
 62
     7
 10
-310.02272476373957
 20
-285.1729825944285
 30
0.0
 11
-309.04257742445731
 21
-285.1729825944285
 31
0.0
  0
LINE
  5
A26
  8
DATA
  6
CONTINUOUS
 62
     7
 10
-175.255
 20
-289.00000000002768
 30
0.0
 11
-165.745
 21
-289.00000000002768
 31
0.0
  0
LINE
  5
A27
  8
DATA
  6
CONTINUOUS
 62
     7
 10
-175.255
 20
-289.00000000002768
 30
0.0
 11
-175.255
 21
-278.00000000002768
 31
0.0
  0
LINE
  5
A28
  8
DATA
  6
CONTINUOUS
 62
     7
 10
-165.745
 20
-289.00000000002768
 30
0.0
 11
-165.745
 21
-278.00000000002768
 31
0.0
  0
LINE
  5
A29
  8
DATA
  6
CONTINUOUS
 62
     7
 10
-181.25
 20
-270.50000000002768
 30
0.0
 11
-181.25
 21
-270.00000000002768
 31
0.0
  0
LINE
  5
A2A
  8
DATA
  6
CONTINUOUS
 62
     7
 10
-159.75
 20
-270.50000000002768
 30
0.0
 11
-159.75
 21
-270.00000000002768
 31
0.0
  0
LINE
  5
A2B
  8
DATA
  6
CONTINUOUS
 62
     7
 10
99.0
 20
-125.9406372925
 30
0.0
 11
99.0
 21
-127.1406372925
 31
0.0
  0
LINE
  5
A2C
  8
DATA
  6
CONTINUOUS
 62
     7
 10
-336.0
 20
-125.9406372925
 30
0.0
 11
-336.0
 21
-127.1406372925
 31
0.0
  0
ARC
  5
A2D
  8
DATA
  6
CONTINUOUS
 62
     7
 10
-3.999999999999984
 20
-252.5055345597566
 30
0.0
 40
37.492902965564163
 50
258.46082712545712
 51
281.53917287454288
  0
ARC
  5
A2E
  8
DATA
  6
CONTINUOUS
 62
     7
 10
15.52188475834987
 20
-280.6966281204422
 30
0.0
 40
11.83359881322234
 50
121.436684567999
 51
166.82000128498041
  0
ARC
  5
A2F
  8
DATA
  6
CONTINUOUS
 62
     7
 10
-23.521884758349842
 20
-280.6966281204422
 30
0.0
 40
11.833598813222309
 50
13.179998715019609
 51
58.563315432000962
  0
ARC
  5
A30
  8
DATA
  6
CONTINUOUS
 62
     7
 10
-158.99167543042489
 20
-277.25215577264129
 30
0.0
 40
6.7946054874776367
 50
96.407952184101973
 51
186.3190283932378
  0
ARC
  5
A31
  8
DATA
  6
CONTINUOUS
 62
     7
 10
-182.00832456957511
 20
-277.25215577264129
 30
0.0
 40
6.7946054874776642
 50
353.68097160676223
 51
83.592047815897999
  0
ARC
  5
A32
  8
DATA
  6
CONTINUOUS
 62
     7
 10
-208.99167543042489
 20
-277.25215577264129
 30
0.0
 40
6.7946054874776367
 50
96.407952184101973
 51
186.3190283932378
  0
ARC
  5
A33
  8
DATA
  6
CONTINUOUS
 62
     7
 10
-232.00832456957511
 20
-277.25215577264129
 30
0.0
 40
6.7946054874776642
 50
353.68097160676223
 51
83.592047815897999
  0
LINE
  5
A34
  8
DATA
  6
CONTINUOUS
 62
     7
 10
-225.255
 20
-289.00000000002768
 30
0.0
 11
-215.745
 21
-289.00000000002768
 31
0.0
  0
LINE
  5
A35
  8
DATA
  6
CONTINUOUS
 62
     7
 10
-225.255
 20
-289.00000000002768
 30
0.0
 11
-225.255
 21
-278.00000000002768
 31
0.0
  0
LINE
  5
A36
  8
DATA
  6
CONTINUOUS
 62
     7
 10
-215.745
 20
-289.00000000002768
 30
0.0
 11
-215.745
 21
-278.00000000002768
 31
0.0
  0
LINE
  5
A37
  8
DATA
  6
CONTINUOUS
 62
     7
 10
-231.25
 20
-270.50000000002768
 30
0.0
 11
-231.25
 21
-270.00000000002768
 31
0.0
  0
LINE
  5
A38
  8
DATA
  6
CONTINUOUS
 62
     7
 10
-209.75
 20
-270.50000000002768
 30
0.0
 11
-209.75
 21
-270.00000000002768
 31
0.0
  0
ARC
  5
A39
  8
DATA
  6
CONTINUOUS
 62
     7
 10
-233.99167543042489
 20
-277.25215577264129
 30
0.0
 40
6.7946054874776367
 50
96.407952184101973
 51
186.3190283932378
  0
ARC
  5
A3A
  8
DATA
  6
CONTINUOUS
 62
     7
 10
-257.00832456957511
 20
-277.25215577264129
 30
0.0
 40
6.794605487477634
 50
353.68097160676223
 51
83.592047815898269
  0
LINE
  5
A3B
  8
DATA
  6
CONTINUOUS
 62
     7
 10
-250.255
 20
-289.00000000002768
 30
0.0
 11
-240.745
 21
-289.00000000002768
 31
0.0
  0
LINE
  5
A3C
  8
DATA
  6
CONTINUOUS
 62
     7
 10
-250.255
 20
-289.00000000002768
 30
0.0
 11
-250.255
 21
-278.00000000002768
 31
0.0
  0
LINE
  5
A3D
  8
DATA
  6
CONTINUOUS
 62
     7
 10
-240.745
 20
-289.00000000002768
 30
0.0
 11
-240.745
 21
-278.00000000002768
 31
0.0
  0
LINE
  5
A3E
  8
DATA
  6
CONTINUOUS
 62
     7
 10
-256.25
 20
-270.50000000002768
 30
0.0
 11
-256.25
 21
-270.00000000002768
 31
0.0
  0
LINE
  5
A3F
  8
DATA
  6
CONTINUOUS
 62
     7
 10
-234.75
 20
-270.50000000002768
 30
0.0
 11
-234.75
 21
-270.00000000002768
 31
0.0
  0
ENDSEC
  0
EOF
