  0
SECTION
  2
HEADER
  9
$ACADVER
  1
AC1004
  9
$INSBASE
 10
0.0
 20
0.0
  9
$EXTMIN
 10
-99.26
 20
-103.425
  9
$EXTMAX
 10
3050.74
 20
4351.575
  9
$LIMMIN
 10
-99.26
 20
-103.425
  9
$LIMMAX
 10
3050.74
 20
4351.575
  9
$VIEWCTR
 10
6.0
 20
4.5
  9
$VIEWSIZE
 40
9.0
  9
$SNAPMODE
 70
     0
  9
$SNAPUNIT
 10
25.0
 20
25.0
  9
$SNAPBASE
 10
0.0
 20
0.0
  9
$SNAPANG
 50
0.0
  9
$SNAPSTYLE
 70
     0
  9
$SNAPISOPAIR
 70
     0
  9
$GRIDMODE
 70
     1
  9
$GRIDUNIT
 10
100.0
 20
100.0
  9
$ORTHOMODE
 70
     0
  9
$REGENMODE
 70
     1
  9
$FILLMODE
 70
     1
  9
$QTEXTMODE
 70
     0
  9
$DRAGMODE
 70
     2
  9
$LTSCALE
 40
1.0
  9
$OSMODE
 70
     1
  9
$ATTMODE
 70
     1
  9
$TEXTSIZE
 40
0.2
  9
$TRACEWID
 40
0.05
  9
$TEXTSTYLE
  7
STANDARD
  9
$CLAYER
  8
DATA
  9
$CELTYPE
  6
CONTINUOUS
  9
$CECOLOR
 62
     7
  9
$DIMSCALE
 40
1.0
  9
$DIMASZ
 40
0.18
  9
$DIMEXO
 40
0.0625
  9
$DIMDLI
 40
0.38
  9
$DIMRND
 40
0.0
  9
$DIMDLE
 40
0.0
  9
$DIMEXE
 40
0.18
  9
$DIMTP
 40
0.0
  9
$DIMTM
 40
0.0
  9
$DIMTXT
 40
0.18
  9
$DIMCEN
 40
0.09
  9
$DIMTSZ
 40
0.0
  9
$DIMTOL
 70
     0
  9
$DIMLIM
 70
     0
  9
$DIMTIH
 70
     1
  9
$DIMTOH
 70
     1
  9
$DIMSE1
 70
     0
  9
$DIMSE2
 70
     0
  9
$DIMTAD
 70
     0
  9
$DIMZIN
 70
     0
  9
$DIMBLK
  1

  9
$DIMASO
 70
     1
  9
$DIMSHO
 70
     1
  9
$DIMPOST
  1

  9
$DIMAPOST
  1

  9
$DIMALT
 70
     0
  9
$DIMALTD
 70
     2
  9
$DIMALTF
 40
25.4
  9
$DIMLFAC
 40
1.0
  9
$LUNITS
 70
     2
  9
$LUPREC
 70
     4
  9
$AXISMODE
 70
     0
  9
$AXISUNIT
 10
0.0
 20
0.0
  9
$SKETCHINC
 40
0.1
  9
$FILLETRAD
 40
5.0
  9
$AUNITS
 70
     0
  9
$AUPREC
 70
     0
  9
$MENU
  1
acad
  9
$ELEVATION
 40
0.0
  9
$THICKNESS
 40
0.0
  9
$VIEWDIR
 10
0.0
 20
0.0
 30
1.0
  9
$LIMCHECK
 70
     0
  9
$BLIPMODE
 70
     1
  9
$CHAMFERA
 40
0.0
  9
$CHAMFERB
 40
0.0
  9
$FASTZOOM
 70
     1
  9
$SKPOLY
 70
     0
  9
$TDCREATE
 40
0.0
  9
$TDUPDATE
 40
0.0
  9
$TDINDWG
 40
0.0
  9
$TDUSRTIMER
 40
0.0
  9
$USRTIMER
 70
     1
  9
$ANGBASE
 50
0.0
  9
$ANGDIR
 70
     0
  9
$PDMODE
 70
     0
  9
$PDSIZE
 40
0.0
  9
$PLINEWID
 40
0.0
  9
$COORDS
 70
     1
  9
$SPLFRAME
 70
     0
  9
$SPLINESEGS
 70
    10
  9
$ATTDIA
 70
     0
  9
$ATTREQ
 70
     1
  9
$USERI1
 70
     0
  9
$USERI2
 70
     0
  9
$USERI3
 70
     0
  9
$USERI4
 70
     0
  9
$USERI5
 70
     0
  9
$USERR1
 40
0.0
  9
$USERR2
 40
0.0
  9
$USERR3
 40
0.0
  9
$USERR4
 40
0.0
  9
$USERR5
 40
0.0
  0
ENDSEC
  0
SECTION
  2
TABLES
  0
TABLE
  2
LTYPE
 70
    11
  0
LTYPE
  2
CONTINUOUS
 70
     0
  3
Solid line
 72
    65
 73
     0
 40
0.0
  0
LTYPE
  2
DASHED
 70
     0
  3
__ __ __ __ __ __ __ __ __ __ __ __ __ __ __
 72
    65
 73
     2
 40
0.75
 49
0.5
 49
-0.25
  0
LTYPE
  2
HIDDEN
 70
     0
  3
_ _ _ _ _ _ _ _ _ _ _ _ _ _ _ _ _ _ _ _ _ _ 
 72
    65
 73
     2
 40
0.25
 49
0.125
 49
-0.125
  0
LTYPE
  2
CENTER
 70
     0
  3
____ _ ____ _ ____ _ ____ _ ____ _ ____ _ __
 72
    65
 73
     4
 40
2.0
 49
1.25
 49
-0.25
 49
0.25
 49
-0.25
  0
LTYPE
  2
PHANTOM
 70
     0
  3
_____ _ _ _____ _ _ _____ _ _ _____ _ _ ____
 72
    65
 73
     6
 40
2.5
 49
1.25
 49
-0.25
 49
0.25
 49
-0.25
 49
0.25
 49
-0.25
  0
LTYPE
  2
DOT
 70
     0
  3
............................................
 72
    65
 73
     2
 40
0.25
 49
0.0
 49
-0.25
  0
LTYPE
  2
DASHDOT
 70
     0
  3
__ . __ . __ . __ . __ . __ . __ . __ . __ .
 72
    65
 73
     4
 40
1.0
 49
0.5
 49
-0.25
 49
0.0
 49
-0.25
  0
LTYPE
  2
BORDER
 70
     0
  3
__ __ . __ __ . __ __ . __ __ . __ __ . __ _
 72
    65
 73
     6
 40
1.75
 49
0.5
 49
-0.25
 49
0.5
 49
-0.25
 49
0.0
 49
-0.25
  0
LTYPE
  2
DIVIDE
 70
     0
  3
__ . . __ . . __ . . __ . . __ . . __ . . __
 72
    65
 73
     6
 40
1.25
 49
0.5
 49
-0.25
 49
0.0
 49
-0.25
 49
0.0
 49
-0.25
  0
LTYPE
  2
DOTS
 70
     0
  3
close                                       
 72
    65
 73
     2
 40
0.1
 49
0.05
 49
-0.05
  0
LTYPE
  2
CLOSE
 70
     0
  3
                                            
 72
    65
 73
     0
 40
0.0
  0
ENDTAB
  0
TABLE
  2
LAYER
 70
     6
  0
LAYER
  2
0
 70
     0
 62
     7
  6
CONTINUOUS
  0
LAYER
  2
LAYER01
 70
     0
 62
     7
  6
CONTINUOUS
  0
LAYER
  2
DATA
 70
     0
 62
     7
  6
CONTINUOUS
  0
LAYER
  2
DIMENSIONS
 70
     0
 62
     7
  6
CONTINUOUS
  0
LAYER
  2
SPEC
 70
     0
 62
     7
  6
CONTINUOUS
  0
LAYER
  2
HIBINO-BASE
 70
     0
 62
     7
  6
CONTINUOUS
  0
ENDTAB
  0
TABLE
  2
STYLE
 70
     2
  0
STYLE
  2
STANDARD
 70
     0
 40
0.0
 41
1.0
 50
0.0
 71
     0
 42
0.2
  3
txt
  4

  0
STYLE
  2
TTF_DEFAULT
 70
     0
 40
0.0
 41
1.0
 50
0.0
 71
     0
 42
0.0
  3
txt
  4
BIGFONT
  0
ENDTAB
  0
TABLE
  2
VIEW
 70
     0
  0
ENDTAB
  0
ENDSEC
  0
SECTION
  2
BLOCKS
  0
ENDSEC
  0
SECTION
  2
ENTITIES
  0
LINE
  8
SPEC
  6
CONTINUOUS
 62
     7
 10
262.5
 20
3975.0
 11
2400.0
 21
3975.0
  0
LINE
  8
SPEC
  6
CONTINUOUS
 62
     7
 10
262.5
 20
3918.75
 11
2400.0
 21
3918.75
  0
LINE
  8
SPEC
  6
CONTINUOUS
 62
     7
 10
262.5
 20
3806.25
 11
2400.0
 21
3806.25
  0
LINE
  8
SPEC
  6
CONTINUOUS
 62
     7
 10
750.0
 20
3693.75
 11
2400.0
 21
3693.75
  0
LINE
  8
SPEC
  6
CONTINUOUS
 62
     7
 10
262.5
 20
3637.5
 11
2400.0
 21
3637.5
  0
LINE
  8
SPEC
  6
CONTINUOUS
 62
     7
 10
750.0
 20
3581.25
 11
2400.0
 21
3581.25
  0
LINE
  8
SPEC
  6
CONTINUOUS
 62
     7
 10
262.5
 20
3525.0
 11
2400.0
 21
3525.0
  0
POLYLINE
  8
HIBINO-BASE
  6
CONTINUOUS
 62
     7
 66
     1
 70
     1
 40
4.0
 41
4.0
  0
VERTEX
  8
HIBINO-BASE
 10
150.0
 20
225.0
  0
VERTEX
  8
HIBINO-BASE
 10
150.0
 20
4125.0
  0
VERTEX
  8
HIBINO-BASE
 10
2850.0
 20
4125.0
  0
VERTEX
  8
HIBINO-BASE
 10
2850.0
 20
225.0
  0
SEQEND
  8
HIBINO-BASE
  0
TEXT
  8
SPEC
  6
CONTINUOUS
 62
     7
 10
759.375
 20
3478.125
 40
37.5
  1
16chフレーム : 858(W)×252.5(H)×722.9(D)mm / 約39kg
  7
TTF_DEFAULT
  0
LINE
  8
SPEC
  6
CONTINUOUS
 62
     7
 10
262.5
 20
3412.5
 11
2400.0
 21
3412.5
  0
ARC
  8
DATA
  6
CONTINUOUS
 62
     7
 10
807.108171
 20
2244.12074
 40
1144.139823
 50
260.105224
 51
269.669077
  0
LINE
  8
DIMENSIONS
  6
CONTINUOUS
 62
     7
 10
600.0
 20
2000.0
 11
1458.0
 21
2000.0
  0
LINE
  8
DATA
  6
CONTINUOUS
 62
     7
 10
645.0
 20
1168.0
 11
1413.0
 21
1168.0
  0
LINE
  8
DATA
  6
CONTINUOUS
 62
     7
 10
600.0
 20
1822.882393
 11
1458.0
 21
1822.882393
  0
LINE
  8
DIMENSIONS
  6
CONTINUOUS
 62
     7
 10
785.5
 20
1100.0
 11
481.25
 21
1100.0
  0
LINE
  8
DATA
  6
CONTINUOUS
 62
     7
 10
645.0
 20
1791.245214
 11
1413.0
 21
1791.245214
  0
TEXT
  8
HIBINO-BASE
  6
CONTINUOUS
 62
     7
 10
257.76
 20
128.8698
 40
60.0
  1
Hibino Corporation
  7
TTF_DEFAULT
  0
LINE
  8
DATA
  6
CONTINUOUS
 62
     7
 10
620.0
 20
1646.66449
 11
620.0
 21
1197.66449
  0
LINE
  8
DATA
  6
CONTINUOUS
 62
     7
 10
600.0
 20
1822.882393
 11
600.0
 21
1420.66449
  0
LINE
  8
DATA
  6
CONTINUOUS
 62
     7
 10
679.75
 20
1168.0
 11
679.75
 21
1791.245214
  0
LINE
  8
DIMENSIONS
  6
CONTINUOUS
 62
     7
 10
500.0
 20
1100.0
 11
500.0
 21
1822.882393
  0
LINE
  8
DATA
  6
CONTINUOUS
 62
     7
 10
645.0
 20
1168.0
 11
645.0
 21
1822.882393
  0
LINE
  8
DATA
  6
CONTINUOUS
 62
     7
 10
605.268023
 20
1197.66449
 11
645.0
 21
1197.66449
  0
ARC
  8
DATA
  6
CONTINUOUS
 62
     7
 10
6489.184211
 20
1546.059211
 40
5894.320983
 50
183.677451
 51
184.174364
  0
ARC
  8
DATA
  6
CONTINUOUS
 62
     7
 10
4242.70808
 20
1395.155501
 40
3642.797395
 50
179.598778
 51
183.575137
  0
LINE
  8
DATA
  6
CONTINUOUS
 62
     7
 10
645.0
 20
1168.0
 11
648.0
 21
1111.098002
  0
LINE
  8
DIMENSIONS
  6
CONTINUOUS
 62
     7
 10
504.9998
 20
1130.0
 11
500.0
 21
1100.0
  0
LINE
  8
DIMENSIONS
  6
CONTINUOUS
 62
     7
 10
495.0002
 20
1130.0
 11
500.0
 21
1100.0
  0
TEXT
  8
DIMENSIONS
  6
CONTINUOUS
 62
     7
 10
481.25
 20
1414.146495
 40
37.5
  1
722.9
 50
90.0
  7
TTF_DEFAULT
  0
LINE
  8
DATA
  6
CONTINUOUS
 62
     7
 10
620.0
 20
1646.66449
 11
600.0
 21
1646.66449
  0
ARC
  8
DATA
  6
CONTINUOUS
 62
     7
 10
620.0
 20
1666.66449
 40
20.0
 50
180.0
 51
270.0
  0
LINE
  8
DIMENSIONS
  6
CONTINUOUS
 62
     7
 10
630.0
 20
2004.9998
 11
600.0
 21
2000.0
  0
LINE
  8
DIMENSIONS
  6
CONTINUOUS
 62
     7
 10
630.0
 20
1995.0002
 11
600.0
 21
2000.0
  0
LINE
  8
DATA
  6
CONTINUOUS
 62
     7
 10
627.322183
 20
1722.66449
 11
633.5
 21
1722.66449
  0
LINE
  8
DATA
  6
CONTINUOUS
 62
     7
 10
618.651696
 20
1722.66449
 11
612.5
 21
1722.66449
  0
LINE
  8
DATA
  6
CONTINUOUS
 62
     7
 10
621.04038
 20
1716.9706
 11
624.94976
 21
1716.97257
  0
LINE
  8
DATA
  6
CONTINUOUS
 62
     7
 10
621.05024
 20
1718.16449
 11
621.05024
 21
1716.97257
  0
LINE
  8
DATA
  6
CONTINUOUS
 62
     7
 10
624.94976
 20
1718.16886
 11
624.94976
 21
1716.97257
  0
POLYLINE
  8
DATA
  6
CONTINUOUS
 62
     7
 66
     1
  0
VERTEX
  8
DATA
 10
624.94976
 20
1718.16886
  0
VERTEX
  8
DATA
 10
625.5722
 20
1718.28597
  0
VERTEX
  8
DATA
 10
626.16212
 20
1718.43429
  0
VERTEX
  8
DATA
 10
626.7121
 20
1718.61194
  0
VERTEX
  8
DATA
 10
627.21523
 20
1718.8167
  0
VERTEX
  8
DATA
 10
627.66517
 20
1719.04599
  0
VERTEX
  8
DATA
 10
628.05627
 20
1719.29693
  0
VERTEX
  8
DATA
 10
628.38361
 20
1719.56637
  0
VERTEX
  8
DATA
 10
628.64307
 20
1719.8509
  0
VERTEX
  8
DATA
 10
628.83139
 20
1720.14696
  0
VERTEX
  8
DATA
 10
628.94621
 20
1720.45083
  0
VERTEX
  8
DATA
 10
628.98607
 20
1720.75868
  0
VERTEX
  8
DATA
 10
628.95048
 20
1721.06663
  0
VERTEX
  8
DATA
 10
628.83988
 20
1721.37082
  0
VERTEX
  8
DATA
 10
628.65567
 20
1721.66743
  0
VERTEX
  8
DATA
 10
628.40016
 20
1721.95272
  0
VERTEX
  8
DATA
 10
628.07657
 20
1722.2231
  0
VERTEX
  8
DATA
 10
627.68896
 20
1722.47517
  0
VERTEX
  8
DATA
 10
627.24221
 20
1722.70577
  0
VERTEX
  8
DATA
 10
626.74193
 20
1722.91199
  0
VERTEX
  8
DATA
 10
626.19443
 20
1723.09125
  0
VERTEX
  8
DATA
 10
625.60658
 20
1723.24128
  0
VERTEX
  8
DATA
 10
624.98577
 20
1723.3602
  0
VERTEX
  8
DATA
 10
624.33982
 20
1723.44651
  0
VERTEX
  8
DATA
 10
623.67684
 20
1723.49913
  0
VERTEX
  8
DATA
 10
623.00518
 20
1723.51741
  0
VERTEX
  8
DATA
 10
622.33327
 20
1723.50109
  0
VERTEX
  8
DATA
 10
621.66958
 20
1723.4504
  0
VERTEX
  8
DATA
 10
621.02244
 20
1723.36597
  0
VERTEX
  8
DATA
 10
620.4
 20
1723.24886
  0
VERTEX
  8
DATA
 10
619.81008
 20
1723.10055
  0
VERTEX
  8
DATA
 10
619.26009
 20
1722.9229
  0
VERTEX
  8
DATA
 10
618.75697
 20
1722.71814
  0
VERTEX
  8
DATA
 10
618.30703
 20
1722.48884
  0
VERTEX
  8
DATA
 10
617.91593
 20
1722.2379
  0
VERTEX
  8
DATA
 10
617.58859
 20
1721.96847
  0
VERTEX
  8
DATA
 10
617.32913
 20
1721.68393
  0
VERTEX
  8
DATA
 10
617.14081
 20
1721.38787
  0
VERTEX
  8
DATA
 10
617.02599
 20
1721.08401
  0
VERTEX
  8
DATA
 10
616.98613
 20
1720.77616
  0
VERTEX
  8
DATA
 10
617.02172
 20
1720.46821
  0
VERTEX
  8
DATA
 10
617.13232
 20
1720.16401
  0
VERTEX
  8
DATA
 10
617.31653
 20
1719.86741
  0
VERTEX
  8
DATA
 10
617.57204
 20
1719.58212
  0
VERTEX
  8
DATA
 10
617.89563
 20
1719.31174
  0
VERTEX
  8
DATA
 10
618.28324
 20
1719.05967
  0
VERTEX
  8
DATA
 10
618.72999
 20
1718.82907
  0
VERTEX
  8
DATA
 10
619.23026
 20
1718.62284
  0
VERTEX
  8
DATA
 10
619.77777
 20
1718.44359
  0
VERTEX
  8
DATA
 10
620.36562
 20
1718.29356
  0
VERTEX
  8
DATA
 10
620.98643
 20
1718.17464
  0
VERTEX
  8
DATA
 10
621.05024
 20
1718.16449
  0
SEQEND
  8
DATA
  0
CIRCLE
  8
DATA
  6
CONTINUOUS
 62
     7
 10
623.0
 20
1707.66449
 40
8.0
  0
ARC
  8
DATA
  6
CONTINUOUS
 62
     7
 10
623.0
 20
1707.66449
 40
11.5
 50
108.427812
 51
71.646805
  0
ARC
  8
DATA
  6
CONTINUOUS
 62
     7
 10
623.0
 20
1707.66449
 40
10.0
 50
101.300932
 51
78.699068
  0
ARC
  8
DATA
  6
CONTINUOUS
 62
     7
 10
617.34314
 20
1713.32134
 40
1.0
 50
41.416615
 51
228.583385
  0
ARC
  8
DATA
  6
CONTINUOUS
 62
     7
 10
633.5
 20
1720.66449
 40
2.0
 50
0.0
 51
90.0
  0
ARC
  8
DATA
  6
CONTINUOUS
 62
     7
 10
612.5
 20
1720.66449
 40
2.0
 50
90.0
 51
180.0
  0
LINE
  8
DATA
  6
CONTINUOUS
 62
     7
 10
614.0
 20
1717.91449
 11
614.0
 21
1720.41449
  0
LINE
  8
DATA
  6
CONTINUOUS
 62
     7
 10
612.75
 20
1719.16449
 11
615.25
 21
1719.16449
  0
CIRCLE
  8
DATA
  6
CONTINUOUS
 62
     7
 10
614.0
 20
1719.16449
 40
2.0
  0
ARC
  8
DATA
  6
CONTINUOUS
 62
     7
 10
633.5
 20
1694.66449
 40
2.0
 50
270.0
 51
0.0
  0
LINE
  8
DATA
  6
CONTINUOUS
 62
     7
 10
633.5
 20
1692.66449
 11
612.5
 21
1692.66449
  0
ARC
  8
DATA
  6
CONTINUOUS
 62
     7
 10
612.5
 20
1694.66449
 40
2.0
 50
180.0
 51
270.0
  0
LINE
  8
DATA
  6
CONTINUOUS
 62
     7
 10
632.0
 20
1694.91449
 11
632.0
 21
1697.41449
  0
LINE
  8
DATA
  6
CONTINUOUS
 62
     7
 10
630.75
 20
1696.16449
 11
633.25
 21
1696.16449
  0
CIRCLE
  8
DATA
  6
CONTINUOUS
 62
     7
 10
632.0
 20
1696.16449
 40
2.0
  0
CIRCLE
  8
DATA
  6
CONTINUOUS
 62
     7
 10
627.0
 20
1707.66449
 40
1.0
  0
CIRCLE
  8
DATA
  6
CONTINUOUS
 62
     7
 10
625.828
 20
1704.83649
 40
1.0
  0
CIRCLE
  8
DATA
  6
CONTINUOUS
 62
     7
 10
620.171
 20
1704.83649
 40
1.0
  0
CIRCLE
  8
DATA
  6
CONTINUOUS
 62
     7
 10
619.536
 20
1709.66449
 40
1.0
  0
LINE
  8
DATA
  6
CONTINUOUS
 62
     7
 10
635.5
 20
1720.66449
 11
635.5
 21
1694.66449
  0
LINE
  8
DATA
  6
CONTINUOUS
 62
     7
 10
610.5
 20
1694.66449
 11
610.5
 21
1720.66449
  0
LINE
  8
DIMENSIONS
  6
CONTINUOUS
 62
     7
 10
600.0
 20
1837.882393
 11
600.0
 21
2018.75
  0
LINE
  8
DIMENSIONS
  6
CONTINUOUS
 62
     7
 10
585.0
 20
1822.882393
 11
481.25
 21
1822.882393
  0
LINE
  8
DIMENSIONS
  6
CONTINUOUS
 62
     7
 10
504.9998
 20
1792.882393
 11
500.0
 21
1822.882393
  0
LINE
  8
DIMENSIONS
  6
CONTINUOUS
 62
     7
 10
495.0002
 20
1792.882393
 11
500.0
 21
1822.882393
  0
LINE
  8
DATA
  6
CONTINUOUS
 62
     7
 10
800.5
 20
1100.0
 11
1257.5
 21
1100.0
  0
TEXT
  8
DIMENSIONS
  6
CONTINUOUS
 62
     7
 10
893.208152
 20
2018.75
 40
37.5
  1
858 (16chフレーム)
  7
TTF_DEFAULT
  0
LINE
  8
DATA
  6
CONTINUOUS
 62
     7
 10
711.5
 20
1168.0
 11
711.5
 21
1791.245214
  0
LINE
  8
DATA
  6
CONTINUOUS
 62
     7
 10
743.25
 20
1168.0
 11
743.25
 21
1791.245214
  0
LINE
  8
DATA
  6
CONTINUOUS
 62
     7
 10
775.0
 20
1168.0
 11
775.0
 21
1791.245214
  0
LINE
  8
DATA
  6
CONTINUOUS
 62
     7
 10
806.75
 20
1168.0
 11
806.75
 21
1791.245214
  0
LINE
  8
DATA
  6
CONTINUOUS
 62
     7
 10
838.5
 20
1168.0
 11
838.5
 21
1791.245214
  0
LINE
  8
DATA
  6
CONTINUOUS
 62
     7
 10
870.25
 20
1168.0
 11
870.25
 21
1791.245214
  0
LINE
  8
DATA
  6
CONTINUOUS
 62
     7
 10
902.0
 20
1168.0
 11
902.0
 21
1791.245214
  0
LINE
  8
DATA
  6
CONTINUOUS
 62
     7
 10
933.75
 20
1168.0
 11
933.75
 21
1791.245214
  0
LINE
  8
DATA
  6
CONTINUOUS
 62
     7
 10
965.5
 20
1168.0
 11
965.5
 21
1791.245214
  0
LINE
  8
DATA
  6
CONTINUOUS
 62
     7
 10
997.25
 20
1168.0
 11
997.25
 21
1791.245214
  0
LINE
  8
DATA
  6
CONTINUOUS
 62
     7
 10
1029.0
 20
1168.0
 11
1029.0
 21
1791.245214
  0
LINE
  8
DATA
  6
CONTINUOUS
 62
     7
 10
1060.75
 20
1168.0
 11
1060.75
 21
1791.245214
  0
LINE
  8
DATA
  6
CONTINUOUS
 62
     7
 10
1438.0
 20
1646.66449
 11
1438.0
 21
1197.66449
  0
LINE
  8
DATA
  6
CONTINUOUS
 62
     7
 10
1458.0
 20
1822.882393
 11
1458.0
 21
1420.66449
  0
LINE
  8
DATA
  6
CONTINUOUS
 62
     7
 10
1092.5
 20
1168.0
 11
1092.5
 21
1791.245214
  0
LINE
  8
DATA
  6
CONTINUOUS
 62
     7
 10
1124.25
 20
1168.0
 11
1124.25
 21
1791.245214
  0
LINE
  8
DATA
  6
CONTINUOUS
 62
     7
 10
1156.0
 20
1168.0
 11
1156.0
 21
1791.245214
  0
LINE
  8
DATA
  6
CONTINUOUS
 62
     7
 10
1187.75
 20
1168.0
 11
1187.75
 21
1791.245214
  0
LINE
  8
DATA
  6
CONTINUOUS
 62
     7
 10
1219.5
 20
1168.0
 11
1219.5
 21
1791.245214
  0
LINE
  8
DATA
  6
CONTINUOUS
 62
     7
 10
1251.25
 20
1168.0
 11
1251.25
 21
1791.245214
  0
LINE
  8
DATA
  6
CONTINUOUS
 62
     7
 10
1283.0
 20
1168.0
 11
1283.0
 21
1791.245214
  0
LINE
  8
DATA
  6
CONTINUOUS
 62
     7
 10
1314.75
 20
1168.0
 11
1314.75
 21
1791.245214
  0
LINE
  8
DATA
  6
CONTINUOUS
 62
     7
 10
1378.25
 20
1168.0
 11
1378.25
 21
1791.245214
  0
LINE
  8
DATA
  6
CONTINUOUS
 62
     7
 10
1413.0
 20
1822.882393
 11
1413.0
 21
1168.0
  0
ARC
  8
DATA
  6
CONTINUOUS
 62
     7
 10
1250.891829
 20
2244.12074
 40
1144.139823
 50
270.330923
 51
279.894776
  0
LINE
  8
DATA
  6
CONTINUOUS
 62
     7
 10
1452.731977
 20
1197.66449
 11
1413.0
 21
1197.66449
  0
ARC
  8
DATA
  6
CONTINUOUS
 62
     7
 10
-4431.184211
 20
1546.059211
 40
5894.320983
 50
355.825636
 51
356.322549
  0
ARC
  8
DATA
  6
CONTINUOUS
 62
     7
 10
-2184.70808
 20
1395.155501
 40
3642.797395
 50
356.424863
 51
0.401222
  0
LINE
  8
DATA
  6
CONTINUOUS
 62
     7
 10
1413.0
 20
1168.0
 11
1410.0
 21
1111.098002
  0
ARC
  8
DATA
  6
CONTINUOUS
 62
     7
 10
1438.0
 20
1666.66449
 40
20.0
 50
270.0
 51
0.0
  0
LINE
  8
DATA
  6
CONTINUOUS
 62
     7
 10
1438.0
 20
1646.66449
 11
1458.0
 21
1646.66449
  0
LINE
  8
DIMENSIONS
  6
CONTINUOUS
 62
     7
 10
1428.0
 20
2004.9998
 11
1458.0
 21
2000.0
  0
LINE
  8
DIMENSIONS
  6
CONTINUOUS
 62
     7
 10
1428.0
 20
1995.0002
 11
1458.0
 21
2000.0
  0
LINE
  8
DATA
  6
CONTINUOUS
 62
     7
 10
1439.322183
 20
1722.66449
 11
1445.5
 21
1722.66449
  0
LINE
  8
DATA
  6
CONTINUOUS
 62
     7
 10
1430.651696
 20
1722.66449
 11
1424.5
 21
1722.66449
  0
LINE
  8
DATA
  6
CONTINUOUS
 62
     7
 10
1433.04038
 20
1716.9706
 11
1436.94976
 21
1716.97257
  0
LINE
  8
DATA
  6
CONTINUOUS
 62
     7
 10
1433.05024
 20
1718.16449
 11
1433.05024
 21
1716.97257
  0
LINE
  8
DATA
  6
CONTINUOUS
 62
     7
 10
1436.94976
 20
1718.16886
 11
1436.94976
 21
1716.97257
  0
POLYLINE
  8
DATA
  6
CONTINUOUS
 62
     7
 66
     1
  0
VERTEX
  8
DATA
 10
1436.94976
 20
1718.16886
  0
VERTEX
  8
DATA
 10
1437.5722
 20
1718.28597
  0
VERTEX
  8
DATA
 10
1438.16212
 20
1718.43429
  0
VERTEX
  8
DATA
 10
1438.7121
 20
1718.61194
  0
VERTEX
  8
DATA
 10
1439.21523
 20
1718.8167
  0
VERTEX
  8
DATA
 10
1439.66517
 20
1719.04599
  0
VERTEX
  8
DATA
 10
1440.05627
 20
1719.29693
  0
VERTEX
  8
DATA
 10
1440.38361
 20
1719.56637
  0
VERTEX
  8
DATA
 10
1440.64307
 20
1719.8509
  0
VERTEX
  8
DATA
 10
1440.83139
 20
1720.14696
  0
VERTEX
  8
DATA
 10
1440.94621
 20
1720.45083
  0
VERTEX
  8
DATA
 10
1440.98607
 20
1720.75868
  0
VERTEX
  8
DATA
 10
1440.95048
 20
1721.06663
  0
VERTEX
  8
DATA
 10
1440.83988
 20
1721.37082
  0
VERTEX
  8
DATA
 10
1440.65567
 20
1721.66743
  0
VERTEX
  8
DATA
 10
1440.40016
 20
1721.95272
  0
VERTEX
  8
DATA
 10
1440.07657
 20
1722.2231
  0
VERTEX
  8
DATA
 10
1439.68896
 20
1722.47517
  0
VERTEX
  8
DATA
 10
1439.24221
 20
1722.70577
  0
VERTEX
  8
DATA
 10
1438.74193
 20
1722.91199
  0
VERTEX
  8
DATA
 10
1438.19443
 20
1723.09125
  0
VERTEX
  8
DATA
 10
1437.60658
 20
1723.24128
  0
VERTEX
  8
DATA
 10
1436.98577
 20
1723.3602
  0
VERTEX
  8
DATA
 10
1436.33982
 20
1723.44651
  0
VERTEX
  8
DATA
 10
1435.67684
 20
1723.49913
  0
VERTEX
  8
DATA
 10
1435.00518
 20
1723.51741
  0
VERTEX
  8
DATA
 10
1434.33327
 20
1723.50109
  0
VERTEX
  8
DATA
 10
1433.66958
 20
1723.4504
  0
VERTEX
  8
DATA
 10
1433.02244
 20
1723.36597
  0
VERTEX
  8
DATA
 10
1432.4
 20
1723.24886
  0
VERTEX
  8
DATA
 10
1431.81008
 20
1723.10055
  0
VERTEX
  8
DATA
 10
1431.26009
 20
1722.9229
  0
VERTEX
  8
DATA
 10
1430.75697
 20
1722.71814
  0
VERTEX
  8
DATA
 10
1430.30703
 20
1722.48884
  0
VERTEX
  8
DATA
 10
1429.91593
 20
1722.2379
  0
VERTEX
  8
DATA
 10
1429.58859
 20
1721.96847
  0
VERTEX
  8
DATA
 10
1429.32913
 20
1721.68393
  0
VERTEX
  8
DATA
 10
1429.14081
 20
1721.38787
  0
VERTEX
  8
DATA
 10
1429.02599
 20
1721.08401
  0
VERTEX
  8
DATA
 10
1428.98613
 20
1720.77616
  0
VERTEX
  8
DATA
 10
1429.02172
 20
1720.46821
  0
VERTEX
  8
DATA
 10
1429.13232
 20
1720.16401
  0
VERTEX
  8
DATA
 10
1429.31653
 20
1719.86741
  0
VERTEX
  8
DATA
 10
1429.57204
 20
1719.58212
  0
VERTEX
  8
DATA
 10
1429.89563
 20
1719.31174
  0
VERTEX
  8
DATA
 10
1430.28324
 20
1719.05967
  0
VERTEX
  8
DATA
 10
1430.72999
 20
1718.82907
  0
VERTEX
  8
DATA
 10
1431.23026
 20
1718.62284
  0
VERTEX
  8
DATA
 10
1431.77777
 20
1718.44359
  0
VERTEX
  8
DATA
 10
1432.36562
 20
1718.29356
  0
VERTEX
  8
DATA
 10
1432.98643
 20
1718.17464
  0
VERTEX
  8
DATA
 10
1433.05024
 20
1718.16449
  0
SEQEND
  8
DATA
  0
CIRCLE
  8
DATA
  6
CONTINUOUS
 62
     7
 10
1435.0
 20
1707.66449
 40
8.0
  0
ARC
  8
DATA
  6
CONTINUOUS
 62
     7
 10
1435.0
 20
1707.66449
 40
11.5
 50
108.427812
 51
71.646805
  0
ARC
  8
DATA
  6
CONTINUOUS
 62
     7
 10
1435.0
 20
1707.66449
 40
10.0
 50
101.300932
 51
78.699068
  0
ARC
  8
DATA
  6
CONTINUOUS
 62
     7
 10
1429.34314
 20
1713.32134
 40
1.0
 50
41.416615
 51
228.583385
  0
ARC
  8
DATA
  6
CONTINUOUS
 62
     7
 10
1445.5
 20
1720.66449
 40
2.0
 50
0.0
 51
90.0
  0
ARC
  8
DATA
  6
CONTINUOUS
 62
     7
 10
1424.5
 20
1720.66449
 40
2.0
 50
90.0
 51
180.0
  0
LINE
  8
DATA
  6
CONTINUOUS
 62
     7
 10
1426.0
 20
1717.91449
 11
1426.0
 21
1720.41449
  0
LINE
  8
DATA
  6
CONTINUOUS
 62
     7
 10
1424.75
 20
1719.16449
 11
1427.25
 21
1719.16449
  0
CIRCLE
  8
DATA
  6
CONTINUOUS
 62
     7
 10
1426.0
 20
1719.16449
 40
2.0
  0
ARC
  8
DATA
  6
CONTINUOUS
 62
     7
 10
1445.5
 20
1694.66449
 40
2.0
 50
270.0
 51
0.0
  0
LINE
  8
DATA
  6
CONTINUOUS
 62
     7
 10
1445.5
 20
1692.66449
 11
1424.5
 21
1692.66449
  0
ARC
  8
DATA
  6
CONTINUOUS
 62
     7
 10
1424.5
 20
1694.66449
 40
2.0
 50
180.0
 51
270.0
  0
LINE
  8
DATA
  6
CONTINUOUS
 62
     7
 10
1444.0
 20
1694.91449
 11
1444.0
 21
1697.41449
  0
LINE
  8
DATA
  6
CONTINUOUS
 62
     7
 10
1442.75
 20
1696.16449
 11
1445.25
 21
1696.16449
  0
CIRCLE
  8
DATA
  6
CONTINUOUS
 62
     7
 10
1444.0
 20
1696.16449
 40
2.0
  0
CIRCLE
  8
DATA
  6
CONTINUOUS
 62
     7
 10
1439.0
 20
1707.66449
 40
1.0
  0
CIRCLE
  8
DATA
  6
CONTINUOUS
 62
     7
 10
1437.828
 20
1704.83649
 40
1.0
  0
CIRCLE
  8
DATA
  6
CONTINUOUS
 62
     7
 10
1432.171
 20
1704.83649
 40
1.0
  0
CIRCLE
  8
DATA
  6
CONTINUOUS
 62
     7
 10
1431.536
 20
1709.66449
 40
1.0
  0
LINE
  8
DATA
  6
CONTINUOUS
 62
     7
 10
1447.5
 20
1720.66449
 11
1447.5
 21
1694.66449
  0
LINE
  8
DATA
  6
CONTINUOUS
 62
     7
 10
1422.5
 20
1694.66449
 11
1422.5
 21
1720.66449
  0
LINE
  8
DIMENSIONS
  6
CONTINUOUS
 62
     7
 10
1458.0
 20
2018.75
 11
1458.0
 21
1837.882393
  0
TEXT
  8
SPEC
  6
CONTINUOUS
 62
     7
 10
281.25
 20
3993.75
 40
45.0
  1
仕様
  7
TTF_DEFAULT
  0
TEXT
  8
SPEC
  6
CONTINUOUS
 62
     7
 10
271.875
 20
3928.125
 40
37.5
  1
周波数特性
  7
TTF_DEFAULT
  0
TEXT
  8
SPEC
  6
CONTINUOUS
 62
     7
 10
271.875
 20
3871.875
 40
37.5
  1
THD
  7
TTF_DEFAULT
  0
TEXT
  8
SPEC
  6
CONTINUOUS
 62
     7
 10
271.875
 20
3759.375
 40
37.5
  1
ノイズ
  7
TTF_DEFAULT
  0
TEXT
  8
SPEC
  6
CONTINUOUS
 62
     7
 10
271.875
 20
3478.125
 40
37.5
  1
寸法 / 重量
  7
TTF_DEFAULT
  0
TEXT
  8
SPEC
  6
CONTINUOUS
 62
     7
 10
271.875
 20
3428.125
 40
37.5
  1
(電源部を除く)
  7
TTF_DEFAULT
  0
TEXT
  8
SPEC
  6
CONTINUOUS
 62
     7
 10
271.875
 20
3590.625
 40
37.5
  1
クロストーク (1kHz)
  7
TTF_DEFAULT
  0
LINE
  8
SPEC
  6
CONTINUOUS
 62
     7
 10
262.5
 20
3975.0
 11
262.5
 21
3412.5
  0
TEXT
  8
SPEC
  6
CONTINUOUS
 62
     7
 10
759.375
 20
3821.875
 40
37.5
  1
グループまたはミックス出力 (+20dBu出力)
  7
TTF_DEFAULT
  0
TEXT
  8
SPEC
  6
CONTINUOUS
 62
     7
 10
759.375
 20
3871.875
 40
37.5
  1
高インピーダンス入力から
  7
TTF_DEFAULT
  0
TEXT
  8
SPEC
  6
CONTINUOUS
 62
     7
 10
759.375
 20
3709.375
 40
37.5
  1
(22Hz～22kHz,ウェイト無し)
  7
TTF_DEFAULT
  0
TEXT
  8
SPEC
  6
CONTINUOUS
 62
     7
 10
759.375
 20
3590.625
 40
37.5
  1
入力ミュートおよびフェーダー下げきり
  7
TTF_DEFAULT
  0
TEXT
  8
SPEC
  6
CONTINUOUS
 62
     7
 10
759.375
 20
3928.125
 40
37.5
  1
任意の入出力間 (+50dBゲイン)
  7
TTF_DEFAULT
  0
TEXT
  8
SPEC
  6
CONTINUOUS
 62
     7
 10
759.375
 20
3646.875
 40
37.5
  1
ミックスバス出力ノイズ (24chをアサイン)
  7
TTF_DEFAULT
  0
TEXT
  8
SPEC
  6
CONTINUOUS
 62
     7
 10
759.375
 20
3759.375
 40
37.5
  1
等価入力ノイズ
  7
TTF_DEFAULT
  0
LINE
  8
SPEC
  6
CONTINUOUS
 62
     7
 10
750.0
 20
3975.0
 11
750.0
 21
3412.5
  0
TEXT
  8
SPEC
  6
CONTINUOUS
 62
     7
 10
759.375
 20
3534.375
 40
37.5
  1
ルーティング間
  7
TTF_DEFAULT
  0
TEXT
  8
HIBINO-BASE
  6
CONTINUOUS
 62
     7
 10
2231.25
 20
262.5
 40
37.5
  1
N.Sasaki
  7
TTF_DEFAULT
  0
LINE
  8
HIBINO-BASE
  6
CONTINUOUS
 62
     7
 10
1500.0
 20
375.0
 11
2850.0
 21
375.0
  0
TEXT
  8
HIBINO-BASE
  6
CONTINUOUS
 62
     7
 10
2220.0
 20
337.5
 40
37.5
  1
DRAWN
  7
TTF_DEFAULT
  0
LINE
  8
0
  6
CONTINUOUS
 62
     7
 10
1500.0
 20
564.5
 11
2850.0
 21
564.5
  0
LINE
  8
0
  6
CONTINUOUS
 62
     7
 10
1500.0
 20
560.5
 11
2850.0
 21
560.5
  0
LINE
  8
0
  6
CONTINUOUS
 62
     7
 10
1500.0
 20
564.5
 11
1500.0
 21
560.5
  0
LINE
  8
0
  6
CONTINUOUS
 62
     7
 10
2850.0
 20
564.5
 11
2850.0
 21
560.5
  0
SOLID
  8
HIBINO-BASE
  6
CONTINUOUS
 62
     7
 10
1500.0
 20
564.5
 11
2850.0
 21
564.5
 12
1500.0
 22
560.5
 13
2850.0
 23
560.5
  0
LINE
  8
DIMENSIONS
  6
CONTINUOUS
 62
     7
 10
2000.0
 20
1085.0
 11
2000.0
 21
981.25
  0
LINE
  8
DIMENSIONS
  6
CONTINUOUS
 62
     7
 10
2100.33
 20
981.25
 11
2100.33
 21
1182.382393
  0
TEXT
  8
HIBINO-BASE
  6
CONTINUOUS
 62
     7
 10
1845.0
 20
337.5
 40
37.5
  1
DATE
  7
TTF_DEFAULT
  0
TEXT
  8
HIBINO-BASE
  6
CONTINUOUS
 62
     7
 10
1856.25
 20
262.5
 40
37.5
  1
'99.10.
  7
TTF_DEFAULT
  0
LINE
  8
0
  6
CONTINUOUS
 62
     7
 10
1498.0
 20
225.0
 11
1498.0
 21
562.5
  0
LINE
  8
0
  6
CONTINUOUS
 62
     7
 10
1502.0
 20
225.0
 11
1502.0
 21
562.5
  0
LINE
  8
0
  6
CONTINUOUS
 62
     7
 10
1498.0
 20
225.0
 11
1502.0
 21
225.0
  0
LINE
  8
0
  6
CONTINUOUS
 62
     7
 10
1498.0
 20
562.5
 11
1502.0
 21
562.5
  0
SOLID
  8
HIBINO-BASE
  6
CONTINUOUS
 62
     7
 10
1498.0
 20
225.0
 11
1498.0
 21
562.5
 12
1502.0
 22
225.0
 13
1502.0
 23
562.5
  0
TEXT
  8
HIBINO-BASE
  6
CONTINUOUS
 62
     7
 10
1556.25
 20
243.75
 40
60.0
  1
A4
  7
TTF_DEFAULT
  0
LINE
  8
HIBINO-BASE
  6
CONTINUOUS
 62
     7
 10
1715.625
 20
243.75
 11
1771.875
 21
300.0
  0
TEXT
  8
HIBINO-BASE
  6
CONTINUOUS
 62
     7
 10
1706.25
 20
271.875
 40
45.0
  1
1
  7
TTF_DEFAULT
  0
TEXT
  8
HIBINO-BASE
  6
CONTINUOUS
 62
     7
 10
1507.5
 20
337.5
 40
33.75
  1
図面サイズ
  7
TTF_DEFAULT
  0
TEXT
  8
HIBINO-BASE
  6
CONTINUOUS
 62
     7
 10
1695.0
 20
337.5
 40
37.5
  1
SCALE
  7
TTF_DEFAULT
  0
LINE
  8
HIBINO-BASE
  6
CONTINUOUS
 62
     7
 10
1837.5
 20
225.0
 11
1837.5
 21
375.0
  0
LINE
  8
HIBINO-BASE
  6
CONTINUOUS
 62
     7
 10
1687.5
 20
225.0
 11
1687.5
 21
375.0
  0
TEXT
  8
HIBINO-BASE
  6
CONTINUOUS
 62
     7
 10
1762.5
 20
243.75
 40
45.0
  1
15
  7
TTF_DEFAULT
  0
TEXT
  8
HIBINO-BASE
  6
CONTINUOUS
 62
     7
 10
1507.5
 20
525.0
 40
37.5
  1
NOTE
  7
TTF_DEFAULT
  0
LINE
  8
HIBINO-BASE
  6
CONTINUOUS
 62
     7
 10
2025.0
 20
225.0
 11
2025.0
 21
562.5
  0
TEXT
  8
HIBINO-BASE
  6
CONTINUOUS
 62
     7
 10
2032.5
 20
337.5
 40
37.5
  1
DESIGN
  7
TTF_DEFAULT
  0
LINE
  8
HIBINO-BASE
  6
CONTINUOUS
 62
     7
 10
2212.5
 20
375.0
 11
2212.5
 21
225.0
  0
TEXT
  8
HIBINO-BASE
  6
CONTINUOUS
 62
     7
 10
2032.5
 20
525.0
 40
37.5
  1
TITLE
  7
TTF_DEFAULT
  0
LINE
  8
DIMENSIONS
  6
CONTINUOUS
 62
     7
 10
2000.0
 20
1000.0
 11
2100.33
 21
1000.0
  0
LINE
  8
DIMENSIONS
  6
CONTINUOUS
 62
     7
 10
2030.0
 20
995.0002
 11
2000.0
 21
1000.0
  0
LINE
  8
DIMENSIONS
  6
CONTINUOUS
 62
     7
 10
2030.0
 20
1004.9998
 11
2000.0
 21
1000.0
  0
LINE
  8
DIMENSIONS
  6
CONTINUOUS
 62
     7
 10
2070.33
 20
995.0002
 11
2100.33
 21
1000.0
  0
LINE
  8
DIMENSIONS
  6
CONTINUOUS
 62
     7
 10
2070.33
 20
1004.9998
 11
2100.33
 21
1000.0
  0
LINE
  8
DIMENSIONS
  6
CONTINUOUS
 62
     7
 10
2100.33
 20
2000.0
 11
1847.854004
 21
2000.0
  0
LINE
  8
DATA
  6
CONTINUOUS
 62
     7
 10
1850.858439
 20
1791.240175
 11
2000.0
 21
1100.0
  0
LINE
  8
DATA
  6
CONTINUOUS
 62
     7
 10
1850.857352
 20
1791.245214
 11
1994.449042
 21
1822.882393
  0
LINE
  8
DIMENSIONS
  6
CONTINUOUS
 62
     7
 10
1877.854004
 20
2004.9998
 11
1847.854004
 21
2000.0
  0
LINE
  8
DIMENSIONS
  6
CONTINUOUS
 62
     7
 10
1877.854004
 20
1995.0002
 11
1847.854004
 21
2000.0
  0
LINE
  8
DATA
  6
CONTINUOUS
 62
     7
 10
1856.410862
 20
1749.690638
 11
1859.927387
 21
1749.207396
  0
LINE
  8
DATA
  6
CONTINUOUS
 62
     7
 10
1847.854004
 20
1789.349978
 11
1856.410862
 21
1749.690638
  0
LINE
  8
DATA
  6
CONTINUOUS
 62
     7
 10
1847.854004
 20
1789.349978
 11
1850.858439
 21
1791.240175
  0
LINE
  8
DIMENSIONS
  6
CONTINUOUS
 62
     7
 10
1847.854004
 20
1804.349978
 11
1847.854004
 21
2018.75
  0
LINE
  8
DATA
  6
CONTINUOUS
 62
     7
 10
1981.067327
 20
1609.91668
 11
1983.936203
 21
1534.28435
  0
LINE
  8
DATA
  6
CONTINUOUS
 62
     7
 10
1899.975366
 20
1646.595914
 11
1991.596914
 21
1202.305276
  0
LINE
  8
DIMENSIONS
  6
CONTINUOUS
 62
     7
 10
2200.0
 20
1100.0
 11
2200.0
 21
1822.882393
  0
LINE
  8
DATA
  6
CONTINUOUS
 62
     7
 10
2100.33
 20
1822.882393
 11
2100.33
 21
1197.382393
  0
LINE
  8
DATA
  6
CONTINUOUS
 62
     7
 10
1983.047469
 20
1564.266103
 11
2099.81314
 21
1564.266103
  0
LINE
  8
DIMENSIONS
  6
CONTINUOUS
 62
     7
 10
2015.0
 20
1100.0
 11
2218.75
 21
1100.0
  0
TEXT
  8
DIMENSIONS
  6
CONTINUOUS
 62
     7
 10
2004.007474
 20
1018.75
 40
37.5
  1
100.3
  7
TTF_DEFAULT
  0
LINE
  8
DATA
  6
CONTINUOUS
 62
     7
 10
1997.909663
 20
1109.688289
 11
2040.497435
 21
1117.861345
  0
LINE
  8
DATA
  6
CONTINUOUS
 62
     7
 10
2000.0
 20
1100.0
 11
2041.264404
 21
1109.383498
  0
LINE
  8
DATA
  6
CONTINUOUS
 62
     7
 10
2034.194189
 20
1187.535921
 11
2041.264404
 21
1109.383498
  0
LINE
  8
DATA
  6
CONTINUOUS
 62
     7
 10
1983.936203
 20
1534.28435
 11
1989.953686
 21
1456.135955
  0
LINE
  8
DATA
  6
CONTINUOUS
 62
     7
 10
2034.194189
 20
1187.535921
 11
1989.953686
 21
1456.135955
  0
ARC
  8
DATA
  6
CONTINUOUS
 62
     7
 10
2577.44022
 20
1320.849042
 40
615.62741
 50
191.54257
 51
199.182118
  0
LINE
  8
DATA
  6
CONTINUOUS
 62
     7
 10
1974.26307
 20
1197.66449
 11
1991.393963
 21
1202.25094
  0
LINE
  8
DIMENSIONS
  6
CONTINUOUS
 62
     7
 10
2204.9998
 20
1130.0
 11
2200.0
 21
1100.0
  0
LINE
  8
DIMENSIONS
  6
CONTINUOUS
 62
     7
 10
2195.0002
 20
1130.0
 11
2200.0
 21
1100.0
  0
TEXT
  8
DIMENSIONS
  6
CONTINUOUS
 62
     7
 10
2181.25
 20
1415.283671
 40
37.5
  1
722.9
 50
90.0
  7
TTF_DEFAULT
  0
LINE
  8
DATA
  6
CONTINUOUS
 62
     7
 10
2110.13
 20
1289.032633
 11
2110.13
 21
1304.032633
  0
LINE
  8
DATA
  6
CONTINUOUS
 62
     7
 10
2100.33
 20
1307.838323
 11
2110.13
 21
1304.032633
  0
LINE
  8
DATA
  6
CONTINUOUS
 62
     7
 10
2100.33
 20
1285.226943
 11
2110.13
 21
1289.032633
  0
LINE
  8
DATA
  6
CONTINUOUS
 62
     7
 10
2035.248442
 20
1181.135169
 11
2100.33
 21
1197.382393
  0
TEXT
  8
DIMENSIONS
  6
CONTINUOUS
 62
     7
 10
2188.88
 20
1968.75
 40
37.5
  1
9.8
  7
TTF_DEFAULT
  0
LINE
  8
DATA
  6
CONTINUOUS
 62
     7
 10
1994.449042
 20
1822.882393
 11
2100.33
 21
1822.882393
  0
LINE
  8
DATA
  6
CONTINUOUS
 62
     7
 10
1981.41414
 20
1700.560816
 11
1981.067327
 21
1609.91668
  0
LINE
  8
DATA
  6
CONTINUOUS
 62
     7
 10
1882.052001
 20
1646.66449
 11
1900.0346
 21
1646.595687
  0
LINE
  8
DATA
  6
CONTINUOUS
 62
     7
 10
1877.818277
 20
1666.286872
 11
1900.0346
 21
1646.595687
  0
TEXT
  8
DIMENSIONS
  6
CONTINUOUS
 62
     7
 10
1927.934477
 20
2018.75
 40
37.5
  1
252.5
  7
TTF_DEFAULT
  0
LINE
  8
DIMENSIONS
  6
CONTINUOUS
 62
     7
 10
2100.33
 20
1837.882393
 11
2100.33
 21
2018.75
  0
LINE
  8
DIMENSIONS
  6
CONTINUOUS
 62
     7
 10
2115.33
 20
1822.882393
 11
2218.75
 21
1822.882393
  0
LINE
  8
DIMENSIONS
  6
CONTINUOUS
 62
     7
 10
2204.9998
 20
1792.882393
 11
2200.0
 21
1822.882393
  0
LINE
  8
DIMENSIONS
  6
CONTINUOUS
 62
     7
 10
2195.0002
 20
1792.882393
 11
2200.0
 21
1822.882393
  0
LINE
  8
DATA
  6
CONTINUOUS
 62
     7
 10
2100.33
 20
1736.898723
 11
2110.13
 21
1733.093033
  0
LINE
  8
DATA
  6
CONTINUOUS
 62
     7
 10
2100.33
 20
1714.287343
 11
2110.13
 21
1718.093033
  0
LINE
  8
DATA
  6
CONTINUOUS
 62
     7
 10
2110.13
 20
1718.093033
 11
2110.13
 21
1733.093033
  0
LINE
  8
DIMENSIONS
  6
CONTINUOUS
 62
     7
 10
2070.33
 20
2004.9998
 11
2100.33
 21
2000.0
  0
LINE
  8
DIMENSIONS
  6
CONTINUOUS
 62
     7
 10
2070.33
 20
1995.0002
 11
2100.33
 21
2000.0
  0
LINE
  8
DIMENSIONS
  6
CONTINUOUS
 62
     7
 10
2100.33
 20
1950.0
 11
2040.33
 21
1950.0
  0
LINE
  8
DIMENSIONS
  6
CONTINUOUS
 62
     7
 10
2110.13
 20
1950.0
 11
2170.13
 21
1950.0
  0
LINE
  8
DIMENSIONS
  6
CONTINUOUS
 62
     7
 10
2070.33
 20
1945.0002
 11
2100.33
 21
1950.0
  0
LINE
  8
DIMENSIONS
  6
CONTINUOUS
 62
     7
 10
2070.33
 20
1954.9998
 11
2100.33
 21
1950.0
  0
LINE
  8
DIMENSIONS
  6
CONTINUOUS
 62
     7
 10
2140.13
 20
1945.0002
 11
2110.13
 21
1950.0
  0
LINE
  8
DIMENSIONS
  6
CONTINUOUS
 62
     7
 10
2140.13
 20
1954.9998
 11
2110.13
 21
1950.0
  0
LINE
  8
DIMENSIONS
  6
CONTINUOUS
 62
     7
 10
2110.13
 20
1748.093033
 11
2110.13
 21
1968.75
  0
TEXT
  8
HIBINO-BASE
  6
CONTINUOUS
 62
     7
 10
2380.950394
 20
128.8698
 40
60.0
  1
ヒビノ株式会社
  7
TTF_DEFAULT
  0
TEXT
  8
HIBINO-BASE
  6
CONTINUOUS
 62
     7
 10
2595.0
 20
337.5
 40
37.5
  1
DRAWING NO.
  7
TTF_DEFAULT
  0
TEXT
  8
DATA
  6
CONTINUOUS
 62
     7
 10
2287.5
 20
428.125
 40
45.0
  1
K3-16ch
  7
TTF_DEFAULT
  0
TEXT
  8
HIBINO-BASE
  6
CONTINUOUS
 62
     7
 10
2407.5
 20
337.5
 40
37.5
  1
CHECK
  7
TTF_DEFAULT
  0
LINE
  8
HIBINO-BASE
  6
CONTINUOUS
 62
     7
 10
2587.5
 20
375.0
 11
2587.5
 21
225.0
  0
LINE
  8
HIBINO-BASE
  6
CONTINUOUS
 62
     7
 10
2400.0
 20
225.0
 11
2400.0
 21
375.0
  0
TEXT
  8
DATA
  6
CONTINUOUS
 62
     7
 10
2287.5
 20
496.875
 40
45.0
  1
Soundcraft
  7
TTF_DEFAULT
  0
TEXT
  8
SPEC
  6
CONTINUOUS
 62
     7
 10
1609.375
 20
3928.125
 40
37.5
  1
+0/-0.5dB (20Hz～20kHz)
  7
TTF_DEFAULT
  0
TEXT
  8
SPEC
  6
CONTINUOUS
 62
     7
 10
1609.375
 20
3871.875
 40
37.5
  1
0.005%以下 (@1kHz)
  7
TTF_DEFAULT
  0
TEXT
  8
SPEC
  6
CONTINUOUS
 62
     7
 10
1609.375
 20
3759.375
 40
37.5
  1
-127.5dBu以下 (150Ω入力)
  7
TTF_DEFAULT
  0
LINE
  8
SPEC
  6
CONTINUOUS
 62
     7
 10
1600.0
 20
3975.0
 11
1600.0
 21
3525.0
  0
TEXT
  8
SPEC
  6
CONTINUOUS
 62
     7
 10
1609.375
 20
3646.875
 40
37.5
  1
-81dBu以下
  7
TTF_DEFAULT
  0
TEXT
  8
SPEC
  6
CONTINUOUS
 62
     7
 10
1609.375
 20
3590.625
 40
37.5
  1
90dB以上
  7
TTF_DEFAULT
  0
TEXT
  8
SPEC
  6
CONTINUOUS
 62
     7
 10
1609.375
 20
3534.375
 40
37.5
  1
85dB以上
  7
TTF_DEFAULT
  0
LINE
  8
SPEC
  6
CONTINUOUS
 62
     7
 10
2400.0
 20
3975.0
 11
2400.0
 21
3412.5
  0
ENDSEC
  0
EOF
