  0
SECTION
  2
HEADER
  9
$ACADVER
  1
AC1009
  9
$INSBASE
 10
0.0
 20
0.0
 30
0.0
  9
$EXTMIN
 10
-260.02197097989512
 20
-399.89220955822299
 30
-0.0015258207003583
  9
$EXTMAX
 10
460.0219743326561
 20
670.62804802803294
 30
0.0000000349246037
  9
$LIMMIN
 10
0.0
 20
0.0
  9
$LIMMAX
 10
0.0
 20
0.0
  9
$ORTHOMODE
 70
     0
  9
$REGENMODE
 70
     1
  9
$FILLMODE
 70
     1
  9
$QTEXTMODE
 70
     0
  9
$MIRRTEXT
 70
     1
  9
$DRAGMODE
 70
     2
  9
$LTSCALE
 40
20.32
  9
$OSMODE
 70
   231
  9
$ATTMODE
 70
     1
  9
$TEXTSIZE
 40
0.0
  9
$TRACEWID
 40
1.0
  9
$TEXTSTYLE
  7
STANDARD
  9
$CLAYER
  8
DATA
  9
$CELTYPE
  6
BYLAYER
  9
$CECOLOR
 62
   256
  9
$DIMSCALE
 40
1.0
  9
$DIMASZ
 40
0.18
  9
$DIMEXO
 40
0.0625
  9
$DIMDLI
 40
0.38
  9
$DIMRND
 40
0.0
  9
$DIMDLE
 40
0.0
  9
$DIMEXE
 40
0.18
  9
$DIMTP
 40
0.0
  9
$DIMTM
 40
0.0
  9
$DIMTXT
 40
0.18
  9
$DIMCEN
 40
0.09
  9
$DIMTSZ
 40
0.0
  9
$DIMTOL
 70
     0
  9
$DIMLIM
 70
     0
  9
$DIMTIH
 70
     1
  9
$DIMTOH
 70
     1
  9
$DIMSE1
 70
     0
  9
$DIMSE2
 70
     0
  9
$DIMTAD
 70
     0
  9
$DIMZIN
 70
     0
  9
$DIMBLK
  1

  9
$DIMASO
 70
     1
  9
$DIMSHO
 70
     1
  9
$DIMPOST
  1

  9
$DIMAPOST
  1

  9
$DIMALT
 70
     0
  9
$DIMALTD
 70
     2
  9
$DIMALTF
 40
25.399999999999999
  9
$DIMLFAC
 40
1.0
  9
$DIMTOFL
 70
     0
  9
$DIMTVP
 40
0.0
  9
$DIMTIX
 70
     0
  9
$DIMSOXD
 70
     0
  9
$DIMSAH
 70
     0
  9
$DIMBLK1
  1

  9
$DIMBLK2
  1

  9
$DIMSTYLE
  2
STANDARD
  9
$DIMCLRD
 70
     0
  9
$DIMCLRE
 70
     0
  9
$DIMCLRT
 70
     0
  9
$DIMTFAC
 40
1.0
  9
$DIMGAP
 40
0.09
  9
$LUNITS
 70
     2
  9
$LUPREC
 70
     4
  9
$SKETCHINC
 40
0.1
  9
$FILLETRAD
 40
0.0
  9
$AUNITS
 70
     0
  9
$AUPREC
 70
     0
  9
$MENU
  1
acad
  9
$ELEVATION
 40
0.0
  9
$PELEVATION
 40
0.0
  9
$THICKNESS
 40
0.0
  9
$LIMCHECK
 70
     0
  9
$BLIPMODE
 70
     0
  9
$CHAMFERA
 40
0.0
  9
$CHAMFERB
 40
0.0
  9
$SKPOLY
 70
     0
  9
$TDCREATE
 40
2455384.4408333339
  9
$TDUPDATE
 40
2455384.4428960071
  9
$TDINDWG
 40
0.000260081
  9
$TDUSRTIMER
 40
0.0002598958
  9
$USRTIMER
 70
     1
  9
$ANGBASE
 50
0.0
  9
$ANGDIR
 70
     0
  9
$PDMODE
 70
     1
  9
$PDSIZE
 40
-2.0
  9
$PLINEWID
 40
0.0
  9
$COORDS
 70
     0
  9
$SPLFRAME
 70
     0
  9
$SPLINETYPE
 70
     6
  9
$SPLINESEGS
 70
     8
  9
$ATTDIA
 70
     0
  9
$ATTREQ
 70
     1
  9
$HANDLING
 70
     1
  9
$HANDSEED
  5
220
  9
$SURFTAB1
 70
     6
  9
$SURFTAB2
 70
     6
  9
$SURFTYPE
 70
     6
  9
$SURFU
 70
     6
  9
$SURFV
 70
     6
  9
$UCSNAME
  2

  9
$UCSORG
 10
0.0
 20
0.0
 30
0.0
  9
$UCSXDIR
 10
1.0
 20
0.0
 30
0.0
  9
$UCSYDIR
 10
0.0
 20
1.0
 30
0.0
  9
$PUCSNAME
  2

  9
$PUCSORG
 10
0.0
 20
0.0
 30
0.0
  9
$PUCSXDIR
 10
1.0
 20
0.0
 30
0.0
  9
$PUCSYDIR
 10
0.0
 20
1.0
 30
0.0
  9
$USERI1
 70
     0
  9
$USERI2
 70
     0
  9
$USERI3
 70
     0
  9
$USERI4
 70
     0
  9
$USERI5
 70
     0
  9
$USERR1
 40
0.0
  9
$USERR2
 40
0.0
  9
$USERR3
 40
0.0
  9
$USERR4
 40
0.0
  9
$USERR5
 40
0.0
  9
$WORLDVIEW
 70
     1
  9
$SHADEDGE
 70
     3
  9
$SHADEDIF
 70
    70
  9
$TILEMODE
 70
     1
  9
$MAXACTVP
 70
    64
  9
$PLIMCHECK
 70
     0
  9
$PEXTMIN
 10
1.0000000000000000E+020
 20
1.0000000000000000E+020
 30
1.0000000000000000E+020
  9
$PEXTMAX
 10
-1.0000000000000000E+020
 20
-1.0000000000000000E+020
 30
-1.0000000000000000E+020
  9
$PLIMMIN
 10
0.0
 20
0.0
  9
$PLIMMAX
 10
12.0
 20
9.0
  9
$UNITMODE
 70
     0
  9
$VISRETAIN
 70
     0
  9
$PLINEGEN
 70
     1
  9
$PSLTSCALE
 70
     0
  0
ENDSEC
  0
SECTION
  2
TABLES
  0
TABLE
  2
VPORT
 70
     1
  0
VPORT
  2
*ACTIVE
 70
     0
 10
0.0
 20
0.0
 11
1.0
 21
1.0
 12
100.00000167638061
 22
135.367919234905
 13
0.0
 23
0.0
 14
1.0
 24
1.0
 15
0.0
 25
0.0
 16
0.0
 26
0.0
 36
1.0
 17
0.0
 27
0.0
 37
0.0
 40
1078.4013883169521
 41
1.961916461916462
 42
50.0
 43
0.0
 44
0.0
 50
0.0
 51
0.0
 71
     0
 72
  2000
 73
     1
 74
     1
 75
     0
 76
     0
 77
     0
 78
     0
  0
ENDTAB
  0
TABLE
  2
LTYPE
 70
    11
  0
LTYPE
  2
CONTINUOUS
 70
     0
  3
Solid line
 72
    65
 73
     0
 40
0.0
  0
ENDTAB
  0
TABLE
  2
LAYER
 70
     5
  0
LAYER
  2
0
 70
     0
 62
     7
  6
CONTINUOUS
  0
LAYER
  2
DATA
 70
     0
 62
     7
  6
CONTINUOUS
  0
LAYER
  2
HIBINO-BASE
 70
     0
 62
     7
  6
CONTINUOUS
  0
LAYER
  2
SPEC
 70
     0
 62
     7
  6
CONTINUOUS
  0
LAYER
  2
DIMNSIONS
 70
     0
 62
     7
  6
CONTINUOUS
  0
ENDTAB
  0
TABLE
  2
STYLE
 70
     3
  0
STYLE
  2
STANDARD
 70
     0
 40
0.0
 41
1.0
 50
0.0
 71
     0
 42
0.0
  3
txt
  4
BIGFONT.SHX
  0
ENDTAB
  0
TABLE
  2
VIEW
 70
     0
  0
ENDTAB
  0
TABLE
  2
UCS
 70
     0
  0
ENDTAB
  0
TABLE
  2
APPID
 70
     3
  0
APPID
  2
ACAD
 70
     0
  0
APPID
  2
ACADANNOTATIVE
 70
     0
  0
APPID
  2
ACAD_MLEADERVER
 70
     0
  0
ENDTAB
  0
TABLE
  2
DIMSTYLE
 70
     2
  0
DIMSTYLE
  2
STANDARD
 70
     0
  3

  4

  5

  6

  7

 40
1.0
 41
0.18
 42
0.0625
 43
0.38
 44
0.18
 45
0.0
 46
0.0
 47
0.0
 48
0.0
140
0.18
141
0.09
142
0.0
143
25.399999999999999
144
1.0
145
0.0
146
1.0
147
0.09
 71
     0
 72
     0
 73
     1
 74
     1
 75
     0
 76
     0
 77
     0
 78
     0
170
     0
171
     2
172
     0
173
     0
174
     0
175
     0
176
     0
177
     0
178
     0
  0
ENDTAB
  0
ENDSEC
  0
SECTION
  2
BLOCKS
  0
BLOCK
  8
0
  2
$MODEL_SPACE
 70
     0
 10
0.0
 20
0.0
 30
0.0
  3
$MODEL_SPACE
  1

  0
ENDBLK
  5
1B7
  8
0
  0
BLOCK
 67
     1
  8
0
  2
$PAPER_SPACE
 70
     0
 10
0.0
 20
0.0
 30
0.0
  3
$PAPER_SPACE
  1

  0
ENDBLK
  5
1B3
 67
     1
  8
0
  0
ENDSEC
  0
SECTION
  2
ENTITIES
  0
LINE
  5
2C
  8
HIBINO-BASE
  6
CONTINUOUS
 62
     7
 10
-260.0
 20
670.59544499999981
 30
0.0
 11
460.0
 21
670.59544499999981
 31
0.0
  0
LINE
  5
2D
  8
HIBINO-BASE
  6
CONTINUOUS
 62
     7
 10
460.0
 20
-369.40455500000002
 30
0.0
 11
-260.0
 21
-369.40455500000002
 31
0.0
  0
LINE
  5
2E
  8
HIBINO-BASE
  6
CONTINUOUS
 62
     7
 10
-260.0
 20
-369.40455500000002
 30
0.0
 11
-260.0
 21
670.59544499999981
 31
0.0
  0
TEXT
  5
2F
  8
HIBINO-BASE
 62
     7
 10
-231.26400000000001
 20
-395.03926619999982
 30
0.0
 40
14.40017671875
  1
Hibino Corporation
 41
0.7
 11
-231.26400000000001
 21
-380.63908948124981
 31
0.0
 73
     3
  0
LINE
  5
30
  8
HIBINO-BASE
  6
CONTINUOUS
 62
     7
 10
460.0
 20
670.59544499999981
 30
0.0
 11
460.0
 21
-369.40455500000002
 31
0.0
  0
LINE
  5
31
  8
HIBINO-BASE
  6
CONTINUOUS
 62
     7
 10
100.0
 20
-279.40455500000002
 30
0.0
 11
460.0
 21
-279.40455500000002
 31
0.0
  0
LINE
  5
32
  8
HIBINO-BASE
  6
CONTINUOUS
 62
     7
 10
100.0
 20
-369.40455500000002
 30
0.0
 11
100.0
 21
-279.40455500000002
 31
0.0
  0
TEXT
  5
33
  8
HIBINO-BASE
 62
     7
 10
103.59999999999999
 20
-289.43932833333332
 30
0.0
 40
6.5153645833333318
  1
NOTE
 41
0.7
 11
103.59999999999999
 21
-282.92396374999998
 31
0.0
 73
     3
  0
LINE
  5
34
  8
HIBINO-BASE
  6
CONTINUOUS
 62
     7
 10
240.0
 20
-369.40455500000002
 30
0.0
 11
240.0
 21
-279.40455500000002
 31
0.0
  0
TEXT
  5
35
  8
HIBINO-BASE
 62
     7
 10
243.59999999999999
 20
-289.43932833333332
 30
0.0
 40
6.5153645833333318
  1
TITLE
 41
0.7
 11
243.59999999999999
 21
-282.92396374999998
 31
0.0
 73
     3
  0
TEXT
  5
36
  8
HIBINO-BASE
 62
     7
 10
300.27355999999997
 20
-395.03926619999982
 30
0.0
 40
14.40017671875
  1
ヒビノ株式会社
 41
0.7
 11
300.27355999999997
 21
-380.63908948124981
 31
0.0
 73
     3
  0
LINE
  5
37
  8
HIBINO-BASE
  6
CONTINUOUS
 62
     7
 10
100.0
 20
-329.40455500000002
 30
0.0
 11
460.0
 21
-329.40455500000002
 31
0.0
  0
TEXT
  5
38
  8
HIBINO-BASE
 62
     7
 10
293.60000000000002
 20
-339.21404833333332
 30
0.0
 40
6.5153645833333318
  1
DRAWN
 41
0.7
 11
293.60000000000002
 21
-332.69868374999999
 31
0.0
 73
     3
  0
TEXT
  5
39
  8
HIBINO-BASE
 62
     7
 10
193.59999999999999
 20
-339.21404833333332
 30
0.0
 40
6.5153645833333318
  1
DATE
 41
0.7
 11
193.59999999999999
 21
-332.69868374999999
 31
0.0
 73
     3
  0
TEXT
  5
3A
  8
HIBINO-BASE
 62
     7
 10
153.59999999999991
 20
-339.21404833333332
 30
0.0
 40
6.5153645833333318
  1
SCALE
 41
0.7
 11
153.59999999999991
 21
-332.69868374999999
 31
0.0
 73
     3
  0
TEXT
  5
3B
  8
HIBINO-BASE
 62
     7
 10
243.59999999999999
 20
-339.21404833333332
 30
0.0
 40
6.5153645833333318
  1
DESIGN
 41
0.7
 11
243.59999999999999
 21
-332.69868374999999
 31
0.0
 73
     3
  0
TEXT
  5
3C
  8
HIBINO-BASE
 62
     7
 10
393.60000000000002
 20
-339.21404833333332
 30
0.0
 40
6.5153645833333318
  1
DRAWING NO.
 41
0.7
 11
393.60000000000002
 21
-332.69868374999999
 31
0.0
 73
     3
  0
TEXT
  5
3D
  8
HIBINO-BASE
 62
     7
 10
343.60000000000002
 20
-339.21404833333332
 30
0.0
 40
6.5153645833333318
  1
CHECK
 41
0.7
 11
343.60000000000002
 21
-332.69868374999999
 31
0.0
 73
     3
  0
LINE
  5
3E
  8
HIBINO-BASE
  6
CONTINUOUS
 62
     7
 10
157.5
 20
-364.40455500000002
 30
0.0
 11
172.5
 21
-349.40455500000002
 31
0.0
  0
TEXT
  5
3F
  8
HIBINO-BASE
 62
     7
 10
155.0
 20
-353.84032833333328
 30
0.0
 40
6.5153645833333318
  1
1
 41
0.7
 11
155.0
 21
-347.32496374999999
 31
0.0
 73
     3
  0
LINE
  5
40
  8
HIBINO-BASE
  6
CONTINUOUS
 62
     7
 10
150.0
 20
-369.40455500000002
 30
0.0
 11
150.0
 21
-329.40455500000002
 31
0.0
  0
LINE
  5
41
  8
HIBINO-BASE
  6
CONTINUOUS
 62
     7
 10
190.0
 20
-369.40455500000002
 30
0.0
 11
190.0
 21
-329.40455500000002
 31
0.0
  0
LINE
  5
42
  8
HIBINO-BASE
  6
CONTINUOUS
 62
     7
 10
290.0
 20
-329.40455500000002
 30
0.0
 11
290.0
 21
-369.40455500000002
 31
0.0
  0
LINE
  5
43
  8
HIBINO-BASE
  6
CONTINUOUS
 62
     7
 10
390.0
 20
-329.40455500000002
 30
0.0
 11
390.0
 21
-369.40455500000002
 31
0.0
  0
LINE
  5
44
  8
HIBINO-BASE
  6
CONTINUOUS
 62
     7
 10
339.99999999999989
 20
-369.40455500000002
 30
0.0
 11
339.99999999999989
 21
-329.40455500000002
 31
0.0
  0
TEXT
  5
45
  8
HIBINO-BASE
 62
     7
 10
193.42616000000001
 20
-357.9499683333334
 30
0.0
 40
6.5153645833333318
  1
'10.07.
 41
0.7
 11
193.42616000000001
 21
-351.43460375000001
 31
0.0
 73
     3
  0
TEXT
  5
46
  8
HIBINO-BASE
 62
     7
 10
170.0
 20
-361.34032833333339
 30
0.0
 40
6.5153645833333318
  1
4
 41
0.7
 11
170.0
 21
-354.82496374999999
 31
0.0
 73
     3
  0
TEXT
  5
47
  8
HIBINO-BASE
 62
     7
 10
115.5333333333334
 20
-361.50055500000002
 30
0.0
 40
13.03072916666666
  1
A4
 41
0.7
 11
115.5333333333334
 21
-348.46982583333329
 31
0.0
 73
     3
  0
TEXT
  5
48
  8
HIBINO-BASE
 62
     7
 10
103.8333333333333
 20
-339.88237500000002
 30
0.0
 40
6.5153645833333318
  1
PAPER SIZE
 41
0.7
 11
103.8333333333333
 21
-333.36701041666657
 31
0.0
 73
     3
  0
TEXT
  5
49
  8
HIBINO-BASE
 62
     7
 10
296.0232400441385
 20
-357.9499683333334
 30
0.0
 40
6.5153645833333318
  1
T.Ootake
 41
0.7
 11
296.0232400441385
 21
-351.43460375000001
 31
0.0
 73
     3
  0
LINE
  5
4A
  8
SPEC
  6
CONTINUOUS
 62
     7
 10
-230.0
 20
630.5954449999997
 30
0.0
 11
360.0
 21
630.5954449999997
 31
0.0
  0
LINE
  5
4B
  8
SPEC
  6
CONTINUOUS
 62
     7
 10
-230.0
 20
615.59544499999981
 30
0.0
 11
360.0
 21
615.59544499999981
 31
0.0
  0
LINE
  5
4C
  8
SPEC
  6
CONTINUOUS
 62
     7
 10
-100.0
 20
555.59544499999993
 30
0.0
 11
360.0
 21
555.59544499999993
 31
0.0
  0
LINE
  5
4D
  8
SPEC
  6
CONTINUOUS
 62
     7
 10
-230.0
 20
570.59544499999981
 30
0.0
 11
360.0
 21
570.59544499999981
 31
0.0
  0
LINE
  5
4E
  8
SPEC
  6
CONTINUOUS
 62
     7
 10
-230.0
 20
585.5954449999997
 30
0.0
 11
360.0
 21
585.5954449999997
 31
0.0
  0
LINE
  5
4F
  8
SPEC
  6
CONTINUOUS
 62
     7
 10
-100.0
 20
540.59544499999993
 30
0.0
 11
360.0
 21
540.59544499999993
 31
0.0
  0
LINE
  5
50
  8
SPEC
  6
CONTINUOUS
 62
     7
 10
-100.0
 20
510.59544499999993
 30
0.0
 11
360.0
 21
510.59544499999993
 31
0.0
  0
LINE
  5
51
  8
SPEC
  6
CONTINUOUS
 62
     7
 10
-100.0
 20
525.59544499999993
 30
0.0
 11
360.0
 21
525.59544499999993
 31
0.0
  0
LINE
  5
52
  8
SPEC
  6
CONTINUOUS
 62
     7
 10
-230.0
 20
495.59544499999993
 30
0.0
 11
360.0
 21
495.59544499999993
 31
0.0
  0
LINE
  5
53
  8
SPEC
  6
CONTINUOUS
 62
     7
 10
-100.0
 20
480.59544499999993
 30
0.0
 11
360.0
 21
480.59544499999993
 31
0.0
  0
LINE
  5
54
  8
SPEC
  6
CONTINUOUS
 62
     7
 10
-100.0
 20
600.59544499999981
 30
0.0
 11
360.0
 21
600.59544499999981
 31
0.0
  0
LINE
  5
55
  8
SPEC
  6
CONTINUOUS
 62
     7
 10
-100.0
 20
450.59544499999993
 30
0.0
 11
360.0
 21
450.59544499999993
 31
0.0
  0
LINE
  5
56
  8
SPEC
  6
CONTINUOUS
 62
     7
 10
-230.0
 20
630.5954449999997
 30
0.0
 11
-230.0
 21
315.59544499999998
 31
0.0
  0
TEXT
  5
57
  8
SPEC
 62
     7
 10
-225.0
 20
636.16852499999982
 30
0.0
 40
9.7730468750000004
  1
仕様
 41
0.7
 11
-225.0
 21
645.94157187499979
 31
0.0
 73
     3
  0
LINE
  5
58
  8
SPEC
  6
CONTINUOUS
 62
     7
 10
-100.0
 20
630.5954449999997
 30
0.0
 11
-100.0
 21
315.59544499999998
 31
0.0
  0
LINE
  5
59
  8
SPEC
  6
CONTINUOUS
 62
     7
 10
360.0
 20
630.5954449999997
 30
0.0
 11
360.0
 21
315.59544499999998
 31
0.0
  0
TEXT
  5
5A
  8
SPEC
 62
     7
 10
-226.40000000000001
 20
618.91980690410378
 30
0.0
 40
7.6012586805555546
  1
周波数特性
 41
0.7
 11
-226.40000000000001
 21
626.52106558465937
 31
0.0
 73
     3
  0
LINE
  5
5B
  8
SPEC
  6
CONTINUOUS
 62
     7
 10
-100.0
 20
465.59544499999993
 30
0.0
 11
360.0
 21
465.59544499999993
 31
0.0
  0
TEXT
  5
5C
  8
SPEC
 62
     7
 10
-96.434454178156415
 20
334.0983104840837
 30
0.0
 40
7.6012586805555546
  1
243(W)\U+00D747(H)\U+00D7224(D)mm(突起部含まず)
 41
0.7
 11
-96.434454178156415
 21
341.69956916463917
 31
0.0
 73
     3
  0
TEXT
  5
5D
  8
SPEC
 62
     7
 10
-226.77071023629199
 20
334.7575365723622
 30
0.0
 40
7.6012586805555546
  1
寸法
 41
0.7
 11
-226.77071023629199
 21
342.35879525291767
 31
0.0
 73
     3
  0
TEXT
  5
5E
  8
SPEC
 62
     7
 10
-226.73542801768519
 20
349.59356718094341
 30
0.0
 40
7.6012586805555546
  1
電源
 41
0.7
 11
-226.73542801768519
 21
357.19482586149888
 31
0.0
 73
     3
  0
TEXT
  5
5F
  8
SPEC
 62
     7
 10
-226.73760666885431
 20
319.58309182231108
 30
0.0
 40
7.6012586805555546
  1
重量
 41
0.7
 11
-226.73760666885431
 21
327.18435050286661
 31
0.0
 73
     3
  0
TEXT
  5
60
  8
SPEC
 62
     7
 10
-96.57542461542792
 20
320.22968531186427
 30
0.0
 40
7.6012586805555546
  1
約1.7kg
 41
0.7
 11
-96.57542461542792
 21
327.8309439924198
 31
0.0
 73
     3
  0
TEXT
  5
61
  8
SPEC
 62
     7
 10
-96.276068304570785
 20
619.17872932566343
 30
0.0
 40
7.6012586805555546
  1
20Hz～20kHz(\U+00B11.5dB)
 41
0.7
 11
-96.276068304570785
 21
626.77998800621901
 31
0.0
 73
     3
  0
TEXT
  5
62
  8
SPEC
 62
     7
 10
-226.91643509646391
 20
604.17747869149764
 30
0.0
 40
7.6012586805555546
  1
マイク等価入力ノイズ
 41
0.7
 11
-226.91643509646391
 21
611.77873737205323
 31
0.0
 73
     3
  0
TEXT
  5
63
  8
SPEC
 62
     7
 10
-96.279936339319363
 20
589.01708564683884
 30
0.0
 40
7.6012586805555546
  1
AUX,Mix,Master(@0dB,ユニティゲイン)：-85dB以下
 41
0.7
 11
-96.279936339319363
 21
596.61834432739442
 31
0.0
 73
     3
  0
TEXT
  5
64
  8
SPEC
 62
     7
 10
-226.48556317250299
 20
574.08936880112321
 30
0.0
 40
7.6012586805555546
  1
THD+N
 41
0.7
 11
-226.48556317250299
 21
581.6906274816788
 31
0.0
 73
     3
  0
TEXT
  5
65
  8
SPEC
 62
     7
 10
-96.282347722404594
 20
573.65275451679452
 30
0.0
 40
7.6012586805555546
  1
0.005%%%以下(+10dBu)
 41
0.7
 11
-96.282347722404594
 21
581.25401319734999
 31
0.0
 73
     3
  0
TEXT
  5
66
  8
SPEC
 62
     7
 10
-226.45688433560031
 20
559.08842212471291
 30
0.0
 40
7.6012586805555546
  1
最大信号レベル
 41
0.7
 11
-226.45688433560031
 21
566.68968080526861
 31
0.0
 73
     3
  0
TEXT
  5
67
  8
SPEC
 62
     7
 10
-96.891173861202276
 20
559.38334588335169
 30
0.0
 40
7.6012586805555546
  1
マイク入力：+10dBu
 41
0.7
 11
-96.891173861202276
 21
566.98460456390717
 31
0.0
 73
     3
  0
TEXT
  5
68
  8
SPEC
 62
     7
 10
-96.971168124533662
 20
604.84192021838714
 30
0.0
 40
7.6012586805555546
  1
マイク等価入力ノイズ：-128.5dBm
 41
0.7
 11
-96.971168124533662
 21
612.44317889894285
 31
0.0
 73
     3
  0
TEXT
  5
69
  8
SPEC
 62
     7
 10
-97.256469544480936
 20
544.50511111111098
 30
0.0
 40
7.6012586805555546
  1
ライン入力：+22dBu
 41
0.7
 11
-97.256469544480936
 21
552.10636979166657
 31
0.0
 73
     3
  0
TEXT
  5
6A
  8
SPEC
 62
     7
 10
-96.769408633442765
 20
529.26158065559207
 30
0.0
 40
7.6012586805555546
  1
ステレオ入力：+20dBu
 41
0.7
 11
-96.769408633442765
 21
536.86283933614754
 31
0.0
 73
     3
  0
TEXT
  5
6B
  8
SPEC
 62
     7
 10
-98.230591366557221
 20
513.77451974455403
 30
0.0
 40
7.6012586805555546
  1
ミックス出力：+25dBu
 41
0.7
 11
-98.230591366557221
 21
521.37577842510962
 31
0.0
 73
     3
  0
TEXT
  5
6C
  8
SPEC
 62
     7
 10
-96.891173861202276
 20
499.13981542783267
 30
0.0
 40
7.6012586805555546
  1
ヘットホン出力(32\U+03A9)：300mmW
 41
0.7
 11
-96.891173861202276
 21
506.7410741083882
 31
0.0
 73
     3
  0
LINE
  5
6D
  8
SPEC
  6
CONTINUOUS
 62
     7
 10
-230.0
 20
435.59544499999993
 30
0.0
 11
360.0
 21
435.59544499999993
 31
0.0
  0
LINE
  5
6E
  8
SPEC
  6
CONTINUOUS
 62
     7
 10
-100.0
 20
420.59544499999998
 30
0.0
 11
360.0
 21
420.59544499999998
 31
0.0
  0
LINE
  5
6F
  8
SPEC
  6
CONTINUOUS
 62
     7
 10
-100.0
 20
405.59544499999993
 30
0.0
 11
360.0
 21
405.59544499999993
 31
0.0
  0
LINE
  5
70
  8
SPEC
  6
CONTINUOUS
 62
     7
 10
-100.0
 20
390.59544499999998
 30
0.0
 11
360.0
 21
390.59544499999998
 31
0.0
  0
LINE
  5
71
  8
SPEC
  6
CONTINUOUS
 62
     7
 10
-100.0
 20
375.59544499999998
 30
0.0
 11
360.0
 21
375.59544499999998
 31
0.0
  0
LINE
  5
72
  8
SPEC
  6
CONTINUOUS
 62
     7
 10
-230.0
 20
360.59544499999998
 30
0.0
 11
360.0
 21
360.59544499999998
 31
0.0
  0
LINE
  5
73
  8
SPEC
  6
CONTINUOUS
 62
     7
 10
-230.0
 20
345.59544499999998
 30
0.0
 11
360.0
 21
345.59544499999998
 31
0.0
  0
LINE
  5
74
  8
SPEC
  6
CONTINUOUS
 62
     7
 10
-230.0
 20
330.59544499999998
 30
0.0
 11
360.0
 21
330.59544499999998
 31
0.0
  0
LINE
  5
75
  8
SPEC
  6
CONTINUOUS
 62
     7
 10
-230.0
 20
315.59544499999998
 30
0.0
 11
360.0
 21
315.59544499999998
 31
0.0
  0
TEXT
  5
76
  8
SPEC
 62
     7
 10
-226.82718205230131
 20
484.2779290588096
 30
0.0
 40
7.6012586805555546
  1
インピーダンス
 41
0.7
 11
-226.82718205230131
 21
491.87918773936519
 31
0.0
 73
     3
  0
TEXT
  5
77
  8
SPEC
 62
     7
 10
-96.921765227759494
 20
484.37040679438962
 30
0.0
 40
7.6012586805555546
  1
マイク入力：2k\U+03A9
 41
0.7
 11
-96.921765227759494
 21
491.97166547494521
 31
0.0
 73
     3
  0
TEXT
  5
78
  8
SPEC
 62
     7
 10
-97.217652277595363
 20
469.318050200073
 30
0.0
 40
7.6012586805555546
  1
ライン入力：18k\U+03A9
 41
0.7
 11
-97.217652277595363
 21
476.91930888062859
 31
0.0
 73
     3
  0
TEXT
  5
79
  8
SPEC
 62
     7
 10
-96.828570539161504
 20
454.46225426472381
 30
0.0
 40
7.6012586805555546
  1
ステレオ入力：20k\U+03A9
 41
0.7
 11
-96.828570539161504
 21
462.0635129452794
 31
0.0
 73
     3
  0
TEXT
  5
7A
  8
SPEC
 62
     7
 10
-96.958389137860067
 20
439.4802785246913
 30
0.0
 40
7.6012586805555546
  1
出力：150\U+03A9
 41
0.7
 11
-96.958389137860067
 21
447.08153720524678
 31
0.0
 73
     3
  0
TEXT
  5
7B
  8
SPEC
 62
     7
 10
-226.8399211182377
 20
424.38515055199241
 30
0.0
 40
7.6012586805555546
  1
イコライザ
 41
0.7
 11
-226.8399211182377
 21
431.986409232548
 31
0.0
 73
     3
  0
TEXT
  5
7C
  8
SPEC
 62
     7
 10
-96.466443448559588
 20
424.65947309362127
 30
0.0
 40
7.6012586805555546
  1
ハイパスフィルター：100Hz@12dB/oct
 41
0.7
 11
-96.466443448559588
 21
432.2607317741768
 31
0.0
 73
     3
  0
TEXT
  5
7D
  8
SPEC
 62
     7
 10
-96.385333882098408
 20
409.36436179958838
 30
0.0
 40
7.6012586805555546
  1
HF：12kHz,\U+00B115dB,シェルビング
 41
0.7
 11
-96.385333882098408
 21
416.96562048014391
 31
0.0
 73
     3
  0
TEXT
  5
7E
  8
SPEC
 62
     7
 10
-96.302506478393482
 20
394.86310592839681
 30
0.0
 40
7.6012586805555546
  1
MF：1kHz,\U+00B115dB,シェルビング
 41
0.7
 11
-96.302506478393482
 21
402.46436460895222
 31
0.0
 73
     3
  0
TEXT
  5
7F
  8
SPEC
 62
     7
 10
-96.243102115327943
 20
364.44353666064279
 30
0.0
 40
7.6012586805555546
  1
Q：0.7
 41
0.7
 11
-96.243102115327943
 21
372.04479534119832
 31
0.0
 73
     3
  0
TEXT
  5
80
  8
SPEC
 62
     7
 10
-96.507903518470727
 20
379.13208699072879
 30
0.0
 40
7.6012586805555546
  1
LF：80Hz,\U+00B115dB,シェルビング
 41
0.7
 11
-96.507903518470727
 21
386.73334567128433
 31
0.0
 73
     3
  0
TEXT
  5
81
  8
SPEC
 62
     7
 10
-96.120790399153151
 20
348.8219495144985
 30
0.0
 40
7.6012586805555546
  1
AC100V,50/60Hz
 41
0.7
 11
-96.120790399153151
 21
356.42320819505409
 31
0.0
 73
     3
  0
TEXT
  5
82
  8
DIMNSIONS
 62
     7
 10
19.999999999999979
 20
-320.326595
 30
0.0
 40
9.7730468750000004
  1
(単位：mm)
 41
0.7
 11
19.999999999999979
 21
-310.55354812500002
 31
0.0
 73
     3
  0
LINE
  5
83
  8
DIMNSIONS
  6
CONTINUOUS
 62
     7
 10
-83.000000000000014
 20
-100.0
 30
0.0
 11
-120.5
 21
-100.0
 31
0.0
  0
LINE
  5
84
  8
DIMNSIONS
  6
CONTINUOUS
 62
     7
 10
-83.000000000000014
 20
124.0
 30
0.0
 11
-120.5
 21
124.0
 31
0.0
  0
LINE
  5
85
  8
DIMNSIONS
  6
CONTINUOUS
 62
     7
 10
-112.5
 20
-100.0
 30
0.0
 11
-112.5
 21
124.0
 31
0.0
  0
LINE
  5
86
  8
DIMNSIONS
  6
CONTINUOUS
 62
     7
 10
-112.5
 20
-100.0
 30
0.0
 11
-115.180159180601
 21
-89.997509765625026
 31
0.0
  0
LINE
  5
87
  8
DIMNSIONS
  6
CONTINUOUS
 62
     7
 10
-112.5
 20
-100.0
 30
0.0
 11
-109.819840819399
 21
-89.997509765625026
 31
0.0
  0
LINE
  5
88
  8
DIMNSIONS
  6
CONTINUOUS
 62
     7
 10
-112.5
 20
124.0
 30
0.0
 11
-109.819840819399
 21
113.997509765625
 31
0.0
  0
LINE
  5
89
  8
DIMNSIONS
  6
CONTINUOUS
 62
     7
 10
-112.5
 20
124.0
 30
0.0
 11
-115.180159180601
 21
113.997509765625
 31
0.0
  0
TEXT
  5
8A
  8
DIMNSIONS
 62
     7
 10
-116.4755555555555
 20
1.4166666666666841
 30
0.0
 40
10.85894097222222
  1
224
 50
90.0
 41
0.7
 11
-127.3344965277778
 21
1.4166666666666849
 31
0.0
 73
     3
  0
LINE
  5
8B
  8
DIMNSIONS
  6
CONTINUOUS
 62
     7
 10
-74.717905262404543
 20
124.0
 30
0.0
 11
-120.5
 21
124.0
 31
0.0
  0
LINE
  5
8C
  8
DIMNSIONS
  6
CONTINUOUS
 62
     7
 10
129.74999999999989
 20
129.0
 30
0.0
 11
-120.5
 21
129.0
 31
0.0
  0
LINE
  5
8D
  8
DIMNSIONS
  6
CONTINUOUS
 62
     7
 10
-112.5
 20
129.0
 30
0.0
 11
-112.5
 21
124.0
 31
0.0
  0
LINE
  5
8E
  8
DIMNSIONS
  6
CONTINUOUS
 62
     7
 10
-112.5
 20
124.0
 30
0.0
 11
-112.5
 21
104.0
 31
0.0
  0
LINE
  5
8F
  8
DIMNSIONS
  6
CONTINUOUS
 62
     7
 10
-112.5
 20
124.0
 30
0.0
 11
-109.819840819399
 21
113.997509765625
 31
0.0
  0
LINE
  5
90
  8
DIMNSIONS
  6
CONTINUOUS
 62
     7
 10
-112.5
 20
124.0
 30
0.0
 11
-115.180159180601
 21
113.997509765625
 31
0.0
  0
LINE
  5
91
  8
DIMNSIONS
  6
CONTINUOUS
 62
     7
 10
-112.5
 20
129.0
 30
0.0
 11
-112.5
 21
144.55555555555549
 31
0.0
  0
LINE
  5
92
  8
DIMNSIONS
  6
CONTINUOUS
 62
     7
 10
-112.5
 20
129.0
 30
0.0
 11
-115.180159180601
 21
139.00249023437499
 31
0.0
  0
LINE
  5
93
  8
DIMNSIONS
  6
CONTINUOUS
 62
     7
 10
-112.5
 20
129.0
 30
0.0
 11
-109.819840819399
 21
139.00249023437499
 31
0.0
  0
TEXT
  5
94
  8
DIMNSIONS
 62
     7
 10
-116.4755555555555
 20
137.5
 30
0.0
 40
10.85894097222222
  1
5
 50
90.0
 41
0.7
 11
-127.3344965277777
 21
137.5
 31
0.0
 73
     3
  0
LINE
  5
95
  8
DIMNSIONS
  6
CONTINUOUS
 62
     7
 10
-75.004189520600434
 20
3.0547903822871372
 30
0.0
 11
-75.004189520600434
 21
-145.5
 31
0.0
  0
LINE
  5
96
  8
DIMNSIONS
  6
CONTINUOUS
 62
     7
 10
168.00418952060039
 20
3.0547903822871372
 30
0.0
 11
168.00418952060039
 21
-145.5
 31
0.0
  0
LINE
  5
97
  8
DIMNSIONS
  6
CONTINUOUS
 62
     7
 10
-75.004189520600434
 20
-137.5
 30
0.0
 11
168.00418952060039
 21
-137.5
 31
0.0
  0
LINE
  5
98
  8
DIMNSIONS
  6
CONTINUOUS
 62
     7
 10
-75.004189520600434
 20
-137.5
 30
0.0
 11
-65.001699286225445
 21
-134.81984081939899
 31
0.0
  0
LINE
  5
99
  8
DIMNSIONS
  6
CONTINUOUS
 62
     7
 10
-75.004189520600434
 20
-137.5
 30
0.0
 11
-65.001699286225445
 21
-140.18015918060101
 31
0.0
  0
LINE
  5
9A
  8
DIMNSIONS
  6
CONTINUOUS
 62
     7
 10
168.00418952060039
 20
-137.5
 30
0.0
 11
158.0016992862254
 21
-140.18015918060101
 31
0.0
  0
LINE
  5
9B
  8
DIMNSIONS
  6
CONTINUOUS
 62
     7
 10
168.00418952060039
 20
-137.5
 30
0.0
 11
158.0016992862254
 21
-134.81984081939899
 31
0.0
  0
TEXT
  5
9C
  8
DIMNSIONS
 62
     7
 10
35.91666666666665
 20
-133.5244444444445
 30
0.0
 40
10.85894097222222
  1
243
 41
0.7
 11
35.91666666666665
 21
-122.6655034722223
 31
0.0
 73
     3
  0
LINE
  5
9D
  8
DIMNSIONS
  6
CONTINUOUS
 62
     7
 10
-83.000000000000014
 20
196.5
 30
0.0
 11
-120.5
 21
196.5
 31
0.0
  0
LINE
  5
9E
  8
DIMNSIONS
  6
CONTINUOUS
 62
     7
 10
-73.649999999999977
 20
243.49436706751811
 30
0.0
 11
-120.5
 21
243.49436706751811
 31
0.0
  0
LINE
  5
9F
  8
DIMNSIONS
  6
CONTINUOUS
 62
     7
 10
-112.5
 20
196.5
 30
0.0
 11
-112.5
 21
243.49436706751811
 31
0.0
  0
LINE
  5
A0
  8
DIMNSIONS
  6
CONTINUOUS
 62
     7
 10
-112.5
 20
196.5
 30
0.0
 11
-115.180159180601
 21
206.50249023437499
 31
0.0
  0
LINE
  5
A1
  8
DIMNSIONS
  6
CONTINUOUS
 62
     7
 10
-112.5
 20
196.5
 30
0.0
 11
-109.819840819399
 21
206.50249023437499
 31
0.0
  0
LINE
  5
A2
  8
DIMNSIONS
  6
CONTINUOUS
 62
     7
 10
-112.5
 20
243.49436706751811
 30
0.0
 11
-109.819840819399
 21
233.4918768331431
 31
0.0
  0
LINE
  5
A3
  8
DIMNSIONS
  6
CONTINUOUS
 62
     7
 10
-112.5
 20
243.49436706751811
 30
0.0
 11
-115.180159180601
 21
233.4918768331431
 31
0.0
  0
TEXT
  5
A4
  8
DIMNSIONS
 62
     7
 10
-116.4755555555555
 20
212.94162797820351
 30
0.0
 40
10.85894097222222
  1
47
 50
90.0
 41
0.7
 11
-127.3344965277777
 21
212.94162797820351
 31
0.0
 73
     3
  0
LINE
  5
A5
  8
DIMNSIONS
  6
CONTINUOUS
 62
     7
 10
-64.750000000000014
 20
184.5
 30
0.0
 11
-120.5
 21
184.5
 31
0.0
  0
LINE
  5
A6
  8
DIMNSIONS
  6
CONTINUOUS
 62
     7
 10
-83.000000000000014
 20
196.5
 30
0.0
 11
-120.5
 21
196.5
 31
0.0
  0
LINE
  5
A7
  8
DIMNSIONS
  6
CONTINUOUS
 62
     7
 10
-112.5
 20
196.5
 30
0.0
 11
-112.5
 21
184.5
 31
0.0
  0
LINE
  5
A8
  8
DIMNSIONS
  6
CONTINUOUS
 62
     7
 10
-112.5
 20
184.5
 30
0.0
 11
-112.5
 21
160.88888888888891
 31
0.0
  0
LINE
  5
A9
  8
DIMNSIONS
  6
CONTINUOUS
 62
     7
 10
-112.5
 20
184.5
 30
0.0
 11
-109.819840819399
 21
174.49750976562501
 31
0.0
  0
LINE
  5
AA
  8
DIMNSIONS
  6
CONTINUOUS
 62
     7
 10
-112.5
 20
184.5
 30
0.0
 11
-115.180159180601
 21
174.49750976562501
 31
0.0
  0
LINE
  5
AB
  8
DIMNSIONS
  6
CONTINUOUS
 62
     7
 10
-112.5
 20
196.5
 30
0.0
 11
-112.5
 21
216.5
 31
0.0
  0
LINE
  5
AC
  8
DIMNSIONS
  6
CONTINUOUS
 62
     7
 10
-112.5
 20
196.5
 30
0.0
 11
-115.180159180601
 21
206.50249023437499
 31
0.0
  0
LINE
  5
AD
  8
DIMNSIONS
  6
CONTINUOUS
 62
     7
 10
-112.5
 20
196.5
 30
0.0
 11
-109.819840819399
 21
206.50249023437499
 31
0.0
  0
TEXT
  5
AE
  8
DIMNSIONS
 62
     7
 10
-116.4755555555555
 20
160.88888888888891
 30
0.0
 40
10.85894097222222
  1
12
 50
90.0
 41
0.7
 11
-127.3344965277777
 21
160.88888888888891
 31
0.0
 73
     3
  0
TEXT
  5
AF
  8
DATA
 62
     7
 10
-220.0
 20
-352.45255500000007
 30
0.0
 40
6.5153645833333318
  1
仕様および外観は予告なく変更されることがありますので、ご了承ください。
 41
0.7
 11
-220.0
 21
-345.93719041666668
 31
0.0
 73
     3
  0
TEXT
  5
B0
  8
DATA
 62
     7
 10
287.6309916699737
 20
-323.072
 30
0.0
 40
9.7730468750000004
  1
Notepad 124FX
 41
0.7
 11
287.6309916699737
 21
-313.29895312500003
 31
0.0
 73
     3
  0
TEXT
  5
B1
  8
DATA
 62
     7
 10
287.0
 20
-293.42200000000003
 30
0.0
 40
9.7730468750000004
  1
Soundcraft
 41
0.7
 11
287.0
 21
-283.64895312499999
 31
0.0
 73
     3
  0
TEXT
  5
B2
  8
DATA
 62
     7
 10
292.46399077437962
 20
-306.8496812574121
 30
0.0
 40
7.4083333333333314
  1
コンパクトミキサー
 41
0.7
 11
292.46399077437962
 21
-299.44134792407891
 31
0.0
 73
     3
  0
LINE
  5
B3
  8
DATA
  6
CONTINUOUS
 62
     7
 10
-66.717905262404571
 20
-100.0
 30
0.0
 11
159.71790526240451
 21
-100.0
 31
0.0
  0
LINE
  5
B4
  8
DATA
  6
CONTINUOUS
 62
     7
 10
-75.000000000000014
 20
9.000000000019412
 30
0.0
 11
-75.000000000000014
 21
14.99999999999998
 31
0.0
  0
LINE
  5
B5
  8
DATA
  6
CONTINUOUS
 62
     7
 10
-66.717905262404571
 20
124.0
 30
0.0
 11
159.71790526240451
 21
124.0
 31
0.0
  0
LINE
  5
B6
  8
DATA
  6
CONTINUOUS
 62
     7
 10
168.0
 20
9.000000000019412
 30
0.0
 11
168.0
 21
14.99999999999998
 31
0.0
  0
ARC
  5
B7
  8
DATA
  6
CONTINUOUS
 62
     7
 10
892.48076923076906
 20
12.0
 30
0.0
 40
967.48542047483124
 50
173.45795289178159
 51
186.54204710821841
  0
ARC
  5
B8
  8
DATA
  6
CONTINUOUS
 62
     7
 10
-799.48076923076906
 20
12.0
 30
0.0
 40
967.48542047483124
 50
353.4579528917817
 51
6.5420471082184122
  0
LINE
  5
B9
  8
DATA
  6
CONTINUOUS
 62
     7
 10
156.25
 20
124.0
 30
0.0
 11
156.25
 21
-100.0
 31
0.0
  0
LINE
  5
BA
  8
DATA
  6
CONTINUOUS
 62
     7
 10
-63.250000000000021
 20
-100.0
 30
0.0
 11
-63.250000000000021
 21
124.0
 31
0.0
  0
LINE
  5
BB
  8
DATA
  6
CONTINUOUS
 62
     7
 10
-74.177411736712671
 20
52.0
 30
0.0
 11
167.1774117367126
 21
52.0
 31
0.0
  0
LINE
  5
BC
  8
DATA
  6
CONTINUOUS
 62
     7
 10
-74.539416097003922
 20
42.0
 30
0.0
 11
167.53941609700391
 21
42.0
 31
0.0
  0
LINE
  5
BD
  8
DATA
  6
CONTINUOUS
 62
     7
 10
-61.750000000000021
 20
-91.0
 30
0.0
 11
-61.750000000000021
 21
36.0
 31
0.0
  0
LINE
  5
BE
  8
DATA
  6
CONTINUOUS
 62
     7
 10
-35.250000000000007
 20
-91.0
 30
0.0
 11
-35.250000000000007
 21
36.0
 31
0.0
  0
LINE
  5
BF
  8
DATA
  6
CONTINUOUS
 62
     7
 10
-8.7500000000000142
 20
-91.0
 30
0.0
 11
-8.7500000000000142
 21
36.0
 31
0.0
  0
LINE
  5
C0
  8
DATA
  6
CONTINUOUS
 62
     7
 10
17.749999999999979
 20
-91.0
 30
0.0
 11
17.749999999999979
 21
36.0
 31
0.0
  0
LINE
  5
C1
  8
DATA
  6
CONTINUOUS
 62
     7
 10
44.249999999999993
 20
-91.0
 30
0.0
 11
44.249999999999993
 21
36.0
 31
0.0
  0
LINE
  5
C2
  8
DATA
  6
CONTINUOUS
 62
     7
 10
70.749999999999986
 20
-91.0
 30
0.0
 11
70.749999999999986
 21
36.0
 31
0.0
  0
LINE
  5
C3
  8
DATA
  6
CONTINUOUS
 62
     7
 10
98.249999999999986
 20
-91.0
 30
0.0
 11
98.249999999999986
 21
36.0
 31
0.0
  0
LINE
  5
C4
  8
DATA
  6
CONTINUOUS
 62
     7
 10
129.75
 20
-91.0
 30
0.0
 11
129.75
 21
36.0
 31
0.0
  0
LINE
  5
C5
  8
DATA
  6
CONTINUOUS
 62
     7
 10
154.75
 20
-91.0
 30
0.0
 11
154.75
 21
36.0
 31
0.0
  0
LINE
  5
C6
  8
DATA
  6
CONTINUOUS
 62
     7
 10
-61.750000000000021
 20
-91.0
 30
0.0
 11
154.75
 21
-91.0
 31
0.0
  0
LINE
  5
C7
  8
DATA
  6
CONTINUOUS
 62
     7
 10
-73.000000000000014
 20
237.5
 30
0.0
 11
166.0
 21
237.5
 31
0.0
  0
LINE
  5
C8
  8
DATA
  6
CONTINUOUS
 62
     7
 10
-75.000000000000014
 20
196.5
 30
0.0
 11
168.0
 21
196.5
 31
0.0
  0
LINE
  5
C9
  8
DATA
  6
CONTINUOUS
 62
     7
 10
-63.250000000000021
 20
196.5
 30
0.0
 11
-63.250000000000021
 21
243.5
 31
0.0
  0
LINE
  5
CA
  8
DATA
  6
CONTINUOUS
 62
     7
 10
156.25
 20
196.5
 30
0.0
 11
156.25
 21
243.5
 31
0.0
  0
LINE
  5
CB
  8
DATA
  6
CONTINUOUS
 62
     7
 10
-68.499999999999986
 20
196.5
 30
0.0
 11
-68.499999999999986
 21
237.5
 31
0.0
  0
LINE
  5
CC
  8
DATA
  6
CONTINUOUS
 62
     7
 10
161.4999999999998
 20
196.5
 30
0.0
 11
161.4999999999998
 21
237.5
 31
0.0
  0
LINE
  5
CD
  8
DATA
  6
CONTINUOUS
 62
     7
 10
-75.000000000000014
 20
196.5
 30
0.0
 11
-75.000000000000014
 21
235.5
 31
0.0
  0
LINE
  5
CE
  8
DATA
  6
CONTINUOUS
 62
     7
 10
168.0
 20
196.5
 30
0.0
 11
168.0
 21
235.5
 31
0.0
  0
LINE
  5
CF
  8
DATA
  6
CONTINUOUS
 62
     7
 10
-65.500000000000014
 20
243.5
 30
0.0
 11
-63.250000000000021
 21
243.5
 31
0.0
  0
LINE
  5
D0
  8
DATA
  6
CONTINUOUS
 62
     7
 10
156.25
 20
243.5
 30
0.0
 11
158.5
 21
243.5
 31
0.0
  0
LINE
  5
D1
  8
DATA
  6
CONTINUOUS
 62
     7
 10
-67.500000000000014
 20
237.5
 30
0.0
 11
-67.500000000000014
 21
241.5
 31
0.0
  0
LINE
  5
D2
  8
DATA
  6
CONTINUOUS
 62
     7
 10
160.5
 20
241.5
 30
0.0
 11
160.5
 21
237.5
 31
0.0
  0
ARC
  5
D3
  8
DATA
  6
CONTINUOUS
 62
     7
 10
-73.000000000000014
 20
235.5
 30
0.0
 40
2.0
 50
90.0
 51
180.0
  0
ARC
  5
D4
  8
DATA
  6
CONTINUOUS
 62
     7
 10
166.0
 20
235.5
 30
0.0
 40
2.0
 50
0.0
 51
90.0
  0
LINE
  5
D5
  8
DATA
  6
CONTINUOUS
 62
     7
 10
-56.750000000000021
 20
184.5
 30
0.0
 11
-56.750000000000021
 21
196.5
 31
0.0
  0
LINE
  5
D6
  8
DATA
  6
CONTINUOUS
 62
     7
 10
-46.750000000000021
 20
196.5
 30
0.0
 11
-46.750000000000021
 21
184.5
 31
0.0
  0
LINE
  5
D7
  8
DATA
  6
CONTINUOUS
 62
     7
 10
-56.750000000000021
 20
184.5
 30
0.0
 11
-46.750000000000021
 21
184.5
 31
0.0
  0
LINE
  5
D8
  8
DATA
  6
CONTINUOUS
 62
     7
 10
-30.750000000000011
 20
184.5
 30
0.0
 11
-30.750000000000011
 21
196.5
 31
0.0
  0
LINE
  5
D9
  8
DATA
  6
CONTINUOUS
 62
     7
 10
-20.750000000000011
 20
196.5
 30
0.0
 11
-20.750000000000011
 21
184.5
 31
0.0
  0
LINE
  5
DA
  8
DATA
  6
CONTINUOUS
 62
     7
 10
-30.750000000000011
 20
184.5
 30
0.0
 11
-20.750000000000011
 21
184.5
 31
0.0
  0
LINE
  5
DB
  8
DATA
  6
CONTINUOUS
 62
     7
 10
-4.7500000000000142
 20
184.5
 30
0.0
 11
-4.7500000000000142
 21
196.5
 31
0.0
  0
LINE
  5
DC
  8
DATA
  6
CONTINUOUS
 62
     7
 10
5.2499999999999849
 20
196.5
 30
0.0
 11
5.2499999999999849
 21
184.5
 31
0.0
  0
LINE
  5
DD
  8
DATA
  6
CONTINUOUS
 62
     7
 10
-4.7500000000000142
 20
184.5
 30
0.0
 11
5.2499999999999849
 21
184.5
 31
0.0
  0
LINE
  5
DE
  8
DATA
  6
CONTINUOUS
 62
     7
 10
21.249999999999979
 20
184.5
 30
0.0
 11
21.249999999999979
 21
196.5
 31
0.0
  0
LINE
  5
DF
  8
DATA
  6
CONTINUOUS
 62
     7
 10
31.249999999999989
 20
196.5
 30
0.0
 11
31.249999999999989
 21
184.5
 31
0.0
  0
LINE
  5
E0
  8
DATA
  6
CONTINUOUS
 62
     7
 10
21.249999999999979
 20
184.5
 30
0.0
 11
31.249999999999989
 21
184.5
 31
0.0
  0
ARC
  5
E1
  8
DATA
  6
CONTINUOUS
 62
     7
 10
-66.717905262404571
 20
121.9999999999999
 30
0.0
 40
2.0000000000000848
 50
90.0
 51
173.4579528917798
  0
ARC
  5
E2
  8
DATA
  6
CONTINUOUS
 62
     7
 10
159.71790526240451
 20
121.9999999999999
 30
0.0
 40
2.0000000000000888
 50
6.5420471082202143
 51
90.0
  0
ARC
  5
E3
  8
DATA
  6
CONTINUOUS
 62
     7
 10
-66.717905262404571
 20
-97.999999999999929
 30
0.0
 40
2.0000000000000902
 50
186.5420471082204
 51
270.0
  0
ARC
  5
E4
  8
DATA
  6
CONTINUOUS
 62
     7
 10
159.71790526240451
 20
-97.999999999999929
 30
0.0
 40
2.0000000000000848
 50
270.0
 51
353.45795289177971
  0
LINE
  5
E5
  8
DATA
  6
CONTINUOUS
 62
     7
 10
-63.250000000000021
 20
236.5
 30
0.0
 11
156.25
 21
236.5
 31
0.0
  0
ARC
  5
E6
  8
DATA
  6
CONTINUOUS
 62
     7
 10
-65.500000000000014
 20
241.5
 30
0.0
 40
2.0
 50
90.0
 51
180.0
  0
ARC
  5
E7
  8
DATA
  6
CONTINUOUS
 62
     7
 10
158.5
 20
241.5
 30
0.0
 40
2.0
 50
0.0
 51
90.0
  0
LINE
  5
E8
  8
DATA
  6
CONTINUOUS
 62
     7
 10
135.25
 20
203.9700923465239
 30
0.0
 11
135.25
 21
223.9700923465239
 31
0.0
  0
LINE
  5
E9
  8
DATA
  6
CONTINUOUS
 62
     7
 10
150.24999999999989
 20
203.9700923465239
 30
0.0
 11
135.25
 21
203.9700923465239
 31
0.0
  0
LINE
  5
EA
  8
DATA
  6
CONTINUOUS
 62
     7
 10
150.24999999999989
 20
223.9700923465239
 30
0.0
 11
150.24999999999989
 21
203.9700923465239
 31
0.0
  0
LINE
  5
EB
  8
DATA
  6
CONTINUOUS
 62
     7
 10
135.25
 20
223.9700923465239
 30
0.0
 11
150.24999999999989
 21
223.9700923465239
 31
0.0
  0
LINE
  5
EC
  8
DATA
  6
CONTINUOUS
 62
     7
 10
137.74999999999989
 20
205.9700923465239
 30
0.0
 11
137.74999999999989
 21
221.9700923465239
 31
0.0
  0
LINE
  5
ED
  8
DATA
  6
CONTINUOUS
 62
     7
 10
147.75
 20
205.9700923465239
 30
0.0
 11
137.74999999999989
 21
205.9700923465239
 31
0.0
  0
LINE
  5
EE
  8
DATA
  6
CONTINUOUS
 62
     7
 10
147.75
 20
221.9700923465239
 30
0.0
 11
147.75
 21
205.9700923465239
 31
0.0
  0
LINE
  5
EF
  8
DATA
  6
CONTINUOUS
 62
     7
 10
137.74999999999989
 20
221.9700923465239
 30
0.0
 11
147.75
 21
221.9700923465239
 31
0.0
  0
TEXT
  5
F0
  8
DATA
 62
     7
 10
141.6791027588452
 20
209.81801777196421
 30
0.0
 40
3.4748611111111112
  1
I
 41
0.7
 11
141.6791027588452
 21
213.2928788830753
 31
0.0
 73
     3
  0
TEXT
  5
F1
  8
DATA
 62
     7
 10
141.58722222222221
 20
217.20682762006101
 30
0.0
 40
3.4748611111111112
  1
O
 41
0.7
 11
141.58722222222221
 21
220.6816887311721
 31
0.0
 73
     3
  0
LINE
  5
F2
  8
DATA
  6
CONTINUOUS
 62
     7
 10
147.75
 20
208.12583999418641
 30
0.0
 11
137.74999999999989
 21
208.12583999418641
 31
0.0
  0
CIRCLE
  5
F3
  8
DATA
  6
CONTINUOUS
 62
     7
 10
123.25
 20
217.1422492500451
 30
0.0
 40
9.0
  0
CIRCLE
  5
F4
  8
DATA
  6
CONTINUOUS
 62
     7
 10
123.25
 20
217.1422492500451
 30
0.0
 40
6.5
  0
TEXT
  5
F5
  8
DATA
 62
     7
 10
147.54172360886699
 20
228.13993831089141
 30
0.0
 40
2.779888888888888
  1
POWER
 50
180.0
 41
0.7
 11
147.54172360886699
 21
225.36004942200259
 31
0.0
 73
     3
  0
TEXT
  5
F6
  8
DATA
 62
     7
 10
130.00416247981769
 20
203.19877792900971
 30
0.0
 40
2.779888888888888
  1
14.8V\U+00D72
 50
180.0
 41
0.7
 11
130.00416247981769
 21
200.4188890401208
 31
0.0
 73
     3
  0
TEXT
  5
F7
  8
DATA
 62
     7
 10
129.0994902665721
 20
206.89503832884489
 30
0.0
 40
2.779888888888888
  1
～AC IN
 50
180.0
 41
0.7
 11
129.0994902665721
 21
204.11514943995601
 31
0.0
 73
     3
  0
LINE
  5
F8
  8
DATA
  6
CONTINUOUS
 62
     7
 10
298.0
 20
-100.0
 30
0.0
 11
319.0
 21
-100.0
 31
0.0
  0
LINE
  5
F9
  8
DATA
  6
CONTINUOUS
 62
     7
 10
286.0
 20
124.0
 30
0.0
 11
323.0
 21
124.0
 31
0.0
  0
LINE
  5
FA
  8
DATA
  6
CONTINUOUS
 62
     7
 10
325.0
 20
-94.0
 30
0.0
 11
325.0
 21
122.0
 31
0.0
  0
LINE
  5
FB
  8
DATA
  6
CONTINUOUS
 62
     7
 10
284.0
 20
52.701562118716453
 30
0.0
 11
284.0
 21
122.0
 31
0.0
  0
LINE
  5
FC
  8
DATA
  6
CONTINUOUS
 62
     7
 10
331.0
 20
-81.493822448623177
 30
0.0
 11
331.0
 21
-69.304072124529753
 31
0.0
  0
LINE
  5
FD
  8
DATA
  6
CONTINUOUS
 62
     7
 10
272.0
 20
59.0
 30
0.0
 11
272.0
 21
69.0
 31
0.0
  0
LINE
  5
FE
  8
DATA
  6
CONTINUOUS
 62
     7
 10
292.0
 20
-94.0
 30
0.0
 11
292.0
 21
41.29843788128354
 31
0.0
  0
LINE
  5
FF
  8
DATA
  6
CONTINUOUS
 62
     7
 10
291.56173761888601
 20
42.547827976392391
 30
0.0
 11
284.43826238111387
 21
51.452172023607588
 31
0.0
  0
CIRCLE
  5
100
  8
DATA
  6
CONTINUOUS
 62
     7
 10
-51.750000000000021
 20
64.0
 30
0.0
 40
5.0
  0
LINE
  5
101
  8
DATA
  6
CONTINUOUS
 62
     7
 10
-51.750000000000021
 20
64.0
 30
0.0
 11
-54.799999999999997
 21
60.037992932868477
 31
0.0
  0
CIRCLE
  5
102
  8
DATA
  6
CONTINUOUS
 62
     7
 10
-25.750000000000011
 20
64.0
 30
0.0
 40
5.0
  0
LINE
  5
103
  8
DATA
  6
CONTINUOUS
 62
     7
 10
-25.750000000000011
 20
64.0
 30
0.0
 11
-28.800000000000001
 21
60.037992932868477
 31
0.0
  0
CIRCLE
  5
104
  8
DATA
  6
CONTINUOUS
 62
     7
 10
0.2499999999999858
 20
64.0
 30
0.0
 40
5.0
  0
LINE
  5
105
  8
DATA
  6
CONTINUOUS
 62
     7
 10
0.2499999999999858
 20
64.0
 30
0.0
 11
-2.7999999999999958
 21
60.037992932868477
 31
0.0
  0
CIRCLE
  5
106
  8
DATA
  6
CONTINUOUS
 62
     7
 10
26.249999999999989
 20
64.0
 30
0.0
 40
5.0
  0
LINE
  5
107
  8
DATA
  6
CONTINUOUS
 62
     7
 10
26.249999999999989
 20
64.0
 30
0.0
 11
23.20000000000001
 21
60.037992932868477
 31
0.0
  0
LINE
  5
108
  8
DATA
  6
CONTINUOUS
 62
     7
 10
272.0
 20
69.0
 30
0.0
 11
284.0
 21
69.0
 31
0.0
  0
LINE
  5
109
  8
DATA
  6
CONTINUOUS
 62
     7
 10
272.0
 20
59.0
 30
0.0
 11
284.0
 21
59.0
 31
0.0
  0
CIRCLE
  5
10A
  8
DATA
  6
CONTINUOUS
 62
     7
 10
308.5
 20
-76.0
 30
0.0
 40
4.5
  0
CIRCLE
  5
10B
  8
DATA
  6
CONTINUOUS
 62
     7
 10
308.5
 20
99.0
 30
0.0
 40
4.5
  0
LINE
  5
10C
  8
DATA
  6
CONTINUOUS
 62
     7
 10
306.0
 20
99.0
 30
0.0
 11
311.0
 21
99.0
 31
0.0
  0
LINE
  5
10D
  8
DATA
  6
CONTINUOUS
 62
     7
 10
308.5
 20
96.5
 30
0.0
 11
308.5
 21
101.5
 31
0.0
  0
LINE
  5
10E
  8
DATA
  6
CONTINUOUS
 62
     7
 10
308.5
 20
-78.5
 30
0.0
 11
308.5
 21
-73.5
 31
0.0
  0
LINE
  5
10F
  8
DATA
  6
CONTINUOUS
 62
     7
 10
306.0
 20
-76.0
 30
0.0
 11
311.0
 21
-76.0
 31
0.0
  0
ARC
  5
110
  8
DATA
  6
CONTINUOUS
 62
     7
 10
298.0
 20
-94.0
 30
0.0
 40
6.0
 50
180.0
 51
270.0
  0
ARC
  5
111
  8
DATA
  6
CONTINUOUS
 62
     7
 10
319.0
 20
-94.0
 30
0.0
 40
6.0
 50
270.0
 51
0.0
  0
ARC
  5
112
  8
DATA
  6
CONTINUOUS
 62
     7
 10
286.0
 20
122.0
 30
0.0
 40
2.0
 50
90.0
 51
180.0
  0
ARC
  5
113
  8
DATA
  6
CONTINUOUS
 62
     7
 10
323.0
 20
122.0
 30
0.0
 40
2.0
 50
0.0
 51
90.0
  0
ARC
  5
114
  8
DATA
  6
CONTINUOUS
 62
     7
 10
286.0
 20
52.701562118716431
 30
0.0
 40
2.0
 50
179.9999999999996
 51
218.65980825408971
  0
ARC
  5
115
  8
DATA
  6
CONTINUOUS
 62
     7
 10
290.0
 20
41.298437881283562
 30
0.0
 40
2.0
 50
359.9999999999996
 51
38.659808254089683
  0
LINE
  5
116
  8
DATA
  6
CONTINUOUS
 62
     7
 10
325.0
 20
-87.898947286576458
 30
0.0
 11
329.92055319899339
 21
-83.798486287415301
 31
0.0
  0
LINE
  5
117
  8
DATA
  6
CONTINUOUS
 62
     7
 10
329.92055319899339
 20
-66.999408285737644
 30
0.0
 11
325.0
 21
-62.898947286576458
 31
0.0
  0
ARC
  5
118
  8
DATA
  6
CONTINUOUS
 62
     7
 10
328.0
 20
-69.304072124529753
 30
0.0
 40
3.0
 50
0.0
 51
50.194428907734682
  0
ARC
  5
119
  8
DATA
  6
CONTINUOUS
 62
     7
 10
328.0
 20
-81.493822448623177
 30
0.0
 40
3.0
 50
309.80557109226532
 51
0.0
  0
LINE
  5
11A
  8
DATA
  6
CONTINUOUS
 62
     7
 10
331.0
 20
99.884649942942289
 30
0.0
 11
331.0
 21
112.0744002670357
 31
0.0
  0
LINE
  5
11B
  8
DATA
  6
CONTINUOUS
 62
     7
 10
325.0
 20
93.479525104989008
 30
0.0
 11
329.92055319899339
 21
97.57998610415018
 31
0.0
  0
LINE
  5
11C
  8
DATA
  6
CONTINUOUS
 62
     7
 10
329.92055319899339
 20
114.37906410582779
 30
0.0
 11
325.0
 21
118.47952510498899
 31
0.0
  0
ARC
  5
11D
  8
DATA
  6
CONTINUOUS
 62
     7
 10
328.0
 20
112.0744002670357
 30
0.0
 40
3.0
 50
0.0
 51
50.194428907734682
  0
ARC
  5
11E
  8
DATA
  6
CONTINUOUS
 62
     7
 10
328.0
 20
99.884649942942289
 30
0.0
 40
3.0
 50
309.80557109226532
 51
0.0
  0
LINE
  5
11F
  8
DATA
  6
CONTINUOUS
 62
     7
 10
291.5292934028318
 20
125.5
 30
0.0
 11
291.5292934028318
 21
124.0
 31
0.0
  0
LINE
  5
120
  8
DATA
  6
CONTINUOUS
 62
     7
 10
311.5292934028318
 20
125.5
 30
0.0
 11
311.5292934028318
 21
124.0
 31
0.0
  0
LINE
  5
121
  8
DATA
  6
CONTINUOUS
 62
     7
 10
291.5292934028318
 20
125.5
 30
0.0
 11
311.5292934028318
 21
125.5
 31
0.0
  0
ARC
  5
122
  8
DATA
  6
CONTINUOUS
 62
     7
 10
301.45958303950488
 20
122.0281118101817
 30
0.0
 40
8.6569914707202855
 50
126.35615180803281
 51
156.35615180803231
  0
ARC
  5
123
  8
DATA
  6
CONTINUOUS
 62
     7
 10
306.7740166963772
 20
142.66839537038459
 30
0.0
 40
17.203216912130031
 50
232.6104655483158
 51
266.35388738392101
  0
LINE
  5
124
  8
DATA
  6
CONTINUOUS
 62
     7
 10
135.25
 20
125.5
 30
0.0
 11
135.25
 21
124.0
 31
0.0
  0
LINE
  5
125
  8
DATA
  6
CONTINUOUS
 62
     7
 10
150.24999999999989
 20
125.5
 30
0.0
 11
150.24999999999989
 21
124.0
 31
0.0
  0
LINE
  5
126
  8
DATA
  6
CONTINUOUS
 62
     7
 10
150.25
 20
125.5
 30
0.0
 11
135.25
 21
125.5
 31
0.0
  0
LINE
  5
127
  8
DATA
  6
CONTINUOUS
 62
     7
 10
147.75
 20
129.0
 30
0.0
 11
137.74999999999989
 21
129.0
 31
0.0
  0
LINE
  5
128
  8
DATA
  6
CONTINUOUS
 62
     7
 10
137.74999999999989
 20
129.0
 30
0.0
 11
137.74999999999989
 21
125.5
 31
0.0
  0
LINE
  5
129
  8
DATA
  6
CONTINUOUS
 62
     7
 10
147.75
 20
129.0
 30
0.0
 11
147.75
 21
125.5
 31
0.0
  0
LINE
  5
12A
  8
DATA
  6
CONTINUOUS
 62
     7
 10
-73.004189520600434
 20
-225.0
 30
0.0
 11
166.00418952060039
 21
-225.0
 31
0.0
  0
LINE
  5
12B
  8
DATA
  6
CONTINUOUS
 62
     7
 10
-65.500000000000014
 20
-231.0
 30
0.0
 11
-63.250000000000021
 21
-231.0
 31
0.0
  0
LINE
  5
12C
  8
DATA
  6
CONTINUOUS
 62
     7
 10
156.25
 20
-231.0
 30
0.0
 11
158.5
 21
-231.0
 31
0.0
  0
LINE
  5
12D
  8
DATA
  6
CONTINUOUS
 62
     7
 10
-56.750000000000021
 20
-172.0
 30
0.0
 11
-46.750000000000021
 21
-172.0
 31
0.0
  0
LINE
  5
12E
  8
DATA
  6
CONTINUOUS
 62
     7
 10
-30.750000000000011
 20
-172.0
 30
0.0
 11
-20.750000000000011
 21
-172.0
 31
0.0
  0
LINE
  5
12F
  8
DATA
  6
CONTINUOUS
 62
     7
 10
-4.7500000000000142
 20
-172.0
 30
0.0
 11
5.2499999999999849
 21
-172.0
 31
0.0
  0
LINE
  5
130
  8
DATA
  6
CONTINUOUS
 62
     7
 10
21.249999999999979
 20
-172.0
 30
0.0
 11
31.249999999999989
 21
-172.0
 31
0.0
  0
LINE
  5
131
  8
DATA
  6
CONTINUOUS
 62
     7
 10
-75.004189520600434
 20
-186.0
 30
0.0
 11
-75.004189520600434
 21
-223.0
 31
0.0
  0
LINE
  5
132
  8
DATA
  6
CONTINUOUS
 62
     7
 10
168.00418952060039
 20
-186.0
 30
0.0
 11
168.00418952060039
 21
-223.0
 31
0.0
  0
LINE
  5
133
  8
DATA
  6
CONTINUOUS
 62
     7
 10
-75.004189520600434
 20
-192.0
 30
0.0
 11
168.00418952060039
 21
-192.0
 31
0.0
  0
LINE
  5
134
  8
DATA
  6
CONTINUOUS
 62
     7
 10
-63.250000000000021
 20
-184.0
 30
0.0
 11
-63.250000000000021
 21
-225.0
 31
0.0
  0
LINE
  5
135
  8
DATA
  6
CONTINUOUS
 62
     7
 10
156.25
 20
-184.0
 30
0.0
 11
156.25
 21
-225.0
 31
0.0
  0
LINE
  5
136
  8
DATA
  6
CONTINUOUS
 62
     7
 10
-63.250000000000021
 20
-225.0
 30
0.0
 11
-63.250000000000021
 21
-231.0
 31
0.0
  0
LINE
  5
137
  8
DATA
  6
CONTINUOUS
 62
     7
 10
156.25
 20
-225.0
 30
0.0
 11
156.25
 21
-231.0
 31
0.0
  0
LINE
  5
138
  8
DATA
  6
CONTINUOUS
 62
     7
 10
-67.500000000000014
 20
-225.0
 30
0.0
 11
-67.500000000000014
 21
-229.0
 31
0.0
  0
LINE
  5
139
  8
DATA
  6
CONTINUOUS
 62
     7
 10
160.5
 20
-225.0
 30
0.0
 11
160.5
 21
-229.0
 31
0.0
  0
ARC
  5
13A
  8
DATA
  6
CONTINUOUS
 62
     7
 10
-65.500000000000014
 20
-229.0
 30
0.0
 40
2.0
 50
180.0
 51
270.0
  0
ARC
  5
13B
  8
DATA
  6
CONTINUOUS
 62
     7
 10
158.5
 20
-229.0
 30
0.0
 40
2.0
 50
270.0
 51
0.0
  0
LINE
  5
13C
  8
DATA
  6
CONTINUOUS
 62
     7
 10
-56.750000000000021
 20
-172.0
 30
0.0
 11
-56.750000000000021
 21
-184.0
 31
0.0
  0
LINE
  5
13D
  8
DATA
  6
CONTINUOUS
 62
     7
 10
-46.750000000000021
 20
-172.0
 30
0.0
 11
-46.750000000000021
 21
-184.0
 31
0.0
  0
LINE
  5
13E
  8
DATA
  6
CONTINUOUS
 62
     7
 10
-30.750000000000011
 20
-172.0
 30
0.0
 11
-30.750000000000011
 21
-184.0
 31
0.0
  0
LINE
  5
13F
  8
DATA
  6
CONTINUOUS
 62
     7
 10
-20.750000000000011
 20
-172.0
 30
0.0
 11
-20.750000000000011
 21
-184.0
 31
0.0
  0
LINE
  5
140
  8
DATA
  6
CONTINUOUS
 62
     7
 10
-4.7500000000000142
 20
-172.0
 30
0.0
 11
-4.7500000000000142
 21
-184.0
 31
0.0
  0
LINE
  5
141
  8
DATA
  6
CONTINUOUS
 62
     7
 10
5.2500000000000284
 20
-172.0
 30
0.0
 11
5.2500000000001128
 21
-184.0
 31
0.0
  0
LINE
  5
142
  8
DATA
  6
CONTINUOUS
 62
     7
 10
21.249999999999979
 20
-172.0
 30
0.0
 11
21.249999999999979
 21
-184.0
 31
0.0
  0
LINE
  5
143
  8
DATA
  6
CONTINUOUS
 62
     7
 10
31.249999999999989
 20
-172.0
 30
0.0
 11
31.249999999999989
 21
-184.0
 31
0.0
  0
ARC
  5
144
  8
DATA
  6
CONTINUOUS
 62
     7
 10
-73.004189520600434
 20
-223.0
 30
0.0
 40
2.0
 50
180.0
 51
270.0
  0
ARC
  5
145
  8
DATA
  6
CONTINUOUS
 62
     7
 10
166.00418952060039
 20
-223.0
 30
0.0
 40
2.0
 50
270.0
 51
0.0
  0
LINE
  5
146
  8
DATA
  6
CONTINUOUS
 62
     7
 10
-73.004189520600434
 20
-184.0
 30
0.0
 11
166.00418952060039
 21
-184.0
 31
0.0
  0
ARC
  5
147
  8
DATA
  6
CONTINUOUS
 62
     7
 10
-73.004189520600434
 20
-186.0
 30
0.0
 40
2.0
 50
90.0
 51
180.0
  0
ARC
  5
148
  8
DATA
  6
CONTINUOUS
 62
     7
 10
166.00418952060039
 20
-186.0
 30
0.0
 40
2.0
 50
0.0
 51
90.0
  0
ENDSEC
  0
EOF
