  0
SECTION
  2
HEADER
  9
$ACADVER
  1
AC1009
  9
$INSBASE
 10
0.0
 20
0.0
 30
0.0
  9
$EXTMIN
 10
-800.05492744973697
 20
-1211.4906134661351
 30
-0.0015258207003583
  9
$EXTMAX
 10
1000.05493583164
 20
1471.868051303042
 30
0.0000000349246037
  9
$LIMMIN
 10
0.0
 20
0.0
  9
$LIMMAX
 10
0.0
 20
0.0
  9
$ORTHOMODE
 70
     0
  9
$REGENMODE
 70
     1
  9
$FILLMODE
 70
     1
  9
$QTEXTMODE
 70
     0
  9
$MIRRTEXT
 70
     1
  9
$DRAGMODE
 70
     2
  9
$LTSCALE
 40
50.799999999999997
  9
$OSMODE
 70
    37
  9
$ATTMODE
 70
     1
  9
$TEXTSIZE
 40
0.0
  9
$TRACEWID
 40
1.0
  9
$TEXTSTYLE
  7
STANDARD
  9
$CLAYER
  8
0
  9
$CELTYPE
  6
CONTINUOUS
  9
$CECOLOR
 62
   256
  9
$DIMSCALE
 40
1.0
  9
$DIMASZ
 40
0.18
  9
$DIMEXO
 40
0.0625
  9
$DIMDLI
 40
0.38
  9
$DIMRND
 40
0.0
  9
$DIMDLE
 40
0.0
  9
$DIMEXE
 40
0.18
  9
$DIMTP
 40
0.0
  9
$DIMTM
 40
0.0
  9
$DIMTXT
 40
0.18
  9
$DIMCEN
 40
0.09
  9
$DIMTSZ
 40
0.0
  9
$DIMTOL
 70
     0
  9
$DIMLIM
 70
     0
  9
$DIMTIH
 70
     1
  9
$DIMTOH
 70
     1
  9
$DIMSE1
 70
     0
  9
$DIMSE2
 70
     0
  9
$DIMTAD
 70
     0
  9
$DIMZIN
 70
     0
  9
$DIMBLK
  1

  9
$DIMASO
 70
     1
  9
$DIMSHO
 70
     1
  9
$DIMPOST
  1

  9
$DIMAPOST
  1

  9
$DIMALT
 70
     0
  9
$DIMALTD
 70
     2
  9
$DIMALTF
 40
25.399999999999999
  9
$DIMLFAC
 40
1.0
  9
$DIMTOFL
 70
     0
  9
$DIMTVP
 40
0.0
  9
$DIMTIX
 70
     0
  9
$DIMSOXD
 70
     0
  9
$DIMSAH
 70
     0
  9
$DIMBLK1
  1

  9
$DIMBLK2
  1

  9
$DIMSTYLE
  2
STANDARD
  9
$DIMCLRD
 70
     0
  9
$DIMCLRE
 70
     0
  9
$DIMCLRT
 70
     0
  9
$DIMTFAC
 40
1.0
  9
$DIMGAP
 40
0.09
  9
$LUNITS
 70
     2
  9
$LUPREC
 70
     4
  9
$SKETCHINC
 40
0.1
  9
$FILLETRAD
 40
0.0
  9
$AUNITS
 70
     0
  9
$AUPREC
 70
     0
  9
$MENU
  1
acad
  9
$ELEVATION
 40
0.0
  9
$PELEVATION
 40
0.0
  9
$THICKNESS
 40
0.0
  9
$LIMCHECK
 70
     0
  9
$BLIPMODE
 70
     0
  9
$CHAMFERA
 40
0.0
  9
$CHAMFERB
 40
0.0
  9
$SKPOLY
 70
     0
  9
$TDCREATE
 40
2452166.7454166668
  9
$TDUPDATE
 40
2452166.7478136569
  9
$TDINDWG
 40
0.0005118056
  9
$TDUSRTIMER
 40
0.0005118056
  9
$USRTIMER
 70
     1
  9
$ANGBASE
 50
0.0
  9
$ANGDIR
 70
     0
  9
$PDMODE
 70
     1
  9
$PDSIZE
 40
-2.0
  9
$PLINEWID
 40
0.0
  9
$COORDS
 70
     1
  9
$SPLFRAME
 70
     0
  9
$SPLINETYPE
 70
     6
  9
$SPLINESEGS
 70
     8
  9
$ATTDIA
 70
     0
  9
$ATTREQ
 70
     1
  9
$HANDLING
 70
-16383
  9
$HANDSEED
  5
1E0
  9
$SURFTAB1
 70
     6
  9
$SURFTAB2
 70
     6
  9
$SURFTYPE
 70
     6
  9
$SURFU
 70
     6
  9
$SURFV
 70
     6
  9
$UCSNAME
  2

  9
$UCSORG
 10
0.0
 20
0.0
 30
0.0
  9
$UCSXDIR
 10
1.0
 20
0.0
 30
0.0
  9
$UCSYDIR
 10
0.0
 20
1.0
 30
0.0
  9
$PUCSNAME
  2

  9
$PUCSORG
 10
0.0
 20
0.0
 30
0.0
  9
$PUCSXDIR
 10
1.0
 20
0.0
 30
0.0
  9
$PUCSYDIR
 10
0.0
 20
1.0
 30
0.0
  9
$USERI1
 70
     0
  9
$USERI2
 70
     0
  9
$USERI3
 70
     0
  9
$USERI4
 70
     0
  9
$USERI5
 70
     0
  9
$USERR1
 40
0.0
  9
$USERR2
 40
0.0
  9
$USERR3
 40
0.0
  9
$USERR4
 40
0.0
  9
$USERR5
 40
0.0
  9
$WORLDVIEW
 70
     1
  9
$SHADEDGE
 70
     3
  9
$SHADEDIF
 70
    70
  9
$TILEMODE
 70
     1
  9
$MAXACTVP
 70
    64
  9
$PLIMCHECK
 70
     0
  9
$PEXTMIN
 10
1.0000000000000000E+020
 20
1.0000000000000000E+020
 30
1.0000000000000000E+020
  9
$PEXTMAX
 10
-1.0000000000000000E+020
 20
-1.0000000000000000E+020
 30
-1.0000000000000000E+020
  9
$PLIMMIN
 10
0.0
 20
0.0
  9
$PLIMMAX
 10
12.0
 20
9.0
  9
$UNITMODE
 70
     0
  9
$VISRETAIN
 70
     1
  9
$PLINEGEN
 70
     0
  9
$PSLTSCALE
 70
     0
  0
ENDSEC
  0
SECTION
  2
TABLES
  0
TABLE
  2
VPORT
 70
     2
  0
VPORT
  2
*ACTIVE
 70
     0
 10
0.0
 20
0.0
 11
1.0
 21
1.0
 12
100.0000041909515
 22
130.1887189184535
 13
0.0
 23
0.0
 14
1.0
 24
1.0
 15
0.0
 25
0.0
 16
0.0
 26
0.0
 36
1.0
 17
0.0
 27
0.0
 37
0.0
 40
2711.5550780592212
 41
1.3315789473684201
 42
50.0
 43
0.0
 44
0.0
 50
0.0
 51
0.0
 71
     0
 72
   100
 73
     1
 74
     1
 75
     0
 76
     0
 77
     0
 78
     0
  0
ENDTAB
  0
TABLE
  2
LTYPE
 70
    11
  0
LTYPE
  2
CONTINUOUS
 70
     0
  3
Solid line
 72
    65
 73
     0
 40
0.0
  0
LTYPE
  2
STYLE_01
 70
     0
  3

 72
    65
 73
     2
 40
0.4166412353515625
 49
0.208282470703125
 49
-0.2083587646484375
  0
LTYPE
  2
STYLE_02
 70
     0
  3

 72
    65
 73
     2
 40
0.694427490234375
 49
0.4860687255859375
 49
-0.2083587646484375
  0
LTYPE
  2
STYLE_03
 70
     0
  3

 72
    65
 73
     2
 40
1.25
 49
1.0416412353515621
 49
-0.2083587646484375
  0
LTYPE
  2
STYLE_04
 70
     0
  3

 72
    65
 73
     2
 40
1.5277099609375
 49
1.319427490234375
 49
-0.208282470703125
  0
LTYPE
  2
STYLE_05
 70
     0
  3

 72
    65
 73
     2
 40
0.208282470703125
 49
0.069427490234375
 49
-0.13885498046875
  0
LTYPE
  2
STYLE_06
 70
     0
  3

 72
    65
 73
     4
 40
1.0416412353515621
 49
0.625
 49
-0.208282470703125
 49
0.069427490234375
 49
-0.1389312744140625
  0
LTYPE
  2
STYLE_07
 70
     0
  3

 72
    65
 73
     6
 40
1.875
 49
0.625
 49
-0.208282470703125
 49
0.625
 49
-0.2083587646484375
 49
0.069427490234375
 49
-0.1389312744140625
  0
LTYPE
  2
STYLE_08
 70
     0
  3

 72
    65
 73
     6
 40
1.25
 49
0.625
 49
-0.208282470703125
 49
0.069427490234375
 49
-0.1389312744140625
 49
0.069427490234375
 49
-0.1389312744140625
  0
LTYPE
  2
STYLE_09
 70
     0
  3

 72
    65
 73
     4
 40
5.0
 49
3.75
 49
-0.2777862548828125
 49
0.694427490234375
 49
-0.2777862548828125
  0
LTYPE
  2
STYLE_10
 70
     0
  3

 72
    65
 73
     6
 40
5.9375
 49
3.75
 49
-0.2777862548828125
 49
0.694427490234375
 49
-0.2777862548828125
 49
0.625
 49
-0.3125
  0
ENDTAB
  0
TABLE
  2
LAYER
 70
     5
  0
LAYER
  2
0
 70
     0
 62
     7
  6
CONTINUOUS
  0
LAYER
  2
HIBINO-BASE
 70
     0
 62
     7
  6
CONTINUOUS
  0
LAYER
  2
SPEC
 70
     0
 62
     7
  6
CONTINUOUS
  0
LAYER
  2
DIMNSIONS
 70
     0
 62
     7
  6
CONTINUOUS
  0
LAYER
  2
DATA
 70
     0
 62
     7
  6
CONTINUOUS
  0
ENDTAB
  0
TABLE
  2
STYLE
 70
     2
  0
STYLE
  2
STANDARD
 70
     0
 40
0.0
 41
1.0
 50
0.0
 71
     0
 42
0.0
  3
txt
  4
BIGFONT.SHX
  0
STYLE
  2
TXT
 70
     0
 40
46.782299999999992
 41
1.0
 50
0.0
 71
     0
 42
46.782299999999992
  3
txt.shx
  4
bigfont.shx
  0
ENDTAB
  0
TABLE
  2
VIEW
 70
     0
  0
ENDTAB
  0
TABLE
  2
UCS
 70
     0
  0
ENDTAB
  0
TABLE
  2
APPID
 70
     1
  0
APPID
  2
ACAD
 70
     0
  0
ENDTAB
  0
TABLE
  2
DIMSTYLE
 70
     1
  0
DIMSTYLE
  2
STANDARD
 70
     0
  3

  4

  5

  6

  7

 40
1.0
 41
0.18
 42
0.0625
 43
0.38
 44
0.18
 45
0.0
 46
0.0
 47
0.0
 48
0.0
140
0.18
141
0.09
142
0.0
143
25.399999999999999
144
1.0
145
0.0
146
1.0
147
0.09
 71
     0
 72
     0
 73
     1
 74
     1
 75
     0
 76
     0
 77
     0
 78
     0
170
     0
171
     2
172
     0
173
     0
174
     0
175
     0
176
     0
177
     0
178
     0
  0
ENDTAB
  0
ENDSEC
  0
SECTION
  2
BLOCKS
  0
BLOCK
  8
0
  2
$MODEL_SPACE
 70
     0
 10
0.0
 20
0.0
 30
0.0
  3
$MODEL_SPACE
  1

  0
ENDBLK
  5
1AD
  8
0
  0
BLOCK
 67
     1
  8
0
  2
$PAPER_SPACE
 70
     0
 10
0.0
 20
0.0
 30
0.0
  3
$PAPER_SPACE
  1

  0
ENDBLK
  5
1AB
 67
     1
  8
0
  0
BLOCK
  8
DIMNSIONS
  2
*U0
 70
     1
 10
0.0
 20
0.0
 30
0.0
  3
*U0
  1

  0
TEXT
  5
34
  8
DIMNSIONS
 62
     7
 10
390.00000003725279
 20
-616.293507320034
 30
0.0
 40
28.222222222222221
  1
435.6
 50
90.0
  7
TXT
  0
ENDBLK
  5
35
  8
DIMNSIONS
  0
BLOCK
  8
DIMNSIONS
  2
*U1
 70
     1
 10
0.0
 20
0.0
 30
0.0
  3
*U1
  1

  0
TEXT
  5
37
  8
DIMNSIONS
 62
     7
 10
24.07637777777774
 20
-980.0000000372529
 30
0.0
 40
28.222222222222221
  1
263.7
  7
TXT
  0
ENDBLK
  5
38
  8
DIMNSIONS
  0
BLOCK
  8
DIMNSIONS
  2
*U2
 70
     1
 10
0.0
 20
0.0
 30
0.0
  3
*U2
  1

  0
TEXT
  5
3A
  8
DIMNSIONS
 62
     7
 10
105.4834663399316
 20
-830.0000000372529
 30
0.0
 40
28.222222222222221
  1
100.8
  7
TXT
  0
ENDBLK
  5
3B
  8
DIMNSIONS
  0
BLOCK
  8
DIMNSIONS
  2
*U3
 70
     1
 10
0.0
 20
0.0
 30
0.0
  3
*U3
  1

  0
TEXT
  5
3D
  8
DIMNSIONS
 62
     7
 10
290.0000000372529
 20
-579.84533785520057
 30
0.0
 40
28.222222222222221
  1
300
 50
90.0
  7
TXT
  0
ENDBLK
  5
3E
  8
DIMNSIONS
  0
BLOCK
  8
DIMNSIONS
  2
*U4
 70
     1
 10
0.0
 20
0.0
 30
0.0
  3
*U4
  1

  0
TEXT
  5
40
  8
DIMNSIONS
 62
     7
 10
290.0000000372529
 20
-781.97178229964504
 30
0.0
 40
28.222222222222221
  1
86.6
 50
90.0
  7
TXT
  0
ENDBLK
  5
41
  8
DIMNSIONS
  0
BLOCK
  8
DIMNSIONS
  2
*U5
 70
     1
 10
0.0
 20
0.0
 30
0.0
  3
*U5
  1

  0
TEXT
  5
43
  8
DIMNSIONS
 62
     7
 10
75.25777777777779
 20
-905.0000000372529
 30
0.0
 40
28.222222222222221
  1
161.3
  7
TXT
  0
ENDBLK
  5
44
  8
DIMNSIONS
  0
BLOCK
  8
DIMNSIONS
  2
*U6
 70
     1
 10
0.0
 20
0.0
 30
0.0
  3
*U6
  1

  0
TEXT
  5
46
  8
DIMNSIONS
 62
     7
 10
-528.45062222222214
 20
-905.0000000372529
 30
0.0
 40
28.222222222222221
  1
431.3
  7
TXT
  0
ENDBLK
  5
47
  8
DIMNSIONS
  0
ENDSEC
  0
SECTION
  2
ENTITIES
  0
LINE
  5
48
  8
HIBINO-BASE
  6
CONTINUOUS
 62
     7
 10
-799.99999999999989
 20
1471.786335
 30
0.0
 11
999.99999999999977
 21
1471.786335
 31
0.0
  0
LINE
  5
49
  8
HIBINO-BASE
  6
CONTINUOUS
 62
     7
 10
999.99999999999977
 20
-1128.213665
 30
0.0
 11
-799.99999999999989
 21
-1128.213665
 31
0.0
  0
LINE
  5
4A
  8
HIBINO-BASE
  6
CONTINUOUS
 62
     7
 10
-799.99999999999989
 20
-1128.213665
 30
0.0
 11
-799.99999999999989
 21
1471.786335
 31
0.0
  0
TEXT
  5
4B
  8
HIBINO-BASE
 62
     7
 10
-728.15999999999985
 20
-1198.849964999999
 30
0.0
 40
37.425839999999987
  1
Hibino Corporation
 41
0.75
  0
LINE
  5
4C
  8
HIBINO-BASE
  6
CONTINUOUS
 62
     7
 10
999.99999999999977
 20
1471.786335
 30
0.0
 11
999.99999999999977
 21
-1128.213665
 31
0.0
  0
LINE
  5
4D
  8
HIBINO-BASE
  6
CONTINUOUS
 62
     7
 10
100.0
 20
-903.21366499999988
 30
0.0
 11
999.99999999999977
 21
-903.21366499999988
 31
0.0
  0
LINE
  5
4E
  8
HIBINO-BASE
  6
CONTINUOUS
 62
     7
 10
100.0
 20
-1128.213665
 30
0.0
 11
100.0
 21
-903.21366499999988
 31
0.0
  0
TEXT
  5
4F
  8
HIBINO-BASE
 62
     7
 10
108.9999999999999
 20
-933.48846500000013
 30
0.0
 40
18.712959999999999
  1
NOTE
 41
0.75
  0
LINE
  5
50
  8
HIBINO-BASE
  6
CONTINUOUS
 62
     7
 10
450.0
 20
-1128.213665
 30
0.0
 11
450.0
 21
-903.21366499999988
 31
0.0
  0
TEXT
  5
51
  8
HIBINO-BASE
 62
     7
 10
459.0
 20
-933.48846500000013
 30
0.0
 40
18.712959999999999
  1
TITLE
 41
0.75
  0
TEXT
  5
52
  8
HIBINO-BASE
 62
     7
 10
600.68389999999988
 20
-1198.849964999999
 30
0.0
 40
37.425839999999987
  1
ヒビノ株式会社
 41
0.75
  0
LINE
  5
53
  8
HIBINO-BASE
  6
CONTINUOUS
 62
     7
 10
100.0
 20
-1028.2136649999991
 30
0.0
 11
999.99999999999977
 21
-1028.2136649999991
 31
0.0
  0
TEXT
  5
54
  8
HIBINO-BASE
 62
     7
 10
584.0
 20
-1057.9252650000001
 30
0.0
 40
18.712959999999999
  1
DRAWN
 41
0.75
  0
TEXT
  5
55
  8
HIBINO-BASE
 62
     7
 10
334.0
 20
-1057.9252650000001
 30
0.0
 40
18.712959999999999
  1
DATE
 41
0.75
  0
TEXT
  5
56
  8
HIBINO-BASE
 62
     7
 10
110.9999999999999
 20
-1057.371564999999
 30
0.0
 40
16.93335999999999
  1
図面サイズ
 41
0.75
  0
TEXT
  5
57
  8
HIBINO-BASE
 62
     7
 10
234.0
 20
-1057.9252650000001
 30
0.0
 40
18.712959999999999
  1
SCALE
 41
0.75
  0
TEXT
  5
58
  8
HIBINO-BASE
 62
     7
 10
459.0
 20
-1057.9252650000001
 30
0.0
 40
18.712959999999999
  1
DESIGN
 41
0.75
  0
TEXT
  5
59
  8
HIBINO-BASE
 62
     7
 10
833.99999999999989
 20
-1057.9252650000001
 30
0.0
 40
18.712959999999999
  1
DRAWING NO.
 41
0.75
  0
TEXT
  5
5A
  8
HIBINO-BASE
 62
     7
 10
708.99999999999977
 20
-1057.9252650000001
 30
0.0
 40
18.712959999999999
  1
CHECK
 41
0.75
  0
LINE
  5
5B
  8
HIBINO-BASE
  6
CONTINUOUS
 62
     7
 10
243.74999999999989
 20
-1115.713665
 30
0.0
 11
281.25
 21
-1078.213665
 31
0.0
  0
TEXT
  5
5C
  8
HIBINO-BASE
 62
     7
 10
237.49999999999989
 20
-1099.321964999999
 30
0.0
 40
22.577759999999991
  1
1
 41
0.75
  0
LINE
  5
5D
  8
HIBINO-BASE
  6
CONTINUOUS
 62
     7
 10
224.99999999999989
 20
-1128.213665
 30
0.0
 11
224.99999999999989
 21
-1028.2136649999991
 31
0.0
  0
LINE
  5
5E
  8
HIBINO-BASE
  6
CONTINUOUS
 62
     7
 10
324.99999999999989
 20
-1128.213665
 30
0.0
 11
324.99999999999989
 21
-1028.2136649999991
 31
0.0
  0
LINE
  5
5F
  8
HIBINO-BASE
  6
CONTINUOUS
 62
     7
 10
574.99999999999989
 20
-1028.2136649999991
 30
0.0
 11
574.99999999999989
 21
-1128.213665
 31
0.0
  0
LINE
  5
60
  8
HIBINO-BASE
  6
CONTINUOUS
 62
     7
 10
825.0
 20
-1028.2136649999991
 30
0.0
 11
825.0
 21
-1128.213665
 31
0.0
  0
LINE
  5
61
  8
HIBINO-BASE
  6
CONTINUOUS
 62
     7
 10
699.99999999999989
 20
-1128.213665
 30
0.0
 11
699.99999999999989
 21
-1028.2136649999991
 31
0.0
  0
TEXT
  5
62
  8
HIBINO-BASE
 62
     7
 10
139.10889999999989
 20
-1109.155765
 30
0.0
 40
33.86663999999999
  1
A4
 41
0.75
  0
TEXT
  5
63
  8
HIBINO-BASE
 62
     7
 10
333.5653999999999
 20
-1104.765065
 30
0.0
 40
18.712959999999999
  1
'01.08.
 41
0.75
  0
TEXT
  5
64
  8
HIBINO-BASE
 62
     7
 10
275.0
 20
-1118.071964999999
 30
0.0
 40
22.577759999999991
  1
10
 41
0.75
  0
TEXT
  5
65
  8
HIBINO-BASE
 62
     7
 10
584.06539999999995
 20
-1104.765065
 30
0.0
 40
18.712959999999999
  1
N.Sasaki
 41
0.75
  0
LINE
  5
66
  8
SPEC
  6
CONTINUOUS
 62
     7
 10
-724.99999999999989
 20
1371.7863349999991
 30
0.0
 11
750.0
 21
1371.7863349999991
 31
0.0
  0
LINE
  5
67
  8
SPEC
  6
CONTINUOUS
 62
     7
 10
-724.99999999999989
 20
1334.2863349999991
 30
0.0
 11
750.0
 21
1334.2863349999991
 31
0.0
  0
LINE
  5
68
  8
SPEC
  6
CONTINUOUS
 62
     7
 10
-675.0
 20
1184.2863349999991
 30
0.0
 11
750.0
 21
1184.2863349999991
 31
0.0
  0
LINE
  5
69
  8
SPEC
  6
CONTINUOUS
 62
     7
 10
-675.0
 20
1221.786335
 30
0.0
 11
750.0
 21
1221.786335
 31
0.0
  0
LINE
  5
6A
  8
SPEC
  6
CONTINUOUS
 62
     7
 10
-675.0
 20
1146.7863349999991
 30
0.0
 11
750.0
 21
1146.7863349999991
 31
0.0
  0
LINE
  5
6B
  8
SPEC
  6
CONTINUOUS
 62
     7
 10
-724.99999999999989
 20
1071.7863349999991
 30
0.0
 11
750.0
 21
1071.7863349999991
 31
0.0
  0
LINE
  5
6C
  8
SPEC
  6
CONTINUOUS
 62
     7
 10
-675.0
 20
1109.2863349999991
 30
0.0
 11
750.0
 21
1109.2863349999991
 31
0.0
  0
LINE
  5
6D
  8
SPEC
  6
CONTINUOUS
 62
     7
 10
-675.0
 20
1034.2863349999991
 30
0.0
 11
750.0
 21
1034.2863349999991
 31
0.0
  0
LINE
  5
6E
  8
SPEC
  6
CONTINUOUS
 62
     7
 10
-675.0
 20
1296.7863349999991
 30
0.0
 11
750.0
 21
1296.7863349999991
 31
0.0
  0
LINE
  5
6F
  8
SPEC
  6
CONTINUOUS
 62
     7
 10
-724.99999999999989
 20
921.78633500000001
 30
0.0
 11
750.0
 21
921.78633500000001
 31
0.0
  0
LINE
  5
70
  8
SPEC
  6
CONTINUOUS
 62
     7
 10
-675.0
 20
584.28633499999989
 30
0.0
 11
750.0
 21
584.28633499999989
 31
0.0
  0
LINE
  5
71
  8
SPEC
  6
CONTINUOUS
 62
     7
 10
-725.0
 20
1371.7863349999991
 30
0.0
 11
-725.0
 21
359.28633499999989
 31
0.0
  0
TEXT
  5
72
  8
SPEC
 62
     7
 10
-712.49999999999989
 20
1381.274034999999
 30
0.0
 40
25.399999999999999
  1
仕様
 41
0.75
  0
LINE
  5
73
  8
SPEC
  6
CONTINUOUS
 62
     7
 10
750.0
 20
1371.7863349999991
 30
0.0
 11
750.0
 21
359.28633499999989
 31
0.0
  0
TEXT
  5
74
  8
SPEC
 62
     7
 10
-700.0
 20
287.65277777777771
 30
0.0
 40
19.755555555555549
  1
※　6フェーダコンソールを使用し、特に指定があるモノ以外は、バンドワイズ10KHz～22KHz（アンウエイテッド）にて測定。
 41
0.75
  0
TEXT
  5
75
  8
SPEC
 62
     7
 10
-716.0
 20
1338.7083349999989
 30
0.0
 40
19.755555555555549
  1
周波数特性
 41
0.75
  0
TEXT
  5
76
  8
SPEC
 62
     7
 10
-716.0
 20
1301.2083349999989
 30
0.0
 40
19.755555555555549
  1
AD/DA変換
 41
0.75
  0
TEXT
  5
77
  8
SPEC
 62
     7
 10
-191.0
 20
1113.7083349999989
 30
0.0
 40
19.755555555555549
  1
(48KHz、チャンネル入力→MIX出力)
 41
0.75
  0
TEXT
  5
78
  8
SPEC
 62
     7
 10
-716.0
 20
1038.7083349999989
 30
0.0
 40
19.755555555555549
  1
ダイナミックレンジ
 41
0.75
  0
TEXT
  5
79
  8
SPEC
 62
     7
 10
-191.0
 20
926.20833499999969
 30
0.0
 40
19.755555555555549
  1
106dB
 41
0.75
  0
TEXT
  5
7A
  8
SPEC
 62
     7
 10
-716.0
 20
888.70833499999969
 30
0.0
 40
19.755555555555549
  1
ノイズ
 41
0.75
  0
TEXT
  5
7B
  8
SPEC
 62
     7
 10
-191.0
 20
851.20833499999969
 30
0.0
 40
19.755555555555549
  1
-127dBu(150Ωソース)
 41
0.75
  0
TEXT
  5
7C
  8
SPEC
 62
     7
 10
-191.0
 20
813.70833499999969
 30
0.0
 40
19.755555555555549
  1
-90dBu
 41
0.75
  0
TEXT
  5
7D
  8
SPEC
 62
     7
 10
-191.0
 20
776.20999999999981
 30
0.0
 40
19.755555555555549
  1
-90dBu(チャンネルルーティングなし)
 41
0.75
  0
TEXT
  5
7E
  8
SPEC
 62
     7
 10
-716.0
 20
588.70833499999958
 30
0.0
 40
19.755555555555549
  1
クロストーク(1KHz)
 41
0.75
  0
TEXT
  5
7F
  8
SPEC
 62
     7
 10
-191.0
 20
551.20833499999958
 30
0.0
 40
19.755555555555549
  1
90dB以上
 41
0.75
  0
TEXT
  5
80
  8
SPEC
 62
     7
 10
-191.0
 20
513.70833499999958
 30
0.0
 40
19.755555555555549
  1
100dB以上
 41
0.75
  0
TEXT
  5
81
  8
SPEC
 62
     7
 10
-191.0
 20
476.20833499999958
 30
0.0
 40
19.755555555555549
  1
100dB以上
 41
0.75
  0
TEXT
  5
82
  8
SPEC
 62
     7
 10
-191.0
 20
1076.2083349999989
 30
0.0
 40
19.755555555555549
  1
BNC,AES11(XLR3ピン,メス)
 41
0.75
  0
TEXT
  5
83
  8
SPEC
 62
     7
 10
-191.0
 20
1001.208334999999
 30
0.0
 40
19.755555555555549
  1
24ビット(バスライン-56ビット)
 41
0.75
  0
TEXT
  5
84
  8
SPEC
 62
     7
 10
-191.0
 20
963.70833499999969
 30
0.0
 40
19.755555555555549
  1
106dB
 41
0.75
  0
LINE
  5
85
  8
SPEC
  6
CONTINUOUS
 62
     7
 10
-675.0
 20
884.28633499999978
 30
0.0
 11
750.0
 21
884.28633499999978
 31
0.0
  0
LINE
  5
86
  8
SPEC
  6
CONTINUOUS
 62
     7
 10
-724.99999999999989
 20
621.78633499999978
 30
0.0
 11
750.0
 21
621.78633499999978
 31
0.0
  0
TEXT
  5
87
  8
SPEC
 62
     7
 10
-191.0
 20
1188.7083349999989
 30
0.0
 40
19.755555555555549
  1
24ビット(128倍オーバーサンプリング)
 41
0.75
  0
TEXT
  5
88
  8
SPEC
 62
     7
 10
-191.0
 20
1151.2083349999989
 30
0.0
 40
19.755555555555549
  1
40～50KHz
 41
0.75
  0
LINE
  5
89
  8
SPEC
  6
CONTINUOUS
 62
     7
 10
-200.0
 20
1371.7863349999991
 30
0.0
 11
-200.0
 21
359.28633499999989
 31
0.0
  0
TEXT
  5
8A
  8
SPEC
 62
     7
 10
-191.0
 20
1226.2083349999989
 30
0.0
 40
19.755555555555549
  1
24ビット(128倍オーバーサンプリング)
 41
0.75
  0
TEXT
  5
8B
  8
SPEC
 62
     7
 10
-191.0
 20
1263.7083349999989
 30
0.0
 40
19.755555555555549
  1
44.1KHz/48KHz
 41
0.75
  0
TEXT
  5
8C
  8
SPEC
 62
     7
 10
-191.0
 20
1338.7083349999989
 30
0.0
 40
19.755555555555549
  1
±0.5dB(20Hz～20KHz,全出力)
 41
0.75
  0
TEXT
  5
8D
  8
SPEC
 62
     7
 10
-191.0
 20
663.70999999999992
 30
0.0
 40
19.755555555555549
  1
マイク/ライン入力(1KHz,30dBゲイン)→MIX出力(+14dBu,600Ω):0.01%%%以下
 41
0.75
  0
TEXT
  5
8E
  8
SPEC
 62
     7
 10
-191.0
 20
628.70999999999992
 30
0.0
 40
19.755555555555549
  1
ステレオ入力(1KHz,0dBゲイン)→MIX出力(+14dBu,600Ω):0.005%%%以下
 41
0.75
  0
TEXT
  5
8F
  8
SPEC
 62
     7
 10
-191.0
 20
706.20999999999992
 30
0.0
 40
19.755555555555549
  1
-86dBu(2チャンネルルーティング)
 41
0.75
  0
TEXT
  5
90
  8
SPEC
 62
     7
 10
-191.0
 20
741.20999999999992
 30
0.0
 40
19.755555555555549
  1
-88dBu(1チャンネルルーティング)
 41
0.75
  0
TEXT
  5
91
  8
SPEC
 62
     7
 10
-716.0
 20
438.70833499999958
 30
0.0
 40
19.755555555555549
  1
消費電力(本体付属電源DPS-1)
 41
0.75
  0
TEXT
  5
92
  8
SPEC
 62
     7
 10
-191.0
 20
438.70833499999981
 30
0.0
 40
19.755555555555549
  1
100W(AC100V,50/60Hz)
 41
0.75
  0
LINE
  5
93
  8
SPEC
  6
CONTINUOUS
 62
     7
 10
-724.99999999999989
 20
471.78633500000001
 30
0.0
 11
750.0
 21
471.78633500000001
 31
0.0
  0
LINE
  5
94
  8
SPEC
  6
CONTINUOUS
 62
     7
 10
-724.99999999999989
 20
359.28633499999989
 30
0.0
 11
750.0
 21
359.28633499999989
 31
0.0
  0
TEXT
  5
95
  8
SPEC
 62
     7
 10
-716.0
 20
401.20833499999958
 30
0.0
 40
19.755555555555549
  1
寸法
 41
0.75
  0
TEXT
  5
96
  8
SPEC
 62
     7
 10
-191.0
 20
401.20833499999981
 30
0.0
 40
19.755555555555549
  1
431.3(W)×263.7(H)×435.6(D)mm
 41
0.75
  0
LINE
  5
97
  8
SPEC
  6
CONTINUOUS
 62
     7
 10
-724.99999999999989
 20
434.28633500000001
 30
0.0
 11
750.0
 21
434.28633500000001
 31
0.0
  0
LINE
  5
98
  8
SPEC
  6
CONTINUOUS
 62
     7
 10
-724.99999999999989
 20
396.78633499999989
 30
0.0
 11
750.0
 21
396.78633499999989
 31
0.0
  0
TEXT
  5
99
  8
SPEC
 62
     7
 10
-716.0
 20
363.70833499999969
 30
0.0
 40
19.755555555555549
  1
重量
 41
0.75
  0
TEXT
  5
9A
  8
SPEC
 62
     7
 10
-191.0
 20
363.70999999999992
 30
0.0
 40
19.755555555555549
  1
約15kg
 41
0.75
  0
LINE
  5
9B
  8
SPEC
  6
CONTINUOUS
 62
     7
 10
-675.0
 20
1296.7863349999991
 30
0.0
 11
-675.0
 21
1071.79
 31
0.0
  0
LINE
  5
9C
  8
SPEC
  6
CONTINUOUS
 62
     7
 10
-675.0
 20
1259.2863349999991
 30
0.0
 11
750.0
 21
1259.2863349999991
 31
0.0
  0
TEXT
  5
9D
  8
SPEC
 62
     7
 10
-666.00000000000011
 20
1263.7083349999989
 30
0.0
 40
19.755555555555549
  1
サンプリングレート
 41
0.75
  0
TEXT
  5
9E
  8
SPEC
 62
     7
 10
-666.00000000000011
 20
1076.2083349999989
 30
0.0
 40
19.755555555555549
  1
エクスターナルワードクロック
 41
0.75
  0
TEXT
  5
9F
  8
SPEC
 62
     7
 10
-666.00000000000011
 20
1226.2083349999989
 30
0.0
 40
19.755555555555549
  1
全入力ビットレゾリューション
 41
0.75
  0
TEXT
  5
A0
  8
SPEC
 62
     7
 10
-666.00000000000011
 20
1188.7083349999989
 30
0.0
 40
19.755555555555549
  1
全出力ビットレゾリューション
 41
0.75
  0
TEXT
  5
A1
  8
SPEC
 62
     7
 10
-666.00000000000011
 20
1151.2083349999989
 30
0.0
 40
19.755555555555549
  1
サンプリングレートコンバータレンジ
 41
0.75
  0
TEXT
  5
A2
  8
SPEC
 62
     7
 10
-666.00000000000011
 20
1113.7083349999989
 30
0.0
 40
19.755555555555549
  1
信号遅延1.4ms以下
 41
0.75
  0
LINE
  5
A3
  8
SPEC
  6
CONTINUOUS
 62
     7
 10
-675.0
 20
1034.2863349999991
 30
0.0
 11
-675.0
 21
921.78633500000001
 31
0.0
  0
LINE
  5
A4
  8
SPEC
  6
CONTINUOUS
 62
     7
 10
-675.0
 20
996.78633499999978
 30
0.0
 11
750.0
 21
996.78633499999978
 31
0.0
  0
LINE
  5
A5
  8
SPEC
  6
CONTINUOUS
 62
     7
 10
-675.0
 20
846.78633500000001
 30
0.0
 11
750.0
 21
846.78633500000001
 31
0.0
  0
LINE
  5
A6
  8
SPEC
  6
CONTINUOUS
 62
     7
 10
-675.0
 20
509.28633500000001
 30
0.0
 11
750.0
 21
509.28633500000001
 31
0.0
  0
LINE
  5
A7
  8
SPEC
  6
CONTINUOUS
 62
     7
 10
-675.0
 20
546.78633500000001
 30
0.0
 11
750.0
 21
546.78633500000001
 31
0.0
  0
TEXT
  5
A8
  8
SPEC
 62
     7
 10
-666.00000000000011
 20
1001.208334999999
 30
0.0
 40
19.755555555555549
  1
DSP
 41
0.75
  0
TEXT
  5
A9
  8
SPEC
 62
     7
 10
-666.00000000000011
 20
963.70833499999969
 30
0.0
 40
19.755555555555549
  1
マイク/ライン入力→MIX出力
 41
0.75
  0
TEXT
  5
AA
  8
SPEC
 62
     7
 10
-666.00000000000011
 20
926.20833499999969
 30
0.0
 40
19.755555555555549
  1
ステレオ入力→MIX出力
 41
0.75
  0
TEXT
  5
AB
  8
SPEC
 62
     7
 10
-666.00000000000011
 20
851.20833499999969
 30
0.0
 40
19.755555555555549
  1
マイク等価ノイズレベル
 41
0.75
  0
TEXT
  5
AC
  8
SPEC
 62
     7
 10
-666.00000000000011
 20
813.70833499999969
 30
0.0
 40
19.755555555555549
  1
MIX出力(フェーダ絞りきり)
 41
0.75
  0
TEXT
  5
AD
  8
SPEC
 62
     7
 10
-666.00000000000011
 20
776.20833499999969
 30
0.0
 40
19.755555555555549
  1
MIX出力(フェーダユニティ位置)
 41
0.75
  0
TEXT
  5
AE
  8
SPEC
 62
     7
 10
-666.00000000000011
 20
551.20833499999958
 30
0.0
 40
19.755555555555549
  1
入力チャンネル間
 41
0.75
  0
TEXT
  5
AF
  8
SPEC
 62
     7
 10
-666.00000000000011
 20
513.70833499999958
 30
0.0
 40
19.755555555555549
  1
入力フェーダアッテネーション
 41
0.75
  0
TEXT
  5
B0
  8
SPEC
 62
     7
 10
-666.00000000000011
 20
476.20833499999958
 30
0.0
 40
19.755555555555549
  1
入力チャンネルミュート
 41
0.75
  0
LINE
  5
B1
  8
SPEC
  6
CONTINUOUS
 62
     7
 10
-675.0
 20
959.28633499999978
 30
0.0
 11
750.0
 21
959.28633499999978
 31
0.0
  0
LINE
  5
B2
  8
SPEC
  6
CONTINUOUS
 62
     7
 10
-675.0
 20
809.28633499999978
 30
0.0
 11
750.0
 21
809.28633499999978
 31
0.0
  0
LINE
  5
B3
  8
SPEC
  6
CONTINUOUS
 62
     7
 10
-675.0
 20
696.78633499999978
 30
0.0
 11
750.0
 21
696.78633499999978
 31
0.0
  0
TEXT
  5
B4
  8
SPEC
 62
     7
 10
-666.00000000000011
 20
663.70833499999969
 30
0.0
 40
19.755555555555549
  1
THD
 41
0.75
  0
LINE
  5
B5
  8
SPEC
  6
CONTINUOUS
 62
     7
 10
-675.0
 20
621.78633499999978
 30
0.0
 11
-675.0
 21
884.28633499999978
 31
0.0
  0
LINE
  5
B6
  8
SPEC
  6
CONTINUOUS
 62
     7
 10
-675.0
 20
584.28633499999989
 30
0.0
 11
-675.0
 21
471.78633500000001
 31
0.0
  0
TEXT
  5
B7
  8
DIMNSIONS
 62
     7
 10
-100.0
 20
-1009.9637649999989
 30
0.0
 40
25.399999999999999
  1
(単位：mm)
 41
0.75
  0
LINE
  5
B8
  8
DIMNSIONS
  6
CONTINUOUS
 62
     7
 10
69.522937211697794
 20
-214.3915656737563
 30
0.0
 11
519.99999992549408
 21
-214.3915656737563
 31
0.0
  0
LINE
  5
B9
  8
DIMNSIONS
  6
CONTINUOUS
 62
     7
 10
219.1613770498019
 20
-650.00100452186723
 30
0.0
 11
519.99999992549408
 21
-650.00100452186723
 31
0.0
  0
LINE
  5
BB
  8
DIMNSIONS
 62
     7
 10
500.0
 20
-214.3915656737563
 30
0.0
 11
508.5073868596881
 21
-246.1415656737563
 31
0.0
  0
LINE
  5
BC
  8
DIMNSIONS
 62
     7
 10
500.0
 20
-214.3915656737563
 30
0.0
 11
491.49261314031179
 21
-246.1415656737563
 31
0.0
  0
LINE
  5
BD
  8
DIMNSIONS
 62
     7
 10
500.0
 20
-650.00100452186723
 30
0.0
 11
491.49261314031179
 21
-618.25100452186723
 31
0.0
  0
LINE
  5
BE
  8
DIMNSIONS
 62
     7
 10
500.0
 20
-650.00100452186723
 30
0.0
 11
508.5073868596881
 21
-618.25100452186723
 31
0.0
  0
LINE
  5
BA
  8
DIMNSIONS
  6
CONTINUOUS
 62
     7
 10
500.0
 20
-214.3915656737563
 30
0.0
 11
500.0
 21
-650.00100452186723
 31
0.0
  0
INSERT
  5
BF
  8
DIMNSIONS
 62
     7
  2
*U0
 10
100.0
 20
140.0
 30
0.0
  0
LINE
  5
C0
  8
DIMNSIONS
  6
CONTINUOUS
 62
     7
 10
36.347199999999908
 20
-309.1148849305568
 30
0.0
 11
36.347199999999908
 21
-869.99999992549408
 31
0.0
  0
LINE
  5
C1
  8
DIMNSIONS
  6
CONTINUOUS
 62
     7
 10
300.0
 20
-592.64143322178234
 30
0.0
 11
300.0
 21
-869.99999992549408
 31
0.0
  0
LINE
  5
C3
  8
DIMNSIONS
 62
     7
 10
36.347199999999908
 20
-850.0
 30
0.0
 11
68.097199999999916
 21
-841.49261314031185
 31
0.0
  0
LINE
  5
C4
  8
DIMNSIONS
 62
     7
 10
36.347199999999908
 20
-850.0
 30
0.0
 11
68.097199999999916
 21
-858.50738685968815
 31
0.0
  0
LINE
  5
C5
  8
DIMNSIONS
 62
     7
 10
300.0
 20
-850.0
 30
0.0
 11
268.25
 21
-858.50738685968815
 31
0.0
  0
LINE
  5
C6
  8
DIMNSIONS
 62
     7
 10
300.0
 20
-850.0
 30
0.0
 11
268.25
 21
-841.49261314031185
 31
0.0
  0
LINE
  5
C2
  8
DIMNSIONS
  6
CONTINUOUS
 62
     7
 10
36.347199999999908
 20
-850.0
 30
0.0
 11
300.0
 21
-850.0
 31
0.0
  0
INSERT
  5
C7
  8
DIMNSIONS
 62
     7
  2
*U1
 10
100.0
 20
140.0
 30
0.0
  0
LINE
  5
C8
  8
DIMNSIONS
  6
CONTINUOUS
 62
     7
 10
199.16137712430771
 20
-670.00100444736142
 30
0.0
 11
199.16137712430771
 21
-719.99999992549408
 31
0.0
  0
LINE
  5
C9
  8
DIMNSIONS
  6
CONTINUOUS
 62
     7
 10
300.0
 20
-592.64143322178234
 30
0.0
 11
300.0
 21
-719.99999992549408
 31
0.0
  0
LINE
  5
CB
  8
DIMNSIONS
 62
     7
 10
199.16137712430771
 20
-700.0
 30
0.0
 11
230.91137712430771
 21
-691.49261314031185
 31
0.0
  0
LINE
  5
CC
  8
DIMNSIONS
 62
     7
 10
199.16137712430771
 20
-700.0
 30
0.0
 11
230.91137712430771
 21
-708.50738685968815
 31
0.0
  0
LINE
  5
CD
  8
DIMNSIONS
 62
     7
 10
300.0
 20
-700.0
 30
0.0
 11
268.25
 21
-708.50738685968815
 31
0.0
  0
LINE
  5
CE
  8
DIMNSIONS
 62
     7
 10
300.0
 20
-700.0
 30
0.0
 11
268.25
 21
-691.49261314031185
 31
0.0
  0
LINE
  5
CA
  8
DIMNSIONS
  6
CONTINUOUS
 62
     7
 10
199.16137712430771
 20
-700.0
 30
0.0
 11
300.0
 21
-700.0
 31
0.0
  0
INSERT
  5
CF
  8
DIMNSIONS
 62
     7
  2
*U2
 10
100.0
 20
140.0
 30
0.0
  0
LINE
  5
D0
  8
DIMNSIONS
  6
CONTINUOUS
 62
     7
 10
319.99999992549408
 20
-263.38700452186708
 30
0.0
 11
419.99999992549408
 21
-263.38700452186708
 31
0.0
  0
LINE
  5
D1
  8
DIMNSIONS
  6
CONTINUOUS
 62
     7
 10
319.99999992549408
 20
-563.3870045218672
 30
0.0
 11
419.99999992549408
 21
-563.3870045218672
 31
0.0
  0
LINE
  5
D3
  8
DIMNSIONS
 62
     7
 10
400.0
 20
-263.38700452186708
 30
0.0
 11
408.5073868596881
 21
-295.1370045218672
 31
0.0
  0
LINE
  5
D4
  8
DIMNSIONS
 62
     7
 10
400.0
 20
-263.38700452186708
 30
0.0
 11
391.49261314031179
 21
-295.1370045218672
 31
0.0
  0
LINE
  5
D5
  8
DIMNSIONS
 62
     7
 10
400.0
 20
-563.3870045218672
 30
0.0
 11
391.49261314031179
 21
-531.6370045218672
 31
0.0
  0
LINE
  5
D6
  8
DIMNSIONS
 62
     7
 10
400.0
 20
-563.3870045218672
 30
0.0
 11
408.5073868596881
 21
-531.6370045218672
 31
0.0
  0
LINE
  5
D2
  8
DIMNSIONS
  6
CONTINUOUS
 62
     7
 10
400.0
 20
-263.38700452186708
 30
0.0
 11
400.0
 21
-563.3870045218672
 31
0.0
  0
INSERT
  5
D7
  8
DIMNSIONS
 62
     7
  2
*U3
 10
100.0
 20
140.0
 30
0.0
  0
LINE
  5
D8
  8
DIMNSIONS
  6
CONTINUOUS
 62
     7
 10
219.1613770498019
 20
-650.00100452186723
 30
0.0
 11
419.99999992549408
 21
-650.00100452186723
 31
0.0
  0
LINE
  5
D9
  8
DIMNSIONS
  6
CONTINUOUS
 62
     7
 10
319.99999992549408
 20
-563.3870045218672
 30
0.0
 11
419.99999992549408
 21
-563.3870045218672
 31
0.0
  0
LINE
  5
DB
  8
DIMNSIONS
 62
     7
 10
400.0
 20
-650.00100452186723
 30
0.0
 11
391.49261314031179
 21
-618.25100452186723
 31
0.0
  0
LINE
  5
DC
  8
DIMNSIONS
 62
     7
 10
400.0
 20
-650.00100452186723
 30
0.0
 11
408.5073868596881
 21
-618.25100452186723
 31
0.0
  0
LINE
  5
DD
  8
DIMNSIONS
 62
     7
 10
400.0
 20
-563.3870045218672
 30
0.0
 11
408.5073868596881
 21
-595.1370045218672
 31
0.0
  0
LINE
  5
DE
  8
DIMNSIONS
 62
     7
 10
400.0
 20
-563.3870045218672
 30
0.0
 11
391.49261314031179
 21
-595.1370045218672
 31
0.0
  0
LINE
  5
DA
  8
DIMNSIONS
  6
CONTINUOUS
 62
     7
 10
400.0
 20
-650.00100452186723
 30
0.0
 11
400.0
 21
-563.3870045218672
 31
0.0
  0
INSERT
  5
DF
  8
DIMNSIONS
 62
     7
  2
*U4
 10
100.0
 20
140.0
 30
0.0
  0
LINE
  5
E0
  8
DIMNSIONS
  6
CONTINUOUS
 62
     7
 10
300.0
 20
-592.63683774364949
 30
0.0
 11
300.0
 21
-794.99999992549408
 31
0.0
  0
LINE
  5
E1
  8
DIMNSIONS
  6
CONTINUOUS
 62
     7
 10
138.71000000000001
 20
-327.16420839142143
 30
0.0
 11
138.71000000000001
 21
-794.99999992549408
 31
0.0
  0
LINE
  5
E3
  8
DIMNSIONS
 62
     7
 10
300.0
 20
-775.0
 30
0.0
 11
268.25
 21
-783.50738685968815
 31
0.0
  0
LINE
  5
E4
  8
DIMNSIONS
 62
     7
 10
300.0
 20
-775.0
 30
0.0
 11
268.25
 21
-766.49261314031185
 31
0.0
  0
LINE
  5
E5
  8
DIMNSIONS
 62
     7
 10
138.71000000000001
 20
-775.0
 30
0.0
 11
170.46000000000001
 21
-766.49261314031185
 31
0.0
  0
LINE
  5
E6
  8
DIMNSIONS
 62
     7
 10
138.71000000000001
 20
-775.0
 30
0.0
 11
170.46000000000001
 21
-783.50738685968815
 31
0.0
  0
LINE
  5
E2
  8
DIMNSIONS
  6
CONTINUOUS
 62
     7
 10
300.0
 20
-775.0
 30
0.0
 11
138.71000000000001
 21
-775.0
 31
0.0
  0
INSERT
  5
E7
  8
DIMNSIONS
 62
     7
  2
*U5
 10
100.0
 20
140.0
 30
0.0
  0
LINE
  5
E8
  8
DIMNSIONS
  6
CONTINUOUS
 62
     7
 10
-600.0
 20
-666.37720237447525
 30
0.0
 11
-600.0
 21
-794.99999992549408
 31
0.0
  0
LINE
  5
E9
  8
DIMNSIONS
  6
CONTINUOUS
 62
     7
 10
-168.70679999999999
 20
-666.37720237447525
 30
0.0
 11
-168.70679999999999
 21
-794.99999992549408
 31
0.0
  0
LINE
  5
EB
  8
DIMNSIONS
 62
     7
 10
-600.0
 20
-775.0
 30
0.0
 11
-568.25
 21
-766.49261314031185
 31
0.0
  0
LINE
  5
EC
  8
DIMNSIONS
 62
     7
 10
-600.0
 20
-775.0
 30
0.0
 11
-568.25
 21
-783.50738685968815
 31
0.0
  0
LINE
  5
ED
  8
DIMNSIONS
 62
     7
 10
-168.70679999999999
 20
-775.0
 30
0.0
 11
-200.4567999999999
 21
-783.50738685968815
 31
0.0
  0
LINE
  5
EE
  8
DIMNSIONS
 62
     7
 10
-168.70679999999999
 20
-775.0
 30
0.0
 11
-200.4567999999999
 21
-766.49261314031185
 31
0.0
  0
LINE
  5
EA
  8
DIMNSIONS
  6
CONTINUOUS
 62
     7
 10
-600.0
 20
-775.0
 30
0.0
 11
-168.70679999999999
 21
-775.0
 31
0.0
  0
INSERT
  5
EF
  8
DIMNSIONS
 62
     7
  2
*U6
 10
100.0
 20
140.0
 30
0.0
  0
TEXT
  5
F0
  8
DATA
 62
     7
 10
599.99999999999989
 20
-1021.349764999999
 30
0.0
 40
25.399999999999999
  1
RM1d(6-fader)
 41
0.75
  0
LINE
  5
F1
  8
DATA
  6
CONTINUOUS
 62
     7
 10
-600.0
 20
-646.37720244898105
 30
0.0
 11
-600.0
 21
-279.13512634169228
 31
0.0
  0
LINE
  5
F2
  8
DATA
  6
CONTINUOUS
 62
     7
 10
-175.7067999999999
 20
-650.0
 30
0.0
 11
-593.0
 21
-650.0
 31
0.0
  0
LINE
  5
F3
  8
DATA
  6
CONTINUOUS
 62
     7
 10
-168.70679999999999
 20
-279.13512634169228
 30
0.0
 11
-168.70679999999999
 21
-646.37720244898105
 31
0.0
  0
LINE
  5
F4
  8
DATA
  6
CONTINUOUS
 62
     7
 10
-593.0
 20
-214.3916000000001
 30
0.0
 11
-175.7067999999999
 21
-214.3916000000001
 31
0.0
  0
LINE
  5
F5
  8
DATA
  6
CONTINUOUS
 62
     7
 10
36.347199999999908
 20
-289.1148850050626
 30
0.0
 11
49.522937286203607
 21
-214.3915656737563
 31
0.0
  0
LINE
  5
F6
  8
DATA
  6
CONTINUOUS
 62
     7
 10
244.0
 20
-642.09474553107088
 30
0.0
 11
199.16137712430771
 21
-650.00100452186723
 31
0.0
  0
LINE
  5
F7
  8
DATA
  6
CONTINUOUS
 62
     7
 10
300.0
 20
-254.1371712255791
 30
0.0
 11
300.0
 21
-272.6368378181553
 31
0.0
  0
LINE
  5
F8
  8
DATA
  6
CONTINUOUS
 62
     7
 10
49.522937286203607
 20
-214.3915656737563
 30
0.0
 11
154.68985199164641
 21
-232.93533021419179
 31
0.0
  0
LINE
  5
F9
  8
DATA
  6
CONTINUOUS
 62
     7
 10
-593.0
 20
113.65000000000001
 30
0.0
 11
-175.7067999999999
 21
113.65000000000001
 31
0.0
  0
TEXT
  5
FA
  8
DATA
 62
     7
 10
599.99999999999989
 20
-948.84976499999993
 30
0.0
 40
25.399999999999999
  1
Soundcraft
 41
0.75
  0
LINE
  5
FB
  8
DATA
  6
CONTINUOUS
 62
     7
 10
138.71000000000001
 20
-307.16420846592717
 30
0.0
 11
199.16137712430771
 21
-650.00100452186723
 31
0.0
  0
LINE
  5
FC
  8
DATA
  6
CONTINUOUS
 62
     7
 10
36.347199999999908
 20
-289.1148850050626
 30
0.0
 11
138.71000000000001
 21
-307.16420846592717
 31
0.0
  0
LINE
  5
FD
  8
DATA
  6
CONTINUOUS
 62
     7
 10
171.06781147113421
 20
-250.19409840633301
 30
0.0
 11
219.7129799381604
 21
-646.37720244898105
 31
0.0
  0
LINE
  5
FE
  8
DATA
  6
CONTINUOUS
 62
     7
 10
243.99799999999991
 20
-297.09160000000003
 30
0.0
 11
243.99799999999991
 21
-642.09159999999997
 31
0.0
  0
LINE
  5
FF
  8
DATA
  6
CONTINUOUS
 62
     7
 10
175.33963107111691
 20
-284.98527710640388
 30
0.0
 11
243.99799999999991
 21
-297.09160000000003
 31
0.0
  0
LINE
  5
100
  8
DATA
  6
CONTINUOUS
 62
     7
 10
170.04702243909071
 20
-245.89160000000001
 30
0.0
 11
291.0
 21
-245.89160000000001
 31
0.0
  0
LINE
  5
101
  8
DATA
  6
CONTINUOUS
 62
     7
 10
290.99799999999988
 20
-245.89160000000001
 30
0.0
 11
290.99799999999988
 21
-577.89160000000004
 31
0.0
  0
LINE
  5
102
  8
DATA
  6
CONTINUOUS
 62
     7
 10
290.99799999999988
 20
-577.89160000000004
 30
0.0
 11
243.99799999999991
 21
-586.17896809329659
 31
0.0
  0
LINE
  5
103
  8
DATA
  6
CONTINUOUS
 62
     7
 10
290.99799999999988
 20
-253.3868378181547
 30
0.0
 11
300.0
 21
-254.1371712255791
 31
0.0
  0
LINE
  5
104
  8
DATA
  6
CONTINUOUS
 62
     7
 10
290.99799999999988
 20
-273.38717122557961
 30
0.0
 11
300.0
 21
-272.6368378181553
 31
0.0
  0
LINE
  5
105
  8
DATA
  6
CONTINUOUS
 62
     7
 10
300.0
 20
-554.1371712255791
 30
0.0
 11
300.0
 21
-572.6368378181553
 31
0.0
  0
LINE
  5
106
  8
DATA
  6
CONTINUOUS
 62
     7
 10
290.99799999999988
 20
-553.38683781815473
 30
0.0
 11
300.0
 21
-554.1371712255791
 31
0.0
  0
LINE
  5
107
  8
DATA
  6
CONTINUOUS
 62
     7
 10
290.99799999999988
 20
-573.38717122557966
 30
0.0
 11
300.0
 21
-572.6368378181553
 31
0.0
  0
LINE
  5
108
  8
DATA
  6
CONTINUOUS
 62
     7
 10
-179.7067999999999
 20
-307.16000000000003
 30
0.0
 11
-179.7067999999999
 21
-607.56311766044155
 31
0.0
  0
LINE
  5
109
  8
DATA
  6
CONTINUOUS
 62
     7
 10
-185.7067999999999
 20
-613.56311766044155
 30
0.0
 11
-583.0
 21
-613.56311766044155
 31
0.0
  0
LINE
  5
10A
  8
DATA
  6
CONTINUOUS
 62
     7
 10
-175.7067999999999
 20
-214.3916000000001
 30
0.0
 11
-175.7067999999999
 21
-650.0
 31
0.0
  0
LINE
  5
10B
  8
DATA
  6
CONTINUOUS
 62
     7
 10
-593.0
 20
-214.3916000000001
 30
0.0
 11
-593.0
 21
-650.00160000000005
 31
0.0
  0
LINE
  5
10C
  8
DATA
  6
CONTINUOUS
 62
     7
 10
-175.70999999999989
 20
-307.16000000000003
 30
0.0
 11
-593.0
 21
-307.15999999999991
 31
0.0
  0
LINE
  5
10D
  8
DATA
  6
CONTINUOUS
 62
     7
 10
-593.0
 20
-289.11000000000001
 30
0.0
 11
-175.70999999999989
 21
-289.11000000000001
 31
0.0
  0
LINE
  5
10E
  8
DATA
  6
CONTINUOUS
 62
     7
 10
-589.0
 20
-307.16000000000003
 30
0.0
 11
-589.0
 21
-607.56311766044155
 31
0.0
  0
ARC
  5
10F
  8
DATA
  6
CONTINUOUS
 62
     7
 10
-583.0
 20
-607.56311766044155
 30
0.0
 40
6.0
 50
180.0
 51
270.0
  0
LINE
  5
110
  8
DATA
  6
CONTINUOUS
 62
     7
 10
-576.85939999999994
 20
-214.38999999999999
 30
0.0
 11
-576.85939999999994
 21
-650.0
 31
0.0
  0
LINE
  5
111
  8
DATA
  6
CONTINUOUS
 62
     7
 10
-384.35339999999991
 20
-307.16000000000003
 30
0.0
 11
-384.35339999999991
 21
-613.56311766044155
 31
0.0
  0
ARC
  5
112
  8
DATA
  6
CONTINUOUS
 62
     7
 10
-185.7067999999999
 20
-607.56311766044155
 30
0.0
 40
6.0
 50
270.0
 51
0.0
  0
LINE
  5
113
  8
DATA
  6
CONTINUOUS
 62
     7
 10
-191.84739999999991
 20
-214.38999999999999
 30
0.0
 11
-191.84739999999991
 21
-650.0
 31
0.0
  0
LINE
  5
114
  8
DATA
  6
CONTINUOUS
 62
     7
 10
-175.7067999999999
 20
-650.0
 30
0.0
 11
-168.70679999999999
 21
-646.37720244898105
 31
0.0
  0
LINE
  5
115
  8
DATA
  6
CONTINUOUS
 62
     7
 10
-593.0
 20
-650.0
 30
0.0
 11
-600.0
 21
-646.37720244898105
 31
0.0
  0
ARC
  5
116
  8
DATA
  6
CONTINUOUS
 62
     7
 10
-318.5854164971509
 20
-278.31442340590172
 30
0.0
 40
149.8808634763252
 50
359.68626382080669
 51
17.58282804386965
  0
ARC
  5
117
  8
DATA
  6
CONTINUOUS
 62
     7
 10
-450.12138350284903
 20
-278.31442340590172
 30
0.0
 40
149.8808634763252
 50
162.41717195613029
 51
180.3137361791932
  0
LINE
  5
118
  8
DATA
  6
CONTINUOUS
 62
     7
 10
-175.70999999999989
 20
-49.161377124307712
 30
0.0
 11
-593.0
 21
-49.161377124307712
 31
0.0
  0
LINE
  5
119
  8
DATA
  6
CONTINUOUS
 62
     7
 10
-168.70679999999999
 20
-69.712979938160402
 30
0.0
 11
-600.0
 21
-69.712979938160402
 31
0.0
  0
LINE
  5
11A
  8
DATA
  6
CONTINUOUS
 62
     7
 10
-175.34999999999999
 20
-94.0
 30
0.0
 11
-593.35000000000002
 21
-94.0
 31
0.0
  0
LINE
  5
11B
  8
DATA
  6
CONTINUOUS
 62
     7
 10
-190.34999999999999
 20
-141.0
 30
0.0
 11
-578.35000000000002
 21
-141.0
 31
0.0
  0
LINE
  5
11C
  8
DATA
  6
CONTINUOUS
 62
     7
 10
-175.70999999999989
 20
11.28999999999999
 30
0.0
 11
-593.0
 21
11.29000000000004
 31
0.0
  0
LINE
  5
11D
  8
DATA
  6
CONTINUOUS
 62
     7
 10
-578.35000000000002
 20
-141.0
 30
0.0
 11
-578.35000000000002
 21
-93.997999999999934
 31
0.0
  0
LINE
  5
11E
  8
DATA
  6
CONTINUOUS
 62
     7
 10
-190.34999999999999
 20
-141.0
 30
0.0
 11
-190.34999999999999
 21
-93.997999999999934
 31
0.0
  0
LINE
  5
11F
  8
DATA
  6
CONTINUOUS
 62
     7
 10
-556.60016670371192
 20
-150.0
 30
0.0
 11
-575.09983329628812
 21
-150.0
 31
0.0
  0
LINE
  5
120
  8
DATA
  6
CONTINUOUS
 62
     7
 10
-555.84983329628756
 20
-140.99799999999991
 30
0.0
 11
-556.60016670371192
 21
-150.0
 31
0.0
  0
LINE
  5
121
  8
DATA
  6
CONTINUOUS
 62
     7
 10
-575.85016670371238
 20
-140.99799999999991
 30
0.0
 11
-575.09983329628812
 21
-150.0
 31
0.0
  0
LINE
  5
122
  8
DATA
  6
CONTINUOUS
 62
     7
 10
-193.60016670371189
 20
-150.0
 30
0.0
 11
-212.0998332962881
 21
-150.0
 31
0.0
  0
LINE
  5
123
  8
DATA
  6
CONTINUOUS
 62
     7
 10
-192.8498332962875
 20
-140.99799999999991
 30
0.0
 11
-193.60016670371189
 21
-150.0
 31
0.0
  0
LINE
  5
124
  8
DATA
  6
CONTINUOUS
 62
     7
 10
-212.85016670371249
 20
-140.99799999999991
 30
0.0
 11
-212.0998332962881
 21
-150.0
 31
0.0
  0
LINE
  5
125
  8
DATA
  6
CONTINUOUS
 62
     7
 10
-593.35000000000002
 20
-94.0
 30
0.0
 11
-593.35000000000002
 21
-69.712979938160402
 31
0.0
  0
LINE
  5
126
  8
DATA
  6
CONTINUOUS
 62
     7
 10
-175.34999999999999
 20
-94.0
 30
0.0
 11
-175.34999999999999
 21
-69.712979938160402
 31
0.0
  0
LINE
  5
127
  8
DATA
  6
CONTINUOUS
 62
     7
 10
-175.70999999999989
 20
113.65000000000001
 30
0.0
 11
-175.70999999999989
 21
-49.161377124307712
 31
0.0
  0
LINE
  5
128
  8
DATA
  6
CONTINUOUS
 62
     7
 10
-593.0
 20
113.65000000000001
 30
0.0
 11
-593.0
 21
-49.161377124307712
 31
0.0
  0
LINE
  5
129
  8
DATA
  6
CONTINUOUS
 62
     7
 10
-600.0
 20
-69.712979938160402
 30
0.0
 11
-593.0
 21
11.876699090269881
 31
0.0
  0
LINE
  5
12A
  8
DATA
  6
CONTINUOUS
 62
     7
 10
-175.7067999999999
 20
11.876699090269881
 30
0.0
 11
-168.70679999999999
 21
-69.712979938160402
 31
0.0
  0
ARC
  5
12B
  8
DATA
  6
CONTINUOUS
 62
     7
 10
-210.14157466943311
 20
-72.363353255957236
 30
0.0
 40
41.519453640798133
 50
3.6599355843751051
 51
33.974356985532182
  0
ARC
  5
12C
  8
DATA
  6
CONTINUOUS
 62
     7
 10
-558.56842533056692
 20
-72.363353255957236
 30
0.0
 40
41.519453640798062
 50
146.0256430144677
 51
176.34006441562491
  0
LINE
  5
12D
  8
DATA
  6
CONTINUOUS
 62
     7
 10
-191.84739999999991
 20
106.4182433794421
 30
0.0
 11
-576.85939999999994
 21
106.4182433794421
 31
0.0
  0
LINE
  5
12E
  8
DATA
  6
CONTINUOUS
 62
     7
 10
-576.85939999999994
 20
113.65000000000001
 30
0.0
 11
-576.85939999999994
 21
-94.0
 31
0.0
  0
LINE
  5
12F
  8
DATA
  6
CONTINUOUS
 62
     7
 10
-191.84739999999991
 20
113.65000000000001
 30
0.0
 11
-191.84739999999991
 21
-94.0
 31
0.0
  0
LINE
  5
130
  8
DATA
  6
CONTINUOUS
 62
     7
 10
-191.84739999999991
 20
-42.736394550635872
 30
0.0
 11
-576.85939999999994
 21
-42.736394550635872
 31
0.0
  0
ARC
  5
131
  8
DATA
  6
CONTINUOUS
 62
     7
 10
151.21688843830779
 20
-252.6314852744359
 30
0.0
 40
20.0
 50
6.9999999999999121
 51
79.999999999999901
  0
LINE
  5
132
  8
DATA
  6
CONTINUOUS
 62
     7
 10
-417.00639999999993
 20
-316.15117625072872
 30
0.0
 11
-417.00639999999993
 21
-583.0340773170368
 31
0.0
  0
LINE
  5
133
  8
DATA
  6
CONTINUOUS
 62
     7
 10
-448.80639999999988
 20
-316.15117625072872
 30
0.0
 11
-448.80639999999988
 21
-583.0340773170368
 31
0.0
  0
LINE
  5
134
  8
DATA
  6
CONTINUOUS
 62
     7
 10
-480.60639999999989
 20
-316.15117625072872
 30
0.0
 11
-480.60639999999989
 21
-583.0340773170368
 31
0.0
  0
LINE
  5
135
  8
DATA
  6
CONTINUOUS
 62
     7
 10
-512.40639999999985
 20
-316.15117625072872
 30
0.0
 11
-512.40639999999985
 21
-583.0340773170368
 31
0.0
  0
LINE
  5
136
  8
DATA
  6
CONTINUOUS
 62
     7
 10
-544.2063999999998
 20
-316.15117625072872
 30
0.0
 11
-544.2063999999998
 21
-583.0340773170368
 31
0.0
  0
LINE
  5
137
  8
DATA
  6
CONTINUOUS
 62
     7
 10
-432.90639999999991
 20
-472.73560897966991
 30
0.0
 11
-432.90639999999991
 21
-563.33792225679247
 31
0.0
  0
POLYLINE
  5
138
  8
DATA
  6
CONTINUOUS
 62
     7
 66
     1
 10
0.0
 20
0.0
 30
0.0
 70
     1
  0
VERTEX
  5
1B4
  8
DATA
  6
CONTINUOUS
 62
     7
 10
-438.40639999999991
 20
-563.33792225679247
 30
0.0
  0
VERTEX
  5
1B5
  8
DATA
  6
CONTINUOUS
 62
     7
 10
-427.40640000000002
 20
-563.33792225679247
 30
0.0
  0
VERTEX
  5
1B6
  8
DATA
  6
CONTINUOUS
 62
     7
 10
-427.40640000000002
 20
-589.92773158812292
 30
0.0
  0
VERTEX
  5
1B7
  8
DATA
  6
CONTINUOUS
 62
     7
 10
-438.40639999999991
 20
-589.92773158812292
 30
0.0
  0
SEQEND
  5
1B8
  8
DATA
  6
CONTINUOUS
 62
     7
  0
LINE
  5
13E
  8
DATA
  6
CONTINUOUS
 62
     7
 10
-401.10639999999989
 20
-472.73560897966991
 30
0.0
 11
-401.10639999999989
 21
-563.33792225679247
 31
0.0
  0
POLYLINE
  5
13F
  8
DATA
  6
CONTINUOUS
 62
     7
 66
     1
 10
0.0
 20
0.0
 30
0.0
 70
     1
  0
VERTEX
  5
1B9
  8
DATA
  6
CONTINUOUS
 62
     7
 10
-406.60639999999989
 20
-563.33792225679247
 30
0.0
  0
VERTEX
  5
1BA
  8
DATA
  6
CONTINUOUS
 62
     7
 10
-395.60639999999989
 20
-563.33792225679247
 30
0.0
  0
VERTEX
  5
1BB
  8
DATA
  6
CONTINUOUS
 62
     7
 10
-395.60639999999989
 20
-589.92773158812292
 30
0.0
  0
VERTEX
  5
1BC
  8
DATA
  6
CONTINUOUS
 62
     7
 10
-406.60639999999989
 20
-589.92773158812292
 30
0.0
  0
SEQEND
  5
1BD
  8
DATA
  6
CONTINUOUS
 62
     7
  0
LINE
  5
145
  8
DATA
  6
CONTINUOUS
 62
     7
 10
-464.70639999999992
 20
-472.73560897966991
 30
0.0
 11
-464.70639999999992
 21
-563.33792225679247
 31
0.0
  0
POLYLINE
  5
146
  8
DATA
  6
CONTINUOUS
 62
     7
 66
     1
 10
0.0
 20
0.0
 30
0.0
 70
     1
  0
VERTEX
  5
1BE
  8
DATA
  6
CONTINUOUS
 62
     7
 10
-470.20639999999992
 20
-563.33792225679247
 30
0.0
  0
VERTEX
  5
1BF
  8
DATA
  6
CONTINUOUS
 62
     7
 10
-459.20639999999992
 20
-563.33792225679247
 30
0.0
  0
VERTEX
  5
1C0
  8
DATA
  6
CONTINUOUS
 62
     7
 10
-459.20639999999992
 20
-589.92773158812292
 30
0.0
  0
VERTEX
  5
1C1
  8
DATA
  6
CONTINUOUS
 62
     7
 10
-470.20639999999992
 20
-589.92773158812292
 30
0.0
  0
SEQEND
  5
1C2
  8
DATA
  6
CONTINUOUS
 62
     7
  0
LINE
  5
14C
  8
DATA
  6
CONTINUOUS
 62
     7
 10
-496.50639999999993
 20
-472.73560897966991
 30
0.0
 11
-496.50639999999993
 21
-563.33792225679247
 31
0.0
  0
POLYLINE
  5
14D
  8
DATA
  6
CONTINUOUS
 62
     7
 66
     1
 10
0.0
 20
0.0
 30
0.0
 70
     1
  0
VERTEX
  5
1C3
  8
DATA
  6
CONTINUOUS
 62
     7
 10
-502.00639999999981
 20
-563.33792225679247
 30
0.0
  0
VERTEX
  5
1C4
  8
DATA
  6
CONTINUOUS
 62
     7
 10
-491.00639999999981
 20
-563.33792225679247
 30
0.0
  0
VERTEX
  5
1C5
  8
DATA
  6
CONTINUOUS
 62
     7
 10
-491.00639999999981
 20
-589.92773158812292
 30
0.0
  0
VERTEX
  5
1C6
  8
DATA
  6
CONTINUOUS
 62
     7
 10
-502.00639999999981
 20
-589.92773158812292
 30
0.0
  0
SEQEND
  5
1C7
  8
DATA
  6
CONTINUOUS
 62
     7
  0
LINE
  5
153
  8
DATA
  6
CONTINUOUS
 62
     7
 10
-528.30639999999983
 20
-472.73560897966991
 30
0.0
 11
-528.30639999999983
 21
-563.33792225679247
 31
0.0
  0
POLYLINE
  5
154
  8
DATA
  6
CONTINUOUS
 62
     7
 66
     1
 10
0.0
 20
0.0
 30
0.0
 70
     1
  0
VERTEX
  5
1C8
  8
DATA
  6
CONTINUOUS
 62
     7
 10
-533.80639999999983
 20
-563.33792225679247
 30
0.0
  0
VERTEX
  5
1C9
  8
DATA
  6
CONTINUOUS
 62
     7
 10
-522.80639999999983
 20
-563.33792225679247
 30
0.0
  0
VERTEX
  5
1CA
  8
DATA
  6
CONTINUOUS
 62
     7
 10
-522.80639999999983
 20
-589.92773158812292
 30
0.0
  0
VERTEX
  5
1CB
  8
DATA
  6
CONTINUOUS
 62
     7
 10
-533.80639999999983
 20
-589.92773158812292
 30
0.0
  0
SEQEND
  5
1CC
  8
DATA
  6
CONTINUOUS
 62
     7
  0
LINE
  5
15A
  8
DATA
  6
CONTINUOUS
 62
     7
 10
-560.10639999999978
 20
-472.73560897966991
 30
0.0
 11
-560.10639999999978
 21
-563.33792225679247
 31
0.0
  0
POLYLINE
  5
15B
  8
DATA
  6
CONTINUOUS
 62
     7
 66
     1
 10
0.0
 20
0.0
 30
0.0
 70
     1
  0
VERTEX
  5
1CD
  8
DATA
  6
CONTINUOUS
 62
     7
 10
-565.60639999999967
 20
-563.33792225679247
 30
0.0
  0
VERTEX
  5
1CE
  8
DATA
  6
CONTINUOUS
 62
     7
 10
-554.60639999999967
 20
-563.33792225679247
 30
0.0
  0
VERTEX
  5
1CF
  8
DATA
  6
CONTINUOUS
 62
     7
 10
-554.60639999999967
 20
-589.92773158812292
 30
0.0
  0
VERTEX
  5
1D0
  8
DATA
  6
CONTINUOUS
 62
     7
 10
-565.60639999999967
 20
-589.92773158812292
 30
0.0
  0
SEQEND
  5
1D1
  8
DATA
  6
CONTINUOUS
 62
     7
  0
LINE
  5
161
  8
DATA
  6
CONTINUOUS
 62
     7
 10
-303.84739999999988
 20
-472.73560897966991
 30
0.0
 11
-303.84739999999988
 21
-563.33792225679247
 31
0.0
  0
POLYLINE
  5
162
  8
DATA
  6
CONTINUOUS
 62
     7
 66
     1
 10
0.0
 20
0.0
 30
0.0
 70
     1
  0
VERTEX
  5
1D2
  8
DATA
  6
CONTINUOUS
 62
     7
 10
-309.34739999999999
 20
-563.33792225679247
 30
0.0
  0
VERTEX
  5
1D3
  8
DATA
  6
CONTINUOUS
 62
     7
 10
-298.34739999999999
 20
-563.33792225679247
 30
0.0
  0
VERTEX
  5
1D4
  8
DATA
  6
CONTINUOUS
 62
     7
 10
-298.34739999999999
 20
-589.92773158812292
 30
0.0
  0
VERTEX
  5
1D5
  8
DATA
  6
CONTINUOUS
 62
     7
 10
-309.34739999999999
 20
-589.92773158812292
 30
0.0
  0
SEQEND
  5
1D6
  8
DATA
  6
CONTINUOUS
 62
     7
  0
LINE
  5
168
  8
DATA
  6
CONTINUOUS
 62
     7
 10
-271.84739999999999
 20
-472.73560897966991
 30
0.0
 11
-271.84739999999999
 21
-563.33792225679247
 31
0.0
  0
POLYLINE
  5
169
  8
DATA
  6
CONTINUOUS
 62
     7
 66
     1
 10
0.0
 20
0.0
 30
0.0
 70
     1
  0
VERTEX
  5
1D7
  8
DATA
  6
CONTINUOUS
 62
     7
 10
-277.34739999999988
 20
-563.33792225679247
 30
0.0
  0
VERTEX
  5
1D8
  8
DATA
  6
CONTINUOUS
 62
     7
 10
-266.34739999999988
 20
-563.33792225679247
 30
0.0
  0
VERTEX
  5
1D9
  8
DATA
  6
CONTINUOUS
 62
     7
 10
-266.34739999999988
 20
-589.92773158812292
 30
0.0
  0
VERTEX
  5
1DA
  8
DATA
  6
CONTINUOUS
 62
     7
 10
-277.34739999999988
 20
-589.92773158812292
 30
0.0
  0
SEQEND
  5
1DB
  8
DATA
  6
CONTINUOUS
 62
     7
  0
TEXT
  5
16F
  8
DATA
 62
     7
 10
574.99999999999989
 20
-982.13764833333312
 30
0.0
 40
16.93333333333333
  1
デジタルミキシングコンソール
 41
0.75
  0
ENDSEC
  0
EOF
