  0
SECTION
  2
HEADER
  9
$ACADVER
  1
AC1004
  9
$INSBASE
 10
0.0
 20
0.0
  9
$EXTMIN
 10
-132.346667
 20
-137.9
  9
$EXTMAX
 10
4067.653333
 20
5802.1
  9
$LIMMIN
 10
-132.346667
 20
-137.9
  9
$LIMMAX
 10
4067.653333
 20
5802.1
  9
$VIEWCTR
 10
6.0
 20
4.5
  9
$VIEWSIZE
 40
9.0
  9
$SNAPMODE
 70
     0
  9
$SNAPUNIT
 10
50.0
 20
50.0
  9
$SNAPBASE
 10
0.0
 20
0.0
  9
$SNAPANG
 50
0.0
  9
$SNAPSTYLE
 70
     0
  9
$SNAPISOPAIR
 70
     0
  9
$GRIDMODE
 70
     1
  9
$GRIDUNIT
 10
100.0
 20
100.0
  9
$ORTHOMODE
 70
     0
  9
$REGENMODE
 70
     1
  9
$FILLMODE
 70
     1
  9
$QTEXTMODE
 70
     0
  9
$DRAGMODE
 70
     2
  9
$LTSCALE
 40
5.0
  9
$OSMODE
 70
     1
  9
$ATTMODE
 70
     1
  9
$TEXTSIZE
 40
0.2
  9
$TRACEWID
 40
0.05
  9
$TEXTSTYLE
  7
STANDARD
  9
$CLAYER
  8
DATA
  9
$CELTYPE
  6
CONTINUOUS
  9
$CECOLOR
 62
     7
  9
$DIMSCALE
 40
1.0
  9
$DIMASZ
 40
0.18
  9
$DIMEXO
 40
0.0625
  9
$DIMDLI
 40
0.38
  9
$DIMRND
 40
0.0
  9
$DIMDLE
 40
0.0
  9
$DIMEXE
 40
0.18
  9
$DIMTP
 40
0.0
  9
$DIMTM
 40
0.0
  9
$DIMTXT
 40
0.18
  9
$DIMCEN
 40
0.09
  9
$DIMTSZ
 40
0.0
  9
$DIMTOL
 70
     0
  9
$DIMLIM
 70
     0
  9
$DIMTIH
 70
     1
  9
$DIMTOH
 70
     1
  9
$DIMSE1
 70
     0
  9
$DIMSE2
 70
     0
  9
$DIMTAD
 70
     0
  9
$DIMZIN
 70
     0
  9
$DIMBLK
  1

  9
$DIMASO
 70
     1
  9
$DIMSHO
 70
     1
  9
$DIMPOST
  1

  9
$DIMAPOST
  1

  9
$DIMALT
 70
     0
  9
$DIMALTD
 70
     2
  9
$DIMALTF
 40
25.4
  9
$DIMLFAC
 40
1.0
  9
$LUNITS
 70
     2
  9
$LUPREC
 70
     4
  9
$AXISMODE
 70
     0
  9
$AXISUNIT
 10
0.0
 20
0.0
  9
$SKETCHINC
 40
0.1
  9
$FILLETRAD
 40
5.0
  9
$AUNITS
 70
     0
  9
$AUPREC
 70
     0
  9
$MENU
  1
acad
  9
$ELEVATION
 40
0.0
  9
$THICKNESS
 40
0.0
  9
$VIEWDIR
 10
0.0
 20
0.0
 30
1.0
  9
$LIMCHECK
 70
     0
  9
$BLIPMODE
 70
     1
  9
$CHAMFERA
 40
0.0
  9
$CHAMFERB
 40
0.0
  9
$FASTZOOM
 70
     1
  9
$SKPOLY
 70
     0
  9
$TDCREATE
 40
0.0
  9
$TDUPDATE
 40
0.0
  9
$TDINDWG
 40
0.0
  9
$TDUSRTIMER
 40
0.0
  9
$USRTIMER
 70
     1
  9
$ANGBASE
 50
0.0
  9
$ANGDIR
 70
     0
  9
$PDMODE
 70
     0
  9
$PDSIZE
 40
0.0
  9
$PLINEWID
 40
0.0
  9
$COORDS
 70
     1
  9
$SPLFRAME
 70
     0
  9
$SPLINESEGS
 70
    10
  9
$ATTDIA
 70
     0
  9
$ATTREQ
 70
     1
  9
$USERI1
 70
     0
  9
$USERI2
 70
     0
  9
$USERI3
 70
     0
  9
$USERI4
 70
     0
  9
$USERI5
 70
     0
  9
$USERR1
 40
0.0
  9
$USERR2
 40
0.0
  9
$USERR3
 40
0.0
  9
$USERR4
 40
0.0
  9
$USERR5
 40
0.0
  0
ENDSEC
  0
SECTION
  2
TABLES
  0
TABLE
  2
LTYPE
 70
    11
  0
LTYPE
  2
CONTINUOUS
 70
     0
  3
Solid line
 72
    65
 73
     0
 40
0.0
  0
LTYPE
  2
DASHED
 70
     0
  3
__ __ __ __ __ __ __ __ __ __ __ __ __ __ __
 72
    65
 73
     2
 40
0.75
 49
0.5
 49
-0.25
  0
LTYPE
  2
HIDDEN
 70
     0
  3
_ _ _ _ _ _ _ _ _ _ _ _ _ _ _ _ _ _ _ _ _ _ 
 72
    65
 73
     2
 40
0.25
 49
0.125
 49
-0.125
  0
LTYPE
  2
CENTER
 70
     0
  3
____ _ ____ _ ____ _ ____ _ ____ _ ____ _ __
 72
    65
 73
     4
 40
2.0
 49
1.25
 49
-0.25
 49
0.25
 49
-0.25
  0
LTYPE
  2
PHANTOM
 70
     0
  3
_____ _ _ _____ _ _ _____ _ _ _____ _ _ ____
 72
    65
 73
     6
 40
2.5
 49
1.25
 49
-0.25
 49
0.25
 49
-0.25
 49
0.25
 49
-0.25
  0
LTYPE
  2
DOT
 70
     0
  3
............................................
 72
    65
 73
     2
 40
0.25
 49
0.0
 49
-0.25
  0
LTYPE
  2
DASHDOT
 70
     0
  3
__ . __ . __ . __ . __ . __ . __ . __ . __ .
 72
    65
 73
     4
 40
1.0
 49
0.5
 49
-0.25
 49
0.0
 49
-0.25
  0
LTYPE
  2
BORDER
 70
     0
  3
__ __ . __ __ . __ __ . __ __ . __ __ . __ _
 72
    65
 73
     6
 40
1.75
 49
0.5
 49
-0.25
 49
0.5
 49
-0.25
 49
0.0
 49
-0.25
  0
LTYPE
  2
DIVIDE
 70
     0
  3
__ . . __ . . __ . . __ . . __ . . __ . . __
 72
    65
 73
     6
 40
1.25
 49
0.5
 49
-0.25
 49
0.0
 49
-0.25
 49
0.0
 49
-0.25
  0
LTYPE
  2
DOTS
 70
     0
  3
close                                       
 72
    65
 73
     2
 40
0.1
 49
0.05
 49
-0.05
  0
LTYPE
  2
CLOSE
 70
     0
  3
                                            
 72
    65
 73
     0
 40
0.0
  0
ENDTAB
  0
TABLE
  2
LAYER
 70
     6
  0
LAYER
  2
0
 70
     0
 62
     7
  6
CONTINUOUS
  0
LAYER
  2
LAYER01
 70
     0
 62
     7
  6
CONTINUOUS
  0
LAYER
  2
DATA
 70
     0
 62
     7
  6
CONTINUOUS
  0
LAYER
  2
DIMENSIONS
 70
     0
 62
     7
  6
CONTINUOUS
  0
LAYER
  2
SPEC
 70
     0
 62
     7
  6
CONTINUOUS
  0
LAYER
  2
HIBINO-BASE
 70
     0
 62
     7
  6
CONTINUOUS
  0
ENDTAB
  0
TABLE
  2
STYLE
 70
     2
  0
STYLE
  2
STANDARD
 70
     0
 40
0.0
 41
1.0
 50
0.0
 71
     0
 42
0.2
  3
txt
  4

  0
STYLE
  2
TTF_DEFAULT
 70
     0
 40
0.0
 41
1.0
 50
0.0
 71
     0
 42
0.0
  3
txt
  4
BIGFONT
  0
ENDTAB
  0
TABLE
  2
VIEW
 70
     0
  0
ENDTAB
  0
ENDSEC
  0
SECTION
  2
BLOCKS
  0
ENDSEC
  0
SECTION
  2
ENTITIES
  0
POLYLINE
  8
HIBINO-BASE
  6
CONTINUOUS
 62
     7
 66
     1
 70
     1
 40
5.0
 41
5.0
  0
VERTEX
  8
HIBINO-BASE
 10
200.0
 20
300.0
  0
VERTEX
  8
HIBINO-BASE
 10
200.0
 20
5500.0
  0
VERTEX
  8
HIBINO-BASE
 10
3800.0
 20
5500.0
  0
VERTEX
  8
HIBINO-BASE
 10
3800.0
 20
300.0
  0
SEQEND
  8
HIBINO-BASE
  0
TEXT
  8
SPEC
  6
CONTINUOUS
 62
     7
 10
1712.5
 20
5237.5
 40
50.0
  1
+0/-0.5dB (マイク、ライン入力→各出力 , 20Hz～20kHz)
  7
TTF_DEFAULT
  0
TEXT
  8
SPEC
  6
CONTINUOUS
 62
     7
 10
1712.5
 20
5162.5
 40
50.0
  1
ライン入力→出力 (グループ又はミックス) : 0.005%@1kHz
  7
TTF_DEFAULT
  0
TEXT
  8
SPEC
  6
CONTINUOUS
 62
     7
 10
1712.5
 20
5107.5
 40
50.0
  1
ライン入力→出力 (グループ又はミックス) : 0.025%@10kHz
  7
TTF_DEFAULT
  0
LINE
  8
SPEC
  6
CONTINUOUS
 62
     7
 10
350.0
 20
5300.0
 11
3350.0
 21
5300.0
  0
LINE
  8
SPEC
  6
CONTINUOUS
 62
     7
 10
350.0
 20
5225.0
 11
3350.0
 21
5225.0
  0
TEXT
  8
SPEC
  6
CONTINUOUS
 62
     7
 10
1712.5
 20
5022.5
 40
50.0
  1
-127.5dBu以下 (マイク入力 , MAXゲイン)
  7
TTF_DEFAULT
  0
TEXT
  8
SPEC
  6
CONTINUOUS
 62
     7
 10
1712.5
 20
4672.5
 40
50.0
  1
MIX→グループ間 : -75dB以下
  7
TTF_DEFAULT
  0
TEXT
  8
SPEC
  6
CONTINUOUS
 62
     7
 10
1712.5
 20
4727.5
 40
50.0
  1
グループ→MIX間 : -75dB以下
  7
TTF_DEFAULT
  0
TEXT
  8
SPEC
  6
CONTINUOUS
 62
     7
 10
1712.5
 20
4782.5
 40
50.0
  1
グループ→グループ間 : -75dB以下
  7
TTF_DEFAULT
  0
TEXT
  8
SPEC
  6
CONTINUOUS
 62
     7
 10
1712.5
 20
4947.5
 40
50.0
  1
入力チャンネルミュート : 100dB以上
  7
TTF_DEFAULT
  0
TEXT
  8
SPEC
  6
CONTINUOUS
 62
     7
 10
1712.5
 20
4837.5
 40
50.0
  1
グループフェーダーアイソレーション : 95dB以上
  7
TTF_DEFAULT
  0
TEXT
  8
SPEC
  6
CONTINUOUS
 62
     7
 10
1712.5
 20
4892.5
 40
50.0
  1
入力チャンネルセンドポットアイソレーション : 75dB以上
  7
TTF_DEFAULT
  0
LINE
  8
SPEC
  6
CONTINUOUS
 62
     7
 10
350.0
 20
5085.0
 11
3350.0
 21
5085.0
  0
LINE
  8
SPEC
  6
CONTINUOUS
 62
     7
 10
350.0
 20
5010.0
 11
3350.0
 21
5010.0
  0
TEXT
  8
SPEC
  6
CONTINUOUS
 62
     7
 10
1712.5
 20
4597.5
 40
50.0
  1
マイク入力 : 2kΩバランス
  7
TTF_DEFAULT
  0
TEXT
  8
SPEC
  6
CONTINUOUS
 62
     7
 10
1712.5
 20
3492.5
 40
50.0
  1
出力 : +4dBu
  7
TTF_DEFAULT
  0
TEXT
  8
SPEC
  6
CONTINUOUS
 62
     7
 10
1712.5
 20
4130.0
 40
50.0
  1
ライン最大入力レベル : +30dBu
  7
TTF_DEFAULT
  0
TEXT
  8
SPEC
  6
CONTINUOUS
 62
     7
 10
1712.5
 20
4185.0
 40
50.0
  1
マイク最大入力レベル : +28dBu
  7
TTF_DEFAULT
  0
TEXT
  8
SPEC
  6
CONTINUOUS
 62
     7
 10
1712.5
 20
4267.5
 40
50.0
  1
出力 :75Ωバランス以下
  7
TTF_DEFAULT
  0
TEXT
  8
SPEC
  6
CONTINUOUS
 62
     7
 10
1712.5
 20
3800.0
 40
50.0
  1
ヘッドホーン出力 : 150mW (1kΩ)
  7
TTF_DEFAULT
  0
TEXT
  8
SPEC
  6
CONTINUOUS
 62
     7
 10
1712.5
 20
3855.0
 40
50.0
  1
出力（バランス） : +26dBu (1kΩ)
  7
TTF_DEFAULT
  0
TEXT
  8
SPEC
  6
CONTINUOUS
 62
     7
 10
1712.5
 20
3712.5
 40
50.0
  1
マイク入力 (XLRコネクタ ) : -2dBu～-70dBu , +10dBu～-20dBu
  7
TTF_DEFAULT
  0
TEXT
  8
SPEC
  6
CONTINUOUS
 62
     7
 10
1712.5
 20
3602.5
 40
50.0
  1
インプット・インサートセンド／ リタ ーン : +4dBu
  7
TTF_DEFAULT
  0
TEXT
  8
SPEC
  6
CONTINUOUS
 62
     7
 10
1712.5
 20
3547.5
 40
50.0
  1
アウトプット・インサートセンド／ リタ ーン : +4dBu
  7
TTF_DEFAULT
  0
TEXT
  8
SPEC
  6
CONTINUOUS
 62
     7
 10
1712.5
 20
3657.5
 40
50.0
  1
ライン入力 (フォーンジャック) : +10dBu～-20dBu
  7
TTF_DEFAULT
  0
TEXT
  8
SPEC
  6
CONTINUOUS
 62
     7
 10
1712.5
 20
4020.0
 40
50.0
  1
インプット・インサートリタ ーン : +26dBu
  7
TTF_DEFAULT
  0
TEXT
  8
SPEC
  6
CONTINUOUS
 62
     7
 10
1712.5
 20
3910.0
 40
50.0
  1
アウトプット・インサートリタ ーン : +26dBu
  7
TTF_DEFAULT
  0
TEXT
  8
SPEC
  6
CONTINUOUS
 62
     7
 10
1712.5
 20
3965.0
 40
50.0
  1
アウトプット・インサートセンド : +26dBu (1kΩ)
  7
TTF_DEFAULT
  0
TEXT
  8
SPEC
  6
CONTINUOUS
 62
     7
 10
1712.5
 20
4075.0
 40
50.0
  1
インプット・インサートセンド : +26dBu (1kΩ)
  7
TTF_DEFAULT
  0
TEXT
  8
SPEC
  6
CONTINUOUS
 62
     7
 10
1712.5
 20
4322.5
 40
50.0
  1
アウトプット・インサートリタ ーン :10kΩバランス以上
  7
TTF_DEFAULT
  0
TEXT
  8
SPEC
  6
CONTINUOUS
 62
     7
 10
1712.5
 20
4377.5
 40
50.0
  1
アウトプット・インサートセンド : 75Ωバランス以下
  7
TTF_DEFAULT
  0
TEXT
  8
SPEC
  6
CONTINUOUS
 62
     7
 10
1712.5
 20
4432.5
 40
50.0
  1
インプット・インサートリタ ーン :10kΩバランス以上
  7
TTF_DEFAULT
  0
TEXT
  8
SPEC
  6
CONTINUOUS
 62
     7
 10
1712.5
 20
4487.5
 40
50.0
  1
インプット・インサートセンド : 75Ωバランス以下
  7
TTF_DEFAULT
  0
TEXT
  8
SPEC
  6
CONTINUOUS
 62
     7
 10
1712.5
 20
4542.5
 40
50.0
  1
ハイ・インピーダンス・ライン入力 : 10kΩバランス以上
  7
TTF_DEFAULT
  0
LINE
  8
SPEC
  6
CONTINUOUS
 62
     7
 10
350.0
 20
3280.0
 11
3350.0
 21
3280.0
  0
LINE
  8
SPEC
  6
CONTINUOUS
 62
     7
 10
350.0
 20
3475.0
 11
3350.0
 21
3475.0
  0
LINE
  8
SPEC
  6
CONTINUOUS
 62
     7
 10
350.0
 20
3775.0
 11
3350.0
 21
3775.0
  0
LINE
  8
SPEC
  6
CONTINUOUS
 62
     7
 10
350.0
 20
4247.5
 11
3350.0
 21
4247.5
  0
LINE
  8
SPEC
  6
CONTINUOUS
 62
     7
 10
350.0
 20
4660.0
 11
3350.0
 21
4660.0
  0
LINE
  8
DATA
  6
CONTINUOUS
 62
     7
 10
545.0
 20
2368.0
 11
2329.0
 21
2368.0
  0
LINE
  8
DATA
  6
CONTINUOUS
 62
     7
 10
700.5
 20
2300.0
 11
2173.5
 21
2300.0
  0
LINE
  8
DATA
  6
CONTINUOUS
 62
     7
 10
545.0
 20
2991.240175
 11
2329.0
 21
2991.240175
  0
LINE
  8
DATA
  6
CONTINUOUS
 62
     7
 10
500.0
 20
3022.882393
 11
2374.0
 21
3022.882393
  0
LINE
  8
DATA
  6
CONTINUOUS
 62
     7
 10
500.0
 20
1975.51686
 11
2374.0
 21
1975.51686
  0
LINE
  8
DATA
  6
CONTINUOUS
 62
     7
 10
584.2
 20
1950.0
 11
2289.8
 21
1950.0
  0
LINE
  8
DATA
  6
CONTINUOUS
 62
     7
 10
500.0
 20
2227.875996
 11
2374.0
 21
2227.875996
  0
LINE
  8
DATA
  6
CONTINUOUS
 62
     7
 10
548.0
 20
2075.73
 11
2326.0
 21
2075.73
  0
LINE
  8
DATA
  6
CONTINUOUS
 62
     7
 10
548.0
 20
2034.465596
 11
2326.0
 21
2034.465596
  0
LINE
  8
DIMENSIONS
  6
CONTINUOUS
 62
     7
 10
500.0
 20
3100.0
 11
2374.0
 21
3100.0
  0
TEXT
  8
SPEC
  6
CONTINUOUS
 62
     7
 10
1712.5
 20
3412.5
 40
50.0
  1
32ch : 1366(W)×252.5(H)×722.9(D)mm / 約62kg
  7
TTF_DEFAULT
  0
TEXT
  8
SPEC
  6
CONTINUOUS
 62
     7
 10
1712.5
 20
3357.5
 40
50.0
  1
40ch : 1620(W)×277.9(H)×722.9(D)mm / 約72kg
  7
TTF_DEFAULT
  0
TEXT
  8
SPEC
  6
CONTINUOUS
 62
     7
 10
1712.5
 20
3302.5
 40
50.0
  1
48ch : 1874(W)×277.9(H)×722.9(D)mm / 約85kg
  7
TTF_DEFAULT
  0
LINE
  8
DIMENSIONS
  6
CONTINUOUS
 62
     7
 10
400.0
 20
3022.882393
 11
400.0
 21
2300.0
  0
LINE
  8
DATA
  6
CONTINUOUS
 62
     7
 10
579.75
 20
2368.0
 11
579.75
 21
2991.240175
  0
LINE
  8
DATA
  6
CONTINUOUS
 62
     7
 10
611.5
 20
2368.0
 11
611.5
 21
2991.240175
  0
LINE
  8
DATA
  6
CONTINUOUS
 62
     7
 10
643.25
 20
2368.0
 11
643.25
 21
2991.240175
  0
LINE
  8
DATA
  6
CONTINUOUS
 62
     7
 10
675.0
 20
2368.0
 11
675.0
 21
2991.240175
  0
LINE
  8
DATA
  6
CONTINUOUS
 62
     7
 10
706.75
 20
2368.0
 11
706.75
 21
2991.240175
  0
LINE
  8
DATA
  6
CONTINUOUS
 62
     7
 10
500.0
 20
3022.882393
 11
500.0
 21
2620.66449
  0
LINE
  8
DATA
  6
CONTINUOUS
 62
     7
 10
545.0
 20
2368.0
 11
545.0
 21
3022.882393
  0
LINE
  8
DATA
  6
CONTINUOUS
 62
     7
 10
738.5
 20
2368.0
 11
738.5
 21
2991.240175
  0
LINE
  8
DATA
  6
CONTINUOUS
 62
     7
 10
770.25
 20
2368.0
 11
770.25
 21
2991.240175
  0
LINE
  8
DATA
  6
CONTINUOUS
 62
     7
 10
802.0
 20
2368.0
 11
802.0
 21
2991.240175
  0
LINE
  8
DATA
  6
CONTINUOUS
 62
     7
 10
833.75
 20
2368.0
 11
833.75
 21
2991.240175
  0
LINE
  8
DATA
  6
CONTINUOUS
 62
     7
 10
865.5
 20
2368.0
 11
865.5
 21
2991.240175
  0
LINE
  8
DATA
  6
CONTINUOUS
 62
     7
 10
897.25
 20
2368.0
 11
897.25
 21
2991.240175
  0
LINE
  8
DATA
  6
CONTINUOUS
 62
     7
 10
929.0
 20
2368.0
 11
929.0
 21
2991.240175
  0
LINE
  8
DATA
  6
CONTINUOUS
 62
     7
 10
960.75
 20
2368.0
 11
960.75
 21
2991.240175
  0
LINE
  8
DATA
  6
CONTINUOUS
 62
     7
 10
992.5
 20
2368.0
 11
992.5
 21
2991.240175
  0
LINE
  8
DATA
  6
CONTINUOUS
 62
     7
 10
1024.25
 20
2368.0
 11
1024.25
 21
2991.240175
  0
LINE
  8
DATA
  6
CONTINUOUS
 62
     7
 10
1056.0
 20
2368.0
 11
1056.0
 21
2991.240175
  0
LINE
  8
DATA
  6
CONTINUOUS
 62
     7
 10
1087.75
 20
2368.0
 11
1087.75
 21
2991.240175
  0
LINE
  8
DATA
  6
CONTINUOUS
 62
     7
 10
1119.5
 20
2368.0
 11
1119.5
 21
2991.240175
  0
LINE
  8
DATA
  6
CONTINUOUS
 62
     7
 10
1151.25
 20
2368.0
 11
1151.25
 21
2991.240175
  0
LINE
  8
DATA
  6
CONTINUOUS
 62
     7
 10
1183.0
 20
2368.0
 11
1183.0
 21
2991.240175
  0
LINE
  8
DATA
  6
CONTINUOUS
 62
     7
 10
1214.75
 20
2368.0
 11
1214.75
 21
2991.240175
  0
LINE
  8
DATA
  6
CONTINUOUS
 62
     7
 10
1246.5
 20
2368.0
 11
1246.5
 21
2991.240175
  0
LINE
  8
DATA
  6
CONTINUOUS
 62
     7
 10
1278.25
 20
2368.0
 11
1278.25
 21
2991.240175
  0
LINE
  8
DATA
  6
CONTINUOUS
 62
     7
 10
1310.0
 20
2368.0
 11
1310.0
 21
2991.240175
  0
LINE
  8
DATA
  6
CONTINUOUS
 62
     7
 10
1341.75
 20
2368.0
 11
1341.75
 21
2991.240175
  0
LINE
  8
DATA
  6
CONTINUOUS
 62
     7
 10
1373.5
 20
2368.0
 11
1373.5
 21
2991.240175
  0
LINE
  8
DATA
  6
CONTINUOUS
 62
     7
 10
1405.25
 20
2368.0
 11
1405.25
 21
2991.240175
  0
LINE
  8
DATA
  6
CONTINUOUS
 62
     7
 10
1437.0
 20
2368.0
 11
1437.0
 21
2991.240175
  0
LINE
  8
DATA
  6
CONTINUOUS
 62
     7
 10
1468.75
 20
2368.0
 11
1468.75
 21
2991.240175
  0
LINE
  8
DATA
  6
CONTINUOUS
 62
     7
 10
1532.25
 20
2368.0
 11
1532.25
 21
2991.240175
  0
LINE
  8
DATA
  6
CONTINUOUS
 62
     7
 10
1564.0
 20
2368.0
 11
1564.0
 21
2991.240175
  0
LINE
  8
DATA
  6
CONTINUOUS
 62
     7
 10
1595.75
 20
2368.0
 11
1595.75
 21
2991.240175
  0
LINE
  8
DATA
  6
CONTINUOUS
 62
     7
 10
1627.5
 20
2368.0
 11
1627.5
 21
2991.240175
  0
LINE
  8
DATA
  6
CONTINUOUS
 62
     7
 10
1659.25
 20
2368.0
 11
1659.25
 21
2991.240175
  0
LINE
  8
DATA
  6
CONTINUOUS
 62
     7
 10
1691.0
 20
2368.0
 11
1691.0
 21
2991.240175
  0
LINE
  8
DATA
  6
CONTINUOUS
 62
     7
 10
1722.75
 20
2368.0
 11
1722.75
 21
2991.240175
  0
LINE
  8
DATA
  6
CONTINUOUS
 62
     7
 10
1754.5
 20
2368.0
 11
1754.5
 21
2991.240175
  0
LINE
  8
DATA
  6
CONTINUOUS
 62
     7
 10
1786.25
 20
2368.0
 11
1786.25
 21
2991.240175
  0
LINE
  8
DATA
  6
CONTINUOUS
 62
     7
 10
1818.0
 20
2368.0
 11
1818.0
 21
2991.240175
  0
LINE
  8
DATA
  6
CONTINUOUS
 62
     7
 10
1849.75
 20
2368.0
 11
1849.75
 21
2991.240175
  0
LINE
  8
DATA
  6
CONTINUOUS
 62
     7
 10
1881.5
 20
2368.0
 11
1881.5
 21
2991.240175
  0
LINE
  8
DATA
  6
CONTINUOUS
 62
     7
 10
1913.25
 20
2368.0
 11
1913.25
 21
2991.240175
  0
LINE
  8
DATA
  6
CONTINUOUS
 62
     7
 10
1945.0
 20
2368.0
 11
1945.0
 21
2991.240175
  0
LINE
  8
DATA
  6
CONTINUOUS
 62
     7
 10
520.0
 20
2846.66449
 11
520.0
 21
2397.66449
  0
LINE
  8
DATA
  6
CONTINUOUS
 62
     7
 10
545.0
 20
1491.240175
 11
1821.0
 21
1491.240175
  0
LINE
  8
DATA
  6
CONTINUOUS
 62
     7
 10
500.0
 20
1522.882393
 11
1866.0
 21
1522.882393
  0
LINE
  8
DATA
  6
CONTINUOUS
 62
     7
 10
545.0
 20
868.0
 11
1821.0
 21
868.0
  0
LINE
  8
DATA
  6
CONTINUOUS
 62
     7
 10
700.5
 20
800.0
 11
1665.5
 21
800.0
  0
LINE
  8
DIMENSIONS
  6
CONTINUOUS
 62
     7
 10
500.0
 20
1600.0
 11
1866.0
 21
1600.0
  0
TEXT
  8
HIBINO-BASE
  6
CONTINUOUS
 62
     7
 10
343.68
 20
171.8264
 40
80.0
  1
Hibino Corporation
  7
TTF_DEFAULT
  0
LINE
  8
DIMENSIONS
  6
CONTINUOUS
 62
     7
 10
400.0
 20
1522.882393
 11
400.0
 21
800.0
  0
LINE
  8
DATA
  6
CONTINUOUS
 62
     7
 10
500.0
 20
1522.882393
 11
500.0
 21
1120.66449
  0
LINE
  8
DATA
  6
CONTINUOUS
 62
     7
 10
545.0
 20
868.0
 11
545.0
 21
1522.882393
  0
LINE
  8
DATA
  6
CONTINUOUS
 62
     7
 10
802.0
 20
868.0
 11
802.0
 21
1491.240175
  0
LINE
  8
DATA
  6
CONTINUOUS
 62
     7
 10
770.25
 20
868.0
 11
770.25
 21
1491.240175
  0
LINE
  8
DATA
  6
CONTINUOUS
 62
     7
 10
738.5
 20
868.0
 11
738.5
 21
1491.240175
  0
LINE
  8
DATA
  6
CONTINUOUS
 62
     7
 10
706.75
 20
868.0
 11
706.75
 21
1491.240175
  0
LINE
  8
DATA
  6
CONTINUOUS
 62
     7
 10
675.0
 20
868.0
 11
675.0
 21
1491.240175
  0
LINE
  8
DATA
  6
CONTINUOUS
 62
     7
 10
643.25
 20
868.0
 11
643.25
 21
1491.240175
  0
LINE
  8
DATA
  6
CONTINUOUS
 62
     7
 10
611.5
 20
868.0
 11
611.5
 21
1491.240175
  0
LINE
  8
DATA
  6
CONTINUOUS
 62
     7
 10
579.75
 20
868.0
 11
579.75
 21
1491.240175
  0
LINE
  8
DATA
  6
CONTINUOUS
 62
     7
 10
897.25
 20
868.0
 11
897.25
 21
1491.240175
  0
LINE
  8
DATA
  6
CONTINUOUS
 62
     7
 10
865.5
 20
868.0
 11
865.5
 21
1491.240175
  0
LINE
  8
DATA
  6
CONTINUOUS
 62
     7
 10
833.75
 20
868.0
 11
833.75
 21
1491.240175
  0
ARC
  8
DATA
  6
CONTINUOUS
 62
     7
 10
520.0
 20
1366.66449
 40
20.0
 50
180.0
 51
270.0
  0
LINE
  8
DIMENSIONS
  6
CONTINUOUS
 62
     7
 10
680.5
 20
800.0
 11
375.0
 21
800.0
  0
TEXT
  8
DIMENSIONS
  6
CONTINUOUS
 62
     7
 10
375.0
 20
1101.744549
 40
50.0
  1
722.9
 50
90.0
  7
TTF_DEFAULT
  0
LINE
  8
DATA
  6
CONTINUOUS
 62
     7
 10
520.0
 20
1346.66449
 11
520.0
 21
897.66449
  0
ARC
  8
DATA
  6
CONTINUOUS
 62
     7
 10
6389.184211
 20
1246.059211
 40
5894.320983
 50
183.677451
 51
184.174364
  0
LINE
  8
DATA
  6
CONTINUOUS
 62
     7
 10
545.5
 20
811.451885
 11
545.0
 21
868.0
  0
ARC
  8
DATA
  6
CONTINUOUS
 62
     7
 10
707.108171
 20
1944.12074
 40
1144.139823
 50
260.105224
 51
269.669077
  0
LINE
  8
DIMENSIONS
  6
CONTINUOUS
 62
     7
 10
393.3336
 20
840.0
 11
400.0
 21
800.0
  0
LINE
  8
DIMENSIONS
  6
CONTINUOUS
 62
     7
 10
406.6664
 20
840.0
 11
400.0
 21
800.0
  0
LINE
  8
DATA
  6
CONTINUOUS
 62
     7
 10
505.268023
 20
897.66449
 11
545.0
 21
897.66449
  0
ARC
  8
DATA
  6
CONTINUOUS
 62
     7
 10
4142.70808
 20
1095.155501
 40
3642.797395
 50
179.598778
 51
183.575137
  0
LINE
  8
DATA
  6
CONTINUOUS
 62
     7
 10
520.0
 20
1346.66449
 11
500.0
 21
1346.66449
  0
LINE
  8
DIMENSIONS
  6
CONTINUOUS
 62
     7
 10
680.5
 20
2300.0
 11
375.0
 21
2300.0
  0
TEXT
  8
DIMENSIONS
  6
CONTINUOUS
 62
     7
 10
339.2
 20
1925.0
 40
50.0
  1
84.2
  7
TTF_DEFAULT
  0
LINE
  8
DIMENSIONS
  6
CONTINUOUS
 62
     7
 10
480.0
 20
1522.882393
 11
375.0
 21
1522.882393
  0
TEXT
  8
DIMENSIONS
  6
CONTINUOUS
 62
     7
 10
375.0
 20
2599.082583
 40
50.0
  1
722.9
 50
90.0
  7
TTF_DEFAULT
  0
LINE
  8
DATA
  6
CONTINUOUS
 62
     7
 10
500.0
 20
1975.51686
 11
500.0
 21
2227.875996
  0
LINE
  8
DATA
  6
CONTINUOUS
 62
     7
 10
548.0
 20
1975.51686
 11
548.0
 21
2227.875996
  0
LINE
  8
DATA
  6
CONTINUOUS
 62
     7
 10
584.2
 20
1950.0
 11
584.2
 21
1975.51686
  0
LINE
  8
DATA
  6
CONTINUOUS
 62
     7
 10
609.71686
 20
1950.0
 11
609.71686
 21
1975.51686
  0
LINE
  8
DIMENSIONS
  6
CONTINUOUS
 62
     7
 10
500.0
 20
1900.0
 11
420.0
 21
1900.0
  0
LINE
  8
DIMENSIONS
  6
CONTINUOUS
 62
     7
 10
584.2
 20
1900.0
 11
664.2
 21
1900.0
  0
LINE
  8
DIMENSIONS
  6
CONTINUOUS
 62
     7
 10
500.0
 20
1955.51686
 11
500.0
 21
1875.0
  0
LINE
  8
DIMENSIONS
  6
CONTINUOUS
 62
     7
 10
584.2
 20
1930.0
 11
584.2
 21
1875.0
  0
LINE
  8
DIMENSIONS
  6
CONTINUOUS
 62
     7
 10
460.0
 20
1893.3336
 11
500.0
 21
1900.0
  0
LINE
  8
DIMENSIONS
  6
CONTINUOUS
 62
     7
 10
460.0
 20
1906.6664
 11
500.0
 21
1900.0
  0
LINE
  8
DIMENSIONS
  6
CONTINUOUS
 62
     7
 10
624.2
 20
1893.3336
 11
584.2
 21
1900.0
  0
LINE
  8
DIMENSIONS
  6
CONTINUOUS
 62
     7
 10
624.2
 20
1906.6664
 11
584.2
 21
1900.0
  0
LINE
  8
DATA
  6
CONTINUOUS
 62
     7
 10
527.322183
 20
1422.66449
 11
533.5
 21
1422.66449
  0
LINE
  8
DATA
  6
CONTINUOUS
 62
     7
 10
518.651696
 20
1422.66449
 11
512.5
 21
1422.66449
  0
LINE
  8
DATA
  6
CONTINUOUS
 62
     7
 10
521.04038
 20
1416.9706
 11
524.94976
 21
1416.97257
  0
LINE
  8
DATA
  6
CONTINUOUS
 62
     7
 10
521.05024
 20
1418.16449
 11
521.05024
 21
1416.97257
  0
LINE
  8
DATA
  6
CONTINUOUS
 62
     7
 10
524.94976
 20
1418.16886
 11
524.94976
 21
1416.97257
  0
POLYLINE
  8
DATA
  6
CONTINUOUS
 62
     7
 66
     1
  0
VERTEX
  8
DATA
 10
524.94976
 20
1418.16886
  0
VERTEX
  8
DATA
 10
525.5722
 20
1418.28597
  0
VERTEX
  8
DATA
 10
526.16212
 20
1418.43429
  0
VERTEX
  8
DATA
 10
526.7121
 20
1418.61194
  0
VERTEX
  8
DATA
 10
527.21523
 20
1418.8167
  0
VERTEX
  8
DATA
 10
527.66517
 20
1419.04599
  0
VERTEX
  8
DATA
 10
528.05627
 20
1419.29693
  0
VERTEX
  8
DATA
 10
528.38361
 20
1419.56637
  0
VERTEX
  8
DATA
 10
528.64307
 20
1419.8509
  0
VERTEX
  8
DATA
 10
528.83139
 20
1420.14696
  0
VERTEX
  8
DATA
 10
528.94621
 20
1420.45083
  0
VERTEX
  8
DATA
 10
528.98607
 20
1420.75868
  0
VERTEX
  8
DATA
 10
528.95048
 20
1421.06663
  0
VERTEX
  8
DATA
 10
528.83988
 20
1421.37082
  0
VERTEX
  8
DATA
 10
528.65567
 20
1421.66743
  0
VERTEX
  8
DATA
 10
528.40016
 20
1421.95272
  0
VERTEX
  8
DATA
 10
528.07657
 20
1422.2231
  0
VERTEX
  8
DATA
 10
527.68896
 20
1422.47517
  0
VERTEX
  8
DATA
 10
527.24221
 20
1422.70577
  0
VERTEX
  8
DATA
 10
526.74193
 20
1422.91199
  0
VERTEX
  8
DATA
 10
526.19443
 20
1423.09125
  0
VERTEX
  8
DATA
 10
525.60658
 20
1423.24128
  0
VERTEX
  8
DATA
 10
524.98577
 20
1423.3602
  0
VERTEX
  8
DATA
 10
524.33982
 20
1423.44651
  0
VERTEX
  8
DATA
 10
523.67684
 20
1423.49913
  0
VERTEX
  8
DATA
 10
523.00518
 20
1423.51741
  0
VERTEX
  8
DATA
 10
522.33327
 20
1423.50109
  0
VERTEX
  8
DATA
 10
521.66958
 20
1423.4504
  0
VERTEX
  8
DATA
 10
521.02244
 20
1423.36597
  0
VERTEX
  8
DATA
 10
520.4
 20
1423.24886
  0
VERTEX
  8
DATA
 10
519.81008
 20
1423.10055
  0
VERTEX
  8
DATA
 10
519.26009
 20
1422.9229
  0
VERTEX
  8
DATA
 10
518.75697
 20
1422.71814
  0
VERTEX
  8
DATA
 10
518.30703
 20
1422.48884
  0
VERTEX
  8
DATA
 10
517.91593
 20
1422.2379
  0
VERTEX
  8
DATA
 10
517.58859
 20
1421.96847
  0
VERTEX
  8
DATA
 10
517.32913
 20
1421.68393
  0
VERTEX
  8
DATA
 10
517.14081
 20
1421.38787
  0
VERTEX
  8
DATA
 10
517.02599
 20
1421.08401
  0
VERTEX
  8
DATA
 10
516.98613
 20
1420.77616
  0
VERTEX
  8
DATA
 10
517.02172
 20
1420.46821
  0
VERTEX
  8
DATA
 10
517.13232
 20
1420.16401
  0
VERTEX
  8
DATA
 10
517.31653
 20
1419.86741
  0
VERTEX
  8
DATA
 10
517.57204
 20
1419.58212
  0
VERTEX
  8
DATA
 10
517.89563
 20
1419.31174
  0
VERTEX
  8
DATA
 10
518.28324
 20
1419.05967
  0
VERTEX
  8
DATA
 10
518.72999
 20
1418.82907
  0
VERTEX
  8
DATA
 10
519.23026
 20
1418.62284
  0
VERTEX
  8
DATA
 10
519.77777
 20
1418.44359
  0
VERTEX
  8
DATA
 10
520.36562
 20
1418.29356
  0
VERTEX
  8
DATA
 10
520.98643
 20
1418.17464
  0
VERTEX
  8
DATA
 10
521.05024
 20
1418.16449
  0
SEQEND
  8
DATA
  0
CIRCLE
  8
DATA
  6
CONTINUOUS
 62
     7
 10
523.0
 20
1407.66449
 40
8.0
  0
ARC
  8
DATA
  6
CONTINUOUS
 62
     7
 10
523.0
 20
1407.66449
 40
11.5
 50
108.427812
 51
71.646805
  0
ARC
  8
DATA
  6
CONTINUOUS
 62
     7
 10
523.0
 20
1407.66449
 40
10.0
 50
101.300932
 51
78.699068
  0
ARC
  8
DATA
  6
CONTINUOUS
 62
     7
 10
517.34314
 20
1413.32134
 40
1.0
 50
41.416615
 51
228.583385
  0
ARC
  8
DATA
  6
CONTINUOUS
 62
     7
 10
533.5
 20
1420.66449
 40
2.0
 50
0.0
 51
90.0
  0
ARC
  8
DATA
  6
CONTINUOUS
 62
     7
 10
512.5
 20
1420.66449
 40
2.0
 50
90.0
 51
180.0
  0
LINE
  8
DATA
  6
CONTINUOUS
 62
     7
 10
514.0
 20
1417.91449
 11
514.0
 21
1420.41449
  0
LINE
  8
DATA
  6
CONTINUOUS
 62
     7
 10
512.75
 20
1419.16449
 11
515.25
 21
1419.16449
  0
CIRCLE
  8
DATA
  6
CONTINUOUS
 62
     7
 10
514.0
 20
1419.16449
 40
2.0
  0
ARC
  8
DATA
  6
CONTINUOUS
 62
     7
 10
533.5
 20
1394.66449
 40
2.0
 50
270.0
 51
0.0
  0
LINE
  8
DATA
  6
CONTINUOUS
 62
     7
 10
533.5
 20
1392.66449
 11
512.5
 21
1392.66449
  0
ARC
  8
DATA
  6
CONTINUOUS
 62
     7
 10
512.5
 20
1394.66449
 40
2.0
 50
180.0
 51
270.0
  0
LINE
  8
DATA
  6
CONTINUOUS
 62
     7
 10
532.0
 20
1394.91449
 11
532.0
 21
1397.41449
  0
LINE
  8
DATA
  6
CONTINUOUS
 62
     7
 10
530.75
 20
1396.16449
 11
533.25
 21
1396.16449
  0
CIRCLE
  8
DATA
  6
CONTINUOUS
 62
     7
 10
532.0
 20
1396.16449
 40
2.0
  0
CIRCLE
  8
DATA
  6
CONTINUOUS
 62
     7
 10
527.0
 20
1407.66449
 40
1.0
  0
CIRCLE
  8
DATA
  6
CONTINUOUS
 62
     7
 10
525.828
 20
1404.83649
 40
1.0
  0
CIRCLE
  8
DATA
  6
CONTINUOUS
 62
     7
 10
520.171
 20
1404.83649
 40
1.0
  0
CIRCLE
  8
DATA
  6
CONTINUOUS
 62
     7
 10
519.536
 20
1409.66449
 40
1.0
  0
LINE
  8
DATA
  6
CONTINUOUS
 62
     7
 10
535.5
 20
1420.66449
 11
535.5
 21
1394.66449
  0
LINE
  8
DATA
  6
CONTINUOUS
 62
     7
 10
510.5
 20
1394.66449
 11
510.5
 21
1420.66449
  0
LINE
  8
DIMENSIONS
  6
CONTINUOUS
 62
     7
 10
393.3336
 20
1482.882393
 11
400.0
 21
1522.882393
  0
LINE
  8
DIMENSIONS
  6
CONTINUOUS
 62
     7
 10
406.6664
 20
1482.882393
 11
400.0
 21
1522.882393
  0
LINE
  8
DIMENSIONS
  6
CONTINUOUS
 62
     7
 10
500.0
 20
1542.882393
 11
500.0
 21
1625.0
  0
LINE
  8
DIMENSIONS
  6
CONTINUOUS
 62
     7
 10
540.0
 20
1593.3336
 11
500.0
 21
1600.0
  0
LINE
  8
DIMENSIONS
  6
CONTINUOUS
 62
     7
 10
540.0
 20
1606.6664
 11
500.0
 21
1600.0
  0
ARC
  8
DATA
  6
CONTINUOUS
 62
     7
 10
6389.184211
 20
2746.059211
 40
5894.320983
 50
183.677451
 51
184.174364
  0
LINE
  8
DATA
  6
CONTINUOUS
 62
     7
 10
548.0
 20
2311.098002
 11
545.0
 21
2368.0
  0
ARC
  8
DATA
  6
CONTINUOUS
 62
     7
 10
707.108171
 20
3444.12074
 40
1144.139823
 50
260.105224
 51
269.669077
  0
LINE
  8
DIMENSIONS
  6
CONTINUOUS
 62
     7
 10
393.3336
 20
2340.0
 11
400.0
 21
2300.0
  0
LINE
  8
DIMENSIONS
  6
CONTINUOUS
 62
     7
 10
406.6664
 20
2340.0
 11
400.0
 21
2300.0
  0
ARC
  8
DATA
  6
CONTINUOUS
 62
     7
 10
4142.70808
 20
2595.155501
 40
3642.797395
 50
179.598778
 51
183.575137
  0
LINE
  8
DATA
  6
CONTINUOUS
 62
     7
 10
505.268023
 20
2397.66449
 11
545.0
 21
2397.66449
  0
LINE
  8
DATA
  6
CONTINUOUS
 62
     7
 10
1310.0
 20
868.0
 11
1310.0
 21
1491.240175
  0
LINE
  8
DATA
  6
CONTINUOUS
 62
     7
 10
1278.25
 20
868.0
 11
1278.25
 21
1491.240175
  0
LINE
  8
DATA
  6
CONTINUOUS
 62
     7
 10
1246.5
 20
868.0
 11
1246.5
 21
1491.240175
  0
LINE
  8
DATA
  6
CONTINUOUS
 62
     7
 10
1214.75
 20
868.0
 11
1214.75
 21
1491.240175
  0
LINE
  8
DATA
  6
CONTINUOUS
 62
     7
 10
1183.0
 20
868.0
 11
1183.0
 21
1491.240175
  0
LINE
  8
DATA
  6
CONTINUOUS
 62
     7
 10
1151.25
 20
868.0
 11
1151.25
 21
1491.240175
  0
LINE
  8
DATA
  6
CONTINUOUS
 62
     7
 10
1119.5
 20
868.0
 11
1119.5
 21
1491.240175
  0
LINE
  8
DATA
  6
CONTINUOUS
 62
     7
 10
1087.75
 20
868.0
 11
1087.75
 21
1491.240175
  0
LINE
  8
DATA
  6
CONTINUOUS
 62
     7
 10
1056.0
 20
868.0
 11
1056.0
 21
1491.240175
  0
LINE
  8
DATA
  6
CONTINUOUS
 62
     7
 10
1024.25
 20
868.0
 11
1024.25
 21
1491.240175
  0
LINE
  8
DATA
  6
CONTINUOUS
 62
     7
 10
992.5
 20
868.0
 11
992.5
 21
1491.240175
  0
LINE
  8
DATA
  6
CONTINUOUS
 62
     7
 10
960.75
 20
868.0
 11
960.75
 21
1491.240175
  0
LINE
  8
DATA
  6
CONTINUOUS
 62
     7
 10
929.0
 20
868.0
 11
929.0
 21
1491.240175
  0
LINE
  8
DATA
  6
CONTINUOUS
 62
     7
 10
1341.75
 20
868.0
 11
1341.75
 21
1491.240175
  0
LINE
  8
DATA
  6
CONTINUOUS
 62
     7
 10
1468.75
 20
868.0
 11
1468.75
 21
1491.240175
  0
LINE
  8
DATA
  6
CONTINUOUS
 62
     7
 10
1437.0
 20
868.0
 11
1437.0
 21
1491.240175
  0
LINE
  8
DATA
  6
CONTINUOUS
 62
     7
 10
1405.25
 20
868.0
 11
1405.25
 21
1491.240175
  0
LINE
  8
DATA
  6
CONTINUOUS
 62
     7
 10
1373.5
 20
868.0
 11
1373.5
 21
1491.240175
  0
LINE
  8
DATA
  6
CONTINUOUS
 62
     7
 10
1866.0
 20
1120.66449
 11
1866.0
 21
1522.882393
  0
LINE
  8
DATA
  6
CONTINUOUS
 62
     7
 10
1821.0
 20
868.0
 11
1821.0
 21
1522.882393
  0
LINE
  8
DATA
  6
CONTINUOUS
 62
     7
 10
1786.25
 20
868.0
 11
1786.25
 21
1491.240175
  0
LINE
  8
DATA
  6
CONTINUOUS
 62
     7
 10
1754.5
 20
868.0
 11
1754.5
 21
1491.240175
  0
LINE
  8
DATA
  6
CONTINUOUS
 62
     7
 10
1722.75
 20
868.0
 11
1722.75
 21
1491.240175
  0
LINE
  8
DATA
  6
CONTINUOUS
 62
     7
 10
1691.0
 20
868.0
 11
1691.0
 21
1491.240175
  0
LINE
  8
DATA
  6
CONTINUOUS
 62
     7
 10
1659.25
 20
868.0
 11
1659.25
 21
1491.240175
  0
LINE
  8
DATA
  6
CONTINUOUS
 62
     7
 10
1627.5
 20
868.0
 11
1627.5
 21
1491.240175
  0
LINE
  8
DATA
  6
CONTINUOUS
 62
     7
 10
1595.75
 20
868.0
 11
1595.75
 21
1491.240175
  0
LINE
  8
DATA
  6
CONTINUOUS
 62
     7
 10
1564.0
 20
868.0
 11
1564.0
 21
1491.240175
  0
LINE
  8
DATA
  6
CONTINUOUS
 62
     7
 10
1532.25
 20
868.0
 11
1532.25
 21
1491.240175
  0
ARC
  8
DATA
  6
CONTINUOUS
 62
     7
 10
1846.0
 20
1366.66449
 40
20.0
 50
270.0
 51
0.0
  0
LINE
  8
DATA
  6
CONTINUOUS
 62
     7
 10
1846.0
 20
1346.66449
 11
1846.0
 21
897.66449
  0
LINE
  8
DATA
  6
CONTINUOUS
 62
     7
 10
1820.5
 20
811.451885
 11
1821.0
 21
868.0
  0
ARC
  8
DATA
  6
CONTINUOUS
 62
     7
 10
-4023.184211
 20
1246.059211
 40
5894.320983
 50
355.825636
 51
356.322549
  0
ARC
  8
DATA
  6
CONTINUOUS
 62
     7
 10
1658.891829
 20
1944.12074
 40
1144.139823
 50
270.330923
 51
279.894776
  0
LINE
  8
DATA
  6
CONTINUOUS
 62
     7
 10
1860.731977
 20
897.66449
 11
1821.0
 21
897.66449
  0
ARC
  8
DATA
  6
CONTINUOUS
 62
     7
 10
-1776.70808
 20
1095.155501
 40
3642.797395
 50
356.424863
 51
0.401222
  0
LINE
  8
DATA
  6
CONTINUOUS
 62
     7
 10
1846.0
 20
1346.66449
 11
1866.0
 21
1346.66449
  0
TEXT
  8
DIMENSIONS
  6
CONTINUOUS
 62
     7
 10
1064.396651
 20
1625.0
 40
50.0
  1
1366(32ch)
  7
TTF_DEFAULT
  0
LINE
  8
DATA
  6
CONTINUOUS
 62
     7
 10
1830.5
 20
1394.66449
 11
1830.5
 21
1420.66449
  0
LINE
  8
DATA
  6
CONTINUOUS
 62
     7
 10
1855.5
 20
1420.66449
 11
1855.5
 21
1394.66449
  0
CIRCLE
  8
DATA
  6
CONTINUOUS
 62
     7
 10
1839.536
 20
1409.66449
 40
1.0
  0
CIRCLE
  8
DATA
  6
CONTINUOUS
 62
     7
 10
1840.171
 20
1404.83649
 40
1.0
  0
CIRCLE
  8
DATA
  6
CONTINUOUS
 62
     7
 10
1845.828
 20
1404.83649
 40
1.0
  0
CIRCLE
  8
DATA
  6
CONTINUOUS
 62
     7
 10
1847.0
 20
1407.66449
 40
1.0
  0
CIRCLE
  8
DATA
  6
CONTINUOUS
 62
     7
 10
1852.0
 20
1396.16449
 40
2.0
  0
LINE
  8
DATA
  6
CONTINUOUS
 62
     7
 10
1850.75
 20
1396.16449
 11
1853.25
 21
1396.16449
  0
LINE
  8
DATA
  6
CONTINUOUS
 62
     7
 10
1852.0
 20
1394.91449
 11
1852.0
 21
1397.41449
  0
ARC
  8
DATA
  6
CONTINUOUS
 62
     7
 10
1832.5
 20
1394.66449
 40
2.0
 50
180.0
 51
270.0
  0
LINE
  8
DATA
  6
CONTINUOUS
 62
     7
 10
1853.5
 20
1392.66449
 11
1832.5
 21
1392.66449
  0
ARC
  8
DATA
  6
CONTINUOUS
 62
     7
 10
1853.5
 20
1394.66449
 40
2.0
 50
270.0
 51
0.0
  0
CIRCLE
  8
DATA
  6
CONTINUOUS
 62
     7
 10
1834.0
 20
1419.16449
 40
2.0
  0
LINE
  8
DATA
  6
CONTINUOUS
 62
     7
 10
1832.75
 20
1419.16449
 11
1835.25
 21
1419.16449
  0
LINE
  8
DATA
  6
CONTINUOUS
 62
     7
 10
1834.0
 20
1417.91449
 11
1834.0
 21
1420.41449
  0
ARC
  8
DATA
  6
CONTINUOUS
 62
     7
 10
1832.5
 20
1420.66449
 40
2.0
 50
90.0
 51
180.0
  0
ARC
  8
DATA
  6
CONTINUOUS
 62
     7
 10
1853.5
 20
1420.66449
 40
2.0
 50
0.0
 51
90.0
  0
ARC
  8
DATA
  6
CONTINUOUS
 62
     7
 10
1837.34314
 20
1413.32134
 40
1.0
 50
41.416615
 51
228.583385
  0
ARC
  8
DATA
  6
CONTINUOUS
 62
     7
 10
1843.0
 20
1407.66449
 40
10.0
 50
101.300932
 51
78.699068
  0
ARC
  8
DATA
  6
CONTINUOUS
 62
     7
 10
1843.0
 20
1407.66449
 40
11.5
 50
108.427812
 51
71.646805
  0
CIRCLE
  8
DATA
  6
CONTINUOUS
 62
     7
 10
1843.0
 20
1407.66449
 40
8.0
  0
POLYLINE
  8
DATA
  6
CONTINUOUS
 62
     7
 66
     1
  0
VERTEX
  8
DATA
 10
1844.94976
 20
1418.16886
  0
VERTEX
  8
DATA
 10
1845.5722
 20
1418.28597
  0
VERTEX
  8
DATA
 10
1846.16212
 20
1418.43429
  0
VERTEX
  8
DATA
 10
1846.7121
 20
1418.61194
  0
VERTEX
  8
DATA
 10
1847.21523
 20
1418.8167
  0
VERTEX
  8
DATA
 10
1847.66517
 20
1419.04599
  0
VERTEX
  8
DATA
 10
1848.05627
 20
1419.29693
  0
VERTEX
  8
DATA
 10
1848.38361
 20
1419.56637
  0
VERTEX
  8
DATA
 10
1848.64307
 20
1419.8509
  0
VERTEX
  8
DATA
 10
1848.83139
 20
1420.14696
  0
VERTEX
  8
DATA
 10
1848.94621
 20
1420.45083
  0
VERTEX
  8
DATA
 10
1848.98607
 20
1420.75868
  0
VERTEX
  8
DATA
 10
1848.95048
 20
1421.06663
  0
VERTEX
  8
DATA
 10
1848.83988
 20
1421.37082
  0
VERTEX
  8
DATA
 10
1848.65567
 20
1421.66743
  0
VERTEX
  8
DATA
 10
1848.40016
 20
1421.95272
  0
VERTEX
  8
DATA
 10
1848.07657
 20
1422.2231
  0
VERTEX
  8
DATA
 10
1847.68896
 20
1422.47517
  0
VERTEX
  8
DATA
 10
1847.24221
 20
1422.70577
  0
VERTEX
  8
DATA
 10
1846.74193
 20
1422.91199
  0
VERTEX
  8
DATA
 10
1846.19443
 20
1423.09125
  0
VERTEX
  8
DATA
 10
1845.60658
 20
1423.24128
  0
VERTEX
  8
DATA
 10
1844.98577
 20
1423.3602
  0
VERTEX
  8
DATA
 10
1844.33982
 20
1423.44651
  0
VERTEX
  8
DATA
 10
1843.67684
 20
1423.49913
  0
VERTEX
  8
DATA
 10
1843.00518
 20
1423.51741
  0
VERTEX
  8
DATA
 10
1842.33327
 20
1423.50109
  0
VERTEX
  8
DATA
 10
1841.66958
 20
1423.4504
  0
VERTEX
  8
DATA
 10
1841.02244
 20
1423.36597
  0
VERTEX
  8
DATA
 10
1840.4
 20
1423.24886
  0
VERTEX
  8
DATA
 10
1839.81008
 20
1423.10055
  0
VERTEX
  8
DATA
 10
1839.26009
 20
1422.9229
  0
VERTEX
  8
DATA
 10
1838.75697
 20
1422.71814
  0
VERTEX
  8
DATA
 10
1838.30703
 20
1422.48884
  0
VERTEX
  8
DATA
 10
1837.91593
 20
1422.2379
  0
VERTEX
  8
DATA
 10
1837.58859
 20
1421.96847
  0
VERTEX
  8
DATA
 10
1837.32913
 20
1421.68393
  0
VERTEX
  8
DATA
 10
1837.14081
 20
1421.38787
  0
VERTEX
  8
DATA
 10
1837.02599
 20
1421.08401
  0
VERTEX
  8
DATA
 10
1836.98613
 20
1420.77616
  0
VERTEX
  8
DATA
 10
1837.02172
 20
1420.46821
  0
VERTEX
  8
DATA
 10
1837.13232
 20
1420.16401
  0
VERTEX
  8
DATA
 10
1837.31653
 20
1419.86741
  0
VERTEX
  8
DATA
 10
1837.57204
 20
1419.58212
  0
VERTEX
  8
DATA
 10
1837.89563
 20
1419.31174
  0
VERTEX
  8
DATA
 10
1838.28324
 20
1419.05967
  0
VERTEX
  8
DATA
 10
1838.72999
 20
1418.82907
  0
VERTEX
  8
DATA
 10
1839.23026
 20
1418.62284
  0
VERTEX
  8
DATA
 10
1839.77777
 20
1418.44359
  0
VERTEX
  8
DATA
 10
1840.36562
 20
1418.29356
  0
VERTEX
  8
DATA
 10
1840.98643
 20
1418.17464
  0
VERTEX
  8
DATA
 10
1841.05024
 20
1418.16449
  0
SEQEND
  8
DATA
  0
LINE
  8
DATA
  6
CONTINUOUS
 62
     7
 10
1844.94976
 20
1418.16886
 11
1844.94976
 21
1416.97257
  0
LINE
  8
DATA
  6
CONTINUOUS
 62
     7
 10
1841.05024
 20
1418.16449
 11
1841.05024
 21
1416.97257
  0
LINE
  8
DATA
  6
CONTINUOUS
 62
     7
 10
1841.04038
 20
1416.9706
 11
1844.94976
 21
1416.97257
  0
LINE
  8
DATA
  6
CONTINUOUS
 62
     7
 10
1838.651696
 20
1422.66449
 11
1832.5
 21
1422.66449
  0
LINE
  8
DATA
  6
CONTINUOUS
 62
     7
 10
1847.322183
 20
1422.66449
 11
1853.5
 21
1422.66449
  0
LINE
  8
DIMENSIONS
  6
CONTINUOUS
 62
     7
 10
1866.0
 20
1542.882393
 11
1866.0
 21
1625.0
  0
LINE
  8
DIMENSIONS
  6
CONTINUOUS
 62
     7
 10
1826.0
 20
1593.3336
 11
1866.0
 21
1600.0
  0
LINE
  8
DIMENSIONS
  6
CONTINUOUS
 62
     7
 10
1826.0
 20
1606.6664
 11
1866.0
 21
1600.0
  0
TEXT
  8
SPEC
  6
CONTINUOUS
 62
     7
 10
362.5
 20
5162.5
 40
50.0
  1
全高調波歪率 (+20dBu出力時)
  7
TTF_DEFAULT
  0
TEXT
  8
SPEC
  6
CONTINUOUS
 62
     7
 10
362.5
 20
5022.5
 40
50.0
  1
入力換算ノイズ (22Hz～22kHz , バンドウィズ , 無負荷)
  7
TTF_DEFAULT
  0
LINE
  8
SPEC
  6
CONTINUOUS
 62
     7
 10
350.0
 20
5300.0
 11
350.0
 21
3280.0
  0
TEXT
  8
SPEC
  6
CONTINUOUS
 62
     7
 10
362.5
 20
3412.5
 40
50.0
  1
寸法／ 重量
  7
TTF_DEFAULT
  0
TEXT
  8
SPEC
  6
CONTINUOUS
 62
     7
 10
362.5
 20
3712.5
 40
50.0
  1
入力及び出力レベル
  7
TTF_DEFAULT
  0
TEXT
  8
SPEC
  6
CONTINUOUS
 62
     7
 10
362.5
 20
4185.0
 40
50.0
  1
入出力レベル
  7
TTF_DEFAULT
  0
LINE
  8
DIMENSIONS
  6
CONTINUOUS
 62
     7
 10
480.0
 20
3022.882393
 11
375.0
 21
3022.882393
  0
TEXT
  8
SPEC
  6
CONTINUOUS
 62
     7
 10
362.5
 20
3357.5
 40
50.0
  1
(電源部を除く)
  7
TTF_DEFAULT
  0
ARC
  8
DATA
  6
CONTINUOUS
 62
     7
 10
520.0
 20
2866.66449
 40
20.0
 50
180.0
 51
270.0
  0
LINE
  8
DATA
  6
CONTINUOUS
 62
     7
 10
520.0
 20
2846.66449
 11
500.0
 21
2846.66449
  0
LINE
  8
DATA
  6
CONTINUOUS
 62
     7
 10
510.5
 20
2894.66449
 11
510.5
 21
2920.66449
  0
LINE
  8
DATA
  6
CONTINUOUS
 62
     7
 10
535.5
 20
2920.66449
 11
535.5
 21
2894.66449
  0
CIRCLE
  8
DATA
  6
CONTINUOUS
 62
     7
 10
519.536
 20
2909.66449
 40
1.0
  0
CIRCLE
  8
DATA
  6
CONTINUOUS
 62
     7
 10
520.171
 20
2904.83649
 40
1.0
  0
CIRCLE
  8
DATA
  6
CONTINUOUS
 62
     7
 10
525.828
 20
2904.83649
 40
1.0
  0
CIRCLE
  8
DATA
  6
CONTINUOUS
 62
     7
 10
527.0
 20
2907.66449
 40
1.0
  0
CIRCLE
  8
DATA
  6
CONTINUOUS
 62
     7
 10
532.0
 20
2896.16449
 40
2.0
  0
LINE
  8
DATA
  6
CONTINUOUS
 62
     7
 10
530.75
 20
2896.16449
 11
533.25
 21
2896.16449
  0
LINE
  8
DATA
  6
CONTINUOUS
 62
     7
 10
532.0
 20
2894.91449
 11
532.0
 21
2897.41449
  0
ARC
  8
DATA
  6
CONTINUOUS
 62
     7
 10
512.5
 20
2894.66449
 40
2.0
 50
180.0
 51
270.0
  0
LINE
  8
DATA
  6
CONTINUOUS
 62
     7
 10
533.5
 20
2892.66449
 11
512.5
 21
2892.66449
  0
ARC
  8
DATA
  6
CONTINUOUS
 62
     7
 10
533.5
 20
2894.66449
 40
2.0
 50
270.0
 51
0.0
  0
CIRCLE
  8
DATA
  6
CONTINUOUS
 62
     7
 10
514.0
 20
2919.16449
 40
2.0
  0
LINE
  8
DATA
  6
CONTINUOUS
 62
     7
 10
512.75
 20
2919.16449
 11
515.25
 21
2919.16449
  0
LINE
  8
DATA
  6
CONTINUOUS
 62
     7
 10
514.0
 20
2917.91449
 11
514.0
 21
2920.41449
  0
ARC
  8
DATA
  6
CONTINUOUS
 62
     7
 10
512.5
 20
2920.66449
 40
2.0
 50
90.0
 51
180.0
  0
ARC
  8
DATA
  6
CONTINUOUS
 62
     7
 10
533.5
 20
2920.66449
 40
2.0
 50
0.0
 51
90.0
  0
ARC
  8
DATA
  6
CONTINUOUS
 62
     7
 10
517.34314
 20
2913.32134
 40
1.0
 50
41.416615
 51
228.583385
  0
ARC
  8
DATA
  6
CONTINUOUS
 62
     7
 10
523.0
 20
2907.66449
 40
10.0
 50
101.300932
 51
78.699068
  0
ARC
  8
DATA
  6
CONTINUOUS
 62
     7
 10
523.0
 20
2907.66449
 40
11.5
 50
108.427812
 51
71.646805
  0
CIRCLE
  8
DATA
  6
CONTINUOUS
 62
     7
 10
523.0
 20
2907.66449
 40
8.0
  0
POLYLINE
  8
DATA
  6
CONTINUOUS
 62
     7
 66
     1
  0
VERTEX
  8
DATA
 10
524.94976
 20
2918.16886
  0
VERTEX
  8
DATA
 10
525.5722
 20
2918.28597
  0
VERTEX
  8
DATA
 10
526.16212
 20
2918.43429
  0
VERTEX
  8
DATA
 10
526.7121
 20
2918.61194
  0
VERTEX
  8
DATA
 10
527.21523
 20
2918.8167
  0
VERTEX
  8
DATA
 10
527.66517
 20
2919.04599
  0
VERTEX
  8
DATA
 10
528.05627
 20
2919.29693
  0
VERTEX
  8
DATA
 10
528.38361
 20
2919.56637
  0
VERTEX
  8
DATA
 10
528.64307
 20
2919.8509
  0
VERTEX
  8
DATA
 10
528.83139
 20
2920.14696
  0
VERTEX
  8
DATA
 10
528.94621
 20
2920.45083
  0
VERTEX
  8
DATA
 10
528.98607
 20
2920.75868
  0
VERTEX
  8
DATA
 10
528.95048
 20
2921.06663
  0
VERTEX
  8
DATA
 10
528.83988
 20
2921.37082
  0
VERTEX
  8
DATA
 10
528.65567
 20
2921.66743
  0
VERTEX
  8
DATA
 10
528.40016
 20
2921.95272
  0
VERTEX
  8
DATA
 10
528.07657
 20
2922.2231
  0
VERTEX
  8
DATA
 10
527.68896
 20
2922.47517
  0
VERTEX
  8
DATA
 10
527.24221
 20
2922.70577
  0
VERTEX
  8
DATA
 10
526.74193
 20
2922.91199
  0
VERTEX
  8
DATA
 10
526.19443
 20
2923.09125
  0
VERTEX
  8
DATA
 10
525.60658
 20
2923.24128
  0
VERTEX
  8
DATA
 10
524.98577
 20
2923.3602
  0
VERTEX
  8
DATA
 10
524.33982
 20
2923.44651
  0
VERTEX
  8
DATA
 10
523.67684
 20
2923.49913
  0
VERTEX
  8
DATA
 10
523.00518
 20
2923.51741
  0
VERTEX
  8
DATA
 10
522.33327
 20
2923.50109
  0
VERTEX
  8
DATA
 10
521.66958
 20
2923.4504
  0
VERTEX
  8
DATA
 10
521.02244
 20
2923.36597
  0
VERTEX
  8
DATA
 10
520.4
 20
2923.24886
  0
VERTEX
  8
DATA
 10
519.81008
 20
2923.10055
  0
VERTEX
  8
DATA
 10
519.26009
 20
2922.9229
  0
VERTEX
  8
DATA
 10
518.75697
 20
2922.71814
  0
VERTEX
  8
DATA
 10
518.30703
 20
2922.48884
  0
VERTEX
  8
DATA
 10
517.91593
 20
2922.2379
  0
VERTEX
  8
DATA
 10
517.58859
 20
2921.96847
  0
VERTEX
  8
DATA
 10
517.32913
 20
2921.68393
  0
VERTEX
  8
DATA
 10
517.14081
 20
2921.38787
  0
VERTEX
  8
DATA
 10
517.02599
 20
2921.08401
  0
VERTEX
  8
DATA
 10
516.98613
 20
2920.77616
  0
VERTEX
  8
DATA
 10
517.02172
 20
2920.46821
  0
VERTEX
  8
DATA
 10
517.13232
 20
2920.16401
  0
VERTEX
  8
DATA
 10
517.31653
 20
2919.86741
  0
VERTEX
  8
DATA
 10
517.57204
 20
2919.58212
  0
VERTEX
  8
DATA
 10
517.89563
 20
2919.31174
  0
VERTEX
  8
DATA
 10
518.28324
 20
2919.05967
  0
VERTEX
  8
DATA
 10
518.72999
 20
2918.82907
  0
VERTEX
  8
DATA
 10
519.23026
 20
2918.62284
  0
VERTEX
  8
DATA
 10
519.77777
 20
2918.44359
  0
VERTEX
  8
DATA
 10
520.36562
 20
2918.29356
  0
VERTEX
  8
DATA
 10
520.98643
 20
2918.17464
  0
VERTEX
  8
DATA
 10
521.05024
 20
2918.16449
  0
SEQEND
  8
DATA
  0
LINE
  8
DATA
  6
CONTINUOUS
 62
     7
 10
524.94976
 20
2918.16886
 11
524.94976
 21
2916.97257
  0
LINE
  8
DATA
  6
CONTINUOUS
 62
     7
 10
521.05024
 20
2918.16449
 11
521.05024
 21
2916.97257
  0
LINE
  8
DATA
  6
CONTINUOUS
 62
     7
 10
521.04038
 20
2916.9706
 11
524.94976
 21
2916.97257
  0
LINE
  8
DATA
  6
CONTINUOUS
 62
     7
 10
518.651696
 20
2922.66449
 11
512.5
 21
2922.66449
  0
LINE
  8
DATA
  6
CONTINUOUS
 62
     7
 10
527.322183
 20
2922.66449
 11
533.5
 21
2922.66449
  0
LINE
  8
DIMENSIONS
  6
CONTINUOUS
 62
     7
 10
500.0
 20
3042.882393
 11
500.0
 21
3125.0
  0
LINE
  8
DIMENSIONS
  6
CONTINUOUS
 62
     7
 10
393.3336
 20
2982.882393
 11
400.0
 21
3022.882393
  0
LINE
  8
DIMENSIONS
  6
CONTINUOUS
 62
     7
 10
406.6664
 20
2982.882393
 11
400.0
 21
3022.882393
  0
LINE
  8
DIMENSIONS
  6
CONTINUOUS
 62
     7
 10
540.0
 20
3093.3336
 11
500.0
 21
3100.0
  0
LINE
  8
DIMENSIONS
  6
CONTINUOUS
 62
     7
 10
540.0
 20
3106.6664
 11
500.0
 21
3100.0
  0
TEXT
  8
SPEC
  6
CONTINUOUS
 62
     7
 10
375.0
 20
5325.0
 40
60.0
  1
仕様
  7
TTF_DEFAULT
  0
TEXT
  8
SPEC
  6
CONTINUOUS
 62
     7
 10
362.5
 20
5237.5
 40
50.0
  1
周波数特性
  7
TTF_DEFAULT
  0
TEXT
  8
SPEC
  6
CONTINUOUS
 62
     7
 10
362.5
 20
4947.5
 40
50.0
  1
クロストーク
  7
TTF_DEFAULT
  0
TEXT
  8
SPEC
  6
CONTINUOUS
 62
     7
 10
362.5
 20
4597.5
 40
50.0
  1
入出力インピーダンス
  7
TTF_DEFAULT
  0
LINE
  8
SPEC
  6
CONTINUOUS
 62
     7
 10
1700.0
 20
5300.0
 11
1700.0
 21
3280.0
  0
TEXT
  8
DIMENSIONS
  6
CONTINUOUS
 62
     7
 10
1324.883656
 20
3125.0
 40
50.0
  1
1874(48ch)
  7
TTF_DEFAULT
  0
TEXT
  8
DIMENSIONS
  6
CONTINUOUS
 62
     7
 10
1324.883656
 20
3175.0
 40
50.0
  1
1620(40ch)
  7
TTF_DEFAULT
  0
LINE
  8
DATA
  6
CONTINUOUS
 62
     7
 10
2750.858439
 20
2991.240175
 11
2900.0
 21
2300.0
  0
LINE
  8
DATA
  6
CONTINUOUS
 62
     7
 10
1976.75
 20
2368.0
 11
1976.75
 21
2991.240175
  0
LINE
  8
DATA
  6
CONTINUOUS
 62
     7
 10
2008.5
 20
2368.0
 11
2008.5
 21
2991.240175
  0
LINE
  8
DATA
  6
CONTINUOUS
 62
     7
 10
2040.25
 20
2368.0
 11
2040.25
 21
2991.240175
  0
LINE
  8
DATA
  6
CONTINUOUS
 62
     7
 10
2072.0
 20
2368.0
 11
2072.0
 21
2991.240175
  0
LINE
  8
DATA
  6
CONTINUOUS
 62
     7
 10
2103.75
 20
2368.0
 11
2103.75
 21
2991.240175
  0
LINE
  8
DATA
  6
CONTINUOUS
 62
     7
 10
2135.5
 20
2368.0
 11
2135.5
 21
2991.240175
  0
LINE
  8
DATA
  6
CONTINUOUS
 62
     7
 10
2167.25
 20
2368.0
 11
2167.25
 21
2991.240175
  0
LINE
  8
DATA
  6
CONTINUOUS
 62
     7
 10
2199.0
 20
2368.0
 11
2199.0
 21
2991.240175
  0
LINE
  8
DATA
  6
CONTINUOUS
 62
     7
 10
2230.75
 20
2368.0
 11
2230.75
 21
2991.240175
  0
LINE
  8
DATA
  6
CONTINUOUS
 62
     7
 10
2262.5
 20
2368.0
 11
2262.5
 21
2991.240175
  0
LINE
  8
DATA
  6
CONTINUOUS
 62
     7
 10
2294.25
 20
2368.0
 11
2294.25
 21
2991.240175
  0
LINE
  8
DATA
  6
CONTINUOUS
 62
     7
 10
2374.0
 20
2620.66449
 11
2374.0
 21
3022.882393
  0
LINE
  8
DATA
  6
CONTINUOUS
 62
     7
 10
2329.0
 20
2368.0
 11
2329.0
 21
3022.882393
  0
LINE
  8
DIMENSIONS
  6
CONTINUOUS
 62
     7
 10
3200.0
 20
3022.882393
 11
3200.0
 21
2300.0
  0
LINE
  8
DATA
  6
CONTINUOUS
 62
     7
 10
3000.33
 20
3022.882393
 11
3000.33
 21
2399.243274
  0
LINE
  8
DATA
  6
CONTINUOUS
 62
     7
 10
3025.73
 20
2988.562833
 11
3025.73
 21
2433.562833
  0
LINE
  8
DIMENSIONS
  6
CONTINUOUS
 62
     7
 10
3100.0
 20
2988.562833
 11
3100.0
 21
2433.562833
  0
LINE
  8
DATA
  6
CONTINUOUS
 62
     7
 10
2354.0
 20
2846.66449
 11
2354.0
 21
2397.66449
  0
LINE
  8
DATA
  6
CONTINUOUS
 62
     7
 10
2799.975366
 20
2846.595914
 11
2891.596914
 21
2402.305276
  0
LINE
  8
DATA
  6
CONTINUOUS
 62
     7
 10
2881.41414
 20
2900.560816
 11
2881.067327
 21
2809.91668
  0
TEXT
  8
HIBINO-BASE
  6
CONTINUOUS
 62
     7
 10
2975.0
 20
350.0
 40
50.0
  1
N.Sasaki
  7
TTF_DEFAULT
  0
LINE
  8
HIBINO-BASE
  6
CONTINUOUS
 62
     7
 10
2000.0
 20
500.0
 11
3800.0
 21
500.0
  0
TEXT
  8
HIBINO-BASE
  6
CONTINUOUS
 62
     7
 10
2960.0
 20
450.0
 40
50.0
  1
DRAWN
  7
TTF_DEFAULT
  0
TEXT
  8
DATA
  6
CONTINUOUS
 62
     7
 10
3000.0
 20
650.0
 40
60.0
  1
Soundcraft
  7
TTF_DEFAULT
  0
TEXT
  8
DATA
  6
CONTINUOUS
 62
     7
 10
3000.0
 20
575.0
 40
60.0
  1
SM12
  7
TTF_DEFAULT
  0
LINE
  8
0
  6
CONTINUOUS
 62
     7
 10
2000.0
 20
752.5
 11
3800.0
 21
752.5
  0
LINE
  8
0
  6
CONTINUOUS
 62
     7
 10
2000.0
 20
747.5
 11
3800.0
 21
747.5
  0
LINE
  8
0
  6
CONTINUOUS
 62
     7
 10
2000.0
 20
752.5
 11
2000.0
 21
747.5
  0
LINE
  8
0
  6
CONTINUOUS
 62
     7
 10
3800.0
 20
752.5
 11
3800.0
 21
747.5
  0
SOLID
  8
HIBINO-BASE
  6
CONTINUOUS
 62
     7
 10
2000.0
 20
752.5
 11
3800.0
 21
752.5
 12
2000.0
 22
747.5
 13
3800.0
 23
747.5
  0
LINE
  8
DIMENSIONS
  6
CONTINUOUS
 62
     7
 10
2920.0
 20
2300.0
 11
3225.0
 21
2300.0
  0
LINE
  8
DATA
  6
CONTINUOUS
 62
     7
 10
3025.73
 20
2433.562833
 11
3000.33
 21
2433.562833
  0
LINE
  8
DATA
  6
CONTINUOUS
 62
     7
 10
2050.858439
 20
1491.240175
 11
2200.0
 21
800.0
  0
LINE
  8
DATA
  6
CONTINUOUS
 62
     7
 10
2300.33
 20
1522.882393
 11
2300.33
 21
899.243274
  0
LINE
  8
DATA
  6
CONTINUOUS
 62
     7
 10
2077.818277
 20
1366.286872
 11
2100.0346
 21
1346.595687
  0
LINE
  8
DATA
  6
CONTINUOUS
 62
     7
 10
2181.41414
 20
1400.560816
 11
2181.067327
 21
1309.91668
  0
LINE
  8
DIMENSIONS
  6
CONTINUOUS
 62
     7
 10
2400.0
 20
1522.882393
 11
2400.0
 21
800.0
  0
TEXT
  8
HIBINO-BASE
  6
CONTINUOUS
 62
     7
 10
2460.0
 20
450.0
 40
50.0
  1
DATE
  7
TTF_DEFAULT
  0
TEXT
  8
HIBINO-BASE
  6
CONTINUOUS
 62
     7
 10
2475.0
 20
350.0
 40
50.0
  1
'99.10.
  7
TTF_DEFAULT
  0
LINE
  8
0
  6
CONTINUOUS
 62
     7
 10
1997.5
 20
300.0
 11
1997.5
 21
750.0
  0
LINE
  8
0
  6
CONTINUOUS
 62
     7
 10
2002.5
 20
300.0
 11
2002.5
 21
750.0
  0
LINE
  8
0
  6
CONTINUOUS
 62
     7
 10
1997.5
 20
300.0
 11
2002.5
 21
300.0
  0
LINE
  8
0
  6
CONTINUOUS
 62
     7
 10
1997.5
 20
750.0
 11
2002.5
 21
750.0
  0
SOLID
  8
HIBINO-BASE
  6
CONTINUOUS
 62
     7
 10
1997.5
 20
300.0
 11
1997.5
 21
750.0
 12
2002.5
 22
300.0
 13
2002.5
 23
750.0
  0
TEXT
  8
HIBINO-BASE
  6
CONTINUOUS
 62
     7
 10
2075.0
 20
325.0
 40
80.0
  1
A4
  7
TTF_DEFAULT
  0
LINE
  8
HIBINO-BASE
  6
CONTINUOUS
 62
     7
 10
2287.5
 20
325.0
 11
2362.5
 21
400.0
  0
TEXT
  8
HIBINO-BASE
  6
CONTINUOUS
 62
     7
 10
2275.0
 20
362.5
 40
60.0
  1
1
  7
TTF_DEFAULT
  0
TEXT
  8
HIBINO-BASE
  6
CONTINUOUS
 62
     7
 10
2350.0
 20
325.0
 40
60.0
  1
20
  7
TTF_DEFAULT
  0
TEXT
  8
HIBINO-BASE
  6
CONTINUOUS
 62
     7
 10
2010.0
 20
450.0
 40
45.0
  1
図面サイズ
  7
TTF_DEFAULT
  0
TEXT
  8
HIBINO-BASE
  6
CONTINUOUS
 62
     7
 10
2260.0
 20
450.0
 40
50.0
  1
SCALE
  7
TTF_DEFAULT
  0
LINE
  8
HIBINO-BASE
  6
CONTINUOUS
 62
     7
 10
2450.0
 20
300.0
 11
2450.0
 21
500.0
  0
LINE
  8
HIBINO-BASE
  6
CONTINUOUS
 62
     7
 10
2250.0
 20
300.0
 11
2250.0
 21
500.0
  0
TEXT
  8
HIBINO-BASE
  6
CONTINUOUS
 62
     7
 10
2010.0
 20
700.0
 40
50.0
  1
NOTE
  7
TTF_DEFAULT
  0
LINE
  8
DATA
  6
CONTINUOUS
 62
     7
 10
2099.975366
 20
1346.595914
 11
2191.596914
 21
902.305276
  0
LINE
  8
DATA
  6
CONTINUOUS
 62
     7
 10
2181.067327
 20
1309.91668
 11
2183.936203
 21
1234.28435
  0
LINE
  8
DATA
  6
CONTINUOUS
 62
     7
 10
2234.194189
 20
887.535921
 11
2189.953686
 21
1156.135955
  0
TEXT
  8
DATA
  6
CONTINUOUS
 62
     7
 10
2284.236
 20
958.550874
 40
59.0
  1
Soundcraft
 50
90.0
  7
TTF_DEFAULT
  0
ARC
  8
DATA
  6
CONTINUOUS
 62
     7
 10
2777.44022
 20
1020.849042
 40
615.62741
 50
191.54257
 51
199.182118
  0
LINE
  8
DATA
  6
CONTINUOUS
 62
     7
 10
2234.194189
 20
887.535921
 11
2241.264404
 21
809.383498
  0
LINE
  8
DATA
  6
CONTINUOUS
 62
     7
 10
2200.0
 20
800.0
 11
2241.264404
 21
809.383498
  0
LINE
  8
DATA
  6
CONTINUOUS
 62
     7
 10
2197.909663
 20
809.688289
 11
2240.497435
 21
817.861345
  0
LINE
  8
DATA
  6
CONTINUOUS
 62
     7
 10
2234.619111
 20
882.838941
 11
2300.33
 21
899.243274
  0
LINE
  8
DATA
  6
CONTINUOUS
 62
     7
 10
2174.26307
 20
897.66449
 11
2191.393963
 21
902.25094
  0
LINE
  8
DATA
  6
CONTINUOUS
 62
     7
 10
2300.33
 20
985.226943
 11
2310.13
 21
989.032633
  0
LINE
  8
DATA
  6
CONTINUOUS
 62
     7
 10
2300.33
 20
1007.838323
 11
2310.13
 21
1004.032633
  0
LINE
  8
DATA
  6
CONTINUOUS
 62
     7
 10
2310.13
 20
989.032633
 11
2310.13
 21
1004.032633
  0
LINE
  8
DATA
  6
CONTINUOUS
 62
     7
 10
2183.936203
 20
1234.28435
 11
2189.953686
 21
1156.135955
  0
LINE
  8
DATA
  6
CONTINUOUS
 62
     7
 10
2183.047469
 20
1264.266103
 11
2299.81314
 21
1264.266103
  0
LINE
  8
DATA
  6
CONTINUOUS
 62
     7
 10
2082.052001
 20
1346.66449
 11
2100.0346
 21
1346.595687
  0
LINE
  8
DIMENSIONS
  6
CONTINUOUS
 62
     7
 10
2220.0
 20
800.0
 11
2425.0
 21
800.0
  0
LINE
  8
DIMENSIONS
  6
CONTINUOUS
 62
     7
 10
2393.3336
 20
840.0
 11
2400.0
 21
800.0
  0
LINE
  8
DIMENSIONS
  6
CONTINUOUS
 62
     7
 10
2406.6664
 20
840.0
 11
2400.0
 21
800.0
  0
TEXT
  8
DIMENSIONS
  6
CONTINUOUS
 62
     7
 10
2375.0
 20
1104.725176
 40
50.0
  1
722.9
 50
90.0
  7
TTF_DEFAULT
  0
LINE
  8
HIBINO-BASE
  6
CONTINUOUS
 62
     7
 10
2700.0
 20
300.0
 11
2700.0
 21
750.0
  0
TEXT
  8
HIBINO-BASE
  6
CONTINUOUS
 62
     7
 10
2710.0
 20
450.0
 40
50.0
  1
DESIGN
  7
TTF_DEFAULT
  0
LINE
  8
HIBINO-BASE
  6
CONTINUOUS
 62
     7
 10
2950.0
 20
500.0
 11
2950.0
 21
300.0
  0
TEXT
  8
HIBINO-BASE
  6
CONTINUOUS
 62
     7
 10
2710.0
 20
700.0
 40
50.0
  1
TITLE
  7
TTF_DEFAULT
  0
TEXT
  8
DIMENSIONS
  6
CONTINUOUS
 62
     7
 10
2479.0
 20
1925.0
 40
50.0
  1
84.2
  7
TTF_DEFAULT
  0
LINE
  8
DATA
  6
CONTINUOUS
 62
     7
 10
2374.0
 20
1975.51686
 11
2374.0
 21
2227.875996
  0
LINE
  8
DATA
  6
CONTINUOUS
 62
     7
 10
2326.0
 20
1975.51686
 11
2326.0
 21
2227.875996
  0
TEXT
  8
DIMENSIONS
  6
CONTINUOUS
 62
     7
 10
2415.13
 20
1575.0
 40
50.0
  1
9.8
  7
TTF_DEFAULT
  0
LINE
  8
DATA
  6
CONTINUOUS
 62
     7
 10
2289.8
 20
1950.0
 11
2289.8
 21
1975.51686
  0
LINE
  8
DATA
  6
CONTINUOUS
 62
     7
 10
2264.28314
 20
1950.0
 11
2264.28314
 21
1975.51686
  0
LINE
  8
DIMENSIONS
  6
CONTINUOUS
 62
     7
 10
2289.8
 20
1900.0
 11
2209.8
 21
1900.0
  0
LINE
  8
DIMENSIONS
  6
CONTINUOUS
 62
     7
 10
2374.0
 20
1900.0
 11
2454.0
 21
1900.0
  0
LINE
  8
DIMENSIONS
  6
CONTINUOUS
 62
     7
 10
2289.8
 20
1930.0
 11
2289.8
 21
1875.0
  0
LINE
  8
DIMENSIONS
  6
CONTINUOUS
 62
     7
 10
2374.0
 20
1955.51686
 11
2374.0
 21
1875.0
  0
LINE
  8
DIMENSIONS
  6
CONTINUOUS
 62
     7
 10
2249.8
 20
1893.3336
 11
2289.8
 21
1900.0
  0
LINE
  8
DIMENSIONS
  6
CONTINUOUS
 62
     7
 10
2249.8
 20
1906.6664
 11
2289.8
 21
1900.0
  0
LINE
  8
DIMENSIONS
  6
CONTINUOUS
 62
     7
 10
2414.0
 20
1893.3336
 11
2374.0
 21
1900.0
  0
LINE
  8
DIMENSIONS
  6
CONTINUOUS
 62
     7
 10
2414.0
 20
1906.6664
 11
2374.0
 21
1900.0
  0
LINE
  8
DATA
  6
CONTINUOUS
 62
     7
 10
2194.449042
 20
1522.882393
 11
2300.33
 21
1522.882393
  0
LINE
  8
DATA
  6
CONTINUOUS
 62
     7
 10
2047.854004
 20
1489.349978
 11
2050.858439
 21
1491.240175
  0
LINE
  8
DATA
  6
CONTINUOUS
 62
     7
 10
2056.410862
 20
1449.690638
 11
2059.927387
 21
1449.207396
  0
LINE
  8
DATA
  6
CONTINUOUS
 62
     7
 10
2047.854004
 20
1489.349978
 11
2056.410862
 21
1449.690638
  0
LINE
  8
DATA
  6
CONTINUOUS
 62
     7
 10
2050.857352
 20
1491.245214
 11
2194.449042
 21
1522.882393
  0
LINE
  8
DATA
  6
CONTINUOUS
 62
     7
 10
2310.13
 20
1418.093033
 11
2310.13
 21
1433.093033
  0
LINE
  8
DATA
  6
CONTINUOUS
 62
     7
 10
2300.33
 20
1414.287343
 11
2310.13
 21
1418.093033
  0
LINE
  8
DATA
  6
CONTINUOUS
 62
     7
 10
2300.33
 20
1436.898723
 11
2310.13
 21
1433.093033
  0
LINE
  8
DIMENSIONS
  6
CONTINUOUS
 62
     7
 10
2320.33
 20
1522.882393
 11
2425.0
 21
1522.882393
  0
LINE
  8
DIMENSIONS
  6
CONTINUOUS
 62
     7
 10
2393.3336
 20
1482.882393
 11
2400.0
 21
1522.882393
  0
LINE
  8
DIMENSIONS
  6
CONTINUOUS
 62
     7
 10
2406.6664
 20
1482.882393
 11
2400.0
 21
1522.882393
  0
LINE
  8
DIMENSIONS
  6
CONTINUOUS
 62
     7
 10
2047.854004
 20
1600.0
 11
2300.33
 21
1600.0
  0
LINE
  8
DIMENSIONS
  6
CONTINUOUS
 62
     7
 10
2047.854004
 20
1509.349978
 11
2047.854004
 21
1625.0
  0
LINE
  8
DIMENSIONS
  6
CONTINUOUS
 62
     7
 10
2300.33
 20
1542.882393
 11
2300.33
 21
1625.0
  0
LINE
  8
DIMENSIONS
  6
CONTINUOUS
 62
     7
 10
2087.854004
 20
1593.3336
 11
2047.854004
 21
1600.0
  0
LINE
  8
DIMENSIONS
  6
CONTINUOUS
 62
     7
 10
2087.854004
 20
1606.6664
 11
2047.854004
 21
1600.0
  0
LINE
  8
DIMENSIONS
  6
CONTINUOUS
 62
     7
 10
2260.33
 20
1593.3336
 11
2300.33
 21
1600.0
  0
LINE
  8
DIMENSIONS
  6
CONTINUOUS
 62
     7
 10
2260.33
 20
1606.6664
 11
2300.33
 21
1600.0
  0
TEXT
  8
DIMENSIONS
  6
CONTINUOUS
 62
     7
 10
2117.375982
 20
1625.0
 40
50.0
  1
252.5
  7
TTF_DEFAULT
  0
LINE
  8
DIMENSIONS
  6
CONTINUOUS
 62
     7
 10
2300.33
 20
1550.0
 11
2220.33
 21
1550.0
  0
LINE
  8
DIMENSIONS
  6
CONTINUOUS
 62
     7
 10
2310.13
 20
1550.0
 11
2390.13
 21
1550.0
  0
LINE
  8
DIMENSIONS
  6
CONTINUOUS
 62
     7
 10
2310.13
 20
1453.093033
 11
2310.13
 21
1575.0
  0
LINE
  8
DIMENSIONS
  6
CONTINUOUS
 62
     7
 10
2260.33
 20
1543.3336
 11
2300.33
 21
1550.0
  0
LINE
  8
DIMENSIONS
  6
CONTINUOUS
 62
     7
 10
2260.33
 20
1556.6664
 11
2300.33
 21
1550.0
  0
LINE
  8
DIMENSIONS
  6
CONTINUOUS
 62
     7
 10
2350.13
 20
1543.3336
 11
2310.13
 21
1550.0
  0
LINE
  8
DIMENSIONS
  6
CONTINUOUS
 62
     7
 10
2350.13
 20
1556.6664
 11
2310.13
 21
1550.0
  0
ARC
  8
DATA
  6
CONTINUOUS
 62
     7
 10
-3515.184211
 20
2746.059211
 40
5894.320983
 50
355.825636
 51
356.322549
  0
LINE
  8
DATA
  6
CONTINUOUS
 62
     7
 10
2326.0
 20
2311.098002
 11
2329.0
 21
2368.0
  0
ARC
  8
DATA
  6
CONTINUOUS
 62
     7
 10
2166.891829
 20
3444.12074
 40
1144.139823
 50
270.330923
 51
279.894776
  0
ARC
  8
DATA
  6
CONTINUOUS
 62
     7
 10
-1268.70808
 20
2595.155501
 40
3642.797395
 50
356.424863
 51
0.401222
  0
LINE
  8
DATA
  6
CONTINUOUS
 62
     7
 10
2368.731977
 20
2397.66449
 11
2329.0
 21
2397.66449
  0
LINE
  8
DATA
  6
CONTINUOUS
 62
     7
 10
2934.194189
 20
2387.535921
 11
2941.264404
 21
2309.383498
  0
ARC
  8
DATA
  6
CONTINUOUS
 62
     7
 10
3477.44022
 20
2520.849042
 40
615.62741
 50
191.54257
 51
199.182118
  0
LINE
  8
DATA
  6
CONTINUOUS
 62
     7
 10
2897.909663
 20
2309.688289
 11
2940.497435
 21
2317.861345
  0
LINE
  8
DATA
  6
CONTINUOUS
 62
     7
 10
2900.0
 20
2300.0
 11
2941.264404
 21
2309.383498
  0
LINE
  8
DATA
  6
CONTINUOUS
 62
     7
 10
2881.067327
 20
2809.91668
 11
2883.936203
 21
2734.28435
  0
LINE
  8
DATA
  6
CONTINUOUS
 62
     7
 10
2883.047469
 20
2764.266103
 11
2999.81314
 21
2764.266103
  0
LINE
  8
DATA
  6
CONTINUOUS
 62
     7
 10
2883.936203
 20
2734.28435
 11
2889.953686
 21
2656.135955
  0
LINE
  8
DATA
  6
CONTINUOUS
 62
     7
 10
2934.194189
 20
2387.535921
 11
2889.953686
 21
2656.135955
  0
LINE
  8
DATA
  6
CONTINUOUS
 62
     7
 10
2934.619111
 20
2382.838941
 11
3000.33
 21
2399.243274
  0
LINE
  8
DATA
  6
CONTINUOUS
 62
     7
 10
2874.26307
 20
2397.66449
 11
2891.393963
 21
2402.25094
  0
TEXT
  8
DATA
  6
CONTINUOUS
 62
     7
 10
2984.236
 20
2458.550874
 40
59.0
  1
Soundcraft
 50
90.0
  7
TTF_DEFAULT
  0
TEXT
  8
HIBINO-BASE
  6
CONTINUOUS
 62
     7
 10
3174.600526
 20
171.8264
 40
80.0
  1
ヒビノ株式会社
  7
TTF_DEFAULT
  0
TEXT
  8
HIBINO-BASE
  6
CONTINUOUS
 62
     7
 10
3460.0
 20
450.0
 40
50.0
  1
DRAWING NO.
  7
TTF_DEFAULT
  0
TEXT
  8
HIBINO-BASE
  6
CONTINUOUS
 62
     7
 10
3210.0
 20
450.0
 40
50.0
  1
CHECK
  7
TTF_DEFAULT
  0
LINE
  8
HIBINO-BASE
  6
CONTINUOUS
 62
     7
 10
3450.0
 20
500.0
 11
3450.0
 21
300.0
  0
LINE
  8
HIBINO-BASE
  6
CONTINUOUS
 62
     7
 10
3200.0
 20
300.0
 11
3200.0
 21
500.0
  0
LINE
  8
DIMENSIONS
  6
CONTINUOUS
 62
     7
 10
3193.3336
 20
2340.0
 11
3200.0
 21
2300.0
  0
LINE
  8
DIMENSIONS
  6
CONTINUOUS
 62
     7
 10
3206.6664
 20
2340.0
 11
3200.0
 21
2300.0
  0
LINE
  8
DIMENSIONS
  6
CONTINUOUS
 62
     7
 10
3045.73
 20
2433.562833
 11
3125.0
 21
2433.562833
  0
LINE
  8
DIMENSIONS
  6
CONTINUOUS
 62
     7
 10
3093.3336
 20
2473.562833
 11
3100.0
 21
2433.562833
  0
LINE
  8
DIMENSIONS
  6
CONTINUOUS
 62
     7
 10
3106.6664
 20
2473.562833
 11
3100.0
 21
2433.562833
  0
TEXT
  8
DIMENSIONS
  6
CONTINUOUS
 62
     7
 10
3075.0
 20
2670.466455
 40
50.0
  1
555
 50
90.0
  7
TTF_DEFAULT
  0
TEXT
  8
DIMENSIONS
  6
CONTINUOUS
 62
     7
 10
3175.0
 20
2599.082583
 40
50.0
  1
722.9
 50
90.0
  7
TTF_DEFAULT
  0
LINE
  8
DATA
  6
CONTINUOUS
 62
     7
 10
3025.73
 20
2988.562833
 11
3000.33
 21
2988.562833
  0
LINE
  8
DIMENSIONS
  6
CONTINUOUS
 62
     7
 10
2747.854004
 20
3150.0
 11
3025.73
 21
3150.0
  0
LINE
  8
DIMENSIONS
  6
CONTINUOUS
 62
     7
 10
2985.73
 20
3143.3336
 11
3025.73
 21
3150.0
  0
LINE
  8
DIMENSIONS
  6
CONTINUOUS
 62
     7
 10
2985.73
 20
3156.6664
 11
3025.73
 21
3150.0
  0
LINE
  8
DATA
  6
CONTINUOUS
 62
     7
 10
2354.0
 20
2846.66449
 11
2374.0
 21
2846.66449
  0
ARC
  8
DATA
  6
CONTINUOUS
 62
     7
 10
2354.0
 20
2866.66449
 40
20.0
 50
270.0
 51
0.0
  0
LINE
  8
DATA
  6
CONTINUOUS
 62
     7
 10
2338.5
 20
2894.66449
 11
2338.5
 21
2920.66449
  0
LINE
  8
DATA
  6
CONTINUOUS
 62
     7
 10
2363.5
 20
2920.66449
 11
2363.5
 21
2894.66449
  0
CIRCLE
  8
DATA
  6
CONTINUOUS
 62
     7
 10
2347.536
 20
2909.66449
 40
1.0
  0
CIRCLE
  8
DATA
  6
CONTINUOUS
 62
     7
 10
2348.171
 20
2904.83649
 40
1.0
  0
CIRCLE
  8
DATA
  6
CONTINUOUS
 62
     7
 10
2353.828
 20
2904.83649
 40
1.0
  0
CIRCLE
  8
DATA
  6
CONTINUOUS
 62
     7
 10
2355.0
 20
2907.66449
 40
1.0
  0
CIRCLE
  8
DATA
  6
CONTINUOUS
 62
     7
 10
2360.0
 20
2896.16449
 40
2.0
  0
LINE
  8
DATA
  6
CONTINUOUS
 62
     7
 10
2358.75
 20
2896.16449
 11
2361.25
 21
2896.16449
  0
LINE
  8
DATA
  6
CONTINUOUS
 62
     7
 10
2360.0
 20
2894.91449
 11
2360.0
 21
2897.41449
  0
ARC
  8
DATA
  6
CONTINUOUS
 62
     7
 10
2340.5
 20
2894.66449
 40
2.0
 50
180.0
 51
270.0
  0
LINE
  8
DATA
  6
CONTINUOUS
 62
     7
 10
2361.5
 20
2892.66449
 11
2340.5
 21
2892.66449
  0
ARC
  8
DATA
  6
CONTINUOUS
 62
     7
 10
2361.5
 20
2894.66449
 40
2.0
 50
270.0
 51
0.0
  0
CIRCLE
  8
DATA
  6
CONTINUOUS
 62
     7
 10
2342.0
 20
2919.16449
 40
2.0
  0
LINE
  8
DATA
  6
CONTINUOUS
 62
     7
 10
2340.75
 20
2919.16449
 11
2343.25
 21
2919.16449
  0
LINE
  8
DATA
  6
CONTINUOUS
 62
     7
 10
2342.0
 20
2917.91449
 11
2342.0
 21
2920.41449
  0
ARC
  8
DATA
  6
CONTINUOUS
 62
     7
 10
2340.5
 20
2920.66449
 40
2.0
 50
90.0
 51
180.0
  0
ARC
  8
DATA
  6
CONTINUOUS
 62
     7
 10
2361.5
 20
2920.66449
 40
2.0
 50
0.0
 51
90.0
  0
ARC
  8
DATA
  6
CONTINUOUS
 62
     7
 10
2345.34314
 20
2913.32134
 40
1.0
 50
41.416615
 51
228.583385
  0
ARC
  8
DATA
  6
CONTINUOUS
 62
     7
 10
2351.0
 20
2907.66449
 40
10.0
 50
101.300932
 51
78.699068
  0
ARC
  8
DATA
  6
CONTINUOUS
 62
     7
 10
2351.0
 20
2907.66449
 40
11.5
 50
108.427812
 51
71.646805
  0
CIRCLE
  8
DATA
  6
CONTINUOUS
 62
     7
 10
2351.0
 20
2907.66449
 40
8.0
  0
POLYLINE
  8
DATA
  6
CONTINUOUS
 62
     7
 66
     1
  0
VERTEX
  8
DATA
 10
2352.94976
 20
2918.16886
  0
VERTEX
  8
DATA
 10
2353.5722
 20
2918.28597
  0
VERTEX
  8
DATA
 10
2354.16212
 20
2918.43429
  0
VERTEX
  8
DATA
 10
2354.7121
 20
2918.61194
  0
VERTEX
  8
DATA
 10
2355.21523
 20
2918.8167
  0
VERTEX
  8
DATA
 10
2355.66517
 20
2919.04599
  0
VERTEX
  8
DATA
 10
2356.05627
 20
2919.29693
  0
VERTEX
  8
DATA
 10
2356.38361
 20
2919.56637
  0
VERTEX
  8
DATA
 10
2356.64307
 20
2919.8509
  0
VERTEX
  8
DATA
 10
2356.83139
 20
2920.14696
  0
VERTEX
  8
DATA
 10
2356.94621
 20
2920.45083
  0
VERTEX
  8
DATA
 10
2356.98607
 20
2920.75868
  0
VERTEX
  8
DATA
 10
2356.95048
 20
2921.06663
  0
VERTEX
  8
DATA
 10
2356.83988
 20
2921.37082
  0
VERTEX
  8
DATA
 10
2356.65567
 20
2921.66743
  0
VERTEX
  8
DATA
 10
2356.40016
 20
2921.95272
  0
VERTEX
  8
DATA
 10
2356.07657
 20
2922.2231
  0
VERTEX
  8
DATA
 10
2355.68896
 20
2922.47517
  0
VERTEX
  8
DATA
 10
2355.24221
 20
2922.70577
  0
VERTEX
  8
DATA
 10
2354.74193
 20
2922.91199
  0
VERTEX
  8
DATA
 10
2354.19443
 20
2923.09125
  0
VERTEX
  8
DATA
 10
2353.60658
 20
2923.24128
  0
VERTEX
  8
DATA
 10
2352.98577
 20
2923.3602
  0
VERTEX
  8
DATA
 10
2352.33982
 20
2923.44651
  0
VERTEX
  8
DATA
 10
2351.67684
 20
2923.49913
  0
VERTEX
  8
DATA
 10
2351.00518
 20
2923.51741
  0
VERTEX
  8
DATA
 10
2350.33327
 20
2923.50109
  0
VERTEX
  8
DATA
 10
2349.66958
 20
2923.4504
  0
VERTEX
  8
DATA
 10
2349.02244
 20
2923.36597
  0
VERTEX
  8
DATA
 10
2348.4
 20
2923.24886
  0
VERTEX
  8
DATA
 10
2347.81008
 20
2923.10055
  0
VERTEX
  8
DATA
 10
2347.26009
 20
2922.9229
  0
VERTEX
  8
DATA
 10
2346.75697
 20
2922.71814
  0
VERTEX
  8
DATA
 10
2346.30703
 20
2922.48884
  0
VERTEX
  8
DATA
 10
2345.91593
 20
2922.2379
  0
VERTEX
  8
DATA
 10
2345.58859
 20
2921.96847
  0
VERTEX
  8
DATA
 10
2345.32913
 20
2921.68393
  0
VERTEX
  8
DATA
 10
2345.14081
 20
2921.38787
  0
VERTEX
  8
DATA
 10
2345.02599
 20
2921.08401
  0
VERTEX
  8
DATA
 10
2344.98613
 20
2920.77616
  0
VERTEX
  8
DATA
 10
2345.02172
 20
2920.46821
  0
VERTEX
  8
DATA
 10
2345.13232
 20
2920.16401
  0
VERTEX
  8
DATA
 10
2345.31653
 20
2919.86741
  0
VERTEX
  8
DATA
 10
2345.57204
 20
2919.58212
  0
VERTEX
  8
DATA
 10
2345.89563
 20
2919.31174
  0
VERTEX
  8
DATA
 10
2346.28324
 20
2919.05967
  0
VERTEX
  8
DATA
 10
2346.72999
 20
2918.82907
  0
VERTEX
  8
DATA
 10
2347.23026
 20
2918.62284
  0
VERTEX
  8
DATA
 10
2347.77777
 20
2918.44359
  0
VERTEX
  8
DATA
 10
2348.36562
 20
2918.29356
  0
VERTEX
  8
DATA
 10
2348.98643
 20
2918.17464
  0
VERTEX
  8
DATA
 10
2349.05024
 20
2918.16449
  0
SEQEND
  8
DATA
  0
LINE
  8
DATA
  6
CONTINUOUS
 62
     7
 10
2352.94976
 20
2918.16886
 11
2352.94976
 21
2916.97257
  0
LINE
  8
DATA
  6
CONTINUOUS
 62
     7
 10
2349.05024
 20
2918.16449
 11
2349.05024
 21
2916.97257
  0
LINE
  8
DATA
  6
CONTINUOUS
 62
     7
 10
2349.04038
 20
2916.9706
 11
2352.94976
 21
2916.97257
  0
LINE
  8
DATA
  6
CONTINUOUS
 62
     7
 10
2346.651696
 20
2922.66449
 11
2340.5
 21
2922.66449
  0
LINE
  8
DATA
  6
CONTINUOUS
 62
     7
 10
2355.322183
 20
2922.66449
 11
2361.5
 21
2922.66449
  0
LINE
  8
DIMENSIONS
  6
CONTINUOUS
 62
     7
 10
2374.0
 20
3042.882393
 11
2374.0
 21
3125.0
  0
LINE
  8
DIMENSIONS
  6
CONTINUOUS
 62
     7
 10
2334.0
 20
3093.3336
 11
2374.0
 21
3100.0
  0
LINE
  8
DIMENSIONS
  6
CONTINUOUS
 62
     7
 10
2334.0
 20
3106.6664
 11
2374.0
 21
3100.0
  0
LINE
  8
DATA
  6
CONTINUOUS
 62
     7
 10
2782.052001
 20
2846.66449
 11
2800.0346
 21
2846.595687
  0
LINE
  8
DATA
  6
CONTINUOUS
 62
     7
 10
2777.818277
 20
2866.286872
 11
2800.0346
 21
2846.595687
  0
LINE
  8
DATA
  6
CONTINUOUS
 62
     7
 10
2750.857352
 20
2991.245214
 11
2894.449042
 21
3022.882393
  0
LINE
  8
DATA
  6
CONTINUOUS
 62
     7
 10
2747.854004
 20
2989.349978
 11
2750.858439
 21
2991.240175
  0
LINE
  8
DATA
  6
CONTINUOUS
 62
     7
 10
2756.410862
 20
2949.690638
 11
2759.927387
 21
2949.207396
  0
LINE
  8
DATA
  6
CONTINUOUS
 62
     7
 10
2747.854004
 20
2989.349978
 11
2756.410862
 21
2949.690638
  0
LINE
  8
DATA
  6
CONTINUOUS
 62
     7
 10
2894.449042
 20
3022.882393
 11
3000.33
 21
3022.882393
  0
LINE
  8
DIMENSIONS
  6
CONTINUOUS
 62
     7
 10
3000.33
 20
3100.0
 11
2920.33
 21
3100.0
  0
LINE
  8
DIMENSIONS
  6
CONTINUOUS
 62
     7
 10
3000.33
 20
3042.882393
 11
3000.33
 21
3125.0
  0
LINE
  8
DIMENSIONS
  6
CONTINUOUS
 62
     7
 10
2960.33
 20
3093.3336
 11
3000.33
 21
3100.0
  0
LINE
  8
DIMENSIONS
  6
CONTINUOUS
 62
     7
 10
2960.33
 20
3106.6664
 11
3000.33
 21
3100.0
  0
LINE
  8
DIMENSIONS
  6
CONTINUOUS
 62
     7
 10
2747.854004
 20
3009.349978
 11
2747.854004
 21
3175.0
  0
LINE
  8
DIMENSIONS
  6
CONTINUOUS
 62
     7
 10
2787.854004
 20
3143.3336
 11
2747.854004
 21
3150.0
  0
LINE
  8
DIMENSIONS
  6
CONTINUOUS
 62
     7
 10
2787.854004
 20
3156.6664
 11
2747.854004
 21
3150.0
  0
TEXT
  8
DIMENSIONS
  6
CONTINUOUS
 62
     7
 10
2826.836674
 20
3175.0
 40
50.0
  1
277.9
  7
TTF_DEFAULT
  0
LINE
  8
SPEC
  6
CONTINUOUS
 62
     7
 10
3350.0
 20
5300.0
 11
3350.0
 21
3280.0
  0
LINE
  8
DIMENSIONS
  6
CONTINUOUS
 62
     7
 10
3020.33
 20
3022.882393
 11
3225.0
 21
3022.882393
  0
LINE
  8
DIMENSIONS
  6
CONTINUOUS
 62
     7
 10
3193.3336
 20
2982.882393
 11
3200.0
 21
3022.882393
  0
LINE
  8
DIMENSIONS
  6
CONTINUOUS
 62
     7
 10
3206.6664
 20
2982.882393
 11
3200.0
 21
3022.882393
  0
LINE
  8
DIMENSIONS
  6
CONTINUOUS
 62
     7
 10
3045.73
 20
2988.562833
 11
3125.0
 21
2988.562833
  0
LINE
  8
DIMENSIONS
  6
CONTINUOUS
 62
     7
 10
3093.3336
 20
2948.562833
 11
3100.0
 21
2988.562833
  0
LINE
  8
DIMENSIONS
  6
CONTINUOUS
 62
     7
 10
3106.6664
 20
2948.562833
 11
3100.0
 21
2988.562833
  0
LINE
  8
DIMENSIONS
  6
CONTINUOUS
 62
     7
 10
3025.73
 20
3100.0
 11
3105.73
 21
3100.0
  0
LINE
  8
DIMENSIONS
  6
CONTINUOUS
 62
     7
 10
3065.73
 20
3093.3336
 11
3025.73
 21
3100.0
  0
LINE
  8
DIMENSIONS
  6
CONTINUOUS
 62
     7
 10
3065.73
 20
3106.6664
 11
3025.73
 21
3100.0
  0
LINE
  8
DIMENSIONS
  6
CONTINUOUS
 62
     7
 10
3025.73
 20
3008.562833
 11
3025.73
 21
3175.0
  0
TEXT
  8
DIMENSIONS
  6
CONTINUOUS
 62
     7
 10
3130.73
 20
3125.0
 40
50.0
  1
25.4
  7
TTF_DEFAULT
  0
ENDSEC
  0
EOF
