  0
SECTION
  2
HEADER
  9
$ACADVER
  1
AC1009
  9
$INSBASE
 10
0.0
 20
0.0
 30
0.0
  9
$EXTMIN
 10
-1250.0823911746049
 20
-1874.8832945933341
 30
-0.0015258207003583
  9
$EXTMAX
 10
1450.0824037474611
 20
2139.5676713551261
 30
0.0000000349246037
  9
$LIMMIN
 10
0.0
 20
0.0
  9
$LIMMAX
 10
0.0
 20
0.0
  9
$ORTHOMODE
 70
     0
  9
$REGENMODE
 70
     1
  9
$FILLMODE
 70
     1
  9
$QTEXTMODE
 70
     0
  9
$MIRRTEXT
 70
     1
  9
$DRAGMODE
 70
     2
  9
$LTSCALE
 40
76.200000000000003
  9
$OSMODE
 70
   231
  9
$ATTMODE
 70
     1
  9
$TEXTSIZE
 40
0.0
  9
$TRACEWID
 40
1.0
  9
$TEXTSTYLE
  7
STANDARD
  9
$CLAYER
  8
DATA
  9
$CELTYPE
  6
BYLAYER
  9
$CECOLOR
 62
   256
  9
$DIMSCALE
 40
1.0
  9
$DIMASZ
 40
0.18
  9
$DIMEXO
 40
0.0625
  9
$DIMDLI
 40
0.38
  9
$DIMRND
 40
0.0
  9
$DIMDLE
 40
0.0
  9
$DIMEXE
 40
0.18
  9
$DIMTP
 40
0.0
  9
$DIMTM
 40
0.0
  9
$DIMTXT
 40
0.18
  9
$DIMCEN
 40
0.09
  9
$DIMTSZ
 40
0.0
  9
$DIMTOL
 70
     0
  9
$DIMLIM
 70
     0
  9
$DIMTIH
 70
     1
  9
$DIMTOH
 70
     1
  9
$DIMSE1
 70
     0
  9
$DIMSE2
 70
     0
  9
$DIMTAD
 70
     0
  9
$DIMZIN
 70
     0
  9
$DIMBLK
  1

  9
$DIMASO
 70
     1
  9
$DIMSHO
 70
     1
  9
$DIMPOST
  1

  9
$DIMAPOST
  1

  9
$DIMALT
 70
     0
  9
$DIMALTD
 70
     2
  9
$DIMALTF
 40
25.399999999999999
  9
$DIMLFAC
 40
1.0
  9
$DIMTOFL
 70
     0
  9
$DIMTVP
 40
0.0
  9
$DIMTIX
 70
     0
  9
$DIMSOXD
 70
     0
  9
$DIMSAH
 70
     0
  9
$DIMBLK1
  1

  9
$DIMBLK2
  1

  9
$DIMSTYLE
  2
STANDARD
  9
$DIMCLRD
 70
     0
  9
$DIMCLRE
 70
     0
  9
$DIMCLRT
 70
     0
  9
$DIMTFAC
 40
1.0
  9
$DIMGAP
 40
0.09
  9
$LUNITS
 70
     2
  9
$LUPREC
 70
     4
  9
$SKETCHINC
 40
0.1
  9
$FILLETRAD
 40
0.0
  9
$AUNITS
 70
     0
  9
$AUPREC
 70
     0
  9
$MENU
  1
acad
  9
$ELEVATION
 40
0.0
  9
$PELEVATION
 40
0.0
  9
$THICKNESS
 40
0.0
  9
$LIMCHECK
 70
     0
  9
$BLIPMODE
 70
     0
  9
$CHAMFERA
 40
0.0
  9
$CHAMFERB
 40
0.0
  9
$SKPOLY
 70
     0
  9
$TDCREATE
 40
2455716.7455324079
  9
$TDUPDATE
 40
2455716.7469407641
  9
$TDINDWG
 40
0.0002854977
  9
$TDUSRTIMER
 40
0.0002853125
  9
$USRTIMER
 70
     1
  9
$ANGBASE
 50
0.0
  9
$ANGDIR
 70
     0
  9
$PDMODE
 70
     1
  9
$PDSIZE
 40
-2.0
  9
$PLINEWID
 40
0.0
  9
$COORDS
 70
     1
  9
$SPLFRAME
 70
     0
  9
$SPLINETYPE
 70
     6
  9
$SPLINESEGS
 70
     8
  9
$ATTDIA
 70
     0
  9
$ATTREQ
 70
     1
  9
$HANDLING
 70
     1
  9
$HANDSEED
  5
2BC
  9
$SURFTAB1
 70
     6
  9
$SURFTAB2
 70
     6
  9
$SURFTYPE
 70
     6
  9
$SURFU
 70
     6
  9
$SURFV
 70
     6
  9
$UCSNAME
  2

  9
$UCSORG
 10
0.0
 20
0.0
 30
0.0
  9
$UCSXDIR
 10
1.0
 20
0.0
 30
0.0
  9
$UCSYDIR
 10
0.0
 20
1.0
 30
0.0
  9
$PUCSNAME
  2

  9
$PUCSORG
 10
0.0
 20
0.0
 30
0.0
  9
$PUCSXDIR
 10
1.0
 20
0.0
 30
0.0
  9
$PUCSYDIR
 10
0.0
 20
1.0
 30
0.0
  9
$USERI1
 70
     0
  9
$USERI2
 70
     0
  9
$USERI3
 70
     0
  9
$USERI4
 70
     0
  9
$USERI5
 70
     0
  9
$USERR1
 40
0.0
  9
$USERR2
 40
0.0
  9
$USERR3
 40
0.0
  9
$USERR4
 40
0.0
  9
$USERR5
 40
0.0
  9
$WORLDVIEW
 70
     1
  9
$SHADEDGE
 70
     3
  9
$SHADEDIF
 70
    70
  9
$TILEMODE
 70
     1
  9
$MAXACTVP
 70
    64
  9
$PLIMCHECK
 70
     0
  9
$PEXTMIN
 10
1.0000000000000000E+020
 20
1.0000000000000000E+020
 30
1.0000000000000000E+020
  9
$PEXTMAX
 10
-1.0000000000000000E+020
 20
-1.0000000000000000E+020
 30
-1.0000000000000000E+020
  9
$PLIMMIN
 10
0.0
 20
0.0
  9
$PLIMMAX
 10
12.0
 20
9.0
  9
$UNITMODE
 70
     0
  9
$VISRETAIN
 70
     0
  9
$PLINEGEN
 70
     1
  9
$PSLTSCALE
 70
     0
  0
ENDSEC
  0
SECTION
  2
TABLES
  0
TABLE
  2
VPORT
 70
     1
  0
VPORT
  2
*ACTIVE
 70
     0
 10
0.0
 20
0.0
 11
1.0
 21
1.0
 12
100.0000062864278
 22
132.34218838089549
 13
0.0
 23
0.0
 14
1.0
 24
1.0
 15
0.0
 25
0.0
 16
0.0
 26
0.0
 36
1.0
 17
0.0
 27
0.0
 37
0.0
 40
4044.0052061885708
 41
1.9619164619164611
 42
50.0
 43
0.0
 44
0.0
 50
0.0
 51
0.0
 71
     0
 72
  2000
 73
     1
 74
     1
 75
     0
 76
     0
 77
     0
 78
     0
  0
ENDTAB
  0
TABLE
  2
LTYPE
 70
    11
  0
LTYPE
  2
CONTINUOUS
 70
     0
  3
Solid line
 72
    65
 73
     0
 40
0.0
  0
ENDTAB
  0
TABLE
  2
LAYER
 70
     6
  0
LAYER
  2
0
 70
     0
 62
     7
  6
CONTINUOUS
  0
LAYER
  2
DATA
 70
     0
 62
     7
  6
CONTINUOUS
  0
LAYER
  2
HIBINO-BASE
 70
     0
 62
     7
  6
CONTINUOUS
  0
LAYER
  2
SPEC
 70
     0
 62
     7
  6
CONTINUOUS
  0
LAYER
  2
DIMNSIONS
 70
     0
 62
     7
  6
CONTINUOUS
  0
ENDTAB
  0
TABLE
  2
STYLE
 70
     3
  0
STYLE
  2
STANDARD
 70
     0
 40
0.0
 41
1.0
 50
0.0
 71
     0
 42
0.0
  3
txt
  4
BIGFONT.SHX
  0
ENDTAB
  0
TABLE
  2
VIEW
 70
     0
  0
ENDTAB
  0
TABLE
  2
UCS
 70
     0
  0
ENDTAB
  0
TABLE
  2
APPID
 70
     4
  0
APPID
  2
ACAD
 70
     0
  0
APPID
  2
ACADANNOTATIVE
 70
     0
  0
APPID
  2
ACAD_NAV_VCDISPLAY
 70
     0
  0
APPID
  2
ACAD_MLEADERVER
 70
     0
  0
ENDTAB
  0
TABLE
  2
DIMSTYLE
 70
     2
  0
DIMSTYLE
  2
STANDARD
 70
     0
  3

  4

  5

  6

  7

 40
1.0
 41
0.18
 42
0.0625
 43
0.38
 44
0.18
 45
0.0
 46
0.0
 47
0.0
 48
0.0
140
0.18
141
0.09
142
0.0
143
25.399999999999999
144
1.0
145
0.0
146
1.0
147
0.09
 71
     0
 72
     0
 73
     1
 74
     1
 75
     0
 76
     0
 77
     0
 78
     0
170
     0
171
     2
172
     0
173
     0
174
     0
175
     0
176
     0
177
     0
178
     0
  0
ENDTAB
  0
ENDSEC
  0
SECTION
  2
BLOCKS
  0
BLOCK
  8
0
  2
$MODEL_SPACE
 70
     0
 10
0.0
 20
0.0
 30
0.0
  3
$MODEL_SPACE
  1

  0
ENDBLK
  5
221
  8
0
  0
BLOCK
 67
     1
  8
0
  2
$PAPER_SPACE
 70
     0
 10
0.0
 20
0.0
 30
0.0
  3
$PAPER_SPACE
  1

  0
ENDBLK
  5
21D
 67
     1
  8
0
  0
ENDSEC
  0
SECTION
  2
ENTITIES
  0
LINE
  5
2D
  8
HIBINO-BASE
  6
CONTINUOUS
 62
     7
 10
-1250.0
 20
2139.4454099999998
 30
0.0
 11
1450.0
 21
2139.4454099999998
 31
0.0
  0
LINE
  5
2E
  8
HIBINO-BASE
  6
CONTINUOUS
 62
     7
 10
1450.0
 20
-1760.55459
 30
0.0
 11
-1250.0
 21
-1760.55459
 31
0.0
  0
LINE
  5
2F
  8
HIBINO-BASE
  6
CONTINUOUS
 62
     7
 10
-1250.0
 20
-1760.55459
 30
0.0
 11
-1250.0
 21
2139.4454099999998
 31
0.0
  0
TEXT
  5
30
  8
HIBINO-BASE
 62
     7
 10
-1142.24
 20
-1856.684757
 30
0.0
 40
54.000662695312492
  1
Hibino Corporation
 41
0.7
 11
-1142.24
 21
-1802.6840943046871
 31
0.0
 73
     3
  0
LINE
  5
31
  8
HIBINO-BASE
  6
CONTINUOUS
 62
     7
 10
1450.0
 20
2139.4454099999998
 30
0.0
 11
1450.0
 21
-1760.55459
 31
0.0
  0
LINE
  5
32
  8
HIBINO-BASE
  6
CONTINUOUS
 62
     7
 10
100.0
 20
-1423.05459
 30
0.0
 11
1450.0
 21
-1423.05459
 31
0.0
  0
LINE
  5
33
  8
HIBINO-BASE
  6
CONTINUOUS
 62
     7
 10
100.0
 20
-1760.55459
 30
0.0
 11
100.0
 21
-1423.05459
 31
0.0
  0
TEXT
  5
34
  8
HIBINO-BASE
 62
     7
 10
113.5
 20
-1460.68499
 30
0.0
 40
24.4326171875
  1
NOTE
 41
0.7
 11
113.5
 21
-1436.2523728125
 31
0.0
 73
     3
  0
LINE
  5
35
  8
HIBINO-BASE
  6
CONTINUOUS
 62
     7
 10
625.0
 20
-1760.55459
 30
0.0
 11
625.0
 21
-1423.05459
 31
0.0
  0
TEXT
  5
36
  8
HIBINO-BASE
 62
     7
 10
638.49999999999989
 20
-1460.68499
 30
0.0
 40
24.4326171875
  1
TITLE
 41
0.7
 11
638.49999999999989
 21
-1436.2523728125
 31
0.0
 73
     3
  0
TEXT
  5
37
  8
HIBINO-BASE
 62
     7
 10
851.02584999999999
 20
-1856.684757
 30
0.0
 40
54.000662695312492
  1
ヒビノ株式会社
 41
0.7
 11
851.02584999999999
 21
-1802.6840943046871
 31
0.0
 73
     3
  0
LINE
  5
38
  8
HIBINO-BASE
  6
CONTINUOUS
 62
     7
 10
100.0
 20
-1610.55459
 30
0.0
 11
1450.0
 21
-1610.55459
 31
0.0
  0
TEXT
  5
39
  8
HIBINO-BASE
 62
     7
 10
826.0
 20
-1647.3401899999999
 30
0.0
 40
24.4326171875
  1
DRAWN
 41
0.7
 11
826.0
 21
-1622.9075728124999
 31
0.0
 73
     3
  0
TEXT
  5
3A
  8
HIBINO-BASE
 62
     7
 10
451.0
 20
-1647.3401899999999
 30
0.0
 40
24.4326171875
  1
DATE
 41
0.7
 11
451.0
 21
-1622.9075728124999
 31
0.0
 73
     3
  0
TEXT
  5
3B
  8
HIBINO-BASE
 62
     7
 10
300.99999999999989
 20
-1647.3401899999999
 30
0.0
 40
24.4326171875
  1
SCALE
 41
0.7
 11
300.99999999999989
 21
-1622.9075728124999
 31
0.0
 73
     3
  0
TEXT
  5
3C
  8
HIBINO-BASE
 62
     7
 10
638.49999999999989
 20
-1647.3401899999999
 30
0.0
 40
24.4326171875
  1
DESIGN
 41
0.7
 11
638.49999999999989
 21
-1622.9075728124999
 31
0.0
 73
     3
  0
TEXT
  5
3D
  8
HIBINO-BASE
 62
     7
 10
1201.0
 20
-1647.3401899999999
 30
0.0
 40
24.4326171875
  1
DRAWING NO.
 41
0.7
 11
1201.0
 21
-1622.9075728124999
 31
0.0
 73
     3
  0
TEXT
  5
3E
  8
HIBINO-BASE
 62
     7
 10
1013.5
 20
-1647.3401899999999
 30
0.0
 40
24.4326171875
  1
CHECK
 41
0.7
 11
1013.5
 21
-1622.9075728124999
 31
0.0
 73
     3
  0
LINE
  5
3F
  8
HIBINO-BASE
  6
CONTINUOUS
 62
     7
 10
315.625
 20
-1741.80459
 30
0.0
 11
371.875
 21
-1685.55459
 31
0.0
  0
TEXT
  5
40
  8
HIBINO-BASE
 62
     7
 10
306.25
 20
-1702.1887400000001
 30
0.0
 40
24.4326171875
  1
1
 41
0.7
 11
306.25
 21
-1677.7561228125001
 31
0.0
 73
     3
  0
LINE
  5
41
  8
HIBINO-BASE
  6
CONTINUOUS
 62
     7
 10
287.5
 20
-1760.55459
 30
0.0
 11
287.5
 21
-1610.55459
 31
0.0
  0
LINE
  5
42
  8
HIBINO-BASE
  6
CONTINUOUS
 62
     7
 10
437.5
 20
-1760.55459
 30
0.0
 11
437.5
 21
-1610.55459
 31
0.0
  0
LINE
  5
43
  8
HIBINO-BASE
  6
CONTINUOUS
 62
     7
 10
812.5
 20
-1610.55459
 30
0.0
 11
812.5
 21
-1760.55459
 31
0.0
  0
LINE
  5
44
  8
HIBINO-BASE
  6
CONTINUOUS
 62
     7
 10
1187.5
 20
-1610.55459
 30
0.0
 11
1187.5
 21
-1760.55459
 31
0.0
  0
LINE
  5
45
  8
HIBINO-BASE
  6
CONTINUOUS
 62
     7
 10
1000.0
 20
-1760.55459
 30
0.0
 11
1000.0
 21
-1610.55459
 31
0.0
  0
TEXT
  5
46
  8
HIBINO-BASE
 62
     7
 10
450.34809999999987
 20
-1717.59989
 30
0.0
 40
24.4326171875
  1
'11.06.
 41
0.7
 11
450.34809999999987
 21
-1693.1672728125
 31
0.0
 73
     3
  0
TEXT
  5
47
  8
HIBINO-BASE
 62
     7
 10
362.5
 20
-1730.3137400000001
 30
0.0
 40
24.4326171875
  1
15
 41
0.7
 11
362.5
 21
-1705.8811228125001
 31
0.0
 73
     3
  0
TEXT
  5
48
  8
HIBINO-BASE
 62
     7
 10
158.2500000000002
 20
-1730.9145900000001
 30
0.0
 40
48.865234374999993
  1
A4
 41
0.7
 11
158.2500000000002
 21
-1682.0493556250001
 31
0.0
 73
     3
  0
TEXT
  5
49
  8
HIBINO-BASE
 62
     7
 10
114.3749999999999
 20
-1649.846415
 30
0.0
 40
24.4326171875
  1
PAPER SIZE
 41
0.7
 11
114.3749999999999
 21
-1625.4137978125
 31
0.0
 73
     3
  0
TEXT
  5
4A
  8
HIBINO-BASE
 62
     7
 10
835.08715016551946
 20
-1717.59989
 30
0.0
 40
24.4326171875
  1
T.Ootake
 41
0.7
 11
835.08715016551946
 21
-1693.1672728125
 31
0.0
 73
     3
  0
LINE
  5
4B
  8
SPEC
  6
CONTINUOUS
 62
     7
 10
-1137.5
 20
1989.44541
 30
0.0
 11
350.00000000000023
 21
1989.44541
 31
0.0
  0
LINE
  5
4C
  8
SPEC
  6
CONTINUOUS
 62
     7
 10
-1137.5
 20
1933.19541
 30
0.0
 11
350.00000000000023
 21
1933.19541
 31
0.0
  0
LINE
  5
4D
  8
SPEC
  6
CONTINUOUS
 62
     7
 10
-1137.5
 20
1708.1954099999989
 30
0.0
 11
350.00000000000023
 21
1708.1954099999989
 31
0.0
  0
LINE
  5
4E
  8
SPEC
  6
CONTINUOUS
 62
     7
 10
-1137.5
 20
1764.4454099999989
 30
0.0
 11
350.00000000000023
 21
1764.4454099999989
 31
0.0
  0
LINE
  5
4F
  8
SPEC
  6
CONTINUOUS
 62
     7
 10
-1137.5
 20
1820.69541
 30
0.0
 11
350.00000000000023
 21
1820.69541
 31
0.0
  0
LINE
  5
50
  8
SPEC
  6
CONTINUOUS
 62
     7
 10
-1137.5
 20
1651.9454099999989
 30
0.0
 11
350.00000000000023
 21
1651.9454099999989
 31
0.0
  0
LINE
  5
51
  8
SPEC
  6
CONTINUOUS
 62
     7
 10
-1137.5
 20
1595.6954099999989
 30
0.0
 11
350.00000000000023
 21
1595.6954099999989
 31
0.0
  0
LINE
  5
52
  8
SPEC
  6
CONTINUOUS
 62
     7
 10
-1137.5
 20
1876.94541
 30
0.0
 11
350.00000000000023
 21
1876.94541
 31
0.0
  0
LINE
  5
53
  8
SPEC
  6
CONTINUOUS
 62
     7
 10
-1137.5
 20
1989.44541
 30
0.0
 11
-1137.5
 21
1426.9454099999989
 31
0.0
  0
TEXT
  5
54
  8
SPEC
 62
     7
 10
-1118.75
 20
2010.3444599999989
 30
0.0
 40
36.64892578125
  1
仕様
 41
0.7
 11
-1118.75
 21
2046.9933857812489
 31
0.0
 73
     3
  0
LINE
  5
55
  8
SPEC
  6
CONTINUOUS
 62
     7
 10
-649.99999999999989
 20
1989.44541
 30
0.0
 11
-649.99999999999989
 21
1426.9454099999989
 31
0.0
  0
TEXT
  5
56
  8
SPEC
 62
     7
 10
-1126.031224150556
 20
1947.2399595303441
 30
0.0
 40
28.50466875
  1
マイク/ライン入力
 41
0.7
 11
-1126.031224150556
 21
1975.7446282803439
 31
0.0
 73
     3
  0
LINE
  5
57
  8
SPEC
  6
CONTINUOUS
 62
     7
 10
-1137.5
 20
1539.4454099999989
 30
0.0
 11
350.00000000000023
 21
1539.4454099999989
 31
0.0
  0
LINE
  5
58
  8
SPEC
  6
CONTINUOUS
 62
     7
 10
-1137.5
 20
1483.1954099999989
 30
0.0
 11
350.00000000000023
 21
1483.1954099999989
 31
0.0
  0
LINE
  5
59
  8
SPEC
  6
CONTINUOUS
 62
     7
 10
-1137.5
 20
1483.1954099999989
 30
0.0
 11
350.00000000000023
 21
1483.1954099999989
 31
0.0
  0
TEXT
  5
5A
  8
SPEC
 62
     7
 10
-1124.818863288586
 20
1498.665
 30
0.0
 40
28.504720052083329
  1
寸法
 41
0.7
 11
-1124.818863288586
 21
1527.169720052083
 31
0.0
 73
     3
  0
TEXT
  5
5B
  8
SPEC
 62
     7
 10
-638.46891404463099
 20
1551.657229615043
 30
0.0
 40
28.504720052083329
  1
155W
 41
0.7
 11
-638.46891404463099
 21
1580.161949667126
 31
0.0
 73
     3
  0
TEXT
  5
5C
  8
SPEC
 62
     7
 10
-1126.031224150556
 20
1893.471300792984
 30
0.0
 40
28.50466875
  1
デジタル入出力
 41
0.7
 11
-1126.031224150556
 21
1921.975969542985
 31
0.0
 73
     3
  0
TEXT
  5
5D
  8
SPEC
 62
     7
 10
-1123.9783890260071
 20
1835.112220282509
 30
0.0
 40
28.50466875
  1
バス出力
 41
0.7
 11
-1123.9783890260071
 21
1863.6168890325091
 31
0.0
 73
     3
  0
TEXT
  5
5E
  8
SPEC
 62
     7
 10
-1126.0
 20
1778.770034724573
 30
0.0
 40
28.50466875
  1
マスター出力
 41
0.7
 11
-1126.0
 21
1807.274703474573
 31
0.0
 73
     3
  0
TEXT
  5
5F
  8
SPEC
 62
     7
 10
-1125.2421989144291
 20
1723.393134542785
 30
0.0
 40
28.50466875
  1
モニター出力
 41
0.7
 11
-1125.2421989144291
 21
1751.8978032927851
 31
0.0
 73
     3
  0
TEXT
  5
60
  8
SPEC
 62
     7
 10
-1125.0
 20
1666.3868297257741
 30
0.0
 40
28.50466875
  1
拡張スロット
 41
0.7
 11
-1125.0
 21
1694.8914984757739
 31
0.0
 73
     3
  0
TEXT
  5
61
  8
SPEC
 62
     7
 10
-1125.1277417431741
 20
1608.2660618287821
 30
0.0
 40
28.50466875
  1
電源電圧
 41
0.7
 11
-1125.1277417431741
 21
1636.7707305787819
 31
0.0
 73
     3
  0
TEXT
  5
62
  8
SPEC
 62
     7
 10
-1124.375913914391
 20
1554.6474592295231
 30
0.0
 40
28.50466875
  1
消費電力
 41
0.7
 11
-1124.375913914391
 21
1583.1521279795229
 31
0.0
 73
     3
  0
TEXT
  5
63
  8
SPEC
 62
     7
 10
-637.13168924008357
 20
1609.361672492068
 30
0.0
 40
28.504720052083329
  1
90－264V、47－63Hz
 41
0.7
 11
-637.13168924008357
 21
1637.8663925441519
 31
0.0
 73
     3
  0
TEXT
  5
64
  8
SPEC
 62
     7
 10
-637.4151367528375
 20
1666.480510114711
 30
0.0
 40
28.504720052083329
  1
1
 41
0.7
 11
-637.4151367528375
 21
1694.9852301667941
 31
0.0
 73
     3
  0
TEXT
  5
65
  8
SPEC
 62
     7
 10
-635.76206013375145
 20
1721.055324404947
 30
0.0
 40
28.504720052083329
  1
5(LCR/LR：XLR）
 41
0.7
 11
-635.76206013375145
 21
1749.56004445703
 31
0.0
 73
     3
  0
TEXT
  5
66
  8
SPEC
 62
     7
 10
-635.76206013375145
 20
1777.305324404947
 30
0.0
 40
28.504720052083329
  1
3(LCR：XLR）
 41
0.7
 11
-635.76206013375145
 21
1805.8100444570309
 31
0.0
 73
     3
  0
TEXT
  5
67
  8
SPEC
 62
     7
 10
-635.77203878839066
 20
1833.554215665542
 30
0.0
 40
28.504720052083329
  1
24(XLR)
 41
0.7
 11
-635.77203878839066
 21
1862.058935717625
 31
0.0
 73
     3
  0
TEXT
  5
68
  8
SPEC
 62
     7
 10
-635.77203878839066
 20
1888.682259834801
 30
0.0
 40
28.504720052083329
  1
2(AES/EBU)、1(S/PDIF）
 41
0.7
 11
-635.77203878839066
 21
1917.186979886884
 31
0.0
 73
     3
  0
TEXT
  5
69
  8
SPEC
 62
     7
 10
-636.16225963468241
 20
1946.37128191943
 30
0.0
 40
28.504720052083329
  1
32(XLR)最大64chミキシング
 41
0.7
 11
-636.16225963468241
 21
1974.876001971513
 31
0.0
 73
     3
  0
LINE
  5
6A
  8
SPEC
  6
CONTINUOUS
 62
     7
 10
350.0
 20
1989.44541
 30
0.0
 11
350.0
 21
1426.9454099999989
 31
0.0
  0
LINE
  5
6B
  8
SPEC
  6
CONTINUOUS
 62
     7
 10
-1137.5
 20
1426.9454099999989
 30
0.0
 11
350.00000000000023
 21
1426.9454099999989
 31
0.0
  0
TEXT
  5
6C
  8
SPEC
 62
     7
 10
-1124.818863288586
 20
1442.415
 30
0.0
 40
28.504720052083329
  1
重量
 41
0.7
 11
-1124.818863288586
 21
1470.919720052083
 31
0.0
 73
     3
  0
TEXT
  5
6D
  8
SPEC
 62
     7
 10
-636.74798514652537
 20
1441.760298640886
 30
0.0
 40
28.504720052083329
  1
約37kg
 41
0.7
 11
-636.74798514652537
 21
1470.2650186929691
 31
0.0
 73
     3
  0
TEXT
  5
6E
  8
SPEC
 62
     7
 10
-638.46891404463099
 20
1495.407229615043
 30
0.0
 40
28.504720052083329
  1
1035(W)\U+00D7402(H)\U+00D7726(D) mm
 41
0.7
 11
-638.46891404463099
 21
1523.911949667126
 31
0.0
 73
     3
  0
TEXT
  5
6F
  8
DIMNSIONS
 62
     7
 10
-200.0
 20
-1576.51224
 30
0.0
 40
36.64892578125
  1
(単位：mm)
 41
0.7
 11
-200.0
 21
-1539.86331421875
 31
0.0
 73
     3
  0
LINE
  5
70
  8
DIMNSIONS
  6
CONTINUOUS
 62
     7
 10
-897.49999999999989
 20
-1025.0
 30
0.0
 11
-1030.0
 21
-1025.0
 31
0.0
  0
LINE
  5
71
  8
DIMNSIONS
  6
CONTINUOUS
 62
     7
 10
-942.5
 20
-623.0
 30
0.0
 11
-1030.0
 21
-623.0
 31
0.0
  0
LINE
  5
72
  8
DIMNSIONS
  6
CONTINUOUS
 62
     7
 10
-1000.0
 20
-1025.0
 30
0.0
 11
-1000.0
 21
-623.0
 31
0.0
  0
LINE
  5
73
  8
DIMNSIONS
  6
CONTINUOUS
 62
     7
 10
-1000.0
 20
-1025.0
 30
0.0
 11
-1010.050596927253
 21
-987.49066162109352
 31
0.0
  0
LINE
  5
74
  8
DIMNSIONS
  6
CONTINUOUS
 62
     7
 10
-1000.0
 20
-1025.0
 30
0.0
 11
-989.94940307274646
 21
-987.49066162109352
 31
0.0
  0
LINE
  5
75
  8
DIMNSIONS
  6
CONTINUOUS
 62
     7
 10
-1000.0
 20
-623.0
 30
0.0
 11
-989.94940307274646
 21
-660.50933837890625
 31
0.0
  0
LINE
  5
76
  8
DIMNSIONS
  6
CONTINUOUS
 62
     7
 10
-1000.0
 20
-623.0
 30
0.0
 11
-1010.050596927253
 21
-660.50933837890625
 31
0.0
  0
TEXT
  5
77
  8
DIMNSIONS
 62
     7
 10
-1014.908333333333
 20
-863.68749999999989
 30
0.0
 40
40.721028645833343
  1
402
 50
90.0
 41
0.7
 11
-1055.6293619791661
 21
-863.68749999999989
 31
0.0
 73
     3
  0
LINE
  5
78
  8
DIMNSIONS
  6
CONTINUOUS
 62
     7
 10
-884.5
 20
-1032.5
 30
0.0
 11
-1030.0
 21
-1032.5
 31
0.0
  0
LINE
  5
79
  8
DIMNSIONS
  6
CONTINUOUS
 62
     7
 10
-897.49999999999989
 20
-1025.0
 30
0.0
 11
-1030.0
 21
-1025.0
 31
0.0
  0
LINE
  5
7A
  8
DIMNSIONS
  6
CONTINUOUS
 62
     7
 10
-1000.0
 20
-1025.0
 30
0.0
 11
-1000.0
 21
-1032.5
 31
0.0
  0
LINE
  5
7B
  8
DIMNSIONS
  6
CONTINUOUS
 62
     7
 10
-1000.0
 20
-1032.5
 30
0.0
 11
-1000.0
 21
-1179.375
 31
0.0
  0
LINE
  5
7C
  8
DIMNSIONS
  6
CONTINUOUS
 62
     7
 10
-1000.0
 20
-1032.5
 30
0.0
 11
-989.94940307274646
 21
-1070.009338378906
 31
0.0
  0
LINE
  5
7D
  8
DIMNSIONS
  6
CONTINUOUS
 62
     7
 10
-1000.0
 20
-1032.5
 30
0.0
 11
-1010.050596927253
 21
-1070.009338378906
 31
0.0
  0
LINE
  5
7E
  8
DIMNSIONS
  6
CONTINUOUS
 62
     7
 10
-1000.0
 20
-1025.0
 30
0.0
 11
-1000.0
 21
-950.0
 31
0.0
  0
LINE
  5
7F
  8
DIMNSIONS
  6
CONTINUOUS
 62
     7
 10
-1000.0
 20
-1025.0
 30
0.0
 11
-1010.050596927253
 21
-987.49066162109352
 31
0.0
  0
LINE
  5
80
  8
DIMNSIONS
  6
CONTINUOUS
 62
     7
 10
-1000.0
 20
-1025.0
 30
0.0
 11
-989.94940307274646
 21
-987.49066162109352
 31
0.0
  0
TEXT
  5
81
  8
DIMNSIONS
 62
     7
 10
-1014.908333333333
 20
-1179.375
 30
0.0
 40
40.721028645833343
  1
7.5
 50
90.0
 41
0.7
 11
-1055.6293619791661
 21
-1179.375
 31
0.0
 73
     3
  0
LINE
  5
82
  8
DIMNSIONS
  6
CONTINUOUS
 62
     7
 10
-912.5
 20
-1031.5
 30
0.0
 11
-912.5
 21
-1230.0
 31
0.0
  0
LINE
  5
83
  8
DIMNSIONS
  6
CONTINUOUS
 62
     7
 10
122.5000000000001
 20
-1031.5
 30
0.0
 11
122.5000000000001
 21
-1230.0
 31
0.0
  0
LINE
  5
84
  8
DIMNSIONS
  6
CONTINUOUS
 62
     7
 10
-912.5
 20
-1200.0
 30
0.0
 11
122.5000000000001
 21
-1200.0
 31
0.0
  0
LINE
  5
85
  8
DIMNSIONS
  6
CONTINUOUS
 62
     7
 10
-912.5
 20
-1200.0
 30
0.0
 11
-874.99066162109352
 21
-1189.949403072746
 31
0.0
  0
LINE
  5
86
  8
DIMNSIONS
  6
CONTINUOUS
 62
     7
 10
-912.5
 20
-1200.0
 30
0.0
 11
-874.99066162109352
 21
-1210.0505969272531
 31
0.0
  0
LINE
  5
87
  8
DIMNSIONS
  6
CONTINUOUS
 62
     7
 10
122.5000000000001
 20
-1200.0
 30
0.0
 11
84.990661621093835
 21
-1210.050596927254
 31
0.0
  0
LINE
  5
88
  8
DIMNSIONS
  6
CONTINUOUS
 62
     7
 10
122.5000000000001
 20
-1200.0
 30
0.0
 11
84.990661621093835
 21
-1189.949403072746
 31
0.0
  0
TEXT
  5
89
  8
DIMNSIONS
 62
     7
 10
-447.91666666666652
 20
-1185.091666666666
 30
0.0
 40
40.721028645833343
  1
1035
 41
0.7
 11
-447.91666666666652
 21
-1144.370638020833
 31
0.0
 73
     3
  0
LINE
  5
8A
  8
DIMNSIONS
  6
CONTINUOUS
 62
     7
 10
-867.5
 20
-1055.0
 30
0.0
 11
-867.5
 21
-1155.0
 31
0.0
  0
LINE
  5
8B
  8
DIMNSIONS
  6
CONTINUOUS
 62
     7
 10
77.500000000000099
 20
-1055.0
 30
0.0
 11
77.500000000000099
 21
-1155.0
 31
0.0
  0
LINE
  5
8C
  8
DIMNSIONS
  6
CONTINUOUS
 62
     7
 10
-867.5
 20
-1125.0
 30
0.0
 11
77.500000000000099
 21
-1125.0
 31
0.0
  0
LINE
  5
8D
  8
DIMNSIONS
  6
CONTINUOUS
 62
     7
 10
-867.5
 20
-1125.0
 30
0.0
 11
-829.99066162109364
 21
-1114.949403072746
 31
0.0
  0
LINE
  5
8E
  8
DIMNSIONS
  6
CONTINUOUS
 62
     7
 10
-867.5
 20
-1125.0
 30
0.0
 11
-829.99066162109364
 21
-1135.0505969272531
 31
0.0
  0
LINE
  5
8F
  8
DIMNSIONS
  6
CONTINUOUS
 62
     7
 10
77.500000000000099
 20
-1125.0
 30
0.0
 11
39.990661621093849
 21
-1135.0505969272531
 31
0.0
  0
LINE
  5
90
  8
DIMNSIONS
  6
CONTINUOUS
 62
     7
 10
77.500000000000099
 20
-1125.0
 30
0.0
 11
39.990661621093849
 21
-1114.949403072746
 31
0.0
  0
TEXT
  5
91
  8
DIMNSIONS
 62
     7
 10
-434.68749999999989
 20
-1110.091666666666
 30
0.0
 40
40.721028645833343
  1
945
 41
0.7
 11
-434.68749999999989
 21
-1069.370638020833
 31
0.0
 73
     3
  0
LINE
  5
92
  8
DIMNSIONS
  6
CONTINUOUS
 62
     7
 10
-920.5
 20
-437.5
 30
0.0
 11
-1030.0
 21
-437.5
 31
0.0
  0
LINE
  5
93
  8
DIMNSIONS
  6
CONTINUOUS
 62
     7
 10
-897.49999999999989
 20
288.5
 30
0.0
 11
-1030.0
 21
288.5
 31
0.0
  0
LINE
  5
94
  8
DIMNSIONS
  6
CONTINUOUS
 62
     7
 10
-1000.0
 20
-437.5
 30
0.0
 11
-1000.0
 21
288.5
 31
0.0
  0
LINE
  5
95
  8
DIMNSIONS
  6
CONTINUOUS
 62
     7
 10
-1000.0
 20
-437.5
 30
0.0
 11
-1010.050596927253
 21
-399.99066162109369
 31
0.0
  0
LINE
  5
96
  8
DIMNSIONS
  6
CONTINUOUS
 62
     7
 10
-1000.0
 20
-437.5
 30
0.0
 11
-989.94940307274646
 21
-399.99066162109369
 31
0.0
  0
LINE
  5
97
  8
DIMNSIONS
  6
CONTINUOUS
 62
     7
 10
-1000.0
 20
288.5
 30
0.0
 11
-989.94940307274646
 21
250.99066162109369
 31
0.0
  0
LINE
  5
98
  8
DIMNSIONS
  6
CONTINUOUS
 62
     7
 10
-1000.0
 20
288.5
 30
0.0
 11
-1010.050596927253
 21
250.99066162109369
 31
0.0
  0
TEXT
  5
99
  8
DIMNSIONS
 62
     7
 10
-1014.908333333333
 20
-114.1875
 30
0.0
 40
40.721028645833343
  1
726
 50
90.0
 41
0.7
 11
-1055.6293619791661
 21
-114.1875
 31
0.0
 73
     3
  0
TEXT
  5
9A
  8
DATA
 62
     7
 10
819.85198003833125
 20
-1595.4830850692749
 30
0.0
 40
36.64892578125
  1
Vi1
 41
0.7
 11
819.85198003833125
 21
-1558.8341592880249
 31
0.0
 73
     3
  0
TEXT
  5
9B
  8
DATA
 62
     7
 10
792.88784881302081
 20
-1531.2505539108399
 30
0.0
 40
24.432655664062501
  1
デジタルミキシングコンソール
 41
0.7
 11
792.88784881302081
 21
-1506.8178982467771
 31
0.0
 73
     3
  0
TEXT
  5
9C
  8
DATA
 62
     7
 10
-1100.0
 20
-1696.98459
 30
0.0
 40
24.4326171875
  1
仕様および外観は予告なく変更されることがありますので、ご了承ください。
 41
0.7
 11
-1100.0
 21
-1672.5519728125
 31
0.0
 73
     3
  0
LINE
  5
9D
  8
DATA
  6
CONTINUOUS
 62
     7
 10
-867.5
 20
-437.5
 30
0.0
 11
-890.49999999999989
 21
-437.5
 31
0.0
  0
LINE
  5
9E
  8
DATA
  6
CONTINUOUS
 62
     7
 10
-912.5
 20
-363.50000000000091
 30
0.0
 11
-912.5
 21
-28.0
 31
0.0
  0
LINE
  5
9F
  8
DATA
  6
CONTINUOUS
 62
     7
 10
-867.5
 20
-437.5
 30
0.0
 11
-867.5
 21
287.5
 31
0.0
  0
LINE
  5
A0
  8
DATA
  6
CONTINUOUS
 62
     7
 10
77.500000000000099
 20
288.5
 30
0.0
 11
77.500000000000099
 21
-437.5
 31
0.0
  0
LINE
  5
A1
  8
DATA
  6
CONTINUOUS
 62
     7
 10
-867.5
 20
-433.49999999999989
 30
0.0
 11
77.500000000000099
 21
-433.49999999999989
 31
0.0
  0
LINE
  5
A2
  8
DATA
  6
CONTINUOUS
 62
     7
 10
-867.5
 20
-363.5
 30
0.0
 11
77.500000000000099
 21
-363.5
 31
0.0
  0
LINE
  5
A3
  8
DATA
  6
CONTINUOUS
 62
     7
 10
-867.5
 20
-31.5
 30
0.0
 11
77.500000000000099
 21
-31.5
 31
0.0
  0
LINE
  5
A4
  8
DATA
  6
CONTINUOUS
 62
     7
 10
-867.5
 20
-24.5
 30
0.0
 11
77.500000000000099
 21
-24.5
 31
0.0
  0
LINE
  5
A5
  8
DATA
  6
CONTINUOUS
 62
     7
 10
-912.5
 20
-363.50000000000091
 30
0.0
 11
-912.5
 21
47.5
 31
0.0
  0
LINE
  5
A6
  8
DATA
  6
CONTINUOUS
 62
     7
 10
-867.5
 20
196.5
 30
0.0
 11
77.500000000000099
 21
196.5
 31
0.0
  0
LINE
  5
A7
  8
DATA
  6
CONTINUOUS
 62
     7
 10
122.5000000000001
 20
47.5
 30
0.0
 11
122.5000000000001
 21
-363.4999999999996
 31
0.0
  0
LINE
  5
A8
  8
DATA
  6
CONTINUOUS
 62
     7
 10
-902.5
 20
-28.0
 30
0.0
 11
-867.5
 21
-28.0
 31
0.0
  0
LINE
  5
A9
  8
DATA
  6
CONTINUOUS
 62
     7
 10
77.500000000000099
 20
-28.0
 30
0.0
 11
112.5000000000001
 21
-28.0
 31
0.0
  0
LINE
  5
AA
  8
DATA
  6
CONTINUOUS
 62
     7
 10
-902.5
 20
-28.0
 30
0.0
 11
-902.5
 21
261.5
 31
0.0
  0
LINE
  5
AB
  8
DATA
  6
CONTINUOUS
 62
     7
 10
112.5000000000001
 20
-28.0
 30
0.0
 11
112.5000000000001
 21
261.5
 31
0.0
  0
LINE
  5
AC
  8
DATA
  6
CONTINUOUS
 62
     7
 10
-912.5
 20
47.5
 30
0.0
 11
-902.5
 21
47.5
 31
0.0
  0
LINE
  5
AD
  8
DATA
  6
CONTINUOUS
 62
     7
 10
112.5000000000001
 20
47.5
 30
0.0
 11
122.5000000000001
 21
47.5
 31
0.0
  0
LINE
  5
AE
  8
DATA
  6
CONTINUOUS
 62
     7
 10
100.5000000000001
 20
-437.5
 30
0.0
 11
77.500000000000099
 21
-437.5
 31
0.0
  0
ARC
  5
AF
  8
DATA
  6
CONTINUOUS
 62
     7
 10
-735.68098159509645
 20
-351.20245398773142
 30
0.0
 40
177.2461421515217
 50
183.97844487213021
 51
209.13569787914309
  0
ARC
  5
B0
  8
DATA
  6
CONTINUOUS
 62
     7
 10
-54.319018404903332
 20
-351.20245398773142
 30
0.0
 40
177.2461421515217
 50
330.86430212085691
 51
356.0215551278697
  0
LINE
  5
B1
  8
DATA
  6
CONTINUOUS
 62
     7
 10
449.5
 20
-1025.0
 30
0.0
 11
1082.5
 21
-1025.0
 31
0.0
  0
LINE
  5
B2
  8
DATA
  6
CONTINUOUS
 62
     7
 10
449.5
 20
-1001.5
 30
0.0
 11
464.5
 21
-1001.5
 31
0.0
  0
LINE
  5
B3
  8
DATA
  6
CONTINUOUS
 62
     7
 10
464.5
 20
-1001.5
 30
0.0
 11
810.18414595865374
 21
-990.157238960732
 31
0.0
  0
LINE
  5
B4
  8
DATA
  6
CONTINUOUS
 62
     7
 10
377.5
 20
-954.41842288309545
 30
0.0
 11
377.5
 21
-952.60224229565915
 31
0.0
  0
LINE
  5
B5
  8
DATA
  6
CONTINUOUS
 62
     7
 10
-867.5
 20
287.5
 30
0.0
 11
77.500000000000099
 21
287.5
 31
0.0
  0
LINE
  5
B6
  8
DATA
  6
CONTINUOUS
 62
     7
 10
1087.5
 20
-1020.0
 30
0.0
 11
1087.5
 21
-932.0
 31
0.0
  0
LINE
  5
B7
  8
DATA
  6
CONTINUOUS
 62
     7
 10
449.5
 20
-1025.0
 30
0.0
 11
449.5
 21
-1001.5
 31
0.0
  0
LINE
  5
B8
  8
DATA
  6
CONTINUOUS
 62
     7
 10
477.5
 20
-1025.0
 30
0.0
 11
449.5
 21
-1025.0
 31
0.0
  0
LINE
  5
B9
  8
DATA
  6
CONTINUOUS
 62
     7
 10
385.09236694102481
 20
-944.61263433974364
 30
0.0
 11
857.24522933814058
 21
-920.52320258478869
 31
0.0
  0
ARC
  5
BA
  8
DATA
  6
CONTINUOUS
 62
     7
 10
385.5
 20
-952.60224229565915
 30
0.0
 40
8.0000000000001048
 50
92.920721521000516
 51
180.0
  0
ARC
  5
BB
  8
DATA
  6
CONTINUOUS
 62
     7
 10
480.33752164613952
 20
-868.61526017962206
 30
0.0
 40
136.41593315447301
 50
222.74502117428241
 51
256.93506858672242
  0
ARC
  5
BC
  8
DATA
  6
CONTINUOUS
 62
     7
 10
387.5
 20
-954.41842288309545
 30
0.0
 40
10.0
 50
180.0
 51
222.7450211742819
  0
ARC
  5
BD
  8
DATA
  6
CONTINUOUS
 62
     7
 10
857.50000000000011
 20
-925.51670755723603
 30
0.0
 40
5.0
 50
0.0
 51
92.920721521000203
  0
LINE
  5
BE
  8
DATA
  6
CONTINUOUS
 62
     7
 10
787.93181310088301
 20
-922.85736298861832
 30
0.0
 11
994.68713082672548
 21
-645.5499999999804
 31
0.0
  0
LINE
  5
BF
  8
DATA
  6
CONTINUOUS
 62
     7
 10
817.84255255617609
 20
-986.18076814994095
 30
0.0
 11
862.09182522078413
 21
-927.4599999999034
 31
0.0
  0
LINE
  5
C0
  8
DATA
  6
CONTINUOUS
 62
     7
 10
787.93181310088301
 20
-922.85736298861832
 30
0.0
 11
868.66404359732257
 21
-918.73837163675933
 31
0.0
  0
ARC
  5
C1
  8
DATA
  6
CONTINUOUS
 62
     7
 10
858.17445297664653
 20
-925.6226704469085
 30
0.0
 40
4.3268447147116387
 50
334.87243993607649
 51
1.403293575272357
  0
LINE
  5
C2
  8
DATA
  6
CONTINUOUS
 62
     7
 10
1060.5
 20
-770.0
 30
0.0
 11
1087.5
 21
-932.0
 31
0.0
  0
LINE
  5
C3
  8
DATA
  6
CONTINUOUS
 62
     7
 10
1060.5
 20
-770.0
 30
0.0
 11
1087.5
 21
-705.0
 31
0.0
  0
LINE
  5
C4
  8
DATA
  6
CONTINUOUS
 62
     7
 10
868.66404359732257
 20
-918.73837163675933
 30
0.0
 11
1074.30968738503
 21
-658.72403239404332
 31
0.0
  0
LINE
  5
C5
  8
DATA
  6
CONTINUOUS
 62
     7
 10
1087.5
 20
-705.0
 30
0.0
 11
1063.018807975956
 21
-673.0
 31
0.0
  0
ARC
  5
C6
  8
DATA
  6
CONTINUOUS
 62
     7
 10
1019.2313126140911
 20
-632.9945100903866
 30
0.0
 40
10.000000000000041
 50
63.880371238126358
 51
90.981596990095255
  0
ARC
  5
C7
  8
DATA
  6
CONTINUOUS
 62
     7
 10
1066.4663080463031
 20
-652.52069453859497
 30
0.0
 40
10.0
 50
321.6594866389126
 51
63.880371238126109
  0
LINE
  5
C8
  8
DATA
  6
CONTINUOUS
 62
     7
 10
1070.8687760080791
 20
-643.54192648025116
 30
0.0
 11
1023.633780575867
 21
-624.01574203204279
 31
0.0
  0
CIRCLE
  5
C9
  8
DATA
  6
CONTINUOUS
 62
     7
 10
773.5
 20
-1010.0
 30
0.0
 40
4.6499999999999764
  0
CIRCLE
  5
CA
  8
DATA
  6
CONTINUOUS
 62
     7
 10
773.5
 20
-1010.0
 30
0.0
 40
1.5297058540778481
  0
POLYLINE
  5
CB
  8
DATA
  6
CONTINUOUS
 62
     7
 66
     1
 10
0.0
 20
0.0
 30
0.0
  0
VERTEX
  5
250
  8
DATA
  6
CONTINUOUS
 62
     7
 10
1054.5
 20
-1025.0
 30
0.0
  0
VERTEX
  5
251
  8
DATA
  6
CONTINUOUS
 62
     7
 10
1054.5
 20
-1032.5
 30
0.0
  0
VERTEX
  5
252
  8
DATA
  6
CONTINUOUS
 62
     7
 10
1034.5
 20
-1032.5
 30
0.0
  0
VERTEX
  5
253
  8
DATA
  6
CONTINUOUS
 62
     7
 10
1034.5
 20
-1025.0
 30
0.0
  0
SEQEND
  5
254
  8
DATA
  6
CONTINUOUS
 62
     7
  0
POLYLINE
  5
D2
  8
DATA
  6
CONTINUOUS
 62
     7
 66
     1
 10
0.0
 20
0.0
 30
0.0
  0
VERTEX
  5
255
  8
DATA
  6
CONTINUOUS
 62
     7
 10
507.5
 20
-1025.0
 30
0.0
  0
VERTEX
  5
256
  8
DATA
  6
CONTINUOUS
 62
     7
 10
507.5
 20
-1032.5
 30
0.0
  0
VERTEX
  5
257
  8
DATA
  6
CONTINUOUS
 62
     7
 10
487.5
 20
-1032.5
 30
0.0
  0
VERTEX
  5
258
  8
DATA
  6
CONTINUOUS
 62
     7
 10
487.5
 20
-1025.0
 30
0.0
  0
SEQEND
  5
259
  8
DATA
  6
CONTINUOUS
 62
     7
  0
LINE
  5
D9
  8
DATA
  6
CONTINUOUS
 62
     7
 10
-912.5
 20
-623.0
 30
0.0
 11
-912.5
 21
-1001.5
 31
0.0
  0
LINE
  5
DA
  8
DATA
  6
CONTINUOUS
 62
     7
 10
122.5000000000001
 20
-623.0
 30
0.0
 11
122.5000000000001
 21
-1001.5
 31
0.0
  0
LINE
  5
DB
  8
DATA
  6
CONTINUOUS
 62
     7
 10
77.500000000000099
 20
-1025.0
 30
0.0
 11
-867.5
 21
-1025.0
 31
0.0
  0
LINE
  5
DC
  8
DATA
  6
CONTINUOUS
 62
     7
 10
-867.5
 20
-623.0
 30
0.0
 11
-867.5
 21
-1025.0
 31
0.0
  0
LINE
  5
DD
  8
DATA
  6
CONTINUOUS
 62
     7
 10
77.500000000000099
 20
-623.0
 30
0.0
 11
77.500000000000099
 21
-1025.0
 31
0.0
  0
LINE
  5
DE
  8
DATA
  6
CONTINUOUS
 62
     7
 10
122.5000000000001
 20
-1001.5
 30
0.0
 11
-912.5
 21
-1001.5
 31
0.0
  0
POLYLINE
  5
DF
  8
DATA
  6
CONTINUOUS
 62
     7
 66
     1
 10
0.0
 20
0.0
 30
0.0
  0
VERTEX
  5
25A
  8
DATA
  6
CONTINUOUS
 62
     7
 10
64.499999999999986
 20
-1025.0
 30
0.0
  0
VERTEX
  5
25B
  8
DATA
  6
CONTINUOUS
 62
     7
 10
64.499999999999986
 20
-1032.5
 30
0.0
  0
VERTEX
  5
25C
  8
DATA
  6
CONTINUOUS
 62
     7
 10
44.499999999999993
 20
-1032.5
 30
0.0
  0
VERTEX
  5
25D
  8
DATA
  6
CONTINUOUS
 62
     7
 10
44.499999999999993
 20
-1025.0
 30
0.0
  0
SEQEND
  5
25E
  8
DATA
  6
CONTINUOUS
 62
     7
  0
POLYLINE
  5
E6
  8
DATA
  6
CONTINUOUS
 62
     7
 66
     1
 10
0.0
 20
0.0
 30
0.0
  0
VERTEX
  5
25F
  8
DATA
  6
CONTINUOUS
 62
     7
 10
-380.5
 20
-1025.0
 30
0.0
  0
VERTEX
  5
260
  8
DATA
  6
CONTINUOUS
 62
     7
 10
-380.5
 20
-1032.5
 30
0.0
  0
VERTEX
  5
261
  8
DATA
  6
CONTINUOUS
 62
     7
 10
-400.49999999999989
 20
-1032.5
 30
0.0
  0
VERTEX
  5
262
  8
DATA
  6
CONTINUOUS
 62
     7
 10
-400.49999999999989
 20
-1025.0
 30
0.0
  0
SEQEND
  5
263
  8
DATA
  6
CONTINUOUS
 62
     7
  0
POLYLINE
  5
ED
  8
DATA
  6
CONTINUOUS
 62
     7
 66
     1
 10
0.0
 20
0.0
 30
0.0
  0
VERTEX
  5
264
  8
DATA
  6
CONTINUOUS
 62
     7
 10
-834.5
 20
-1025.0
 30
0.0
  0
VERTEX
  5
265
  8
DATA
  6
CONTINUOUS
 62
     7
 10
-834.5
 20
-1032.5
 30
0.0
  0
VERTEX
  5
266
  8
DATA
  6
CONTINUOUS
 62
     7
 10
-854.49999999999989
 20
-1032.5
 30
0.0
  0
VERTEX
  5
267
  8
DATA
  6
CONTINUOUS
 62
     7
 10
-854.49999999999989
 20
-1025.0
 30
0.0
  0
SEQEND
  5
268
  8
DATA
  6
CONTINUOUS
 62
     7
  0
LINE
  5
F4
  8
DATA
  6
CONTINUOUS
 62
     7
 10
122.5000000000001
 20
-944.8562756032444
 30
0.0
 11
77.500000000000099
 21
-944.8562756032444
 31
0.0
  0
LINE
  5
F5
  8
DATA
  6
CONTINUOUS
 62
     7
 10
-867.5
 20
-944.8562756032444
 30
0.0
 11
-912.5
 21
-944.8562756032444
 31
0.0
  0
LINE
  5
F6
  8
DATA
  6
CONTINUOUS
 62
     7
 10
122.5000000000001
 20
-623.0
 30
0.0
 11
77.500000000000099
 21
-623.0
 31
0.0
  0
LINE
  5
F7
  8
DATA
  6
CONTINUOUS
 62
     7
 10
-867.5
 20
-623.0
 30
0.0
 11
-912.5
 21
-623.0
 31
0.0
  0
LINE
  5
F8
  8
DATA
  6
CONTINUOUS
 62
     7
 10
-867.5
 20
-949.85627560324451
 30
0.0
 11
77.500000000000099
 21
-949.85627560324451
 31
0.0
  0
LINE
  5
F9
  8
DATA
  6
CONTINUOUS
 62
     7
 10
77.500000000000099
 20
-922.85736298861832
 30
0.0
 11
-867.5
 21
-922.85736298861832
 31
0.0
  0
LINE
  5
FA
  8
DATA
  6
CONTINUOUS
 62
     7
 10
-867.5
 20
-624.0
 30
0.0
 11
77.500000000000099
 21
-624.0
 31
0.0
  0
LINE
  5
FB
  8
DATA
  6
CONTINUOUS
 62
     7
 10
-867.5
 20
-629.0
 30
0.0
 11
77.500000000000099
 21
-629.0
 31
0.0
  0
CIRCLE
  5
FC
  8
DATA
  6
CONTINUOUS
 62
     7
 10
52.500000000000099
 20
-1015.0
 30
0.0
 40
4.25
  0
POLYLINE
  5
FD
  8
DATA
  6
CONTINUOUS
 62
     7
 66
     1
 10
0.0
 20
0.0
 30
0.0
 70
     1
  0
VERTEX
  5
269
  8
DATA
  6
CONTINUOUS
 62
     7
 10
52.500000000000099
 20
-1008.5
 30
0.0
  0
VERTEX
  5
26A
  8
DATA
  6
CONTINUOUS
 62
     7
 10
46.87083487540125
 20
-1011.75
 30
0.0
  0
VERTEX
  5
26B
  8
DATA
  6
CONTINUOUS
 62
     7
 10
46.870834875401243
 20
-1018.25
 30
0.0
  0
VERTEX
  5
26C
  8
DATA
  6
CONTINUOUS
 62
     7
 10
52.500000000000099
 20
-1021.5
 30
0.0
  0
VERTEX
  5
26D
  8
DATA
  6
CONTINUOUS
 62
     7
 10
58.129165124598948
 20
-1018.25
 30
0.0
  0
VERTEX
  5
26E
  8
DATA
  6
CONTINUOUS
 62
     7
 10
58.129165124598948
 20
-1011.75
 30
0.0
  0
SEQEND
  5
26F
  8
DATA
  6
CONTINUOUS
 62
     7
  0
LINE
  5
106
  8
DATA
  6
CONTINUOUS
 62
     7
 10
-912.5
 20
412.50000000025369
 30
0.0
 11
-912.5
 21
791.00000000025375
 31
0.0
  0
LINE
  5
107
  8
DATA
  6
CONTINUOUS
 62
     7
 10
122.5000000000001
 20
412.50000000025369
 30
0.0
 11
122.5000000000001
 21
791.00000000025375
 31
0.0
  0
LINE
  5
108
  8
DATA
  6
CONTINUOUS
 62
     7
 10
77.500000000000099
 20
814.50000000025375
 30
0.0
 11
-867.5
 21
814.50000000025375
 31
0.0
  0
LINE
  5
109
  8
DATA
  6
CONTINUOUS
 62
     7
 10
-867.5
 20
412.50000000025369
 30
0.0
 11
-867.5
 21
814.50000000025375
 31
0.0
  0
LINE
  5
10A
  8
DATA
  6
CONTINUOUS
 62
     7
 10
77.500000000000099
 20
412.50000000025369
 30
0.0
 11
77.500000000000099
 21
814.50000000025375
 31
0.0
  0
LINE
  5
10B
  8
DATA
  6
CONTINUOUS
 62
     7
 10
122.5000000000001
 20
791.00000000025375
 30
0.0
 11
77.500000000000099
 21
791.00000000025375
 31
0.0
  0
LINE
  5
10C
  8
DATA
  6
CONTINUOUS
 62
     7
 10
-867.5
 20
791.00000000025375
 30
0.0
 11
-912.5
 21
791.00000000025375
 31
0.0
  0
POLYLINE
  5
10D
  8
DATA
  6
CONTINUOUS
 62
     7
 66
     1
 10
0.0
 20
0.0
 30
0.0
  0
VERTEX
  5
270
  8
DATA
  6
CONTINUOUS
 62
     7
 10
64.499999999999986
 20
814.50000000025375
 30
0.0
  0
VERTEX
  5
271
  8
DATA
  6
CONTINUOUS
 62
     7
 10
64.499999999999986
 20
822.00000000025375
 30
0.0
  0
VERTEX
  5
272
  8
DATA
  6
CONTINUOUS
 62
     7
 10
44.499999999999993
 20
822.00000000025375
 30
0.0
  0
VERTEX
  5
273
  8
DATA
  6
CONTINUOUS
 62
     7
 10
44.499999999999993
 20
814.50000000025375
 30
0.0
  0
SEQEND
  5
274
  8
DATA
  6
CONTINUOUS
 62
     7
  0
POLYLINE
  5
114
  8
DATA
  6
CONTINUOUS
 62
     7
 66
     1
 10
0.0
 20
0.0
 30
0.0
  0
VERTEX
  5
275
  8
DATA
  6
CONTINUOUS
 62
     7
 10
-380.5
 20
814.50000000025375
 30
0.0
  0
VERTEX
  5
276
  8
DATA
  6
CONTINUOUS
 62
     7
 10
-380.5
 20
822.00000000025375
 30
0.0
  0
VERTEX
  5
277
  8
DATA
  6
CONTINUOUS
 62
     7
 10
-400.49999999999989
 20
822.00000000025375
 30
0.0
  0
VERTEX
  5
278
  8
DATA
  6
CONTINUOUS
 62
     7
 10
-400.49999999999989
 20
814.50000000025375
 30
0.0
  0
SEQEND
  5
279
  8
DATA
  6
CONTINUOUS
 62
     7
  0
POLYLINE
  5
11B
  8
DATA
  6
CONTINUOUS
 62
     7
 66
     1
 10
0.0
 20
0.0
 30
0.0
  0
VERTEX
  5
27A
  8
DATA
  6
CONTINUOUS
 62
     7
 10
-834.5
 20
814.50000000025375
 30
0.0
  0
VERTEX
  5
27B
  8
DATA
  6
CONTINUOUS
 62
     7
 10
-834.5
 20
822.00000000025375
 30
0.0
  0
VERTEX
  5
27C
  8
DATA
  6
CONTINUOUS
 62
     7
 10
-854.49999999999989
 20
822.00000000025375
 30
0.0
  0
VERTEX
  5
27D
  8
DATA
  6
CONTINUOUS
 62
     7
 10
-854.49999999999989
 20
814.50000000025375
 30
0.0
  0
SEQEND
  5
27E
  8
DATA
  6
CONTINUOUS
 62
     7
  0
LINE
  5
122
  8
DATA
  6
CONTINUOUS
 62
     7
 10
122.5000000000001
 20
734.35627560349815
 30
0.0
 11
77.500000000000099
 21
734.35627560349815
 31
0.0
  0
LINE
  5
123
  8
DATA
  6
CONTINUOUS
 62
     7
 10
-867.5
 20
734.35627560349815
 30
0.0
 11
-912.5
 21
734.35627560349815
 31
0.0
  0
LINE
  5
124
  8
DATA
  6
CONTINUOUS
 62
     7
 10
122.5000000000001
 20
412.50000000025369
 30
0.0
 11
77.500000000000099
 21
412.50000000025369
 31
0.0
  0
LINE
  5
125
  8
DATA
  6
CONTINUOUS
 62
     7
 10
-867.5
 20
412.50000000025369
 30
0.0
 11
-912.5
 21
412.50000000025369
 31
0.0
  0
LINE
  5
126
  8
DATA
  6
CONTINUOUS
 62
     7
 10
-867.5
 20
413.50000000025369
 30
0.0
 11
77.500000000000099
 21
413.50000000025369
 31
0.0
  0
LINE
  5
127
  8
DATA
  6
CONTINUOUS
 62
     7
 10
-867.5
 20
418.50000000025369
 30
0.0
 11
77.500000000000099
 21
418.50000000025369
 31
0.0
  0
LINE
  5
128
  8
DATA
  6
CONTINUOUS
 62
     7
 10
77.500000000000099
 20
559.50000000025375
 30
0.0
 11
-867.5
 21
559.50000000025375
 31
0.0
  0
LINE
  5
129
  8
DATA
  6
CONTINUOUS
 62
     7
 10
77.500000000000099
 20
722.50000000025375
 30
0.0
 11
-867.5
 21
722.50000000025375
 31
0.0
  0
LINE
  5
12A
  8
DATA
  6
CONTINUOUS
 62
     7
 10
-902.5
 20
261.5
 30
0.0
 11
112.5000000000001
 21
261.5
 31
0.0
  0
ARC
  5
12B
  8
DATA
  6
CONTINUOUS
 62
     7
 10
1011.385449163699
 20
-638.04413164880918
 30
0.0
 40
15.0
 50
90.0
 51
184.99437206335091
  0
LINE
  5
12C
  8
DATA
  6
CONTINUOUS
 62
     7
 10
1019.0599999999999
 20
-622.99597759865139
 30
0.0
 11
1011.385449163699
 21
-623.0441316488093
 31
0.0
  0
ARC
  5
12D
  8
DATA
  6
CONTINUOUS
 62
     7
 10
982.19544673614155
 20
-638.66503904385445
 30
0.0
 40
14.26340978820385
 50
331.1380478838106
 51
357.24746940803118
  0
LINE
  5
12E
  8
DATA
  6
CONTINUOUS
 62
     7
 10
1072.0130226049771
 20
-644.20000000000005
 30
0.0
 11
1103.5
 21
-662.37901487498436
 31
0.0
  0
LINE
  5
12F
  8
DATA
  6
CONTINUOUS
 62
     7
 10
1103.5
 20
-662.37901487498436
 30
0.0
 11
1074.30968738503
 21
-658.72403239404332
 31
0.0
  0
ARC
  5
130
  8
DATA
  6
CONTINUOUS
 62
     7
 10
809.85619745570284
 20
-980.16261791842055
 30
0.0
 40
10.000000000000011
 50
271.87934348739373
 51
323.00000000000068
  0
ARC
  5
131
  8
DATA
  6
CONTINUOUS
 62
     7
 10
1082.5
 20
-1020.0
 30
0.0
 40
5.0
 50
270.0
 51
0.0
  0
TEXT
  5
132
  8
DATA
 62
     7
 10
818.83589281783202
 20
-1480.4498215465039
 30
0.0
 40
36.64892578125
  1
Soundcraft
 41
0.7
 11
818.83589281783202
 21
-1443.8008957652539
 31
0.0
 73
     3
  0
LINE
  5
133
  8
DATA
  6
CONTINUOUS
 62
     7
 10
-825.5
 20
-363.5
 30
0.0
 11
-825.5
 21
-31.5
 31
0.0
  0
LINE
  5
134
  8
DATA
  6
CONTINUOUS
 62
     7
 10
-796.49999999999989
 20
-363.5
 30
0.0
 11
-796.49999999999989
 21
-31.5
 31
0.0
  0
LINE
  5
135
  8
DATA
  6
CONTINUOUS
 62
     7
 10
-767.49999999999989
 20
-363.5
 30
0.0
 11
-767.49999999999989
 21
-31.5
 31
0.0
  0
LINE
  5
136
  8
DATA
  6
CONTINUOUS
 62
     7
 10
-738.49999999999989
 20
-363.5
 30
0.0
 11
-738.49999999999989
 21
-31.5
 31
0.0
  0
LINE
  5
137
  8
DATA
  6
CONTINUOUS
 62
     7
 10
-709.49999999999977
 20
-363.5
 30
0.0
 11
-709.49999999999977
 21
-31.5
 31
0.0
  0
LINE
  5
138
  8
DATA
  6
CONTINUOUS
 62
     7
 10
-680.49999999999977
 20
-363.5
 30
0.0
 11
-680.49999999999977
 21
-31.5
 31
0.0
  0
LINE
  5
139
  8
DATA
  6
CONTINUOUS
 62
     7
 10
-651.49999999999977
 20
-363.5
 30
0.0
 11
-651.49999999999977
 21
-31.5
 31
0.0
  0
LINE
  5
13A
  8
DATA
  6
CONTINUOUS
 62
     7
 10
-622.49999999999977
 20
-363.5
 30
0.0
 11
-622.49999999999977
 21
-31.5
 31
0.0
  0
LINE
  5
13B
  8
DATA
  6
CONTINUOUS
 62
     7
 10
-593.49999999999977
 20
-363.5
 30
0.0
 11
-593.49999999999977
 21
-31.5
 31
0.0
  0
LINE
  5
13C
  8
DATA
  6
CONTINUOUS
 62
     7
 10
-564.49999999999977
 20
-363.5
 30
0.0
 11
-564.49999999999977
 21
-31.5
 31
0.0
  0
LINE
  5
13D
  8
DATA
  6
CONTINUOUS
 62
     7
 10
-535.49999999999977
 20
-363.5
 30
0.0
 11
-535.49999999999977
 21
-31.5
 31
0.0
  0
LINE
  5
13E
  8
DATA
  6
CONTINUOUS
 62
     7
 10
-506.49999999999989
 20
-363.5
 30
0.0
 11
-506.49999999999989
 21
-31.5
 31
0.0
  0
LINE
  5
13F
  8
DATA
  6
CONTINUOUS
 62
     7
 10
-477.49999999999989
 20
-363.5
 30
0.0
 11
-477.49999999999989
 21
-31.5
 31
0.0
  0
LINE
  5
140
  8
DATA
  6
CONTINUOUS
 62
     7
 10
-448.49999999999989
 20
-363.5
 30
0.0
 11
-448.49999999999989
 21
-31.5
 31
0.0
  0
LINE
  5
141
  8
DATA
  6
CONTINUOUS
 62
     7
 10
-419.49999999999989
 20
-363.5
 30
0.0
 11
-419.49999999999989
 21
-31.5
 31
0.0
  0
LINE
  5
142
  8
DATA
  6
CONTINUOUS
 62
     7
 10
-390.49999999999989
 20
-363.5
 30
0.0
 11
-390.49999999999989
 21
-31.5
 31
0.0
  0
LINE
  5
143
  8
DATA
  6
CONTINUOUS
 62
     7
 10
-361.49999999999989
 20
-363.5
 30
0.0
 11
-361.49999999999989
 21
-31.5
 31
0.0
  0
LINE
  5
144
  8
DATA
  6
CONTINUOUS
 62
     7
 10
-38.499999999999908
 20
-363.5
 30
0.0
 11
-38.499999999999908
 21
-31.5
 31
0.0
  0
LINE
  5
145
  8
DATA
  6
CONTINUOUS
 62
     7
 10
35.500000000000099
 20
-363.5
 30
0.0
 11
35.500000000000099
 21
-31.5
 31
0.0
  0
LINE
  5
146
  8
DATA
  6
CONTINUOUS
 62
     7
 10
-19.499999999999901
 20
-363.5
 30
0.0
 11
-19.499999999999901
 21
-31.5
 31
0.0
  0
LINE
  5
147
  8
DATA
  6
CONTINUOUS
 62
     7
 10
-67.499999999999901
 20
-363.5
 30
0.0
 11
-67.499999999999901
 21
-31.5
 31
0.0
  0
LINE
  5
148
  8
DATA
  6
CONTINUOUS
 62
     7
 10
-96.499999999999915
 20
-363.5
 30
0.0
 11
-96.499999999999915
 21
-31.5
 31
0.0
  0
LINE
  5
149
  8
DATA
  6
CONTINUOUS
 62
     7
 10
-125.4999999999999
 20
-363.5
 30
0.0
 11
-125.4999999999999
 21
-31.5
 31
0.0
  0
LINE
  5
14A
  8
DATA
  6
CONTINUOUS
 62
     7
 10
-154.4999999999998
 20
-363.5
 30
0.0
 11
-154.4999999999998
 21
-31.5
 31
0.0
  0
LINE
  5
14B
  8
DATA
  6
CONTINUOUS
 62
     7
 10
-183.49999999999989
 20
-363.5
 30
0.0
 11
-183.49999999999989
 21
-31.5
 31
0.0
  0
LINE
  5
14C
  8
DATA
  6
CONTINUOUS
 62
     7
 10
-212.49999999999989
 20
-363.5
 30
0.0
 11
-212.49999999999989
 21
-31.5
 31
0.0
  0
LINE
  5
14D
  8
DATA
  6
CONTINUOUS
 62
     7
 10
-241.49999999999989
 20
-363.5
 30
0.0
 11
-241.49999999999989
 21
-31.5
 31
0.0
  0
LINE
  5
14E
  8
DATA
  6
CONTINUOUS
 62
     7
 10
-270.49999999999989
 20
-363.5
 30
0.0
 11
-270.49999999999989
 21
-31.5
 31
0.0
  0
LINE
  5
14F
  8
DATA
  6
CONTINUOUS
 62
     7
 10
-829.49999999999989
 20
-24.5
 30
0.0
 11
-829.49999999999989
 21
-19.92820522464973
 31
0.0
  0
LINE
  5
150
  8
DATA
  6
CONTINUOUS
 62
     7
 10
-829.49999999999989
 20
-1.9282052246497301
 30
0.0
 11
-829.49999999999989
 21
97.5
 31
0.0
  0
LINE
  5
151
  8
DATA
  6
CONTINUOUS
 62
     7
 10
-829.49999999999989
 20
115.5
 30
0.0
 11
-829.49999999999989
 21
196.5
 31
0.0
  0
LINE
  5
152
  8
DATA
  6
CONTINUOUS
 62
     7
 10
-349.49999999999977
 20
-24.5
 30
0.0
 11
-349.49999999999977
 21
-19.92820522464973
 31
0.0
  0
LINE
  5
153
  8
DATA
  6
CONTINUOUS
 62
     7
 10
-349.49999999999977
 20
-1.9282052246497301
 30
0.0
 11
-349.49999999999977
 21
97.5
 31
0.0
  0
LINE
  5
154
  8
DATA
  6
CONTINUOUS
 62
     7
 10
-349.49999999999977
 20
115.5
 30
0.0
 11
-349.49999999999977
 21
196.5
 31
0.0
  0
LINE
  5
155
  8
DATA
  6
CONTINUOUS
 62
     7
 10
-854.49999999999989
 20
-19.92820522464973
 30
0.0
 11
-854.49999999999989
 21
-1.9282052246497301
 31
0.0
  0
LINE
  5
156
  8
DATA
  6
CONTINUOUS
 62
     7
 10
-854.49999999999989
 20
97.5
 30
0.0
 11
-854.49999999999989
 21
115.5
 31
0.0
  0
LINE
  5
157
  8
DATA
  6
CONTINUOUS
 62
     7
 10
-324.49999999999989
 20
-19.92820522464973
 30
0.0
 11
-324.49999999999989
 21
-1.9282052246497301
 31
0.0
  0
LINE
  5
158
  8
DATA
  6
CONTINUOUS
 62
     7
 10
-324.49999999999989
 20
97.5
 30
0.0
 11
-324.49999999999989
 21
115.5
 31
0.0
  0
LINE
  5
159
  8
DATA
  6
CONTINUOUS
 62
     7
 10
-854.49999999999989
 20
115.5
 30
0.0
 11
-324.49999999999989
 21
115.5
 31
0.0
  0
LINE
  5
15A
  8
DATA
  6
CONTINUOUS
 62
     7
 10
-854.49999999999989
 20
97.5
 30
0.0
 11
-324.49999999999989
 21
97.5
 31
0.0
  0
LINE
  5
15B
  8
DATA
  6
CONTINUOUS
 62
     7
 10
-854.49999999999989
 20
-1.9282052246497301
 30
0.0
 11
-324.49999999999989
 21
-1.9282052246497301
 31
0.0
  0
LINE
  5
15C
  8
DATA
  6
CONTINUOUS
 62
     7
 10
-854.49999999999989
 20
-19.92820522464973
 30
0.0
 11
-324.49999999999989
 21
-19.92820522464973
 31
0.0
  0
LINE
  5
15D
  8
DATA
  6
CONTINUOUS
 62
     7
 10
-829.49999999999989
 20
-900.01690601827772
 30
0.0
 11
-829.49999999999989
 21
-765.56896598988726
 31
0.0
  0
LINE
  5
15E
  8
DATA
  6
CONTINUOUS
 62
     7
 10
-829.49999999999989
 20
-747.56896598988737
 30
0.0
 11
-829.49999999999989
 21
-634.49999999999989
 31
0.0
  0
LINE
  5
15F
  8
DATA
  6
CONTINUOUS
 62
     7
 10
-349.49999999999977
 20
-900.01690601827772
 30
0.0
 11
-349.49999999999977
 21
-765.56896598988726
 31
0.0
  0
LINE
  5
160
  8
DATA
  6
CONTINUOUS
 62
     7
 10
-349.49999999999977
 20
-747.56896598988737
 30
0.0
 11
-349.49999999999977
 21
-634.49999999999989
 31
0.0
  0
LINE
  5
161
  8
DATA
  6
CONTINUOUS
 62
     7
 10
-854.49999999999989
 20
-918.0169060182775
 30
0.0
 11
-854.49999999999989
 21
-900.01690601827772
 31
0.0
  0
LINE
  5
162
  8
DATA
  6
CONTINUOUS
 62
     7
 10
-324.49999999999989
 20
-918.0169060182775
 30
0.0
 11
-324.49999999999989
 21
-900.01690601827772
 31
0.0
  0
LINE
  5
163
  8
DATA
  6
CONTINUOUS
 62
     7
 10
-854.49999999999989
 20
-900.01690601827772
 30
0.0
 11
-324.49999999999989
 21
-900.01690601827772
 31
0.0
  0
LINE
  5
164
  8
DATA
  6
CONTINUOUS
 62
     7
 10
-854.49999999999989
 20
-918.0169060182775
 30
0.0
 11
-324.49999999999989
 21
-918.0169060182775
 31
0.0
  0
LINE
  5
165
  8
DATA
  6
CONTINUOUS
 62
     7
 10
-854.49999999999989
 20
-765.56896598988726
 30
0.0
 11
-854.49999999999989
 21
-747.56896598988737
 31
0.0
  0
LINE
  5
166
  8
DATA
  6
CONTINUOUS
 62
     7
 10
-324.49999999999989
 20
-765.56896598988726
 30
0.0
 11
-324.49999999999989
 21
-747.56896598988737
 31
0.0
  0
LINE
  5
167
  8
DATA
  6
CONTINUOUS
 62
     7
 10
-854.49999999999989
 20
-747.56896598988737
 30
0.0
 11
-324.49999999999989
 21
-747.56896598988737
 31
0.0
  0
LINE
  5
168
  8
DATA
  6
CONTINUOUS
 62
     7
 10
-854.49999999999989
 20
-765.56896598988726
 30
0.0
 11
-324.49999999999989
 21
-765.56896598988726
 31
0.0
  0
LINE
  5
169
  8
DATA
  6
CONTINUOUS
 62
     7
 10
-829.49999999999989
 20
-634.49999999999989
 30
0.0
 11
-349.49999999999977
 21
-634.49999999999989
 31
0.0
  0
CIRCLE
  5
16A
  8
DATA
  6
CONTINUOUS
 62
     7
 10
-811.0
 20
106.5
 30
0.0
 40
5.5000000000000284
  0
CIRCLE
  5
16B
  8
DATA
  6
CONTINUOUS
 62
     7
 10
-811.0
 20
-10.92820522464973
 30
0.0
 40
5.5
  0
CIRCLE
  5
16C
  8
DATA
  6
CONTINUOUS
 62
     7
 10
-782.0
 20
106.5
 30
0.0
 40
5.5000000000000284
  0
CIRCLE
  5
16D
  8
DATA
  6
CONTINUOUS
 62
     7
 10
-782.0
 20
-10.92820522464973
 30
0.0
 40
5.5
  0
CIRCLE
  5
16E
  8
DATA
  6
CONTINUOUS
 62
     7
 10
-753.0
 20
106.5
 30
0.0
 40
5.5000000000000284
  0
CIRCLE
  5
16F
  8
DATA
  6
CONTINUOUS
 62
     7
 10
-753.0
 20
-10.92820522464973
 30
0.0
 40
5.5
  0
CIRCLE
  5
170
  8
DATA
  6
CONTINUOUS
 62
     7
 10
-724.0
 20
106.5
 30
0.0
 40
5.5000000000000284
  0
CIRCLE
  5
171
  8
DATA
  6
CONTINUOUS
 62
     7
 10
-724.0
 20
-10.92820522464973
 30
0.0
 40
5.5
  0
CIRCLE
  5
172
  8
DATA
  6
CONTINUOUS
 62
     7
 10
-695.0
 20
106.5
 30
0.0
 40
5.5000000000000284
  0
CIRCLE
  5
173
  8
DATA
  6
CONTINUOUS
 62
     7
 10
-695.0
 20
-10.92820522464973
 30
0.0
 40
5.5
  0
CIRCLE
  5
174
  8
DATA
  6
CONTINUOUS
 62
     7
 10
-666.0
 20
106.5
 30
0.0
 40
5.5000000000000284
  0
CIRCLE
  5
175
  8
DATA
  6
CONTINUOUS
 62
     7
 10
-666.0
 20
-10.92820522464973
 30
0.0
 40
5.5
  0
CIRCLE
  5
176
  8
DATA
  6
CONTINUOUS
 62
     7
 10
-637.0
 20
106.5
 30
0.0
 40
5.5000000000000284
  0
CIRCLE
  5
177
  8
DATA
  6
CONTINUOUS
 62
     7
 10
-637.0
 20
-10.92820522464973
 30
0.0
 40
5.5
  0
CIRCLE
  5
178
  8
DATA
  6
CONTINUOUS
 62
     7
 10
-608.0
 20
106.5
 30
0.0
 40
5.5000000000000284
  0
CIRCLE
  5
179
  8
DATA
  6
CONTINUOUS
 62
     7
 10
-608.0
 20
-10.92820522464973
 30
0.0
 40
5.5
  0
CIRCLE
  5
17A
  8
DATA
  6
CONTINUOUS
 62
     7
 10
-579.0
 20
106.5
 30
0.0
 40
5.5000000000000284
  0
CIRCLE
  5
17B
  8
DATA
  6
CONTINUOUS
 62
     7
 10
-579.0
 20
-10.92820522464973
 30
0.0
 40
5.5
  0
CIRCLE
  5
17C
  8
DATA
  6
CONTINUOUS
 62
     7
 10
-550.0
 20
106.5
 30
0.0
 40
5.5000000000000284
  0
CIRCLE
  5
17D
  8
DATA
  6
CONTINUOUS
 62
     7
 10
-550.0
 20
-10.92820522464973
 30
0.0
 40
5.5
  0
CIRCLE
  5
17E
  8
DATA
  6
CONTINUOUS
 62
     7
 10
-521.0
 20
106.5
 30
0.0
 40
5.5000000000000284
  0
CIRCLE
  5
17F
  8
DATA
  6
CONTINUOUS
 62
     7
 10
-521.0
 20
-10.92820522464973
 30
0.0
 40
5.5
  0
CIRCLE
  5
180
  8
DATA
  6
CONTINUOUS
 62
     7
 10
-492.0
 20
106.5
 30
0.0
 40
5.5000000000000284
  0
CIRCLE
  5
181
  8
DATA
  6
CONTINUOUS
 62
     7
 10
-492.0
 20
-10.92820522464973
 30
0.0
 40
5.5
  0
CIRCLE
  5
182
  8
DATA
  6
CONTINUOUS
 62
     7
 10
-463.0
 20
106.5
 30
0.0
 40
5.5000000000000284
  0
CIRCLE
  5
183
  8
DATA
  6
CONTINUOUS
 62
     7
 10
-463.0
 20
-10.92820522464973
 30
0.0
 40
5.5
  0
CIRCLE
  5
184
  8
DATA
  6
CONTINUOUS
 62
     7
 10
-434.0
 20
106.5
 30
0.0
 40
5.5000000000000284
  0
CIRCLE
  5
185
  8
DATA
  6
CONTINUOUS
 62
     7
 10
-434.0
 20
-10.92820522464973
 30
0.0
 40
5.5
  0
CIRCLE
  5
186
  8
DATA
  6
CONTINUOUS
 62
     7
 10
-405.0
 20
106.5
 30
0.0
 40
5.5000000000000284
  0
CIRCLE
  5
187
  8
DATA
  6
CONTINUOUS
 62
     7
 10
-405.0
 20
-10.92820522464973
 30
0.0
 40
5.5
  0
CIRCLE
  5
188
  8
DATA
  6
CONTINUOUS
 62
     7
 10
-376.0
 20
106.5
 30
0.0
 40
5.5000000000000284
  0
CIRCLE
  5
189
  8
DATA
  6
CONTINUOUS
 62
     7
 10
-376.0
 20
-10.92820522464973
 30
0.0
 40
5.5
  0
CIRCLE
  5
18A
  8
DATA
  6
CONTINUOUS
 62
     7
 10
-811.0
 20
-756.56896598988737
 30
0.0
 40
5.5
  0
CIRCLE
  5
18B
  8
DATA
  6
CONTINUOUS
 62
     7
 10
-782.0
 20
-756.56896598988737
 30
0.0
 40
5.5
  0
CIRCLE
  5
18C
  8
DATA
  6
CONTINUOUS
 62
     7
 10
-753.0
 20
-756.56896598988737
 30
0.0
 40
5.5
  0
CIRCLE
  5
18D
  8
DATA
  6
CONTINUOUS
 62
     7
 10
-724.0
 20
-756.56896598988737
 30
0.0
 40
5.5
  0
CIRCLE
  5
18E
  8
DATA
  6
CONTINUOUS
 62
     7
 10
-695.0
 20
-756.56896598988737
 30
0.0
 40
5.5
  0
CIRCLE
  5
18F
  8
DATA
  6
CONTINUOUS
 62
     7
 10
-666.0
 20
-756.56896598988737
 30
0.0
 40
5.5
  0
CIRCLE
  5
190
  8
DATA
  6
CONTINUOUS
 62
     7
 10
-637.0
 20
-756.56896598988737
 30
0.0
 40
5.5
  0
CIRCLE
  5
191
  8
DATA
  6
CONTINUOUS
 62
     7
 10
-608.0
 20
-756.56896598988737
 30
0.0
 40
5.5
  0
CIRCLE
  5
192
  8
DATA
  6
CONTINUOUS
 62
     7
 10
-579.0
 20
-756.56896598988737
 30
0.0
 40
5.5
  0
CIRCLE
  5
193
  8
DATA
  6
CONTINUOUS
 62
     7
 10
-550.0
 20
-756.56896598988737
 30
0.0
 40
5.5
  0
CIRCLE
  5
194
  8
DATA
  6
CONTINUOUS
 62
     7
 10
-521.0
 20
-756.56896598988737
 30
0.0
 40
5.5
  0
CIRCLE
  5
195
  8
DATA
  6
CONTINUOUS
 62
     7
 10
-492.0
 20
-756.56896598988737
 30
0.0
 40
5.5
  0
CIRCLE
  5
196
  8
DATA
  6
CONTINUOUS
 62
     7
 10
-463.0
 20
-756.56896598988737
 30
0.0
 40
5.5
  0
CIRCLE
  5
197
  8
DATA
  6
CONTINUOUS
 62
     7
 10
-434.0
 20
-756.56896598988737
 30
0.0
 40
5.5
  0
CIRCLE
  5
198
  8
DATA
  6
CONTINUOUS
 62
     7
 10
-405.0
 20
-756.56896598988737
 30
0.0
 40
5.5
  0
CIRCLE
  5
199
  8
DATA
  6
CONTINUOUS
 62
     7
 10
-376.0
 20
-756.56896598988737
 30
0.0
 40
5.5
  0
CIRCLE
  5
19A
  8
DATA
  6
CONTINUOUS
 62
     7
 10
-811.0
 20
-909.0169060182775
 30
0.0
 40
5.5
  0
CIRCLE
  5
19B
  8
DATA
  6
CONTINUOUS
 62
     7
 10
-782.0
 20
-909.0169060182775
 30
0.0
 40
5.5
  0
CIRCLE
  5
19C
  8
DATA
  6
CONTINUOUS
 62
     7
 10
-753.0
 20
-909.0169060182775
 30
0.0
 40
5.5
  0
CIRCLE
  5
19D
  8
DATA
  6
CONTINUOUS
 62
     7
 10
-724.0
 20
-909.0169060182775
 30
0.0
 40
5.5
  0
CIRCLE
  5
19E
  8
DATA
  6
CONTINUOUS
 62
     7
 10
-695.0
 20
-909.0169060182775
 30
0.0
 40
5.5
  0
CIRCLE
  5
19F
  8
DATA
  6
CONTINUOUS
 62
     7
 10
-666.0
 20
-909.0169060182775
 30
0.0
 40
5.5
  0
CIRCLE
  5
1A0
  8
DATA
  6
CONTINUOUS
 62
     7
 10
-637.0
 20
-909.0169060182775
 30
0.0
 40
5.5
  0
CIRCLE
  5
1A1
  8
DATA
  6
CONTINUOUS
 62
     7
 10
-608.0
 20
-909.0169060182775
 30
0.0
 40
5.5
  0
CIRCLE
  5
1A2
  8
DATA
  6
CONTINUOUS
 62
     7
 10
-579.0
 20
-909.0169060182775
 30
0.0
 40
5.5
  0
CIRCLE
  5
1A3
  8
DATA
  6
CONTINUOUS
 62
     7
 10
-550.0
 20
-909.0169060182775
 30
0.0
 40
5.5
  0
CIRCLE
  5
1A4
  8
DATA
  6
CONTINUOUS
 62
     7
 10
-521.0
 20
-909.0169060182775
 30
0.0
 40
5.5
  0
CIRCLE
  5
1A5
  8
DATA
  6
CONTINUOUS
 62
     7
 10
-492.0
 20
-909.0169060182775
 30
0.0
 40
5.5
  0
CIRCLE
  5
1A6
  8
DATA
  6
CONTINUOUS
 62
     7
 10
-463.0
 20
-909.0169060182775
 30
0.0
 40
5.5
  0
CIRCLE
  5
1A7
  8
DATA
  6
CONTINUOUS
 62
     7
 10
-434.0
 20
-909.0169060182775
 30
0.0
 40
5.5
  0
CIRCLE
  5
1A8
  8
DATA
  6
CONTINUOUS
 62
     7
 10
-405.0
 20
-909.0169060182775
 30
0.0
 40
5.5
  0
CIRCLE
  5
1A9
  8
DATA
  6
CONTINUOUS
 62
     7
 10
-376.0
 20
-909.0169060182775
 30
0.0
 40
5.5
  0
LINE
  5
1AA
  8
DATA
  6
CONTINUOUS
 62
     7
 10
77.500000000000099
 20
-363.5
 30
0.0
 11
77.500000000000099
 21
-31.5
 31
0.0
  0
LINE
  5
1AB
  8
DATA
  6
CONTINUOUS
 62
     7
 10
916.01411217976136
 20
-751.06896598988726
 30
0.0
 11
911.57925361772402
 21
-748.50849920527719
 31
0.0
  0
LINE
  5
1AC
  8
DATA
  6
CONTINUOUS
 62
     7
 10
794.15030586752539
 20
-914.51690601827772
 30
0.0
 11
789.71544730548806
 21
-911.95643923366731
 31
0.0
  0
LINE
  5
1AD
  8
DATA
  6
CONTINUOUS
 62
     7
 10
802.35170546425184
 20
-903.5169060182775
 30
0.0
 11
797.9168469022145
 21
-900.95643923366742
 31
0.0
  0
LINE
  5
1AE
  8
DATA
  6
CONTINUOUS
 62
     7
 10
907.83426369190852
 20
-762.04006089938275
 30
0.0
 11
903.39940512987118
 21
-759.47959411477279
 31
0.0
  0
LINE
  5
1AF
  8
DATA
  6
CONTINUOUS
 62
     7
 10
789.71544730548828
 20
-911.95643923366731
 30
0.0
 11
797.91684690221484
 21
-900.95643923366742
 31
0.0
  0
LINE
  5
1B0
  8
DATA
  6
CONTINUOUS
 62
     7
 10
903.39940512987141
 20
-759.47959411477245
 30
0.0
 11
911.57925361772402
 21
-748.50849920527719
 31
0.0
  0
LINE
  5
1B1
  8
DATA
  6
CONTINUOUS
 62
     7
 10
789.41413554977453
 20
-922.78173429224626
 30
0.0
 11
788.69895610732624
 21
-924.02046142309564
 31
0.0
  0
LINE
  5
1B2
  8
DATA
  6
CONTINUOUS
 62
     7
 10
862.44795386722842
 20
-926.29999999999995
 30
0.0
 11
868.66404359732257
 21
-918.73837163675933
 31
0.0
  0
ENDSEC
  0
EOF
