  0
SECTION
  2
HEADER
  9
$ACADVER
  1
AC1009
  9
$INSBASE
 10
0.0
 20
0.0
 30
0.0
  9
$EXTMIN
 10
9.9963383446405487
 20
2.381287252508741
 30
-0.0015258207003583
  9
$EXTMAX
 10
190.00579878222879
 20
270.00824037474621
 30
0.0000000349246037
  9
$LIMMIN
 10
0.0
 20
0.0
  9
$LIMMAX
 10
0.0
 20
0.0
  9
$ORTHOMODE
 70
     0
  9
$REGENMODE
 70
     1
  9
$FILLMODE
 70
     1
  9
$QTEXTMODE
 70
     0
  9
$MIRRTEXT
 70
     1
  9
$DRAGMODE
 70
     2
  9
$LTSCALE
 40
5.0800000000000001
  9
$OSMODE
 70
   231
  9
$ATTMODE
 70
     1
  9
$TEXTSIZE
 40
0.0
  9
$TRACEWID
 40
1.0
  9
$TEXTSTYLE
  7
STANDARD
  9
$CLAYER
  8
DATA
  9
$CELTYPE
  6
BYLAYER
  9
$CECOLOR
 62
   256
  9
$DIMSCALE
 40
1.0
  9
$DIMASZ
 40
0.18
  9
$DIMEXO
 40
0.0625
  9
$DIMDLI
 40
0.38
  9
$DIMRND
 40
0.0
  9
$DIMDLE
 40
0.0
  9
$DIMEXE
 40
0.18
  9
$DIMTP
 40
0.0
  9
$DIMTM
 40
0.0
  9
$DIMTXT
 40
0.18
  9
$DIMCEN
 40
0.09
  9
$DIMTSZ
 40
0.0
  9
$DIMTOL
 70
     0
  9
$DIMLIM
 70
     0
  9
$DIMTIH
 70
     1
  9
$DIMTOH
 70
     1
  9
$DIMSE1
 70
     0
  9
$DIMSE2
 70
     0
  9
$DIMTAD
 70
     0
  9
$DIMZIN
 70
     0
  9
$DIMBLK
  1

  9
$DIMASO
 70
     1
  9
$DIMSHO
 70
     1
  9
$DIMPOST
  1

  9
$DIMAPOST
  1

  9
$DIMALT
 70
     0
  9
$DIMALTD
 70
     2
  9
$DIMALTF
 40
25.399999999999999
  9
$DIMLFAC
 40
1.0
  9
$DIMTOFL
 70
     0
  9
$DIMTVP
 40
0.0
  9
$DIMTIX
 70
     0
  9
$DIMSOXD
 70
     0
  9
$DIMSAH
 70
     0
  9
$DIMBLK1
  1

  9
$DIMBLK2
  1

  9
$DIMSTYLE
  2
STANDARD
  9
$DIMCLRD
 70
     0
  9
$DIMCLRE
 70
     0
  9
$DIMCLRT
 70
     0
  9
$DIMTFAC
 40
1.0
  9
$DIMGAP
 40
0.09
  9
$LUNITS
 70
     2
  9
$LUPREC
 70
     4
  9
$SKETCHINC
 40
0.1
  9
$FILLETRAD
 40
0.0
  9
$AUNITS
 70
     0
  9
$AUPREC
 70
     0
  9
$MENU
  1
acad
  9
$ELEVATION
 40
0.0
  9
$PELEVATION
 40
0.0
  9
$THICKNESS
 40
0.0
  9
$LIMCHECK
 70
     0
  9
$BLIPMODE
 70
     0
  9
$CHAMFERA
 40
0.0
  9
$CHAMFERB
 40
0.0
  9
$SKPOLY
 70
     0
  9
$TDCREATE
 40
2455037.7146296301
  9
$TDUPDATE
 40
2455037.7322287038
  9
$TDINDWG
 40
0.000281331
  9
$TDUSRTIMER
 40
0.0002811458
  9
$USRTIMER
 70
     1
  9
$ANGBASE
 50
0.0
  9
$ANGDIR
 70
     0
  9
$PDMODE
 70
     1
  9
$PDSIZE
 40
-2.0
  9
$PLINEWID
 40
0.0
  9
$COORDS
 70
     0
  9
$SPLFRAME
 70
     0
  9
$SPLINETYPE
 70
     6
  9
$SPLINESEGS
 70
     8
  9
$ATTDIA
 70
     0
  9
$ATTREQ
 70
     1
  9
$HANDLING
 70
     1
  9
$HANDSEED
  5
1D1
  9
$SURFTAB1
 70
     6
  9
$SURFTAB2
 70
     6
  9
$SURFTYPE
 70
     6
  9
$SURFU
 70
     6
  9
$SURFV
 70
     6
  9
$UCSNAME
  2

  9
$UCSORG
 10
0.0
 20
0.0
 30
0.0
  9
$UCSXDIR
 10
1.0
 20
0.0
 30
0.0
  9
$UCSYDIR
 10
0.0
 20
1.0
 30
0.0
  9
$PUCSNAME
  2

  9
$PUCSORG
 10
0.0
 20
0.0
 30
0.0
  9
$PUCSXDIR
 10
1.0
 20
0.0
 30
0.0
  9
$PUCSYDIR
 10
0.0
 20
1.0
 30
0.0
  9
$USERI1
 70
     0
  9
$USERI2
 70
     0
  9
$USERI3
 70
     0
  9
$USERI4
 70
     0
  9
$USERI5
 70
     0
  9
$USERR1
 40
0.0
  9
$USERR2
 40
0.0
  9
$USERR3
 40
0.0
  9
$USERR4
 40
0.0
  9
$USERR5
 40
0.0
  9
$WORLDVIEW
 70
     1
  9
$SHADEDGE
 70
     3
  9
$SHADEDIF
 70
    70
  9
$TILEMODE
 70
     1
  9
$MAXACTVP
 70
    64
  9
$PLIMCHECK
 70
     0
  9
$PEXTMIN
 10
1.0000000000000000E+020
 20
1.0000000000000000E+020
 30
1.0000000000000000E+020
  9
$PEXTMAX
 10
-1.0000000000000000E+020
 20
-1.0000000000000000E+020
 30
-1.0000000000000000E+020
  9
$PLIMMIN
 10
0.0
 20
0.0
  9
$PLIMMAX
 10
12.0
 20
9.0
  9
$UNITMODE
 70
     0
  9
$VISRETAIN
 70
     0
  9
$PLINEGEN
 70
     1
  9
$PSLTSCALE
 70
     0
  0
ENDSEC
  0
SECTION
  2
TABLES
  0
TABLE
  2
VPORT
 70
     1
  0
VPORT
  2
*ACTIVE
 70
     0
 10
0.0
 20
0.0
 11
1.0
 21
1.0
 12
95.002899391114369
 22
135.0041201873731
 13
0.0
 23
0.0
 14
1.0
 24
1.0
 15
0.0
 25
0.0
 16
0.0
 26
0.0
 36
1.0
 17
0.0
 27
0.0
 37
0.0
 40
271.99847310478123
 41
1.964329643296433
 42
50.0
 43
0.0
 44
0.0
 50
0.0
 51
0.0
 71
     0
 72
  2000
 73
     1
 74
     1
 75
     0
 76
     0
 77
     0
 78
     0
  0
ENDTAB
  0
TABLE
  2
LTYPE
 70
    11
  0
LTYPE
  2
CONTINUOUS
 70
     0
  3
Solid line
 72
    65
 73
     0
 40
0.0
  0
LTYPE
  2
STYLE_01
 70
     0
  3

 72
    65
 73
     2
 40
0.4166412353515625
 49
0.208282470703125
 49
-0.2083587646484375
  0
ENDTAB
  0
TABLE
  2
LAYER
 70
     6
  0
LAYER
  2
0
 70
     0
 62
     7
  6
CONTINUOUS
  0
LAYER
  2
DATA
 70
     0
 62
     7
  6
CONTINUOUS
  0
LAYER
  2
HIBINO-BASE
 70
     0
 62
     7
  6
CONTINUOUS
  0
LAYER
  2
PATTERN_FILL
 70
     0
 62
     7
  6
CONTINUOUS
  0
LAYER
  2
SPEC
 70
     0
 62
     7
  6
CONTINUOUS
  0
LAYER
  2
DIMNSIONS
 70
     0
 62
     7
  6
CONTINUOUS
  0
ENDTAB
  0
TABLE
  2
STYLE
 70
     3
  0
STYLE
  2
STANDARD
 70
     0
 40
0.0
 41
1.0
 50
0.0
 71
     0
 42
0.0
  3
txt
  4
BIGFONT.SHX
  0
ENDTAB
  0
TABLE
  2
VIEW
 70
     0
  0
ENDTAB
  0
TABLE
  2
UCS
 70
     0
  0
ENDTAB
  0
TABLE
  2
APPID
 70
     3
  0
APPID
  2
ACAD
 70
     0
  0
APPID
  2
ACADANNOTATIVE
 70
     0
  0
APPID
  2
ACAD_MLEADERVER
 70
     0
  0
ENDTAB
  0
TABLE
  2
DIMSTYLE
 70
     2
  0
DIMSTYLE
  2
STANDARD
 70
     0
  3

  4

  5

  6

  7

 40
1.0
 41
0.18
 42
0.0625
 43
0.38
 44
0.18
 45
0.0
 46
0.0
 47
0.0
 48
0.0
140
0.18
141
0.09
142
0.0
143
25.399999999999999
144
1.0
145
0.0
146
1.0
147
0.09
 71
     0
 72
     0
 73
     1
 74
     1
 75
     0
 76
     0
 77
     0
 78
     0
170
     0
171
     2
172
     0
173
     0
174
     0
175
     0
176
     0
177
     0
178
     0
  0
ENDTAB
  0
ENDSEC
  0
SECTION
  2
BLOCKS
  0
BLOCK
  8
0
  2
$MODEL_SPACE
 70
     0
 10
0.0
 20
0.0
 30
0.0
  3
$MODEL_SPACE
  1

  0
ENDBLK
  5
16F
  8
0
  0
BLOCK
 67
     1
  8
0
  2
$PAPER_SPACE
 70
     0
 10
0.0
 20
0.0
 30
0.0
  3
$PAPER_SPACE
  1

  0
ENDBLK
  5
16B
 67
     1
  8
0
  0
ENDSEC
  0
SECTION
  2
ENTITIES
  0
LINE
  5
2D
  8
HIBINO-BASE
  6
CONTINUOUS
 62
     7
 10
10.0
 20
270.0
 30
0.0
 11
190.0
 21
270.0
 31
0.0
  0
LINE
  5
2E
  8
HIBINO-BASE
  6
CONTINUOUS
 62
     7
 10
190.0
 20
10.0
 30
0.0
 11
10.0
 21
10.0
 31
0.0
  0
LINE
  5
2F
  8
HIBINO-BASE
  6
CONTINUOUS
 62
     7
 10
10.0
 20
10.0
 30
0.0
 11
10.0
 21
270.0
 31
0.0
  0
TEXT
  5
30
  8
HIBINO-BASE
 62
     7
 10
17.18399999999999
 20
3.591322200000036
 30
0.0
 40
3.6000441796875
  1
Hibino Corporation
 41
0.7
 11
17.18399999999999
 21
7.191366379687536
 31
0.0
 73
     3
  0
LINE
  5
31
  8
HIBINO-BASE
  6
CONTINUOUS
 62
     7
 10
190.0
 20
270.0
 30
0.0
 11
190.0
 21
10.0
 31
0.0
  0
LINE
  5
32
  8
HIBINO-BASE
  6
CONTINUOUS
 62
     7
 10
100.0
 20
32.500000000000007
 30
0.0
 11
190.0
 21
32.500000000000007
 31
0.0
  0
LINE
  5
33
  8
HIBINO-BASE
  6
CONTINUOUS
 62
     7
 10
100.0
 20
10.0
 30
0.0
 11
100.0
 21
32.500000000000007
 31
0.0
  0
TEXT
  5
34
  8
HIBINO-BASE
 62
     7
 10
100.90000000000001
 20
29.991306666666681
 30
0.0
 40
1.6288411458333329
  1
NOTE
 41
0.7
 11
100.90000000000001
 21
31.620147812500011
 31
0.0
 73
     3
  0
LINE
  5
35
  8
HIBINO-BASE
  6
CONTINUOUS
 62
     7
 10
135.0
 20
10.0
 30
0.0
 11
135.0
 21
32.500000000000007
 31
0.0
  0
TEXT
  5
36
  8
HIBINO-BASE
 62
     7
 10
135.89999999999989
 20
29.991306666666681
 30
0.0
 40
1.6288411458333329
  1
TITLE
 41
0.7
 11
135.89999999999989
 21
31.620147812500011
 31
0.0
 73
     3
  0
TEXT
  5
37
  8
HIBINO-BASE
 62
     7
 10
150.06838999999991
 20
3.591322200000036
 30
0.0
 40
3.6000441796875
  1
ヒビノ株式会社
 41
0.7
 11
150.06838999999991
 21
7.191366379687536
 31
0.0
 73
     3
  0
LINE
  5
38
  8
HIBINO-BASE
  6
CONTINUOUS
 62
     7
 10
100.0
 20
20.000000000000011
 30
0.0
 11
190.0
 21
20.000000000000011
 31
0.0
  0
TEXT
  5
39
  8
HIBINO-BASE
 62
     7
 10
148.39999999999989
 20
17.54762666666667
 30
0.0
 40
1.6288411458333329
  1
DRAWN
 41
0.7
 11
148.39999999999989
 21
19.176467812500011
 31
0.0
 73
     3
  0
TEXT
  5
3A
  8
HIBINO-BASE
 62
     7
 10
123.39999999999991
 20
17.54762666666667
 30
0.0
 40
1.6288411458333329
  1
DATE
 41
0.7
 11
123.39999999999991
 21
19.176467812500011
 31
0.0
 73
     3
  0
TEXT
  5
3B
  8
HIBINO-BASE
 62
     7
 10
113.40000000000001
 20
17.54762666666667
 30
0.0
 40
1.6288411458333329
  1
SCALE
 41
0.7
 11
113.40000000000001
 21
19.176467812500011
 31
0.0
 73
     3
  0
TEXT
  5
3C
  8
HIBINO-BASE
 62
     7
 10
135.89999999999989
 20
17.54762666666667
 30
0.0
 40
1.6288411458333329
  1
DESIGN
 41
0.7
 11
135.89999999999989
 21
19.176467812500011
 31
0.0
 73
     3
  0
TEXT
  5
3D
  8
HIBINO-BASE
 62
     7
 10
173.39999999999989
 20
17.54762666666667
 30
0.0
 40
1.6288411458333329
  1
DRAWING NO.
 41
0.7
 11
173.39999999999989
 21
19.176467812500011
 31
0.0
 73
     3
  0
TEXT
  5
3E
  8
HIBINO-BASE
 62
     7
 10
160.89999999999989
 20
17.54762666666667
 30
0.0
 40
1.6288411458333329
  1
CHECK
 41
0.7
 11
160.89999999999989
 21
19.176467812500011
 31
0.0
 73
     3
  0
LINE
  5
3F
  8
HIBINO-BASE
  6
CONTINUOUS
 62
     7
 10
114.375
 20
11.25
 30
0.0
 11
118.125
 21
15.000000000000011
 31
0.0
  0
TEXT
  5
40
  8
HIBINO-BASE
 62
     7
 10
113.75
 20
13.891056666666669
 30
0.0
 40
1.6288411458333329
  1
1
 41
0.7
 11
113.75
 21
15.5198978125
 31
0.0
 73
     3
  0
LINE
  5
41
  8
HIBINO-BASE
  6
CONTINUOUS
 62
     7
 10
112.5
 20
10.0
 30
0.0
 11
112.5
 21
20.000000000000011
 31
0.0
  0
LINE
  5
42
  8
HIBINO-BASE
  6
CONTINUOUS
 62
     7
 10
122.5
 20
10.0
 30
0.0
 11
122.5
 21
20.000000000000011
 31
0.0
  0
LINE
  5
43
  8
HIBINO-BASE
  6
CONTINUOUS
 62
     7
 10
147.49999999999989
 20
20.000000000000011
 30
0.0
 11
147.49999999999989
 21
10.0
 31
0.0
  0
LINE
  5
44
  8
HIBINO-BASE
  6
CONTINUOUS
 62
     7
 10
172.5
 20
20.000000000000011
 30
0.0
 11
172.5
 21
10.0
 31
0.0
  0
LINE
  5
45
  8
HIBINO-BASE
  6
CONTINUOUS
 62
     7
 10
159.99999999999989
 20
10.0
 30
0.0
 11
159.99999999999989
 21
20.000000000000011
 31
0.0
  0
TEXT
  5
46
  8
HIBINO-BASE
 62
     7
 10
123.35654
 20
12.86364666666667
 30
0.0
 40
1.6288411458333329
  1
'09.07.
 41
0.7
 11
123.35654
 21
14.4924878125
 31
0.0
 73
     3
  0
TEXT
  5
47
  8
HIBINO-BASE
 62
     7
 10
117.5
 20
12.016056666666669
 30
0.0
 40
1.6288411458333329
  1
1
 41
0.7
 11
117.5
 21
13.6448978125
 31
0.0
 73
     3
  0
TEXT
  5
48
  8
HIBINO-BASE
 62
     7
 10
149.00581001103461
 20
12.86364666666667
 30
0.0
 40
1.6288411458333329
  1
N.Sasaki
 41
0.7
 11
149.00581001103461
 21
14.4924878125
 31
0.0
 73
     3
  0
TEXT
  5
49
  8
HIBINO-BASE
 62
     7
 10
103.8833333333333
 20
11.97600000000001
 30
0.0
 40
3.2576822916666659
  1
A4
 41
0.7
 11
103.8833333333333
 21
15.23368229166668
 31
0.0
 73
     3
  0
TEXT
  5
4A
  8
HIBINO-BASE
 62
     7
 10
100.9583333333333
 20
17.380545000000009
 30
0.0
 40
1.6288411458333329
  1
PAPER SIZE
 41
0.7
 11
100.9583333333333
 21
19.009386145833339
 31
0.0
 73
     3
  0
LINE
  5
4B
  8
PATTERN_FILL
  6
CONTINUOUS
 62
     7
 10
83.909401076758499
 20
123.0
 30
0.0
 11
85.339770502855458
 21
125.47747251959299
 31
0.0
  0
LINE
  5
4C
  8
PATTERN_FILL
  6
CONTINUOUS
 62
     7
 10
85.109401076758502
 20
123.0
 30
0.0
 11
86.812424264006822
 21
125.949722686782
 31
0.0
  0
LINE
  5
4D
  8
PATTERN_FILL
  6
CONTINUOUS
 62
     7
 10
86.309401076758519
 20
123.0
 30
0.0
 11
88.024592483366831
 21
125.9707986609511
 31
0.0
  0
LINE
  5
4E
  8
PATTERN_FILL
  6
CONTINUOUS
 62
     7
 10
87.509401076758493
 20
123.0
 30
0.0
 11
89.083711404022367
 21
125.7267854737013
 31
0.0
  0
LINE
  5
4F
  8
PATTERN_FILL
  6
CONTINUOUS
 62
     7
 10
88.709401076758496
 20
123.0
 30
0.0
 11
90.020923417924763
 21
125.2716233301616
 31
0.0
  0
LINE
  5
50
  8
PATTERN_FILL
  6
CONTINUOUS
 62
     7
 10
89.909401076758513
 20
123.0
 30
0.0
 11
90.842197916864791
 21
124.6156515202037
 31
0.0
  0
LINE
  5
51
  8
PATTERN_FILL
  6
CONTINUOUS
 62
     7
 10
91.109401076758488
 20
123.0
 30
0.0
 11
91.534380577844161
 21
123.7360860880556
 31
0.0
  0
LINE
  5
52
  8
PATTERN_FILL
  6
CONTINUOUS
 62
     7
 10
91.021539030917353
 20
123.0
 30
0.0
 11
89.563189328034667
 21
125.5259357805957
 31
0.0
  0
LINE
  5
53
  8
PATTERN_FILL
  6
CONTINUOUS
 62
     7
 10
89.821539030917364
 20
123.0
 30
0.0
 11
88.112497202988337
 21
125.96014727823341
 31
0.0
  0
LINE
  5
54
  8
PATTERN_FILL
  6
CONTINUOUS
 62
     7
 10
88.621539030917333
 20
123.0
 30
0.0
 11
86.910775182119735
 21
125.96312990586949
 31
0.0
  0
LINE
  5
55
  8
PATTERN_FILL
  6
CONTINUOUS
 62
     7
 10
87.421539030917359
 20
123.0
 30
0.0
 11
85.859190827549654
 21
125.7060664673468
 31
0.0
  0
LINE
  5
56
  8
PATTERN_FILL
  6
CONTINUOUS
 62
     7
 10
86.221539030917327
 20
123.0
 30
0.0
 11
84.928636611211203
 21
125.2393726801598
 31
0.0
  0
LINE
  5
57
  8
PATTERN_FILL
  6
CONTINUOUS
 62
     7
 10
85.021539030917339
 20
123.0
 30
0.0
 11
84.114229961465782
 21
124.5715054064581
 31
0.0
  0
LINE
  5
58
  8
PATTERN_FILL
  6
CONTINUOUS
 62
     7
 10
83.821539030917364
 20
123.0
 30
0.0
 11
83.430409251846342
 21
123.6774566497042
 31
0.0
  0
LINE
  5
59
  8
PATTERN_FILL
  6
CONTINUOUS
 62
     7
 10
81.950000000000003
 20
111.79659883941569
 30
0.0
 11
82.413843876330589
 21
112.59999999999999
 31
0.0
  0
LINE
  5
5A
  8
PATTERN_FILL
  6
CONTINUOUS
 62
     7
 10
81.950000000000003
 20
110.2377531126037
 30
0.0
 11
83.313843876330594
 21
112.59999999999999
 31
0.0
  0
LINE
  5
5B
  8
PATTERN_FILL
  6
CONTINUOUS
 62
     7
 10
81.950000000000003
 20
108.6789073857917
 30
0.0
 11
84.213843876330586
 21
112.59999999999999
 31
0.0
  0
LINE
  5
5C
  8
PATTERN_FILL
  6
CONTINUOUS
 62
     7
 10
82.227092530382436
 20
107.59999999999999
 30
0.0
 11
85.113843876330591
 21
112.59999999999999
 31
0.0
  0
LINE
  5
5D
  8
PATTERN_FILL
  6
CONTINUOUS
 62
     7
 10
83.127092530382484
 20
107.59999999999999
 30
0.0
 11
85.810000000000016
 21
112.2469320493836
 31
0.0
  0
LINE
  5
5E
  8
PATTERN_FILL
  6
CONTINUOUS
 62
     7
 10
84.027092530382447
 20
107.59999999999999
 30
0.0
 11
85.810000000000016
 21
110.68808632257161
 31
0.0
  0
LINE
  5
5F
  8
PATTERN_FILL
  6
CONTINUOUS
 62
     7
 10
84.927092530382453
 20
107.59999999999999
 30
0.0
 11
85.810000000000016
 21
109.1292405957596
 31
0.0
  0
LINE
  5
60
  8
PATTERN_FILL
  6
CONTINUOUS
 62
     7
 10
89.189999999999998
 20
111.8658808717185
 30
0.0
 11
89.613843876330577
 21
112.59999999999999
 31
0.0
  0
LINE
  5
61
  8
PATTERN_FILL
  6
CONTINUOUS
 62
     7
 10
89.189999999999998
 20
110.30703514490639
 30
0.0
 11
90.513843876330583
 21
112.59999999999999
 31
0.0
  0
LINE
  5
62
  8
PATTERN_FILL
  6
CONTINUOUS
 62
     7
 10
89.189999999999998
 20
108.7481894180944
 30
0.0
 11
91.413843876330574
 21
112.59999999999999
 31
0.0
  0
LINE
  5
63
  8
PATTERN_FILL
  6
CONTINUOUS
 62
     7
 10
89.427092530382481
 20
107.59999999999999
 30
0.0
 11
92.31384387633058
 21
112.59999999999999
 31
0.0
  0
LINE
  5
64
  8
PATTERN_FILL
  6
CONTINUOUS
 62
     7
 10
90.327092530382487
 20
107.59999999999999
 30
0.0
 11
93.049999999999983
 21
112.3162140816863
 31
0.0
  0
LINE
  5
65
  8
PATTERN_FILL
  6
CONTINUOUS
 62
     7
 10
91.227092530382507
 20
107.59999999999999
 30
0.0
 11
93.049999999999983
 21
110.7573683548743
 31
0.0
  0
LINE
  5
66
  8
PATTERN_FILL
  6
CONTINUOUS
 62
     7
 10
92.127092530382484
 20
107.59999999999999
 30
0.0
 11
93.049999999999983
 21
109.19852262806231
 31
0.0
  0
LINE
  5
67
  8
PATTERN_FILL
  6
CONTINUOUS
 62
     7
 10
93.049999999999983
 20
112.15018867790189
 30
0.0
 11
92.790301312102144
 21
112.59999999999999
 31
0.0
  0
LINE
  5
68
  8
PATTERN_FILL
  6
CONTINUOUS
 62
     7
 10
93.049999999999983
 20
110.5913429510899
 30
0.0
 11
91.890301312102125
 21
112.59999999999999
 31
0.0
  0
LINE
  5
69
  8
PATTERN_FILL
  6
CONTINUOUS
 62
     7
 10
93.049999999999983
 20
109.0324972242779
 30
0.0
 11
90.990301312102133
 21
112.59999999999999
 31
0.0
  0
LINE
  5
6A
  8
PATTERN_FILL
  6
CONTINUOUS
 62
     7
 10
92.977052658050283
 20
107.59999999999999
 30
0.0
 11
90.090301312102127
 21
112.59999999999999
 31
0.0
  0
LINE
  5
6B
  8
PATTERN_FILL
  6
CONTINUOUS
 62
     7
 10
92.077052658050263
 20
107.59999999999999
 30
0.0
 11
89.190301312102164
 21
112.59999999999999
 31
0.0
  0
LINE
  5
6C
  8
PATTERN_FILL
  6
CONTINUOUS
 62
     7
 10
91.177052658050286
 20
107.59999999999999
 30
0.0
 11
89.190000000000026
 21
111.04167616105779
 31
0.0
  0
LINE
  5
6D
  8
PATTERN_FILL
  6
CONTINUOUS
 62
     7
 10
90.277052658050266
 20
107.59999999999999
 30
0.0
 11
89.190000000000026
 21
109.4828304342458
 31
0.0
  0
LINE
  5
6E
  8
PATTERN_FILL
  6
CONTINUOUS
 62
     7
 10
89.377052658050275
 20
107.59999999999999
 30
0.0
 11
89.190000000000026
 21
107.9239847074338
 31
0.0
  0
LINE
  5
6F
  8
PATTERN_FILL
  6
CONTINUOUS
 62
     7
 10
85.810000000000016
 20
112.2194707102047
 30
0.0
 11
85.590301312102113
 21
112.59999999999999
 31
0.0
  0
LINE
  5
70
  8
PATTERN_FILL
  6
CONTINUOUS
 62
     7
 10
85.810000000000016
 20
110.66062498339269
 30
0.0
 11
84.690301312102164
 21
112.59999999999999
 31
0.0
  0
LINE
  5
71
  8
PATTERN_FILL
  6
CONTINUOUS
 62
     7
 10
85.810000000000016
 20
109.1017792565807
 30
0.0
 11
83.790301312102116
 21
112.59999999999999
 31
0.0
  0
LINE
  5
72
  8
PATTERN_FILL
  6
CONTINUOUS
 62
     7
 10
85.777052658050266
 20
107.59999999999999
 30
0.0
 11
82.890301312102139
 21
112.59999999999999
 31
0.0
  0
LINE
  5
73
  8
PATTERN_FILL
  6
CONTINUOUS
 62
     7
 10
84.877052658050275
 20
107.59999999999999
 30
0.0
 11
81.990301312102119
 21
112.59999999999999
 31
0.0
  0
LINE
  5
74
  8
PATTERN_FILL
  6
CONTINUOUS
 62
     7
 10
83.977052658050269
 20
107.59999999999999
 30
0.0
 11
81.950000000000003
 21
111.1109581933606
 31
0.0
  0
LINE
  5
75
  8
PATTERN_FILL
  6
CONTINUOUS
 62
     7
 10
83.077052658050263
 20
107.59999999999999
 30
0.0
 11
81.950000000000003
 21
109.55211246654861
 31
0.0
  0
LINE
  5
76
  8
PATTERN_FILL
  6
CONTINUOUS
 62
     7
 10
82.177052658050286
 20
107.59999999999999
 30
0.0
 11
81.950000000000017
 21
107.9932667397365
 31
0.0
  0
LINE
  5
77
  8
PATTERN_FILL
  6
CONTINUOUS
 62
     7
 10
83.131578897821456
 20
180.72378989553459
 30
0.0
 11
85.771500767105806
 21
185.29626870114731
 31
0.0
  0
LINE
  5
78
  8
PATTERN_FILL
  6
CONTINUOUS
 62
     7
 10
83.534571761884749
 20
179.34333304209721
 30
0.0
 11
87.168507903042524
 21
185.6374950700432
 31
0.0
  0
LINE
  5
79
  8
PATTERN_FILL
  6
CONTINUOUS
 62
     7
 10
84.172970836730002
 20
178.37061170615161
 30
0.0
 11
88.33010882819714
 21
185.57098592144749
 31
0.0
  0
LINE
  5
7A
  8
PATTERN_FILL
  6
CONTINUOUS
 62
     7
 10
84.960757969624126
 20
177.65663807679061
 30
0.0
 11
89.342321695303212
 21
185.2457290662675
 31
0.0
  0
LINE
  5
7B
  8
PATTERN_FILL
  6
CONTINUOUS
 62
     7
 10
85.874706979195309
 20
177.16118322781239
 30
0.0
 11
90.228372685732026
 21
184.70195343070421
 31
0.0
  0
LINE
  5
7C
  8
PATTERN_FILL
  6
CONTINUOUS
 62
     7
 10
86.917411672393456
 20
176.8887397646395
 30
0.0
 11
90.985667992533763
 21
183.93516640933561
 31
0.0
  0
LINE
  5
7D
  8
PATTERN_FILL
  6
CONTINUOUS
 62
     7
 10
88.120426470458654
 20
176.893961548063
 30
0.0
 11
91.582653194468634
 21
182.89071414137101
 31
0.0
  0
LINE
  5
7E
  8
PATTERN_FILL
  6
CONTINUOUS
 62
     7
 10
89.60444368451698
 20
177.38589379303619
 30
0.0
 11
91.898635980410205
 21
181.35955141185639
 31
0.0
  0
LINE
  5
7F
  8
PATTERN_FILL
  6
CONTINUOUS
 62
     7
 10
91.864882786332913
 20
181.80479569354441
 30
0.0
 11
90.162908557686194
 21
184.75270153073339
 31
0.0
  0
LINE
  5
80
  8
PATTERN_FILL
  6
CONTINUOUS
 62
     7
 10
91.714681876332264
 20
179.98649033192601
 30
0.0
 11
88.513109467686817
 21
185.5317764078105
 31
0.0
  0
LINE
  5
81
  8
PATTERN_FILL
  6
CONTINUOUS
 62
     7
 10
91.178801235937627
 20
178.8362018587994
 30
0.0
 11
87.248990108081415
 21
185.6428343963959
 31
0.0
  0
LINE
  5
82
  8
PATTERN_FILL
  6
CONTINUOUS
 62
     7
 10
90.463126064117773
 20
177.99732664902439
 30
0.0
 11
86.164665279901499
 21
185.4424791216293
 31
0.0
  0
LINE
  5
83
  8
PATTERN_FILL
  6
CONTINUOUS
 62
     7
 10
89.613333937014232
 20
177.390748819957
 30
0.0
 11
85.214457407004758
 21
185.00982646615569
 31
0.0
  0
LINE
  5
84
  8
PATTERN_FILL
  6
CONTINUOUS
 62
     7
 10
88.638952397081368
 20
176.9999661839953
 30
0.0
 11
84.388838946937724
 21
184.36137861757601
 31
0.0
  0
LINE
  5
85
  8
PATTERN_FILL
  6
CONTINUOUS
 62
     7
 10
87.525492775998373
 20
176.85007385080479
 30
0.0
 11
83.702298568020723
 21
183.4720404662252
 31
0.0
  0
LINE
  5
86
  8
PATTERN_FILL
  6
CONTINUOUS
 62
     7
 10
86.214742396756634
 20
177.041899134609
 30
0.0
 11
83.213048947262365
 21
182.24098469787981
 31
0.0
  0
LINE
  5
87
  8
PATTERN_FILL
  6
CONTINUOUS
 62
     7
 10
84.371460282068483
 20
178.15609644084921
 30
0.0
 11
83.256331061950334
 21
180.0875569070985
 31
0.0
  0
LINE
  5
88
  8
SPEC
  6
CONTINUOUS
 62
     7
 10
17.5
 20
260.0
 30
0.0
 11
165.0
 21
260.0
 31
0.0
  0
LINE
  5
89
  8
SPEC
  6
CONTINUOUS
 62
     7
 10
17.5
 20
256.25
 30
0.0
 11
165.0
 21
256.25
 31
0.0
  0
LINE
  5
8A
  8
SPEC
  6
CONTINUOUS
 62
     7
 10
17.5
 20
241.25
 30
0.0
 11
165.0
 21
241.25
 31
0.0
  0
LINE
  5
8B
  8
SPEC
  6
CONTINUOUS
 62
     7
 10
17.5
 20
245.0
 30
0.0
 11
165.0
 21
245.0
 31
0.0
  0
LINE
  5
8C
  8
SPEC
  6
CONTINUOUS
 62
     7
 10
17.5
 20
248.75
 30
0.0
 11
165.0
 21
248.75
 31
0.0
  0
LINE
  5
8D
  8
SPEC
  6
CONTINUOUS
 62
     7
 10
17.5
 20
237.5
 30
0.0
 11
165.0
 21
237.5
 31
0.0
  0
LINE
  5
8E
  8
SPEC
  6
CONTINUOUS
 62
     7
 10
17.5
 20
230.0
 30
0.0
 11
165.0
 21
230.0
 31
0.0
  0
LINE
  5
8F
  8
SPEC
  6
CONTINUOUS
 62
     7
 10
17.5
 20
233.75
 30
0.0
 11
165.0
 21
233.75
 31
0.0
  0
LINE
  5
90
  8
SPEC
  6
CONTINUOUS
 62
     7
 10
17.5
 20
252.5
 30
0.0
 11
165.0
 21
252.5
 31
0.0
  0
LINE
  5
91
  8
SPEC
  6
CONTINUOUS
 62
     7
 10
17.5
 20
260.0
 30
0.0
 11
17.5
 21
226.25
 31
0.0
  0
TEXT
  5
92
  8
SPEC
 62
     7
 10
18.75
 20
261.39326999999997
 30
0.0
 40
2.4432617187500001
  1
仕様
 41
0.7
 11
18.75
 21
263.83653171875
 31
0.0
 73
     3
  0
LINE
  5
93
  8
SPEC
  6
CONTINUOUS
 62
     7
 10
50.0
 20
260.0
 30
0.0
 11
50.0
 21
226.25
 31
0.0
  0
LINE
  5
94
  8
SPEC
  6
CONTINUOUS
 62
     7
 10
165.0
 20
260.0
 30
0.0
 11
165.0
 21
226.25
 31
0.0
  0
TEXT
  5
95
  8
SPEC
 62
     7
 10
18.34948814574939
 20
257.2152796361076
 30
0.0
 40
1.900311249999999
  1
形式
 41
0.7
 11
18.34948814574939
 21
259.11559088610761
 31
0.0
 73
     3
  0
TEXT
  5
96
  8
SPEC
 62
     7
 10
18.30676748232484
 20
234.85364758085279
 30
0.0
 40
1.900314670138888
  1
寸法
 41
0.7
 11
18.30676748232484
 21
236.75396225099169
 31
0.0
 73
     3
  0
TEXT
  5
97
  8
SPEC
 62
     7
 10
50.632761210337343
 20
234.61261073116199
 30
0.0
 40
1.900314670138888
  1
\U+03A614\U+00D726mm(突起部含まず)
 41
0.7
 11
50.632761210337343
 21
236.51292540130089
 31
0.0
 73
     3
  0
TEXT
  5
98
  8
SPEC
 62
     7
 10
50.846534305168781
 20
231.0444618307373
 30
0.0
 40
1.900314670138888
  1
約9g
 41
0.7
 11
50.846534305168781
 21
232.9447765008762
 31
0.0
 73
     3
  0
TEXT
  5
99
  8
SPEC
 62
     7
 10
18.344678919224371
 20
230.95611718741679
 30
0.0
 40
1.900314670138888
  1
重量
 41
0.7
 11
18.344678919224371
 21
232.85643185755569
 31
0.0
 73
     3
  0
TEXT
  5
9A
  8
SPEC
 62
     7
 10
50.66973390175621
 20
257.11482130870883
 30
0.0
 40
1.900314670138888
  1
コンデンサー型 
 41
0.7
 11
50.66973390175621
 21
259.0151359788477
 31
0.0
 73
     3
  0
TEXT
  5
9B
  8
SPEC
 62
     7
 10
50.671674755378852
 20
227.36966152608071
 30
0.0
 40
1.900314670138888
  1
ウインドスクリーン（W 30）
 41
0.7
 11
50.671674755378852
 21
229.2699761962196
 31
0.0
 73
     3
  0
TEXT
  5
9C
  8
SPEC
 62
     7
 10
18.402407096121252
 20
249.7680836049648
 30
0.0
 40
1.900314670138888
  1
周波数特性
 41
0.7
 11
18.402407096121252
 21
251.66839827510361
 31
0.0
 73
     3
  0
TEXT
  5
9D
  8
SPEC
 62
     7
 10
50.960473644056989
 20
249.56623720058349
 30
0.0
 40
1.900314670138888
  1
50Hz～20kHz
 41
0.7
 11
50.960473644056989
 21
251.46655187072241
 31
0.0
 73
     3
  0
TEXT
  5
9E
  8
SPEC
 62
     7
 10
18.295283872546111
 20
245.977036689665
 30
0.0
 40
1.900314670138888
  1
開回路感度
 41
0.7
 11
18.295283872546111
 21
247.8773513598039
 31
0.0
 73
     3
  0
TEXT
  5
9F
  8
SPEC
 62
     7
 10
50.871471728287212
 20
245.96082098320909
 30
0.0
 40
1.900314670138888
  1
ー34dBV re 1V/Pa
 41
0.7
 11
50.871471728287212
 21
247.8611356533479
 31
0.0
 73
     3
  0
TEXT
  5
A0
  8
SPEC
 62
     7
 10
18.415681181934939
 20
242.31188221847239
 30
0.0
 40
1.900314670138888
  1
最大音圧レベル
 41
0.7
 11
18.415681181934939
 21
244.21219688861129
 31
0.0
 73
     3
  0
TEXT
  5
A1
  8
SPEC
 62
     7
 10
50.851801087711777
 20
242.2524023484024
 30
0.0
 40
1.900314670138888
  1
125dB SPL（THD 1%%%）
 41
0.7
 11
50.851801087711777
 21
244.1527170185413
 31
0.0
 73
     3
  0
TEXT
  5
A2
  8
SPEC
 62
     7
 10
18.332359672962198
 20
238.46004697865399
 30
0.0
 40
1.900314670138888
  1
等価雑音レベル
 41
0.7
 11
18.332359672962198
 21
240.36036164879289
 31
0.0
 73
     3
  0
TEXT
  5
A3
  8
SPEC
 62
     7
 10
50.91399223584213
 20
238.44274529666481
 30
0.0
 40
1.900314670138888
  1
21dB SPL（Aウェイト）
 41
0.7
 11
50.91399223584213
 21
240.34305996680371
 31
0.0
 73
     3
  0
TEXT
  5
A4
  8
SPEC
 62
     7
 10
18.405791144207921
 20
227.40304428257321
 30
0.0
 40
1.900314670138888
  1
付属品
 41
0.7
 11
18.405791144207921
 21
229.3033589527121
 31
0.0
 73
     3
  0
LINE
  5
A5
  8
SPEC
  6
CONTINUOUS
 62
     7
 10
17.5
 20
226.25
 30
0.0
 11
165.0
 21
226.25
 31
0.0
  0
TEXT
  5
A6
  8
SPEC
 62
     7
 10
18.34948814574939
 20
253.4652796361076
 30
0.0
 40
1.900311249999999
  1
指向特性
 41
0.7
 11
18.34948814574939
 21
255.36559088610761
 31
0.0
 73
     3
  0
TEXT
  5
A7
  8
SPEC
 62
     7
 10
50.66973390175621
 20
253.3648213087088
 30
0.0
 40
1.900314670138888
  1
ハイパーカーディオイド
 41
0.7
 11
50.66973390175621
 21
255.2651359788477
 31
0.0
 73
     3
  0
TEXT
  5
A8
  8
DIMNSIONS
 62
     7
 10
79.999999999999986
 20
22.269490000000012
 30
0.0
 40
2.4432617187500001
  1
(単位：mm)
 41
0.7
 11
79.999999999999986
 21
24.71275171875001
 31
0.0
 73
     3
  0
LINE
  5
A9
  8
DIMNSIONS
  6
CONTINUOUS
 62
     7
 10
79.600000000000023
 20
100.0
 30
0.0
 11
60.5
 21
100.0
 31
0.0
  0
LINE
  5
AA
  8
DIMNSIONS
  6
CONTINUOUS
 62
     7
 10
85.5
 20
126.0
 30
0.0
 11
60.5
 21
126.0
 31
0.0
  0
LINE
  5
AB
  8
DIMNSIONS
  6
CONTINUOUS
 62
     7
 10
62.5
 20
100.0
 30
0.0
 11
62.5
 21
126.0
 31
0.0
  0
LINE
  5
AC
  8
DIMNSIONS
  6
CONTINUOUS
 62
     7
 10
62.5
 20
100.0
 30
0.0
 11
61.829960204849748
 21
102.5006225585938
 31
0.0
  0
LINE
  5
AD
  8
DIMNSIONS
  6
CONTINUOUS
 62
     7
 10
62.5
 20
100.0
 30
0.0
 11
63.170039795150252
 21
102.5006225585938
 31
0.0
  0
LINE
  5
AE
  8
DIMNSIONS
  6
CONTINUOUS
 62
     7
 10
62.5
 20
126.0
 30
0.0
 11
63.170039795150252
 21
123.4993774414062
 31
0.0
  0
LINE
  5
AF
  8
DIMNSIONS
  6
CONTINUOUS
 62
     7
 10
62.5
 20
126.0
 30
0.0
 11
61.829960204849748
 21
123.4993774414062
 31
0.0
  0
TEXT
  5
B0
  8
DIMNSIONS
 62
     7
 10
61.50611111111111
 20
111.2361111111111
 30
0.0
 40
2.7147352430555549
  1
26
 50
90.0
 41
0.7
 11
58.79137586805556
 21
111.2361111111111
 31
0.0
 73
     3
  0
LINE
  5
B1
  8
DIMNSIONS
  6
CONTINUOUS
 62
     7
 10
93.324352060364916
 20
185.1329013735766
 30
0.0
 11
106.25
 21
193.75
 31
0.0
  0
LINE
  5
B2
  8
DIMNSIONS
  6
CONTINUOUS
 62
     7
 10
93.324352060364916
 20
185.1329013735766
 30
0.0
 11
95.056620774345575
 21
187.0567806863705
 31
0.0
  0
LINE
  5
B3
  8
DIMNSIONS
  6
CONTINUOUS
 62
     7
 10
93.324352060364916
 20
185.1329013735766
 30
0.0
 11
95.786480429250147
 21
185.93289537528119
 31
0.0
  0
LINE
  5
B4
  8
DIMNSIONS
  6
CONTINUOUS
 62
     7
 10
106.25
 20
193.75
 30
0.0
 11
115.3055555555555
 21
193.75
 31
0.0
  0
TEXT
  5
B5
  8
DIMNSIONS
 62
     7
 10
108.25
 20
194.74388888888879
 30
0.0
 40
2.7147352430555549
  1
\U+03C614
 41
0.7
 11
108.25
 21
197.45862413194439
 31
0.0
 73
     3
  0
LINE
  5
B6
  8
DIMNSIONS
  6
CONTINUOUS
 62
     7
 10
78.5
 20
105.0
 30
0.0
 11
66.75
 21
105.0
 31
0.0
  0
LINE
  5
B7
  8
DIMNSIONS
  6
CONTINUOUS
 62
     7
 10
85.5
 20
126.0
 30
0.0
 11
66.75
 21
126.0
 31
0.0
  0
LINE
  5
B8
  8
DIMNSIONS
  6
CONTINUOUS
 62
     7
 10
68.75
 20
105.0
 30
0.0
 11
68.75
 21
126.0
 31
0.0
  0
LINE
  5
B9
  8
DIMNSIONS
  6
CONTINUOUS
 62
     7
 10
68.75
 20
105.0
 30
0.0
 11
68.079960204849755
 21
107.5006225585938
 31
0.0
  0
LINE
  5
BA
  8
DIMNSIONS
  6
CONTINUOUS
 62
     7
 10
68.75
 20
105.0
 30
0.0
 11
69.420039795150245
 21
107.5006225585938
 31
0.0
  0
LINE
  5
BB
  8
DIMNSIONS
  6
CONTINUOUS
 62
     7
 10
68.75
 20
126.0
 30
0.0
 11
69.420039795150245
 21
123.4993774414062
 31
0.0
  0
LINE
  5
BC
  8
DIMNSIONS
  6
CONTINUOUS
 62
     7
 10
68.75
 20
126.0
 30
0.0
 11
68.079960204849755
 21
123.4993774414062
 31
0.0
  0
TEXT
  5
BD
  8
DIMNSIONS
 62
     7
 10
67.756111111111096
 20
113.7361111111111
 30
0.0
 40
2.7147352430555549
  1
21
 50
90.0
 41
0.7
 11
65.041375868055539
 21
113.7361111111111
 31
0.0
 73
     3
  0
TEXT
  5
BE
  8
DATA
 62
     7
 10
150.0
 20
21.130890000000011
 30
0.0
 40
2.4432617187500001
  1
CK33
 41
0.7
 11
150.0
 21
23.574151718750009
 31
0.0
 73
     3
  0
TEXT
  5
BF
  8
DATA
 62
     7
 10
150.0
 20
28.380890000000011
 30
0.0
 40
2.4432617187500001
  1
AKG
 41
0.7
 11
150.0
 21
30.824151718750009
 31
0.0
 73
     3
  0
TEXT
  5
C0
  8
DATA
 62
     7
 10
147.49999999999989
 20
24.903933800000011
 30
0.0
 40
1.6288437109374989
  1
カートリッジ
 41
0.7
 11
147.49999999999989
 21
26.53277751093751
 31
0.0
 73
     3
  0
TEXT
  5
C1
  8
DATA
 62
     7
 10
20.0
 20
14.238
 30
0.0
 40
1.6288411458333329
  1
仕様および外観は予告なく変更されることがありますので、ご了承ください。
 41
0.7
 11
20.0
 21
15.86684114583333
 31
0.0
 73
     3
  0
LINE
  5
C2
  8
DATA
  6
CONTINUOUS
 62
     7
 10
81.600000000000009
 20
100.0
 30
0.0
 11
93.400000000000006
 21
100.0
 31
0.0
  0
LINE
  5
C3
  8
DATA
  6
CONTINUOUS
 62
     7
 10
80.5
 20
105.0
 30
0.0
 11
94.500000000000014
 21
105.0
 31
0.0
  0
LINE
  5
C4
  8
DATA
  6
CONTINUOUS
 62
     7
 10
81.600000000000009
 20
100.0
 30
0.0
 11
81.600000000000009
 21
105.0
 31
0.0
  0
LINE
  5
C5
  8
DATA
  6
CONTINUOUS
 62
     7
 10
93.400000000000006
 20
105.0
 30
0.0
 11
93.400000000000006
 21
100.0
 31
0.0
  0
LINE
  5
C6
  8
DATA
  6
CONTINUOUS
 62
     7
 10
87.0
 20
99.0
 30
0.0
 11
88.0
 21
99.0
 31
0.0
  0
LINE
  5
C7
  8
DATA
  6
CONTINUOUS
 62
     7
 10
87.0
 20
99.0
 30
0.0
 11
87.0
 21
100.0
 31
0.0
  0
LINE
  5
C8
  8
DATA
  6
CONTINUOUS
 62
     7
 10
88.0
 20
100.0
 30
0.0
 11
88.0
 21
99.0
 31
0.0
  0
LINE
  5
C9
  8
DATA
  6
CONTINUOUS
 62
     7
 10
82.0
 20
123.0
 30
0.0
 11
93.0
 21
123.0
 31
0.0
  0
ARC
  5
CA
  8
DATA
  6
CONTINUOUS
 62
     7
 10
87.5
 20
121.2733333333333
 30
0.0
 40
4.7266666666666683
 50
21.426246045582161
 51
158.57375395441781
  0
LINE
  5
CB
  8
DATA
  6
CONTINUOUS
 62
     7
 10
80.5
 20
107.59999999999999
 30
0.0
 11
86.5
 21
107.59999999999999
 31
0.0
  0
LINE
  5
CC
  8
DATA
  6
CONTINUOUS
 62
     7
 10
88.499999999999986
 20
107.59999999999999
 30
0.0
 11
94.500000000000014
 21
107.59999999999999
 31
0.0
  0
LINE
  5
CD
  8
DATA
  6
CONTINUOUS
 62
     7
 10
80.5
 20
112.59999999999999
 30
0.0
 11
86.5
 21
112.59999999999999
 31
0.0
  0
LINE
  5
CE
  8
DATA
  6
CONTINUOUS
 62
     7
 10
88.499999999999986
 20
112.59999999999999
 30
0.0
 11
94.500000000000014
 21
112.59999999999999
 31
0.0
  0
TEXT
  5
CF
  8
DATA
 62
     7
 10
85.455338598118985
 20
113.8205470223631
 30
0.0
 40
1.6288411458333329
  1
CK33
 41
0.7
 11
85.455338598118985
 21
115.44938816819651
 31
0.0
 73
     3
  0
LINE
  5
D0
  8
DATA
  6
CONTINUOUS
 62
     7
 10
85.810000000000016
 20
107.59999999999999
 30
0.0
 11
85.810000000000016
 21
112.59999999999999
 31
0.0
  0
LINE
  5
D1
  8
DATA
  6
CONTINUOUS
 62
     7
 10
89.189999999999998
 20
112.59999999999999
 30
0.0
 11
89.189999999999998
 21
107.59999999999999
 31
0.0
  0
LINE
  5
D2
  8
DATA
  6
CONTINUOUS
 62
     7
 10
86.5
 20
107.59999999999999
 30
0.0
 11
86.5
 21
112.59999999999999
 31
0.0
  0
LINE
  5
D3
  8
DATA
  6
CONTINUOUS
 62
     7
 10
88.499999999999986
 20
112.59999999999999
 30
0.0
 11
88.499999999999986
 21
107.59999999999999
 31
0.0
  0
LINE
  5
D4
  8
DATA
  6
CONTINUOUS
 62
     7
 10
81.950000000000003
 20
112.59999999999999
 30
0.0
 11
81.950000000000003
 21
107.59999999999999
 31
0.0
  0
LINE
  5
D5
  8
DATA
  6
CONTINUOUS
 62
     7
 10
93.049999999999983
 20
112.59999999999999
 30
0.0
 11
93.049999999999983
 21
107.59999999999999
 31
0.0
  0
CIRCLE
  5
D6
  8
DATA
  6
CONTINUOUS
 62
     7
 10
87.5
 20
181.25
 30
0.0
 40
7.0
  0
CIRCLE
  5
D7
  8
DATA
  6
CONTINUOUS
 62
     7
 10
87.5
 20
181.25
 30
0.0
 40
4.3999999999999924
  0
CIRCLE
  5
D8
  8
DATA
  6
CONTINUOUS
 62
     7
 10
87.5
 20
81.25
 30
0.0
 40
7.0
  0
CIRCLE
  5
D9
  8
DATA
  6
CONTINUOUS
 62
     7
 10
87.5
 20
81.25
 30
0.0
 40
5.8999999999999986
  0
CIRCLE
  5
DA
  8
DATA
  6
CONTINUOUS
 62
     7
 10
87.5
 20
81.25
 30
0.0
 40
4.5
  0
CIRCLE
  5
DB
  8
DATA
  6
CONTINUOUS
 62
     7
 10
87.5
 20
81.25
 30
0.0
 40
0.5
  0
LINE
  5
DC
  8
DATA
  6
STYLE_01
 62
     7
 10
86.451421712784907
 20
150.0
 30
0.0
 11
88.548578287215093
 21
150.0
 31
0.0
  0
ARC
  5
DD
  8
DATA
  6
STYLE_01
 62
     7
 10
86.451421712784907
 20
145.5
 30
0.0
 40
4.5
 50
89.999999999999957
 51
147.15959572852651
  0
ARC
  5
DE
  8
DATA
  6
STYLE_01
 62
     7
 10
88.548578287215093
 20
145.5
 30
0.0
 40
4.4999999999999982
 50
32.840404271473481
 51
90.000000000000028
  0
ARC
  5
DF
  8
DATA
  6
STYLE_01
 62
     7
 10
116.54575010216971
 20
120.93519620469969
 30
0.0
 40
43.322106051899397
 50
141.4382700797369
 51
169.13664429294391
  0
ARC
  5
E0
  8
DATA
  6
STYLE_01
 62
     7
 10
152.6571428571429
 20
123.8
 30
0.0
 40
78.835500394485905
 50
176.14517770098101
 51
197.571423746563
  0
ARC
  5
E1
  8
DATA
  6
STYLE_01
 62
     7
 10
58.454249897830323
 20
120.93519620469969
 30
0.0
 40
43.322106051899397
 50
10.863355707056041
 51
38.561729920263083
  0
ARC
  5
E2
  8
DATA
  6
STYLE_01
 62
     7
 10
22.342857142857088
 20
123.8
 30
0.0
 40
78.835500394485905
 50
342.42857625343692
 51
3.8548222990190761
  0
LINE
  5
E3
  8
DATA
  6
STYLE_01
 62
     7
 10
77.5
 20
100.0
 30
0.0
 11
97.5
 21
100.0
 31
0.0
  0
CIRCLE
  5
E4
  8
DATA
  6
STYLE_01
 62
     7
 10
87.5
 20
181.25
 30
0.0
 40
13.64765472808657
  0
TEXT
  5
E5
  8
DATA
 62
     7
 10
102.5155211224689
 20
151.138735307606
 30
0.0
 40
2.7147352430555549
  1
ウインドスクリーン
 41
0.7
 11
102.5155211224689
 21
153.85347055066151
 31
0.0
 73
     3
  0
LINE
  5
E6
  8
DATA
  6
CONTINUOUS
 62
     7
 10
100.0
 20
150.0
 30
0.0
 11
94.871386737786366
 21
144.40000000000001
 31
0.0
  0
LINE
  5
E7
  8
DATA
  6
CONTINUOUS
 62
     7
 10
94.871386737786366
 20
144.40000000000001
 30
0.0
 11
96.414540643890874
 21
147.30225039131329
 31
0.0
  0
LINE
  5
E8
  8
DATA
  6
CONTINUOUS
 62
     7
 10
94.871386737786366
 20
144.40000000000001
 30
0.0
 11
97.658922418078745
 21
146.1418456139684
 31
0.0
  0
LINE
  5
E9
  8
DATA
  6
CONTINUOUS
 62
     7
 10
100.0
 20
150.0
 30
0.0
 11
138.0
 21
150.0
 31
0.0
  0
CIRCLE
  5
EA
  8
DATA
  6
STYLE_01
 62
     7
 10
87.5
 20
81.25
 30
0.0
 40
10.0
  0
ARC
  5
EB
  8
DATA
  6
CONTINUOUS
 62
     7
 10
104.9134228187922
 20
114.5236577181207
 30
0.0
 40
24.430991051374139
 50
159.6990986031085
 51
177.82701287820211
  0
ARC
  5
EC
  8
DATA
  6
CONTINUOUS
 62
     7
 10
70.086577181207758
 20
114.5236577181207
 30
0.0
 40
24.430991051374129
 50
2.1729871217978851
 51
20.300901396891529
  0
LINE
  5
ED
  8
DATA
  6
CONTINUOUS
 62
     7
 10
80.5
 20
115.45
 30
0.0
 11
80.5
 21
105.0
 31
0.0
  0
LINE
  5
EE
  8
DATA
  6
CONTINUOUS
 62
     7
 10
94.500000000000014
 20
115.45
 30
0.0
 11
94.500000000000014
 21
105.0
 31
0.0
  0
LINE
  5
EF
  8
DATA
  6
CONTINUOUS
 62
     7
 10
85.453389830508456
 20
100.0
 30
0.0
 11
93.400000000000006
 21
100.9870526315789
 31
0.0
  0
LINE
  5
F0
  8
DATA
  6
CONTINUOUS
 62
     7
 10
81.600000000000009
 20
100.3213684210526
 30
0.0
 11
93.400000000000006
 21
101.7870526315789
 31
0.0
  0
LINE
  5
F1
  8
DATA
  6
CONTINUOUS
 62
     7
 10
81.600000000000009
 20
101.12136842105259
 30
0.0
 11
93.400000000000006
 21
102.5870526315789
 31
0.0
  0
LINE
  5
F2
  8
DATA
  6
CONTINUOUS
 62
     7
 10
81.600000000000009
 20
101.92136842105261
 30
0.0
 11
93.400000000000006
 21
103.3870526315789
 31
0.0
  0
LINE
  5
F3
  8
DATA
  6
CONTINUOUS
 62
     7
 10
81.600000000000009
 20
102.7213684210526
 30
0.0
 11
93.400000000000006
 21
104.18705263157889
 31
0.0
  0
LINE
  5
F4
  8
DATA
  6
CONTINUOUS
 62
     7
 10
81.600000000000009
 20
103.5213684210526
 30
0.0
 11
93.400000000000006
 21
104.9870526315789
 31
0.0
  0
LINE
  5
F5
  8
DATA
  6
CONTINUOUS
 62
     7
 10
81.600000000000009
 20
104.3213684210526
 30
0.0
 11
87.063559322033882
 21
105.0
 31
0.0
  0
ENDSEC
  0
EOF
