  0
SECTION
  2
HEADER
  9
$ACADVER
  1
AC1009
  9
$INSBASE
 10
0.0
 20
0.0
 30
0.0
  9
$EXTMIN
 10
-80.010985489947416
 20
-131.68557005312491
 30
-0.0015258207003583
  9
$EXTMAX
 10
280.01098716632811
 20
403.5481165140169
 30
0.0000000349246037
  9
$LIMMIN
 10
0.0
 20
0.0
  9
$LIMMAX
 10
0.0
 20
0.0
  9
$ORTHOMODE
 70
     0
  9
$REGENMODE
 70
     1
  9
$FILLMODE
 70
     1
  9
$QTEXTMODE
 70
     0
  9
$MIRRTEXT
 70
     1
  9
$DRAGMODE
 70
     2
  9
$LTSCALE
 40
10.16
  9
$OSMODE
 70
   231
  9
$ATTMODE
 70
     1
  9
$TEXTSIZE
 40
0.0
  9
$TRACEWID
 40
1.0
  9
$TEXTSTYLE
  7
STANDARD
  9
$CLAYER
  8
DATA
  9
$CELTYPE
  6
BYLAYER
  9
$CECOLOR
 62
   256
  9
$DIMSCALE
 40
1.0
  9
$DIMASZ
 40
0.18
  9
$DIMEXO
 40
0.0625
  9
$DIMDLI
 40
0.38
  9
$DIMRND
 40
0.0
  9
$DIMDLE
 40
0.0
  9
$DIMEXE
 40
0.18
  9
$DIMTP
 40
0.0
  9
$DIMTM
 40
0.0
  9
$DIMTXT
 40
0.18
  9
$DIMCEN
 40
0.09
  9
$DIMTSZ
 40
0.0
  9
$DIMTOL
 70
     0
  9
$DIMLIM
 70
     0
  9
$DIMTIH
 70
     1
  9
$DIMTOH
 70
     1
  9
$DIMSE1
 70
     0
  9
$DIMSE2
 70
     0
  9
$DIMTAD
 70
     0
  9
$DIMZIN
 70
     0
  9
$DIMBLK
  1

  9
$DIMASO
 70
     1
  9
$DIMSHO
 70
     1
  9
$DIMPOST
  1

  9
$DIMAPOST
  1

  9
$DIMALT
 70
     0
  9
$DIMALTD
 70
     2
  9
$DIMALTF
 40
25.399999999999999
  9
$DIMLFAC
 40
1.0
  9
$DIMTOFL
 70
     0
  9
$DIMTVP
 40
0.0
  9
$DIMTIX
 70
     0
  9
$DIMSOXD
 70
     0
  9
$DIMSAH
 70
     0
  9
$DIMBLK1
  1

  9
$DIMBLK2
  1

  9
$DIMSTYLE
  2
STANDARD
  9
$DIMCLRD
 70
     0
  9
$DIMCLRE
 70
     0
  9
$DIMCLRT
 70
     0
  9
$DIMTFAC
 40
1.0
  9
$DIMGAP
 40
0.09
  9
$LUNITS
 70
     2
  9
$LUPREC
 70
     4
  9
$SKETCHINC
 40
0.1
  9
$FILLETRAD
 40
0.0
  9
$AUNITS
 70
     0
  9
$AUPREC
 70
     0
  9
$MENU
  1
acad
  9
$ELEVATION
 40
0.0
  9
$PELEVATION
 40
0.0
  9
$THICKNESS
 40
0.0
  9
$LIMCHECK
 70
     0
  9
$BLIPMODE
 70
     0
  9
$CHAMFERA
 40
0.0
  9
$CHAMFERB
 40
0.0
  9
$SKPOLY
 70
     0
  9
$TDCREATE
 40
2456090.797870371
  9
$TDUPDATE
 40
2456090.8007911691
  9
$TDINDWG
 40
0.0003443287
  9
$TDUSRTIMER
 40
0.0003443287
  9
$USRTIMER
 70
     1
  9
$ANGBASE
 50
0.0
  9
$ANGDIR
 70
     0
  9
$PDMODE
 70
     1
  9
$PDSIZE
 40
-2.0
  9
$PLINEWID
 40
0.0
  9
$COORDS
 70
     2
  9
$SPLFRAME
 70
     0
  9
$SPLINETYPE
 70
     6
  9
$SPLINESEGS
 70
     8
  9
$ATTDIA
 70
     0
  9
$ATTREQ
 70
     1
  9
$HANDLING
 70
     1
  9
$HANDSEED
  5
29D
  9
$SURFTAB1
 70
     6
  9
$SURFTAB2
 70
     6
  9
$SURFTYPE
 70
     6
  9
$SURFU
 70
     6
  9
$SURFV
 70
     6
  9
$UCSNAME
  2

  9
$UCSORG
 10
0.0
 20
0.0
 30
0.0
  9
$UCSXDIR
 10
1.0
 20
0.0
 30
0.0
  9
$UCSYDIR
 10
0.0
 20
1.0
 30
0.0
  9
$PUCSNAME
  2

  9
$PUCSORG
 10
0.0
 20
0.0
 30
0.0
  9
$PUCSXDIR
 10
1.0
 20
0.0
 30
0.0
  9
$PUCSYDIR
 10
0.0
 20
1.0
 30
0.0
  9
$USERI1
 70
     0
  9
$USERI2
 70
     0
  9
$USERI3
 70
     0
  9
$USERI4
 70
     0
  9
$USERI5
 70
     0
  9
$USERR1
 40
0.0
  9
$USERR2
 40
0.0
  9
$USERR3
 40
0.0
  9
$USERR4
 40
0.0
  9
$USERR5
 40
0.0
  9
$WORLDVIEW
 70
     1
  9
$SHADEDGE
 70
     3
  9
$SHADEDIF
 70
    70
  9
$TILEMODE
 70
     1
  9
$MAXACTVP
 70
    64
  9
$PLIMCHECK
 70
     0
  9
$PEXTMIN
 10
1.0000000000000000E+020
 20
1.0000000000000000E+020
 30
1.0000000000000000E+020
  9
$PEXTMAX
 10
-1.0000000000000000E+020
 20
-1.0000000000000000E+020
 30
-1.0000000000000000E+020
  9
$PLIMMIN
 10
0.0
 20
0.0
  9
$PLIMMAX
 10
12.0
 20
9.0
  9
$UNITMODE
 70
     0
  9
$VISRETAIN
 70
     0
  9
$PLINEGEN
 70
     1
  9
$PSLTSCALE
 70
     0
  0
ENDSEC
  0
SECTION
  2
TABLES
  0
TABLE
  2
VPORT
 70
     1
  0
VPORT
  2
*ACTIVE
 70
     0
 10
0.0
 20
0.0
 11
1.0
 21
1.0
 12
100.0000008381902
 22
136.46818624361211
 13
0.0
 23
0.0
 14
1.0
 24
1.0
 15
0.0
 25
0.0
 16
0.0
 26
0.0
 36
1.0
 17
0.0
 27
0.0
 37
0.0
 40
538.31136204760344
 41
2.172503242542152
 42
50.0
 43
0.0
 44
0.0
 50
0.0
 51
0.0
 71
     0
 72
  2000
 73
     1
 74
     1
 75
     0
 76
     0
 77
     0
 78
     0
  0
ENDTAB
  0
TABLE
  2
LTYPE
 70
    12
  0
LTYPE
  2
CONTINUOUS
 70
     0
  3
Solid line
 72
    65
 73
     0
 40
0.0
  0
LTYPE
  2
PHANTOM2
 70
     0
  3
___ _ _ ___ _ _ ___ _ _ ___ _ _
 72
    65
 73
     6
 40
1.25
 49
0.625
 49
-0.125
 49
0.125
 49
-0.125
 49
0.125
 49
-0.125
  0
LTYPE
  2
STYLE_05
 70
     0
  3

 72
    65
 73
     2
 40
0.208282470703125
 49
0.069427490234375
 49
-0.13885498046875
  0
ENDTAB
  0
TABLE
  2
LAYER
 70
     5
  0
LAYER
  2
0
 70
     0
 62
     7
  6
CONTINUOUS
  0
LAYER
  2
DATA
 70
     0
 62
     7
  6
CONTINUOUS
  0
LAYER
  2
HIBINO-BASE
 70
     0
 62
     7
  6
CONTINUOUS
  0
LAYER
  2
SPEC
 70
     0
 62
     7
  6
CONTINUOUS
  0
LAYER
  2
DIMNSIONS
 70
     0
 62
     7
  6
CONTINUOUS
  0
ENDTAB
  0
TABLE
  2
STYLE
 70
     3
  0
STYLE
  2
STANDARD
 70
     0
 40
0.0
 41
1.0
 50
0.0
 71
     0
 42
0.0
  3
txt
  4
BIGFONT.SHX
  0
ENDTAB
  0
TABLE
  2
VIEW
 70
     0
  0
ENDTAB
  0
TABLE
  2
UCS
 70
     0
  0
ENDTAB
  0
TABLE
  2
APPID
 70
     4
  0
APPID
  2
ACAD
 70
     0
  0
APPID
  2
ACADANNOTATIVE
 70
     0
  0
APPID
  2
ACAD_NAV_VCDISPLAY
 70
     0
  0
APPID
  2
ACAD_MLEADERVER
 70
     0
  0
ENDTAB
  0
TABLE
  2
DIMSTYLE
 70
     2
  0
DIMSTYLE
  2
STANDARD
 70
     0
  3

  4

  5

  6

  7

 40
1.0
 41
0.18
 42
0.0625
 43
0.38
 44
0.18
 45
0.0
 46
0.0
 47
0.0
 48
0.0
140
0.18
141
0.09
142
0.0
143
25.399999999999999
144
1.0
145
0.0
146
1.0
147
0.09
 71
     0
 72
     0
 73
     1
 74
     1
 75
     0
 76
     0
 77
     0
 78
     0
170
     0
171
     2
172
     0
173
     0
174
     0
175
     0
176
     0
177
     0
178
     0
  0
ENDTAB
  0
ENDSEC
  0
SECTION
  2
BLOCKS
  0
BLOCK
  8
0
  2
$MODEL_SPACE
 70
     0
 10
0.0
 20
0.0
 30
0.0
  3
$MODEL_SPACE
  1

  0
ENDBLK
  5
222
  8
0
  0
BLOCK
 67
     1
  8
0
  2
$PAPER_SPACE
 70
     0
 10
0.0
 20
0.0
 30
0.0
  3
$PAPER_SPACE
  1

  0
ENDBLK
  5
21E
 67
     1
  8
0
  0
ENDSEC
  0
SECTION
  2
ENTITIES
  0
LINE
  5
2C
  8
HIBINO-BASE
  6
CONTINUOUS
 62
     7
 10
279.99999999999989
 20
-116.46818500000001
 30
0.0
 11
-79.999999999999986
 21
-116.46818500000001
 31
0.0
  0
LINE
  5
2D
  8
HIBINO-BASE
  6
CONTINUOUS
 62
     7
 10
-79.999999999999986
 20
-116.46818500000001
 30
0.0
 11
-79.999999999999986
 21
403.53181499999999
 31
0.0
  0
TEXT
  5
2E
  8
HIBINO-BASE
 62
     7
 10
-65.631999999999991
 20
-129.2855405999999
 30
0.0
 40
7.2000883593749991
  1
Hibino Corporation
 41
0.7
 11
-65.631999999999991
 21
-122.0854522406249
 31
0.0
 73
     3
  0
LINE
  5
2F
  8
HIBINO-BASE
  6
CONTINUOUS
 62
     7
 10
279.99999999999989
 20
403.53181499999999
 30
0.0
 11
279.99999999999989
 21
-116.46818500000001
 31
0.0
  0
LINE
  5
30
  8
HIBINO-BASE
  6
CONTINUOUS
 62
     7
 10
100.0
 20
-71.468184999999977
 30
0.0
 11
279.99999999999989
 21
-71.468184999999977
 31
0.0
  0
LINE
  5
31
  8
HIBINO-BASE
  6
CONTINUOUS
 62
     7
 10
100.0
 20
-116.46818500000001
 30
0.0
 11
100.0
 21
-71.468184999999977
 31
0.0
  0
TEXT
  5
32
  8
HIBINO-BASE
 62
     7
 10
101.8
 20
-76.485571666666644
 30
0.0
 40
3.2576822916666659
  1
NOTE
 41
0.7
 11
101.8
 21
-73.227889374999975
 31
0.0
 73
     3
  0
LINE
  5
33
  8
HIBINO-BASE
  6
CONTINUOUS
 62
     7
 10
170.0
 20
-116.46818500000001
 30
0.0
 11
170.0
 21
-71.468184999999977
 31
0.0
  0
TEXT
  5
34
  8
HIBINO-BASE
 62
     7
 10
171.7999999999999
 20
-76.485571666666644
 30
0.0
 40
3.2576822916666659
  1
TITLE
 41
0.7
 11
171.7999999999999
 21
-73.227889374999975
 31
0.0
 73
     3
  0
TEXT
  5
35
  8
HIBINO-BASE
 62
     7
 10
200.13677999999999
 20
-129.2855405999999
 30
0.0
 40
7.2000883593749991
  1
ヒビノ株式会社
 41
0.7
 11
200.13677999999999
 21
-122.0854522406249
 31
0.0
 73
     3
  0
LINE
  5
36
  8
HIBINO-BASE
  6
CONTINUOUS
 62
     7
 10
100.0
 20
-96.468184999999963
 30
0.0
 11
279.99999999999989
 21
-96.468184999999963
 31
0.0
  0
TEXT
  5
37
  8
HIBINO-BASE
 62
     7
 10
196.80000000000001
 20
-101.3729316666666
 30
0.0
 40
3.2576822916666659
  1
DRAWN
 41
0.7
 11
196.80000000000001
 21
-98.115249375000005
 31
0.0
 73
     3
  0
TEXT
  5
38
  8
HIBINO-BASE
 62
     7
 10
146.7999999999999
 20
-101.3729316666666
 30
0.0
 40
3.2576822916666659
  1
DATE
 41
0.7
 11
146.7999999999999
 21
-98.115249375000005
 31
0.0
 73
     3
  0
TEXT
  5
39
  8
HIBINO-BASE
 62
     7
 10
126.8
 20
-101.3729316666666
 30
0.0
 40
3.2576822916666659
  1
SCALE
 41
0.7
 11
126.8
 21
-98.115249375000005
 31
0.0
 73
     3
  0
TEXT
  5
3A
  8
HIBINO-BASE
 62
     7
 10
171.7999999999999
 20
-101.3729316666666
 30
0.0
 40
3.2576822916666659
  1
DESIGN
 41
0.7
 11
171.7999999999999
 21
-98.115249375000005
 31
0.0
 73
     3
  0
TEXT
  5
3B
  8
HIBINO-BASE
 62
     7
 10
246.7999999999999
 20
-101.3729316666666
 30
0.0
 40
3.2576822916666659
  1
DRAWING NO.
 41
0.7
 11
246.7999999999999
 21
-98.115249375000005
 31
0.0
 73
     3
  0
TEXT
  5
3C
  8
HIBINO-BASE
 62
     7
 10
221.7999999999999
 20
-101.3729316666666
 30
0.0
 40
3.2576822916666659
  1
CHECK
 41
0.7
 11
221.7999999999999
 21
-98.115249375000005
 31
0.0
 73
     3
  0
LINE
  5
3D
  8
HIBINO-BASE
  6
CONTINUOUS
 62
     7
 10
128.74999999999989
 20
-113.96818500000001
 30
0.0
 11
136.25
 21
-106.46818499999991
 31
0.0
  0
TEXT
  5
3E
  8
HIBINO-BASE
 62
     7
 10
127.5
 20
-108.68607166666661
 30
0.0
 40
3.2576822916666659
  1
1
 41
0.7
 11
127.5
 21
-105.42838937499999
 31
0.0
 73
     3
  0
LINE
  5
3F
  8
HIBINO-BASE
  6
CONTINUOUS
 62
     7
 10
125.0
 20
-116.46818500000001
 30
0.0
 11
125.0
 21
-96.468184999999963
 31
0.0
  0
LINE
  5
40
  8
HIBINO-BASE
  6
CONTINUOUS
 62
     7
 10
145.0
 20
-116.46818500000001
 30
0.0
 11
145.0
 21
-96.468184999999963
 31
0.0
  0
LINE
  5
41
  8
HIBINO-BASE
  6
CONTINUOUS
 62
     7
 10
195.0
 20
-96.468184999999963
 30
0.0
 11
195.0
 21
-116.46818500000001
 31
0.0
  0
LINE
  5
42
  8
HIBINO-BASE
  6
CONTINUOUS
 62
     7
 10
245.0
 20
-96.468184999999963
 30
0.0
 11
245.0
 21
-116.46818500000001
 31
0.0
  0
LINE
  5
43
  8
HIBINO-BASE
  6
CONTINUOUS
 62
     7
 10
220.0
 20
-116.46818500000001
 30
0.0
 11
220.0
 21
-96.468184999999963
 31
0.0
  0
TEXT
  5
44
  8
HIBINO-BASE
 62
     7
 10
146.71307999999999
 20
-110.7408916666666
 30
0.0
 40
3.2576822916666659
  1
'12.04.
 41
0.7
 11
146.71307999999999
 21
-107.483209375
 31
0.0
 73
     3
  0
TEXT
  5
45
  8
HIBINO-BASE
 62
     7
 10
135.0
 20
-112.43607166666661
 30
0.0
 40
3.2576822916666659
  1
2
 41
0.7
 11
135.0
 21
-109.17838937499999
 31
0.0
 73
     3
  0
TEXT
  5
46
  8
HIBINO-BASE
 62
     7
 10
198.0116200220692
 20
-110.7408916666666
 30
0.0
 40
3.2576822916666659
  1
Ootake
 41
0.7
 11
198.0116200220692
 21
-107.483209375
 31
0.0
 73
     3
  0
TEXT
  5
47
  8
HIBINO-BASE
 62
     7
 10
107.76666666666659
 20
-112.51618499999999
 30
0.0
 40
6.5153645833333318
  1
A4
 41
0.7
 11
107.76666666666659
 21
-106.0008204166666
 31
0.0
 73
     3
  0
TEXT
  5
48
  8
HIBINO-BASE
 62
     7
 10
101.9166666666666
 20
-101.707095
 30
0.0
 40
3.2576822916666659
  1
PAPER SIZE
 41
0.7
 11
101.9166666666666
 21
-98.449412708333327
 31
0.0
 73
     3
  0
LINE
  5
49
  8
HIBINO-BASE
  6
CONTINUOUS
 62
     7
 10
-79.999999999999986
 20
403.53181499999999
 30
0.0
 11
279.99999999999989
 21
403.53181499999999
 31
0.0
  0
LINE
  5
4A
  8
SPEC
  6
CONTINUOUS
 62
     7
 10
-64.999999999999986
 20
383.53181499999999
 30
0.0
 11
230.0
 21
383.53181499999999
 31
0.0
  0
LINE
  5
4B
  8
SPEC
  6
CONTINUOUS
 62
     7
 10
-64.999999999999986
 20
376.03181499999999
 30
0.0
 11
230.0
 21
376.03181499999999
 31
0.0
  0
LINE
  5
4C
  8
SPEC
  6
CONTINUOUS
 62
     7
 10
-64.999999999999986
 20
346.03181499999988
 30
0.0
 11
230.0
 21
346.03181499999988
 31
0.0
  0
LINE
  5
4D
  8
SPEC
  6
CONTINUOUS
 62
     7
 10
-64.999999999999986
 20
353.53181499999988
 30
0.0
 11
230.0
 21
353.53181499999988
 31
0.0
  0
LINE
  5
4E
  8
SPEC
  6
CONTINUOUS
 62
     7
 10
-64.999999999999986
 20
361.03181499999999
 30
0.0
 11
230.0
 21
361.03181499999999
 31
0.0
  0
LINE
  5
4F
  8
SPEC
  6
CONTINUOUS
 62
     7
 10
-64.999999999999986
 20
338.53181499999988
 30
0.0
 11
230.0
 21
338.53181499999988
 31
0.0
  0
LINE
  5
50
  8
SPEC
  6
CONTINUOUS
 62
     7
 10
-64.999999999999986
 20
323.53181499999988
 30
0.0
 11
230.0
 21
323.53181499999988
 31
0.0
  0
LINE
  5
51
  8
SPEC
  6
CONTINUOUS
 62
     7
 10
-64.999999999999986
 20
331.03181499999999
 30
0.0
 11
230.0
 21
331.03181499999999
 31
0.0
  0
LINE
  5
52
  8
SPEC
  6
CONTINUOUS
 62
     7
 10
-64.999999999999986
 20
316.03181499999988
 30
0.0
 11
230.0
 21
316.03181499999988
 31
0.0
  0
LINE
  5
53
  8
SPEC
  6
CONTINUOUS
 62
     7
 10
-64.999999999999986
 20
308.53181499999988
 30
0.0
 11
230.0
 21
308.53181499999988
 31
0.0
  0
LINE
  5
54
  8
SPEC
  6
CONTINUOUS
 62
     7
 10
-64.999999999999986
 20
368.53181499999999
 30
0.0
 11
230.0
 21
368.53181499999999
 31
0.0
  0
TEXT
  5
55
  8
SPEC
 62
     7
 10
1.561233161501163
 20
377.8142402345685
 30
0.0
 40
3.8006224999999989
  1
ボディパック型送信機
 41
0.7
 11
1.5612331615011641
 21
381.61486273456848
 31
0.0
 73
     3
  0
LINE
  5
56
  8
SPEC
  6
CONTINUOUS
 62
     7
 10
-64.999999999999986
 20
383.53181499999999
 30
0.0
 11
-64.999999999999986
 21
256.03181499999999
 31
0.0
  0
TEXT
  5
57
  8
SPEC
 62
     7
 10
-62.5
 20
386.318355
 30
0.0
 40
4.8865234375000002
  1
仕様
 41
0.7
 11
-62.5
 21
391.20487843749999
 31
0.0
 73
     3
  0
LINE
  5
58
  8
SPEC
  6
CONTINUOUS
 62
     7
 10
0.0
 20
383.53181499999999
 30
0.0
 11
-0.0000000000000142
 21
256.03181499999999
 31
0.0
  0
LINE
  5
59
  8
SPEC
  6
CONTINUOUS
 62
     7
 10
230.0
 20
383.53181499999999
 30
0.0
 11
230.0
 21
256.03181499999999
 31
0.0
  0
TEXT
  5
5A
  8
SPEC
 62
     7
 10
1.7643308020059569
 20
310.44095301478552
 30
0.0
 40
3.8006224999999989
  1
20～20、000Hz
 41
0.7
 11
1.7643308020059569
 21
314.2415755147855
 31
0.0
 73
     3
  0
TEXT
  5
5B
  8
SPEC
 62
     7
 10
1.8516956874504871
 20
317.8776634447409
 30
0.0
 40
3.8006224999999989
  1
約30ｍ
 41
0.7
 11
1.8516956874504871
 21
321.67828594474088
 31
0.0
 73
     3
  0
TEXT
  5
5C
  8
SPEC
 62
     7
 10
-63.60094294617987
 20
348.15765820000001
 30
0.0
 40
3.8006224999999989
  1
ダイバーシティ方式
 41
0.7
 11
-63.60094294617987
 21
351.95828069999988
 31
0.0
 73
     3
  0
TEXT
  5
5D
  8
SPEC
 62
     7
 10
-63.294793979117969
 20
377.83383935284309
 30
0.0
 40
3.8006224999999989
  1
形式
 41
0.7
 11
-63.294793979117969
 21
381.63446185284312
 31
0.0
 73
     3
  0
TEXT
  5
5E
  8
SPEC
 62
     7
 10
-63.447096571864101
 20
303.01484395762532
 30
0.0
 40
3.8006224999999989
  1
ゲイン調整範囲
 41
0.7
 11
-63.447096571864101
 21
306.81546645762518
 31
0.0
 73
     3
  0
TEXT
  5
5F
  8
SPEC
 62
     7
 10
-63.200298460263909
 20
333.11372852927519
 30
0.0
 40
3.8006224999999989
  1
使用チャネル選択方式
 41
0.7
 11
-63.200298460263909
 21
336.91435102927522
 31
0.0
 73
     3
  0
TEXT
  5
60
  8
SPEC
 62
     7
 10
-63.225382927158307
 20
325.65812348442688
 30
0.0
 40
3.8006224999999989
  1
各チャンネルの帯域幅
 41
0.7
 11
-63.225382927158307
 21
329.45874598442691
 31
0.0
 73
     3
  0
TEXT
  5
61
  8
SPEC
 62
     7
 10
-63.301860067415006
 20
355.5379064628936
 30
0.0
 40
3.8006224999999989
  1
暗号化
 41
0.7
 11
-63.301860067415006
 21
359.33852896289358
 31
0.0
 73
     3
  0
TEXT
  5
62
  8
SPEC
 62
     7
 10
-63.206830104567537
 20
340.501184313007
 30
0.0
 40
3.8006224999999989
  1
送信周波数
 41
0.7
 11
-63.206830104567537
 21
344.30180681300698
 31
0.0
 73
     3
  0
TEXT
  5
63
  8
SPEC
 62
     7
 10
-63.201517050709221
 20
370.43663625029541
 30
0.0
 40
3.8006224999999989
  1
使用周波数帯域
 41
0.7
 11
-63.201517050709221
 21
374.23725875029538
 31
0.0
 73
     3
  0
TEXT
  5
64
  8
SPEC
 62
     7
 10
-63.293619994562789
 20
363.14008433157039
 30
0.0
 40
3.8006224999999989
  1
変調方式
 41
0.7
 11
-63.293619994562789
 21
366.94070683157042
 31
0.0
 73
     3
  0
TEXT
  5
65
  8
SPEC
 62
     7
 10
-63.306103762390947
 20
318.14632894235581
 30
0.0
 40
3.8006224999999989
  1
到達距離
 41
0.7
 11
-63.306103762390947
 21
321.94695144235578
 31
0.0
 73
     3
  0
TEXT
  5
66
  8
SPEC
 62
     7
 10
-63.248511060519107
 20
310.42107576915578
 30
0.0
 40
3.8006224999999989
  1
周波数特性
 41
0.7
 11
-63.248511060519107
 21
314.22169826915581
 31
0.0
 73
     3
  0
TEXT
  5
67
  8
SPEC
 62
     7
 10
-63.473829016660702
 20
295.49833758219489
 30
0.0
 40
3.8006224999999989
  1
アンテナ
 41
0.7
 11
-63.473829016660702
 21
299.29896008219492
 31
0.0
 73
     3
  0
TEXT
  5
68
  8
SPEC
 62
     7
 10
1.7981152971180441
 20
295.47718164226728
 30
0.0
 40
3.8006224999999989
  1
50\U+03A9
 41
0.7
 11
1.7981152971180441
 21
299.27780414226731
 31
0.0
 73
     3
  0
TEXT
  5
69
  8
SPEC
 62
     7
 10
1.6118205737832481
 20
347.96699056716642
 30
0.0
 40
3.8006224999999989
  1
デジタルダイバーシティ
 41
0.7
 11
1.6118205737832481
 21
351.76761306716639
 31
0.0
 73
     3
  0
TEXT
  5
6A
  8
SPEC
 62
     7
 10
1.7978840633337529
 20
332.8193162772165
 30
0.0
 40
3.8006224999999989
  1
DFS(動的周波数選択)
 41
0.7
 11
1.7978840633337541
 21
336.61993877721648
 31
0.0
 73
     3
  0
TEXT
  5
6B
  8
SPEC
 62
     7
 10
1.5647836348028781
 20
325.44654716173619
 30
0.0
 40
3.8006224999999989
  1
16MHz
 41
0.7
 11
1.564783634802879
 21
329.24716966173622
 31
0.0
 73
     3
  0
TEXT
  5
6C
  8
SPEC
 62
     7
 10
1.8185995535514501
 20
302.6076582
 30
0.0
 40
3.8006224999999989
  1
0～30dB
 41
0.7
 11
1.8185995535514501
 21
306.40828069999998
 31
0.0
 73
     3
  0
TEXT
  5
6D
  8
SPEC
 62
     7
 10
1.553685126903644
 20
355.37600047004412
 30
0.0
 40
3.8006224999999989
  1
128bit、AES
 41
0.7
 11
1.553685126903644
 21
359.17662297004409
 31
0.0
 73
     3
  0
TEXT
  5
6E
  8
SPEC
 62
     7
 10
1.8649713629432361
 20
340.22410893826401
 30
0.0
 40
3.8006224999999989
  1
2412MHz、2438MHz、2462MHz
 41
0.7
 11
1.8649713629432361
 21
344.02473143826398
 31
0.0
 73
     3
  0
TEXT
  5
6F
  8
SPEC
 62
     7
 10
1.8779442820915899
 20
362.73087393760409
 30
0.0
 40
3.8006224999999989
  1
OFDM
 41
0.7
 11
1.8779442820915899
 21
366.53149643760401
 31
0.0
 73
     3
  0
TEXT
  5
70
  8
SPEC
 62
     7
 10
1.7318070400277461
 20
370.1256796942435
 30
0.0
 40
3.8006224999999989
  1
2.4GHz ISM
 41
0.7
 11
1.7318070400277461
 21
373.92630219424348
 31
0.0
 73
     3
  0
LINE
  5
71
  8
SPEC
  6
CONTINUOUS
 62
     7
 10
-64.999999999999986
 20
301.03181499999988
 30
0.0
 11
230.0
 21
301.03181499999988
 31
0.0
  0
LINE
  5
72
  8
SPEC
  6
CONTINUOUS
 62
     7
 10
-64.999999999999986
 20
293.53181499999999
 30
0.0
 11
230.0
 21
293.53181499999999
 31
0.0
  0
LINE
  5
73
  8
SPEC
  6
CONTINUOUS
 62
     7
 10
-64.999999999999986
 20
286.03181499999988
 30
0.0
 11
230.0
 21
286.03181499999988
 31
0.0
  0
LINE
  5
74
  8
SPEC
  6
CONTINUOUS
 62
     7
 10
-64.999999999999986
 20
278.53181499999988
 30
0.0
 11
230.0
 21
278.53181499999988
 31
0.0
  0
LINE
  5
75
  8
SPEC
  6
CONTINUOUS
 62
     7
 10
-64.999999999999986
 20
271.03181499999988
 30
0.0
 11
230.0
 21
271.03181499999988
 31
0.0
  0
LINE
  5
76
  8
SPEC
  6
CONTINUOUS
 62
     7
 10
-64.999999999999986
 20
263.53181499999988
 30
0.0
 11
230.0
 21
263.53181499999988
 31
0.0
  0
LINE
  5
77
  8
SPEC
  6
CONTINUOUS
 62
     7
 10
-64.999999999999986
 20
256.03181499999999
 30
0.0
 11
230.0
 21
256.03181499999999
 31
0.0
  0
TEXT
  5
78
  8
SPEC
 62
     7
 10
-63.336450436809933
 20
287.97785610483032
 30
0.0
 40
3.8006224999999989
  1
電源供給方式
 41
0.7
 11
-63.336450436809933
 21
291.7784786048303
 31
0.0
 73
     3
  0
TEXT
  5
79
  8
SPEC
 62
     7
 10
1.7737368751893989
 20
287.92308948261518
 30
0.0
 40
3.8006224999999989
  1
単3形乾電池\U+00D72本
 41
0.7
 11
1.7737368751893989
 21
291.72371198261521
 31
0.0
 73
     3
  0
TEXT
  5
7A
  8
SPEC
 62
     7
 10
-63.278759366181532
 20
280.3746284786402
 30
0.0
 40
3.8006224999999989
  1
バッテリー・ライフ
 41
0.7
 11
-63.278759366181532
 21
284.17525097864018
 31
0.0
 73
     3
  0
TEXT
  5
7B
  8
SPEC
 62
     7
 10
1.530512521146149
 20
280.64329955143319
 30
0.0
 40
3.8006224999999989
  1
アルカリ：6時間、ニッケル水素：7時間
 41
0.7
 11
1.5305125211461501
 21
284.44392205143311
 31
0.0
 73
     3
  0
TEXT
  5
7C
  8
SPEC
 62
     7
 10
-63.256156786419311
 20
273.00103617007193
 30
0.0
 40
3.8006224999999989
  1
外装
 41
0.7
 11
-63.256156786419311
 21
276.80165867007179
 31
0.0
 73
     3
  0
TEXT
  5
7D
  8
SPEC
 62
     7
 10
1.7416552815936079
 20
272.92111375590071
 30
0.0
 40
3.8006224999999989
  1
黒
 41
0.7
 11
1.7416552815936079
 21
276.72173625590062
 31
0.0
 73
     3
  0
TEXT
  5
7E
  8
SPEC
 62
     7
 10
-63.327590962203189
 20
265.61185855008182
 30
0.0
 40
3.8006293402777769
  1
寸法
 41
0.7
 11
-63.327590962203189
 21
269.41248789035961
 31
0.0
 73
     3
  0
TEXT
  5
7F
  8
SPEC
 62
     7
 10
1.800975420734942
 20
265.44163541645429
 30
0.0
 40
3.8006293402777769
  1
64(W)\U+00D793(H)\U+00D724(D)mm(突起部含まず）
 41
0.7
 11
1.8009754207349431
 21
269.24226475673208
 31
0.0
 73
     3
  0
TEXT
  5
80
  8
SPEC
 62
     7
 10
1.7399198950805039
 20
258.12983706956402
 30
0.0
 40
3.8006293402777769
  1
約80g
 41
0.7
 11
1.7399198950805039
 21
261.93046640984181
 31
0.0
 73
     3
  0
TEXT
  5
81
  8
SPEC
 62
     7
 10
-63.376311477340053
 20
258.31037486413192
 30
0.0
 40
3.8006293402777769
  1
重量
 41
0.7
 11
-63.376311477340053
 21
262.1110042044096
 31
0.0
 73
     3
  0
TEXT
  5
82
  8
DIMNSIONS
 62
     7
 10
60.0
 20
-91.929204999999968
 30
0.0
 40
4.8865234375000002
  1
(単位：mm)
 41
0.7
 11
60.0
 21
-87.042681562499979
 31
0.0
 73
     3
  0
LINE
  5
83
  8
DIMNSIONS
  6
CONTINUOUS
 62
     7
 10
-16.500000000000021
 20
12.5
 30
0.0
 11
-41.500000000000007
 21
12.5
 31
0.0
  0
LINE
  5
84
  8
DIMNSIONS
  6
CONTINUOUS
 62
     7
 10
-16.500000000000021
 20
105.5
 30
0.0
 11
-41.500000000000007
 21
105.5
 31
0.0
  0
LINE
  5
85
  8
DIMNSIONS
  6
CONTINUOUS
 62
     7
 10
-37.500000000000021
 20
12.5
 30
0.0
 11
-37.500000000000021
 21
105.5
 31
0.0
  0
LINE
  5
86
  8
DIMNSIONS
  6
CONTINUOUS
 62
     7
 10
-37.500000000000021
 20
12.5
 30
0.0
 11
-38.840079590300498
 21
17.501245117187491
 31
0.0
  0
LINE
  5
87
  8
DIMNSIONS
  6
CONTINUOUS
 62
     7
 10
-37.500000000000021
 20
12.5
 30
0.0
 11
-36.159920409699531
 21
17.501245117187491
 31
0.0
  0
LINE
  5
88
  8
DIMNSIONS
  6
CONTINUOUS
 62
     7
 10
-37.500000000000021
 20
105.5
 30
0.0
 11
-36.159920409699531
 21
100.49875488281251
 31
0.0
  0
LINE
  5
89
  8
DIMNSIONS
  6
CONTINUOUS
 62
     7
 10
-37.500000000000021
 20
105.5
 30
0.0
 11
-38.840079590300498
 21
100.49875488281251
 31
0.0
  0
TEXT
  5
8A
  8
DIMNSIONS
 62
     7
 10
-39.487777777777772
 20
55.472222222222221
 30
0.0
 40
5.4294704861111107
  1
93
 50
90.0
 41
0.7
 11
-44.917248263888879
 21
55.472222222222221
 31
0.0
 73
     3
  0
LINE
  5
8B
  8
DIMNSIONS
  6
CONTINUOUS
 62
     7
 10
-12.500000000000011
 20
8.5
 30
0.0
 11
-12.500000000000011
 21
-16.5
 31
0.0
  0
LINE
  5
8C
  8
DIMNSIONS
  6
CONTINUOUS
 62
     7
 10
51.499999999999993
 20
8.5
 30
0.0
 11
51.499999999999993
 21
-16.5
 31
0.0
  0
LINE
  5
8D
  8
DIMNSIONS
  6
CONTINUOUS
 62
     7
 10
-12.500000000000011
 20
-12.5
 30
0.0
 11
51.499999999999993
 21
-12.5
 31
0.0
  0
LINE
  5
8E
  8
DIMNSIONS
  6
CONTINUOUS
 62
     7
 10
-12.500000000000011
 20
-12.5
 30
0.0
 11
-7.498754882812519
 21
-11.159920409699501
 31
0.0
  0
LINE
  5
8F
  8
DIMNSIONS
  6
CONTINUOUS
 62
     7
 10
-12.500000000000011
 20
-12.5
 30
0.0
 11
-7.498754882812519
 21
-13.840079590300491
 31
0.0
  0
LINE
  5
90
  8
DIMNSIONS
  6
CONTINUOUS
 62
     7
 10
51.499999999999993
 20
-12.5
 30
0.0
 11
46.498754882812477
 21
-13.840079590300491
 31
0.0
  0
LINE
  5
91
  8
DIMNSIONS
  6
CONTINUOUS
 62
     7
 10
51.499999999999993
 20
-12.5
 30
0.0
 11
46.498754882812477
 21
-11.159920409699501
 31
0.0
  0
TEXT
  5
92
  8
DIMNSIONS
 62
     7
 10
15.972222222222211
 20
-10.51222222222224
 30
0.0
 40
5.4294704861111107
  1
64
 41
0.7
 11
15.972222222222211
 21
-5.0827517361111347
 31
0.0
 73
     3
  0
LINE
  5
93
  8
DIMNSIONS
  6
CONTINUOUS
 62
     7
 10
-16.500000000000021
 20
105.5
 30
0.0
 11
-41.500000000000007
 21
105.5
 31
0.0
  0
LINE
  5
94
  8
DIMNSIONS
  6
CONTINUOUS
 62
     7
 10
8.4999999999999876
 20
107.0
 30
0.0
 11
-41.500000000000007
 21
107.0
 31
0.0
  0
LINE
  5
95
  8
DIMNSIONS
  6
CONTINUOUS
 62
     7
 10
-37.500000000000021
 20
107.0
 30
0.0
 11
-37.500000000000021
 21
105.5
 31
0.0
  0
LINE
  5
96
  8
DIMNSIONS
  6
CONTINUOUS
 62
     7
 10
-37.500000000000021
 20
105.5
 30
0.0
 11
-37.500000000000021
 21
95.5
 31
0.0
  0
LINE
  5
97
  8
DIMNSIONS
  6
CONTINUOUS
 62
     7
 10
-37.500000000000021
 20
105.5
 30
0.0
 11
-36.159920409699531
 21
100.49875488281251
 31
0.0
  0
LINE
  5
98
  8
DIMNSIONS
  6
CONTINUOUS
 62
     7
 10
-37.500000000000021
 20
105.5
 30
0.0
 11
-38.840079590300498
 21
100.49875488281251
 31
0.0
  0
LINE
  5
99
  8
DIMNSIONS
  6
CONTINUOUS
 62
     7
 10
-37.500000000000021
 20
107.0
 30
0.0
 11
-37.500000000000021
 21
123.0833333333333
 31
0.0
  0
LINE
  5
9A
  8
DIMNSIONS
  6
CONTINUOUS
 62
     7
 10
-37.500000000000021
 20
107.0
 30
0.0
 11
-38.840079590300498
 21
112.00124511718739
 31
0.0
  0
LINE
  5
9B
  8
DIMNSIONS
  6
CONTINUOUS
 62
     7
 10
-37.500000000000021
 20
107.0
 30
0.0
 11
-36.159920409699531
 21
112.00124511718739
 31
0.0
  0
TEXT
  5
9C
  8
DIMNSIONS
 62
     7
 10
-39.487777777777772
 20
112.5
 30
0.0
 40
5.4294704861111107
  1
1.5
 50
90.0
 41
0.7
 11
-44.917248263888879
 21
112.5
 31
0.0
 73
     3
  0
LINE
  5
9D
  8
DIMNSIONS
  6
CONTINUOUS
 62
     7
 10
-1.6853574512804379
 20
137.49911717350221
 30
0.0
 11
-41.500000000000007
 21
137.49911717350221
 31
0.0
  0
LINE
  5
9E
  8
DIMNSIONS
  6
CONTINUOUS
 62
     7
 10
-11.500000000000011
 20
161.49943872517221
 30
0.0
 11
-41.500000000000007
 21
161.49943872517221
 31
0.0
  0
LINE
  5
9F
  8
DIMNSIONS
  6
CONTINUOUS
 62
     7
 10
-37.500000000000021
 20
137.49911717350221
 30
0.0
 11
-37.500000000000021
 21
161.49943872517221
 31
0.0
  0
LINE
  5
A0
  8
DIMNSIONS
  6
CONTINUOUS
 62
     7
 10
-37.500000000000021
 20
137.49911717350221
 30
0.0
 11
-38.840079590300498
 21
142.50036229068971
 31
0.0
  0
LINE
  5
A1
  8
DIMNSIONS
  6
CONTINUOUS
 62
     7
 10
-37.500000000000021
 20
137.49911717350221
 30
0.0
 11
-36.159920409699531
 21
142.50036229068971
 31
0.0
  0
LINE
  5
A2
  8
DIMNSIONS
  6
CONTINUOUS
 62
     7
 10
-37.500000000000021
 20
161.49943872517221
 30
0.0
 11
-36.159920409699531
 21
156.49819360798469
 31
0.0
  0
LINE
  5
A3
  8
DIMNSIONS
  6
CONTINUOUS
 62
     7
 10
-37.500000000000021
 20
161.49943872517221
 30
0.0
 11
-38.840079590300498
 21
156.49819360798469
 31
0.0
  0
TEXT
  5
A4
  8
DIMNSIONS
 62
     7
 10
-39.487777777777772
 20
145.9715001715594
 30
0.0
 40
5.4294704861111107
  1
24
 50
90.0
 41
0.7
 11
-44.917248263888879
 21
145.9715001715594
 31
0.0
 73
     3
  0
TEXT
  5
A5
  8
DATA
 62
     7
 10
200.0
 20
-94.582058098121195
 30
0.0
 40
4.8865234375000002
  1
DPT70
 41
0.7
 11
200.0
 21
-89.695534660621206
 31
0.0
 73
     3
  0
TEXT
  5
A6
  8
DATA
 62
     7
 10
200.0
 20
-79.706404999999975
 30
0.0
 40
4.8865234375000002
  1
AKG
 41
0.7
 11
200.0
 21
-74.819881562499972
 31
0.0
 73
     3
  0
TEXT
  5
A7
  8
DATA
 62
     7
 10
-60.0
 20
-107.99218500000001
 30
0.0
 40
3.2576822916666659
  1
仕様および外観は予告なく変更されることがありますので、ご了承ください。
 41
0.7
 11
-60.0
 21
-104.7345027083333
 31
0.0
 73
     3
  0
TEXT
  5
A8
  8
DATA
 62
     7
 10
195.20239638199399
 20
-86.05229919302397
 30
0.0
 40
3.2576822916666659
  1
ボディパック型送信機
 41
0.7
 11
195.20239638199399
 21
-82.794616901357315
 31
0.0
 73
     3
  0
LINE
  5
A9
  8
DATA
  6
CONTINUOUS
 62
     7
 10
-12.500000000000011
 20
12.5
 30
0.0
 11
-12.500000000000011
 21
105.5
 31
0.0
  0
LINE
  5
AA
  8
DATA
  6
CONTINUOUS
 62
     7
 10
51.499999999999993
 20
12.5
 30
0.0
 11
-12.500000000000011
 21
12.5
 31
0.0
  0
LINE
  5
AB
  8
DATA
  6
CONTINUOUS
 62
     7
 10
51.499999999999993
 20
105.5
 30
0.0
 11
51.499999999999993
 21
12.5
 31
0.0
  0
LINE
  5
AC
  8
DATA
  6
CONTINUOUS
 62
     7
 10
-12.500000000000011
 20
105.5
 30
0.0
 11
51.499999999999993
 21
105.5
 31
0.0
  0
LINE
  5
AD
  8
DATA
  6
CONTINUOUS
 62
     7
 10
51.499999999999993
 20
58.5
 30
0.0
 11
-12.500000000000011
 21
58.5
 31
0.0
  0
LINE
  5
AE
  8
DATA
  6
CONTINUOUS
 62
     7
 10
51.499999999999993
 20
59.29999999999999
 30
0.0
 11
-12.500000000000011
 21
59.29999999999999
 31
0.0
  0
LINE
  5
AF
  8
DATA
  6
CONTINUOUS
 62
     7
 10
5.9999999999999849
 20
105.5
 30
0.0
 11
5.9999999999999849
 21
59.29999999999999
 31
0.0
  0
LINE
  5
B0
  8
DATA
  6
CONTINUOUS
 62
     7
 10
5.9999999999999849
 20
58.5
 30
0.0
 11
5.9999999999999849
 21
12.5
 31
0.0
  0
LINE
  5
B1
  8
DATA
  6
CONTINUOUS
 62
     7
 10
32.999999999999993
 20
105.5
 30
0.0
 11
32.999999999999993
 21
59.29999999999999
 31
0.0
  0
LINE
  5
B2
  8
DATA
  6
CONTINUOUS
 62
     7
 10
32.999999999999993
 20
58.5
 30
0.0
 11
32.999999999999993
 21
12.5
 31
0.0
  0
LINE
  5
B3
  8
DATA
  6
CONTINUOUS
 62
     7
 10
2.4999999999999849
 20
105.5
 30
0.0
 11
2.4999999999999849
 21
59.29999999999999
 31
0.0
  0
LINE
  5
B4
  8
DATA
  6
CONTINUOUS
 62
     7
 10
2.4999999999999849
 20
58.5
 30
0.0
 11
2.4999999999999849
 21
12.5
 31
0.0
  0
LINE
  5
B5
  8
DATA
  6
CONTINUOUS
 62
     7
 10
36.499999999999993
 20
105.5
 30
0.0
 11
36.499999999999993
 21
59.29999999999999
 31
0.0
  0
LINE
  5
B6
  8
DATA
  6
CONTINUOUS
 62
     7
 10
36.499999999999993
 20
58.5
 30
0.0
 11
36.499999999999993
 21
12.5
 31
0.0
  0
TEXT
  5
B7
  8
DATA
 62
     7
 10
13.47727635541969
 20
16.82493294642612
 30
0.0
 40
4.321527777777777
  1
DPT70
 41
0.7
 11
13.47727635541969
 21
21.146460724203909
 31
0.0
 73
     3
  0
CIRCLE
  5
B8
  8
DATA
  6
CONTINUOUS
 62
     7
 10
19.499999999999979
 20
89.342855215554522
 30
0.0
 40
7.5
  0
LINE
  5
B9
  8
DATA
  6
CONTINUOUS
 62
     7
 10
12.49999999999998
 20
107.0
 30
0.0
 11
42.499999999999993
 21
107.0
 31
0.0
  0
LINE
  5
BA
  8
DATA
  6
CONTINUOUS
 62
     7
 10
42.499999999999993
 20
105.5
 30
0.0
 11
42.499999999999993
 21
107.0
 31
0.0
  0
LINE
  5
BB
  8
DATA
  6
CONTINUOUS
 62
     7
 10
12.49999999999998
 20
105.5
 30
0.0
 11
12.49999999999998
 21
107.0
 31
0.0
  0
CIRCLE
  5
BC
  8
DATA
  6
CONTINUOUS
 62
     7
 10
19.499999999999979
 20
53.5
 30
0.0
 40
0.4500000000000028
  0
CIRCLE
  5
BD
  8
DATA
  6
CONTINUOUS
 62
     7
 10
16.499999999999979
 20
53.5
 30
0.0
 40
0.4500000000000028
  0
CIRCLE
  5
BE
  8
DATA
  6
CONTINUOUS
 62
     7
 10
22.499999999999989
 20
53.5
 30
0.0
 40
0.4500000000000028
  0
CIRCLE
  5
BF
  8
DATA
  6
CONTINUOUS
 62
     7
 10
19.499999999999979
 20
49.5
 30
0.0
 40
0.4500000000000028
  0
CIRCLE
  5
C0
  8
DATA
  6
CONTINUOUS
 62
     7
 10
17.954999999999991
 20
51.560000000000002
 30
0.0
 40
0.4500000000000028
  0
CIRCLE
  5
C1
  8
DATA
  6
CONTINUOUS
 62
     7
 10
21.04499999999998
 20
51.560000000000002
 30
0.0
 40
0.4500000000000028
  0
LINE
  5
C2
  8
DATA
  6
CONTINUOUS
 62
     7
 10
87.5
 20
58.499999999999361
 30
0.0
 11
87.5
 21
59.300000000067492
 31
0.0
  0
LINE
  5
C3
  8
DATA
  6
CONTINUOUS
 62
     7
 10
88.849999999996967
 20
105.5
 30
0.0
 11
111.5
 21
105.5
 31
0.0
  0
LINE
  5
C4
  8
DATA
  6
CONTINUOUS
 62
     7
 10
93.399999999999864
 20
12.5
 30
0.0
 11
111.5
 21
12.5
 31
0.0
  0
LINE
  5
C5
  8
DATA
  6
CONTINUOUS
 62
     7
 10
5.9999999999999849
 20
140.49943872517221
 30
0.0
 11
32.999999999999993
 21
140.49943872517221
 31
0.0
  0
LINE
  5
C6
  8
DATA
  6
CONTINUOUS
 62
     7
 10
-12.500000000000011
 20
144.68973090524719
 30
0.0
 11
-12.500000000000011
 21
157.41453430325441
 31
0.0
  0
LINE
  5
C7
  8
DATA
  6
CONTINUOUS
 62
     7
 10
51.499999999999993
 20
144.68973090524719
 30
0.0
 11
51.499999999999993
 21
157.41453430325441
 31
0.0
  0
LINE
  5
C8
  8
DATA
  6
CONTINUOUS
 62
     7
 10
36.499999999999993
 20
161.49943872517221
 30
0.0
 11
41.918246507032208
 21
161.49943872517221
 31
0.0
  0
LINE
  5
C9
  8
DATA
  6
CONTINUOUS
 62
     7
 10
2.4999999999999849
 20
139.99943872517221
 30
0.0
 11
5.9999999999999849
 21
140.49943872517221
 31
0.0
  0
LINE
  5
CA
  8
DATA
  6
CONTINUOUS
 62
     7
 10
36.499999999999993
 20
139.99943872517221
 30
0.0
 11
32.999999999999993
 21
140.49943872517221
 31
0.0
  0
LINE
  5
CB
  8
DATA
  6
CONTINUOUS
 62
     7
 10
36.499999999999993
 20
139.99943872517221
 30
0.0
 11
50.340844423409621
 21
143.22896909063439
 31
0.0
  0
LINE
  5
CC
  8
DATA
  6
CONTINUOUS
 62
     7
 10
2.4999999999999849
 20
139.99943872517221
 30
0.0
 11
-11.34084442340963
 21
143.22896909063439
 31
0.0
  0
LINE
  5
CD
  8
DATA
  6
CONTINUOUS
 62
     7
 10
-11.469642639346
 20
158.83911697593729
 30
0.0
 11
-3.8575317857242051
 21
161.3486040705379
 31
0.0
  0
LINE
  5
CE
  8
DATA
  6
CONTINUOUS
 62
     7
 10
50.46964263934597
 20
158.83911697593729
 30
0.0
 11
42.857531785724163
 21
161.3486040705379
 31
0.0
  0
ARC
  5
CF
  8
DATA
  6
CONTINUOUS
 62
     7
 10
-11.000000000000011
 20
157.41453430325441
 30
0.0
 40
1.500000000000002
 50
108.2458545275785
 51
180.0
  0
ARC
  5
D0
  8
DATA
  6
CONTINUOUS
 62
     7
 10
49.999999999999979
 20
157.41453430325441
 30
0.0
 40
1.5000000000000071
 50
359.99999999999977
 51
71.754145472421499
  0
ARC
  5
D1
  8
DATA
  6
CONTINUOUS
 62
     7
 10
-2.9182465070322361
 20
158.49943872517221
 30
0.0
 40
3.0
 50
90.0
 51
108.2458545275782
  0
ARC
  5
D2
  8
DATA
  6
CONTINUOUS
 62
     7
 10
41.918246507032208
 20
158.49943872517221
 30
0.0
 40
3.0
 50
71.754145472421797
 51
90.0
  0
ARC
  5
D3
  8
DATA
  6
CONTINUOUS
 62
     7
 10
-11.00000000000002
 20
144.68973090524719
 30
0.0
 40
1.4999999999999849
 50
180.00000000000011
 51
256.86597769360452
  0
ARC
  5
D4
  8
DATA
  6
CONTINUOUS
 62
     7
 10
50.0
 20
144.68973090524719
 30
0.0
 40
1.5000000000000011
 50
283.13402230639639
 51
0.0000000000000568
  0
LINE
  5
D5
  8
DATA
  6
CONTINUOUS
 62
     7
 10
5.9999999999999849
 20
140.49943872517221
 30
0.0
 11
5.9999999999999849
 21
150.9021326042508
 31
0.0
  0
LINE
  5
D6
  8
DATA
  6
CONTINUOUS
 62
     7
 10
32.999999999999993
 20
140.49943872517221
 30
0.0
 11
32.999999999999993
 21
144.0521326042508
 31
0.0
  0
CIRCLE
  5
D7
  8
DATA
  6
CONTINUOUS
 62
     7
 10
-2.7443957478384098
 20
151.0521326042508
 30
0.0
 40
6.75
  0
CIRCLE
  5
D8
  8
DATA
  6
CONTINUOUS
 62
     7
 10
-2.7443957478384098
 20
151.0521326042508
 30
0.0
 40
4.2399999999999931
  0
LINE
  5
D9
  8
DATA
  6
CONTINUOUS
 62
     7
 10
51.499999999999993
 20
150.9021326042508
 30
0.0
 11
42.4763889509479
 21
150.9021326042508
 31
0.0
  0
LINE
  5
DA
  8
DATA
  6
CONTINUOUS
 62
     7
 10
27.476388950947911
 20
150.9021326042508
 30
0.0
 11
25.334615900317701
 21
150.9021326042508
 31
0.0
  0
LINE
  5
DB
  8
DATA
  6
CONTINUOUS
 62
     7
 10
14.33461590031769
 20
150.9021326042508
 30
0.0
 11
9.9682973553454577
 21
150.9021326042508
 31
0.0
  0
LINE
  5
DC
  8
DATA
  6
CONTINUOUS
 62
     7
 10
8.4682973553454541
 20
150.9021326042508
 30
0.0
 11
4.0039373796827107
 21
150.9021326042508
 31
0.0
  0
LINE
  5
DD
  8
DATA
  6
CONTINUOUS
 62
     7
 10
-9.492728875359516
 20
150.9021326042508
 30
0.0
 11
-12.500000000000011
 21
150.9021326042508
 31
0.0
  0
LINE
  5
DE
  8
DATA
  6
CONTINUOUS
 62
     7
 10
-12.500000000000011
 20
151.20213260425081
 30
0.0
 11
-9.492728875359516
 21
151.20213260425081
 31
0.0
  0
LINE
  5
DF
  8
DATA
  6
CONTINUOUS
 62
     7
 10
4.0039373796827107
 20
151.20213260425081
 30
0.0
 11
8.4682973553454541
 21
151.20213260425081
 31
0.0
  0
LINE
  5
E0
  8
DATA
  6
CONTINUOUS
 62
     7
 10
9.9682973553454577
 20
151.20213260425081
 30
0.0
 11
14.33461590031769
 21
151.20213260425081
 31
0.0
  0
LINE
  5
E1
  8
DATA
  6
CONTINUOUS
 62
     7
 10
25.334615900317701
 20
151.20213260425081
 30
0.0
 11
27.476388950947911
 21
151.20213260425081
 31
0.0
  0
LINE
  5
E2
  8
DATA
  6
CONTINUOUS
 62
     7
 10
42.4763889509479
 20
151.20213260425081
 30
0.0
 11
51.499999999999993
 21
151.20213260425081
 31
0.0
  0
LINE
  5
E3
  8
DATA
  6
CONTINUOUS
 62
     7
 10
42.4763889509479
 20
158.0521326042508
 30
0.0
 11
42.4763889509479
 21
155.0521326042508
 31
0.0
  0
LINE
  5
E4
  8
DATA
  6
CONTINUOUS
 62
     7
 10
42.4763889509479
 20
147.0521326042508
 30
0.0
 11
42.4763889509479
 21
144.0521326042508
 31
0.0
  0
LINE
  5
E5
  8
DATA
  6
CONTINUOUS
 62
     7
 10
12.476388950947911
 20
158.0521326042508
 30
0.0
 11
12.476388950947911
 21
155.0521326042508
 31
0.0
  0
LINE
  5
E6
  8
DATA
  6
CONTINUOUS
 62
     7
 10
12.476388950947911
 20
147.0521326042508
 30
0.0
 11
12.476388950947911
 21
144.0521326042508
 31
0.0
  0
LINE
  5
E7
  8
DATA
  6
CONTINUOUS
 62
     7
 10
12.476388950947911
 20
158.0521326042508
 30
0.0
 11
42.4763889509479
 21
158.0521326042508
 31
0.0
  0
LINE
  5
E8
  8
DATA
  6
CONTINUOUS
 62
     7
 10
42.4763889509479
 20
144.0521326042508
 30
0.0
 11
12.476388950947911
 21
144.0521326042508
 31
0.0
  0
LINE
  5
E9
  8
DATA
  6
CONTINUOUS
 62
     7
 10
12.476388950947911
 20
155.0521326042508
 30
0.0
 11
42.4763889509479
 21
155.0521326042508
 31
0.0
  0
LINE
  5
EA
  8
DATA
  6
CONTINUOUS
 62
     7
 10
42.4763889509479
 20
147.0521326042508
 30
0.0
 11
12.476388950947911
 21
147.0521326042508
 31
0.0
  0
LINE
  5
EB
  8
DATA
  6
CONTINUOUS
 62
     7
 10
27.476388950947911
 20
147.0521326042508
 30
0.0
 11
27.476388950947911
 21
155.0521326042508
 31
0.0
  0
LINE
  5
EC
  8
DATA
  6
CONTINUOUS
 62
     7
 10
42.4763889509479
 20
147.0521326042508
 30
0.0
 11
42.4763889509479
 21
155.0521326042508
 31
0.0
  0
CIRCLE
  5
ED
  8
DATA
  6
CONTINUOUS
 62
     7
 10
32.485305520162832
 20
151.05562511891139
 30
0.0
 40
0.4500000000000028
  0
CIRCLE
  5
EE
  8
DATA
  6
CONTINUOUS
 62
     7
 10
32.485305520162832
 20
154.05562511891139
 30
0.0
 40
0.4500000000000028
  0
CIRCLE
  5
EF
  8
DATA
  6
CONTINUOUS
 62
     7
 10
32.485305520162832
 20
148.05562511891139
 30
0.0
 40
0.4500000000000037
  0
CIRCLE
  5
F0
  8
DATA
  6
CONTINUOUS
 62
     7
 10
28.485305520162829
 20
151.05562511891139
 30
0.0
 40
0.4500000000000028
  0
CIRCLE
  5
F1
  8
DATA
  6
CONTINUOUS
 62
     7
 10
30.545305520162831
 20
152.60062511891141
 30
0.0
 40
0.4500000000000028
  0
CIRCLE
  5
F2
  8
DATA
  6
CONTINUOUS
 62
     7
 10
30.545305520162831
 20
149.51062511891141
 30
0.0
 40
0.4500000000000028
  0
CIRCLE
  5
F3
  8
DATA
  6
CONTINUOUS
 62
     7
 10
37.532063446888174
 20
151.05562511891139
 30
0.0
 40
0.4500000000000028
  0
CIRCLE
  5
F4
  8
DATA
  6
CONTINUOUS
 62
     7
 10
37.532063446888174
 20
154.05562511891139
 30
0.0
 40
0.4500000000000028
  0
CIRCLE
  5
F5
  8
DATA
  6
CONTINUOUS
 62
     7
 10
37.532063446888174
 20
148.05562511891139
 30
0.0
 40
0.4500000000000037
  0
CIRCLE
  5
F6
  8
DATA
  6
CONTINUOUS
 62
     7
 10
41.532063446888174
 20
151.05562511891139
 30
0.0
 40
0.4500000000000028
  0
CIRCLE
  5
F7
  8
DATA
  6
CONTINUOUS
 62
     7
 10
39.472063446888171
 20
152.60062511891141
 30
0.0
 40
0.4500000000000028
  0
CIRCLE
  5
F8
  8
DATA
  6
CONTINUOUS
 62
     7
 10
39.472063446888171
 20
149.51062511891141
 30
0.0
 40
0.4500000000000028
  0
POLYLINE
  5
F9
  8
DATA
  6
CONTINUOUS
 62
     7
 66
     1
 10
0.0
 20
0.0
 30
0.0
 70
     1
  0
VERTEX
  5
256
  8
DATA
  6
CONTINUOUS
 62
     7
 10
14.33461590031769
 20
154.1521326042508
 30
0.0
  0
VERTEX
  5
257
  8
DATA
  6
CONTINUOUS
 62
     7
 10
25.334615900317701
 20
154.1521326042508
 30
0.0
  0
VERTEX
  5
258
  8
DATA
  6
CONTINUOUS
 62
     7
 10
25.334615900317701
 20
147.95213260425081
 30
0.0
  0
VERTEX
  5
259
  8
DATA
  6
CONTINUOUS
 62
     7
 10
14.33461590031769
 20
147.95213260425081
 30
0.0
  0
SEQEND
  5
25A
  8
DATA
  6
CONTINUOUS
 62
     7
  0
ARC
  5
100
  8
DATA
  6
CONTINUOUS
 62
     7
 10
19.834615900317669
 20
151.0521326042508
 30
0.0
 40
2.0000000000000129
 50
292.02431283704237
 51
247.97568716295839
  0
LINE
  5
101
  8
DATA
  6
CONTINUOUS
 62
     7
 10
19.83461590031769
 20
150.9021326042508
 30
0.0
 11
19.83461590031769
 21
148.1994387251722
 31
0.0
  0
ARC
  5
102
  8
DATA
  6
CONTINUOUS
 62
     7
 10
2.3146425487195601
 20
138.49911717350221
 30
0.0
 40
0.9999999999999955
 50
247.58364439471271
 51
310.60129464500483
  0
LINE
  5
103
  8
DATA
  6
CONTINUOUS
 62
     7
 10
2.965433922175535
 20
137.73986057113689
 30
0.0
 11
5.9999999999999849
 21
140.49943872517221
 31
0.0
  0
LINE
  5
104
  8
DATA
  6
CONTINUOUS
 62
     7
 10
1.9333082677617019
 20
137.5746799575885
 30
0.0
 11
-11.640000000000001
 21
143.3331174746782
 31
0.0
  0
ARC
  5
105
  8
DATA
  6
CONTINUOUS
 62
     7
 10
36.68535745128041
 20
138.49911717350221
 30
0.0
 40
1.0
 50
229.39870535499509
 51
292.41635560528732
  0
LINE
  5
106
  8
DATA
  6
CONTINUOUS
 62
     7
 10
36.034566077824437
 20
137.73986057113689
 30
0.0
 11
32.999999999999993
 21
140.49943872517221
 31
0.0
  0
LINE
  5
107
  8
DATA
  6
CONTINUOUS
 62
     7
 10
37.066691732238262
 20
137.5746799575885
 30
0.0
 11
50.639999999999972
 21
143.3331174746782
 31
0.0
  0
POLYLINE
  5
108
  8
DATA
  6
CONTINUOUS
 62
     7
 66
     1
 10
0.0
 20
0.0
 30
0.0
 70
     1
  0
VERTEX
  5
25B
  8
DATA
  6
CONTINUOUS
 62
     7
 10
8.4682973553454541
 20
154.4021326042508
 30
0.0
  0
VERTEX
  5
25C
  8
DATA
  6
CONTINUOUS
 62
     7
 10
9.9682973553454577
 20
154.4021326042508
 30
0.0
  0
VERTEX
  5
25D
  8
DATA
  6
CONTINUOUS
 62
     7
 10
9.9682973553454577
 20
147.70213260425081
 30
0.0
  0
VERTEX
  5
25E
  8
DATA
  6
CONTINUOUS
 62
     7
 10
8.4682973553454541
 20
147.70213260425081
 30
0.0
  0
SEQEND
  5
25F
  8
DATA
  6
CONTINUOUS
 62
     7
  0
CIRCLE
  5
10F
  8
DATA
  6
CONTINUOUS
 62
     7
 10
-2.7443957478384098
 20
153.0521326042508
 30
0.0
 40
0.2999999999999972
  0
CIRCLE
  5
110
  8
DATA
  6
CONTINUOUS
 62
     7
 10
-4.7443957478384098
 20
151.0521326042508
 30
0.0
 40
0.2999999999999972
  0
CIRCLE
  5
111
  8
DATA
  6
CONTINUOUS
 62
     7
 10
-0.7443957478384107
 20
151.0521326042508
 30
0.0
 40
0.2999999999999972
  0
LINE
  5
112
  8
DATA
  6
CONTINUOUS
 62
     7
 10
3.9112849861181611
 20
138.59999999999999
 30
0.0
 11
35.08871501388181
 21
138.59999999999999
 31
0.0
  0
LINE
  5
113
  8
DATA
  6
CONTINUOUS
 62
     7
 10
111.5
 20
12.5
 30
0.0
 11
111.5
 21
52.5
 31
0.0
  0
LINE
  5
114
  8
DATA
  6
CONTINUOUS
 62
     7
 10
111.5
 20
54.29999999999999
 30
0.0
 11
111.5
 21
86.900000000000006
 31
0.0
  0
LINE
  5
115
  8
DATA
  6
CONTINUOUS
 62
     7
 10
94.052693879413567
 20
107.0
 30
0.0
 11
108.0526938794135
 21
107.0
 31
0.0
  0
LINE
  5
116
  8
DATA
  6
CONTINUOUS
 62
     7
 10
101.2026938794136
 20
105.5
 30
0.0
 11
101.2026938794136
 21
12.5
 31
0.0
  0
LINE
  5
117
  8
DATA
  6
CONTINUOUS
 62
     7
 10
100.9026938794136
 20
105.5
 30
0.0
 11
100.9026938794136
 21
12.5
 31
0.0
  0
LINE
  5
118
  8
DATA
  6
CONTINUOUS
 62
     7
 10
94.052693879413567
 20
107.0
 30
0.0
 11
94.052693879413567
 21
105.5
 31
0.0
  0
LINE
  5
119
  8
DATA
  6
CONTINUOUS
 62
     7
 10
108.0526938794135
 20
107.0
 30
0.0
 11
108.0526938794135
 21
105.5
 31
0.0
  0
LINE
  5
11A
  8
DATA
  6
CONTINUOUS
 62
     7
 10
97.052693879413582
 20
107.0
 30
0.0
 11
97.052693879413582
 21
105.5
 31
0.0
  0
LINE
  5
11B
  8
DATA
  6
CONTINUOUS
 62
     7
 10
105.0526938794136
 20
107.0
 30
0.0
 11
105.0526938794136
 21
105.5
 31
0.0
  0
LINE
  5
11C
  8
DATA
  6
CONTINUOUS
 62
     7
 10
87.5
 20
59.29999999999999
 30
0.0
 11
100.9026938794136
 21
59.29999999999999
 31
0.0
  0
LINE
  5
11D
  8
DATA
  6
CONTINUOUS
 62
     7
 10
87.5
 20
58.5
 30
0.0
 11
100.9026938794136
 21
58.5
 31
0.0
  0
ARC
  5
11E
  8
DATA
  6
CONTINUOUS
 62
     7
 10
451.28209456599689
 20
71.65000000000002
 30
0.0
 40
359.59154069283642
 50
174.59848810392461
 51
181.9681832834616
  0
ARC
  5
11F
  8
DATA
  6
CONTINUOUS
 62
     7
 10
-13725.952659573801
 20
486.05957446806821
 30
0.0
 40
13820.043346990151
 50
358.23043896935678
 51
358.42205892621888
  0
ARC
  5
120
  8
DATA
  6
CONTINUOUS
 62
     7
 10
439.21122687917023
 20
101.836658374904
 30
0.0
 40
349.90527579623853
 50
187.11449644948789
 51
194.79235158696301
  0
ARC
  5
121
  8
DATA
  6
CONTINUOUS
 62
     7
 10
502.9751299826716
 20
88.41083188908182
 30
0.0
 40
416.55040691183439
 50
184.11772633843711
 51
190.5000768827725
  0
LINE
  5
122
  8
DATA
  6
CONTINUOUS
 62
     7
 10
214.0
 20
12.5
 30
0.0
 11
214.0
 21
105.5
 31
0.0
  0
LINE
  5
123
  8
DATA
  6
CONTINUOUS
 62
     7
 10
150.0
 20
12.5
 30
0.0
 11
214.0
 21
12.5
 31
0.0
  0
LINE
  5
124
  8
DATA
  6
CONTINUOUS
 62
     7
 10
150.0
 20
105.5
 30
0.0
 11
150.0
 21
12.5
 31
0.0
  0
LINE
  5
125
  8
DATA
  6
CONTINUOUS
 62
     7
 10
214.0
 20
105.5
 30
0.0
 11
150.0
 21
105.5
 31
0.0
  0
LINE
  5
126
  8
DATA
  6
CONTINUOUS
 62
     7
 10
189.0
 20
107.0
 30
0.0
 11
159.0
 21
107.0
 31
0.0
  0
LINE
  5
127
  8
DATA
  6
CONTINUOUS
 62
     7
 10
159.0
 20
105.5
 30
0.0
 11
159.0
 21
107.0
 31
0.0
  0
LINE
  5
128
  8
DATA
  6
CONTINUOUS
 62
     7
 10
189.0
 20
105.5
 30
0.0
 11
189.0
 21
107.0
 31
0.0
  0
CIRCLE
  5
129
  8
DATA
  6
CONTINUOUS
 62
     7
 10
193.0
 20
95.5
 30
0.0
 40
1.5
  0
LINE
  5
12A
  8
DATA
  6
CONTINUOUS
 62
     7
 10
192.32499999999999
 20
95.5
 30
0.0
 11
193.67500000000001
 21
95.5
 31
0.0
  0
LINE
  5
12B
  8
DATA
  6
CONTINUOUS
 62
     7
 10
193.0
 20
94.824999999999989
 30
0.0
 11
193.0
 21
96.174999999999983
 31
0.0
  0
CIRCLE
  5
12C
  8
DATA
  6
CONTINUOUS
 62
     7
 10
180.0
 20
52.5
 30
0.0
 40
1.5
  0
LINE
  5
12D
  8
DATA
  6
CONTINUOUS
 62
     7
 10
179.32499999999999
 20
52.5
 30
0.0
 11
180.67500000000001
 21
52.5
 31
0.0
  0
LINE
  5
12E
  8
DATA
  6
CONTINUOUS
 62
     7
 10
180.0
 20
51.825000000000003
 30
0.0
 11
180.0
 21
53.17499999999999
 31
0.0
  0
CIRCLE
  5
12F
  8
DATA
  6
CONTINUOUS
 62
     7
 10
156.0
 20
90.5
 30
0.0
 40
1.5
  0
LINE
  5
130
  8
DATA
  6
CONTINUOUS
 62
     7
 10
155.32499999999999
 20
90.5
 30
0.0
 11
156.67500000000001
 21
90.5
 31
0.0
  0
LINE
  5
131
  8
DATA
  6
CONTINUOUS
 62
     7
 10
156.0
 20
89.824999999999989
 30
0.0
 11
156.0
 21
91.174999999999983
 31
0.0
  0
ARC
  5
132
  8
DATA
  6
STYLE_05
 62
     7
 10
19.615392059670491
 20
104.8836773940501
 30
0.0
 40
62.301251103757572
 50
75.228517806154784
 51
104.99109019635689
  0
ARC
  5
133
  8
DATA
  6
STYLE_05
 62
     7
 10
19.615392059670491
 20
106.68367739405009
 30
0.0
 40
62.30125110375748
 50
75.228517806155068
 51
104.99109019635701
  0
LINE
  5
134
  8
DATA
  6
STYLE_05
 62
     7
 10
1.699999999999988
 20
164.26519213028311
 30
0.0
 11
1.699999999999988
 21
168.09999999999999
 31
0.0
  0
LINE
  5
135
  8
DATA
  6
STYLE_05
 62
     7
 10
3.4999999999999849
 20
162.49943872517221
 30
0.0
 11
3.4999999999999849
 21
168.09999999999999
 31
0.0
  0
ARC
  5
136
  8
DATA
  6
STYLE_05
 62
     7
 10
2.5999999999999939
 20
168.09999999999999
 30
0.0
 40
0.8999999999999914
 50
359.9999999999996
 51
180.0000000000004
  0
ARC
  5
137
  8
DATA
  6
STYLE_05
 62
     7
 10
36.399999999999977
 20
168.09999999999999
 30
0.0
 40
0.9000000000000056
 50
0.0
 51
180.0
  0
LINE
  5
138
  8
DATA
  6
STYLE_05
 62
     7
 10
35.499999999999993
 20
168.09999999999999
 30
0.0
 11
35.499999999999993
 21
162.49943872517221
 31
0.0
  0
LINE
  5
139
  8
DATA
  6
STYLE_05
 62
     7
 10
37.29999999999999
 20
168.09999999999999
 30
0.0
 11
37.29999999999999
 21
164.26519213028311
 31
0.0
  0
LINE
  5
13A
  8
DATA
  6
CONTINUOUS
 62
     7
 10
-7.5000000000000142
 20
160.14779037352389
 30
0.0
 11
-7.5000000000000142
 21
162.26524213153311
 31
0.0
  0
LINE
  5
13B
  8
DATA
  6
CONTINUOUS
 62
     7
 10
46.499999999999993
 20
160.14779037352389
 30
0.0
 11
46.499999999999993
 21
162.26524213153311
 31
0.0
  0
LINE
  5
13C
  8
DATA
  6
CONTINUOUS
 62
     7
 10
-9.5000000000000142
 20
159.48844971418319
 30
0.0
 11
-9.5000000000000142
 21
162.26524213153311
 31
0.0
  0
LINE
  5
13D
  8
DATA
  6
CONTINUOUS
 62
     7
 10
48.499999999999993
 20
159.48844971418319
 30
0.0
 11
48.499999999999993
 21
162.26524213153311
 31
0.0
  0
ARC
  5
13E
  8
DATA
  6
CONTINUOUS
 62
     7
 10
47.499999999999993
 20
162.26524213153311
 30
0.0
 40
1.0
 50
359.99999999999977
 51
180.0000000000002
  0
ARC
  5
13F
  8
DATA
  6
CONTINUOUS
 62
     7
 10
-8.5000000000000142
 20
162.26524213153311
 30
0.0
 40
1.0
 50
0.0000000000006253
 51
179.9999999999994
  0
LINE
  5
140
  8
DATA
  6
STYLE_05
 62
     7
 10
2.4999999999999849
 20
161.49943872517221
 30
0.0
 11
-7.5000000000000142
 21
161.49943872517221
 31
0.0
  0
LINE
  5
141
  8
DATA
  6
STYLE_05
 62
     7
 10
-8.4900000000000091
 20
163.26519213028311
 30
0.0
 11
0.6999999999999887
 21
163.26519213028311
 31
0.0
  0
ARC
  5
142
  8
DATA
  6
STYLE_05
 62
     7
 10
0.6999999999999887
 20
164.26519213028311
 30
0.0
 40
1.0
 50
270.0
 51
0.0
  0
ARC
  5
143
  8
DATA
  6
CONTINUOUS
 62
     7
 10
2.4999999999999849
 20
162.49943872517221
 30
0.0
 40
1.0
 50
270.0
 51
0.0
  0
LINE
  5
144
  8
DATA
  6
STYLE_05
 62
     7
 10
47.490000000000002
 20
163.26519213028311
 30
0.0
 11
38.299999999999983
 21
163.26519213028311
 31
0.0
  0
LINE
  5
145
  8
DATA
  6
STYLE_05
 62
     7
 10
41.918246507032208
 20
161.49943872517221
 30
0.0
 11
46.499999999999993
 21
161.49943872517221
 31
0.0
  0
ARC
  5
146
  8
DATA
  6
STYLE_05
 62
     7
 10
38.299999999999983
 20
164.26519213028311
 30
0.0
 40
1.0
 50
180.0
 51
270.0
  0
ARC
  5
147
  8
DATA
  6
STYLE_05
 62
     7
 10
36.499999999999993
 20
162.49943872517221
 30
0.0
 40
1.0
 50
180.0
 51
270.0
  0
LINE
  5
148
  8
DATA
  6
CONTINUOUS
 62
     7
 10
-2.9182465070322361
 20
161.49943872517221
 30
0.0
 11
36.350000000000001
 21
161.49943872517221
 31
0.0
  0
LINE
  5
149
  8
DATA
  6
STYLE_05
 62
     7
 10
112.09999999999999
 20
88.027590255494616
 30
0.0
 11
112.7
 21
88.027590255494616
 31
0.0
  0
LINE
  5
14A
  8
DATA
  6
STYLE_05
 62
     7
 10
113.3
 20
79.09999999999998
 30
0.0
 11
118.8772571182826
 21
53.072800114680987
 31
0.0
  0
LINE
  5
14B
  8
DATA
  6
STYLE_05
 62
     7
 10
118.7943106452659
 20
51.951495054042482
 30
0.0
 11
111.7308053614489
 21
33.115480963863732
 31
0.0
  0
LINE
  5
14C
  8
DATA
  6
STYLE_05
 62
     7
 10
111.8944003745317
 20
31.974132833957668
 30
0.0
 11
118.83799999999999
 21
22.716000000000012
 31
0.0
  0
LINE
  5
14D
  8
DATA
  6
STYLE_05
 62
     7
 10
113.3
 20
87.5
 30
0.0
 11
120.6772571182826
 21
53.072800114680973
 31
0.0
  0
LINE
  5
14E
  8
DATA
  6
STYLE_05
 62
     7
 10
120.59431064526591
 20
51.951495054042432
 30
0.0
 11
113.5308053614489
 21
33.115480963863732
 31
0.0
  0
LINE
  5
14F
  8
DATA
  6
STYLE_05
 62
     7
 10
113.6944003745318
 20
31.974132833957668
 30
0.0
 11
119.98999999999999
 21
23.580000000000009
 31
0.0
  0
LINE
  5
150
  8
DATA
  6
STYLE_05
 62
     7
 10
119.87
 20
22.740000000000009
 30
0.0
 11
119.678
 21
22.596000000000021
 31
0.0
  0
ARC
  5
151
  8
DATA
  6
STYLE_05
 62
     7
 10
119.51000000000001
 20
23.22000000000001
 30
0.0
 40
0.6000000000000029
 50
306.86989764584371
 51
36.869897645844162
  0
ARC
  5
152
  8
DATA
  6
STYLE_05
 62
     7
 10
119.318
 20
23.076000000000011
 30
0.0
 40
0.5999999999999972
 50
216.86989764584419
 51
306.86989764584592
  0
ARC
  5
153
  8
DATA
  6
CONTINUOUS
 62
     7
 10
114.6544003745317
 20
32.694132833957667
 30
0.0
 40
1.199999999999996
 50
159.4439547804167
 51
216.86989764584399
  0
ARC
  5
154
  8
DATA
  6
CONTINUOUS
 62
     7
 10
112.85440037453171
 20
32.694132833957667
 30
0.0
 40
1.1999999999999951
 50
159.4439547804167
 51
216.86989764584399
  0
ARC
  5
155
  8
DATA
  6
STYLE_05
 62
     7
 10
116.9216522901278
 20
52.653741937219273
 30
0.0
 40
2.000000000000008
 50
339.44395478041622
 51
12.094757077011771
  0
ARC
  5
156
  8
DATA
  6
STYLE_05
 62
     7
 10
118.72165229012781
 20
52.653741937219237
 30
0.0
 40
2.000000000000008
 50
339.44395478041622
 51
12.094757077011771
  0
LINE
  5
157
  8
DATA
  6
CONTINUOUS
 62
     7
 10
109.55
 20
54.29999999999999
 30
0.0
 11
111.5
 21
54.29999999999999
 31
0.0
  0
LINE
  5
158
  8
DATA
  6
STYLE_05
 62
     7
 10
113.3
 20
53.100000000000001
 30
0.0
 11
113.3
 21
55.737223908119738
 31
0.0
  0
LINE
  5
159
  8
DATA
  6
STYLE_05
 62
     7
 10
113.3
 20
57.535731499591982
 30
0.0
 11
113.3
 21
87.5
 31
0.0
  0
ARC
  5
15A
  8
DATA
  6
STYLE_05
 62
     7
 10
112.09999999999999
 20
87.427590255494636
 30
0.0
 40
0.5999999999999944
 50
90.0
 51
180.00000000000071
  0
ARC
  5
15B
  8
DATA
  6
STYLE_05
 62
     7
 10
112.7
 20
87.427590255494636
 30
0.0
 40
0.6000000000000015
 50
0.0
 51
89.999999999999844
  0
LINE
  5
15C
  8
DATA
  6
CONTINUOUS
 62
     7
 10
111.5
 20
105.5
 30
0.0
 11
111.5
 21
86.699999999999989
 31
0.0
  0
LINE
  5
15D
  8
DATA
  6
CONTINUOUS
 62
     7
 10
108.95
 20
53.700000000000003
 30
0.0
 11
108.95
 21
53.100000000000001
 31
0.0
  0
ARC
  5
15E
  8
DATA
  6
CONTINUOUS
 62
     7
 10
109.55
 20
53.100000000000001
 30
0.0
 40
0.6000000000000015
 50
180.0
 51
269.99999999999977
  0
ARC
  5
15F
  8
DATA
  6
CONTINUOUS
 62
     7
 10
109.55
 20
53.700000000000003
 30
0.0
 40
0.5999999999999944
 50
90.0
 51
180.0
  0
ARC
  5
160
  8
DATA
  6
CONTINUOUS
 62
     7
 10
112.7
 20
53.100000000000001
 30
0.0
 40
0.5999999999999944
 50
270.0
 51
0.0
  0
ARC
  5
161
  8
DATA
  6
CONTINUOUS
 62
     7
 10
111.8055521741545
 20
50.330980117448931
 30
0.0
 40
1.664001097466232
 50
7.5633569124089179
 51
91.224553476860464
  0
ARC
  5
162
  8
DATA
  6
CONTINUOUS
 62
     7
 10
63.79543678344249
 20
55.887395571483736
 30
0.0
 40
49.945646371448149
 50
342.77119170274489
 51
353.86542513521351
  0
ARC
  5
163
  8
DATA
  6
CONTINUOUS
 62
     7
 10
111.8055521741545
 20
56.469019882551081
 30
0.0
 40
1.6640010974662309
 50
268.77544652313952
 51
352.43664308759111
  0
ARC
  5
164
  8
DATA
  6
CONTINUOUS
 62
     7
 10
63.79543678344249
 20
50.912604428516282
 30
0.0
 40
49.945646371448149
 50
6.1345748647865781
 51
17.228808297255231
  0
LINE
  5
165
  8
DATA
  6
CONTINUOUS
 62
     7
 10
111.76999103470931
 20
54.805398814600153
 30
0.0
 11
111.5
 21
54.811170074064961
 31
0.0
  0
LINE
  5
166
  8
DATA
  6
CONTINUOUS
 62
     7
 10
111.76999103470931
 20
51.994601185399858
 30
0.0
 11
111.5
 21
51.988829925935057
 31
0.0
  0
LINE
  5
167
  8
DATA
  6
CONTINUOUS
 62
     7
 10
109.55
 20
52.5
 30
0.0
 11
111.5
 21
52.5
 31
0.0
  0
LINE
  5
168
  8
DATA
  6
STYLE_05
 62
     7
 10
111.5
 20
52.5
 30
0.0
 11
112.7
 21
52.5
 31
0.0
  0
LINE
  5
169
  8
DATA
  6
STYLE_05
 62
     7
 10
157.39999999999989
 20
88.027590255494616
 30
0.0
 11
164.0
 21
88.027590255494616
 31
0.0
  0
LINE
  5
16A
  8
DATA
  6
STYLE_05
 62
     7
 10
200.0
 20
88.027590255494616
 30
0.0
 11
206.59999999999999
 21
88.027590255494616
 31
0.0
  0
LINE
  5
16B
  8
DATA
  6
STYLE_05
 62
     7
 10
164.19999999999999
 20
84.227590255494619
 30
0.0
 11
164.19999999999999
 21
30.119757204214441
 31
0.0
  0
LINE
  5
16C
  8
DATA
  6
STYLE_05
 62
     7
 10
199.80000000000001
 20
84.227590255494619
 30
0.0
 11
199.80000000000001
 21
30.119757204214441
 31
0.0
  0
LINE
  5
16D
  8
DATA
  6
STYLE_05
 62
     7
 10
166.0
 20
86.02759025549463
 30
0.0
 11
166.0
 21
30.387862611099731
 31
0.0
  0
LINE
  5
16E
  8
DATA
  6
STYLE_05
 62
     7
 10
198.0
 20
86.02759025549463
 30
0.0
 11
198.0
 21
30.38786261109972
 31
0.0
  0
ARC
  5
16F
  8
DATA
  6
STYLE_05
 62
     7
 10
182.0
 20
51.540815519778079
 30
0.0
 40
29.036546225618679
 50
235.35905959809969
 51
304.64094040190031
  0
ARC
  5
170
  8
DATA
  6
STYLE_05
 62
     7
 10
182.0
 20
56.249160756273881
 30
0.0
 40
31.944891462114491
 50
243.3121629771432
 51
296.68783702285691
  0
ARC
  5
171
  8
DATA
  6
STYLE_05
 62
     7
 10
169.0
 20
30.387862611099731
 30
0.0
 40
3.0000000000000142
 50
180.0
 51
243.312162977143
  0
ARC
  5
172
  8
DATA
  6
STYLE_05
 62
     7
 10
167.19999999999999
 20
30.119757204214441
 30
0.0
 40
3.0000000000000422
 50
180.0
 51
235.35905959809909
  0
ARC
  5
173
  8
DATA
  6
STYLE_05
 62
     7
 10
195.0
 20
30.38786261109972
 30
0.0
 40
2.999999999999992
 50
296.68783702285663
 51
0.0
  0
ARC
  5
174
  8
DATA
  6
STYLE_05
 62
     7
 10
196.80000000000001
 20
30.119757204214441
 30
0.0
 40
2.99999999999998
 50
304.64094040190002
 51
0.0
  0
LINE
  5
175
  8
DATA
  6
STYLE_05
 62
     7
 10
157.19999999999999
 20
84.227590255494619
 30
0.0
 11
157.19999999999999
 21
54.0
 31
0.0
  0
LINE
  5
176
  8
DATA
  6
STYLE_05
 62
     7
 10
206.80000000000001
 20
84.227590255494619
 30
0.0
 11
206.80000000000001
 21
54.0
 31
0.0
  0
LINE
  5
177
  8
DATA
  6
STYLE_05
 62
     7
 10
208.59999999999999
 20
86.02759025549463
 30
0.0
 11
208.59999999999999
 21
55.799999999999997
 31
0.0
  0
LINE
  5
178
  8
DATA
  6
STYLE_05
 62
     7
 10
155.39999999999989
 20
86.02759025549463
 30
0.0
 11
155.39999999999989
 21
55.799999999999997
 31
0.0
  0
LINE
  5
179
  8
DATA
  6
STYLE_05
 62
     7
 10
159.19999999999999
 20
86.227590255494633
 30
0.0
 11
162.19999999999999
 21
86.227590255494633
 31
0.0
  0
LINE
  5
17A
  8
DATA
  6
STYLE_05
 62
     7
 10
201.80000000000001
 20
86.227590255494633
 30
0.0
 11
204.80000000000001
 21
86.227590255494633
 31
0.0
  0
ARC
  5
17B
  8
DATA
  6
STYLE_05
 62
     7
 10
159.19999999999999
 20
84.227590255494619
 30
0.0
 40
2.0
 50
90.0
 51
180.0
  0
ARC
  5
17C
  8
DATA
  6
STYLE_05
 62
     7
 10
162.19999999999999
 20
84.227590255494619
 30
0.0
 40
2.0
 50
0.0
 51
90.0
  0
ARC
  5
17D
  8
DATA
  6
STYLE_05
 62
     7
 10
157.39999999999989
 20
86.02759025549463
 30
0.0
 40
2.0
 50
90.0
 51
180.0
  0
ARC
  5
17E
  8
DATA
  6
STYLE_05
 62
     7
 10
164.0
 20
86.02759025549463
 30
0.0
 40
2.0
 50
0.0
 51
90.0
  0
ARC
  5
17F
  8
DATA
  6
STYLE_05
 62
     7
 10
201.80000000000001
 20
84.227590255494619
 30
0.0
 40
2.0
 50
90.0
 51
180.0
  0
ARC
  5
180
  8
DATA
  6
STYLE_05
 62
     7
 10
200.0
 20
86.02759025549463
 30
0.0
 40
2.0
 50
90.0
 51
180.0
  0
ARC
  5
181
  8
DATA
  6
STYLE_05
 62
     7
 10
204.80000000000001
 20
84.227590255494619
 30
0.0
 40
2.0
 50
0.0
 51
90.0
  0
ARC
  5
182
  8
DATA
  6
STYLE_05
 62
     7
 10
206.59999999999999
 20
86.02759025549463
 30
0.0
 40
2.0
 50
0.0
 51
90.0
  0
LINE
  5
183
  8
DATA
  6
CONTINUOUS
 62
     7
 10
153.69999999999999
 20
65.705921831290468
 30
0.0
 11
154.13641278746491
 21
65.705921831290468
 31
0.0
  0
LINE
  5
184
  8
DATA
  6
CONTINUOUS
 62
     7
 10
209.69999999999999
 20
65.705921831290468
 30
0.0
 11
210.30000000000001
 21
65.705921831290468
 31
0.0
  0
LINE
  5
185
  8
DATA
  6
CONTINUOUS
 62
     7
 10
153.69999999999999
 20
41.500000000000007
 30
0.0
 11
154.13641278746491
 21
41.500000000000007
 31
0.0
  0
LINE
  5
186
  8
DATA
  6
CONTINUOUS
 62
     7
 10
209.69999999999999
 20
41.500000000000007
 30
0.0
 11
210.30000000000001
 21
41.500000000000007
 31
0.0
  0
LINE
  5
187
  8
DATA
  6
STYLE_05
 62
     7
 10
151.09999999999999
 20
54.29999999999999
 30
0.0
 11
153.89999999999989
 21
54.29999999999999
 31
0.0
  0
LINE
  5
188
  8
DATA
  6
STYLE_05
 62
     7
 10
210.09999999999999
 20
54.29999999999999
 30
0.0
 11
212.90000000000001
 21
54.29999999999999
 31
0.0
  0
LINE
  5
189
  8
DATA
  6
STYLE_05
 62
     7
 10
151.09999999999999
 20
52.5
 30
0.0
 11
155.69999999999999
 21
52.5
 31
0.0
  0
LINE
  5
18A
  8
DATA
  6
STYLE_05
 62
     7
 10
208.30000000000001
 20
52.5
 30
0.0
 11
212.90000000000001
 21
52.5
 31
0.0
  0
LINE
  5
18B
  8
DATA
  6
STYLE_05
 62
     7
 10
151.09999999999999
 20
52.5
 30
0.0
 11
151.09999999999999
 21
54.29999999999999
 31
0.0
  0
LINE
  5
18C
  8
DATA
  6
STYLE_05
 62
     7
 10
212.90000000000001
 20
52.5
 30
0.0
 11
212.90000000000001
 21
54.29999999999999
 31
0.0
  0
ARC
  5
18D
  8
DATA
  6
STYLE_05
 62
     7
 10
153.89999999999989
 20
55.799999999999997
 30
0.0
 40
1.5
 50
270.0
 51
0.0
  0
ARC
  5
18E
  8
DATA
  6
STYLE_05
 62
     7
 10
155.69999999999999
 20
54.0
 30
0.0
 40
1.5
 50
270.0
 51
0.0
  0
ARC
  5
18F
  8
DATA
  6
STYLE_05
 62
     7
 10
210.09999999999999
 20
55.799999999999997
 30
0.0
 40
1.5
 50
180.0
 51
270.0
  0
ARC
  5
190
  8
DATA
  6
STYLE_05
 62
     7
 10
208.30000000000001
 20
54.0
 30
0.0
 40
1.5
 50
180.0
 51
270.0
  0
LINE
  5
191
  8
DATA
  6
CONTINUOUS
 62
     7
 10
153.69999999999999
 20
54.811170074064961
 30
0.0
 11
154.13641278746491
 21
54.811170074064961
 31
0.0
  0
LINE
  5
192
  8
DATA
  6
CONTINUOUS
 62
     7
 10
209.69999999999999
 20
54.811170074064961
 30
0.0
 11
210.30000000000001
 21
54.811170074064961
 31
0.0
  0
LINE
  5
193
  8
DATA
  6
CONTINUOUS
 62
     7
 10
153.69999999999999
 20
51.988829925935057
 30
0.0
 11
154.13641278746491
 21
51.988829925935057
 31
0.0
  0
LINE
  5
194
  8
DATA
  6
CONTINUOUS
 62
     7
 10
209.69999999999999
 20
51.988829925935057
 30
0.0
 11
210.30000000000001
 21
51.988829925935057
 31
0.0
  0
LINE
  5
195
  8
DATA
  6
CONTINUOUS
 62
     7
 10
153.0
 20
65.005921831290479
 30
0.0
 11
153.0
 21
55.511170074064957
 31
0.0
  0
LINE
  5
196
  8
DATA
  6
CONTINUOUS
 62
     7
 10
153.0
 20
51.288829925935062
 30
0.0
 11
153.0
 21
42.20000000000001
 31
0.0
  0
LINE
  5
197
  8
DATA
  6
CONTINUOUS
 62
     7
 10
154.83641278746481
 20
65.005921831290479
 30
0.0
 11
154.83641278746481
 21
55.511170074064957
 31
0.0
  0
LINE
  5
198
  8
DATA
  6
CONTINUOUS
 62
     7
 10
154.83641278746481
 20
51.288829925935062
 30
0.0
 11
154.83641278746481
 21
42.20000000000001
 31
0.0
  0
LINE
  5
199
  8
DATA
  6
CONTINUOUS
 62
     7
 10
209.0
 20
65.005921831290479
 30
0.0
 11
209.0
 21
55.511170074064957
 31
0.0
  0
LINE
  5
19A
  8
DATA
  6
CONTINUOUS
 62
     7
 10
209.0
 20
51.288829925935062
 30
0.0
 11
209.0
 21
42.20000000000001
 31
0.0
  0
LINE
  5
19B
  8
DATA
  6
CONTINUOUS
 62
     7
 10
211.0
 20
65.005921831290479
 30
0.0
 11
211.0
 21
55.511170074064957
 31
0.0
  0
LINE
  5
19C
  8
DATA
  6
CONTINUOUS
 62
     7
 10
211.0
 20
51.288829925935062
 30
0.0
 11
211.0
 21
42.20000000000001
 31
0.0
  0
ARC
  5
19D
  8
DATA
  6
CONTINUOUS
 62
     7
 10
153.69999999999999
 20
65.005921831290493
 30
0.0
 40
0.6999999999999887
 50
90.0
 51
180.00000000000111
  0
ARC
  5
19E
  8
DATA
  6
CONTINUOUS
 62
     7
 10
154.13641278746491
 20
65.005921831290479
 30
0.0
 40
0.700000000000003
 50
0.0
 51
90.0
  0
ARC
  5
19F
  8
DATA
  6
CONTINUOUS
 62
     7
 10
153.69999999999999
 20
55.511170074064957
 30
0.0
 40
0.700000000000003
 50
180.0
 51
270.0
  0
ARC
  5
1A0
  8
DATA
  6
CONTINUOUS
 62
     7
 10
154.13641278746491
 20
55.51117007406495
 30
0.0
 40
0.6999999999999887
 50
270.0
 51
0.0000000000011369
  0
ARC
  5
1A1
  8
DATA
  6
CONTINUOUS
 62
     7
 10
153.69999999999999
 20
51.288829925935048
 30
0.0
 40
0.7000000000000171
 50
90.0
 51
179.99999999999881
  0
ARC
  5
1A2
  8
DATA
  6
CONTINUOUS
 62
     7
 10
154.13641278746491
 20
51.288829925935062
 30
0.0
 40
0.700000000000003
 50
0.0
 51
90.0
  0
ARC
  5
1A3
  8
DATA
  6
CONTINUOUS
 62
     7
 10
153.69999999999999
 20
42.20000000000001
 30
0.0
 40
0.700000000000003
 50
180.0
 51
270.0
  0
ARC
  5
1A4
  8
DATA
  6
CONTINUOUS
 62
     7
 10
154.13641278746491
 20
42.200000000000031
 30
0.0
 40
0.7000000000000171
 50
270.0
 51
359.99999999999881
  0
ARC
  5
1A5
  8
DATA
  6
CONTINUOUS
 62
     7
 10
210.30000000000001
 20
65.005921831290479
 30
0.0
 40
0.6999999999999887
 50
0.0
 51
90.000000000001194
  0
ARC
  5
1A6
  8
DATA
  6
CONTINUOUS
 62
     7
 10
209.69999999999999
 20
65.005921831290493
 30
0.0
 40
0.6999999999999887
 50
90.0
 51
180.00000000000111
  0
ARC
  5
1A7
  8
DATA
  6
CONTINUOUS
 62
     7
 10
209.69999999999999
 20
55.511170074064957
 30
0.0
 40
0.6999999999999887
 50
180.0
 51
270.00000000000108
  0
ARC
  5
1A8
  8
DATA
  6
CONTINUOUS
 62
     7
 10
210.30000000000001
 20
55.51117007406495
 30
0.0
 40
0.6999999999999887
 50
270.0
 51
0.0000000000011369
  0
ARC
  5
1A9
  8
DATA
  6
CONTINUOUS
 62
     7
 10
209.69999999999999
 20
51.288829925935048
 30
0.0
 40
0.7000000000000171
 50
90.0
 51
179.99999999999881
  0
ARC
  5
1AA
  8
DATA
  6
CONTINUOUS
 62
     7
 10
210.30000000000001
 20
51.288829925935062
 30
0.0
 40
0.6999999999999887
 50
0.0
 51
90.000000000001194
  0
ARC
  5
1AB
  8
DATA
  6
CONTINUOUS
 62
     7
 10
209.69999999999999
 20
42.20000000000001
 30
0.0
 40
0.6999999999999887
 50
180.0
 51
270.00000000000108
  0
ARC
  5
1AC
  8
DATA
  6
CONTINUOUS
 62
     7
 10
210.30000000000001
 20
42.200000000000031
 30
0.0
 40
0.7000000000000171
 50
270.0
 51
359.99999999999881
  0
LINE
  5
1AD
  8
DATA
  6
CONTINUOUS
 62
     7
 10
164.19999999999999
 20
33.115480963863732
 30
0.0
 11
166.0
 21
33.115480963863732
 31
0.0
  0
LINE
  5
1AE
  8
DATA
  6
CONTINUOUS
 62
     7
 10
198.0
 20
33.115480963863732
 30
0.0
 11
199.80000000000001
 21
33.115480963863732
 31
0.0
  0
ENDSEC
  0
EOF
