  0
SECTION
  2
HEADER
  9
$ACADVER
  1
AC1009
  9
$DWGCODEPAGE
  3
ansi_932
  9
$INSBASE
 10
0.0
 20
0.0
 30
0.0
  9
$EXTMIN
 10
-269.9999999999999
 20
-407.7273041796874
 30
0.0
  9
$EXTMAX
 10
269.9999999999999
 20
397.06363
 30
0.0
  9
$LIMMIN
 10
0.0
 20
0.0
  9
$LIMMAX
 10
0.0
 20
0.0
  9
$ORTHOMODE
 70
     0
  9
$REGENMODE
 70
     1
  9
$FILLMODE
 70
     1
  9
$QTEXTMODE
 70
     0
  9
$MIRRTEXT
 70
     1
  9
$DRAGMODE
 70
     2
  9
$LTSCALE
 40
15.24
  9
$OSMODE
 70
    37
  9
$ATTMODE
 70
     1
  9
$TEXTSIZE
 40
0.0
  9
$TRACEWID
 40
1.0
  9
$TEXTSTYLE
  7
STANDARD
  9
$CLAYER
  8
DATA
  9
$CELTYPE
  6
BYLAYER
  9
$CECOLOR
 62
   256
  9
$DIMSCALE
 40
1.0
  9
$DIMASZ
 40
0.18
  9
$DIMEXO
 40
0.0625
  9
$DIMDLI
 40
0.38
  9
$DIMRND
 40
0.0
  9
$DIMDLE
 40
0.0
  9
$DIMEXE
 40
0.18
  9
$DIMTP
 40
0.0
  9
$DIMTM
 40
0.0
  9
$DIMTXT
 40
0.18
  9
$DIMCEN
 40
0.09
  9
$DIMTSZ
 40
0.0
  9
$DIMTOL
 70
     0
  9
$DIMLIM
 70
     0
  9
$DIMTIH
 70
     1
  9
$DIMTOH
 70
     1
  9
$DIMSE1
 70
     0
  9
$DIMSE2
 70
     0
  9
$DIMTAD
 70
     0
  9
$DIMZIN
 70
     0
  9
$DIMBLK
  1

  9
$DIMASO
 70
     1
  9
$DIMSHO
 70
     1
  9
$DIMPOST
  1

  9
$DIMAPOST
  1

  9
$DIMALT
 70
     0
  9
$DIMALTD
 70
     2
  9
$DIMALTF
 40
25.4
  9
$DIMLFAC
 40
1.0
  9
$DIMTOFL
 70
     0
  9
$DIMTVP
 40
0.0
  9
$DIMTIX
 70
     0
  9
$DIMSOXD
 70
     0
  9
$DIMSAH
 70
     0
  9
$DIMBLK1
  1

  9
$DIMBLK2
  1

  9
$DIMSTYLE
  2
STANDARD
  9
$DIMCLRD
 70
     0
  9
$DIMCLRE
 70
     0
  9
$DIMCLRT
 70
     0
  9
$DIMTFAC
 40
1.0
  9
$DIMGAP
 40
0.09
  9
$LUNITS
 70
     2
  9
$LUPREC
 70
     2
  9
$SKETCHINC
 40
0.1
  9
$FILLETRAD
 40
0.0
  9
$AUNITS
 70
     0
  9
$AUPREC
 70
     0
  9
$MENU
  1
acad
  9
$ELEVATION
 40
0.0
  9
$PELEVATION
 40
0.0
  9
$THICKNESS
 40
0.0
  9
$LIMCHECK
 70
     0
  9
$CHAMFERA
 40
0.0
  9
$CHAMFERB
 40
0.0
  9
$SKPOLY
 70
     0
  9
$TDCREATE
 40
2459513.455959514
  9
$TDUPDATE
 40
2459513.456823345
  9
$TDINDWG
 40
2459513.081823507
  9
$TDUSRTIMER
 40
0.0008640046
  9
$USRTIMER
 70
     1
  9
$ANGBASE
 50
0.0
  9
$ANGDIR
 70
     0
  9
$PDMODE
 70
     1
  9
$PDSIZE
 40
-2.0
  9
$PLINEWID
 40
0.0
  9
$COORDS
 70
     1
  9
$SPLFRAME
 70
     0
  9
$SPLINETYPE
 70
     6
  9
$SPLINESEGS
 70
     8
  9
$ATTDIA
 70
     1
  9
$ATTREQ
 70
     1
  9
$HANDLING
 70
     1
  9
$HANDSEED
  5
29E
  9
$SURFTAB1
 70
     6
  9
$SURFTAB2
 70
     6
  9
$SURFTYPE
 70
     6
  9
$SURFU
 70
     6
  9
$SURFV
 70
     6
  9
$UCSNAME
  2

  9
$UCSORG
 10
0.0
 20
0.0
 30
0.0
  9
$UCSXDIR
 10
1.0
 20
0.0
 30
0.0
  9
$UCSYDIR
 10
0.0
 20
1.0
 30
0.0
  9
$PUCSNAME
  2

  9
$PUCSORG
 10
0.0
 20
0.0
 30
0.0
  9
$PUCSXDIR
 10
1.0
 20
0.0
 30
0.0
  9
$PUCSYDIR
 10
0.0
 20
1.0
 30
0.0
  9
$USERI1
 70
     0
  9
$USERI2
 70
     0
  9
$USERI3
 70
     0
  9
$USERI4
 70
     0
  9
$USERI5
 70
     0
  9
$USERR1
 40
0.0
  9
$USERR2
 40
0.0
  9
$USERR3
 40
0.0
  9
$USERR4
 40
0.0
  9
$USERR5
 40
0.0
  9
$WORLDVIEW
 70
     1
  9
$SHADEDGE
 70
     3
  9
$SHADEDIF
 70
    70
  9
$TILEMODE
 70
     1
  9
$MAXACTVP
 70
    64
  9
$PLIMCHECK
 70
     0
  9
$PEXTMIN
 10
1.000000000000000E+20
 20
1.000000000000000E+20
 30
1.000000000000000E+20
  9
$PEXTMAX
 10
-1.000000000000000E+20
 20
-1.000000000000000E+20
 30
-1.000000000000000E+20
  9
$PLIMMIN
 10
0.0
 20
0.0
  9
$PLIMMAX
 10
12.0
 20
9.0
  9
$UNITMODE
 70
     0
  9
$VISRETAIN
 70
     0
  9
$PLINEGEN
 70
     1
  9
$PSLTSCALE
 70
     0
  0
ENDSEC
  0
SECTION
  2
TABLES
  0
TABLE
  2
VPORT
 70
     1
  0
VPORT
  2
*ACTIVE
 70
     0
 10
0.0
 20
0.0
 11
1.0
 21
1.0
 12
0.0
 22
-3.531814999999995
 13
0.0
 23
0.0
 14
1.0
 24
1.0
 15
0.0
 25
0.0
 16
0.0
 26
0.0
 36
1.0
 17
0.0
 27
0.0
 37
0.0
 40
801.19089
 41
2.794721407624633
 42
50.0
 43
0.0
 44
0.0
 50
0.0
 51
0.0
 71
     0
 72
  2000
 73
     1
 74
     1
 75
     0
 76
     0
 77
     0
 78
     0
  0
ENDTAB
  0
TABLE
  2
LTYPE
 70
    11
  0
LTYPE
  2
CONTINUOUS
 70
     0
  3
Solid line
 72
    65
 73
     0
 40
0.0
  0
ENDTAB
  0
TABLE
  2
LAYER
 70
     5
  0
LAYER
  2
0
 70
     0
 62
     7
  6
CONTINUOUS
  0
LAYER
  2
HIBINO-BASE
 70
     0
 62
     7
  6
CONTINUOUS
  0
LAYER
  2
SPEC
 70
     0
 62
     7
  6
CONTINUOUS
  0
LAYER
  2
DIMNSIONS
 70
     0
 62
     7
  6
CONTINUOUS
  0
LAYER
  2
DATA
 70
     0
 62
     7
  6
CONTINUOUS
  0
ENDTAB
  0
TABLE
  2
STYLE
 70
     2
  0
STYLE
  2
STANDARD
 70
     0
 40
0.0
 41
1.0
 50
0.0
 71
     0
 42
0.0
  3
txt
  4
BIGFONT.SHX
  0
ENDTAB
  0
TABLE
  2
VIEW
 70
     0
  0
ENDTAB
  0
TABLE
  2
UCS
 70
     0
  0
ENDTAB
  0
TABLE
  2
APPID
 70
     3
  0
APPID
  2
ACAD
 70
     0
  0
APPID
  2
ACAD_MLEADERVER
 70
     0
  0
APPID
  2
ACADANNOPO
 70
     0
  0
ENDTAB
  0
TABLE
  2
DIMSTYLE
 70
     1
  0
DIMSTYLE
  2
STANDARD
 70
     0
  3

  4

  5

  6

  7

 40
1.0
 41
0.18
 42
0.0625
 43
0.38
 44
0.18
 45
0.0
 46
0.0
 47
0.0
 48
0.0
140
0.18
141
0.09
142
0.0
143
25.4
144
1.0
145
0.0
146
1.0
147
0.09
 71
     0
 72
     0
 73
     1
 74
     1
 75
     0
 76
     0
 77
     0
 78
     0
170
     0
171
     2
172
     0
173
     0
174
     0
175
     0
176
     0
177
     0
178
     0
  0
ENDTAB
  0
ENDSEC
  0
SECTION
  2
BLOCKS
  0
BLOCK
  8
DATA
  2
$MODEL_SPACE
 70
     0
 10
0.0
 20
0.0
 30
0.0
  3
$MODEL_SPACE
  1

  0
ENDBLK
  5
21B
  8
DATA
  6
CONTINUOUS
  0
BLOCK
 67
     1
  8
DATA
  2
$PAPER_SPACE
 70
     0
 10
0.0
 20
0.0
 30
0.0
  3
$PAPER_SPACE
  1

  0
ENDBLK
  5
219
 67
     1
  8
DATA
  6
CONTINUOUS
  0
ENDSEC
  0
SECTION
  2
ENTITIES
  0
LINE
  5
2C
  8
HIBINO-BASE
  6
CONTINUOUS
 62
     7
 10
-269.9999999999999
 20
397.06363
 30
0.0
 11
269.9999999999999
 21
397.06363
 31
0.0
  0
LINE
  5
2D
  8
HIBINO-BASE
  6
CONTINUOUS
 62
     7
 10
269.9999999999999
 20
-382.9363699999998
 30
0.0
 11
-269.9999999999999
 21
-382.9363699999998
 31
0.0
  0
LINE
  5
2E
  8
HIBINO-BASE
  6
CONTINUOUS
 62
     7
 10
-269.9999999999999
 20
-382.9363699999998
 30
0.0
 11
-269.9999999999999
 21
397.06363
 31
0.0
  0
LINE
  5
2F
  8
HIBINO-BASE
  6
CONTINUOUS
 62
     7
 10
269.9999999999999
 20
397.06363
 30
0.0
 11
269.9999999999999
 21
-382.9363699999998
 31
0.0
  0
LINE
  5
30
  8
HIBINO-BASE
  6
CONTINUOUS
 62
     7
 10
0.0000000000000426
 20
-315.4363699999998
 30
0.0
 11
269.9999999999999
 21
-315.4363699999998
 31
0.0
  0
LINE
  5
31
  8
HIBINO-BASE
  6
CONTINUOUS
 62
     7
 10
0.0000000000000426
 20
-382.9363699999998
 30
0.0
 11
0.0000000000000426
 21
-315.4363699999998
 31
0.0
  0
TEXT
  5
32
  8
HIBINO-BASE
 62
     7
 10
2.70000000000006
 20
-322.9624499999999
 30
0.0
 40
4.886523437499999
  1
NOTE
 41
0.7
 11
2.70000000000006
 21
-318.0759265624999
 31
0.0
 73
     3
  0
LINE
  5
33
  8
HIBINO-BASE
  6
CONTINUOUS
 62
     7
 10
105.0
 20
-382.9363699999998
 30
0.0
 11
105.0
 21
-315.4363699999998
 31
0.0
  0
TEXT
  5
34
  8
HIBINO-BASE
 62
     7
 10
107.7
 20
-322.9624499999999
 30
0.0
 40
4.886523437499999
  1
TITLE
 41
0.7
 11
107.7
 21
-318.0759265624999
 31
0.0
 73
     3
  0
LINE
  5
35
  8
HIBINO-BASE
  6
CONTINUOUS
 62
     7
 10
0.0000000000000426
 20
-352.9363699999998
 30
0.0
 11
269.9999999999999
 21
-352.9363699999998
 31
0.0
  0
TEXT
  5
36
  8
HIBINO-BASE
 62
     7
 10
145.2
 20
-360.29349
 30
0.0
 40
4.886523437499999
  1
DRAWN
 41
0.7
 11
145.2
 21
-355.4069665625
 31
0.0
 73
     3
  0
TEXT
  5
37
  8
HIBINO-BASE
 62
     7
 10
70.19999999999997
 20
-360.29349
 30
0.0
 40
4.886523437499999
  1
DATE
 41
0.7
 11
70.19999999999997
 21
-355.4069665625
 31
0.0
 73
     3
  0
TEXT
  5
38
  8
HIBINO-BASE
 62
     7
 10
40.19999999999997
 20
-360.29349
 30
0.0
 40
4.886523437499999
  1
SCALE
 41
0.7
 11
40.19999999999997
 21
-355.4069665625
 31
0.0
 73
     3
  0
TEXT
  5
39
  8
HIBINO-BASE
 62
     7
 10
107.7
 20
-360.29349
 30
0.0
 40
4.886523437499999
  1
DESIGN
 41
0.7
 11
107.7
 21
-355.4069665625
 31
0.0
 73
     3
  0
TEXT
  5
3A
  8
HIBINO-BASE
 62
     7
 10
220.2
 20
-360.29349
 30
0.0
 40
4.886523437499999
  1
DRAWING NO.
 41
0.7
 11
220.2
 21
-355.4069665625
 31
0.0
 73
     3
  0
TEXT
  5
3B
  8
HIBINO-BASE
 62
     7
 10
182.7
 20
-360.29349
 30
0.0
 40
4.886523437499999
  1
CHECK
 41
0.7
 11
182.7
 21
-355.4069665625
 31
0.0
 73
     3
  0
LINE
  5
3C
  8
HIBINO-BASE
  6
CONTINUOUS
 62
     7
 10
43.12500000000004
 20
-379.1863699999998
 30
0.0
 11
54.37500000000004
 21
-367.9363699999998
 31
0.0
  0
TEXT
  5
3D
  8
HIBINO-BASE
 62
     7
 10
41.25000000000004
 20
-371.2631999999999
 30
0.0
 40
4.886523437499999
  1
1
 41
0.7
 11
41.25000000000004
 21
-366.3766765624999
 31
0.0
 73
     3
  0
LINE
  5
3E
  8
HIBINO-BASE
  6
CONTINUOUS
 62
     7
 10
37.50000000000004
 20
-382.9363699999998
 30
0.0
 11
37.50000000000004
 21
-352.9363699999998
 31
0.0
  0
LINE
  5
3F
  8
HIBINO-BASE
  6
CONTINUOUS
 62
     7
 10
67.49999999999996
 20
-382.9363699999998
 30
0.0
 11
67.49999999999996
 21
-352.9363699999998
 31
0.0
  0
LINE
  5
40
  8
HIBINO-BASE
  6
CONTINUOUS
 62
     7
 10
142.5
 20
-352.9363699999998
 30
0.0
 11
142.5
 21
-382.9363699999998
 31
0.0
  0
LINE
  5
41
  8
HIBINO-BASE
  6
CONTINUOUS
 62
     7
 10
217.5
 20
-352.9363699999998
 30
0.0
 11
217.5
 21
-382.9363699999998
 31
0.0
  0
LINE
  5
42
  8
HIBINO-BASE
  6
CONTINUOUS
 62
     7
 10
180.0
 20
-382.9363699999998
 30
0.0
 11
180.0
 21
-352.9363699999998
 31
0.0
  0
TEXT
  5
43
  8
HIBINO-BASE
 62
     7
 10
70.06962000000003
 20
-374.3454299999998
 30
0.0
 40
4.886523437499999
  1
'21.10.
 41
0.7
 11
70.06962000000003
 21
-369.4589065624998
 31
0.0
 73
     3
  0
TEXT
  5
44
  8
HIBINO-BASE
 62
     7
 10
52.50000000000004
 20
-376.8881999999999
 30
0.0
 40
4.886523437499999
  1
3
 41
0.7
 11
52.50000000000004
 21
-372.0016765624999
 31
0.0
 73
     3
  0
TEXT
  5
45
  8
HIBINO-BASE
 62
     7
 10
147.0174300331039
 20
-374.3454299999998
 30
0.0
 40
4.886523437499999
  1
N.Sasaki
 41
0.7
 11
147.0174300331039
 21
-369.4589065624998
 31
0.0
 73
     3
  0
TEXT
  5
46
  8
HIBINO-BASE
 62
     7
 10
11.65000000000011
 20
-377.0083699999998
 30
0.0
 40
9.773046874999999
  1
A4
 41
0.7
 11
11.65000000000011
 21
-367.2353231249999
 31
0.0
 73
     3
  0
TEXT
  5
47
  8
HIBINO-BASE
 62
     7
 10
2.874999999999986
 20
-360.7947349999999
 30
0.0
 40
4.886523437499999
  1
PAPER SIZE
 41
0.7
 11
2.874999999999986
 21
-355.9082115624999
 31
0.0
 73
     3
  0
TEXT
  5
48
  8
HIBINO-BASE
 62
     7
 10
-248.4479999999999
 20
-402.1624033999999
 30
0.0
 40
10.8001325390625
  1
Hibino Corporation
 41
0.7
 11
-248.4479999999999
 21
-391.3622708609374
 31
0.0
 73
     3
  0
TEXT
  5
49
  8
HIBINO-BASE
 62
     7
 10
150.20517
 20
-402.1624033999999
 30
0.0
 40
10.8001325390625
  1
ヒビノ株式会社
 41
0.7
 11
150.20517
 21
-391.3622708609374
 31
0.0
 73
     3
  0
LINE
  5
4A
  8
SPEC
  6
CONTINUOUS
 62
     7
 10
-247.4999999999999
 20
367.0636300000002
 30
0.0
 11
195.0
 21
367.0636300000002
 31
0.0
  0
LINE
  5
4B
  8
SPEC
  6
CONTINUOUS
 62
     7
 10
-247.4999999999999
 20
355.81363
 30
0.0
 11
195.0
 21
355.81363
 31
0.0
  0
LINE
  5
4C
  8
SPEC
  6
CONTINUOUS
 62
     7
 10
-247.4999999999999
 20
367.0636300000002
 30
0.0
 11
-247.4999999999999
 21
220.81363
 31
0.0
  0
TEXT
  5
4D
  8
SPEC
 62
     7
 10
-243.7499999999999
 20
371.24344
 30
0.0
 40
7.329785156250001
  1
仕様
 41
0.7
 11
-243.7499999999999
 21
378.57322515625
 31
0.0
 73
     3
  0
LINE
  5
4E
  8
SPEC
  6
CONTINUOUS
 62
     7
 10
-105.0
 20
367.0636300000002
 30
0.0
 11
-105.0
 21
220.81363
 31
0.0
  0
LINE
  5
4F
  8
SPEC
  6
CONTINUOUS
 62
     7
 10
195.0
 20
367.0636300000002
 30
0.0
 11
195.0
 21
220.81363
 31
0.0
  0
TEXT
  5
50
  8
SPEC
 62
     7
 10
-244.8
 20
223.1773833333333
 30
0.0
 40
5.700944010416667
  1
付属品
 41
0.7
 11
-244.8
 21
228.87832734375
 31
0.0
 73
     3
  0
TEXT
  5
51
  8
SPEC
 62
     7
 10
-244.8
 20
245.6773833333333
 30
0.0
 40
5.700944010416667
  1
寸法(φ×H)
 41
0.7
 11
-244.8
 21
251.37832734375
 31
0.0
 73
     3
  0
TEXT
  5
52
  8
SPEC
 62
     7
 10
-244.8
 20
234.4273833333333
 30
0.0
 40
5.700944010416667
  1
質量
 41
0.7
 11
-244.8
 21
240.12832734375
 31
0.0
 73
     3
  0
LINE
  5
53
  8
SPEC
  6
CONTINUOUS
 62
     7
 10
-247.4999999999999
 20
344.56363
 30
0.0
 11
195.0
 21
344.56363
 31
0.0
  0
LINE
  5
54
  8
SPEC
  6
CONTINUOUS
 62
     7
 10
-247.4999999999999
 20
333.31363
 30
0.0
 11
195.0
 21
333.31363
 31
0.0
  0
LINE
  5
55
  8
SPEC
  6
CONTINUOUS
 62
     7
 10
-247.4999999999999
 20
322.06363
 30
0.0
 11
195.0
 21
322.06363
 31
0.0
  0
LINE
  5
56
  8
SPEC
  6
CONTINUOUS
 62
     7
 10
-247.4999999999999
 20
310.81363
 30
0.0
 11
195.0
 21
310.81363
 31
0.0
  0
LINE
  5
57
  8
SPEC
  6
CONTINUOUS
 62
     7
 10
-247.4999999999999
 20
299.56363
 30
0.0
 11
195.0
 21
299.56363
 31
0.0
  0
LINE
  5
58
  8
SPEC
  6
CONTINUOUS
 62
     7
 10
-167.7
 20
288.31363
 30
0.0
 11
195.0
 21
288.31363
 31
0.0
  0
LINE
  5
59
  8
SPEC
  6
CONTINUOUS
 62
     7
 10
-167.7
 20
277.06363
 30
0.0
 11
195.0
 21
277.06363
 31
0.0
  0
LINE
  5
5A
  8
SPEC
  6
CONTINUOUS
 62
     7
 10
-247.4999999999999
 20
265.81363
 30
0.0
 11
195.0
 21
265.81363
 31
0.0
  0
LINE
  5
5B
  8
SPEC
  6
CONTINUOUS
 62
     7
 10
-247.4999999999999
 20
254.56363
 30
0.0
 11
195.0
 21
254.56363
 31
0.0
  0
LINE
  5
5C
  8
SPEC
  6
CONTINUOUS
 62
     7
 10
-247.4999999999999
 20
243.31363
 30
0.0
 11
195.0
 21
243.31363
 31
0.0
  0
LINE
  5
5D
  8
SPEC
  6
CONTINUOUS
 62
     7
 10
-247.4999999999999
 20
232.06363
 30
0.0
 11
195.0
 21
232.06363
 31
0.0
  0
LINE
  5
5E
  8
SPEC
  6
CONTINUOUS
 62
     7
 10
-247.4999999999999
 20
220.81363
 30
0.0
 11
195.0
 21
220.81363
 31
0.0
  0
TEXT
  5
5F
  8
SPEC
 62
     7
 10
-102.3
 20
245.6773833333333
 30
0.0
 40
5.700944010416667
  1
93×230mm
 41
0.7
 11
-102.3
 21
251.37832734375
 31
0.0
 73
     3
  0
TEXT
  5
60
  8
SPEC
 62
     7
 10
-102.3
 20
234.4273833333333
 30
0.0
 40
5.700944010416667
  1
672g(含スタンド)
 41
0.7
 11
-102.3
 21
240.12832734375
 31
0.0
 73
     3
  0
TEXT
  5
61
  8
SPEC
 62
     7
 10
-244.8
 20
358.1773833333333
 30
0.0
 40
5.700944010416667
  1
形式
 41
0.7
 11
-244.8
 21
363.87832734375
 31
0.0
 73
     3
  0
TEXT
  5
62
  8
SPEC
 62
     7
 10
-244.8
 20
346.9273833333333
 30
0.0
 40
5.700944010416667
  1
指向特性
 41
0.7
 11
-244.8
 21
352.62832734375
 31
0.0
 73
     3
  0
TEXT
  5
63
  8
SPEC
 62
     7
 10
-244.8
 20
335.6773833333333
 30
0.0
 40
5.700944010416667
  1
周波数特性
 41
0.7
 11
-244.8
 21
341.37832734375
 31
0.0
 73
     3
  0
TEXT
  5
64
  8
SPEC
 62
     7
 10
-244.8
 20
324.4273833333333
 30
0.0
 40
5.700944010416667
  1
最大音圧レベル
 41
0.7
 11
-244.8
 21
330.12832734375
 31
0.0
 73
     3
  0
TEXT
  5
65
  8
SPEC
 62
     7
 10
-244.8
 20
313.1773833333333
 30
0.0
 40
5.700944010416667
  1
AD変換
 41
0.7
 11
-244.8
 21
318.87832734375
 31
0.0
 73
     3
  0
TEXT
  5
66
  8
SPEC
 62
     7
 10
-244.8
 20
301.9273833333333
 30
0.0
 40
5.700944010416667
  1
出力端子
 41
0.7
 11
-244.8
 21
307.62832734375
 31
0.0
 73
     3
  0
TEXT
  5
67
  8
SPEC
 62
     7
 10
-244.8
 20
290.6773833333333
 30
0.0
 40
5.700944010416667
  1
ヘッドホン出力端子
 41
0.7
 11
-244.8
 21
296.37832734375
 31
0.0
 73
     3
  0
TEXT
  5
68
  8
SPEC
 62
     7
 10
-244.8
 20
256.9273833333333
 30
0.0
 40
5.700944010416667
  1
電源
 41
0.7
 11
-244.8
 21
262.62832734375
 31
0.0
 73
     3
  0
TEXT
  5
69
  8
SPEC
 62
     7
 10
-102.3
 20
223.1773833333333
 30
0.0
 40
5.700944010416667
  1
USB type C→Aケーブル(約2m)、3/8→5/8変換ねじ
 41
0.7
 11
-102.3
 21
228.87832734375
 31
0.0
 73
     3
  0
TEXT
  5
6A
  8
SPEC
 62
     7
 10
-102.3
 20
358.1773833333333
 30
0.0
 40
5.700944010416667
  1
コンデンサー型
 41
0.7
 11
-102.3
 21
363.87832734375
 31
0.0
 73
     3
  0
TEXT
  5
6B
  8
SPEC
 62
     7
 10
-102.3
 20
346.9273833333333
 30
0.0
 40
5.700944010416667
  1
フロント/フロント＆バック
 41
0.7
 11
-102.3
 21
352.62832734375
 31
0.0
 73
     3
  0
TEXT
  5
6C
  8
SPEC
 62
     7
 10
-102.3
 20
335.6773833333333
 30
0.0
 40
5.700944010416667
  1
20Hz～20kHz
 41
0.7
 11
-102.3
 21
341.37832734375
 31
0.0
 73
     3
  0
TEXT
  5
6D
  8
SPEC
 62
     7
 10
-102.3
 20
324.4273833333333
 30
0.0
 40
5.700944010416667
  1
120dB SPL(THD 0.5%%%)
 41
0.7
 11
-102.3
 21
330.12832734375
 31
0.0
 73
     3
  0
TEXT
  5
6E
  8
SPEC
 62
     7
 10
-102.3
 20
313.1773833333333
 30
0.0
 40
5.700944010416667
  1
24bit/96kHz
 41
0.7
 11
-102.3
 21
318.87832734375
 31
0.0
 73
     3
  0
TEXT
  5
6F
  8
SPEC
 62
     7
 10
-102.3
 20
301.9273833333333
 30
0.0
 40
5.700944010416667
  1
USB Type C
 41
0.7
 11
-102.3
 21
307.62832734375
 31
0.0
 73
     3
  0
TEXT
  5
70
  8
SPEC
 62
     7
 10
-165.0
 20
290.6773833333333
 30
0.0
 40
5.700944010416667
  1
端子
 41
0.7
 11
-165.0
 21
296.37832734375
 31
0.0
 73
     3
  0
TEXT
  5
71
  8
SPEC
 62
     7
 10
-102.3
 20
256.9273833333332
 30
0.0
 40
5.700944010416667
  1
USB電源(DC5V)
 41
0.7
 11
-102.3
 21
262.6283273437499
 31
0.0
 73
     3
  0
LINE
  5
72
  8
SPEC
  6
CONTINUOUS
 62
     7
 10
-167.7
 20
299.56363
 30
0.0
 11
-167.7
 21
265.81363
 31
0.0
  0
TEXT
  5
73
  8
SPEC
 62
     7
 10
-165.0
 20
279.4273833333333
 30
0.0
 40
5.700944010416667
  1
インピーダンス
 41
0.7
 11
-165.0
 21
285.12832734375
 31
0.0
 73
     3
  0
TEXT
  5
74
  8
SPEC
 62
     7
 10
-165.0
 20
268.1773833333333
 30
0.0
 40
5.700944010416667
  1
出力
 41
0.7
 11
-165.0
 21
273.87832734375
 31
0.0
 73
     3
  0
TEXT
  5
75
  8
SPEC
 62
     7
 10
-102.3
 20
290.6773833333333
 30
0.0
 40
5.700944010416667
  1
ステレオミニフォーン
 41
0.7
 11
-102.3
 21
296.37832734375
 31
0.0
 73
     3
  0
TEXT
  5
76
  8
SPEC
 62
     7
 10
-102.3
 20
279.4273833333333
 30
0.0
 40
5.700944010416667
  1
16Ω
 41
0.7
 11
-102.3
 21
285.12832734375
 31
0.0
 73
     3
  0
TEXT
  5
77
  8
SPEC
 62
     7
 10
-102.3
 20
268.1773833333333
 30
0.0
 40
5.700944010416667
  1
12mv(16Ω)
 41
0.7
 11
-102.3
 21
273.87832734375
 31
0.0
 73
     3
  0
TEXT
  5
78
  8
DIMNSIONS
 62
     7
 10
-59.99999999999998
 20
-346.1278999999998
 30
0.0
 40
7.329785156250001
  1
(単位：mm)
 41
0.7
 11
-59.99999999999998
 21
-338.7981148437498
 31
0.0
 73
     3
  0
LINE
  5
79
  8
DIMNSIONS
  6
CONTINUOUS
 62
     7
 10
-96.85
 20
-250.0
 30
0.0
 11
-128.0
 21
-250.0
 31
0.0
  0
LINE
  5
7A
  8
DIMNSIONS
  6
CONTINUOUS
 62
     7
 10
-85.5
 20
-20.0
 30
0.0
 11
-128.0
 21
-20.0
 31
0.0
  0
LINE
  5
7B
  8
DIMNSIONS
  6
CONTINUOUS
 62
     7
 10
-125.0
 20
-250.0
 30
0.0
 11
-125.0
 21
-20.0
 31
0.0
  0
LINE
  5
7C
  8
DIMNSIONS
  6
CONTINUOUS
 62
     7
 10
-125.0
 20
-250.0
 30
0.0
 11
-126.6075970286618
 21
-244.0003662109375
 31
0.0
  0
LINE
  5
7D
  8
DIMNSIONS
  6
CONTINUOUS
 62
     7
 10
-125.0
 20
-250.0
 30
0.0
 11
-123.3924029713382
 21
-244.0003662109375
 31
0.0
  0
LINE
  5
7E
  8
DIMNSIONS
  6
CONTINUOUS
 62
     7
 10
-125.0
 20
-20.0
 30
0.0
 11
-123.3924029713382
 21
-25.9996337890625
 31
0.0
  0
LINE
  5
7F
  8
DIMNSIONS
  6
CONTINUOUS
 62
     7
 10
-125.0
 20
-20.0
 30
0.0
 11
-126.6075970286618
 21
-25.9996337890625
 31
0.0
  0
TEXT
  5
80
  8
DIMNSIONS
 62
     7
 10
-128.9816666666667
 20
-142.9375
 30
0.0
 40
8.144205729166666
  1
230
 50
90.0
 41
0.7
 11
-137.1258723958333
 21
-142.9375
 31
0.0
 73
     3
  0
LINE
  5
81
  8
DIMNSIONS
  6
CONTINUOUS
 62
     7
 10
-13.88481756325984
 20
21.10785405060787
 30
0.0
 11
0.0000000000000018
 21
9.999999999999998
 31
0.0
  0
LINE
  5
82
  8
DIMNSIONS
  6
CONTINUOUS
 62
     7
 10
-13.88481756325984
 20
21.10785405060787
 30
0.0
 11
-8.167306061381293
 21
18.68091440667167
 31
0.0
  0
LINE
  5
83
  8
DIMNSIONS
  6
CONTINUOUS
 62
     7
 10
-13.88481756325984
 20
21.10785405060787
 30
0.0
 11
-10.1467771781714
 21
16.14730691456829
 31
0.0
  0
LINE
  5
84
  8
DIMNSIONS
  6
CONTINUOUS
 62
     7
 10
0.0000000000000018
 20
9.999999999999998
 30
0.0
 11
6.000000000000001
 21
9.999999999999998
 31
0.0
  0
TEXT
  5
85
  8
DIMNSIONS
 62
     7
 10
6.0
 20
6.19
 30
0.0
 40
8.144205729166666
  1
φ92.5
 41
0.7
 11
6.0
 21
14.33420572916667
 31
0.0
 73
     3
  0
LINE
  5
86
  8
DATA
  6
CONTINUOUS
 62
     7
 10
-4.5
 20
-249.5
 30
0.0
 11
-95.5
 21
-249.5
 31
0.0
  0
TEXT
  5
87
  8
DATA
 62
     7
 10
-263.9999999999999
 20
-359.3075366666666
 30
0.0
 40
5.700944010416667
  1
※仕様及び外観は予告なく変更されることがあります。
 41
0.7
 11
-263.9999999999999
 21
-353.60659265625
 31
0.0
 73
     3
  0
TEXT
  5
88
  8
DATA
 62
     7
 10
-263.9999999999999
 20
-366.7158699999999
 30
0.0
 40
5.700944010416667
  1
　また、同一商品でも若干の個体差があることがあります。ご了承ください。
 41
0.7
 11
-263.9999999999999
 21
-361.0149259895833
 31
0.0
 73
     3
  0
TEXT
  5
89
  8
DATA
 62
     7
 10
150.0
 20
-327.7936999999998
 30
0.0
 40
7.329785156250001
  1
AKG
 41
0.7
 11
150.0
 21
-320.4639148437498
 31
0.0
 73
     3
  0
TEXT
  5
8A
  8
DATA
 62
     7
 10
150.0
 20
-349.5436999999998
 30
0.0
 40
7.329785156250001
  1
Ara-Y3
 41
0.7
 11
150.0
 21
-342.2139148437498
 31
0.0
 73
     3
  0
TEXT
  5
8B
  8
DATA
 62
     7
 10
142.5
 20
-338.6055649999999
 30
0.0
 40
5.700944010416667
  1
USBマイクロホン
 41
0.7
 11
142.5
 21
-332.9046209895832
 31
0.0
 73
     3
  0
LINE
  5
8C
  8
DATA
  6
CONTINUOUS
 62
     7
 10
-93.25
 20
-250.0
 30
0.0
 11
-93.25
 21
-249.5
 31
0.0
  0
LINE
  5
8D
  8
DATA
  6
CONTINUOUS
 62
     7
 10
-6.75
 20
-250.0
 30
0.0
 11
-93.25
 21
-250.0
 31
0.0
  0
LINE
  5
8E
  8
DATA
  6
CONTINUOUS
 62
     7
 10
-6.75
 20
-249.5
 30
0.0
 11
-6.75
 21
-250.0
 31
0.0
  0
LINE
  5
8F
  8
DATA
  6
CONTINUOUS
 62
     7
 10
-95.5
 20
-249.5
 30
0.0
 11
-96.25
 21
-243.3
 31
0.0
  0
LINE
  5
90
  8
DATA
  6
CONTINUOUS
 62
     7
 10
-3.75
 20
-243.3
 30
0.0
 11
-4.5
 21
-249.5
 31
0.0
  0
LINE
  5
91
  8
DATA
  6
CONTINUOUS
 62
     7
 10
-96.25
 20
-243.3
 30
0.0
 11
-3.75
 21
-243.3
 31
0.0
  0
LINE
  5
92
  8
DATA
  6
CONTINUOUS
 62
     7
 10
-95.5
 20
-241.3
 30
0.0
 11
-96.25
 21
-243.3
 31
0.0
  0
LINE
  5
93
  8
DATA
  6
CONTINUOUS
 62
     7
 10
-3.75
 20
-243.3
 30
0.0
 11
-4.5
 21
-241.3
 31
0.0
  0
LINE
  5
94
  8
DATA
  6
CONTINUOUS
 62
     7
 10
-38.0
 20
-228.55
 30
0.0
 11
-38.0
 21
-232.25
 31
0.0
  0
ARC
  5
95
  8
DATA
  6
CONTINUOUS
 62
     7
 10
-37.2500000000024
 20
-232.2500000000024
 30
0.0
 40
0.7499999999975984
 50
179.9999999998133
 51
255.8174344765535
  0
LINE
  5
96
  8
DATA
  6
CONTINUOUS
 62
     7
 10
-4.5
 20
-241.3
 30
0.0
 11
-37.43375928721396
 21
-232.9771399620174
 31
0.0
  0
LINE
  5
97
  8
DATA
  6
CONTINUOUS
 62
     7
 10
-62.0
 20
-228.55
 30
0.0
 11
-62.0
 21
-232.25
 31
0.0
  0
ARC
  5
98
  8
DATA
  6
CONTINUOUS
 62
     7
 10
-62.7499999999976
 20
-232.2500000000024
 30
0.0
 40
0.7499999999975853
 50
284.1825655234464
 51
0.0000000001867306
  0
LINE
  5
99
  8
DATA
  6
CONTINUOUS
 62
     7
 10
-95.5
 20
-241.3
 30
0.0
 11
-62.56624071278604
 21
-232.9771399620174
 31
0.0
  0
LINE
  5
9A
  8
DATA
  6
CONTINUOUS
 62
     7
 10
-62.0
 20
-232.25
 30
0.0
 11
-38.0
 21
-232.25
 31
0.0
  0
LINE
  5
9B
  8
DATA
  6
CONTINUOUS
 62
     7
 10
-37.43375928721396
 20
-232.9771399620174
 30
0.0
 11
-62.56624071278425
 21
-232.9771399620175
 31
0.0
  0
LINE
  5
9C
  8
DATA
  6
CONTINUOUS
 62
     7
 10
-95.5
 20
-241.3
 30
0.0
 11
-4.5
 21
-241.3
 31
0.0
  0
LINE
  5
9D
  8
DATA
  6
CONTINUOUS
 62
     7
 10
-38.0
 20
-228.55
 30
0.0
 11
-62.0
 21
-228.55
 31
0.0
  0
LINE
  5
9E
  8
DATA
  6
CONTINUOUS
 62
     7
 10
-61.75
 20
-228.0
 30
0.0
 11
-61.75
 21
-210.6
 31
0.0
  0
LINE
  5
9F
  8
DATA
  6
CONTINUOUS
 62
     7
 10
-38.25
 20
-210.6
 30
0.0
 11
-38.25
 21
-228.0
 31
0.0
  0
LINE
  5
A0
  8
DATA
  6
CONTINUOUS
 62
     7
 10
-68.07716883079266
 20
-210.6002013376523
 30
0.0
 11
-61.5
 21
-210.6
 31
0.0
  0
ARC
  5
A1
  8
DATA
  6
CONTINUOUS
 62
     7
 10
-38.5
 20
-213.6
 30
0.0
 40
3.0
 50
90.0
 51
180.0
  0
ARC
  5
A2
  8
DATA
  6
CONTINUOUS
 62
     7
 10
-61.5
 20
-213.6
 30
0.0
 40
3.0
 50
0.0
 51
90.0
  0
LINE
  5
A3
  8
DATA
  6
CONTINUOUS
 62
     7
 10
-58.5
 20
-213.6
 30
0.0
 11
-58.5
 21
-207.9
 31
0.0
  0
LINE
  5
A4
  8
DATA
  6
CONTINUOUS
 62
     7
 10
-41.5
 20
-213.6
 30
0.0
 11
-41.5
 21
-207.9
 31
0.0
  0
LINE
  5
A5
  8
DATA
  6
CONTINUOUS
 62
     7
 10
-61.75
 20
-228.0
 30
0.0
 11
-38.25
 21
-228.0
 31
0.0
  0
LINE
  5
A6
  8
DATA
  6
CONTINUOUS
 62
     7
 10
-60.5
 20
-228.0
 30
0.0
 11
-60.5
 21
-228.55
 31
0.0
  0
LINE
  5
A7
  8
DATA
  6
CONTINUOUS
 62
     7
 10
-39.5
 20
-228.0
 30
0.0
 11
-39.5
 21
-228.55
 31
0.0
  0
ARC
  5
A8
  8
DATA
  6
CONTINUOUS
 62
     7
 10
-66.9
 20
55.40000000000001
 30
0.0
 40
15.0
 50
90.0
 51
180.0
  0
LINE
  5
A9
  8
DATA
  6
CONTINUOUS
 62
     7
 10
-81.9
 20
44.59999999999999
 30
0.0
 11
-81.9
 21
55.40000000000001
 31
0.0
  0
ARC
  5
AA
  8
DATA
  6
CONTINUOUS
 62
     7
 10
-66.89999999999998
 20
44.60000000000002
 30
0.0
 40
15.00000000000003
 50
180.0000000000001
 51
269.9999999999999
  0
LINE
  5
AB
  8
DATA
  6
CONTINUOUS
 62
     7
 10
-33.10000000000002
 20
29.59999999999999
 30
0.0
 11
-66.89999999999999
 21
29.59999999999999
 31
0.0
  0
ARC
  5
AC
  8
DATA
  6
CONTINUOUS
 62
     7
 10
-33.10000000000002
 20
44.60000000000002
 30
0.0
 40
15.00000000000003
 50
270.0
 51
359.9999999999999
  0
LINE
  5
AD
  8
DATA
  6
CONTINUOUS
 62
     7
 10
-18.10000000000001
 20
55.40000000000001
 30
0.0
 11
-18.10000000000001
 21
44.59999999999999
 31
0.0
  0
ARC
  5
AE
  8
DATA
  6
CONTINUOUS
 62
     7
 10
-33.10000000000004
 20
55.39999999999998
 30
0.0
 40
15.00000000000003
 50
0.0000000000001137
 51
89.99999999999994
  0
LINE
  5
AF
  8
DATA
  6
CONTINUOUS
 62
     7
 10
-66.9
 20
70.4
 30
0.0
 11
-33.10000000000002
 21
70.4
 31
0.0
  0
LINE
  5
B0
  8
DATA
  6
CONTINUOUS
 62
     7
 10
-81.75
 20
-23.5
 30
0.0
 11
-81.65
 21
-82.5
 31
0.0
  0
LINE
  5
B1
  8
DATA
  6
CONTINUOUS
 62
     7
 10
-18.25
 20
-23.5
 30
0.0
 11
-18.35000000000001
 21
-82.5
 31
0.0
  0
LINE
  5
B2
  8
DATA
  6
CONTINUOUS
 62
     7
 10
-81.75
 20
-20.0
 30
0.0
 11
-18.25
 21
-20.0
 31
0.0
  0
LINE
  5
B3
  8
DATA
  6
CONTINUOUS
 62
     7
 10
-81.75
 20
-86.0
 30
0.0
 11
-59.84568433375763
 21
-86.0
 31
0.0
  0
LINE
  5
B4
  8
DATA
  6
CONTINUOUS
 62
     7
 10
-40.15431566624238
 20
-86.0
 30
0.0
 11
-18.25
 21
-86.0
 31
0.0
  0
LINE
  5
B5
  8
DATA
  6
CONTINUOUS
 62
     7
 10
-81.89204545454547
 20
-23.5
 30
0.0
 11
-18.10795454545455
 21
-23.5
 31
0.0
  0
LINE
  5
B6
  8
DATA
  6
CONTINUOUS
 62
     7
 10
-81.75795454545454
 20
-82.5
 30
0.0
 11
-59.84568433375762
 21
-82.5
 31
0.0
  0
LINE
  5
B7
  8
DATA
  6
CONTINUOUS
 62
     7
 10
-40.15431566624238
 20
-82.5
 30
0.0
 11
-18.24204545454545
 21
-82.5
 31
0.0
  0
LINE
  5
B8
  8
DATA
  6
CONTINUOUS
 62
     7
 10
-81.89886363636364
 20
-20.5
 30
0.0
 11
-81.89204545454547
 21
-23.5
 31
0.0
  0
LINE
  5
B9
  8
DATA
  6
CONTINUOUS
 62
     7
 10
-81.75795454545454
 20
-82.5
 30
0.0
 11
-81.75
 21
-86.0
 31
0.0
  0
LINE
  5
BA
  8
DATA
  6
CONTINUOUS
 62
     7
 10
-18.10113636363637
 20
-20.5
 30
0.0
 11
-18.10795454545455
 21
-23.5
 31
0.0
  0
LINE
  5
BB
  8
DATA
  6
CONTINUOUS
 62
     7
 10
-18.24204545454546
 20
-82.5
 30
0.0
 11
-18.25
 21
-86.0
 31
0.0
  0
CIRCLE
  5
BC
  8
DATA
  6
CONTINUOUS
 62
     7
 10
-76.0
 20
-26.0
 30
0.0
 40
0.5
  0
CIRCLE
  5
BD
  8
DATA
  6
CONTINUOUS
 62
     7
 10
-78.0
 20
-26.0
 30
0.0
 40
0.5
  0
CIRCLE
  5
BE
  8
DATA
  6
CONTINUOUS
 62
     7
 10
-80.0
 20
-26.0
 30
0.0
 40
0.5
  0
ARC
  5
BF
  8
DATA
  6
CONTINUOUS
 62
     7
 10
-81.99999999999997
 20
-26.0
 30
0.0
 40
0.4999999999999752
 50
300.6593381518385
 51
59.53488464357833
  0
CIRCLE
  5
C0
  8
DATA
  6
CONTINUOUS
 62
     7
 10
-75.0
 20
-27.0
 30
0.0
 40
0.5
  0
CIRCLE
  5
C1
  8
DATA
  6
CONTINUOUS
 62
     7
 10
-77.0
 20
-27.0
 30
0.0
 40
0.5
  0
CIRCLE
  5
C2
  8
DATA
  6
CONTINUOUS
 62
     7
 10
-79.0
 20
-27.0
 30
0.0
 40
0.5
  0
CIRCLE
  5
C3
  8
DATA
  6
CONTINUOUS
 62
     7
 10
-81.0
 20
-27.0
 30
0.0
 40
0.5
  0
CIRCLE
  5
C4
  8
DATA
  6
CONTINUOUS
 62
     7
 10
-76.0
 20
-28.0
 30
0.0
 40
0.5
  0
CIRCLE
  5
C5
  8
DATA
  6
CONTINUOUS
 62
     7
 10
-78.0
 20
-28.0
 30
0.0
 40
0.5
  0
CIRCLE
  5
C6
  8
DATA
  6
CONTINUOUS
 62
     7
 10
-80.0
 20
-28.0
 30
0.0
 40
0.5
  0
ARC
  5
C7
  8
DATA
  6
CONTINUOUS
 62
     7
 10
-82.0
 20
-28.00000000000003
 30
0.0
 40
0.4999999999999823
 50
301.1115119936098
 51
59.08271080181395
  0
ARC
  5
C8
  8
DATA
  6
CONTINUOUS
 62
     7
 10
-75.0
 20
-29.0
 30
0.0
 40
0.5000000000000022
 50
0.7956036442379034
 51
233.0957083919266
  0
CIRCLE
  5
C9
  8
DATA
  6
CONTINUOUS
 62
     7
 10
-77.0
 20
-29.0
 30
0.0
 40
0.5
  0
CIRCLE
  5
CA
  8
DATA
  6
CONTINUOUS
 62
     7
 10
-79.0
 20
-29.0
 30
0.0
 40
0.5
  0
CIRCLE
  5
CB
  8
DATA
  6
CONTINUOUS
 62
     7
 10
-81.0
 20
-29.0
 30
0.0
 40
0.5
  0
ARC
  5
CC
  8
DATA
  6
CONTINUOUS
 62
     7
 10
-28.0
 20
-80.0
 30
0.0
 40
0.4999999999999998
 50
211.8585756475037
 51
61.60832519352314
  0
CIRCLE
  5
CD
  8
DATA
  6
CONTINUOUS
 62
     7
 10
-26.0
 20
-80.0
 30
0.0
 40
0.5000000000000063
  0
CIRCLE
  5
CE
  8
DATA
  6
CONTINUOUS
 62
     7
 10
-24.0
 20
-80.0
 30
0.0
 40
0.5000000000000063
  0
CIRCLE
  5
CF
  8
DATA
  6
CONTINUOUS
 62
     7
 10
-22.0
 20
-80.0
 30
0.0
 40
0.5000000000000063
  0
CIRCLE
  5
D0
  8
DATA
  6
CONTINUOUS
 62
     7
 10
-20.0
 20
-80.0
 30
0.0
 40
0.5000000000000063
  0
ARC
  5
D1
  8
DATA
  6
CONTINUOUS
 62
     7
 10
-18.0
 20
-80.0
 30
0.0
 40
0.4999999999999991
 50
133.6537908138299
 51
226.151986390752
  0
ARC
  5
D2
  8
DATA
  6
CONTINUOUS
 62
     7
 10
-26.99999999999999
 20
-79.00000000000003
 30
0.0
 40
0.5000000000000102
 50
211.6114689979758
 51
40.85404322005684
  0
CIRCLE
  5
D3
  8
DATA
  6
CONTINUOUS
 62
     7
 10
-25.0
 20
-79.0
 30
0.0
 40
0.5000000000000063
  0
CIRCLE
  5
D4
  8
DATA
  6
CONTINUOUS
 62
     7
 10
-23.0
 20
-79.0
 30
0.0
 40
0.5000000000000063
  0
CIRCLE
  5
D5
  8
DATA
  6
CONTINUOUS
 62
     7
 10
-21.0
 20
-79.0
 30
0.0
 40
0.5000000000000063
  0
CIRCLE
  5
D6
  8
DATA
  6
CONTINUOUS
 62
     7
 10
-19.0
 20
-79.0
 30
0.0
 40
0.5000000000000063
  0
ARC
  5
D7
  8
DATA
  6
CONTINUOUS
 62
     7
 10
-25.99999999999996
 20
-78.0
 30
0.0
 40
0.5000000000000329
 50
241.9537975708013
 51
350.6227647525087
  0
CIRCLE
  5
D8
  8
DATA
  6
CONTINUOUS
 62
     7
 10
-24.0
 20
-78.0
 30
0.0
 40
0.5000000000000063
  0
CIRCLE
  5
D9
  8
DATA
  6
CONTINUOUS
 62
     7
 10
-22.0
 20
-78.0
 30
0.0
 40
0.5000000000000063
  0
CIRCLE
  5
DA
  8
DATA
  6
CONTINUOUS
 62
     7
 10
-20.0
 20
-78.0
 30
0.0
 40
0.5000000000000063
  0
ARC
  5
DB
  8
DATA
  6
CONTINUOUS
 62
     7
 10
-18.0
 20
-78.0
 30
0.0
 40
0.4999999999999961
 50
133.1184273845649
 51
226.6873498200185
  0
ARC
  5
DC
  8
DATA
  6
CONTINUOUS
 62
     7
 10
-76.56550591976043
 20
-37.75640877365274
 30
0.0
 40
7.812499999999997
 50
96.86989764584418
 51
131.4367595462232
  0
ARC
  5
DD
  8
DATA
  6
CONTINUOUS
 62
     7
 10
-78.43449408023957
 20
-22.24359122634726
 30
0.0
 40
7.812499999999997
 50
276.8698976458441
 51
350.7454861021358
  0
ARC
  5
DE
  8
DATA
  6
CONTINUOUS
 62
     7
 10
-22.41550591976043
 20
-85.25640877365274
 30
0.0
 40
7.812499999999997
 50
96.86989764584418
 51
159.3400839839829
  0
ARC
  5
DF
  8
DATA
  6
CONTINUOUS
 62
     7
 10
-24.28449408023958
 20
-69.74359122634726
 30
0.0
 40
7.812499999999997
 50
276.8698976458441
 51
319.577498805967
  0
ARC
  5
E0
  8
DATA
  6
CONTINUOUS
 62
     7
 10
-76.0
 20
-30.0
 30
0.0
 40
0.4999999999999968
 50
58.14639464999222
 51
156.7044883984099
  0
ARC
  5
E1
  8
DATA
  6
CONTINUOUS
 62
     7
 10
-78.0
 20
-30.00000000000003
 30
0.0
 40
0.5
 50
0.0000000000032401
 51
200.9561288323768
  0
CIRCLE
  5
E2
  8
DATA
  6
CONTINUOUS
 62
     7
 10
-80.0
 20
-30.0
 30
0.0
 40
0.5
  0
ARC
  5
E3
  8
DATA
  6
CONTINUOUS
 62
     7
 10
-81.0
 20
-31.0
 30
0.0
 40
0.4999999999999984
 50
359.1979029593506
 51
247.3589954296158
  0
CIRCLE
  5
E4
  8
DATA
  6
CONTINUOUS
 62
     7
 10
-74.0
 20
-26.0
 30
0.0
 40
0.5
  0
CIRCLE
  5
E5
  8
DATA
  6
CONTINUOUS
 62
     7
 10
-73.0
 20
-27.0
 30
0.0
 40
0.5
  0
CIRCLE
  5
E6
  8
DATA
  6
CONTINUOUS
 62
     7
 10
-74.0
 20
-28.0
 30
0.0
 40
0.5
  0
ARC
  5
E7
  8
DATA
  6
CONTINUOUS
 62
     7
 10
-72.0
 20
-26.0
 30
0.0
 40
0.4999999999999986
 50
14.68721213171486
 51
284.7606715118259
  0
ARC
  5
E8
  8
DATA
  6
CONTINUOUS
 62
     7
 10
-23.00000000000001
 20
-77.0
 30
0.0
 40
0.4999999999999998
 50
251.5964086479605
 51
308.4800596877241
  0
ARC
  5
E9
  8
DATA
  6
CONTINUOUS
 62
     7
 10
-21.0
 20
-77.0
 30
0.0
 40
0.5000000000000006
 50
184.857705758033
 51
43.84850027173863
  0
CIRCLE
  5
EA
  8
DATA
  6
CONTINUOUS
 62
     7
 10
-19.0
 20
-77.0
 30
0.0
 40
0.5000000000000063
  0
ARC
  5
EB
  8
DATA
  6
CONTINUOUS
 62
     7
 10
-20.0
 20
-76.00000000000003
 30
0.0
 40
0.4999999999999886
 50
240.080911152905
 51
8.72708883789474
  0
ARC
  5
EC
  8
DATA
  6
CONTINUOUS
 62
     7
 10
-18.0
 20
-76.0
 30
0.0
 40
0.4999999999999989
 50
132.587723474837
 51
227.2180537297467
  0
CIRCLE
  5
ED
  8
DATA
  6
CONTINUOUS
 62
     7
 10
-50.0
 20
-84.25
 30
0.0
 40
10.0
  0
TEXT
  5
EE
  8
DATA
 62
     7
 10
-56.3343822337963
 20
-87.64341905381944
 30
0.0
 40
6.786838107638889
  1
AKG
 41
0.7
 72
     1
 11
-50.0
 21
-84.25
 31
0.0
 73
     2
  0
ARC
  5
EF
  8
DATA
  6
CONTINUOUS
 62
     7
 10
649.1806249999794
 20
-88.00425173611191
 30
0.0
 40
730.5333743833215
 50
179.8428062102981
 51
184.0814808917395
  0
ARC
  5
F0
  8
DATA
  6
CONTINUOUS
 62
     7
 10
-749.1806249999794
 20
-88.00425173611191
 30
0.0
 40
730.5333743833215
 50
355.9185191082605
 51
0.1571937897018642
  0
LINE
  5
F1
  8
DATA
  6
CONTINUOUS
 62
     7
 10
-73.0
 20
-167.0
 30
0.0
 11
-27.0
 21
-167.0
 31
0.0
  0
ARC
  5
F2
  8
DATA
  6
CONTINUOUS
 62
     7
 10
116.3125
 20
-107.1423611111111
 30
0.0
 40
198.5501437662603
 50
189.525576556867
 51
197.5461361814015
  0
ARC
  5
F3
  8
DATA
  6
CONTINUOUS
 62
     7
 10
-216.3125
 20
-107.1423611111111
 30
0.0
 40
198.5501437662603
 50
342.4538638185985
 51
350.474423443133
  0
CIRCLE
  5
F4
  8
DATA
  6
CONTINUOUS
 62
     7
 10
-50.0
 20
-107.25
 30
0.0
 40
6.049999999999997
  0
CIRCLE
  5
F5
  8
DATA
  6
CONTINUOUS
 62
     7
 10
-50.0
 20
-127.25
 30
0.0
 40
5.849999999999994
  0
CIRCLE
  5
F6
  8
DATA
  6
CONTINUOUS
 62
     7
 10
-50.0
 20
-107.25
 30
0.0
 40
5.849999999999994
  0
CIRCLE
  5
F7
  8
DATA
  6
CONTINUOUS
 62
     7
 10
-50.0
 20
-127.25
 30
0.0
 40
6.049999999999997
  0
CIRCLE
  5
F8
  8
DATA
  6
CONTINUOUS
 62
     7
 10
-53.25
 20
-98.75
 30
0.0
 40
0.5
  0
CIRCLE
  5
F9
  8
DATA
  6
CONTINUOUS
 62
     7
 10
-46.75
 20
-98.75
 30
0.0
 40
0.5
  0
LINE
  5
FA
  8
DATA
  6
CONTINUOUS
 62
     7
 10
-51.37497924512638
 20
-103.6539004358233
 30
0.0
 11
-51.91068544452627
 21
-102.2528226835467
 31
0.0
  0
TEXT
  5
FB
  8
DATA
 62
     7
 10
-58.68406756363518
 20
-99.42868381076389
 30
0.0
 40
1.357367621527778
  1
FRONT
 41
0.7
 72
     2
 11
-54.24999999997777
 21
-98.75
 31
0.0
 73
     2
  0
TEXT
  5
FC
  8
DATA
 62
     7
 10
-45.75
 20
-98.54673936631944
 30
0.0
 40
1.357367621527778
  1
FRONT
 41
0.7
 11
-45.75
 21
-97.86805555555556
 31
0.0
 73
     2
  0
TEXT
  5
FD
  8
DATA
 62
     7
 10
-45.75
 20
-100.3106282552083
 30
0.0
 40
1.357367621527778
  1
&BACK
 41
0.7
 11
-45.75
 21
-99.63194444444444
 31
0.0
 73
     2
  0
TEXT
  5
FE
  8
DATA
 62
     7
 10
-51.74195511429398
 20
-117.9286838107639
 30
0.0
 40
1.357367621527778
  1
MUTE
 41
0.7
 72
     1
 11
-50.0
 21
-117.25
 31
0.0
 73
     2
  0
CIRCLE
  5
FF
  8
DATA
  6
CONTINUOUS
 62
     7
 10
-55.5
 20
-117.25
 30
0.0
 40
0.75
  0
LINE
  5
100
  8
DATA
  6
CONTINUOUS
 62
     7
 10
-54.25
 20
-117.25
 30
0.0
 11
-52.25
 21
-117.25
 31
0.0
  0
TEXT
  5
101
  8
DATA
 62
     7
 10
-52.85047200520833
 20
-136.9296838107639
 30
0.0
 40
1.357367621527778
  1
VOLUME
 41
0.7
 72
     1
 11
-50.0
 21
-136.251
 31
0.0
 73
     2
  0
ARC
  5
102
  8
DATA
  6
CONTINUOUS
 62
     7
 10
824.5143637416777
 20
-82.79572723010912
 30
0.0
 40
908.596021096959
 50
180.9588214138806
 51
187.644603246281
  0
LINE
  5
103
  8
DATA
  6
CONTINUOUS
 62
     7
 10
-83.9544357461001
 20
-90.0
 30
0.0
 11
-81.34813625832368
 21
-90.0
 31
0.0
  0
LINE
  5
104
  8
DATA
  6
CONTINUOUS
 62
     7
 10
-31.97909487085478
 20
-207.9
 30
0.0
 11
-68.13392231801794
 21
-207.9
 31
0.0
  0
ARC
  5
105
  8
DATA
  6
CONTINUOUS
 62
     7
 10
824.5143637416777
 20
-82.79572723010912
 30
0.0
 40
905.8961210057283
 50
180.4936340668328
 51
187.6446032462809
  0
ARC
  5
106
  8
DATA
  6
CONTINUOUS
 62
     7
 10
-68.07741372358157
 20
-202.6002013414006
 30
0.0
 40
8.000000000000048
 50
187.644603246281
 51
270.001753915405
  0
ARC
  5
107
  8
DATA
  6
CONTINUOUS
 62
     7
 10
-68.07741372358157
 20
-202.6002013414006
 30
0.0
 40
5.300099908769378
 50
187.6446032462821
 51
270.6108875996141
  0
LINE
  5
108
  8
DATA
  6
CONTINUOUS
 62
     7
 10
-31.92283116920734
 20
-210.6002013376523
 30
0.0
 11
-38.5
 21
-210.6
 31
0.0
  0
ARC
  5
109
  8
DATA
  6
CONTINUOUS
 62
     7
 10
-924.5143637416777
 20
-82.79572723010912
 30
0.0
 40
908.596021096959
 50
352.355396753719
 51
359.0411785861197
  0
ARC
  5
10A
  8
DATA
  6
CONTINUOUS
 62
     7
 10
-924.5143637416777
 20
-82.79572723010912
 30
0.0
 40
905.8961210057284
 50
352.3553967537191
 51
359.5063659331673
  0
ARC
  5
10B
  8
DATA
  6
CONTINUOUS
 62
     7
 10
-31.92258627641843
 20
-202.6002013414006
 30
0.0
 40
8.000000000000025
 50
269.998246084595
 51
352.355396753719
  0
ARC
  5
10C
  8
DATA
  6
CONTINUOUS
 62
     7
 10
-31.92258627641843
 20
-202.6002013414006
 30
0.0
 40
5.300099908769378
 50
269.3891124003859
 51
352.3553967537179
  0
POLYLINE
  5
10D
  8
DATA
  6
CONTINUOUS
 62
     7
 66
     1
 10
0.0
 20
0.0
 30
0.0
 70
     1
  0
VERTEX
  5
280
  8
DATA
  6
CONTINUOUS
 62
     7
 10
-86.9544357461001
 20
-90.0
 30
0.0
  0
VERTEX
  5
281
  8
DATA
  6
CONTINUOUS
 62
     7
 10
-83.9544357461001
 20
-90.0
 30
0.0
  0
VERTEX
  5
282
  8
DATA
  6
CONTINUOUS
 62
     7
 10
-83.9544357461001
 20
-106.0
 30
0.0
  0
VERTEX
  5
283
  8
DATA
  6
CONTINUOUS
 62
     7
 10
-86.9544357461001
 20
-106.0
 30
0.0
  0
SEQEND
  5
298
  8
DATA
  6
CONTINUOUS
 62
     7
  0
LINE
  5
114
  8
DATA
  6
CONTINUOUS
 62
     7
 10
-87.75000000000003
 20
-106.0
 30
0.0
 11
-87.75000000000003
 21
-90.0
 31
0.0
  0
LINE
  5
115
  8
DATA
  6
CONTINUOUS
 62
     7
 10
-95.75570229922519
 20
-105.7998574425194
 30
0.0
 11
-87.75000000000003
 21
-106.0
 31
0.0
  0
LINE
  5
116
  8
DATA
  6
CONTINUOUS
 62
     7
 10
-87.75000000000003
 20
-90.0
 30
0.0
 11
-95.7557022992253
 21
-90.20014255748066
 31
0.0
  0
ARC
  5
117
  8
DATA
  6
CONTINUOUS
 62
     7
 10
17.87999999999967
 20
-98.00000000000003
 30
0.0
 40
114.1299999999997
 50
176.1986568473143
 51
183.8013431526857
  0
ARC
  5
118
  8
DATA
  6
CONTINUOUS
 62
     7
 10
-95.74945425143514
 20
-105.5499355309173
 30
0.0
 40
0.2500000000000642
 50
183.8013431526944
 51
268.5679038158353
  0
ARC
  5
119
  8
DATA
  6
CONTINUOUS
 62
     7
 10
-95.74945425143525
 20
-90.45006446908263
 30
0.0
 40
0.2499999999999424
 50
91.4320961841653
 51
176.1986568473234
  0
LINE
  5
11A
  8
DATA
  6
CONTINUOUS
 62
     7
 10
-95.7557022992253
 20
-90.20014255748066
 30
0.0
 11
-95.75570229922519
 21
-105.7998574425194
 31
0.0
  0
LINE
  5
11B
  8
DATA
  6
CONTINUOUS
 62
     7
 10
-87.75000000000003
 20
-103.9
 30
0.0
 11
-86.9544357461001
 21
-103.9
 31
0.0
  0
LINE
  5
11C
  8
DATA
  6
CONTINUOUS
 62
     7
 10
-86.9544357461001
 20
-92.1
 30
0.0
 11
-87.75000000000003
 21
-92.1
 31
0.0
  0
ARC
  5
11D
  8
DATA
  6
CONTINUOUS
 62
     7
 10
-50.00000000006129
 20
50.0000000000104
 30
0.0
 40
46.24999999993785
 50
189.7143849695121
 51
350.285615030484
  0
ARC
  5
11E
  8
DATA
  6
CONTINUOUS
 62
     7
 10
-50.00000000006129
 20
50.0000000000104
 30
0.0
 40
46.24999999993784
 50
9.714384969489588
 51
170.2856150305142
  0
LINE
  5
11F
  8
DATA
  6
CONTINUOUS
 62
     7
 10
-16.0455642538999
 20
-90.0
 30
0.0
 11
-18.65186374167632
 21
-90.0
 31
0.0
  0
POLYLINE
  5
120
  8
DATA
  6
CONTINUOUS
 62
     7
 66
     1
 10
0.0
 20
0.0
 30
0.0
 70
     1
  0
VERTEX
  5
284
  8
DATA
  6
CONTINUOUS
 62
     7
 10
-16.0455642538999
 20
-90.0
 30
0.0
  0
VERTEX
  5
285
  8
DATA
  6
CONTINUOUS
 62
     7
 10
-13.0455642538999
 20
-90.0
 30
0.0
  0
VERTEX
  5
286
  8
DATA
  6
CONTINUOUS
 62
     7
 10
-13.0455642538999
 20
-106.0
 30
0.0
  0
VERTEX
  5
287
  8
DATA
  6
CONTINUOUS
 62
     7
 10
-16.0455642538999
 20
-106.0
 30
0.0
  0
SEQEND
  5
299
  8
DATA
  6
CONTINUOUS
 62
     7
  0
LINE
  5
127
  8
DATA
  6
CONTINUOUS
 62
     7
 10
-12.24999999999997
 20
-106.0
 30
0.0
 11
-12.24999999999997
 21
-90.0
 31
0.0
  0
LINE
  5
128
  8
DATA
  6
CONTINUOUS
 62
     7
 10
-4.244297700774808
 20
-105.7998574425194
 30
0.0
 11
-12.24999999999997
 21
-106.0
 31
0.0
  0
LINE
  5
129
  8
DATA
  6
CONTINUOUS
 62
     7
 10
-12.24999999999997
 20
-90.0
 30
0.0
 11
-4.244297700774695
 21
-90.20014255748066
 31
0.0
  0
ARC
  5
12A
  8
DATA
  6
CONTINUOUS
 62
     7
 10
-117.8799999999997
 20
-98.00000000000003
 30
0.0
 40
114.1299999999997
 50
356.1986568473143
 51
3.80134315268566
  0
ARC
  5
12B
  8
DATA
  6
CONTINUOUS
 62
     7
 10
-4.250545748564861
 20
-105.5499355309173
 30
0.0
 40
0.2500000000000561
 50
271.4320961841647
 51
356.1986568473056
  0
ARC
  5
12C
  8
DATA
  6
CONTINUOUS
 62
     7
 10
-4.250545748564747
 20
-90.45006446908263
 30
0.0
 40
0.2499999999999451
 50
3.801343152676652
 51
88.56790381583471
  0
LINE
  5
12D
  8
DATA
  6
CONTINUOUS
 62
     7
 10
-4.244297700774695
 20
-90.20014255748066
 30
0.0
 11
-4.244297700774808
 21
-105.7998574425194
 31
0.0
  0
LINE
  5
12E
  8
DATA
  6
CONTINUOUS
 62
     7
 10
-12.24999999999997
 20
-103.9
 30
0.0
 11
-13.0455642538999
 21
-103.9
 31
0.0
  0
LINE
  5
12F
  8
DATA
  6
CONTINUOUS
 62
     7
 10
-13.0455642538999
 20
-92.1
 30
0.0
 11
-12.24999999999997
 21
-92.1
 31
0.0
  0
POLYLINE
  5
130
  8
DATA
  6
CONTINUOUS
 62
     7
 66
     1
 10
0.0
 20
0.0
 30
0.0
 70
     1
  0
VERTEX
  5
288
  8
DATA
  6
CONTINUOUS
 62
     7
 10
-86.9544357461001
 20
57.99999999999997
 30
0.0
  0
VERTEX
  5
289
  8
DATA
  6
CONTINUOUS
 62
     7
 10
-83.9544357461001
 20
57.99999999999997
 30
0.0
  0
VERTEX
  5
28A
  8
DATA
  6
CONTINUOUS
 62
     7
 10
-83.9544357461001
 20
41.99999999999997
 30
0.0
  0
VERTEX
  5
28B
  8
DATA
  6
CONTINUOUS
 62
     7
 10
-86.9544357461001
 20
41.99999999999997
 30
0.0
  0
SEQEND
  5
29A
  8
DATA
  6
CONTINUOUS
 62
     7
  0
LINE
  5
137
  8
DATA
  6
CONTINUOUS
 62
     7
 10
-87.75000000000003
 20
41.99999999999997
 30
0.0
 11
-87.75000000000003
 21
57.99999999999997
 31
0.0
  0
LINE
  5
138
  8
DATA
  6
CONTINUOUS
 62
     7
 10
-95.75570229922519
 20
42.20014255748058
 30
0.0
 11
-87.75000000000003
 21
41.99999999999997
 31
0.0
  0
LINE
  5
139
  8
DATA
  6
CONTINUOUS
 62
     7
 10
-87.75000000000003
 20
57.99999999999997
 30
0.0
 11
-95.7557022992253
 21
57.79985744251931
 31
0.0
  0
ARC
  5
13A
  8
DATA
  6
CONTINUOUS
 62
     7
 10
17.87999999999967
 20
49.99999999999994
 30
0.0
 40
114.1299999999997
 50
176.1986568473143
 51
183.8013431526857
  0
ARC
  5
13B
  8
DATA
  6
CONTINUOUS
 62
     7
 10
-95.74945425143514
 20
42.45006446908266
 30
0.0
 40
0.2500000000000642
 50
183.8013431526944
 51
268.5679038158353
  0
ARC
  5
13C
  8
DATA
  6
CONTINUOUS
 62
     7
 10
-95.74945425143525
 20
57.54993553091734
 30
0.0
 40
0.2499999999999424
 50
91.4320961841653
 51
176.1986568473234
  0
LINE
  5
13D
  8
DATA
  6
CONTINUOUS
 62
     7
 10
-95.7557022992253
 20
57.79985744251931
 30
0.0
 11
-95.75570229922519
 21
42.20014255748058
 31
0.0
  0
LINE
  5
13E
  8
DATA
  6
CONTINUOUS
 62
     7
 10
-87.75000000000003
 20
44.09999999999997
 30
0.0
 11
-86.9544357461001
 21
44.09999999999997
 31
0.0
  0
LINE
  5
13F
  8
DATA
  6
CONTINUOUS
 62
     7
 10
-86.9544357461001
 20
55.89999999999998
 30
0.0
 11
-87.75000000000003
 21
55.89999999999998
 31
0.0
  0
POLYLINE
  5
140
  8
DATA
  6
CONTINUOUS
 62
     7
 66
     1
 10
0.0
 20
0.0
 30
0.0
 70
     1
  0
VERTEX
  5
28C
  8
DATA
  6
CONTINUOUS
 62
     7
 10
-83.9544357461001
 20
57.75
 30
0.0
  0
VERTEX
  5
28D
  8
DATA
  6
CONTINUOUS
 62
     7
 10
-81.9
 20
57.75
 30
0.0
  0
VERTEX
  5
28E
  8
DATA
  6
CONTINUOUS
 62
     7
 10
-81.9
 20
42.25
 30
0.0
  0
VERTEX
  5
28F
  8
DATA
  6
CONTINUOUS
 62
     7
 10
-83.9544357461001
 20
42.25
 30
0.0
  0
SEQEND
  5
29B
  8
DATA
  6
CONTINUOUS
 62
     7
  0
POLYLINE
  5
147
  8
DATA
  6
CONTINUOUS
 62
     7
 66
     1
 10
0.0
 20
0.0
 30
0.0
 70
     1
  0
VERTEX
  5
290
  8
DATA
  6
CONTINUOUS
 62
     7
 10
-16.0455642538999
 20
57.99999999999997
 30
0.0
  0
VERTEX
  5
291
  8
DATA
  6
CONTINUOUS
 62
     7
 10
-13.0455642538999
 20
57.99999999999997
 30
0.0
  0
VERTEX
  5
292
  8
DATA
  6
CONTINUOUS
 62
     7
 10
-13.0455642538999
 20
41.99999999999997
 30
0.0
  0
VERTEX
  5
293
  8
DATA
  6
CONTINUOUS
 62
     7
 10
-16.0455642538999
 20
41.99999999999997
 30
0.0
  0
SEQEND
  5
29C
  8
DATA
  6
CONTINUOUS
 62
     7
  0
LINE
  5
14E
  8
DATA
  6
CONTINUOUS
 62
     7
 10
-12.24999999999997
 20
41.99999999999997
 30
0.0
 11
-12.24999999999997
 21
57.99999999999997
 31
0.0
  0
LINE
  5
14F
  8
DATA
  6
CONTINUOUS
 62
     7
 10
-4.244297700774808
 20
42.20014255748058
 30
0.0
 11
-12.24999999999997
 21
41.99999999999997
 31
0.0
  0
LINE
  5
150
  8
DATA
  6
CONTINUOUS
 62
     7
 10
-12.24999999999997
 20
57.99999999999997
 30
0.0
 11
-4.244297700774695
 21
57.79985744251931
 31
0.0
  0
ARC
  5
151
  8
DATA
  6
CONTINUOUS
 62
     7
 10
-117.8799999999997
 20
49.99999999999994
 30
0.0
 40
114.1299999999997
 50
356.1986568473143
 51
3.80134315268566
  0
ARC
  5
152
  8
DATA
  6
CONTINUOUS
 62
     7
 10
-4.250545748564861
 20
42.45006446908266
 30
0.0
 40
0.2500000000000561
 50
271.4320961841647
 51
356.1986568473056
  0
ARC
  5
153
  8
DATA
  6
CONTINUOUS
 62
     7
 10
-4.250545748564747
 20
57.54993553091734
 30
0.0
 40
0.2499999999999451
 50
3.801343152676652
 51
88.56790381583471
  0
LINE
  5
154
  8
DATA
  6
CONTINUOUS
 62
     7
 10
-4.244297700774695
 20
57.79985744251931
 30
0.0
 11
-4.244297700774808
 21
42.20014255748058
 31
0.0
  0
LINE
  5
155
  8
DATA
  6
CONTINUOUS
 62
     7
 10
-12.24999999999997
 20
44.09999999999997
 30
0.0
 11
-13.0455642538999
 21
44.09999999999997
 31
0.0
  0
LINE
  5
156
  8
DATA
  6
CONTINUOUS
 62
     7
 10
-13.0455642538999
 20
55.89999999999998
 30
0.0
 11
-12.24999999999997
 21
55.89999999999998
 31
0.0
  0
POLYLINE
  5
157
  8
DATA
  6
CONTINUOUS
 62
     7
 66
     1
 10
0.0
 20
0.0
 30
0.0
 70
     1
  0
VERTEX
  5
294
  8
DATA
  6
CONTINUOUS
 62
     7
 10
-18.09999999999999
 20
57.75
 30
0.0
  0
VERTEX
  5
295
  8
DATA
  6
CONTINUOUS
 62
     7
 10
-16.0455642538999
 20
57.75
 30
0.0
  0
VERTEX
  5
296
  8
DATA
  6
CONTINUOUS
 62
     7
 10
-16.0455642538999
 20
42.25
 30
0.0
  0
VERTEX
  5
297
  8
DATA
  6
CONTINUOUS
 62
     7
 10
-18.09999999999999
 20
42.25
 30
0.0
  0
SEQEND
  5
29D
  8
DATA
  6
CONTINUOUS
 62
     7
  0
CIRCLE
  5
15E
  8
DATA
  6
CONTINUOUS
 62
     7
 10
-50.0
 20
-84.25
 30
0.0
 40
9.5
  0
LINE
  5
15F
  8
DATA
  6
CONTINUOUS
 62
     7
 10
-40.0
 20
29.59999999999999
 30
0.0
 11
-40.5
 21
27.90000000000001
 31
0.0
  0
LINE
  5
160
  8
DATA
  6
CONTINUOUS
 62
     7
 10
-40.5
 20
27.90000000000001
 30
0.0
 11
-59.5
 21
27.90000000000001
 31
0.0
  0
LINE
  5
161
  8
DATA
  6
CONTINUOUS
 62
     7
 10
-59.5
 20
27.90000000000001
 30
0.0
 11
-60.0
 21
29.59999999999999
 31
0.0
  0
LINE
  5
162
  8
DATA
  6
CONTINUOUS
 62
     7
 10
-56.02166666666666
 20
27.90000000000001
 30
0.0
 11
-55.84999999999999
 21
17.59999999999999
 31
0.0
  0
LINE
  5
163
  8
DATA
  6
CONTINUOUS
 62
     7
 10
-55.84999999999999
 20
17.59999999999999
 30
0.0
 11
-44.15000000000001
 21
17.59999999999999
 31
0.0
  0
LINE
  5
164
  8
DATA
  6
CONTINUOUS
 62
     7
 10
-44.15000000000001
 20
17.59999999999999
 30
0.0
 11
-43.97833333333334
 21
27.90000000000001
 31
0.0
  0
CIRCLE
  5
165
  8
DATA
  6
CONTINUOUS
 62
     7
 10
-50.0
 20
50.0
 30
0.0
 40
8.25
  0
LINE
  5
166
  8
DATA
  6
CONTINUOUS
 62
     7
 10
-40.0
 20
70.4
 30
0.0
 11
-40.5
 21
72.1
 31
0.0
  0
LINE
  5
167
  8
DATA
  6
CONTINUOUS
 62
     7
 10
-40.5
 20
72.1
 30
0.0
 11
-59.5
 21
72.1
 31
0.0
  0
LINE
  5
168
  8
DATA
  6
CONTINUOUS
 62
     7
 10
-59.5
 20
72.1
 30
0.0
 11
-60.0
 21
70.4
 31
0.0
  0
ARC
  5
169
  8
DATA
  6
CONTINUOUS
 62
     7
 10
-49.99999999999939
 20
50.0
 30
0.0
 40
45.50000000000061
 50
189.9005316297171
 51
350.0994683702831
  0
ARC
  5
16A
  8
DATA
  6
CONTINUOUS
 62
     7
 10
-49.99999999999939
 20
50.0
 30
0.0
 40
45.50000000000061
 50
9.90053162971682
 51
170.0994683702831
  0
LINE
  5
16B
  8
DATA
  6
CONTINUOUS
 62
     7
 10
29.59999999998962
 20
-20.5
 30
0.0
 11
29.59999999998962
 21
-23.5
 31
0.0
  0
LINE
  5
16C
  8
DATA
  6
CONTINUOUS
 62
     7
 10
29.59999999998962
 20
-82.5
 30
0.0
 11
29.59999999998962
 21
-86.0
 31
0.0
  0
LINE
  5
16D
  8
DATA
  6
CONTINUOUS
 62
     7
 10
70.39999999998962
 20
-20.5
 30
0.0
 11
70.39999999998962
 21
-23.5
 31
0.0
  0
LINE
  5
16E
  8
DATA
  6
CONTINUOUS
 62
     7
 10
70.39999999998962
 20
-82.5
 30
0.0
 11
70.39999999998962
 21
-86.0
 31
0.0
  0
LINE
  5
16F
  8
DATA
  6
CONTINUOUS
 62
     7
 10
95.5
 20
-249.5
 30
0.0
 11
4.5
 21
-249.5
 31
0.0
  0
LINE
  5
170
  8
DATA
  6
CONTINUOUS
 62
     7
 10
6.75
 20
-250.0
 30
0.0
 11
6.75
 21
-249.5
 31
0.0
  0
LINE
  5
171
  8
DATA
  6
CONTINUOUS
 62
     7
 10
93.25
 20
-250.0
 30
0.0
 11
6.75
 21
-250.0
 31
0.0
  0
LINE
  5
172
  8
DATA
  6
CONTINUOUS
 62
     7
 10
93.25
 20
-249.5
 30
0.0
 11
93.25
 21
-250.0
 31
0.0
  0
LINE
  5
173
  8
DATA
  6
CONTINUOUS
 62
     7
 10
4.5
 20
-249.5
 30
0.0
 11
3.75
 21
-243.3
 31
0.0
  0
LINE
  5
174
  8
DATA
  6
CONTINUOUS
 62
     7
 10
96.25
 20
-243.3
 30
0.0
 11
95.5
 21
-249.5
 31
0.0
  0
LINE
  5
175
  8
DATA
  6
CONTINUOUS
 62
     7
 10
3.75
 20
-243.3
 30
0.0
 11
96.25
 21
-243.3
 31
0.0
  0
LINE
  5
176
  8
DATA
  6
CONTINUOUS
 62
     7
 10
4.5
 20
-241.3
 30
0.0
 11
3.75
 21
-243.3
 31
0.0
  0
LINE
  5
177
  8
DATA
  6
CONTINUOUS
 62
     7
 10
96.25
 20
-243.3
 30
0.0
 11
95.5
 21
-241.3
 31
0.0
  0
LINE
  5
178
  8
DATA
  6
CONTINUOUS
 62
     7
 10
62.0
 20
-228.55
 30
0.0
 11
62.0
 21
-232.25
 31
0.0
  0
ARC
  5
179
  8
DATA
  6
CONTINUOUS
 62
     7
 10
62.7499999999976
 20
-232.2500000000024
 30
0.0
 40
0.7499999999975984
 50
179.9999999998133
 51
255.8174344765535
  0
LINE
  5
17A
  8
DATA
  6
CONTINUOUS
 62
     7
 10
95.5
 20
-241.3
 30
0.0
 11
62.56624071278604
 21
-232.9771399620174
 31
0.0
  0
LINE
  5
17B
  8
DATA
  6
CONTINUOUS
 62
     7
 10
38.0
 20
-228.55
 30
0.0
 11
38.0
 21
-232.25
 31
0.0
  0
ARC
  5
17C
  8
DATA
  6
CONTINUOUS
 62
     7
 10
37.2500000000024
 20
-232.2500000000024
 30
0.0
 40
0.7499999999975853
 50
284.1825655234464
 51
0.0000000001867306
  0
LINE
  5
17D
  8
DATA
  6
CONTINUOUS
 62
     7
 10
4.5
 20
-241.3
 30
0.0
 11
37.43375928721396
 21
-232.9771399620174
 31
0.0
  0
LINE
  5
17E
  8
DATA
  6
CONTINUOUS
 62
     7
 10
38.0
 20
-232.25
 30
0.0
 11
62.0
 21
-232.25
 31
0.0
  0
LINE
  5
17F
  8
DATA
  6
CONTINUOUS
 62
     7
 10
62.56624071278604
 20
-232.9771399620174
 30
0.0
 11
37.43375928721575
 21
-232.9771399620175
 31
0.0
  0
LINE
  5
180
  8
DATA
  6
CONTINUOUS
 62
     7
 10
4.5
 20
-241.3
 30
0.0
 11
95.5
 21
-241.3
 31
0.0
  0
LINE
  5
181
  8
DATA
  6
CONTINUOUS
 62
     7
 10
62.0
 20
-228.55
 30
0.0
 11
38.0
 21
-228.55
 31
0.0
  0
LINE
  5
182
  8
DATA
  6
CONTINUOUS
 62
     7
 10
38.25
 20
-228.0
 30
0.0
 11
38.25
 21
-207.9
 31
0.0
  0
LINE
  5
183
  8
DATA
  6
CONTINUOUS
 62
     7
 10
61.75
 20
-207.9
 30
0.0
 11
61.75
 21
-228.0
 31
0.0
  0
LINE
  5
184
  8
DATA
  6
CONTINUOUS
 62
     7
 10
38.25
 20
-228.0
 30
0.0
 11
61.75
 21
-228.0
 31
0.0
  0
LINE
  5
185
  8
DATA
  6
CONTINUOUS
 62
     7
 10
39.5
 20
-228.0
 30
0.0
 11
39.5
 21
-228.55
 31
0.0
  0
LINE
  5
186
  8
DATA
  6
CONTINUOUS
 62
     7
 10
60.5
 20
-228.0
 30
0.0
 11
60.5
 21
-228.55
 31
0.0
  0
LINE
  5
187
  8
DATA
  6
CONTINUOUS
 62
     7
 10
61.75
 20
-207.9
 30
0.0
 11
57.74999999999999
 21
-207.9
 31
0.0
  0
LINE
  5
188
  8
DATA
  6
CONTINUOUS
 62
     7
 10
42.25
 20
-207.9
 30
0.0
 11
38.25
 21
-207.9
 31
0.0
  0
LINE
  5
189
  8
DATA
  6
CONTINUOUS
 62
     7
 10
42.25
 20
-99.98431348329845
 30
0.0
 11
42.25
 21
-210.6040024665206
 31
0.0
  0
LINE
  5
18A
  8
DATA
  6
CONTINUOUS
 62
     7
 10
57.75
 20
-99.98431348329845
 30
0.0
 11
57.75
 21
-210.6044769462993
 31
0.0
  0
LINE
  5
18B
  8
DATA
  6
CONTINUOUS
 62
     7
 10
57.75
 20
-210.6044769462993
 30
0.0
 11
42.25
 21
-210.6040024665206
 31
0.0
  0
CIRCLE
  5
18C
  8
DATA
  6
CONTINUOUS
 62
     7
 10
50.0
 20
-98.00000000000003
 30
0.0
 40
7.799857442519368
  0
CIRCLE
  5
18D
  8
DATA
  6
CONTINUOUS
 62
     7
 10
50.0
 20
-98.0
 30
0.0
 40
8.0
  0
LINE
  5
18E
  8
DATA
  6
CONTINUOUS
 62
     7
 10
40.25075343897788
 20
-167.0
 30
0.0
 11
42.25
 21
-167.0
 31
0.0
  0
LINE
  5
18F
  8
DATA
  6
CONTINUOUS
 62
     7
 10
29.59999999998962
 20
-23.5
 30
0.0
 11
70.39999999998962
 21
-23.5
 31
0.0
  0
LINE
  5
190
  8
DATA
  6
CONTINUOUS
 62
     7
 10
29.59999999998962
 20
-82.5
 30
0.0
 11
70.39999999998962
 21
-82.5
 31
0.0
  0
LINE
  5
191
  8
DATA
  6
CONTINUOUS
 62
     7
 10
29.59999999998962
 20
-86.0
 30
0.0
 11
70.39999999998962
 21
-86.0
 31
0.0
  0
LINE
  5
192
  8
DATA
  6
CONTINUOUS
 62
     7
 10
29.74999999998963
 20
-23.5
 30
0.0
 11
29.74999999998963
 21
-82.5
 31
0.0
  0
LINE
  5
193
  8
DATA
  6
CONTINUOUS
 62
     7
 10
70.24999999998963
 20
-23.5
 30
0.0
 11
70.24999999998963
 21
-82.5
 31
0.0
  0
ARC
  5
194
  8
DATA
  6
CONTINUOUS
 62
     7
 10
751.5339506172689
 20
-89.65341363726475
 30
0.0
 40
721.2932031076369
 50
179.7097905867087
 51
184.002525508211
  0
ARC
  5
195
  8
DATA
  6
CONTINUOUS
 62
     7
 10
226.0
 20
-111.0555555555555
 30
0.0
 40
196.1473447798811
 50
188.485829640943
 51
195.9092377174067
  0
ARC
  5
196
  8
DATA
  6
CONTINUOUS
 62
     7
 10
-651.5339506172689
 20
-89.65341363726475
 30
0.0
 40
721.2932031076369
 50
355.997474491789
 51
0.2902094132912225
  0
ARC
  5
197
  8
DATA
  6
CONTINUOUS
 62
     7
 10
-128.0
 20
-111.0555555555555
 30
0.0
 40
196.1473447798811
 50
344.0907622825932
 51
350.9230267513223
  0
ARC
  5
198
  8
DATA
  6
CONTINUOUS
 62
     7
 10
68.26419339764578
 20
-142.637819283686
 30
0.0
 40
2.651016545543476
 50
95.7194419893206
 51
166.0783850769263
  0
ARC
  5
199
  8
DATA
  6
CONTINUOUS
 62
     7
 10
57.74924656102212
 20
-164.0
 30
0.0
 40
3.0
 50
270.0
 51
344.0907622825935
  0
ARC
  5
19A
  8
DATA
  6
CONTINUOUS
 62
     7
 10
40.25075343897788
 20
-164.0
 30
0.0
 40
2.999999999999969
 50
195.9092377174065
 51
270.0
  0
ARC
  5
19B
  8
DATA
  6
CONTINUOUS
 62
     7
 10
60.59999999998962
 20
-80.0
 30
0.0
 40
0.4999999999999998
 50
211.8585756475037
 51
61.60832519352314
  0
CIRCLE
  5
19C
  8
DATA
  6
CONTINUOUS
 62
     7
 10
62.59999999998962
 20
-80.0
 30
0.0
 40
0.5000000000000063
  0
CIRCLE
  5
19D
  8
DATA
  6
CONTINUOUS
 62
     7
 10
64.59999999998962
 20
-80.0
 30
0.0
 40
0.5000000000000063
  0
CIRCLE
  5
19E
  8
DATA
  6
CONTINUOUS
 62
     7
 10
66.59999999998962
 20
-80.0
 30
0.0
 40
0.5000000000000063
  0
CIRCLE
  5
19F
  8
DATA
  6
CONTINUOUS
 62
     7
 10
68.59999999998962
 20
-80.0
 30
0.0
 40
0.5000000000000063
  0
ARC
  5
1A0
  8
DATA
  6
CONTINUOUS
 62
     7
 10
70.59999999998962
 20
-80.0
 30
0.0
 40
0.4999999999999991
 50
133.6537908138299
 51
226.151986390752
  0
ARC
  5
1A1
  8
DATA
  6
CONTINUOUS
 62
     7
 10
61.59999999998963
 20
-79.00000000000003
 30
0.0
 40
0.5000000000000102
 50
211.6114689979758
 51
40.85404322005684
  0
CIRCLE
  5
1A2
  8
DATA
  6
CONTINUOUS
 62
     7
 10
63.59999999998962
 20
-79.0
 30
0.0
 40
0.5000000000000063
  0
CIRCLE
  5
1A3
  8
DATA
  6
CONTINUOUS
 62
     7
 10
65.59999999998962
 20
-79.0
 30
0.0
 40
0.5000000000000063
  0
CIRCLE
  5
1A4
  8
DATA
  6
CONTINUOUS
 62
     7
 10
67.59999999998962
 20
-79.0
 30
0.0
 40
0.5000000000000063
  0
CIRCLE
  5
1A5
  8
DATA
  6
CONTINUOUS
 62
     7
 10
69.59999999998962
 20
-79.0
 30
0.0
 40
0.5000000000000063
  0
ARC
  5
1A6
  8
DATA
  6
CONTINUOUS
 62
     7
 10
62.59999999998966
 20
-78.0
 30
0.0
 40
0.5000000000000329
 50
241.9537975708013
 51
350.6227647525087
  0
CIRCLE
  5
1A7
  8
DATA
  6
CONTINUOUS
 62
     7
 10
64.59999999998962
 20
-78.0
 30
0.0
 40
0.5000000000000063
  0
CIRCLE
  5
1A8
  8
DATA
  6
CONTINUOUS
 62
     7
 10
66.59999999998962
 20
-78.0
 30
0.0
 40
0.5000000000000063
  0
CIRCLE
  5
1A9
  8
DATA
  6
CONTINUOUS
 62
     7
 10
68.59999999998962
 20
-78.0
 30
0.0
 40
0.5000000000000063
  0
ARC
  5
1AA
  8
DATA
  6
CONTINUOUS
 62
     7
 10
70.59999999998962
 20
-78.0
 30
0.0
 40
0.4999999999999961
 50
133.1184273845649
 51
226.6873498200185
  0
ARC
  5
1AB
  8
DATA
  6
CONTINUOUS
 62
     7
 10
66.18449408022919
 20
-85.25640877365274
 30
0.0
 40
7.812499999999997
 50
96.86989764584418
 51
159.3400839839829
  0
ARC
  5
1AC
  8
DATA
  6
CONTINUOUS
 62
     7
 10
64.31550591975004
 20
-69.74359122634726
 30
0.0
 40
7.812499999999997
 50
276.8698976458441
 51
319.577498805967
  0
ARC
  5
1AD
  8
DATA
  6
CONTINUOUS
 62
     7
 10
65.5999999999896
 20
-77.0
 30
0.0
 40
0.4999999999999998
 50
251.5964086479605
 51
308.4800596877241
  0
ARC
  5
1AE
  8
DATA
  6
CONTINUOUS
 62
     7
 10
67.59999999998962
 20
-77.0
 30
0.0
 40
0.5000000000000006
 50
184.857705758033
 51
43.84850027173863
  0
CIRCLE
  5
1AF
  8
DATA
  6
CONTINUOUS
 62
     7
 10
69.59999999998962
 20
-77.0
 30
0.0
 40
0.5000000000000063
  0
ARC
  5
1B0
  8
DATA
  6
CONTINUOUS
 62
     7
 10
68.59999999998962
 20
-76.00000000000003
 30
0.0
 40
0.4999999999999886
 50
240.080911152905
 51
8.72708883789474
  0
ARC
  5
1B1
  8
DATA
  6
CONTINUOUS
 62
     7
 10
70.59999999998962
 20
-76.0
 30
0.0
 40
0.4999999999999989
 50
132.587723474837
 51
227.2180537297467
  0
CIRCLE
  5
1B2
  8
DATA
  6
CONTINUOUS
 62
     7
 10
35.49999999998963
 20
-26.0
 30
0.0
 40
0.5
  0
CIRCLE
  5
1B3
  8
DATA
  6
CONTINUOUS
 62
     7
 10
33.49999999998963
 20
-26.0
 30
0.0
 40
0.5
  0
CIRCLE
  5
1B4
  8
DATA
  6
CONTINUOUS
 62
     7
 10
31.49999999998963
 20
-26.0
 30
0.0
 40
0.5
  0
ARC
  5
1B5
  8
DATA
  6
CONTINUOUS
 62
     7
 10
29.49999999998965
 20
-26.0
 30
0.0
 40
0.4999999999999752
 50
300.6593381518385
 51
59.53488464357833
  0
CIRCLE
  5
1B6
  8
DATA
  6
CONTINUOUS
 62
     7
 10
36.49999999998963
 20
-27.0
 30
0.0
 40
0.5
  0
CIRCLE
  5
1B7
  8
DATA
  6
CONTINUOUS
 62
     7
 10
34.49999999998963
 20
-27.0
 30
0.0
 40
0.5
  0
CIRCLE
  5
1B8
  8
DATA
  6
CONTINUOUS
 62
     7
 10
32.49999999998963
 20
-27.0
 30
0.0
 40
0.5
  0
CIRCLE
  5
1B9
  8
DATA
  6
CONTINUOUS
 62
     7
 10
30.49999999998963
 20
-27.0
 30
0.0
 40
0.5
  0
CIRCLE
  5
1BA
  8
DATA
  6
CONTINUOUS
 62
     7
 10
35.49999999998963
 20
-28.0
 30
0.0
 40
0.5
  0
CIRCLE
  5
1BB
  8
DATA
  6
CONTINUOUS
 62
     7
 10
33.49999999998963
 20
-28.0
 30
0.0
 40
0.5
  0
CIRCLE
  5
1BC
  8
DATA
  6
CONTINUOUS
 62
     7
 10
31.49999999998963
 20
-28.0
 30
0.0
 40
0.5
  0
ARC
  5
1BD
  8
DATA
  6
CONTINUOUS
 62
     7
 10
29.49999999998963
 20
-28.00000000000003
 30
0.0
 40
0.4999999999999823
 50
301.1115119936098
 51
59.08271080181395
  0
ARC
  5
1BE
  8
DATA
  6
CONTINUOUS
 62
     7
 10
36.49999999998963
 20
-29.0
 30
0.0
 40
0.5000000000000022
 50
0.7956036442379034
 51
233.0957083919266
  0
CIRCLE
  5
1BF
  8
DATA
  6
CONTINUOUS
 62
     7
 10
34.49999999998963
 20
-29.0
 30
0.0
 40
0.5
  0
CIRCLE
  5
1C0
  8
DATA
  6
CONTINUOUS
 62
     7
 10
32.49999999998963
 20
-29.0
 30
0.0
 40
0.5
  0
CIRCLE
  5
1C1
  8
DATA
  6
CONTINUOUS
 62
     7
 10
30.49999999998963
 20
-29.0
 30
0.0
 40
0.5
  0
ARC
  5
1C2
  8
DATA
  6
CONTINUOUS
 62
     7
 10
34.9344940802292
 20
-37.75640877365274
 30
0.0
 40
7.812499999999997
 50
96.86989764584418
 51
131.4367595462232
  0
ARC
  5
1C3
  8
DATA
  6
CONTINUOUS
 62
     7
 10
33.06550591975005
 20
-22.24359122634726
 30
0.0
 40
7.812499999999997
 50
276.8698976458441
 51
350.7454861021358
  0
ARC
  5
1C4
  8
DATA
  6
CONTINUOUS
 62
     7
 10
35.49999999998963
 20
-30.0
 30
0.0
 40
0.4999999999999968
 50
58.14639464999222
 51
156.7044883984099
  0
ARC
  5
1C5
  8
DATA
  6
CONTINUOUS
 62
     7
 10
33.49999999998963
 20
-30.00000000000003
 30
0.0
 40
0.5
 50
0.0000000000032401
 51
200.9561288323768
  0
CIRCLE
  5
1C6
  8
DATA
  6
CONTINUOUS
 62
     7
 10
31.49999999998963
 20
-30.0
 30
0.0
 40
0.5
  0
ARC
  5
1C7
  8
DATA
  6
CONTINUOUS
 62
     7
 10
30.49999999998963
 20
-31.0
 30
0.0
 40
0.4999999999999984
 50
359.1979029593506
 51
247.3589954296158
  0
CIRCLE
  5
1C8
  8
DATA
  6
CONTINUOUS
 62
     7
 10
37.49999999998963
 20
-26.0
 30
0.0
 40
0.5
  0
CIRCLE
  5
1C9
  8
DATA
  6
CONTINUOUS
 62
     7
 10
38.49999999998963
 20
-27.0
 30
0.0
 40
0.5
  0
CIRCLE
  5
1CA
  8
DATA
  6
CONTINUOUS
 62
     7
 10
37.49999999998963
 20
-28.0
 30
0.0
 40
0.5
  0
ARC
  5
1CB
  8
DATA
  6
CONTINUOUS
 62
     7
 10
39.49999999998963
 20
-26.0
 30
0.0
 40
0.4999999999999986
 50
14.68721213171486
 51
284.7606715118259
  0
LINE
  5
1CC
  8
DATA
  6
CONTINUOUS
 62
     7
 10
17.59999999998962
 20
-101.4
 30
0.0
 11
30.61921493108389
 21
-101.2
 31
0.0
  0
LINE
  5
1CD
  8
DATA
  6
CONTINUOUS
 62
     7
 10
17.59999999998962
 20
-101.4
 30
0.0
 11
17.59999999998962
 21
-113.1
 31
0.0
  0
LINE
  5
1CE
  8
DATA
  6
CONTINUOUS
 62
     7
 10
17.59999999998961
 20
-121.4
 30
0.0
 11
17.59999999998961
 21
-133.1
 31
0.0
  0
LINE
  5
1CF
  8
DATA
  6
CONTINUOUS
 62
     7
 10
17.59999999998962
 20
-113.1
 30
0.0
 11
30.62846180291365
 21
-113.3
 31
0.0
  0
LINE
  5
1D0
  8
DATA
  6
CONTINUOUS
 62
     7
 10
17.59999999998962
 20
-121.4
 30
0.0
 11
30.93094081358151
 21
-121.2
 31
0.0
  0
LINE
  5
1D1
  8
DATA
  6
CONTINUOUS
 62
     7
 10
17.59999999998961
 20
-133.1
 30
0.0
 11
31.56252038676655
 21
-133.3
 31
0.0
  0
LINE
  5
1D2
  8
DATA
  6
CONTINUOUS
 62
     7
 10
29.74999999998963
 20
-74.25
 30
0.0
 11
27.89999999998963
 21
-74.75
 31
0.0
  0
LINE
  5
1D3
  8
DATA
  6
CONTINUOUS
 62
     7
 10
27.89999999998963
 20
-74.75
 30
0.0
 11
27.89999999998963
 21
-93.75
 31
0.0
  0
LINE
  5
1D4
  8
DATA
  6
CONTINUOUS
 62
     7
 10
27.89999999998963
 20
-93.75
 30
0.0
 11
30.25531269392382
 21
-94.23722479377275
 31
0.0
  0
LINE
  5
1D5
  8
DATA
  6
CONTINUOUS
 62
     7
 10
70.25000000001037
 20
-74.25
 30
0.0
 11
72.10000000001037
 21
-74.75
 31
0.0
  0
LINE
  5
1D6
  8
DATA
  6
CONTINUOUS
 62
     7
 10
72.10000000001037
 20
-74.75
 30
0.0
 11
72.10000000001037
 21
-93.75
 31
0.0
  0
LINE
  5
1D7
  8
DATA
  6
CONTINUOUS
 62
     7
 10
72.10000000001037
 20
-93.75
 30
0.0
 11
69.74468730607617
 21
-94.23722479377275
 31
0.0
  0
LINE
  5
1D8
  8
DATA
  6
CONTINUOUS
 62
     7
 10
-81.89886363636364
 20
-20.5
 30
0.0
 11
-18.10113636363637
 21
-20.5
 31
0.0
  0
LINE
  5
1D9
  8
DATA
  6
CONTINUOUS
 62
     7
 10
29.59999999998962
 20
-20.5
 30
0.0
 11
70.39999999998962
 21
-20.5
 31
0.0
  0
LINE
  5
1DA
  8
DATA
  6
CONTINUOUS
 62
     7
 10
-18.10113636363637
 20
-20.5
 30
0.0
 11
-18.25
 21
-20.0
 31
0.0
  0
LINE
  5
1DB
  8
DATA
  6
CONTINUOUS
 62
     7
 10
-81.75
 20
-20.0
 30
0.0
 11
-81.89886363636364
 21
-20.5
 31
0.0
  0
LINE
  5
1DC
  8
DATA
  6
CONTINUOUS
 62
     7
 10
-81.75
 20
55.40000000000001
 30
0.0
 11
-81.75
 21
44.59999999999999
 31
0.0
  0
ARC
  5
1DD
  8
DATA
  6
CONTINUOUS
 62
     7
 10
-66.9
 20
55.40000000000001
 30
0.0
 40
14.84999999999999
 50
90.0
 51
180.0
  0
LINE
  5
1DE
  8
DATA
  6
CONTINUOUS
 62
     7
 10
29.59999999998962
 20
-20.5
 30
0.0
 11
29.74999999998963
 21
-20.0
 31
0.0
  0
LINE
  5
1DF
  8
DATA
  6
CONTINUOUS
 62
     7
 10
70.39999999998962
 20
-20.5
 30
0.0
 11
70.24999999998963
 21
-20.0
 31
0.0
  0
LINE
  5
1E0
  8
DATA
  6
CONTINUOUS
 62
     7
 10
70.24999999998963
 20
-20.0
 30
0.0
 11
29.74999999998963
 21
-20.0
 31
0.0
  0
LINE
  5
1E1
  8
DATA
  6
CONTINUOUS
 62
     7
 10
-66.9
 20
70.25
 30
0.0
 11
-33.10000000000002
 21
70.25
 31
0.0
  0
LINE
  5
1E2
  8
DATA
  6
CONTINUOUS
 62
     7
 10
-66.9
 20
29.75
 30
0.0
 11
-33.10000000000002
 21
29.75
 31
0.0
  0
ARC
  5
1E3
  8
DATA
  6
CONTINUOUS
 62
     7
 10
-66.9
 20
44.59999999999999
 30
0.0
 40
14.84999999999999
 50
180.0
 51
270.0
  0
LINE
  5
1E4
  8
DATA
  6
CONTINUOUS
 62
     7
 10
-18.25
 20
55.40000000000001
 30
0.0
 11
-18.25
 21
44.59999999999999
 31
0.0
  0
ARC
  5
1E5
  8
DATA
  6
CONTINUOUS
 62
     7
 10
-33.09999999999999
 20
55.40000000000001
 30
0.0
 40
14.84999999999999
 50
0.0
 51
90.0
  0
ARC
  5
1E6
  8
DATA
  6
CONTINUOUS
 62
     7
 10
-33.09999999999999
 20
44.59999999999999
 30
0.0
 40
14.84999999999999
 50
270.0
 51
0.0
  0
ENDSEC
  0
EOF
