  0
SECTION
  2
HEADER
  9
$ACADVER
  1
AC1009
  9
$DWGCODEPAGE
  3
ansi_932
  9
$INSBASE
 10
0.0
 20
0.0
 30
0.0
  9
$EXTMIN
 10
-180.0009
 20
-272.9968217714223
 30
0.0
  9
$EXTMAX
 10
180.0009
 20
263.53315031815
 30
0.0
  9
$LIMMIN
 10
0.0
 20
0.0
  9
$LIMMAX
 10
0.0
 20
0.0
  9
$ORTHOMODE
 70
     0
  9
$REGENMODE
 70
     1
  9
$FILLMODE
 70
     1
  9
$QTEXTMODE
 70
     0
  9
$MIRRTEXT
 70
     1
  9
$DRAGMODE
 70
     2
  9
$LTSCALE
 40
10.16
  9
$OSMODE
 70
    37
  9
$ATTMODE
 70
     1
  9
$TEXTSIZE
 40
0.0
  9
$TRACEWID
 40
1.0
  9
$TEXTSTYLE
  7
STANDARD
  9
$CLAYER
  8
DATA
  9
$CELTYPE
  6
BYLAYER
  9
$CECOLOR
 62
   256
  9
$DIMSCALE
 40
1.0
  9
$DIMASZ
 40
0.18
  9
$DIMEXO
 40
0.0625
  9
$DIMDLI
 40
0.38
  9
$DIMRND
 40
0.0
  9
$DIMDLE
 40
0.0
  9
$DIMEXE
 40
0.18
  9
$DIMTP
 40
0.0
  9
$DIMTM
 40
0.0
  9
$DIMTXT
 40
0.18
  9
$DIMCEN
 40
0.09
  9
$DIMTSZ
 40
0.0
  9
$DIMTOL
 70
     0
  9
$DIMLIM
 70
     0
  9
$DIMTIH
 70
     1
  9
$DIMTOH
 70
     1
  9
$DIMSE1
 70
     0
  9
$DIMSE2
 70
     0
  9
$DIMTAD
 70
     0
  9
$DIMZIN
 70
     0
  9
$DIMBLK
  1

  9
$DIMASO
 70
     1
  9
$DIMSHO
 70
     1
  9
$DIMPOST
  1

  9
$DIMAPOST
  1

  9
$DIMALT
 70
     0
  9
$DIMALTD
 70
     2
  9
$DIMALTF
 40
25.4
  9
$DIMLFAC
 40
1.0
  9
$DIMTOFL
 70
     0
  9
$DIMTVP
 40
0.0
  9
$DIMTIX
 70
     0
  9
$DIMSOXD
 70
     0
  9
$DIMSAH
 70
     0
  9
$DIMBLK1
  1

  9
$DIMBLK2
  1

  9
$DIMSTYLE
  2
STANDARD
  9
$DIMCLRD
 70
     0
  9
$DIMCLRE
 70
     0
  9
$DIMCLRT
 70
     0
  9
$DIMTFAC
 40
1.0
  9
$DIMGAP
 40
0.09
  9
$LUNITS
 70
     2
  9
$LUPREC
 70
     2
  9
$SKETCHINC
 40
0.1
  9
$FILLETRAD
 40
0.0
  9
$AUNITS
 70
     0
  9
$AUPREC
 70
     0
  9
$MENU
  1
acad
  9
$ELEVATION
 40
0.0
  9
$PELEVATION
 40
0.0
  9
$THICKNESS
 40
0.0
  9
$LIMCHECK
 70
     0
  9
$CHAMFERA
 40
0.0
  9
$CHAMFERB
 40
0.0
  9
$SKPOLY
 70
     0
  9
$TDCREATE
 40
2459342.413037766
  9
$TDUPDATE
 40
2459342.414227593
  9
$TDINDWG
 40
2459342.039228333
  9
$TDUSRTIMER
 40
0.0011905671
  9
$USRTIMER
 70
     1
  9
$ANGBASE
 50
0.0
  9
$ANGDIR
 70
     0
  9
$PDMODE
 70
     1
  9
$PDSIZE
 40
-2.0
  9
$PLINEWID
 40
0.0
  9
$COORDS
 70
     1
  9
$SPLFRAME
 70
     0
  9
$SPLINETYPE
 70
     6
  9
$SPLINESEGS
 70
     8
  9
$ATTDIA
 70
     1
  9
$ATTREQ
 70
     1
  9
$HANDLING
 70
     1
  9
$HANDSEED
  5
48C
  9
$SURFTAB1
 70
     6
  9
$SURFTAB2
 70
     6
  9
$SURFTYPE
 70
     6
  9
$SURFU
 70
     6
  9
$SURFV
 70
     6
  9
$UCSNAME
  2

  9
$UCSORG
 10
0.0
 20
0.0
 30
0.0
  9
$UCSXDIR
 10
1.0
 20
0.0
 30
0.0
  9
$UCSYDIR
 10
0.0
 20
1.0
 30
0.0
  9
$PUCSNAME
  2

  9
$PUCSORG
 10
0.0
 20
0.0
 30
0.0
  9
$PUCSXDIR
 10
1.0
 20
0.0
 30
0.0
  9
$PUCSYDIR
 10
0.0
 20
1.0
 30
0.0
  9
$USERI1
 70
     0
  9
$USERI2
 70
     0
  9
$USERI3
 70
     0
  9
$USERI4
 70
     0
  9
$USERI5
 70
     0
  9
$USERR1
 40
0.0
  9
$USERR2
 40
0.0
  9
$USERR3
 40
0.0
  9
$USERR4
 40
0.0
  9
$USERR5
 40
0.0
  9
$WORLDVIEW
 70
     1
  9
$SHADEDGE
 70
     3
  9
$SHADEDIF
 70
    70
  9
$TILEMODE
 70
     1
  9
$MAXACTVP
 70
    64
  9
$PLIMCHECK
 70
     0
  9
$PEXTMIN
 10
1.000000000000000E+20
 20
1.000000000000000E+20
 30
1.000000000000000E+20
  9
$PEXTMAX
 10
-1.000000000000000E+20
 20
-1.000000000000000E+20
 30
-1.000000000000000E+20
  9
$PLIMMIN
 10
0.0
 20
0.0
  9
$PLIMMAX
 10
12.0
 20
9.0
  9
$UNITMODE
 70
     0
  9
$VISRETAIN
 70
     0
  9
$PLINEGEN
 70
     1
  9
$PSLTSCALE
 70
     0
  0
ENDSEC
  0
SECTION
  2
TABLES
  0
TABLE
  2
VPORT
 70
     1
  0
VPORT
  2
*ACTIVE
 70
     0
 10
0.0
 20
0.0
 11
1.0
 21
1.0
 12
0.0
 22
-3.531814999999995
 13
0.0
 23
0.0
 14
1.0
 24
1.0
 15
0.0
 25
0.0
 16
0.0
 26
0.0
 36
1.0
 17
0.0
 27
0.0
 37
0.0
 40
534.1299306363002
 41
2.794721407624633
 42
50.0
 43
0.0
 44
0.0
 50
0.0
 51
0.0
 71
     0
 72
  2000
 73
     1
 74
     1
 75
     0
 76
     0
 77
     0
 78
     0
  0
ENDTAB
  0
TABLE
  2
LTYPE
 70
    11
  0
LTYPE
  2
CONTINUOUS
 70
     0
  3
Solid line
 72
    65
 73
     0
 40
0.0
  0
LTYPE
  2
STYLE_02
 70
     0
  3

 72
    65
 73
     2
 40
0.694427490234375
 49
0.4860687255859375
 49
-0.2083587646484375
  0
ENDTAB
  0
TABLE
  2
LAYER
 70
     6
  0
LAYER
  2
0
 70
     0
 62
     7
  6
CONTINUOUS
  0
LAYER
  2
HIBINO-BASE
 70
     0
 62
     7
  6
CONTINUOUS
  0
LAYER
  2
PATTERN_FILL
 70
     0
 62
     7
  6
CONTINUOUS
  0
LAYER
  2
SPEC
 70
     0
 62
     7
  6
CONTINUOUS
  0
LAYER
  2
DIMNSIONS
 70
     0
 62
     7
  6
CONTINUOUS
  0
LAYER
  2
DATA
 70
     0
 62
     7
  6
CONTINUOUS
  0
ENDTAB
  0
TABLE
  2
STYLE
 70
     2
  0
STYLE
  2
STANDARD
 70
     0
 40
0.0
 41
1.0
 50
0.0
 71
     0
 42
0.0
  3
txt
  4
BIGFONT.SHX
  0
ENDTAB
  0
TABLE
  2
VIEW
 70
     0
  0
ENDTAB
  0
TABLE
  2
UCS
 70
     0
  0
ENDTAB
  0
TABLE
  2
APPID
 70
     3
  0
APPID
  2
ACAD
 70
     0
  0
APPID
  2
ACAD_MLEADERVER
 70
     0
  0
APPID
  2
ACADANNOPO
 70
     0
  0
ENDTAB
  0
TABLE
  2
DIMSTYLE
 70
     1
  0
DIMSTYLE
  2
STANDARD
 70
     0
  3

  4

  5

  6

  7

 40
1.0
 41
0.18
 42
0.0625
 43
0.38
 44
0.18
 45
0.0
 46
0.0
 47
0.0
 48
0.0
140
0.18
141
0.09
142
0.0
143
25.4
144
1.0
145
0.0
146
1.0
147
0.09
 71
     0
 72
     0
 73
     1
 74
     1
 75
     0
 76
     0
 77
     0
 78
     0
170
     0
171
     2
172
     0
173
     0
174
     0
175
     0
176
     0
177
     0
178
     0
  0
ENDTAB
  0
ENDSEC
  0
SECTION
  2
BLOCKS
  0
BLOCK
  8
DATA
  2
$MODEL_SPACE
 70
     0
 10
0.0
 20
0.0
 30
0.0
  3
$MODEL_SPACE
  1

  0
ENDBLK
  5
43E
  8
DATA
  0
BLOCK
 67
     1
  8
DATA
  2
$PAPER_SPACE
 70
     0
 10
0.0
 20
0.0
 30
0.0
  3
$PAPER_SPACE
  1

  0
ENDBLK
  5
43C
 67
     1
  8
DATA
  0
ENDSEC
  0
SECTION
  2
ENTITIES
  0
LINE
  5
2D
  8
HIBINO-BASE
  6
CONTINUOUS
 62
     7
 10
-180.0009
 20
263.53315031815
 30
0.0
 11
180.0009
 21
263.53315031815
 31
0.0
  0
LINE
  5
2E
  8
HIBINO-BASE
  6
CONTINUOUS
 62
     7
 10
180.0009
 20
-256.46944968185
 30
0.0
 11
-180.0009
 21
-256.46944968185
 31
0.0
  0
LINE
  5
2F
  8
HIBINO-BASE
  6
CONTINUOUS
 62
     7
 10
-180.0009
 20
-256.46944968185
 30
0.0
 11
-180.0009
 21
263.53315031815
 31
0.0
  0
LINE
  5
30
  8
HIBINO-BASE
  6
CONTINUOUS
 62
     7
 10
180.0009
 20
263.53315031815
 30
0.0
 11
180.0009
 21
-256.46944968185
 31
0.0
  0
LINE
  5
31
  8
HIBINO-BASE
  6
CONTINUOUS
 62
     7
 10
0.0000000000000284
 20
-211.46922468185
 30
0.0
 11
180.0009
 21
-211.46922468185
 31
0.0
  0
LINE
  5
32
  8
HIBINO-BASE
  6
CONTINUOUS
 62
     7
 10
0.0000000000000284
 20
-256.46944968185
 30
0.0
 11
0.0000000000000284
 21
-211.46922468185
 31
0.0
  0
TEXT
  5
33
  8
HIBINO-BASE
 62
     7
 10
1.80000900000004
 20
-216.48663643545
 30
0.0
 40
3.257698580078125
  1
NOTE
 41
0.7
 11
1.80000900000004
 21
-213.2289378553719
 31
0.0
 73
     3
  0
LINE
  5
34
  8
HIBINO-BASE
  6
CONTINUOUS
 62
     7
 10
70.00035000000004
 20
-256.46944968185
 30
0.0
 11
70.00035000000004
 21
-211.46922468185
 31
0.0
  0
TEXT
  5
35
  8
HIBINO-BASE
 62
     7
 10
71.800359
 20
-216.48663643545
 30
0.0
 40
3.257698580078125
  1
TITLE
 41
0.7
 11
71.800359
 21
-213.2289378553719
 31
0.0
 73
     3
  0
LINE
  5
36
  8
HIBINO-BASE
  6
CONTINUOUS
 62
     7
 10
0.0000000000000284
 20
-236.46934968185
 30
0.0
 11
180.0009
 21
-236.46934968185
 31
0.0
  0
TEXT
  5
37
  8
HIBINO-BASE
 62
     7
 10
96.80048400000001
 20
-241.37412087225
 30
0.0
 40
3.257698580078125
  1
DRAWN
 41
0.7
 11
96.80048400000001
 21
-238.1164222921719
 31
0.0
 73
     3
  0
TEXT
  5
38
  8
HIBINO-BASE
 62
     7
 10
46.80023399999999
 20
-241.37412087225
 30
0.0
 40
3.257698580078125
  1
DATE
 41
0.7
 11
46.80023399999999
 21
-238.1164222921719
 31
0.0
 73
     3
  0
TEXT
  5
39
  8
HIBINO-BASE
 62
     7
 10
26.80013399999999
 20
-241.37412087225
 30
0.0
 40
3.257698580078125
  1
SCALE
 41
0.7
 11
26.80013399999999
 21
-238.1164222921719
 31
0.0
 73
     3
  0
TEXT
  5
3A
  8
HIBINO-BASE
 62
     7
 10
71.800359
 20
-241.37412087225
 30
0.0
 40
3.257698580078125
  1
DESIGN
 41
0.7
 11
71.800359
 21
-238.1164222921719
 31
0.0
 73
     3
  0
TEXT
  5
3B
  8
HIBINO-BASE
 62
     7
 10
146.800734
 20
-241.37412087225
 30
0.0
 40
3.257698580078125
  1
DRAWING NO.
 41
0.7
 11
146.800734
 21
-238.1164222921719
 31
0.0
 73
     3
  0
TEXT
  5
3C
  8
HIBINO-BASE
 62
     7
 10
121.800609
 20
-241.37412087225
 30
0.0
 40
3.257698580078125
  1
CHECK
 41
0.7
 11
121.800609
 21
-238.1164222921719
 31
0.0
 73
     3
  0
LINE
  5
3D
  8
HIBINO-BASE
  6
CONTINUOUS
 62
     7
 10
28.75014375000003
 20
-253.96943718185
 30
0.0
 11
36.25018125000003
 21
-246.46939968185
 31
0.0
  0
TEXT
  5
3E
  8
HIBINO-BASE
 62
     7
 10
27.50013750000003
 20
-248.68729743795
 30
0.0
 40
3.257698580078125
  1
1
 41
0.7
 11
27.50013750000003
 21
-245.4295988578719
 31
0.0
 73
     3
  0
LINE
  5
3F
  8
HIBINO-BASE
  6
CONTINUOUS
 62
     7
 10
25.00012500000003
 20
-256.46944968185
 30
0.0
 11
25.00012500000003
 21
-236.46934968185
 31
0.0
  0
LINE
  5
40
  8
HIBINO-BASE
  6
CONTINUOUS
 62
     7
 10
45.00022499999998
 20
-256.46944968185
 30
0.0
 11
45.00022499999998
 21
-236.46934968185
 31
0.0
  0
LINE
  5
41
  8
HIBINO-BASE
  6
CONTINUOUS
 62
     7
 10
95.00047499999998
 20
-236.46934968185
 30
0.0
 11
95.00047499999998
 21
-256.46944968185
 31
0.0
  0
LINE
  5
42
  8
HIBINO-BASE
  6
CONTINUOUS
 62
     7
 10
145.000725
 20
-236.46934968185
 30
0.0
 11
145.000725
 21
-256.46944968185
 31
0.0
  0
LINE
  5
43
  8
HIBINO-BASE
  6
CONTINUOUS
 62
     7
 10
120.0006
 20
-256.46944968185
 30
0.0
 11
120.0006
 21
-236.46934968185
 31
0.0
  0
TEXT
  5
44
  8
HIBINO-BASE
 62
     7
 10
46.71331356540003
 20
-250.74212771205
 30
0.0
 40
3.257698580078125
  1
'21.04.
 41
0.7
 11
46.71331356540003
 21
-247.4844291319719
 31
0.0
 73
     3
  0
TEXT
  5
45
  8
HIBINO-BASE
 62
     7
 10
35.00017500000003
 20
-252.43731618795
 30
0.0
 40
3.257698580078125
  1
2
 41
0.7
 11
35.00017500000003
 21
-249.1796176078719
 31
0.0
 73
     3
  0
TEXT
  5
46
  8
HIBINO-BASE
 62
     7
 10
98.01211008016939
 20
-250.74212771205
 30
0.0
 40
3.257698580078125
  1
N.Sasaki
 41
0.7
 11
98.01211008016939
 21
-247.4844291319719
 31
0.0
 73
     3
  0
TEXT
  5
47
  8
HIBINO-BASE
 62
     7
 10
7.766705500000072
 20
-252.51742992185
 30
0.0
 40
6.51539716015625
  1
A4
 41
0.7
 11
7.766705500000072
 21
-246.0020327616937
 31
0.0
 73
     3
  0
TEXT
  5
48
  8
HIBINO-BASE
 62
     7
 10
1.916676249999991
 20
-241.7082858764
 30
0.0
 40
3.257698580078125
  1
PAPER SIZE
 41
0.7
 11
1.916676249999991
 21
-238.4505872963219
 31
0.0
 73
     3
  0
TEXT
  5
49
  8
HIBINO-BASE
 62
     7
 10
-165.63282816
 20
-269.286869368628
 30
0.0
 40
7.200124359816797
  1
Hibino Corporation
 41
0.7
 11
-165.63282816
 21
-262.0867450088112
 31
0.0
 73
     3
  0
TEXT
  5
4A
  8
HIBINO-BASE
 62
     7
 10
100.1372806839
 20
-269.286869368628
 30
0.0
 40
7.200124359816797
  1
ヒビノ株式会社
 41
0.7
 11
100.1372806839
 21
-262.0867450088112
 31
0.0
 73
     3
  0
LINE
  5
4B
  8
PATTERN_FILL
  6
CONTINUOUS
 62
     7
 10
-112.4048328056505
 20
16.59528246316773
 30
0.0
 11
-108.1800364321391
 21
20.8200788366791
 31
0.0
  0
LINE
  5
4C
  8
PATTERN_FILL
  6
CONTINUOUS
 62
     7
 10
-112.4600213813764
 20
14.04009388744188
 30
0.0
 11
-105.4368702364242
 21
21.06324503239406
 31
0.0
  0
LINE
  5
4D
  8
PATTERN_FILL
  6
CONTINUOUS
 62
     7
 10
-112.5152099571021
 20
11.48490531171603
 30
0.0
 11
-102.7310727444925
 21
21.26904252432567
 31
0.0
  0
LINE
  5
4E
  8
PATTERN_FILL
  6
CONTINUOUS
 62
     7
 10
-112.570398532828
 20
8.929716735990183
 30
0.0
 11
-100.0610575596256
 21
21.43905770919261
 31
0.0
  0
LINE
  5
4F
  8
PATTERN_FILL
  6
CONTINUOUS
 62
     7
 10
-112.6255871085539
 20
6.374528160264333
 30
0.0
 11
-97.42536266214665
 21
21.57475260667158
 31
0.0
  0
LINE
  5
50
  8
PATTERN_FILL
  6
CONTINUOUS
 62
     7
 10
-112.6807756842798
 20
3.819339584538483
 30
0.0
 11
-94.8226371874731
 21
21.67747808134507
 31
0.0
  0
LINE
  5
51
  8
PATTERN_FILL
  6
CONTINUOUS
 62
     7
 10
-112.7359642600055
 20
1.264151008812632
 30
0.0
 11
-92.25162996722474
 21
21.7484853015934
 31
0.0
  0
LINE
  5
52
  8
PATTERN_FILL
  6
CONTINUOUS
 62
     7
 10
-112.7911528357314
 20
-1.291037566913218
 30
0.0
 11
-89.71117955388888
 21
21.78893571492932
 31
0.0
  0
LINE
  5
53
  8
PATTERN_FILL
  6
CONTINUOUS
 62
     7
 10
-112.8463414114573
 20
-3.846226142639068
 30
0.0
 11
-87.20020550049719
 21
21.79990976832096
 31
0.0
  0
LINE
  5
54
  8
PATTERN_FILL
  6
CONTINUOUS
 62
     7
 10
-112.9015299871832
 20
-6.401414718364919
 30
0.0
 11
-84.71770070728701
 21
21.78241456153114
 31
0.0
  0
LINE
  5
55
  8
PATTERN_FILL
  6
CONTINUOUS
 62
     7
 10
-112.9567185629089
 20
-8.956603294090769
 30
0.0
 11
-82.26272467976435
 21
21.73739058905386
 31
0.0
  0
LINE
  5
56
  8
PATTERN_FILL
  6
CONTINUOUS
 62
     7
 10
-113.0119071386348
 20
-11.51179186981662
 30
0.0
 11
-79.83439756873781
 21
21.66571770008039
 31
0.0
  0
LINE
  5
57
  8
PATTERN_FILL
  6
CONTINUOUS
 62
     7
 10
-113.0670957143607
 20
-14.0669804455425
 30
0.0
 11
-77.43189488409132
 21
21.56822038472691
 31
0.0
  0
LINE
  5
58
  8
PATTERN_FILL
  6
CONTINUOUS
 62
     7
 10
-113.1222842900866
 20
-16.62216902126832
 30
0.0
 11
-75.05444279135554
 21
21.44567247746267
 31
0.0
  0
LINE
  5
59
  8
PATTERN_FILL
  6
CONTINUOUS
 62
     7
 10
-113.1774728658124
 20
-19.1773575969942
 30
0.0
 11
-72.70131391431573
 21
21.29880135450244
 31
0.0
  0
LINE
  5
5A
  8
PATTERN_FILL
  6
CONTINUOUS
 62
     7
 10
-113.2326614415382
 20
-21.73254617272005
 30
0.0
 11
-70.3718235785775
 21
21.1282916902407
 31
0.0
  0
LINE
  5
5B
  8
PATTERN_FILL
  6
CONTINUOUS
 62
     7
 10
-113.2878500172641
 20
-24.2877347484459
 30
0.0
 11
-68.06532644069216
 21
20.93478882812607
 31
0.0
  0
LINE
  5
5C
  8
PATTERN_FILL
  6
CONTINUOUS
 62
     7
 10
-113.34303859299
 20
-26.84292332417175
 30
0.0
 11
-65.78121345549482
 21
20.71890181332333
 31
0.0
  0
LINE
  5
5D
  8
PATTERN_FILL
  6
CONTINUOUS
 62
     7
 10
-113.3982271687158
 20
-29.3981118998976
 30
0.0
 11
-63.76535191839662
 21
20.23476335042159
 31
0.0
  0
LINE
  5
5E
  8
PATTERN_FILL
  6
CONTINUOUS
 62
     7
 10
-113.4534157444416
 20
-31.95330047562345
 30
0.0
 11
-62.71413888924405
 21
18.78597637957415
 31
0.0
  0
LINE
  5
5F
  8
PATTERN_FILL
  6
CONTINUOUS
 62
     7
 10
-113.5086043201675
 20
-34.5084890513493
 30
0.0
 11
-62.59114314601686
 21
16.40897212280134
 31
0.0
  0
LINE
  5
60
  8
PATTERN_FILL
  6
CONTINUOUS
 62
     7
 10
-113.5637928958934
 20
-37.06367762707515
 30
0.0
 11
-62.53828816326541
 21
13.96182710555274
 31
0.0
  0
LINE
  5
61
  8
PATTERN_FILL
  6
CONTINUOUS
 62
     7
 10
-113.6189814716192
 20
-39.618866202801
 30
0.0
 11
-62.48543318051406
 21
11.51468208830414
 31
0.0
  0
LINE
  5
62
  8
PATTERN_FILL
  6
CONTINUOUS
 62
     7
 10
-113.674170047345
 20
-42.17405477852685
 30
0.0
 11
-62.43257819776261
 21
9.06753707105554
 31
0.0
  0
LINE
  5
63
  8
PATTERN_FILL
  6
CONTINUOUS
 62
     7
 10
-113.7293586230709
 20
-44.7292433542527
 30
0.0
 11
-62.37972321501127
 21
6.620392053806967
 31
0.0
  0
LINE
  5
64
  8
PATTERN_FILL
  6
CONTINUOUS
 62
     7
 10
-113.7845471987968
 20
-47.28443192997855
 30
0.0
 11
-62.32686823225981
 21
4.173247036558337
 31
0.0
  0
LINE
  5
65
  8
PATTERN_FILL
  6
CONTINUOUS
 62
     7
 10
-112.0
 20
-47.99988473118179
 30
0.0
 11
-62.27401324950847
 21
1.726102019309749
 31
0.0
  0
LINE
  5
66
  8
PATTERN_FILL
  6
CONTINUOUS
 62
     7
 10
-109.5
 20
-47.99988473118179
 30
0.0
 11
-62.22115826675702
 21
-0.7210429979388664
 31
0.0
  0
LINE
  5
67
  8
PATTERN_FILL
  6
CONTINUOUS
 62
     7
 10
-104.5
 20
-47.99988473118179
 30
0.0
 11
-62.11544830125422
 21
-5.61533303243607
 31
0.0
  0
LINE
  5
68
  8
PATTERN_FILL
  6
CONTINUOUS
 62
     7
 10
-102.0
 20
-47.99988473118179
 30
0.0
 11
-62.06259331850288
 21
-8.062478049684643
 31
0.0
  0
LINE
  5
69
  8
PATTERN_FILL
  6
CONTINUOUS
 62
     7
 10
-99.5
 20
-47.99988473118179
 30
0.0
 11
-62.00973833575142
 21
-10.50962306693324
 31
0.0
  0
LINE
  5
6A
  8
PATTERN_FILL
  6
CONTINUOUS
 62
     7
 10
-97.0
 20
-47.99988473118179
 30
0.0
 11
-61.95688335300008
 21
-12.95676808418185
 31
0.0
  0
LINE
  5
6B
  8
PATTERN_FILL
  6
CONTINUOUS
 62
     7
 10
-94.5
 20
-47.99988473118179
 30
0.0
 11
-61.90402837024862
 21
-15.40391310143045
 31
0.0
  0
LINE
  5
6C
  8
PATTERN_FILL
  6
CONTINUOUS
 62
     7
 10
-92.0
 20
-47.99988473118179
 30
0.0
 11
-61.85117338749728
 21
-17.85105811867905
 31
0.0
  0
LINE
  5
6D
  8
PATTERN_FILL
  6
CONTINUOUS
 62
     7
 10
-89.5
 20
-47.99988473118179
 30
0.0
 11
-61.79831840474583
 21
-20.29820313592765
 31
0.0
  0
LINE
  5
6E
  8
PATTERN_FILL
  6
CONTINUOUS
 62
     7
 10
-87.0
 20
-47.99988473118179
 30
0.0
 11
-61.74546342199449
 21
-22.74534815317625
 31
0.0
  0
LINE
  5
6F
  8
PATTERN_FILL
  6
CONTINUOUS
 62
     7
 10
-84.5
 20
-47.99988473118179
 30
0.0
 11
-61.69260843924303
 21
-25.19249317042485
 31
0.0
  0
LINE
  5
70
  8
PATTERN_FILL
  6
CONTINUOUS
 62
     7
 10
-82.0
 20
-47.99988473118179
 30
0.0
 11
-61.63975345649169
 21
-27.63963818767346
 31
0.0
  0
LINE
  5
71
  8
PATTERN_FILL
  6
CONTINUOUS
 62
     7
 10
-79.5
 20
-47.99988473118179
 30
0.0
 11
-61.58689847374023
 21
-30.08678320492206
 31
0.0
  0
LINE
  5
72
  8
PATTERN_FILL
  6
CONTINUOUS
 62
     7
 10
-77.0
 20
-47.99988473118179
 30
0.0
 11
-61.53404349098889
 21
-32.53392822217066
 31
0.0
  0
LINE
  5
73
  8
PATTERN_FILL
  6
CONTINUOUS
 62
     7
 10
-74.5
 20
-47.99988473118179
 30
0.0
 11
-61.48118850823744
 21
-34.98107323941926
 31
0.0
  0
LINE
  5
74
  8
PATTERN_FILL
  6
CONTINUOUS
 62
     7
 10
-72.0
 20
-47.99988473118179
 30
0.0
 11
-61.4283335254861
 21
-37.42821825666786
 31
0.0
  0
LINE
  5
75
  8
PATTERN_FILL
  6
CONTINUOUS
 62
     7
 10
-69.5
 20
-47.99988473118179
 30
0.0
 11
-61.37547854273464
 21
-39.87536327391646
 31
0.0
  0
LINE
  5
76
  8
PATTERN_FILL
  6
CONTINUOUS
 62
     7
 10
-67.0
 20
-47.99988473118179
 30
0.0
 11
-61.3226235599833
 21
-42.32250829116506
 31
0.0
  0
LINE
  5
77
  8
PATTERN_FILL
  6
CONTINUOUS
 62
     7
 10
-64.5
 20
-47.99988473118179
 30
0.0
 11
-61.26976857723184
 21
-44.76965330841367
 31
0.0
  0
LINE
  5
78
  8
PATTERN_FILL
  6
CONTINUOUS
 62
     7
 10
-62.0
 20
-47.99988473118179
 30
0.0
 11
-61.21691359448039
 21
-47.21679832566224
 31
0.0
  0
LINE
  5
79
  8
PATTERN_FILL
  6
CONTINUOUS
 62
     7
 10
-66.2666968376941
 20
20.76681210651225
 30
0.0
 11
-62.60620490949475
 21
17.1063201783129
 31
0.0
  0
LINE
  5
7A
  8
PATTERN_FILL
  6
CONTINUOUS
 62
     7
 10
-69.01753913921493
 20
21.0176544080332
 30
0.0
 11
-62.55101633376887
 21
14.55113160258705
 31
0.0
  0
LINE
  5
7B
  8
PATTERN_FILL
  6
CONTINUOUS
 62
     7
 10
-71.73067922497466
 20
21.23079449379287
 30
0.0
 11
-62.49582775804299
 21
11.9959430268612
 31
0.0
  0
LINE
  5
7C
  8
PATTERN_FILL
  6
CONTINUOUS
 62
     7
 10
-74.407730132246
 20
21.40784540106424
 30
0.0
 11
-62.44063918231711
 21
9.440754451135348
 31
0.0
  0
LINE
  5
7D
  8
PATTERN_FILL
  6
CONTINUOUS
 62
     7
 10
-77.05017763634783
 20
21.55029290516609
 30
0.0
 11
-62.38545060659123
 21
6.885565875409497
 31
0.0
  0
LINE
  5
7E
  8
PATTERN_FILL
  6
CONTINUOUS
 62
     7
 10
-79.65939386414107
 20
21.65950913295927
 30
0.0
 11
-62.33026203086547
 21
4.330377299683647
 31
0.0
  0
LINE
  5
7F
  8
PATTERN_FILL
  6
CONTINUOUS
 62
     7
 10
-82.23664908132514
 20
21.73676435014332
 30
0.0
 11
-62.27507345513959
 21
1.775188723957797
 31
0.0
  0
LINE
  5
80
  8
PATTERN_FILL
  6
CONTINUOUS
 62
     7
 10
-84.78312194473779
 20
21.78323721355596
 30
0.0
 11
-62.21988487941371
 21
-0.7799998517680535
 31
0.0
  0
LINE
  5
81
  8
PATTERN_FILL
  6
CONTINUOUS
 62
     7
 10
-87.29990845747068
 20
21.80002372628886
 30
0.0
 11
-62.16469630368783
 21
-3.335188427493904
 31
0.0
  0
LINE
  5
82
  8
PATTERN_FILL
  6
CONTINUOUS
 62
     7
 10
-89.78802982222123
 20
21.78814509103947
 30
0.0
 11
-62.10950772796207
 21
-5.890377003219754
 31
0.0
  0
LINE
  5
83
  8
PATTERN_FILL
  6
CONTINUOUS
 62
     7
 10
-92.24843935439685
 20
21.74855462321509
 30
0.0
 11
-62.05431915223619
 21
-8.445565578945605
 31
0.0
  0
LINE
  5
84
  8
PATTERN_FILL
  6
CONTINUOUS
 62
     7
 10
-94.68202858920051
 20
21.68214385801878
 30
0.0
 11
-61.99913057651031
 21
-11.00075415467145
 31
0.0
  0
LINE
  5
85
  8
PATTERN_FILL
  6
CONTINUOUS
 62
     7
 10
-97.08963269482672
 20
21.58974796364492
 30
0.0
 11
-61.94394200078443
 21
-13.55594273039733
 31
0.0
  0
LINE
  5
86
  8
PATTERN_FILL
  6
CONTINUOUS
 62
     7
 10
-99.4720352858941
 20
21.47215055471233
 30
0.0
 11
-61.88875342505867
 21
-16.11113130612318
 31
0.0
  0
LINE
  5
87
  8
PATTERN_FILL
  6
CONTINUOUS
 62
     7
 10
-101.8299727164969
 20
21.33008798531509
 30
0.0
 11
-61.83356484933279
 21
-18.66631988184903
 31
0.0
  0
LINE
  5
88
  8
PATTERN_FILL
  6
CONTINUOUS
 62
     7
 10
-104.1641379201141
 20
21.16425318893229
 30
0.0
 11
-61.77837627360691
 21
-21.22150845757488
 31
0.0
  0
LINE
  5
89
  8
PATTERN_FILL
  6
CONTINUOUS
 62
     7
 10
-106.4751838535718
 20
20.97529912239008
 30
0.0
 11
-61.72318769788103
 21
-23.77669703330074
 31
0.0
  0
LINE
  5
8A
  8
PATTERN_FILL
  6
CONTINUOUS
 62
     7
 10
-108.7637265938999
 20
20.76384186271821
 30
0.0
 11
-61.66799912215515
 21
-26.33188560902659
 31
0.0
  0
LINE
  5
8B
  8
PATTERN_FILL
  6
CONTINUOUS
 62
     7
 10
-110.9121908997295
 20
20.41230616854764
 30
0.0
 11
-61.61281054642939
 21
-28.88707418475244
 31
0.0
  0
LINE
  5
8C
  8
PATTERN_FILL
  6
CONTINUOUS
 62
     7
 10
-112.1552080108059
 20
19.1553232796241
 30
0.0
 11
-61.55762197070351
 21
-31.44226276047829
 31
0.0
  0
LINE
  5
8D
  8
PATTERN_FILL
  6
CONTINUOUS
 62
     7
 10
-112.3982858574328
 20
16.89840112625106
 30
0.0
 11
-61.50243339497763
 21
-33.99745133620414
 31
0.0
  0
LINE
  5
8E
  8
PATTERN_FILL
  6
CONTINUOUS
 62
     7
 10
-112.4511408401843
 20
14.45125610900246
 30
0.0
 11
-61.44724481925175
 21
-36.55263991192999
 31
0.0
  0
LINE
  5
8F
  8
PATTERN_FILL
  6
CONTINUOUS
 62
     7
 10
-112.5039958229356
 20
12.00411109175386
 30
0.0
 11
-61.39205624352599
 21
-39.10782848765581
 31
0.0
  0
LINE
  5
90
  8
PATTERN_FILL
  6
CONTINUOUS
 62
     7
 10
-112.5568508056871
 20
9.556966074505254
 30
0.0
 11
-61.33686766780011
 21
-41.66301706338169
 31
0.0
  0
LINE
  5
91
  8
PATTERN_FILL
  6
CONTINUOUS
 62
     7
 10
-112.6097057884384
 20
7.109821057256653
 30
0.0
 11
-61.28167909207423
 21
-44.21820563910757
 31
0.0
  0
LINE
  5
92
  8
PATTERN_FILL
  6
CONTINUOUS
 62
     7
 10
-112.6625607711899
 20
4.662676040008051
 30
0.0
 11
-61.22649051634835
 21
-46.77339421483342
 31
0.0
  0
LINE
  5
93
  8
PATTERN_FILL
  6
CONTINUOUS
 62
     7
 10
-112.7154157539412
 20
2.21553102275945
 30
0.0
 11
-62.5
 21
-47.99988473118179
 31
0.0
  0
LINE
  5
94
  8
PATTERN_FILL
  6
CONTINUOUS
 62
     7
 10
-112.7682707366927
 20
-0.2316139944891518
 30
0.0
 11
-65.0
 21
-47.99988473118179
 31
0.0
  0
LINE
  5
95
  8
PATTERN_FILL
  6
CONTINUOUS
 62
     7
 10
-112.821125719444
 20
-2.678759011737753
 30
0.0
 11
-67.5
 21
-47.99988473118179
 31
0.0
  0
LINE
  5
96
  8
PATTERN_FILL
  6
CONTINUOUS
 62
     7
 10
-112.8739807021955
 20
-5.125904028986326
 30
0.0
 11
-70.0
 21
-47.99988473118179
 31
0.0
  0
LINE
  5
97
  8
PATTERN_FILL
  6
CONTINUOUS
 62
     7
 10
-112.9268356849468
 20
-7.573049046234956
 30
0.0
 11
-72.5
 21
-47.99988473118179
 31
0.0
  0
LINE
  5
98
  8
PATTERN_FILL
  6
CONTINUOUS
 62
     7
 10
-112.9796906676983
 20
-10.02019406348353
 30
0.0
 11
-75.0
 21
-47.99988473118179
 31
0.0
  0
LINE
  5
99
  8
PATTERN_FILL
  6
CONTINUOUS
 62
     7
 10
-113.0325456504497
 20
-12.46733908073213
 30
0.0
 11
-77.5
 21
-47.99988473118179
 31
0.0
  0
LINE
  5
9A
  8
PATTERN_FILL
  6
CONTINUOUS
 62
     7
 10
-113.0854006332011
 20
-14.91448409798073
 30
0.0
 11
-80.0
 21
-47.99988473118179
 31
0.0
  0
LINE
  5
9B
  8
PATTERN_FILL
  6
CONTINUOUS
 62
     7
 10
-113.1382556159524
 20
-17.36162911522933
 30
0.0
 11
-82.5
 21
-47.99988473118179
 31
0.0
  0
LINE
  5
9C
  8
PATTERN_FILL
  6
CONTINUOUS
 62
     7
 10
-113.1911105987039
 20
-19.80877413247794
 30
0.0
 11
-85.0
 21
-47.99988473118179
 31
0.0
  0
LINE
  5
9D
  8
PATTERN_FILL
  6
CONTINUOUS
 62
     7
 10
-113.2439655814553
 20
-22.25591914972654
 30
0.0
 11
-87.5
 21
-47.99988473118179
 31
0.0
  0
LINE
  5
9E
  8
PATTERN_FILL
  6
CONTINUOUS
 62
     7
 10
-113.2968205642067
 20
-24.70306416697514
 30
0.0
 11
-90.0
 21
-47.99988473118179
 31
0.0
  0
LINE
  5
9F
  8
PATTERN_FILL
  6
CONTINUOUS
 62
     7
 10
-113.3496755469581
 20
-27.15020918422374
 30
0.0
 11
-92.5
 21
-47.99988473118179
 31
0.0
  0
LINE
  5
A0
  8
PATTERN_FILL
  6
CONTINUOUS
 62
     7
 10
-113.4025305297095
 20
-29.59735420147231
 30
0.0
 11
-95.0
 21
-47.99988473118179
 31
0.0
  0
LINE
  5
A1
  8
PATTERN_FILL
  6
CONTINUOUS
 62
     7
 10
-113.4553855124609
 20
-32.04449921872094
 30
0.0
 11
-97.5
 21
-47.99988473118179
 31
0.0
  0
LINE
  5
A2
  8
PATTERN_FILL
  6
CONTINUOUS
 62
     7
 10
-113.5082404952122
 20
-34.49164423596952
 30
0.0
 11
-100.0
 21
-47.99988473118179
 31
0.0
  0
LINE
  5
A3
  8
PATTERN_FILL
  6
CONTINUOUS
 62
     7
 10
-113.5610954779637
 20
-36.93878925321815
 30
0.0
 11
-102.5
 21
-47.99988473118179
 31
0.0
  0
LINE
  5
A4
  8
PATTERN_FILL
  6
CONTINUOUS
 62
     7
 10
-113.613950460715
 20
-39.38593427046675
 30
0.0
 11
-105.0
 21
-47.99988473118179
 31
0.0
  0
LINE
  5
A5
  8
PATTERN_FILL
  6
CONTINUOUS
 62
     7
 10
-113.6668054434664
 20
-41.83307928771535
 30
0.0
 11
-107.5
 21
-47.99988473118179
 31
0.0
  0
LINE
  5
A6
  8
PATTERN_FILL
  6
CONTINUOUS
 62
     7
 10
-113.7196604262178
 20
-44.28022430496392
 30
0.0
 11
-110.0
 21
-47.99988473118179
 31
0.0
  0
LINE
  5
A7
  8
PATTERN_FILL
  6
CONTINUOUS
 62
     7
 10
-113.7725154089693
 20
-46.72736932221252
 30
0.0
 11
-112.5
 21
-47.99988473118177
 31
0.0
  0
LINE
  5
A8
  8
PATTERN_FILL
  6
CONTINUOUS
 62
     7
 10
-107.0
 20
-47.99988473118179
 30
0.0
 11
-62.16830328400567
 21
-3.168188015187468
 31
0.0
  0
LINE
  5
A9
  8
PATTERN_FILL
  6
CONTINUOUS
 62
     7
 10
31.34516719434953
 20
16.59528246316773
 30
0.0
 11
35.5699635678609
 21
20.8200788366791
 31
0.0
  0
LINE
  5
AA
  8
PATTERN_FILL
  6
CONTINUOUS
 62
     7
 10
31.28997861862376
 20
14.04009388744188
 30
0.0
 11
38.31312976357594
 21
21.06324503239406
 31
0.0
  0
LINE
  5
AB
  8
PATTERN_FILL
  6
CONTINUOUS
 62
     7
 10
31.23479004289788
 20
11.48490531171603
 30
0.0
 11
41.01892725550749
 21
21.26904252432567
 31
0.0
  0
LINE
  5
AC
  8
PATTERN_FILL
  6
CONTINUOUS
 62
     7
 10
31.17960146717201
 20
8.929716735990183
 30
0.0
 11
43.68894244037449
 21
21.43905770919261
 31
0.0
  0
LINE
  5
AD
  8
PATTERN_FILL
  6
CONTINUOUS
 62
     7
 10
31.12441289144613
 20
6.374528160264333
 30
0.0
 11
46.32463733785346
 21
21.57475260667158
 31
0.0
  0
LINE
  5
AE
  8
PATTERN_FILL
  6
CONTINUOUS
 62
     7
 10
31.06922431572025
 20
3.819339584538483
 30
0.0
 11
48.92736281252689
 21
21.67747808134507
 31
0.0
  0
LINE
  5
AF
  8
PATTERN_FILL
  6
CONTINUOUS
 62
     7
 10
31.01403573999448
 20
1.264151008812632
 30
0.0
 11
51.49837003277526
 21
21.7484853015934
 31
0.0
  0
LINE
  5
B0
  8
PATTERN_FILL
  6
CONTINUOUS
 62
     7
 10
30.9588471642686
 20
-1.291037566913218
 30
0.0
 11
54.03882044611112
 21
21.78893571492932
 31
0.0
  0
LINE
  5
B1
  8
PATTERN_FILL
  6
CONTINUOUS
 62
     7
 10
30.90365858854273
 20
-3.846226142639068
 30
0.0
 11
56.54979449950281
 21
21.79990976832096
 31
0.0
  0
LINE
  5
B2
  8
PATTERN_FILL
  6
CONTINUOUS
 62
     7
 10
30.84847001281696
 20
-6.401414718364919
 30
0.0
 11
59.03229929271299
 21
21.78241456153114
 31
0.0
  0
LINE
  5
B3
  8
PATTERN_FILL
  6
CONTINUOUS
 62
     7
 10
30.79328143709108
 20
-8.956603294090769
 30
0.0
 11
61.48727532023577
 21
21.73739058905386
 31
0.0
  0
LINE
  5
B4
  8
PATTERN_FILL
  6
CONTINUOUS
 62
     7
 10
30.7380928613652
 20
-11.51179186981662
 30
0.0
 11
63.91560243126219
 21
21.66571770008039
 31
0.0
  0
LINE
  5
B5
  8
PATTERN_FILL
  6
CONTINUOUS
 62
     7
 10
30.68290428563932
 20
-14.0669804455425
 30
0.0
 11
66.31810511590879
 21
21.56822038472691
 31
0.0
  0
LINE
  5
B6
  8
PATTERN_FILL
  6
CONTINUOUS
 62
     7
 10
30.62771570991345
 20
-16.62216902126832
 30
0.0
 11
68.69555720864446
 21
21.44567247746267
 31
0.0
  0
LINE
  5
B7
  8
PATTERN_FILL
  6
CONTINUOUS
 62
     7
 10
30.57252713418768
 20
-19.1773575969942
 30
0.0
 11
71.04868608568427
 21
21.29880135450244
 31
0.0
  0
LINE
  5
B8
  8
PATTERN_FILL
  6
CONTINUOUS
 62
     7
 10
30.5173385584618
 20
-21.73254617272005
 30
0.0
 11
73.3781764214225
 21
21.1282916902407
 31
0.0
  0
LINE
  5
B9
  8
PATTERN_FILL
  6
CONTINUOUS
 62
     7
 10
30.46214998273592
 20
-24.2877347484459
 30
0.0
 11
75.68467355930784
 21
20.93478882812607
 31
0.0
  0
LINE
  5
BA
  8
PATTERN_FILL
  6
CONTINUOUS
 62
     7
 10
30.40696140701004
 20
-26.84292332417175
 30
0.0
 11
77.96878654450518
 21
20.71890181332333
 31
0.0
  0
LINE
  5
BB
  8
PATTERN_FILL
  6
CONTINUOUS
 62
     7
 10
30.35177283128428
 20
-29.3981118998976
 30
0.0
 11
79.98464808160338
 21
20.23476335042159
 31
0.0
  0
LINE
  5
BC
  8
PATTERN_FILL
  6
CONTINUOUS
 62
     7
 10
30.2965842555584
 20
-31.95330047562345
 30
0.0
 11
81.03586111075595
 21
18.78597637957415
 31
0.0
  0
LINE
  5
BD
  8
PATTERN_FILL
  6
CONTINUOUS
 62
     7
 10
30.24139567983252
 20
-34.5084890513493
 30
0.0
 11
81.15885685398314
 21
16.40897212280134
 31
0.0
  0
LINE
  5
BE
  8
PATTERN_FILL
  6
CONTINUOUS
 62
     7
 10
30.18620710410664
 20
-37.06367762707515
 30
0.0
 11
81.2117118367346
 21
13.96182710555274
 31
0.0
  0
LINE
  5
BF
  8
PATTERN_FILL
  6
CONTINUOUS
 62
     7
 10
30.13101852838088
 20
-39.618866202801
 30
0.0
 11
81.26456681948594
 21
11.51468208830414
 31
0.0
  0
LINE
  5
C0
  8
PATTERN_FILL
  6
CONTINUOUS
 62
     7
 10
30.075829952655
 20
-42.17405477852685
 30
0.0
 11
81.31742180223739
 21
9.06753707105554
 31
0.0
  0
LINE
  5
C1
  8
PATTERN_FILL
  6
CONTINUOUS
 62
     7
 10
30.02064137692912
 20
-44.7292433542527
 30
0.0
 11
81.37027678498885
 21
6.620392053806967
 31
0.0
  0
LINE
  5
C2
  8
PATTERN_FILL
  6
CONTINUOUS
 62
     7
 10
29.96545280120324
 20
-47.28443192997855
 30
0.0
 11
81.42313176774019
 21
4.173247036558337
 31
0.0
  0
LINE
  5
C3
  8
PATTERN_FILL
  6
CONTINUOUS
 62
     7
 10
31.75
 20
-47.99988473118179
 30
0.0
 11
81.47598675049153
 21
1.726102019309749
 31
0.0
  0
LINE
  5
C4
  8
PATTERN_FILL
  6
CONTINUOUS
 62
     7
 10
34.25
 20
-47.99988473118179
 30
0.0
 11
81.52884173324298
 21
-0.7210429979388664
 31
0.0
  0
LINE
  5
C5
  8
PATTERN_FILL
  6
CONTINUOUS
 62
     7
 10
39.25
 20
-47.99988473118179
 30
0.0
 11
81.63455169874578
 21
-5.61533303243607
 31
0.0
  0
LINE
  5
C6
  8
PATTERN_FILL
  6
CONTINUOUS
 62
     7
 10
41.75
 20
-47.99988473118179
 30
0.0
 11
81.68740668149712
 21
-8.062478049684643
 31
0.0
  0
LINE
  5
C7
  8
PATTERN_FILL
  6
CONTINUOUS
 62
     7
 10
44.25
 20
-47.99988473118179
 30
0.0
 11
81.74026166424858
 21
-10.50962306693324
 31
0.0
  0
LINE
  5
C8
  8
PATTERN_FILL
  6
CONTINUOUS
 62
     7
 10
46.75
 20
-47.99988473118179
 30
0.0
 11
81.79311664700003
 21
-12.95676808418185
 31
0.0
  0
LINE
  5
C9
  8
PATTERN_FILL
  6
CONTINUOUS
 62
     7
 10
49.25
 20
-47.99988473118179
 30
0.0
 11
81.84597162975138
 21
-15.40391310143045
 31
0.0
  0
LINE
  5
CA
  8
PATTERN_FILL
  6
CONTINUOUS
 62
     7
 10
51.75
 20
-47.99988473118179
 30
0.0
 11
81.89882661250272
 21
-17.85105811867905
 31
0.0
  0
LINE
  5
CB
  8
PATTERN_FILL
  6
CONTINUOUS
 62
     7
 10
54.25
 20
-47.99988473118179
 30
0.0
 11
81.95168159525417
 21
-20.29820313592765
 31
0.0
  0
LINE
  5
CC
  8
PATTERN_FILL
  6
CONTINUOUS
 62
     7
 10
56.75
 20
-47.99988473118179
 30
0.0
 11
82.00453657800563
 21
-22.74534815317625
 31
0.0
  0
LINE
  5
CD
  8
PATTERN_FILL
  6
CONTINUOUS
 62
     7
 10
59.25
 20
-47.99988473118179
 30
0.0
 11
82.05739156075697
 21
-25.19249317042485
 31
0.0
  0
LINE
  5
CE
  8
PATTERN_FILL
  6
CONTINUOUS
 62
     7
 10
61.75
 20
-47.99988473118179
 30
0.0
 11
82.11024654350831
 21
-27.63963818767346
 31
0.0
  0
LINE
  5
CF
  8
PATTERN_FILL
  6
CONTINUOUS
 62
     7
 10
64.25
 20
-47.99988473118179
 30
0.0
 11
82.16310152625977
 21
-30.08678320492206
 31
0.0
  0
LINE
  5
D0
  8
PATTERN_FILL
  6
CONTINUOUS
 62
     7
 10
66.75
 20
-47.99988473118179
 30
0.0
 11
82.21595650901122
 21
-32.53392822217066
 31
0.0
  0
LINE
  5
D1
  8
PATTERN_FILL
  6
CONTINUOUS
 62
     7
 10
69.25
 20
-47.99988473118179
 30
0.0
 11
82.26881149176256
 21
-34.98107323941926
 31
0.0
  0
LINE
  5
D2
  8
PATTERN_FILL
  6
CONTINUOUS
 62
     7
 10
71.75
 20
-47.99988473118179
 30
0.0
 11
82.3216664745139
 21
-37.42821825666786
 31
0.0
  0
LINE
  5
D3
  8
PATTERN_FILL
  6
CONTINUOUS
 62
     7
 10
74.25
 20
-47.99988473118179
 30
0.0
 11
82.37452145726536
 21
-39.87536327391646
 31
0.0
  0
LINE
  5
D4
  8
PATTERN_FILL
  6
CONTINUOUS
 62
     7
 10
76.75
 20
-47.99988473118179
 30
0.0
 11
82.42737644001681
 21
-42.32250829116506
 31
0.0
  0
LINE
  5
D5
  8
PATTERN_FILL
  6
CONTINUOUS
 62
     7
 10
79.25
 20
-47.99988473118179
 30
0.0
 11
82.48023142276816
 21
-44.76965330841367
 31
0.0
  0
LINE
  5
D6
  8
PATTERN_FILL
  6
CONTINUOUS
 62
     7
 10
81.75
 20
-47.99988473118179
 30
0.0
 11
82.53308640551961
 21
-47.21679832566224
 31
0.0
  0
LINE
  5
D7
  8
PATTERN_FILL
  6
CONTINUOUS
 62
     7
 10
77.4833031623059
 20
20.76681210651225
 30
0.0
 11
81.14379509050536
 21
17.1063201783129
 31
0.0
  0
LINE
  5
D8
  8
PATTERN_FILL
  6
CONTINUOUS
 62
     7
 10
74.73246086078507
 20
21.0176544080332
 30
0.0
 11
81.19898366623124
 21
14.55113160258705
 31
0.0
  0
LINE
  5
D9
  8
PATTERN_FILL
  6
CONTINUOUS
 62
     7
 10
72.01932077502534
 20
21.23079449379287
 30
0.0
 11
81.25417224195701
 21
11.9959430268612
 31
0.0
  0
LINE
  5
DA
  8
PATTERN_FILL
  6
CONTINUOUS
 62
     7
 10
69.342269867754
 20
21.40784540106424
 30
0.0
 11
81.30936081768289
 21
9.440754451135348
 31
0.0
  0
LINE
  5
DB
  8
PATTERN_FILL
  6
CONTINUOUS
 62
     7
 10
66.69982236365217
 20
21.55029290516609
 30
0.0
 11
81.36454939340877
 21
6.885565875409497
 31
0.0
  0
LINE
  5
DC
  8
PATTERN_FILL
  6
CONTINUOUS
 62
     7
 10
64.09060613585893
 20
21.65950913295927
 30
0.0
 11
81.41973796913453
 21
4.330377299683647
 31
0.0
  0
LINE
  5
DD
  8
PATTERN_FILL
  6
CONTINUOUS
 62
     7
 10
61.51335091867486
 20
21.73676435014332
 30
0.0
 11
81.47492654486041
 21
1.775188723957797
 31
0.0
  0
LINE
  5
DE
  8
PATTERN_FILL
  6
CONTINUOUS
 62
     7
 10
58.96687805526221
 20
21.78323721355596
 30
0.0
 11
81.53011512058629
 21
-0.7799998517680535
 31
0.0
  0
LINE
  5
DF
  8
PATTERN_FILL
  6
CONTINUOUS
 62
     7
 10
56.45009154252944
 20
21.80002372628886
 30
0.0
 11
81.58530369631217
 21
-3.335188427493904
 31
0.0
  0
LINE
  5
E0
  8
PATTERN_FILL
  6
CONTINUOUS
 62
     7
 10
53.96197017777877
 20
21.78814509103947
 30
0.0
 11
81.64049227203805
 21
-5.890377003219754
 31
0.0
  0
LINE
  5
E1
  8
PATTERN_FILL
  6
CONTINUOUS
 62
     7
 10
51.50156064560315
 20
21.74855462321509
 30
0.0
 11
81.69568084776381
 21
-8.445565578945605
 31
0.0
  0
LINE
  5
E2
  8
PATTERN_FILL
  6
CONTINUOUS
 62
     7
 10
49.06797141079949
 20
21.68214385801878
 30
0.0
 11
81.75086942348969
 21
-11.00075415467145
 31
0.0
  0
LINE
  5
E3
  8
PATTERN_FILL
  6
CONTINUOUS
 62
     7
 10
46.66036730517328
 20
21.58974796364492
 30
0.0
 11
81.80605799921557
 21
-13.55594273039733
 31
0.0
  0
LINE
  5
E4
  8
PATTERN_FILL
  6
CONTINUOUS
 62
     7
 10
44.27796471410591
 20
21.47215055471233
 30
0.0
 11
81.86124657494133
 21
-16.11113130612318
 31
0.0
  0
LINE
  5
E5
  8
PATTERN_FILL
  6
CONTINUOUS
 62
     7
 10
41.92002728350315
 20
21.33008798531509
 30
0.0
 11
81.91643515066721
 21
-18.66631988184903
 31
0.0
  0
LINE
  5
E6
  8
PATTERN_FILL
  6
CONTINUOUS
 62
     7
 10
39.58586207988594
 20
21.16425318893229
 30
0.0
 11
81.97162372639309
 21
-21.22150845757488
 31
0.0
  0
LINE
  5
E7
  8
PATTERN_FILL
  6
CONTINUOUS
 62
     7
 10
37.27481614642818
 20
20.97529912239008
 30
0.0
 11
82.02681230211897
 21
-23.77669703330074
 31
0.0
  0
LINE
  5
E8
  8
PATTERN_FILL
  6
CONTINUOUS
 62
     7
 10
34.98627340610005
 20
20.76384186271821
 30
0.0
 11
82.08200087784485
 21
-26.33188560902659
 31
0.0
  0
LINE
  5
E9
  8
PATTERN_FILL
  6
CONTINUOUS
 62
     7
 10
32.83780910027053
 20
20.41230616854764
 30
0.0
 11
82.13718945357073
 21
-28.88707418475244
 31
0.0
  0
LINE
  5
EA
  8
PATTERN_FILL
  6
CONTINUOUS
 62
     7
 10
31.59479198919416
 20
19.1553232796241
 30
0.0
 11
82.19237802929649
 21
-31.44226276047829
 31
0.0
  0
LINE
  5
EB
  8
PATTERN_FILL
  6
CONTINUOUS
 62
     7
 10
31.35171414256718
 20
16.89840112625106
 30
0.0
 11
82.24756660502237
 21
-33.99745133620414
 31
0.0
  0
LINE
  5
EC
  8
PATTERN_FILL
  6
CONTINUOUS
 62
     7
 10
31.29885915981572
 20
14.45125610900246
 30
0.0
 11
82.30275518074825
 21
-36.55263991192999
 31
0.0
  0
LINE
  5
ED
  8
PATTERN_FILL
  6
CONTINUOUS
 62
     7
 10
31.24600417706438
 20
12.00411109175386
 30
0.0
 11
82.35794375647401
 21
-39.10782848765581
 31
0.0
  0
LINE
  5
EE
  8
PATTERN_FILL
  6
CONTINUOUS
 62
     7
 10
31.19314919431292
 20
9.556966074505254
 30
0.0
 11
82.4131323321999
 21
-41.66301706338169
 31
0.0
  0
LINE
  5
EF
  8
PATTERN_FILL
  6
CONTINUOUS
 62
     7
 10
31.14029421156158
 20
7.109821057256653
 30
0.0
 11
82.46832090792577
 21
-44.21820563910757
 31
0.0
  0
LINE
  5
F0
  8
PATTERN_FILL
  6
CONTINUOUS
 62
     7
 10
31.08743922881013
 20
4.662676040008051
 30
0.0
 11
82.52350948365165
 21
-46.77339421483342
 31
0.0
  0
LINE
  5
F1
  8
PATTERN_FILL
  6
CONTINUOUS
 62
     7
 10
31.03458424605878
 20
2.21553102275945
 30
0.0
 11
81.25
 21
-47.99988473118179
 31
0.0
  0
LINE
  5
F2
  8
PATTERN_FILL
  6
CONTINUOUS
 62
     7
 10
30.98172926330733
 20
-0.2316139944891518
 30
0.0
 11
78.75
 21
-47.99988473118179
 31
0.0
  0
LINE
  5
F3
  8
PATTERN_FILL
  6
CONTINUOUS
 62
     7
 10
30.92887428055599
 20
-2.678759011737753
 30
0.0
 11
76.25
 21
-47.99988473118179
 31
0.0
  0
LINE
  5
F4
  8
PATTERN_FILL
  6
CONTINUOUS
 62
     7
 10
30.87601929780453
 20
-5.125904028986326
 30
0.0
 11
73.75
 21
-47.99988473118179
 31
0.0
  0
LINE
  5
F5
  8
PATTERN_FILL
  6
CONTINUOUS
 62
     7
 10
30.82316431505319
 20
-7.573049046234956
 30
0.0
 11
71.25
 21
-47.99988473118179
 31
0.0
  0
LINE
  5
F6
  8
PATTERN_FILL
  6
CONTINUOUS
 62
     7
 10
30.77030933230174
 20
-10.02019406348353
 30
0.0
 11
68.75
 21
-47.99988473118179
 31
0.0
  0
LINE
  5
F7
  8
PATTERN_FILL
  6
CONTINUOUS
 62
     7
 10
30.71745434955039
 20
-12.46733908073213
 30
0.0
 11
66.25
 21
-47.99988473118179
 31
0.0
  0
LINE
  5
F8
  8
PATTERN_FILL
  6
CONTINUOUS
 62
     7
 10
30.66459936679894
 20
-14.91448409798073
 30
0.0
 11
63.75
 21
-47.99988473118179
 31
0.0
  0
LINE
  5
F9
  8
PATTERN_FILL
  6
CONTINUOUS
 62
     7
 10
30.6117443840476
 20
-17.36162911522933
 30
0.0
 11
61.25
 21
-47.99988473118179
 31
0.0
  0
LINE
  5
FA
  8
PATTERN_FILL
  6
CONTINUOUS
 62
     7
 10
30.55888940129614
 20
-19.80877413247794
 30
0.0
 11
58.75
 21
-47.99988473118179
 31
0.0
  0
LINE
  5
FB
  8
PATTERN_FILL
  6
CONTINUOUS
 62
     7
 10
30.5060344185448
 20
-22.25591914972654
 30
0.0
 11
56.25
 21
-47.99988473118179
 31
0.0
  0
LINE
  5
FC
  8
PATTERN_FILL
  6
CONTINUOUS
 62
     7
 10
30.45317943579334
 20
-24.70306416697514
 30
0.0
 11
53.75
 21
-47.99988473118179
 31
0.0
  0
LINE
  5
FD
  8
PATTERN_FILL
  6
CONTINUOUS
 62
     7
 10
30.400324453042
 20
-27.15020918422374
 30
0.0
 11
51.25
 21
-47.99988473118179
 31
0.0
  0
LINE
  5
FE
  8
PATTERN_FILL
  6
CONTINUOUS
 62
     7
 10
30.34746947029055
 20
-29.59735420147231
 30
0.0
 11
48.75
 21
-47.99988473118179
 31
0.0
  0
LINE
  5
FF
  8
PATTERN_FILL
  6
CONTINUOUS
 62
     7
 10
30.29461448753921
 20
-32.04449921872094
 30
0.0
 11
46.25
 21
-47.99988473118179
 31
0.0
  0
LINE
  5
100
  8
PATTERN_FILL
  6
CONTINUOUS
 62
     7
 10
30.24175950478775
 20
-34.49164423596952
 30
0.0
 11
43.75
 21
-47.99988473118179
 31
0.0
  0
LINE
  5
101
  8
PATTERN_FILL
  6
CONTINUOUS
 62
     7
 10
30.18890452203641
 20
-36.93878925321815
 30
0.0
 11
41.25
 21
-47.99988473118179
 31
0.0
  0
LINE
  5
102
  8
PATTERN_FILL
  6
CONTINUOUS
 62
     7
 10
30.13604953928495
 20
-39.38593427046675
 30
0.0
 11
38.75
 21
-47.99988473118179
 31
0.0
  0
LINE
  5
103
  8
PATTERN_FILL
  6
CONTINUOUS
 62
     7
 10
30.08319455653361
 20
-41.83307928771535
 30
0.0
 11
36.25
 21
-47.99988473118179
 31
0.0
  0
LINE
  5
104
  8
PATTERN_FILL
  6
CONTINUOUS
 62
     7
 10
30.03033957378216
 20
-44.28022430496392
 30
0.0
 11
33.75
 21
-47.99988473118179
 31
0.0
  0
LINE
  5
105
  8
PATTERN_FILL
  6
CONTINUOUS
 62
     7
 10
29.97748459103082
 20
-46.72736932221252
 30
0.0
 11
31.25
 21
-47.99988473118177
 31
0.0
  0
LINE
  5
106
  8
PATTERN_FILL
  6
CONTINUOUS
 62
     7
 10
36.75
 20
-47.99988473118179
 30
0.0
 11
81.58169671599444
 21
-3.168188015187468
 31
0.0
  0
CIRCLE
  5
107
  8
PATTERN_FILL
  6
CONTINUOUS
 62
     7
 10
-87.5
 20
-13.08836919704632
 30
0.0
 40
16.0
  0
CIRCLE
  5
108
  8
PATTERN_FILL
  6
CONTINUOUS
 62
     7
 10
-87.5
 20
-13.08836919704632
 30
0.0
 40
14.5
  0
LINE
  5
109
  8
PATTERN_FILL
  6
CONTINUOUS
 62
     7
 10
-24.25454043802165
 20
19.790700377608
 30
0.0
 11
-22.29373283020448
 21
21.75150798542515
 31
0.0
  0
LINE
  5
10A
  8
PATTERN_FILL
  6
CONTINUOUS
 62
     7
 10
-24.34893574933801
 20
17.1963050662917
 30
0.0
 11
-19.74512554681144
 21
21.80011526881822
 31
0.0
  0
LINE
  5
10B
  8
PATTERN_FILL
  6
CONTINUOUS
 62
     7
 10
-24.40384058096311
 20
14.64140023466652
 30
0.0
 11
-17.24512554681144
 21
21.8001152688182
 31
0.0
  0
LINE
  5
10C
  8
PATTERN_FILL
  6
CONTINUOUS
 62
     7
 10
-24.45874541258831
 20
12.08649540304135
 30
0.0
 11
-14.74512554681144
 21
21.8001152688182
 31
0.0
  0
LINE
  5
10D
  8
PATTERN_FILL
  6
CONTINUOUS
 62
     7
 10
-24.51365024421352
 20
9.53159057141616
 30
0.0
 11
-13.18159568514432
 21
20.86364513048531
 31
0.0
  0
LINE
  5
10E
  8
PATTERN_FILL
  6
CONTINUOUS
 62
     7
 10
-24.56855507583873
 20
6.97668573979098
 30
0.0
 11
-13.21912249000491
 21
18.32611832562471
 31
0.0
  0
LINE
  5
10F
  8
PATTERN_FILL
  6
CONTINUOUS
 62
     7
 10
-24.62345990746383
 20
4.4217809081658
 30
0.0
 11
-13.25664929486561
 21
15.7885915207641
 31
0.0
  0
LINE
  5
110
  8
PATTERN_FILL
  6
CONTINUOUS
 62
     7
 10
-24.67836473908903
 20
1.866876076540592
 30
0.0
 11
-13.2941760997262
 21
13.25106471590345
 31
0.0
  0
LINE
  5
111
  8
PATTERN_FILL
  6
CONTINUOUS
 62
     7
 10
-24.73326957071424
 20
-0.6880287550845878
 30
0.0
 11
-13.33170290458679
 21
10.71353791104283
 31
0.0
  0
LINE
  5
112
  8
PATTERN_FILL
  6
CONTINUOUS
 62
     7
 10
-24.78817440233945
 20
-3.242933586709768
 30
0.0
 11
-13.36922970944738
 21
8.17601110618223
 31
0.0
  0
LINE
  5
113
  8
PATTERN_FILL
  6
CONTINUOUS
 62
     7
 10
-24.84307923396466
 20
-5.797838418334948
 30
0.0
 11
-13.40675651430797
 21
5.638484301321611
 31
0.0
  0
LINE
  5
114
  8
PATTERN_FILL
  6
CONTINUOUS
 62
     7
 10
0.6981626394982641
 20
19.74340345512789
 30
0.0
 11
2.754874453188563
 21
21.80011526881822
 31
0.0
  0
LINE
  5
115
  8
PATTERN_FILL
  6
CONTINUOUS
 62
     7
 10
-24.89798406558975
 20
-8.352743249960128
 30
0.0
 11
-13.44428331916868
 21
3.100957496461021
 31
0.0
  0
LINE
  5
116
  8
PATTERN_FILL
  6
CONTINUOUS
 62
     7
 10
0.7345956721145512
 20
17.27983648774415
 30
0.0
 11
5.254874453188563
 21
21.80011526881822
 31
0.0
  0
LINE
  5
117
  8
PATTERN_FILL
  6
CONTINUOUS
 62
     7
 10
-24.95288889721496
 20
-10.90764808158534
 30
0.0
 11
-13.48181012402927
 21
0.563430691600388
 31
0.0
  0
LINE
  5
118
  8
PATTERN_FILL
  6
CONTINUOUS
 62
     7
 10
0.7710287047307247
 20
14.81626952036038
 30
0.0
 11
7.754874453188563
 21
21.80011526881822
 31
0.0
  0
LINE
  5
119
  8
PATTERN_FILL
  6
CONTINUOUS
 62
     7
 10
-25.00779372884017
 20
-13.46255291321052
 30
0.0
 11
-13.51933692888986
 21
-1.974096113260231
 31
0.0
  0
LINE
  5
11A
  8
PATTERN_FILL
  6
CONTINUOUS
 62
     7
 10
0.8074617373470119
 20
12.35270255297664
 30
0.0
 11
10.11826011490052
 21
21.6635009305302
 31
0.0
  0
LINE
  5
11B
  8
PATTERN_FILL
  6
CONTINUOUS
 62
     7
 10
-25.06269856046538
 20
-16.01745774483581
 30
0.0
 11
-13.55686373375045
 21
-4.511622918120935
 31
0.0
  0
LINE
  5
11C
  8
PATTERN_FILL
  6
CONTINUOUS
 62
     7
 10
0.8438947699631854
 20
9.889135585592811
 30
0.0
 11
11.48152512748072
 21
20.52676594311035
 31
0.0
  0
LINE
  5
11D
  8
PATTERN_FILL
  6
CONTINUOUS
 62
     7
 10
-25.11760339209047
 20
-18.57236257646099
 30
0.0
 11
-13.59439053861104
 21
-7.049149722981525
 31
0.0
  0
LINE
  5
11E
  8
PATTERN_FILL
  6
CONTINUOUS
 62
     7
 10
0.8803278025794725
 20
7.42556861820907
 30
0.0
 11
11.82373508667297
 21
18.36897590230264
 31
0.0
  0
LINE
  5
11F
  8
PATTERN_FILL
  6
CONTINUOUS
 62
     7
 10
-25.17250822371568
 20
-21.12726740808617
 30
0.0
 11
-13.63191734347174
 21
-9.586676527842172
 31
0.0
  0
LINE
  5
120
  8
PATTERN_FILL
  6
CONTINUOUS
 62
     7
 10
0.916760835195646
 20
4.962001650825286
 30
0.0
 11
11.8763297570797
 21
15.92157057270936
 31
0.0
  0
LINE
  5
121
  8
PATTERN_FILL
  6
CONTINUOUS
 62
     7
 10
-25.22741305534089
 20
-23.68217223971135
 30
0.0
 11
-13.66944414833233
 21
-12.12420333270276
 31
0.0
  0
LINE
  5
122
  8
PATTERN_FILL
  6
CONTINUOUS
 62
     7
 10
0.9531938678119332
 20
2.498434683441531
 30
0.0
 11
11.92892442748644
 21
13.47416524311609
 31
0.0
  0
LINE
  5
123
  8
PATTERN_FILL
  6
CONTINUOUS
 62
     7
 10
-25.2823178869661
 20
-26.23707707133653
 30
0.0
 11
-13.70697095319292
 21
-14.66173013756341
 31
0.0
  0
LINE
  5
124
  8
PATTERN_FILL
  6
CONTINUOUS
 62
     7
 10
0.9896269004282203
 20
0.0348677160577608
 30
0.0
 11
11.98151909789317
 21
11.02675991352282
 31
0.0
  0
LINE
  5
125
  8
PATTERN_FILL
  6
CONTINUOUS
 62
     7
 10
-25.33722271859131
 20
-28.79198190296174
 30
0.0
 11
-13.74449775805351
 21
-17.199256942424
 31
0.0
  0
LINE
  5
126
  8
PATTERN_FILL
  6
CONTINUOUS
 62
     7
 10
1.026059933044394
 20
-2.42869925132598
 30
0.0
 11
12.0341137682999
 21
8.579354583929543
 31
0.0
  0
LINE
  5
127
  8
PATTERN_FILL
  6
CONTINUOUS
 62
     7
 10
-25.3921275502164
 20
-31.34688673458689
 30
0.0
 11
-13.7820245629141
 21
-19.73678374728462
 31
0.0
  0
LINE
  5
128
  8
PATTERN_FILL
  6
CONTINUOUS
 62
     7
 10
1.062492965660681
 20
-4.89226621870975
 30
0.0
 11
12.08670843870664
 21
6.131949254336263
 31
0.0
  0
LINE
  5
129
  8
PATTERN_FILL
  6
CONTINUOUS
 62
     7
 10
-25.44703238184161
 20
-33.9017915662121
 30
0.0
 11
-13.81955136777481
 21
-22.27431055214524
 31
0.0
  0
LINE
  5
12A
  8
PATTERN_FILL
  6
CONTINUOUS
 62
     7
 10
1.098925998276854
 20
-7.355833186093548
 30
0.0
 11
12.13930310911337
 21
3.684543924742982
 31
0.0
  0
LINE
  5
12B
  8
PATTERN_FILL
  6
CONTINUOUS
 62
     7
 10
-25.50193721346682
 20
-36.45669639783728
 30
0.0
 11
-13.8570781726354
 21
-24.81183735700586
 31
0.0
  0
LINE
  5
12C
  8
PATTERN_FILL
  6
CONTINUOUS
 62
     7
 10
1.135359030893142
 20
-9.81940015347729
 30
0.0
 11
12.1918977795201
 21
1.23713859514973
 31
0.0
  0
LINE
  5
12D
  8
PATTERN_FILL
  6
CONTINUOUS
 62
     7
 10
-25.55684204509203
 20
-39.01160122946246
 30
0.0
 11
-13.89460497749599
 21
-27.34936416186648
 31
0.0
  0
LINE
  5
12E
  8
PATTERN_FILL
  6
CONTINUOUS
 62
     7
 10
1.171792063509429
 20
-12.28296712086106
 30
0.0
 11
12.24449244992684
 21
-1.210266734443536
 31
0.0
  0
LINE
  5
12F
  8
PATTERN_FILL
  6
CONTINUOUS
 62
     7
 10
-25.61174687671712
 20
-41.56650606108764
 30
0.0
 11
-13.93213178235658
 21
-29.88689096672709
 31
0.0
  0
LINE
  5
130
  8
PATTERN_FILL
  6
CONTINUOUS
 62
     7
 10
1.208225096125602
 20
-14.74653408824483
 30
0.0
 11
12.29708712033357
 21
-3.657672064036802
 31
0.0
  0
LINE
  5
131
  8
PATTERN_FILL
  6
CONTINUOUS
 62
     7
 10
-25.66665170834233
 20
-44.12141089271282
 30
0.0
 11
-13.96965858721728
 21
-32.42441777158771
 31
0.0
  0
LINE
  5
132
  8
PATTERN_FILL
  6
CONTINUOUS
 62
     7
 10
1.244658128741889
 20
-17.21010105562857
 30
0.0
 11
12.34968179074031
 21
-6.105077393630069
 31
0.0
  0
LINE
  5
133
  8
PATTERN_FILL
  6
CONTINUOUS
 62
     7
 10
-25.72155653996754
 20
-46.67631572433802
 30
0.0
 11
-14.00718539207787
 21
-34.96194457644833
 31
0.0
  0
LINE
  5
134
  8
PATTERN_FILL
  6
CONTINUOUS
 62
     7
 10
1.281091161358063
 20
-19.67366802301234
 30
0.0
 11
12.40227646114704
 21
-8.552482723223335
 31
0.0
  0
LINE
  5
135
  8
PATTERN_FILL
  6
CONTINUOUS
 62
     7
 10
-22.0444050047148
 20
-47.99916418908529
 30
0.0
 11
-14.08223900179905
 21
-40.03699818616957
 31
0.0
  0
LINE
  5
136
  8
PATTERN_FILL
  6
CONTINUOUS
 62
     7
 10
1.353957226590524
 20
-24.60080195777988
 30
0.0
 11
12.50746580196051
 21
-13.4472933824099
 31
0.0
  0
LINE
  5
137
  8
PATTERN_FILL
  6
CONTINUOUS
 62
     7
 10
-19.5444050047148
 20
-47.99916418908529
 30
0.0
 11
-14.11976580665964
 21
-42.57452499103019
 31
0.0
  0
LINE
  5
138
  8
PATTERN_FILL
  6
CONTINUOUS
 62
     7
 10
1.390390259206811
 20
-27.06436892516362
 30
0.0
 11
12.56006047236724
 21
-15.89469871200313
 31
0.0
  0
LINE
  5
139
  8
PATTERN_FILL
  6
CONTINUOUS
 62
     7
 10
-17.0444050047148
 20
-47.99916418908529
 30
0.0
 11
-14.15729261152035
 21
-45.11205179589084
 31
0.0
  0
LINE
  5
13A
  8
PATTERN_FILL
  6
CONTINUOUS
 62
     7
 10
1.426823291822984
 20
-29.52793589254739
 30
0.0
 11
12.61265514277397
 21
-18.3421040415964
 31
0.0
  0
LINE
  5
13B
  8
PATTERN_FILL
  6
CONTINUOUS
 62
     7
 10
-14.5444050047148
 20
-47.99916418908529
 30
0.0
 11
-14.19481941638094
 21
-47.64957860075145
 31
0.0
  0
LINE
  5
13C
  8
PATTERN_FILL
  6
CONTINUOUS
 62
     7
 10
1.463256324439271
 20
-31.99150285993116
 30
0.0
 11
12.66524981318071
 21
-20.78950937118969
 31
0.0
  0
LINE
  5
13D
  8
PATTERN_FILL
  6
CONTINUOUS
 62
     7
 10
1.499689357055559
 20
-34.45506982731493
 30
0.0
 11
12.71784448358744
 21
-23.23691470078296
 31
0.0
  0
LINE
  5
13E
  8
PATTERN_FILL
  6
CONTINUOUS
 62
     7
 10
1.536122389671732
 20
-36.9186367946987
 30
0.0
 11
12.77043915399418
 21
-25.68432003037623
 31
0.0
  0
LINE
  5
13F
  8
PATTERN_FILL
  6
CONTINUOUS
 62
     7
 10
1.572555422288019
 20
-39.38220376208253
 30
0.0
 11
12.82303382440091
 21
-28.13172535996958
 31
0.0
  0
LINE
  5
140
  8
PATTERN_FILL
  6
CONTINUOUS
 62
     7
 10
1.608988454904193
 20
-41.8457707294663
 30
0.0
 11
12.87562849480764
 21
-30.57913068956287
 31
0.0
  0
LINE
  5
141
  8
PATTERN_FILL
  6
CONTINUOUS
 62
     7
 10
1.64542148752048
 20
-44.30933769685004
 30
0.0
 11
12.92822316521438
 21
-33.02653601915614
 31
0.0
  0
LINE
  5
142
  8
PATTERN_FILL
  6
CONTINUOUS
 62
     7
 10
1.681854520136767
 20
-46.77290466423381
 30
0.0
 11
12.98081783562111
 21
-35.47394134874941
 31
0.0
  0
LINE
  5
143
  8
PATTERN_FILL
  6
CONTINUOUS
 62
     7
 10
2.955594995285196
 20
-47.99916418908529
 30
0.0
 11
13.03341250602784
 21
-37.92134667834267
 31
0.0
  0
LINE
  5
144
  8
PATTERN_FILL
  6
CONTINUOUS
 62
     7
 10
5.455594995285196
 20
-47.99916418908529
 30
0.0
 11
13.08600717643458
 21
-40.36875200793594
 31
0.0
  0
LINE
  5
145
  8
PATTERN_FILL
  6
CONTINUOUS
 62
     7
 10
7.955594995285196
 20
-47.99916418908529
 30
0.0
 11
13.13860184684131
 21
-42.81615733752921
 31
0.0
  0
LINE
  5
146
  8
PATTERN_FILL
  6
CONTINUOUS
 62
     7
 10
10.4555949952852
 20
-47.99916418908529
 30
0.0
 11
13.19119651724804
 21
-45.26356266712247
 31
0.0
  0
LINE
  5
147
  8
PATTERN_FILL
  6
CONTINUOUS
 62
     7
 10
12.9555949952852
 20
-47.99916418908529
 30
0.0
 11
13.24379118765478
 21
-47.71096799671574
 31
0.0
  0
LINE
  5
148
  8
PATTERN_FILL
  6
CONTINUOUS
 62
     7
 10
10.41931535599917
 20
21.53711545020091
 30
0.0
 11
11.54014790279746
 21
20.41628290340262
 31
0.0
  0
LINE
  5
149
  8
PATTERN_FILL
  6
CONTINUOUS
 62
     7
 10
7.656315537381829
 20
21.80011526881822
 30
0.0
 11
11.8399052224587
 21
17.61652558374138
 31
0.0
  0
LINE
  5
14A
  8
PATTERN_FILL
  6
CONTINUOUS
 62
     7
 10
5.156315537381943
 20
21.80011526881822
 30
0.0
 11
11.89481005408391
 21
15.06162075211623
 31
0.0
  0
LINE
  5
14B
  8
PATTERN_FILL
  6
CONTINUOUS
 62
     7
 10
2.656315537381829
 20
21.80011526881822
 30
0.0
 11
11.94971488570911
 21
12.50671592049103
 31
0.0
  0
LINE
  5
14C
  8
PATTERN_FILL
  6
CONTINUOUS
 62
     7
 10
0.6754234265297328
 20
21.28100737967041
 30
0.0
 11
12.00461971733421
 21
9.951811088865853
 31
0.0
  0
LINE
  5
14D
  8
PATTERN_FILL
  6
CONTINUOUS
 62
     7
 10
0.7129502313903231
 20
18.74348057480981
 30
0.0
 11
12.05952454895942
 21
7.396906257240659
 31
0.0
  0
LINE
  5
14E
  8
PATTERN_FILL
  6
CONTINUOUS
 62
     7
 10
0.7504770362509134
 20
16.20595376994919
 30
0.0
 11
12.11442938058462
 21
4.842001425615479
 31
0.0
  0
LINE
  5
14F
  8
PATTERN_FILL
  6
CONTINUOUS
 62
     7
 10
0.7880038411115038
 20
13.66842696508857
 30
0.0
 11
12.16933421220983
 21
2.287096593990285
 31
0.0
  0
LINE
  5
150
  8
PATTERN_FILL
  6
CONTINUOUS
 62
     7
 10
0.8255306459720941
 20
11.13090016022795
 30
0.0
 11
12.22423904383493
 21
-0.2678082376348954
 31
0.0
  0
LINE
  5
151
  8
PATTERN_FILL
  6
CONTINUOUS
 62
     7
 10
0.8630574508327982
 20
8.593373355367333
 30
0.0
 11
12.27914387546014
 21
-2.822713069260061
 31
0.0
  0
LINE
  5
152
  8
PATTERN_FILL
  6
CONTINUOUS
 62
     7
 10
-14.84368446261806
 20
21.80011526881822
 30
0.0
 11
-13.19217028016305
 21
20.14860108636313
 31
0.0
  0
LINE
  5
153
  8
PATTERN_FILL
  6
CONTINUOUS
 62
     7
 10
0.9005842556933885
 20
6.055846550506729
 30
0.0
 11
12.33404870708534
 21
-5.377617900885269
 31
0.0
  0
LINE
  5
154
  8
PATTERN_FILL
  6
CONTINUOUS
 62
     7
 10
-17.34368446261817
 20
21.80011526881822
 30
0.0
 11
-13.22860331277923
 21
17.68503411897936
 31
0.0
  0
LINE
  5
155
  8
PATTERN_FILL
  6
CONTINUOUS
 62
     7
 10
0.9381110605539789
 20
3.518319745646096
 30
0.0
 11
12.38895353871055
 21
-7.932522732510449
 31
0.0
  0
LINE
  5
156
  8
PATTERN_FILL
  6
CONTINUOUS
 62
     7
 10
-19.84368446261806
 20
21.80011526881822
 30
0.0
 11
-13.26503634539552
 21
15.2214671515956
 31
0.0
  0
LINE
  5
157
  8
PATTERN_FILL
  6
CONTINUOUS
 62
     7
 10
0.9756378654145692
 20
0.9807929407854914
 30
0.0
 11
12.44385837033576
 21
-10.48742756413563
 31
0.0
  0
LINE
  5
158
  8
PATTERN_FILL
  6
CONTINUOUS
 62
     7
 10
-22.29485278258676
 20
21.75128358878679
 30
0.0
 11
-14.686610915801
 21
14.14304172200107
 31
0.0
  0
LINE
  5
159
  8
PATTERN_FILL
  6
CONTINUOUS
 62
     7
 10
1.013164670275273
 20
-1.556733864075198
 30
0.0
 11
12.49876320196086
 21
-13.04233239576095
 31
0.0
  0
LINE
  5
15A
  8
PATTERN_FILL
  6
CONTINUOUS
 62
     7
 10
-23.82040063912962
 20
20.77683144532968
 30
0.0
 11
-13.33790241062798
 21
10.29433321682805
 31
0.0
  0
LINE
  5
15B
  8
PATTERN_FILL
  6
CONTINUOUS
 62
     7
 10
1.050691475135864
 20
-4.094260668935817
 30
0.0
 11
12.55366803358606
 21
-15.5972372273861
 31
0.0
  0
LINE
  5
15C
  8
PATTERN_FILL
  6
CONTINUOUS
 62
     7
 10
-24.31508452586149
 20
18.77151533206161
 30
0.0
 11
-13.37433544324426
 21
7.830766249444281
 31
0.0
  0
LINE
  5
15D
  8
PATTERN_FILL
  6
CONTINUOUS
 62
     7
 10
1.088218279996454
 20
-6.631787473796436
 30
0.0
 11
12.60857286521127
 21
-18.15214205901131
 31
0.0
  0
LINE
  5
15E
  8
PATTERN_FILL
  6
CONTINUOUS
 62
     7
 10
-24.36767919626823
 20
16.32411000246833
 30
0.0
 11
-13.41076847586044
 21
5.367199282060525
 31
0.0
  0
LINE
  5
15F
  8
PATTERN_FILL
  6
CONTINUOUS
 62
     7
 10
1.125745084857044
 20
-9.169314278657055
 30
0.0
 11
12.66347769683648
 21
-20.70704689063646
 31
0.0
  0
LINE
  5
160
  8
PATTERN_FILL
  6
CONTINUOUS
 62
     7
 10
-24.42027386667496
 20
13.87670467287505
 30
0.0
 11
-13.44720150847672
 21
2.903632314676756
 31
0.0
  0
LINE
  5
161
  8
PATTERN_FILL
  6
CONTINUOUS
 62
     7
 10
1.163271889717635
 20
-11.70684108351767
 30
0.0
 11
12.71838252846158
 21
-23.26195172226167
 31
0.0
  0
LINE
  5
162
  8
PATTERN_FILL
  6
CONTINUOUS
 62
     7
 10
-24.47286853708169
 20
11.42929934328178
 30
0.0
 11
-13.4836345410929
 21
0.4400653472930003
 31
0.0
  0
LINE
  5
163
  8
PATTERN_FILL
  6
CONTINUOUS
 62
     7
 10
1.200798694578225
 20
-14.24436788837829
 30
0.0
 11
12.77328736008678
 21
-25.81685655388685
 31
0.0
  0
LINE
  5
164
  8
PATTERN_FILL
  6
CONTINUOUS
 62
     7
 10
-24.52546320748843
 20
8.981894013688503
 30
0.0
 11
-13.52006757370918
 21
-2.023501620090798
 31
0.0
  0
LINE
  5
165
  8
PATTERN_FILL
  6
CONTINUOUS
 62
     7
 10
1.238325499438929
 20
-16.78189469323891
 30
0.0
 11
12.82819219171199
 21
-28.37176138551203
 31
0.0
  0
LINE
  5
166
  8
PATTERN_FILL
  6
CONTINUOUS
 62
     7
 10
-24.57805787789516
 20
6.534488684095237
 30
0.0
 11
-13.55650060632547
 21
-4.487068587474539
 31
0.0
  0
LINE
  5
167
  8
PATTERN_FILL
  6
CONTINUOUS
 62
     7
 10
1.275852304299519
 20
-19.31942149809953
 30
0.0
 11
12.8830970233372
 21
-30.92666621713721
 31
0.0
  0
LINE
  5
168
  8
PATTERN_FILL
  6
CONTINUOUS
 62
     7
 10
-24.6306525483019
 20
4.087083354501971
 30
0.0
 11
-13.59293363894164
 21
-6.950635554858309
 31
0.0
  0
LINE
  5
169
  8
PATTERN_FILL
  6
CONTINUOUS
 62
     7
 10
1.31337910916011
 20
-21.85694830296015
 30
0.0
 11
12.93800185496241
 21
-33.48157104876239
 31
0.0
  0
LINE
  5
16A
  8
PATTERN_FILL
  6
CONTINUOUS
 62
     7
 10
-24.68324721870863
 20
1.639678024908719
 30
0.0
 11
-13.62936667155793
 21
-9.41420252224205
 31
0.0
  0
LINE
  5
16B
  8
PATTERN_FILL
  6
CONTINUOUS
 62
     7
 10
1.3509059140207
 20
-24.39447510782074
 30
0.0
 11
12.9929066865875
 21
-36.0364758803876
 31
0.0
  0
LINE
  5
16C
  8
PATTERN_FILL
  6
CONTINUOUS
 62
     7
 10
-24.73584188911536
 20
-0.8077273046845619
 30
0.0
 11
-13.66579970417411
 21
-11.87776948962582
 31
0.0
  0
LINE
  5
16D
  8
PATTERN_FILL
  6
CONTINUOUS
 62
     7
 10
1.388432718881404
 20
-26.93200191268136
 30
0.0
 11
13.04781151821271
 21
-38.59138071201278
 31
0.0
  0
LINE
  5
16E
  8
PATTERN_FILL
  6
CONTINUOUS
 62
     7
 10
-24.7884365595221
 20
-3.255132634277828
 30
0.0
 11
-13.70223273679039
 21
-14.34133645700959
 31
0.0
  0
LINE
  5
16F
  8
PATTERN_FILL
  6
CONTINUOUS
 62
     7
 10
1.425959523741994
 20
-29.46952871754198
 30
0.0
 11
13.10271634983792
 21
-41.14628554363796
 31
0.0
  0
LINE
  5
170
  8
PATTERN_FILL
  6
CONTINUOUS
 62
     7
 10
-24.84103122992883
 20
-5.702537963871094
 30
0.0
 11
-13.73866576940668
 21
-16.80490342439333
 31
0.0
  0
LINE
  5
171
  8
PATTERN_FILL
  6
CONTINUOUS
 62
     7
 10
1.463486328602585
 20
-32.00705552240262
 30
0.0
 11
13.15762118146313
 21
-43.70119037526317
 31
0.0
  0
LINE
  5
172
  8
PATTERN_FILL
  6
CONTINUOUS
 62
     7
 10
-24.89362590033556
 20
-8.14994329346436
 30
0.0
 11
-13.77509880202285
 21
-19.2684703917771
 31
0.0
  0
LINE
  5
173
  8
PATTERN_FILL
  6
CONTINUOUS
 62
     7
 10
1.501013133463175
 20
-34.54458232726324
 30
0.0
 11
13.21252601308822
 21
-46.25609520688832
 31
0.0
  0
LINE
  5
174
  8
PATTERN_FILL
  6
CONTINUOUS
 62
     7
 10
-24.9462205707423
 20
-10.59734862305763
 30
0.0
 11
-13.81153183463914
 21
-21.73203735916087
 31
0.0
  0
LINE
  5
175
  8
PATTERN_FILL
  6
CONTINUOUS
 62
     7
 10
1.538539938323765
 20
-37.08210913212386
 30
0.0
 11
12.4555949952852
 21
-47.99916418908529
 31
0.0
  0
LINE
  5
176
  8
PATTERN_FILL
  6
CONTINUOUS
 62
     7
 10
-24.99881524114903
 20
-13.04475395265092
 30
0.0
 11
-13.84796486725531
 21
-24.19560432654464
 31
0.0
  0
LINE
  5
177
  8
PATTERN_FILL
  6
CONTINUOUS
 62
     7
 10
1.576066743184469
 20
-39.61963593698448
 30
0.0
 11
9.955594995285196
 21
-47.99916418908529
 31
0.0
  0
LINE
  5
178
  8
PATTERN_FILL
  6
CONTINUOUS
 62
     7
 10
-25.05140991155577
 20
-15.49215928224419
 30
0.0
 11
-13.8843978998716
 21
-26.65917129392841
 31
0.0
  0
LINE
  5
179
  8
PATTERN_FILL
  6
CONTINUOUS
 62
     7
 10
1.61359354804506
 20
-42.1571627418451
 30
0.0
 11
7.455594995285196
 21
-47.99916418908529
 31
0.0
  0
LINE
  5
17A
  8
PATTERN_FILL
  6
CONTINUOUS
 62
     7
 10
-25.1040045819625
 20
-17.93956461183745
 30
0.0
 11
-13.92083093248777
 21
-29.12273826131218
 31
0.0
  0
LINE
  5
17B
  8
PATTERN_FILL
  6
CONTINUOUS
 62
     7
 10
1.65112035290565
 20
-44.69468954670572
 30
0.0
 11
4.955594995285196
 21
-47.99916418908529
 31
0.0
  0
LINE
  5
17C
  8
PATTERN_FILL
  6
CONTINUOUS
 62
     7
 10
-25.15659925236923
 20
-20.38696994143072
 30
0.0
 11
-13.95726396510406
 21
-31.58630522869592
 31
0.0
  0
LINE
  5
17D
  8
PATTERN_FILL
  6
CONTINUOUS
 62
     7
 10
1.688647157766241
 20
-47.23221635156634
 30
0.0
 11
2.455594995285196
 21
-47.99916418908529
 31
0.0
  0
LINE
  5
17E
  8
PATTERN_FILL
  6
CONTINUOUS
 62
     7
 10
-25.20919392277597
 20
-22.83437527102399
 30
0.0
 11
-13.99369699772024
 21
-34.04987219607972
 31
0.0
  0
LINE
  5
17F
  8
PATTERN_FILL
  6
CONTINUOUS
 62
     7
 10
-25.2617885931827
 20
-25.28178060061734
 30
0.0
 11
-14.03013003033652
 21
-36.51343916346352
 31
0.0
  0
LINE
  5
180
  8
PATTERN_FILL
  6
CONTINUOUS
 62
     7
 10
-25.31438326358943
 20
-27.72918593021066
 30
0.0
 11
-14.06656306295281
 21
-38.97700613084731
 31
0.0
  0
LINE
  5
181
  8
PATTERN_FILL
  6
CONTINUOUS
 62
     7
 10
-25.36697793399617
 20
-30.17659125980393
 30
0.0
 11
-14.10299609556898
 21
-41.44057309823106
 31
0.0
  0
LINE
  5
182
  8
PATTERN_FILL
  6
CONTINUOUS
 62
     7
 10
-25.4195726044029
 20
-32.62399658939719
 30
0.0
 11
-14.13942912818527
 21
-43.90414006561483
 31
0.0
  0
LINE
  5
183
  8
PATTERN_FILL
  6
CONTINUOUS
 62
     7
 10
-25.47216727480964
 20
-35.07140191899046
 30
0.0
 11
-14.17586216080144
 21
-46.3677070329986
 31
0.0
  0
LINE
  5
184
  8
PATTERN_FILL
  6
CONTINUOUS
 62
     7
 10
-25.52476194521637
 20
-37.51880724858373
 30
0.0
 11
-15.0444050047148
 21
-47.99916418908529
 31
0.0
  0
LINE
  5
185
  8
PATTERN_FILL
  6
CONTINUOUS
 62
     7
 10
-25.5773566156231
 20
-39.96621257817699
 30
0.0
 11
-17.5444050047148
 21
-47.99916418908529
 31
0.0
  0
LINE
  5
186
  8
PATTERN_FILL
  6
CONTINUOUS
 62
     7
 10
-25.62995128602984
 20
-42.41361790777026
 30
0.0
 11
-20.0444050047148
 21
-47.99916418908529
 31
0.0
  0
LINE
  5
187
  8
PATTERN_FILL
  6
CONTINUOUS
 62
     7
 10
-25.68254595643657
 20
-44.86102323736353
 30
0.0
 11
-22.5444050047148
 21
-47.99916418908529
 31
0.0
  0
LINE
  5
188
  8
PATTERN_FILL
  6
CONTINUOUS
 62
     7
 10
-25.7351406268433
 20
-47.30842856695679
 30
0.0
 11
-25.0444050047148
 21
-47.99916418908529
 31
0.0
  0
LINE
  5
189
  8
PATTERN_FILL
  6
CONTINUOUS
 62
     7
 10
-24.5444050047148
 20
-47.99916418908529
 30
0.0
 11
-14.04471219693846
 21
-37.49947138130895
 31
0.0
  0
LINE
  5
18A
  8
PATTERN_FILL
  6
CONTINUOUS
 62
     7
 10
1.31752419397435
 20
-22.13723499039611
 30
0.0
 11
12.45487113155377
 21
-10.99988805281663
 31
0.0
  0
LINE
  5
18B
  8
PATTERN_FILL
  6
CONTINUOUS
 62
     7
 10
100.7454595619784
 20
19.790700377608
 30
0.0
 11
102.7062671697955
 21
21.75150798542515
 31
0.0
  0
LINE
  5
18C
  8
PATTERN_FILL
  6
CONTINUOUS
 62
     7
 10
100.6510642506621
 20
17.1963050662917
 30
0.0
 11
105.2548744531886
 21
21.80011526881822
 31
0.0
  0
LINE
  5
18D
  8
PATTERN_FILL
  6
CONTINUOUS
 62
     7
 10
100.5961594190369
 20
14.64140023466652
 30
0.0
 11
107.7548744531886
 21
21.8001152688182
 31
0.0
  0
LINE
  5
18E
  8
PATTERN_FILL
  6
CONTINUOUS
 62
     7
 10
100.5412545874117
 20
12.08649540304135
 30
0.0
 11
110.2548744531886
 21
21.8001152688182
 31
0.0
  0
LINE
  5
18F
  8
PATTERN_FILL
  6
CONTINUOUS
 62
     7
 10
100.4863497557865
 20
9.53159057141616
 30
0.0
 11
111.8184043148557
 21
20.86364513048531
 31
0.0
  0
LINE
  5
190
  8
PATTERN_FILL
  6
CONTINUOUS
 62
     7
 10
100.4314449241613
 20
6.97668573979098
 30
0.0
 11
111.7808775099951
 21
18.32611832562471
 31
0.0
  0
LINE
  5
191
  8
PATTERN_FILL
  6
CONTINUOUS
 62
     7
 10
100.3765400925362
 20
4.4217809081658
 30
0.0
 11
111.7433507051344
 21
15.7885915207641
 31
0.0
  0
LINE
  5
192
  8
PATTERN_FILL
  6
CONTINUOUS
 62
     7
 10
100.321635260911
 20
1.866876076540592
 30
0.0
 11
111.7058239002738
 21
13.25106471590345
 31
0.0
  0
LINE
  5
193
  8
PATTERN_FILL
  6
CONTINUOUS
 62
     7
 10
100.2667304292858
 20
-0.6880287550845878
 30
0.0
 11
111.6682970954132
 21
10.71353791104283
 31
0.0
  0
LINE
  5
194
  8
PATTERN_FILL
  6
CONTINUOUS
 62
     7
 10
100.2118255976607
 20
-3.242933586709768
 30
0.0
 11
111.6307702905526
 21
8.17601110618223
 31
0.0
  0
LINE
  5
195
  8
PATTERN_FILL
  6
CONTINUOUS
 62
     7
 10
100.1569207660355
 20
-5.797838418334948
 30
0.0
 11
111.593243485692
 21
5.638484301321611
 31
0.0
  0
LINE
  5
196
  8
PATTERN_FILL
  6
CONTINUOUS
 62
     7
 10
125.6981626394983
 20
19.74340345512789
 30
0.0
 11
127.7548744531886
 21
21.80011526881822
 31
0.0
  0
LINE
  5
197
  8
PATTERN_FILL
  6
CONTINUOUS
 62
     7
 10
100.1020159344102
 20
-8.352743249960128
 30
0.0
 11
111.5557166808314
 21
3.100957496461021
 31
0.0
  0
LINE
  5
198
  8
PATTERN_FILL
  6
CONTINUOUS
 62
     7
 10
125.7345956721144
 20
17.27983648774415
 30
0.0
 11
130.2548744531886
 21
21.80011526881822
 31
0.0
  0
LINE
  5
199
  8
PATTERN_FILL
  6
CONTINUOUS
 62
     7
 10
100.047111102785
 20
-10.90764808158534
 30
0.0
 11
111.5181898759707
 21
0.563430691600388
 31
0.0
  0
LINE
  5
19A
  8
PATTERN_FILL
  6
CONTINUOUS
 62
     7
 10
125.7710287047307
 20
14.81626952036038
 30
0.0
 11
132.7548744531886
 21
21.80011526881822
 31
0.0
  0
LINE
  5
19B
  8
PATTERN_FILL
  6
CONTINUOUS
 62
     7
 10
99.99220627115983
 20
-13.46255291321052
 30
0.0
 11
111.4806630711101
 21
-1.974096113260231
 31
0.0
  0
LINE
  5
19C
  8
PATTERN_FILL
  6
CONTINUOUS
 62
     7
 10
125.807461737347
 20
12.35270255297664
 30
0.0
 11
135.1182601149005
 21
21.6635009305302
 31
0.0
  0
LINE
  5
19D
  8
PATTERN_FILL
  6
CONTINUOUS
 62
     7
 10
99.93730143953462
 20
-16.01745774483581
 30
0.0
 11
111.4431362662496
 21
-4.511622918120935
 31
0.0
  0
LINE
  5
19E
  8
PATTERN_FILL
  6
CONTINUOUS
 62
     7
 10
125.8438947699632
 20
9.889135585592811
 30
0.0
 11
136.4815251274807
 21
20.52676594311035
 31
0.0
  0
LINE
  5
19F
  8
PATTERN_FILL
  6
CONTINUOUS
 62
     7
 10
99.88239660790953
 20
-18.57236257646099
 30
0.0
 11
111.4056094613888
 21
-7.049149722981525
 31
0.0
  0
LINE
  5
1A0
  8
PATTERN_FILL
  6
CONTINUOUS
 62
     7
 10
125.8803278025795
 20
7.42556861820907
 30
0.0
 11
136.823735086673
 21
18.36897590230264
 31
0.0
  0
LINE
  5
1A1
  8
PATTERN_FILL
  6
CONTINUOUS
 62
     7
 10
99.82749177628432
 20
-21.12726740808617
 30
0.0
 11
111.3680826565283
 21
-9.586676527842172
 31
0.0
  0
LINE
  5
1A2
  8
PATTERN_FILL
  6
CONTINUOUS
 62
     7
 10
125.9167608351956
 20
4.962001650825286
 30
0.0
 11
136.8763297570797
 21
15.92157057270936
 31
0.0
  0
LINE
  5
1A3
  8
PATTERN_FILL
  6
CONTINUOUS
 62
     7
 10
99.77258694465911
 20
-23.68217223971135
 30
0.0
 11
111.3305558516677
 21
-12.12420333270276
 31
0.0
  0
LINE
  5
1A4
  8
PATTERN_FILL
  6
CONTINUOUS
 62
     7
 10
125.9531938678119
 20
2.498434683441531
 30
0.0
 11
136.9289244274864
 21
13.47416524311609
 31
0.0
  0
LINE
  5
1A5
  8
PATTERN_FILL
  6
CONTINUOUS
 62
     7
 10
99.71768211303402
 20
-26.23707707133653
 30
0.0
 11
111.2930290468071
 21
-14.66173013756341
 31
0.0
  0
LINE
  5
1A6
  8
PATTERN_FILL
  6
CONTINUOUS
 62
     7
 10
125.9896269004282
 20
0.0348677160577608
 30
0.0
 11
136.9815190978932
 21
11.02675991352282
 31
0.0
  0
LINE
  5
1A7
  8
PATTERN_FILL
  6
CONTINUOUS
 62
     7
 10
99.66277728140881
 20
-28.79198190296174
 30
0.0
 11
111.2555022419465
 21
-17.199256942424
 31
0.0
  0
LINE
  5
1A8
  8
PATTERN_FILL
  6
CONTINUOUS
 62
     7
 10
126.0260599330444
 20
-2.42869925132598
 30
0.0
 11
137.0341137682999
 21
8.579354583929543
 31
0.0
  0
LINE
  5
1A9
  8
PATTERN_FILL
  6
CONTINUOUS
 62
     7
 10
99.6078724497836
 20
-31.34688673458689
 30
0.0
 11
111.2179754370859
 21
-19.73678374728462
 31
0.0
  0
LINE
  5
1AA
  8
PATTERN_FILL
  6
CONTINUOUS
 62
     7
 10
126.0624929656607
 20
-4.89226621870975
 30
0.0
 11
137.0867084387066
 21
6.131949254336263
 31
0.0
  0
LINE
  5
1AB
  8
PATTERN_FILL
  6
CONTINUOUS
 62
     7
 10
99.55296761815839
 20
-33.9017915662121
 30
0.0
 11
111.1804486322252
 21
-22.27431055214524
 31
0.0
  0
LINE
  5
1AC
  8
PATTERN_FILL
  6
CONTINUOUS
 62
     7
 10
126.0989259982769
 20
-7.355833186093548
 30
0.0
 11
137.1393031091134
 21
3.684543924742982
 31
0.0
  0
LINE
  5
1AD
  8
PATTERN_FILL
  6
CONTINUOUS
 62
     7
 10
99.49806278653318
 20
-36.45669639783728
 30
0.0
 11
111.1429218273646
 21
-24.81183735700586
 31
0.0
  0
LINE
  5
1AE
  8
PATTERN_FILL
  6
CONTINUOUS
 62
     7
 10
126.1353590308931
 20
-9.81940015347729
 30
0.0
 11
137.1918977795201
 21
1.23713859514973
 31
0.0
  0
LINE
  5
1AF
  8
PATTERN_FILL
  6
CONTINUOUS
 62
     7
 10
99.44315795490797
 20
-39.01160122946246
 30
0.0
 11
111.105395022504
 21
-27.34936416186648
 31
0.0
  0
LINE
  5
1B0
  8
PATTERN_FILL
  6
CONTINUOUS
 62
     7
 10
126.1717920635094
 20
-12.28296712086106
 30
0.0
 11
137.2444924499268
 21
-1.210266734443536
 31
0.0
  0
LINE
  5
1B1
  8
PATTERN_FILL
  6
CONTINUOUS
 62
     7
 10
99.38825312328288
 20
-41.56650606108764
 30
0.0
 11
111.0678682176434
 21
-29.88689096672709
 31
0.0
  0
LINE
  5
1B2
  8
PATTERN_FILL
  6
CONTINUOUS
 62
     7
 10
126.2082250961256
 20
-14.74653408824483
 30
0.0
 11
137.2970871203336
 21
-3.657672064036802
 31
0.0
  0
LINE
  5
1B3
  8
PATTERN_FILL
  6
CONTINUOUS
 62
     7
 10
99.33334829165767
 20
-44.12141089271282
 30
0.0
 11
111.0303414127827
 21
-32.42441777158771
 31
0.0
  0
LINE
  5
1B4
  8
PATTERN_FILL
  6
CONTINUOUS
 62
     7
 10
126.2446581287418
 20
-17.21010105562857
 30
0.0
 11
137.3496817907403
 21
-6.105077393630069
 31
0.0
  0
LINE
  5
1B5
  8
PATTERN_FILL
  6
CONTINUOUS
 62
     7
 10
99.27844346003246
 20
-46.67631572433802
 30
0.0
 11
110.9928146079221
 21
-34.96194457644833
 31
0.0
  0
LINE
  5
1B6
  8
PATTERN_FILL
  6
CONTINUOUS
 62
     7
 10
126.2810911613581
 20
-19.67366802301234
 30
0.0
 11
137.402276461147
 21
-8.552482723223335
 31
0.0
  0
LINE
  5
1B7
  8
PATTERN_FILL
  6
CONTINUOUS
 62
     7
 10
102.9555949952852
 20
-47.99916418908529
 30
0.0
 11
110.9177609982009
 21
-40.03699818616957
 31
0.0
  0
LINE
  5
1B8
  8
PATTERN_FILL
  6
CONTINUOUS
 62
     7
 10
126.3539572265905
 20
-24.60080195777988
 30
0.0
 11
137.5074658019605
 21
-13.4472933824099
 31
0.0
  0
LINE
  5
1B9
  8
PATTERN_FILL
  6
CONTINUOUS
 62
     7
 10
105.4555949952852
 20
-47.99916418908529
 30
0.0
 11
110.8802341933404
 21
-42.57452499103019
 31
0.0
  0
LINE
  5
1BA
  8
PATTERN_FILL
  6
CONTINUOUS
 62
     7
 10
126.3903902592068
 20
-27.06436892516362
 30
0.0
 11
137.5600604723672
 21
-15.89469871200313
 31
0.0
  0
LINE
  5
1BB
  8
PATTERN_FILL
  6
CONTINUOUS
 62
     7
 10
107.9555949952852
 20
-47.99916418908529
 30
0.0
 11
110.8427073884797
 21
-45.11205179589084
 31
0.0
  0
LINE
  5
1BC
  8
PATTERN_FILL
  6
CONTINUOUS
 62
     7
 10
126.426823291823
 20
-29.52793589254739
 30
0.0
 11
137.612655142774
 21
-18.3421040415964
 31
0.0
  0
LINE
  5
1BD
  8
PATTERN_FILL
  6
CONTINUOUS
 62
     7
 10
110.4555949952852
 20
-47.99916418908529
 30
0.0
 11
110.8051805836191
 21
-47.64957860075145
 31
0.0
  0
LINE
  5
1BE
  8
PATTERN_FILL
  6
CONTINUOUS
 62
     7
 10
126.4632563244393
 20
-31.99150285993116
 30
0.0
 11
137.6652498131807
 21
-20.78950937118969
 31
0.0
  0
LINE
  5
1BF
  8
PATTERN_FILL
  6
CONTINUOUS
 62
     7
 10
126.4996893570556
 20
-34.45506982731493
 30
0.0
 11
137.7178444835874
 21
-23.23691470078296
 31
0.0
  0
LINE
  5
1C0
  8
PATTERN_FILL
  6
CONTINUOUS
 62
     7
 10
126.5361223896717
 20
-36.9186367946987
 30
0.0
 11
137.7704391539942
 21
-25.68432003037623
 31
0.0
  0
LINE
  5
1C1
  8
PATTERN_FILL
  6
CONTINUOUS
 62
     7
 10
126.572555422288
 20
-39.38220376208253
 30
0.0
 11
137.8230338244009
 21
-28.13172535996958
 31
0.0
  0
LINE
  5
1C2
  8
PATTERN_FILL
  6
CONTINUOUS
 62
     7
 10
126.6089884549042
 20
-41.8457707294663
 30
0.0
 11
137.8756284948076
 21
-30.57913068956287
 31
0.0
  0
LINE
  5
1C3
  8
PATTERN_FILL
  6
CONTINUOUS
 62
     7
 10
126.6454214875205
 20
-44.30933769685004
 30
0.0
 11
137.9282231652144
 21
-33.02653601915614
 31
0.0
  0
LINE
  5
1C4
  8
PATTERN_FILL
  6
CONTINUOUS
 62
     7
 10
126.6818545201368
 20
-46.77290466423381
 30
0.0
 11
137.9808178356211
 21
-35.47394134874941
 31
0.0
  0
LINE
  5
1C5
  8
PATTERN_FILL
  6
CONTINUOUS
 62
     7
 10
127.9555949952852
 20
-47.99916418908529
 30
0.0
 11
138.0334125060278
 21
-37.92134667834267
 31
0.0
  0
LINE
  5
1C6
  8
PATTERN_FILL
  6
CONTINUOUS
 62
     7
 10
130.4555949952852
 20
-47.99916418908529
 30
0.0
 11
138.0860071764346
 21
-40.36875200793594
 31
0.0
  0
LINE
  5
1C7
  8
PATTERN_FILL
  6
CONTINUOUS
 62
     7
 10
132.9555949952852
 20
-47.99916418908529
 30
0.0
 11
138.1386018468413
 21
-42.81615733752921
 31
0.0
  0
LINE
  5
1C8
  8
PATTERN_FILL
  6
CONTINUOUS
 62
     7
 10
135.4555949952852
 20
-47.99916418908529
 30
0.0
 11
138.191196517248
 21
-45.26356266712247
 31
0.0
  0
LINE
  5
1C9
  8
PATTERN_FILL
  6
CONTINUOUS
 62
     7
 10
137.9555949952852
 20
-47.99916418908529
 30
0.0
 11
138.2437911876548
 21
-47.71096799671574
 31
0.0
  0
LINE
  5
1CA
  8
PATTERN_FILL
  6
CONTINUOUS
 62
     7
 10
135.4193153559992
 20
21.53711545020091
 30
0.0
 11
136.5401479027975
 21
20.41628290340262
 31
0.0
  0
LINE
  5
1CB
  8
PATTERN_FILL
  6
CONTINUOUS
 62
     7
 10
132.6563155373819
 20
21.80011526881822
 30
0.0
 11
136.8399052224587
 21
17.61652558374138
 31
0.0
  0
LINE
  5
1CC
  8
PATTERN_FILL
  6
CONTINUOUS
 62
     7
 10
130.1563155373819
 20
21.80011526881822
 30
0.0
 11
136.8948100540839
 21
15.06162075211623
 31
0.0
  0
LINE
  5
1CD
  8
PATTERN_FILL
  6
CONTINUOUS
 62
     7
 10
127.6563155373819
 20
21.80011526881822
 30
0.0
 11
136.949714885709
 21
12.50671592049103
 31
0.0
  0
LINE
  5
1CE
  8
PATTERN_FILL
  6
CONTINUOUS
 62
     7
 10
125.6754234265297
 20
21.28100737967041
 30
0.0
 11
137.0046197173342
 21
9.951811088865853
 31
0.0
  0
LINE
  5
1CF
  8
PATTERN_FILL
  6
CONTINUOUS
 62
     7
 10
125.7129502313903
 20
18.74348057480981
 30
0.0
 11
137.0595245489594
 21
7.396906257240659
 31
0.0
  0
LINE
  5
1D0
  8
PATTERN_FILL
  6
CONTINUOUS
 62
     7
 10
125.7504770362509
 20
16.20595376994919
 30
0.0
 11
137.1144293805846
 21
4.842001425615479
 31
0.0
  0
LINE
  5
1D1
  8
PATTERN_FILL
  6
CONTINUOUS
 62
     7
 10
125.7880038411115
 20
13.66842696508857
 30
0.0
 11
137.1693342122098
 21
2.287096593990285
 31
0.0
  0
LINE
  5
1D2
  8
PATTERN_FILL
  6
CONTINUOUS
 62
     7
 10
125.8255306459721
 20
11.13090016022795
 30
0.0
 11
137.224239043835
 21
-0.2678082376348954
 31
0.0
  0
LINE
  5
1D3
  8
PATTERN_FILL
  6
CONTINUOUS
 62
     7
 10
125.8630574508327
 20
8.593373355367333
 30
0.0
 11
137.2791438754601
 21
-2.822713069260061
 31
0.0
  0
LINE
  5
1D4
  8
PATTERN_FILL
  6
CONTINUOUS
 62
     7
 10
110.1563155373819
 20
21.80011526881822
 30
0.0
 11
111.8078297198369
 21
20.14860108636313
 31
0.0
  0
LINE
  5
1D5
  8
PATTERN_FILL
  6
CONTINUOUS
 62
     7
 10
125.9005842556934
 20
6.055846550506729
 30
0.0
 11
137.3340487070853
 21
-5.377617900885269
 31
0.0
  0
LINE
  5
1D6
  8
PATTERN_FILL
  6
CONTINUOUS
 62
     7
 10
107.6563155373819
 20
21.80011526881822
 30
0.0
 11
111.7713966872207
 21
17.68503411897936
 31
0.0
  0
LINE
  5
1D7
  8
PATTERN_FILL
  6
CONTINUOUS
 62
     7
 10
125.938111060554
 20
3.518319745646096
 30
0.0
 11
137.3889535387106
 21
-7.932522732510449
 31
0.0
  0
LINE
  5
1D8
  8
PATTERN_FILL
  6
CONTINUOUS
 62
     7
 10
105.1563155373819
 20
21.80011526881822
 30
0.0
 11
111.7349636546045
 21
15.2214671515956
 31
0.0
  0
LINE
  5
1D9
  8
PATTERN_FILL
  6
CONTINUOUS
 62
     7
 10
125.9756378654146
 20
0.9807929407854914
 30
0.0
 11
137.4438583703356
 21
-10.48742756413563
 31
0.0
  0
LINE
  5
1DA
  8
PATTERN_FILL
  6
CONTINUOUS
 62
     7
 10
102.7051472174132
 20
21.75128358878679
 30
0.0
 11
110.313389084199
 21
14.14304172200107
 31
0.0
  0
LINE
  5
1DB
  8
PATTERN_FILL
  6
CONTINUOUS
 62
     7
 10
126.0131646702753
 20
-1.556733864075198
 30
0.0
 11
137.4987632019609
 21
-13.04233239576095
 31
0.0
  0
LINE
  5
1DC
  8
PATTERN_FILL
  6
CONTINUOUS
 62
     7
 10
101.1795993608704
 20
20.77683144532968
 30
0.0
 11
111.662097589372
 21
10.29433321682805
 31
0.0
  0
LINE
  5
1DD
  8
PATTERN_FILL
  6
CONTINUOUS
 62
     7
 10
126.0506914751359
 20
-4.094260668935817
 30
0.0
 11
137.5536680335861
 21
-15.5972372273861
 31
0.0
  0
LINE
  5
1DE
  8
PATTERN_FILL
  6
CONTINUOUS
 62
     7
 10
100.6849154741385
 20
18.77151533206161
 30
0.0
 11
111.6256645567557
 21
7.830766249444281
 31
0.0
  0
LINE
  5
1DF
  8
PATTERN_FILL
  6
CONTINUOUS
 62
     7
 10
126.0882182799965
 20
-6.631787473796436
 30
0.0
 11
137.6085728652113
 21
-18.15214205901131
 31
0.0
  0
LINE
  5
1E0
  8
PATTERN_FILL
  6
CONTINUOUS
 62
     7
 10
100.6323208037318
 20
16.32411000246833
 30
0.0
 11
111.5892315241396
 21
5.367199282060525
 31
0.0
  0
LINE
  5
1E1
  8
PATTERN_FILL
  6
CONTINUOUS
 62
     7
 10
126.125745084857
 20
-9.169314278657055
 30
0.0
 11
137.6634776968365
 21
-20.70704689063646
 31
0.0
  0
LINE
  5
1E2
  8
PATTERN_FILL
  6
CONTINUOUS
 62
     7
 10
100.579726133325
 20
13.87670467287505
 30
0.0
 11
111.5527984915233
 21
2.903632314676756
 31
0.0
  0
LINE
  5
1E3
  8
PATTERN_FILL
  6
CONTINUOUS
 62
     7
 10
126.1632718897176
 20
-11.70684108351767
 30
0.0
 11
137.7183825284617
 21
-23.26195172226167
 31
0.0
  0
LINE
  5
1E4
  8
PATTERN_FILL
  6
CONTINUOUS
 62
     7
 10
100.5271314629183
 20
11.42929934328178
 30
0.0
 11
111.5163654589071
 21
0.4400653472930003
 31
0.0
  0
LINE
  5
1E5
  8
PATTERN_FILL
  6
CONTINUOUS
 62
     7
 10
126.2007986945782
 20
-14.24436788837829
 30
0.0
 11
137.7732873600868
 21
-25.81685655388685
 31
0.0
  0
LINE
  5
1E6
  8
PATTERN_FILL
  6
CONTINUOUS
 62
     7
 10
100.4745367925116
 20
8.981894013688503
 30
0.0
 11
111.4799324262908
 21
-2.023501620090798
 31
0.0
  0
LINE
  5
1E7
  8
PATTERN_FILL
  6
CONTINUOUS
 62
     7
 10
126.2383254994389
 20
-16.78189469323891
 30
0.0
 11
137.828192191712
 21
-28.37176138551203
 31
0.0
  0
LINE
  5
1E8
  8
PATTERN_FILL
  6
CONTINUOUS
 62
     7
 10
100.4219421221048
 20
6.534488684095237
 30
0.0
 11
111.4434993936745
 21
-4.487068587474539
 31
0.0
  0
LINE
  5
1E9
  8
PATTERN_FILL
  6
CONTINUOUS
 62
     7
 10
126.2758523042995
 20
-19.31942149809953
 30
0.0
 11
137.8830970233372
 21
-30.92666621713721
 31
0.0
  0
LINE
  5
1EA
  8
PATTERN_FILL
  6
CONTINUOUS
 62
     7
 10
100.3693474516981
 20
4.087083354501971
 30
0.0
 11
111.4070663610584
 21
-6.950635554858309
 31
0.0
  0
LINE
  5
1EB
  8
PATTERN_FILL
  6
CONTINUOUS
 62
     7
 10
126.3133791091601
 20
-21.85694830296015
 30
0.0
 11
137.9380018549623
 21
-33.48157104876239
 31
0.0
  0
LINE
  5
1EC
  8
PATTERN_FILL
  6
CONTINUOUS
 62
     7
 10
100.3167527812914
 20
1.639678024908719
 30
0.0
 11
111.3706333284421
 21
-9.41420252224205
 31
0.0
  0
LINE
  5
1ED
  8
PATTERN_FILL
  6
CONTINUOUS
 62
     7
 10
126.3509059140207
 20
-24.39447510782074
 30
0.0
 11
137.9929066865875
 21
-36.0364758803876
 31
0.0
  0
LINE
  5
1EE
  8
PATTERN_FILL
  6
CONTINUOUS
 62
     7
 10
100.2641581108846
 20
-0.8077273046845619
 30
0.0
 11
111.3342002958259
 21
-11.87776948962582
 31
0.0
  0
LINE
  5
1EF
  8
PATTERN_FILL
  6
CONTINUOUS
 62
     7
 10
126.3884327188814
 20
-26.93200191268136
 30
0.0
 11
138.0478115182127
 21
-38.59138071201278
 31
0.0
  0
LINE
  5
1F0
  8
PATTERN_FILL
  6
CONTINUOUS
 62
     7
 10
100.2115634404779
 20
-3.255132634277828
 30
0.0
 11
111.2977672632096
 21
-14.34133645700959
 31
0.0
  0
LINE
  5
1F1
  8
PATTERN_FILL
  6
CONTINUOUS
 62
     7
 10
126.425959523742
 20
-29.46952871754198
 30
0.0
 11
138.1027163498379
 21
-41.14628554363796
 31
0.0
  0
LINE
  5
1F2
  8
PATTERN_FILL
  6
CONTINUOUS
 62
     7
 10
100.1589687700712
 20
-5.702537963871094
 30
0.0
 11
111.2613342305933
 21
-16.80490342439333
 31
0.0
  0
LINE
  5
1F3
  8
PATTERN_FILL
  6
CONTINUOUS
 62
     7
 10
126.4634863286026
 20
-32.00705552240262
 30
0.0
 11
138.1576211814631
 21
-43.70119037526317
 31
0.0
  0
LINE
  5
1F4
  8
PATTERN_FILL
  6
CONTINUOUS
 62
     7
 10
100.1063740996644
 20
-8.14994329346436
 30
0.0
 11
111.2249011979771
 21
-19.2684703917771
 31
0.0
  0
LINE
  5
1F5
  8
PATTERN_FILL
  6
CONTINUOUS
 62
     7
 10
126.5010131334632
 20
-34.54458232726324
 30
0.0
 11
138.2125260130883
 21
-46.25609520688832
 31
0.0
  0
LINE
  5
1F6
  8
PATTERN_FILL
  6
CONTINUOUS
 62
     7
 10
100.0537794292577
 20
-10.59734862305763
 30
0.0
 11
111.188468165361
 21
-21.73203735916087
 31
0.0
  0
LINE
  5
1F7
  8
PATTERN_FILL
  6
CONTINUOUS
 62
     7
 10
126.5385399383238
 20
-37.08210913212386
 30
0.0
 11
137.4555949952852
 21
-47.99916418908529
 31
0.0
  0
LINE
  5
1F8
  8
PATTERN_FILL
  6
CONTINUOUS
 62
     7
 10
100.001184758851
 20
-13.04475395265092
 30
0.0
 11
111.1520351327447
 21
-24.19560432654464
 31
0.0
  0
LINE
  5
1F9
  8
PATTERN_FILL
  6
CONTINUOUS
 62
     7
 10
126.5760667431845
 20
-39.61963593698448
 30
0.0
 11
134.9555949952852
 21
-47.99916418908529
 31
0.0
  0
LINE
  5
1FA
  8
PATTERN_FILL
  6
CONTINUOUS
 62
     7
 10
99.94859008844423
 20
-15.49215928224419
 30
0.0
 11
111.1156021001284
 21
-26.65917129392841
 31
0.0
  0
LINE
  5
1FB
  8
PATTERN_FILL
  6
CONTINUOUS
 62
     7
 10
126.6135935480451
 20
-42.1571627418451
 30
0.0
 11
132.4555949952852
 21
-47.99916418908529
 31
0.0
  0
LINE
  5
1FC
  8
PATTERN_FILL
  6
CONTINUOUS
 62
     7
 10
99.8959954180375
 20
-17.93956461183745
 30
0.0
 11
111.0791690675122
 21
-29.12273826131218
 31
0.0
  0
LINE
  5
1FD
  8
PATTERN_FILL
  6
CONTINUOUS
 62
     7
 10
126.6511203529057
 20
-44.69468954670572
 30
0.0
 11
129.9555949952852
 21
-47.99916418908529
 31
0.0
  0
LINE
  5
1FE
  8
PATTERN_FILL
  6
CONTINUOUS
 62
     7
 10
99.84340074763077
 20
-20.38696994143072
 30
0.0
 11
111.0427360348959
 21
-31.58630522869592
 31
0.0
  0
LINE
  5
1FF
  8
PATTERN_FILL
  6
CONTINUOUS
 62
     7
 10
126.6886471577662
 20
-47.23221635156634
 30
0.0
 11
127.4555949952852
 21
-47.99916418908529
 31
0.0
  0
LINE
  5
200
  8
PATTERN_FILL
  6
CONTINUOUS
 62
     7
 10
99.79080607722403
 20
-22.83437527102399
 30
0.0
 11
111.0063030022798
 21
-34.04987219607972
 31
0.0
  0
LINE
  5
201
  8
PATTERN_FILL
  6
CONTINUOUS
 62
     7
 10
99.7382114068173
 20
-25.28178060061734
 30
0.0
 11
110.9698699696635
 21
-36.51343916346352
 31
0.0
  0
LINE
  5
202
  8
PATTERN_FILL
  6
CONTINUOUS
 62
     7
 10
99.68561673641057
 20
-27.72918593021066
 30
0.0
 11
110.9334369370472
 21
-38.97700613084731
 31
0.0
  0
LINE
  5
203
  8
PATTERN_FILL
  6
CONTINUOUS
 62
     7
 10
99.63302206600383
 20
-30.17659125980393
 30
0.0
 11
110.897003904431
 21
-41.44057309823106
 31
0.0
  0
LINE
  5
204
  8
PATTERN_FILL
  6
CONTINUOUS
 62
     7
 10
99.5804273955971
 20
-32.62399658939719
 30
0.0
 11
110.8605708718147
 21
-43.90414006561483
 31
0.0
  0
LINE
  5
205
  8
PATTERN_FILL
  6
CONTINUOUS
 62
     7
 10
99.52783272519036
 20
-35.07140191899046
 30
0.0
 11
110.8241378391986
 21
-46.3677070329986
 31
0.0
  0
LINE
  5
206
  8
PATTERN_FILL
  6
CONTINUOUS
 62
     7
 10
99.47523805478363
 20
-37.51880724858373
 30
0.0
 11
109.9555949952852
 21
-47.99916418908529
 31
0.0
  0
LINE
  5
207
  8
PATTERN_FILL
  6
CONTINUOUS
 62
     7
 10
99.4226433843769
 20
-39.96621257817699
 30
0.0
 11
107.4555949952852
 21
-47.99916418908529
 31
0.0
  0
LINE
  5
208
  8
PATTERN_FILL
  6
CONTINUOUS
 62
     7
 10
99.37004871397016
 20
-42.41361790777026
 30
0.0
 11
104.9555949952852
 21
-47.99916418908529
 31
0.0
  0
LINE
  5
209
  8
PATTERN_FILL
  6
CONTINUOUS
 62
     7
 10
99.31745404356343
 20
-44.86102323736353
 30
0.0
 11
102.4555949952852
 21
-47.99916418908529
 31
0.0
  0
LINE
  5
20A
  8
PATTERN_FILL
  6
CONTINUOUS
 62
     7
 10
99.2648593731567
 20
-47.30842856695679
 30
0.0
 11
99.9555949952852
 21
-47.99916418908529
 31
0.0
  0
LINE
  5
20B
  8
PATTERN_FILL
  6
CONTINUOUS
 62
     7
 10
100.4555949952852
 20
-47.99916418908529
 30
0.0
 11
110.9552878030615
 21
-37.49947138130895
 31
0.0
  0
LINE
  5
20C
  8
PATTERN_FILL
  6
CONTINUOUS
 62
     7
 10
126.3175241939744
 20
-22.13723499039611
 30
0.0
 11
137.4548711315538
 21
-10.99988805281663
 31
0.0
  0
LINE
  5
20D
  8
PATTERN_FILL
  6
CONTINUOUS
 62
     7
 10
-65.30076679966578
 20
94.50959135631848
 30
0.0
 11
-61.81403101439946
 21
91.02285557105225
 31
0.0
  0
LINE
  5
20E
  8
PATTERN_FILL
  6
CONTINUOUS
 62
     7
 10
-68.10723124155868
 20
94.81605579821135
 30
0.0
 11
-61.43820247941244
 21
88.14702703606514
 31
0.0
  0
LINE
  5
20F
  8
PATTERN_FILL
  6
CONTINUOUS
 62
     7
 10
-70.86796062847657
 20
95.0767851851293
 30
0.0
 11
-61.14778522539928
 21
85.35660978205198
 31
0.0
  0
LINE
  5
210
  8
PATTERN_FILL
  6
CONTINUOUS
 62
     7
 10
-73.58529506013235
 20
95.29411961678508
 30
0.0
 11
-60.93498767239521
 21
82.64381222904791
 31
0.0
  0
LINE
  5
211
  8
PATTERN_FILL
  6
CONTINUOUS
 62
     7
 10
-76.26135695012863
 20
95.47018150678139
 30
0.0
 11
-63.29129071216551
 21
82.5001152688182
 31
0.0
  0
LINE
  5
212
  8
PATTERN_FILL
  6
CONTINUOUS
 62
     7
 10
-78.89807835786746
 20
95.60690291452025
 30
0.0
 11
-65.7912907121655
 21
82.5001152688182
 31
0.0
  0
LINE
  5
213
  8
PATTERN_FILL
  6
CONTINUOUS
 62
     7
 10
-81.49722404072259
 20
95.70604859737534
 30
0.0
 11
-68.2912907121655
 21
82.5001152688182
 31
0.0
  0
LINE
  5
214
  8
PATTERN_FILL
  6
CONTINUOUS
 62
     7
 10
-84.06041101920346
 20
95.76923557585616
 30
0.0
 11
-70.7912907121655
 21
82.5001152688182
 31
0.0
  0
LINE
  5
215
  8
PATTERN_FILL
  6
CONTINUOUS
 62
     7
 10
-86.58912527978953
 20
95.79794983644231
 30
0.0
 11
-73.2912907121655
 21
82.5001152688182
 31
0.0
  0
LINE
  5
216
  8
PATTERN_FILL
  6
CONTINUOUS
 62
     7
 10
-89.08473611189743
 20
95.79356066855019
 30
0.0
 11
-75.7912907121655
 21
82.5001152688182
 31
0.0
  0
LINE
  5
217
  8
PATTERN_FILL
  6
CONTINUOUS
 62
     7
 10
-61.79129071216551
 20
68.5001152688182
 30
0.0
 11
-60.98095113612817
 21
67.6897756927809
 31
0.0
  0
LINE
  5
218
  8
PATTERN_FILL
  6
CONTINUOUS
 62
     7
 10
-93.98161372860557
 20
95.69043828525824
 30
0.0
 11
-80.7912907121655
 21
82.5001152688182
 31
0.0
  0
LINE
  5
219
  8
PATTERN_FILL
  6
CONTINUOUS
 62
     7
 10
-66.7912907121655
 20
68.5001152688182
 30
0.0
 11
-61.40768440982197
 21
63.11650896647473
 31
0.0
  0
LINE
  5
21A
  8
PATTERN_FILL
  6
CONTINUOUS
 62
     7
 10
-96.38513895062772
 20
95.59396350728048
 30
0.0
 11
-83.2912907121655
 21
82.5001152688182
 31
0.0
  0
LINE
  5
21B
  8
PATTERN_FILL
  6
CONTINUOUS
 62
     7
 10
-69.2912907121655
 20
68.5001152688182
 30
0.0
 11
-61.68569275862058
 21
60.89451731527333
 31
0.0
  0
LINE
  5
21C
  8
PATTERN_FILL
  6
CONTINUOUS
 62
     7
 10
-98.76009511625193
 20
95.46891967290469
 30
0.0
 11
-85.7912907121655
 21
82.5001152688182
 31
0.0
  0
LINE
  5
21D
  8
PATTERN_FILL
  6
CONTINUOUS
 62
     7
 10
-71.7912907121655
 20
68.5001152688182
 30
0.0
 11
-62.00406724191998
 21
58.71289179857274
 31
0.0
  0
LINE
  5
21E
  8
PATTERN_FILL
  6
CONTINUOUS
 62
     7
 10
-101.1074242540376
 20
95.31624881069038
 30
0.0
 11
-88.2912907121655
 21
82.5001152688182
 31
0.0
  0
LINE
  5
21F
  8
PATTERN_FILL
  6
CONTINUOUS
 62
     7
 10
-74.2912907121655
 20
68.5001152688182
 30
0.0
 11
-62.67967616012822
 21
56.88850071678092
 31
0.0
  0
LINE
  5
220
  8
PATTERN_FILL
  6
CONTINUOUS
 62
     7
 10
-103.4280057598072
 20
95.13683031645994
 30
0.0
 11
-90.7912907121655
 21
82.5001152688182
 31
0.0
  0
LINE
  5
221
  8
PATTERN_FILL
  6
CONTINUOUS
 62
     7
 10
-76.7912907121655
 20
68.5001152688182
 30
0.0
 11
-64.83654558154512
 21
56.5453701381978
 31
0.0
  0
LINE
  5
222
  8
PATTERN_FILL
  6
CONTINUOUS
 62
     7
 10
-105.7226619774458
 20
94.93148653409855
 30
0.0
 11
-93.2912907121655
 21
82.5001152688182
 31
0.0
  0
LINE
  5
223
  8
PATTERN_FILL
  6
CONTINUOUS
 62
     7
 10
-79.2912907121655
 20
68.5001152688182
 30
0.0
 11
-67.08241025082657
 21
56.29123480747927
 31
0.0
  0
LINE
  5
224
  8
PATTERN_FILL
  6
CONTINUOUS
 62
     7
 10
-107.9921631493928
 20
94.70098770604557
 30
0.0
 11
-95.7912907121655
 21
82.5001152688182
 31
0.0
  0
LINE
  5
225
  8
PATTERN_FILL
  6
CONTINUOUS
 62
     7
 10
-81.7912907121655
 20
68.5001152688182
 30
0.0
 11
-69.35273056781534
 21
56.06155512446807
 31
0.0
  0
LINE
  5
226
  8
PATTERN_FILL
  6
CONTINUOUS
 62
     7
 10
-110.2372318217908
 20
94.44605637844353
 30
0.0
 11
-98.2912907121655
 21
82.5001152688182
 31
0.0
  0
LINE
  5
227
  8
PATTERN_FILL
  6
CONTINUOUS
 62
     7
 10
-84.2912907121655
 20
68.5001152688182
 30
0.0
 11
-71.6482305889665
 21
55.8570551456192
 31
0.0
  0
LINE
  5
228
  8
PATTERN_FILL
  6
CONTINUOUS
 62
     7
 10
-112.3717856689254
 20
94.0806102255782
 30
0.0
 11
-100.7912907121655
 21
82.5001152688182
 31
0.0
  0
LINE
  5
229
  8
PATTERN_FILL
  6
CONTINUOUS
 62
     7
 10
-86.7912907121655
 20
68.5001152688182
 30
0.0
 11
-73.96968220461883
 21
55.67850676127162
 31
0.0
  0
LINE
  5
22A
  8
PATTERN_FILL
  6
CONTINUOUS
 62
     7
 10
-113.0070749134088
 20
92.21589947006152
 30
0.0
 11
-103.2912907121655
 21
82.5001152688182
 31
0.0
  0
LINE
  5
22B
  8
PATTERN_FILL
  6
CONTINUOUS
 62
     7
 10
-89.2912907121655
 20
68.5001152688182
 30
0.0
 11
-76.3179095609463
 21
55.52673411759898
 31
0.0
  0
LINE
  5
22C
  8
PATTERN_FILL
  6
CONTINUOUS
 62
     7
 10
-113.6007878022283
 20
87.80961235888103
 30
0.0
 11
-108.2912907121655
 21
82.5001152688182
 31
0.0
  0
LINE
  5
22D
  8
PATTERN_FILL
  6
CONTINUOUS
 62
     7
 10
-94.2912907121655
 20
68.5001152688182
 30
0.0
 11
-81.09827981211993
 21
55.30710436877263
 31
0.0
  0
LINE
  5
22E
  8
PATTERN_FILL
  6
CONTINUOUS
 62
     7
 10
-113.8350053350476
 20
85.54382989170037
 30
0.0
 11
-110.7912907121655
 21
82.5001152688182
 31
0.0
  0
LINE
  5
22F
  8
PATTERN_FILL
  6
CONTINUOUS
 62
     7
 10
-96.7912907121655
 20
68.5001152688182
 30
0.0
 11
-83.53238027591806
 21
55.24120483257076
 31
0.0
  0
LINE
  5
230
  8
PATTERN_FILL
  6
CONTINUOUS
 62
     7
 10
-114.0245723327099
 20
83.2333968893627
 30
0.0
 11
-113.2912907121655
 21
82.5001152688182
 31
0.0
  0
LINE
  5
231
  8
PATTERN_FILL
  6
CONTINUOUS
 62
     7
 10
-99.2912907121655
 20
68.5001152688182
 30
0.0
 11
-85.99718515159157
 21
55.20600970824435
 31
0.0
  0
LINE
  5
232
  8
PATTERN_FILL
  6
CONTINUOUS
 62
     7
 10
-101.7912907121655
 20
68.5001152688182
 30
0.0
 11
-88.49386872958814
 21
55.2026932862409
 31
0.0
  0
LINE
  5
233
  8
PATTERN_FILL
  6
CONTINUOUS
 62
     7
 10
-104.2912907121655
 20
68.5001152688182
 30
0.0
 11
-91.02369923776484
 21
55.23252379441755
 31
0.0
  0
LINE
  5
234
  8
PATTERN_FILL
  6
CONTINUOUS
 62
     7
 10
-106.7912907121655
 20
68.5001152688182
 30
0.0
 11
-93.58804961292185
 21
55.29687416957455
 31
0.0
  0
LINE
  5
235
  8
PATTERN_FILL
  6
CONTINUOUS
 62
     7
 10
-109.2912907121655
 20
68.5001152688182
 30
0.0
 11
-96.18840992911794
 21
55.39723448577064
 31
0.0
  0
LINE
  5
236
  8
PATTERN_FILL
  6
CONTINUOUS
 62
     7
 10
-111.7912907121655
 20
68.5001152688182
 30
0.0
 11
-98.82640180595877
 21
55.53522636261152
 31
0.0
  0
LINE
  5
237
  8
PATTERN_FILL
  6
CONTINUOUS
 62
     7
 10
-114.0591512844662
 20
68.26797584111895
 30
0.0
 11
-101.5037951974377
 21
55.71261975409047
 31
0.0
  0
LINE
  5
238
  8
PATTERN_FILL
  6
CONTINUOUS
 62
     7
 10
-113.8439003290889
 20
65.55272488574164
 30
0.0
 11
-104.2225280615041
 21
55.93135261815692
 31
0.0
  0
LINE
  5
239
  8
PATTERN_FILL
  6
CONTINUOUS
 62
     7
 10
-113.5507938978733
 20
62.75961845452605
 30
0.0
 11
-106.9847295398895
 21
56.19355409654227
 31
0.0
  0
LINE
  5
23A
  8
PATTERN_FILL
  6
CONTINUOUS
 62
     7
 10
-113.1719936943157
 20
59.88081825096839
 30
0.0
 11
-109.7927474473016
 21
56.50157200395432
 31
0.0
  0
LINE
  5
23B
  8
PATTERN_FILL
  6
CONTINUOUS
 62
     7
 10
-62.08796658938434
 20
58.18465407933763
 30
0.0
 11
-63.57238001782514
 21
56.70024065089683
 31
0.0
  0
LINE
  5
23C
  8
PATTERN_FILL
  6
CONTINUOUS
 62
     7
 10
-61.65578118751318
 20
61.11683948120884
 30
0.0
 11
-66.40787649688446
 21
56.36474417183754
 31
0.0
  0
LINE
  5
23D
  8
PATTERN_FILL
  6
CONTINUOUS
 62
     7
 10
-61.31449759550435
 20
63.95812307321759
 30
0.0
 11
-69.19609639280395
 21
56.07652427591808
 31
0.0
  0
LINE
  5
23E
  8
PATTERN_FILL
  6
CONTINUOUS
 62
     7
 10
-61.05539805287981
 20
66.71722261584222
 30
0.0
 11
-71.93952759535341
 21
55.83309307336853
 31
0.0
  0
LINE
  5
23F
  8
PATTERN_FILL
  6
CONTINUOUS
 62
     7
 10
-61.77250539990382
 20
68.5001152688182
 30
0.0
 11
-74.64042119436772
 21
55.63219947435422
 31
0.0
  0
LINE
  5
240
  8
PATTERN_FILL
  6
CONTINUOUS
 62
     7
 10
-64.27250539990382
 20
68.5001152688182
 30
0.0
 11
-77.30082189034067
 21
55.47179877838127
 31
0.0
  0
LINE
  5
241
  8
PATTERN_FILL
  6
CONTINUOUS
 62
     7
 10
-66.77250539990382
 20
68.5001152688182
 30
0.0
 11
-79.92259353929296
 21
55.35002712942904
 31
0.0
  0
LINE
  5
242
  8
PATTERN_FILL
  6
CONTINUOUS
 62
     7
 10
-69.27250539990382
 20
68.5001152688182
 30
0.0
 11
-82.5074407521646
 21
55.26517991655734
 31
0.0
  0
LINE
  5
243
  8
PATTERN_FILL
  6
CONTINUOUS
 62
     7
 10
-71.77250539990382
 20
68.5001152688182
 30
0.0
 11
-85.0569272699355
 21
55.2156933987865
 31
0.0
  0
LINE
  5
244
  8
PATTERN_FILL
  6
CONTINUOUS
 62
     7
 10
-74.27250539990382
 20
68.5001152688182
 30
0.0
 11
-87.57249168473129
 21
55.20012898399071
 31
0.0
  0
LINE
  5
245
  8
PATTERN_FILL
  6
CONTINUOUS
 62
     7
 10
-61.05048112832537
 20
84.22213954039657
 30
0.0
 11
-62.77250539990382
 21
82.5001152688182
 31
0.0
  0
LINE
  5
246
  8
PATTERN_FILL
  6
CONTINUOUS
 62
     7
 10
-76.77250539990382
 20
68.5001152688182
 30
0.0
 11
-90.05546096156979
 21
55.21715970715215
 31
0.0
  0
LINE
  5
247
  8
PATTERN_FILL
  6
CONTINUOUS
 62
     7
 10
-61.25933601330041
 20
86.51328465542161
 30
0.0
 11
-65.27250539990382
 21
82.5001152688182
 31
0.0
  0
LINE
  5
248
  8
PATTERN_FILL
  6
CONTINUOUS
 62
     7
 10
-79.27250539990382
 20
68.5001152688182
 30
0.0
 11
-92.50706212603632
 21
55.26555854268571
 31
0.0
  0
LINE
  5
249
  8
PATTERN_FILL
  6
CONTINUOUS
 62
     7
 10
-61.5118639568135
 20
88.76075671190844
 30
0.0
 11
-67.77250539990382
 21
82.5001152688182
 31
0.0
  0
LINE
  5
24A
  8
PATTERN_FILL
  6
CONTINUOUS
 62
     7
 10
-81.77250539990382
 20
68.5001152688182
 30
0.0
 11
-94.92843241349681
 21
55.34418825522513
 31
0.0
  0
LINE
  5
24B
  8
PATTERN_FILL
  6
CONTINUOUS
 62
     7
 10
-61.80594100940652
 20
90.96667965931547
 30
0.0
 11
-70.27250539990382
 21
82.5001152688182
 31
0.0
  0
LINE
  5
24C
  8
PATTERN_FILL
  6
CONTINUOUS
 62
     7
 10
-84.27250539990371
 20
68.5001152688182
 30
0.0
 11
-97.3206281206908
 21
55.4519925480312
 31
0.0
  0
LINE
  5
24D
  8
PATTERN_FILL
  6
CONTINUOUS
 62
     7
 10
-62.1396591020582
 20
93.13296156666377
 30
0.0
 11
-72.77250539990382
 21
82.5001152688182
 31
0.0
  0
LINE
  5
24E
  8
PATTERN_FILL
  6
CONTINUOUS
 62
     7
 10
-86.77250539990382
 20
68.5001152688182
 30
0.0
 11
-99.68463235716263
 21
55.58798831155931
 31
0.0
  0
LINE
  5
24F
  8
PATTERN_FILL
  6
CONTINUOUS
 62
     7
 10
-63.48380222274
 20
94.28881844598197
 30
0.0
 11
-75.27250539990382
 21
82.5001152688182
 31
0.0
  0
LINE
  5
250
  8
PATTERN_FILL
  6
CONTINUOUS
 62
     7
 10
-89.27250539990382
 20
68.5001152688182
 30
0.0
 11
-102.0213618593968
 21
55.75125880932512
 31
0.0
  0
LINE
  5
251
  8
PATTERN_FILL
  6
CONTINUOUS
 62
     7
 10
-65.71514451493624
 20
94.55747615378579
 30
0.0
 11
-77.77250539990382
 21
82.5001152688182
 31
0.0
  0
LINE
  5
252
  8
PATTERN_FILL
  6
CONTINUOUS
 62
     7
 10
-91.77250539990382
 20
68.5001152688182
 30
0.0
 11
-104.3316730027327
 21
55.94094766598923
 31
0.0
  0
LINE
  5
253
  8
PATTERN_FILL
  6
CONTINUOUS
 62
     7
 10
-67.9705242446015
 20
94.80209642412049
 30
0.0
 11
-80.27250539990382
 21
82.5001152688182
 31
0.0
  0
LINE
  5
254
  8
PATTERN_FILL
  6
CONTINUOUS
 62
     7
 10
-94.27250539990382
 20
68.5001152688182
 30
0.0
 11
-106.6163671236892
 21
56.15625354503274
 31
0.0
  0
LINE
  5
255
  8
PATTERN_FILL
  6
CONTINUOUS
 62
     7
 10
-70.2506383630506
 20
95.0219823056714
 30
0.0
 11
-82.77250539990382
 21
82.5001152688182
 31
0.0
  0
LINE
  5
256
  8
PATTERN_FILL
  6
CONTINUOUS
 62
     7
 10
-96.77250539990382
 20
68.5001152688182
 30
0.0
 11
-108.8761952470775
 21
56.39642542164455
 31
0.0
  0
LINE
  5
257
  8
PATTERN_FILL
  6
CONTINUOUS
 62
     7
 10
-72.55622920553776
 20
95.21639146318427
 30
0.0
 11
-85.27250539990382
 21
82.5001152688182
 31
0.0
  0
LINE
  5
258
  8
PATTERN_FILL
  6
CONTINUOUS
 62
     7
 10
-99.27250539990382
 20
68.5001152688182
 30
0.0
 11
-111.1118622973624
 21
56.66075837135952
 31
0.0
  0
LINE
  5
259
  8
PATTERN_FILL
  6
CONTINUOUS
 62
     7
 10
-74.88808861630537
 20
95.38453205241663
 30
0.0
 11
-87.77250539990382
 21
82.5001152688182
 31
0.0
  0
LINE
  5
25A
  8
PATTERN_FILL
  6
CONTINUOUS
 62
     7
 10
-101.7725053999038
 20
68.5001152688182
 30
0.0
 11
-112.7898212105797
 21
57.48279945814227
 31
0.0
  0
LINE
  5
25B
  8
PATTERN_FILL
  6
CONTINUOUS
 62
     7
 10
-77.24706257630885
 20
95.52555809241318
 30
0.0
 11
-90.27250539990382
 21
82.5001152688182
 31
0.0
  0
LINE
  5
25C
  8
PATTERN_FILL
  6
CONTINUOUS
 62
     7
 10
-104.2725053999038
 20
68.5001152688182
 30
0.0
 11
-113.1362216719353
 21
59.63639899678662
 31
0.0
  0
LINE
  5
25D
  8
PATTERN_FILL
  6
CONTINUOUS
 62
     7
 10
-79.6340564106672
 20
95.6385642580548
 30
0.0
 11
-92.77250539990382
 21
82.5001152688182
 31
0.0
  0
LINE
  5
25E
  8
PATTERN_FILL
  6
CONTINUOUS
 62
     7
 10
-106.7725053999038
 20
68.5001152688182
 30
0.0
 11
-113.4376494089543
 21
61.83497125976777
 31
0.0
  0
LINE
  5
25F
  8
PATTERN_FILL
  6
CONTINUOUS
 62
     7
 10
-82.05004066727827
 20
95.72258000144376
 30
0.0
 11
-95.27250539990382
 21
82.5001152688182
 31
0.0
  0
LINE
  5
260
  8
PATTERN_FILL
  6
CONTINUOUS
 62
     7
 10
-109.2725053999038
 20
68.5001152688182
 30
0.0
 11
-113.6978904574038
 21
64.07473021131824
 31
0.0
  0
LINE
  5
261
  8
PATTERN_FILL
  6
CONTINUOUS
 62
     7
 10
-84.49605777561897
 20
95.77656289310303
 30
0.0
 11
-97.77250539990382
 21
82.5001152688182
 31
0.0
  0
LINE
  5
262
  8
PATTERN_FILL
  6
CONTINUOUS
 62
     7
 10
-111.7725053999038
 20
68.5001152688182
 30
0.0
 11
-113.9148625336846
 21
66.35775813503739
 31
0.0
  0
LINE
  5
263
  8
PATTERN_FILL
  6
CONTINUOUS
 62
     7
 10
-86.97322961636758
 20
95.79939105235437
 30
0.0
 11
-100.2725053999038
 21
82.5001152688182
 31
0.0
  0
LINE
  5
264
  8
PATTERN_FILL
  6
CONTINUOUS
 62
     7
 10
-89.48276615919121
 20
95.78985450953073
 30
0.0
 11
-102.7725053999038
 21
82.5001152688182
 31
0.0
  0
LINE
  5
265
  8
PATTERN_FILL
  6
CONTINUOUS
 62
     7
 10
-92.02597535927737
 20
95.7466453094446
 30
0.0
 11
-105.2725053999038
 21
82.5001152688182
 31
0.0
  0
LINE
  5
266
  8
PATTERN_FILL
  6
CONTINUOUS
 62
     7
 10
-94.60427454479361
 20
95.66834612392836
 30
0.0
 11
-107.7725053999038
 21
82.5001152688182
 31
0.0
  0
LINE
  5
267
  8
PATTERN_FILL
  6
CONTINUOUS
 62
     7
 10
-97.21920357992349
 20
95.55341708879845
 30
0.0
 11
-110.2725053999038
 21
82.5001152688182
 31
0.0
  0
LINE
  5
268
  8
PATTERN_FILL
  6
CONTINUOUS
 62
     7
 10
-99.87244015478336
 20
95.40018051393866
 30
0.0
 11
-112.7725053999038
 21
82.5001152688182
 31
0.0
  0
LINE
  5
269
  8
PATTERN_FILL
  6
CONTINUOUS
 62
     7
 10
-102.5658176388744
 20
95.20680302984758
 30
0.0
 11
-113.9835053725922
 21
83.78911529612986
 31
0.0
  0
LINE
  5
26A
  8
PATTERN_FILL
  6
CONTINUOUS
 62
     7
 10
-105.3013460449708
 20
94.97127462375113
 30
0.0
 11
-113.7385446002917
 21
86.5340760684303
 31
0.0
  0
LINE
  5
26B
  8
PATTERN_FILL
  6
CONTINUOUS
 62
     7
 10
-108.081236794024
 20
94.69138387469798
 30
0.0
 11
-113.4128194308025
 21
89.35980123791947
 31
0.0
  0
LINE
  5
26C
  8
PATTERN_FILL
  6
CONTINUOUS
 62
     7
 10
-110.9079321608
 20
94.36468850792195
 30
0.0
 11
-112.9979050932161
 21
92.27471557550587
 31
0.0
  0
LINE
  5
26D
  8
PATTERN_FILL
  6
CONTINUOUS
 62
     7
 10
-113.3241456203357
 20
90.03297017698841
 30
0.0
 11
-105.7912907121655
 21
82.5001152688182
 31
0.0
  0
LINE
  5
26E
  8
PATTERN_FILL
  6
CONTINUOUS
 62
     7
 10
-91.7912907121655
 20
68.5001152688182
 30
0.0
 11
-78.6937940298327
 21
55.40261858648546
 31
0.0
  0
LINE
  5
26F
  8
PATTERN_FILL
  6
CONTINUOUS
 62
     7
 10
-91.5485084766799
 20
95.75733303333251
 30
0.0
 11
-78.29129071216562
 21
82.5001152688182
 31
0.0
  0
LINE
  5
270
  8
PATTERN_FILL
  6
CONTINUOUS
 62
     7
 10
-64.2912907121655
 20
68.5001152688182
 30
0.0
 11
-61.17203128978781
 21
65.38085584644051
 31
0.0
  0
CIRCLE
  5
271
  8
PATTERN_FILL
  6
CONTINUOUS
 62
     7
 10
56.25
 20
-13.08836919704632
 30
0.0
 40
16.0
  0
CIRCLE
  5
272
  8
PATTERN_FILL
  6
CONTINUOUS
 62
     7
 10
56.25
 20
-13.08836919704632
 30
0.0
 40
14.5
  0
LINE
  5
273
  8
SPEC
  6
CONTINUOUS
 62
     7
 10
-165.0008249999999
 20
243.5330503181501
 30
0.0
 11
141.667375
 21
243.5330503181501
 31
0.0
  0
LINE
  5
274
  8
SPEC
  6
CONTINUOUS
 62
     7
 10
-165.0008249999999
 20
236.0330128181501
 30
0.0
 11
141.667375
 21
236.0330128181501
 31
0.0
  0
LINE
  5
275
  8
SPEC
  6
CONTINUOUS
 62
     7
 10
-165.0008249999999
 20
243.5330503181501
 30
0.0
 11
-165.0008249999999
 21
138.53252531815
 31
0.0
  0
TEXT
  5
276
  8
SPEC
 62
     7
 10
-162.5008124999999
 20
246.31960425085
 30
0.0
 40
4.886547870117188
  1
仕様
 41
0.7
 11
-162.5008124999999
 21
251.2061521209672
 31
0.0
 73
     3
  0
LINE
  5
277
  8
SPEC
  6
CONTINUOUS
 62
     7
 10
-100.0005
 20
243.5330503181501
 30
0.0
 11
-100.0005
 21
138.53252531815
 31
0.0
  0
LINE
  5
278
  8
SPEC
  6
CONTINUOUS
 62
     7
 10
141.667375
 20
243.5330503181501
 30
0.0
 11
141.667375
 21
138.53252531815
 31
0.0
  0
TEXT
  5
279
  8
SPEC
 62
     7
 10
-163.200816
 20
155.2508644649833
 30
0.0
 40
3.800648343424479
  1
寸法(W×H×D)
 41
0.7
 11
-163.200816
 21
159.0515128084078
 31
0.0
 73
     3
  0
TEXT
  5
27A
  8
SPEC
 62
     7
 10
-163.200816
 20
147.7508269649833
 30
0.0
 40
3.800648343424479
  1
質量
 41
0.7
 11
-163.200816
 21
151.5514753084078
 31
0.0
 73
     3
  0
TEXT
  5
27B
  8
SPEC
 62
     7
 10
-163.200816
 20
237.6088562528833
 30
0.0
 40
3.800648343424479
  1
形式
 41
0.7
 11
-163.200816
 21
241.4095045963078
 31
0.0
 73
     3
  0
TEXT
  5
27C
  8
SPEC
 62
     7
 10
-98.20049099999999
 20
155.2508644649833
 30
0.0
 40
3.800648343424479
  1
56×160×43mm
 41
0.7
 11
-98.20049099999999
 21
159.0515128084078
 31
0.0
 73
     3
  0
TEXT
  5
27D
  8
SPEC
 62
     7
 10
-98.20049099999999
 20
147.7508269649833
 30
0.0
 40
3.800648343424479
  1
314g
 41
0.7
 11
-98.20049099999999
 21
151.5514753084078
 31
0.0
 73
     3
  0
TEXT
  5
27E
  8
SPEC
 62
     7
 10
-98.20049099999999
 20
237.6088562528833
 30
0.0
 40
3.800648343424479
  1
コンデンサー型
 41
0.7
 11
-98.20049099999999
 21
241.4095045963078
 31
0.0
 73
     3
  0
LINE
  5
27F
  8
SPEC
  6
CONTINUOUS
 62
     7
 10
-165.0008249999999
 20
228.5329753181501
 30
0.0
 11
141.667375
 21
228.5329753181501
 31
0.0
  0
TEXT
  5
280
  8
SPEC
 62
     7
 10
-163.200816
 20
230.1088187528833
 30
0.0
 40
3.800648343424479
  1
指向特性
 41
0.7
 11
-163.200816
 21
233.9094670963078
 31
0.0
 73
     3
  0
TEXT
  5
281
  8
SPEC
 62
     7
 10
-98.20049099999999
 20
230.1088187528833
 30
0.0
 40
3.800648343424479
  1
カーディオイド/スーパーカーディオイド/無指向性/双指向性
 41
0.7
 11
-98.20049099999999
 21
233.9094670963078
 31
0.0
 73
     3
  0
LINE
  5
282
  8
SPEC
  6
CONTINUOUS
 62
     7
 10
-165.0008249999999
 20
221.0329378181501
 30
0.0
 11
141.667375
 21
221.0329378181501
 31
0.0
  0
TEXT
  5
283
  8
SPEC
 62
     7
 10
-163.200816
 20
222.6087812528833
 30
0.0
 40
3.800648343424479
  1
周波数特性
 41
0.7
 11
-163.200816
 21
226.4094295963078
 31
0.0
 73
     3
  0
TEXT
  5
284
  8
SPEC
 62
     7
 10
-98.20049099999999
 20
222.6087812528833
 30
0.0
 40
3.800648343424479
  1
20Hz～20kHz
 41
0.7
 11
-98.20049099999999
 21
226.4094295963078
 31
0.0
 73
     3
  0
LINE
  5
285
  8
SPEC
  6
CONTINUOUS
 62
     7
 10
-165.0008249999999
 20
213.5329003181501
 30
0.0
 11
141.667375
 21
213.5329003181501
 31
0.0
  0
TEXT
  5
286
  8
SPEC
 62
     7
 10
-163.200816
 20
215.1087437528833
 30
0.0
 40
3.800648343424479
  1
開回路感度
 41
0.7
 11
-163.200816
 21
218.9093920963078
 31
0.0
 73
     3
  0
TEXT
  5
287
  8
SPEC
 62
     7
 10
-98.20049099999999
 20
215.1087437528833
 30
0.0
 40
3.800648343424479
  1
-34dB re 1V/Pa
 41
0.7
 11
-98.20049099999999
 21
218.9093920963078
 31
0.0
 73
     3
  0
LINE
  5
288
  8
SPEC
  6
CONTINUOUS
 62
     7
 10
-165.0008249999999
 20
206.0328628181501
 30
0.0
 11
141.667375
 21
206.0328628181501
 31
0.0
  0
TEXT
  5
289
  8
SPEC
 62
     7
 10
-163.200816
 20
207.6087062528833
 30
0.0
 40
3.800648343424479
  1
最大音圧レベル
 41
0.7
 11
-163.200816
 21
211.4093545963078
 31
0.0
 73
     3
  0
TEXT
  5
28A
  8
SPEC
 62
     7
 10
-98.20049099999999
 20
207.6087062528833
 30
0.0
 40
3.800648343424479
  1
135dB SPL(パッドOFF、THD 0.5%%%)
 41
0.7
 11
-98.20049099999999
 21
211.4093545963078
 31
0.0
 73
     3
  0
LINE
  5
28B
  8
SPEC
  6
CONTINUOUS
 62
     7
 10
-165.0008249999999
 20
198.5328253181501
 30
0.0
 11
141.667375
 21
198.5328253181501
 31
0.0
  0
TEXT
  5
28C
  8
SPEC
 62
     7
 10
-163.200816
 20
200.1086687528833
 30
0.0
 40
3.800648343424479
  1
等価雑音レベル
 41
0.7
 11
-163.200816
 21
203.9093170963078
 31
0.0
 73
     3
  0
TEXT
  5
28D
  8
SPEC
 62
     7
 10
-98.20049099999999
 20
200.1086687528833
 30
0.0
 40
3.800648343424479
  1
8dB SPL(Aウェイト)
 41
0.7
 11
-98.20049099999999
 21
203.9093170963078
 31
0.0
 73
     3
  0
LINE
  5
28E
  8
SPEC
  6
CONTINUOUS
 62
     7
 10
-165.0008249999999
 20
191.0327878181501
 30
0.0
 11
141.667375
 21
191.0327878181501
 31
0.0
  0
TEXT
  5
28F
  8
SPEC
 62
     7
 10
-163.200816
 20
192.6086312528833
 30
0.0
 40
3.800648343424479
  1
パッド
 41
0.7
 11
-163.200816
 21
196.4092795963078
 31
0.0
 73
     3
  0
TEXT
  5
290
  8
SPEC
 62
     7
 10
-98.20049099999999
 20
192.6086312528833
 30
0.0
 40
3.800648343424479
  1
0/20dB
 41
0.7
 11
-98.20049099999999
 21
196.4092795963078
 31
0.0
 73
     3
  0
LINE
  5
291
  8
SPEC
  6
CONTINUOUS
 62
     7
 10
-165.0008249999999
 20
183.5327503181501
 30
0.0
 11
141.667375
 21
183.5327503181501
 31
0.0
  0
TEXT
  5
292
  8
SPEC
 62
     7
 10
-163.200816
 20
185.1085937528833
 30
0.0
 40
3.800648343424479
  1
ローカットフィルター
 41
0.7
 11
-163.200816
 21
188.9092420963078
 31
0.0
 73
     3
  0
TEXT
  5
293
  8
SPEC
 62
     7
 10
-98.20049099999999
 20
185.1085937528833
 30
0.0
 40
3.800648343424479
  1
Flat/100Hz(12dB/oct)
 41
0.7
 11
-98.20049099999999
 21
188.9092420963078
 31
0.0
 73
     3
  0
LINE
  5
294
  8
SPEC
  6
CONTINUOUS
 62
     7
 10
-165.0008249999999
 20
176.0327128181501
 30
0.0
 11
141.667375
 21
176.0327128181501
 31
0.0
  0
TEXT
  5
295
  8
SPEC
 62
     7
 10
-163.200816
 20
177.6085562528833
 30
0.0
 40
3.800648343424479
  1
インピーダンス
 41
0.7
 11
-163.200816
 21
181.4092045963078
 31
0.0
 73
     3
  0
TEXT
  5
296
  8
SPEC
 62
     7
 10
-98.20049099999999
 20
177.6085562528833
 30
0.0
 40
3.800648343424479
  1
200Ω以下
 41
0.7
 11
-98.20049099999999
 21
181.4092045963078
 31
0.0
 73
     3
  0
LINE
  5
297
  8
SPEC
  6
CONTINUOUS
 62
     7
 10
-165.0008249999999
 20
168.5326753181501
 30
0.0
 11
141.667375
 21
168.5326753181501
 31
0.0
  0
TEXT
  5
298
  8
SPEC
 62
     7
 10
-163.200816
 20
170.1085187528833
 30
0.0
 40
3.800648343424479
  1
電源
 41
0.7
 11
-163.200816
 21
173.9091670963078
 31
0.0
 73
     3
  0
TEXT
  5
299
  8
SPEC
 62
     7
 10
-98.20049099999999
 20
170.1085187528833
 30
0.0
 40
3.800648343424479
  1
ファンタム DC44V～52V/3mA以下
 41
0.7
 11
-98.20049099999999
 21
173.9091670963078
 31
0.0
 73
     3
  0
LINE
  5
29A
  8
SPEC
  6
CONTINUOUS
 62
     7
 10
-165.0008249999999
 20
161.03263781815
 30
0.0
 11
141.667375
 21
161.03263781815
 31
0.0
  0
TEXT
  5
29B
  8
SPEC
 62
     7
 10
-163.200816
 20
162.6084812528833
 30
0.0
 40
3.800648343424479
  1
端子
 41
0.7
 11
-163.200816
 21
166.4091295963078
 31
0.0
 73
     3
  0
TEXT
  5
29C
  8
SPEC
 62
     7
 10
-98.20049099999999
 20
162.6084812528833
 30
0.0
 40
3.800648343424479
  1
XLR(3P)
 41
0.7
 11
-98.20049099999999
 21
166.4091295963078
 31
0.0
 73
     3
  0
LINE
  5
29D
  8
SPEC
  6
CONTINUOUS
 62
     7
 10
-165.0008249999999
 20
153.53260031815
 30
0.0
 11
141.667375
 21
153.53260031815
 31
0.0
  0
LINE
  5
29E
  8
SPEC
  6
CONTINUOUS
 62
     7
 10
-165.0008249999999
 20
146.03256281815
 30
0.0
 11
141.667375
 21
146.03256281815
 31
0.0
  0
TEXT
  5
29F
  8
SPEC
 62
     7
 10
-163.200816
 20
140.2507894649833
 30
0.0
 40
3.800648343424479
  1
付属品
 41
0.7
 11
-163.200816
 21
144.0514378084078
 31
0.0
 73
     3
  0
TEXT
  5
2A0
  8
SPEC
 62
     7
 10
-98.20049099999999
 20
140.2508107022055
 30
0.0
 40
3.800629340277778
  1
ショックマウント(H85)、マイクホルダー(SA60)、ウインドスクリーン、キャリングハードケース
 41
0.7
 11
-98.20049099999999
 21
144.0514400424833
 31
0.0
 73
     3
  0
LINE
  5
2A1
  8
SPEC
  6
CONTINUOUS
 62
     7
 10
-165.0008249999999
 20
138.53252531815
 30
0.0
 11
141.667375
 21
138.53252531815
 31
0.0
  0
TEXT
  5
2A2
  8
DIMNSIONS
 62
     7
 10
-40.00019999999999
 20
-231.93034698695
 30
0.0
 40
4.886547870117188
  1
(単位：mm)
 41
0.7
 11
-40.00019999999999
 21
-227.0437991168328
 31
0.0
 73
     3
  0
LINE
  5
2A3
  8
DIMNSIONS
  6
CONTINUOUS
 62
     7
 10
-115.25
 20
-51.4
 30
0.0
 11
-115.25
 21
-164.5
 31
0.0
  0
LINE
  5
2A4
  8
DIMNSIONS
  6
CONTINUOUS
 62
     7
 10
-59.75
 20
-51.4
 30
0.0
 11
-59.75
 21
-164.5
 31
0.0
  0
LINE
  5
2A5
  8
DIMNSIONS
  6
CONTINUOUS
 62
     7
 10
-115.25
 20
-162.5
 30
0.0
 11
-59.75
 21
-162.5
 31
0.0
  0
LINE
  5
2A6
  8
DIMNSIONS
  6
CONTINUOUS
 62
     7
 10
-115.25
 20
-162.5
 30
0.0
 11
-111.250244140625
 21
-161.4282686475588
 31
0.0
  0
LINE
  5
2A7
  8
DIMNSIONS
  6
CONTINUOUS
 62
     7
 10
-115.25
 20
-162.5
 30
0.0
 11
-111.250244140625
 21
-163.5717313524412
 31
0.0
  0
LINE
  5
2A8
  8
DIMNSIONS
  6
CONTINUOUS
 62
     7
 10
-59.75
 20
-162.5
 30
0.0
 11
-63.749755859375
 21
-163.5717313524412
 31
0.0
  0
LINE
  5
2A9
  8
DIMNSIONS
  6
CONTINUOUS
 62
     7
 10
-59.75
 20
-162.5
 30
0.0
 11
-63.749755859375
 21
-161.4282686475588
 31
0.0
  0
TEXT
  5
2AA
  8
DIMNSIONS
 62
     7
 10
-94.55555555555559
 20
-160.5122222222222
 30
0.0
 40
5.429470486111112
  1
55.5
 41
0.7
 11
-94.55555555555559
 21
-155.0827517361111
 31
0.0
 73
     3
  0
LINE
  5
2AB
  8
DIMNSIONS
  6
CONTINUOUS
 62
     7
 10
-89.65000000000002
 20
53.74999999999996
 30
0.0
 11
-133.25
 21
53.74999999999996
 31
0.0
  0
LINE
  5
2AC
  8
DIMNSIONS
  6
CONTINUOUS
 62
     7
 10
-89.68221322529921
 20
96.24999312862639
 30
0.0
 11
-133.25
 21
96.24999312862639
 31
0.0
  0
LINE
  5
2AD
  8
DIMNSIONS
  6
CONTINUOUS
 62
     7
 10
-131.25
 20
53.74999999999996
 30
0.0
 11
-131.25
 21
96.24999312862639
 31
0.0
  0
LINE
  5
2AE
  8
DIMNSIONS
  6
CONTINUOUS
 62
     7
 10
-131.25
 20
53.74999999999996
 30
0.0
 11
-132.3217313524412
 21
57.74975585937496
 31
0.0
  0
LINE
  5
2AF
  8
DIMNSIONS
  6
CONTINUOUS
 62
     7
 10
-131.25
 20
53.74999999999996
 30
0.0
 11
-130.1782686475588
 21
57.74975585937496
 31
0.0
  0
LINE
  5
2B0
  8
DIMNSIONS
  6
CONTINUOUS
 62
     7
 10
-131.25
 20
96.24999312862639
 30
0.0
 11
-130.1782686475588
 21
92.25023726925139
 31
0.0
  0
LINE
  5
2B1
  8
DIMNSIONS
  6
CONTINUOUS
 62
     7
 10
-131.25
 20
96.24999312862639
 30
0.0
 11
-132.3217313524412
 21
92.25023726925139
 31
0.0
  0
TEXT
  5
2B2
  8
DIMNSIONS
 62
     7
 10
-133.2377777777778
 20
67.94444100875762
 30
0.0
 40
5.429470486111112
  1
42.5
 50
90.0
 41
0.7
 11
-138.6672482638889
 21
67.94444100875762
 31
0.0
 73
     3
  0
LINE
  5
2B3
  8
DIMNSIONS
  6
CONTINUOUS
 62
     7
 10
-99.4
 20
-137.5
 30
0.0
 11
-133.25
 21
-137.5
 31
0.0
  0
LINE
  5
2B4
  8
DIMNSIONS
  6
CONTINUOUS
 62
     7
 10
-89.65
 20
22.5
 30
0.0
 11
-133.25
 21
22.5
 31
0.0
  0
LINE
  5
2B5
  8
DIMNSIONS
  6
CONTINUOUS
 62
     7
 10
-131.25
 20
-137.5
 30
0.0
 11
-131.25
 21
22.5
 31
0.0
  0
LINE
  5
2B6
  8
DIMNSIONS
  6
CONTINUOUS
 62
     7
 10
-131.25
 20
-137.5
 30
0.0
 11
-132.3217313524412
 21
-133.500244140625
 31
0.0
  0
LINE
  5
2B7
  8
DIMNSIONS
  6
CONTINUOUS
 62
     7
 10
-131.25
 20
-137.5
 30
0.0
 11
-130.1782686475588
 21
-133.500244140625
 31
0.0
  0
LINE
  5
2B8
  8
DIMNSIONS
  6
CONTINUOUS
 62
     7
 10
-131.25
 20
22.5
 30
0.0
 11
-130.1782686475588
 21
18.500244140625
 31
0.0
  0
LINE
  5
2B9
  8
DIMNSIONS
  6
CONTINUOUS
 62
     7
 10
-131.25
 20
22.5
 30
0.0
 11
-132.3217313524412
 21
18.500244140625
 31
0.0
  0
TEXT
  5
2BA
  8
DIMNSIONS
 62
     7
 10
-133.2377777777778
 20
-62.79166666666668
 30
0.0
 40
5.429470486111112
  1
160
 50
90.0
 41
0.7
 11
-138.6672482638889
 21
-62.79166666666668
 31
0.0
 73
     3
  0
LINE
  5
2BB
  8
DIMNSIONS
  6
CONTINUOUS
 62
     7
 10
-99.4
 20
-137.5
 30
0.0
 11
-120.75
 21
-137.5
 31
0.0
  0
LINE
  5
2BC
  8
DIMNSIONS
  6
CONTINUOUS
 62
     7
 10
-111.9
 20
-93.0
 30
0.0
 11
-120.75
 21
-93.0
 31
0.0
  0
LINE
  5
2BD
  8
DIMNSIONS
  6
CONTINUOUS
 62
     7
 10
-118.75
 20
-137.5
 30
0.0
 11
-118.75
 21
-93.0
 31
0.0
  0
LINE
  5
2BE
  8
DIMNSIONS
  6
CONTINUOUS
 62
     7
 10
-118.75
 20
-137.5
 30
0.0
 11
-119.8217313524412
 21
-133.500244140625
 31
0.0
  0
LINE
  5
2BF
  8
DIMNSIONS
  6
CONTINUOUS
 62
     7
 10
-118.75
 20
-137.5
 30
0.0
 11
-117.6782686475588
 21
-133.500244140625
 31
0.0
  0
LINE
  5
2C0
  8
DIMNSIONS
  6
CONTINUOUS
 62
     7
 10
-118.75
 20
-93.0
 30
0.0
 11
-117.6782686475588
 21
-96.999755859375
 31
0.0
  0
LINE
  5
2C1
  8
DIMNSIONS
  6
CONTINUOUS
 62
     7
 10
-118.75
 20
-93.0
 30
0.0
 11
-119.8217313524412
 21
-96.999755859375
 31
0.0
  0
TEXT
  5
2C2
  8
DIMNSIONS
 62
     7
 10
-120.7377777777778
 20
-122.3055555555556
 30
0.0
 40
5.429470486111112
  1
44.5
 50
90.0
 41
0.7
 11
-126.1672482638889
 21
-122.3055555555556
 31
0.0
 73
     3
  0
LINE
  5
2C3
  8
DIMNSIONS
  6
CONTINUOUS
 62
     7
 10
-98.64999999999999
 20
-137.4000000000001
 30
0.0
 11
-98.64999999999999
 21
-153.7222222222223
 31
0.0
  0
LINE
  5
2C4
  8
DIMNSIONS
  6
CONTINUOUS
 62
     7
 10
-76.35
 20
-137.4
 30
0.0
 11
-76.35
 21
-153.7222222222223
 31
0.0
  0
LINE
  5
2C5
  8
DIMNSIONS
  6
CONTINUOUS
 62
     7
 10
-98.64999999999999
 20
-151.7222222222223
 30
0.0
 11
-76.35
 21
-151.7222222222223
 31
0.0
  0
LINE
  5
2C6
  8
DIMNSIONS
  6
CONTINUOUS
 62
     7
 10
-98.64999999999999
 20
-151.7222222222223
 30
0.0
 11
-94.65024414062499
 21
-150.6504908697811
 31
0.0
  0
LINE
  5
2C7
  8
DIMNSIONS
  6
CONTINUOUS
 62
     7
 10
-98.64999999999999
 20
-151.7222222222223
 30
0.0
 11
-94.65024414062499
 21
-152.7939535746635
 31
0.0
  0
LINE
  5
2C8
  8
DIMNSIONS
  6
CONTINUOUS
 62
     7
 10
-76.35
 20
-151.7222222222223
 30
0.0
 11
-80.349755859375
 21
-152.7939535746635
 31
0.0
  0
LINE
  5
2C9
  8
DIMNSIONS
  6
CONTINUOUS
 62
     7
 10
-76.35
 20
-151.7222222222223
 30
0.0
 11
-80.349755859375
 21
-150.6504908697811
 31
0.0
  0
TEXT
  5
2CA
  8
DIMNSIONS
 62
     7
 10
-94.55555555555556
 20
-149.7344444444445
 30
0.0
 40
5.429470486111112
  1
22.3
 41
0.7
 11
-94.55555555555556
 21
-144.3049739583334
 31
0.0
 73
     3
  0
TEXT
  5
2CB
  8
DATA
 62
     7
 10
-176.00088
 20
-240.7168153635167
 30
0.0
 40
3.80064834342448
  1
※仕様及び外観は予告なく変更されることがあります。
 41
0.7
 11
-176.00088
 21
-236.9161670200922
 31
0.0
 73
     3
  0
TEXT
  5
2CC
  8
DATA
 62
     7
 10
-176.00088
 20
-245.65572894685
 30
0.0
 40
3.80064834342448
  1
　また、同一商品でも若干の個体差があることがあります。ご了承ください。
 41
0.7
 11
-176.00088
 21
-241.8550806034255
 31
0.0
 73
     3
  0
TEXT
  5
2CD
  8
DATA
 62
     7
 10
100.0005
 20
-234.20755837295
 30
0.0
 40
4.886547870117188
  1
C314
 41
0.7
 11
100.0005
 21
-229.3210105028328
 31
0.0
 73
     3
  0
TEXT
  5
2CE
  8
DATA
 62
     7
 10
100.0005
 20
-219.7074858729499
 30
0.0
 40
4.886547870117188
  1
AKG
 41
0.7
 11
100.0005
 21
-214.8209380028327
 31
0.0
 73
     3
  0
TEXT
  5
2CF
  8
DATA
 62
     7
 10
-43.89206225814787
 20
40.74810984631908
 30
0.0
 40
5.429470486111112
  1
ウインドスクリーン
 41
0.7
 11
-43.89206225814787
 21
46.1775803324302
 31
0.0
 73
     3
  0
LINE
  5
2D0
  8
DATA
  6
CONTINUOUS
 62
     7
 10
-97.0
 20
-137.5
 30
0.0
 11
-78.0
 21
-137.5
 31
0.0
  0
LINE
  5
2D1
  8
DATA
  6
CONTINUOUS
 62
     7
 10
-98.64999999999999
 20
-135.0000000000001
 30
0.0
 11
-99.85000000000001
 21
-95.0
 31
0.0
  0
LINE
  5
2D2
  8
DATA
  6
CONTINUOUS
 62
     7
 10
-76.35
 20
-135.0
 30
0.0
 11
-75.15
 21
-95.0
 31
0.0
  0
LINE
  5
2D3
  8
DATA
  6
CONTINUOUS
 62
     7
 10
-99.85000000000001
 20
-95.0
 30
0.0
 11
-75.15
 21
-95.0
 31
0.0
  0
LINE
  5
2D4
  8
DATA
  6
CONTINUOUS
 62
     7
 10
-78.0
 20
-137.5
 30
0.0
 11
-76.35
 21
-135.0
 31
0.0
  0
LINE
  5
2D5
  8
DATA
  6
CONTINUOUS
 62
     7
 10
-98.64999999999999
 20
-135.0000000000001
 30
0.0
 11
-76.35
 21
-135.0
 31
0.0
  0
LINE
  5
2D6
  8
DATA
  6
CONTINUOUS
 62
     7
 10
-65.5
 20
-93.0
 30
0.0
 11
-109.5
 21
-93.0
 31
0.0
  0
CIRCLE
  5
2D7
  8
DATA
  6
CONTINUOUS
 62
     7
 10
-87.5
 20
-121.0
 30
0.0
 40
2.25
  0
LINE
  5
2D8
  8
DATA
  6
CONTINUOUS
 62
     7
 10
-88.55481024942753
 20
-121.0
 30
0.0
 11
-86.44518975057247
 21
-121.0
 31
0.0
  0
LINE
  5
2D9
  8
DATA
  6
CONTINUOUS
 62
     7
 10
-87.5
 20
-122.0548102494275
 30
0.0
 11
-87.5
 21
-119.9451897505725
 31
0.0
  0
TEXT
  5
2DA
  8
DATA
 62
     7
 10
-91.46875
 20
-133.2853914017337
 30
0.0
 40
3.0540771484375
  1
C314
 41
0.7
 11
-91.46875
 21
-130.2313142532962
 31
0.0
 73
     3
  0
LINE
  5
2DB
  8
DATA
  6
CONTINUOUS
 62
     7
 10
-115.25
 20
-47.99988473118179
 30
0.0
 11
-59.75
 21
-47.99988473118179
 31
0.0
  0
LINE
  5
2DC
  8
DATA
  6
CONTINUOUS
 62
     7
 10
-114.75
 20
-57.8998847311818
 30
0.0
 11
-60.25
 21
-57.8998847311818
 31
0.0
  0
LINE
  5
2DD
  8
DATA
  6
CONTINUOUS
 62
     7
 10
-114.75
 20
-59.3998847311818
 30
0.0
 11
-60.25
 21
-59.3998847311818
 31
0.0
  0
LINE
  5
2DE
  8
DATA
  6
CONTINUOUS
 62
     7
 10
-62.5
 20
-90.0
 30
0.0
 11
-112.5
 21
-90.0
 31
0.0
  0
LINE
  5
2DF
  8
DATA
  6
CONTINUOUS
 62
     7
 10
-109.5
 20
-93.0
 30
0.0
 11
-112.5
 21
-90.0
 31
0.0
  0
LINE
  5
2E0
  8
DATA
  6
CONTINUOUS
 62
     7
 10
-112.5
 20
-90.0
 30
0.0
 11
-114.75
 21
-59.3998847311818
 31
0.0
  0
LINE
  5
2E1
  8
DATA
  6
CONTINUOUS
 62
     7
 10
-65.5
 20
-93.0
 30
0.0
 11
-62.5
 21
-90.0
 31
0.0
  0
LINE
  5
2E2
  8
DATA
  6
CONTINUOUS
 62
     7
 10
-62.5
 20
-90.0
 30
0.0
 11
-60.25
 21
-59.3998847311818
 31
0.0
  0
LINE
  5
2E3
  8
DATA
  6
CONTINUOUS
 62
     7
 10
-115.05
 20
-47.99988473118179
 30
0.0
 11
-113.6061585992842
 21
17.67161123685892
 31
0.0
  0
LINE
  5
2E4
  8
DATA
  6
CONTINUOUS
 62
     7
 10
-59.95000000000005
 20
-47.99988473118179
 30
0.0
 11
-61.39384140071525
 21
17.67161123683344
 31
0.0
  0
ARC
  5
2E5
  8
DATA
  6
CONTINUOUS
 62
     7
 10
-87.50000000000011
 20
-248.6053505643819
 30
0.0
 40
271.1054658332001
 50
85.25245375975025
 51
94.74754624024914
  0
ARC
  5
2E6
  8
DATA
  6
CONTINUOUS
 62
     7
 10
-109.6071250011576
 20
17.58368922158095
 30
0.0
 40
3.999999999964584
 50
94.74754623974427
 51
178.7405084666826
  0
ARC
  5
2E7
  8
DATA
  6
CONTINUOUS
 62
     7
 10
-65.39287499887018
 20
17.58368922155486
 30
0.0
 40
3.999999999992834
 50
1.259491533317288
 51
85.25245375985148
  0
CIRCLE
  5
2E8
  8
DATA
  6
CONTINUOUS
 62
     7
 10
-87.5
 20
-73.4
 30
0.0
 40
8.0
  0
TEXT
  5
2E9
  8
DATA
 62
     7
 10
-91.482215268255
 20
-87.54839874451311
 30
0.0
 40
4.072102864583333
  1
AKG
 41
0.7
 11
-91.482215268255
 21
-83.47629587992978
 31
0.0
 73
     3
  0
LINE
  5
2EA
  8
DATA
  6
CONTINUOUS
 62
     7
 10
-114.05
 20
-47.99988473118179
 30
0.0
 11
-112.6263953376776
 21
16.75116603896495
 31
0.0
  0
LINE
  5
2EB
  8
DATA
  6
CONTINUOUS
 62
     7
 10
-60.95000000000005
 20
-47.99988473118179
 30
0.0
 11
-62.37360466232224
 21
16.75116603895677
 31
0.0
  0
ARC
  5
2EC
  8
DATA
  6
CONTINUOUS
 62
     7
 10
-87.50000000000011
 20
-249.6053505643819
 30
0.0
 40
271.1054658332001
 50
85.46331086022606
 51
94.53668913977373
  0
ARC
  5
2ED
  8
DATA
  6
CONTINUOUS
 62
     7
 10
-108.6273617395291
 20
16.66324402368652
 30
0.0
 40
3.999999999986418
 50
94.53668913958143
 51
178.7405084666827
  0
ARC
  5
2EE
  8
DATA
  6
CONTINUOUS
 62
     7
 10
-66.37263826047979
 20
16.66324402367812
 30
0.0
 40
3.99999999999545
 50
1.259491533317483
 51
85.46331086029006
  0
LINE
  5
2EF
  8
DATA
  6
CONTINUOUS
 62
     7
 10
10.25
 20
-93.0
 30
0.0
 11
-22.75
 21
-93.0
 31
0.0
  0
LINE
  5
2F0
  8
DATA
  6
CONTINUOUS
 62
     7
 10
13.25
 20
-90.0
 30
0.0
 11
-25.75
 21
-90.0
 31
0.0
  0
LINE
  5
2F1
  8
DATA
  6
CONTINUOUS
 62
     7
 10
10.25
 20
-93.0
 30
0.0
 11
13.25
 21
-90.0
 31
0.0
  0
LINE
  5
2F2
  8
DATA
  6
CONTINUOUS
 62
     7
 10
-22.75
 20
-93.0
 30
0.0
 11
-25.75
 21
-90.0
 31
0.0
  0
LINE
  5
2F3
  8
DATA
  6
CONTINUOUS
 62
     7
 10
-7.557976024119512
 20
-82.0
 30
0.0
 11
-4.942023975880375
 21
-82.0
 31
0.0
  0
LINE
  5
2F4
  8
DATA
  6
CONTINUOUS
 62
     7
 10
-7.28797602411953
 20
-72.0
 30
0.0
 11
-5.212023975880356
 21
-72.0
 31
0.0
  0
LINE
  5
2F5
  8
DATA
  6
CONTINUOUS
 62
     7
 10
-7.75
 20
-81.31861641369261
 30
0.0
 11
-7.75
 21
-72.5186164136926
 31
0.0
  0
LINE
  5
2F6
  8
DATA
  6
CONTINUOUS
 62
     7
 10
-4.75
 20
-81.31861641369261
 30
0.0
 11
-7.75
 21
-81.31861641369261
 31
0.0
  0
LINE
  5
2F7
  8
DATA
  6
CONTINUOUS
 62
     7
 10
-4.75
 20
-72.5186164136926
 30
0.0
 11
-4.75
 21
-81.31861641369261
 31
0.0
  0
LINE
  5
2F8
  8
DATA
  6
CONTINUOUS
 62
     7
 10
-7.75
 20
-72.5186164136926
 30
0.0
 11
-4.75
 21
-72.5186164136926
 31
0.0
  0
LINE
  5
2F9
  8
DATA
  6
CONTINUOUS
 62
     7
 10
-9.555954094407639
 20
-79.91009098683702
 30
0.0
 11
-9.285954094407657
 21
-73.91009098683702
 31
0.0
  0
LINE
  5
2FA
  8
DATA
  6
CONTINUOUS
 62
     7
 10
-2.944045905592247
 20
-79.91009098683702
 30
0.0
 11
-3.214045905592343
 21
-73.91009098683702
 31
0.0
  0
ARC
  5
2FB
  8
DATA
  6
CONTINUOUS
 62
     7
 10
-7.557976024119512
 20
-80.0
 30
0.0
 40
2.000000000000052
 50
177.4234281697308
 51
270.0
  0
ARC
  5
2FC
  8
DATA
  6
CONTINUOUS
 62
     7
 10
-4.942023975880375
 20
-80.0
 30
0.0
 40
2.0
 50
270.0
 51
2.576571830269245
  0
ARC
  5
2FD
  8
DATA
  6
CONTINUOUS
 62
     7
 10
-5.212023975880356
 20
-74.0
 30
0.0
 40
1.999999999999939
 50
2.5765718302694
 51
90.0
  0
ARC
  5
2FE
  8
DATA
  6
CONTINUOUS
 62
     7
 10
-7.28797602411953
 20
-74.0
 30
0.0
 40
2.0
 50
90.0
 51
177.4234281697308
  0
POLYLINE
  5
2FF
  8
DATA
  6
CONTINUOUS
 62
     7
 66
     1
 10
0.0
 20
0.0
 30
0.0
 70
     1
  0
VERTEX
  5
47B
  8
DATA
  6
CONTINUOUS
 62
     7
 10
-7.5
 20
-74.75
 30
0.0
  0
VERTEX
  5
47C
  8
DATA
  6
CONTINUOUS
 62
     7
 10
-5.0
 20
-74.75
 30
0.0
  0
VERTEX
  5
47D
  8
DATA
  6
CONTINUOUS
 62
     7
 10
-5.0
 20
-77.25
 30
0.0
  0
VERTEX
  5
47E
  8
DATA
  6
CONTINUOUS
 62
     7
 10
-7.5
 20
-77.25
 30
0.0
  0
SEQEND
  5
489
  8
DATA
  6
CONTINUOUS
 62
     7
  0
LINE
  5
306
  8
DATA
  6
CONTINUOUS
 62
     7
 10
-2.25
 20
-74.0
 30
0.0
 11
1.75
 21
-74.0
 31
0.0
  0
LINE
  5
307
  8
DATA
  6
CONTINUOUS
 62
     7
 10
-0.25
 20
-77.26182119288848
 30
0.0
 11
1.75
 21
-77.26182119288848
 31
0.0
  0
LINE
  5
308
  8
DATA
  6
CONTINUOUS
 62
     7
 10
-0.25
 20
-77.26182119288848
 30
0.0
 11
-2.25
 21
-78.5
 31
0.0
  0
LINE
  5
309
  8
DATA
  6
CONTINUOUS
 62
     7
 10
34.24999999999994
 20
-93.0
 30
0.0
 11
78.24999999999994
 21
-93.0
 31
0.0
  0
LINE
  5
30A
  8
DATA
  6
CONTINUOUS
 62
     7
 10
83.99999999999994
 20
-47.99988473118179
 30
0.0
 11
28.49999999999994
 21
-47.99988473118179
 31
0.0
  0
LINE
  5
30B
  8
DATA
  6
CONTINUOUS
 62
     7
 10
83.49999999999994
 20
-57.8998847311818
 30
0.0
 11
28.99999999999994
 21
-57.8998847311818
 31
0.0
  0
LINE
  5
30C
  8
DATA
  6
CONTINUOUS
 62
     7
 10
83.49999999999994
 20
-59.3998847311818
 30
0.0
 11
28.99999999999994
 21
-59.3998847311818
 31
0.0
  0
LINE
  5
30D
  8
DATA
  6
CONTINUOUS
 62
     7
 10
31.25000000000006
 20
-90.0
 30
0.0
 11
81.24999999999994
 21
-90.0
 31
0.0
  0
LINE
  5
30E
  8
DATA
  6
CONTINUOUS
 62
     7
 10
78.24999999999994
 20
-93.0
 30
0.0
 11
81.24999999999994
 21
-90.0
 31
0.0
  0
LINE
  5
30F
  8
DATA
  6
CONTINUOUS
 62
     7
 10
81.24999999999994
 20
-90.0
 30
0.0
 11
83.49999999999994
 21
-59.3998847311818
 31
0.0
  0
LINE
  5
310
  8
DATA
  6
CONTINUOUS
 62
     7
 10
34.24999999999994
 20
-93.0
 30
0.0
 11
31.24999999999994
 21
-90.0
 31
0.0
  0
LINE
  5
311
  8
DATA
  6
CONTINUOUS
 62
     7
 10
31.24999999999994
 20
-90.0
 30
0.0
 11
28.99999999999994
 21
-59.3998847311818
 31
0.0
  0
LINE
  5
312
  8
DATA
  6
CONTINUOUS
 62
     7
 10
83.80000000000001
 20
-47.99988473118179
 30
0.0
 11
82.35615859928413
 21
17.67161123685892
 31
0.0
  0
LINE
  5
313
  8
DATA
  6
CONTINUOUS
 62
     7
 10
28.69999999999987
 20
-47.99988473118179
 30
0.0
 11
30.14384140071519
 21
17.67161123683344
 31
0.0
  0
ARC
  5
314
  8
DATA
  6
CONTINUOUS
 62
     7
 10
56.25000000000006
 20
-248.6053505643819
 30
0.0
 40
271.1054658332001
 50
85.25245375975088
 51
94.74754624024973
  0
ARC
  5
315
  8
DATA
  6
CONTINUOUS
 62
     7
 10
78.3571250011575
 20
17.58368922158095
 30
0.0
 40
3.99999999996452
 50
1.25949153331745
 51
85.25245376025573
  0
ARC
  5
316
  8
DATA
  6
CONTINUOUS
 62
     7
 10
34.14287499887024
 20
17.58368922155486
 30
0.0
 40
3.999999999992881
 50
94.74754624014852
 51
178.7405084666828
  0
LINE
  5
317
  8
DATA
  6
CONTINUOUS
 62
     7
 10
82.80000000000001
 20
-47.99988473118179
 30
0.0
 11
81.3763953376776
 21
16.75116603896495
 31
0.0
  0
LINE
  5
318
  8
DATA
  6
CONTINUOUS
 62
     7
 10
29.69999999999999
 20
-47.99988473118179
 30
0.0
 11
31.12360466232218
 21
16.75116603895677
 31
0.0
  0
ARC
  5
319
  8
DATA
  6
CONTINUOUS
 62
     7
 10
56.25000000000006
 20
-249.6053505643819
 30
0.0
 40
271.1054658332001
 50
85.46331086022627
 51
94.53668913977394
  0
ARC
  5
31A
  8
DATA
  6
CONTINUOUS
 62
     7
 10
77.37736173952914
 20
16.66324402368652
 30
0.0
 40
3.999999999986353
 50
1.259491533317293
 51
85.46331086042022
  0
ARC
  5
31B
  8
DATA
  6
CONTINUOUS
 62
     7
 10
35.12263826047973
 20
16.66324402367812
 30
0.0
 40
3.999999999995499
 50
94.53668913970998
 51
178.7405084666825
  0
LINE
  5
31C
  8
DATA
  6
CONTINUOUS
 62
     7
 10
61.8524829263319
 20
-71.49237417164932
 30
0.0
 11
50.65248292633197
 21
-71.49237417164932
 31
0.0
  0
LINE
  5
31D
  8
DATA
  6
CONTINUOUS
 62
     7
 10
61.8524829263319
 20
-68.49237417164932
 30
0.0
 11
61.8524829263319
 21
-71.49237417164932
 31
0.0
  0
LINE
  5
31E
  8
DATA
  6
CONTINUOUS
 62
     7
 10
50.65248292633197
 20
-68.49237417164932
 30
0.0
 11
61.8524829263319
 21
-68.49237417164932
 31
0.0
  0
LINE
  5
31F
  8
DATA
  6
CONTINUOUS
 62
     7
 10
50.65248292633197
 20
-71.49237417164932
 30
0.0
 11
50.65248292633197
 21
-68.49237417164932
 31
0.0
  0
POLYLINE
  5
320
  8
DATA
  6
CONTINUOUS
 62
     7
 66
     1
 10
0.0
 20
0.0
 30
0.0
 70
     1
  0
VERTEX
  5
47F
  8
DATA
  6
CONTINUOUS
 62
     7
 10
53.12675425238007
 20
-71.24237417164937
 30
0.0
  0
VERTEX
  5
480
  8
DATA
  6
CONTINUOUS
 62
     7
 10
53.12675425238007
 20
-68.74237417164937
 30
0.0
  0
VERTEX
  5
481
  8
DATA
  6
CONTINUOUS
 62
     7
 10
55.62675425238007
 20
-68.74237417164937
 30
0.0
  0
VERTEX
  5
482
  8
DATA
  6
CONTINUOUS
 62
     7
 10
55.62675425238007
 20
-71.24237417164937
 30
0.0
  0
SEQEND
  5
48A
  8
DATA
  6
CONTINUOUS
 62
     7
  0
ARC
  5
327
  8
DATA
  6
CONTINUOUS
 62
     7
 10
49.74999999999983
 20
-68.89999999999995
 30
0.0
 40
1.999999999999915
 50
89.99999999999675
 51
180.0000000000008
  0
LINE
  5
328
  8
DATA
  6
CONTINUOUS
 62
     7
 10
47.74999999999994
 20
-71.10000000000002
 30
0.0
 11
47.74999999999994
 21
-68.89999999999998
 31
0.0
  0
ARC
  5
329
  8
DATA
  6
CONTINUOUS
 62
     7
 10
49.75000000000006
 20
-71.09999999999997
 30
0.0
 40
2.000000000000114
 50
180.0000000000016
 51
269.9999999999967
  0
LINE
  5
32A
  8
DATA
  6
CONTINUOUS
 62
     7
 10
62.74999999999994
 20
-73.10000000000002
 30
0.0
 11
49.74999999999994
 21
-73.10000000000002
 31
0.0
  0
ARC
  5
32B
  8
DATA
  6
CONTINUOUS
 62
     7
 10
62.74999999999994
 20
-71.10000000000005
 30
0.0
 40
1.999999999999972
 50
270.0
 51
0.0000000000007958
  0
LINE
  5
32C
  8
DATA
  6
CONTINUOUS
 62
     7
 10
64.74999999999994
 20
-68.90000000000003
 30
0.0
 11
64.74999999999994
 21
-71.10000000000002
 31
0.0
  0
ARC
  5
32D
  8
DATA
  6
CONTINUOUS
 62
     7
 10
62.75000000000006
 20
-68.9
 30
0.0
 40
1.999999999999886
 50
359.9999999999993
 51
90.0000000000033
  0
LINE
  5
32E
  8
DATA
  6
CONTINUOUS
 62
     7
 10
49.74999999999994
 20
-66.90000000000003
 30
0.0
 11
62.74999999999994
 21
-66.90000000000003
 31
0.0
  0
CIRCLE
  5
32F
  8
DATA
  6
CONTINUOUS
 62
     7
 10
49.34365128642315
 20
-76.665597184631
 30
0.0
 40
1.5
  0
LINE
  5
330
  8
DATA
  6
CONTINUOUS
 62
     7
 10
55.73529070351043
 20
-76.95857770380047
 30
0.0
 11
55.73529070351043
 21
-77.0946994887257
 31
0.0
  0
LINE
  5
331
  8
DATA
  6
CONTINUOUS
 62
     7
 10
52.33529070351045
 20
-77.0946994887257
 30
0.0
 11
52.33529070351045
 21
-76.95857770380047
 31
0.0
  0
ARC
  5
332
  8
DATA
  6
CONTINUOUS
 62
     7
 10
54.03529070351038
 20
-77.08778901933081
 30
0.0
 40
1.704903388483124
 50
4.346503536100219
 51
175.6534964638995
  0
ARC
  5
333
  8
DATA
  6
CONTINUOUS
 62
     7
 10
54.03529070351038
 20
-79.12371735699969
 30
0.0
 40
2.165139653199266
 50
55.39475161232517
 51
124.6052483876723
  0
ARC
  5
334
  8
DATA
  6
CONTINUOUS
 62
     7
 10
52.63529070351041
 20
-77.0946994887257
 30
0.0
 40
0.2999999999999545
 50
180.0
 51
304.6052483876749
  0
ARC
  5
335
  8
DATA
  6
CONTINUOUS
 62
     7
 10
55.43529070351047
 20
-77.0946994887257
 30
0.0
 40
0.3000000000000021
 50
235.3947516123251
 51
0.0
  0
ARC
  5
336
  8
DATA
  6
CONTINUOUS
 62
     7
 10
58.60148104248157
 20
-76.22433152493483
 30
0.0
 40
1.15000000000006
 50
292.3099426292219
 51
247.690057370784
  0
ARC
  5
337
  8
DATA
  6
CONTINUOUS
 62
     7
 10
58.60148104248168
 20
-77.52180351233307
 30
0.0
 40
0.4951086844945401
 50
151.8534868296871
 51
28.1465131703249
  0
CIRCLE
  5
338
  8
DATA
  6
CONTINUOUS
 62
     7
 10
63.24387088046325
 20
-75.64052780471684
 30
0.0
 40
1.0
  0
CIRCLE
  5
339
  8
DATA
  6
CONTINUOUS
 62
     7
 10
63.24387088046325
 20
-77.64052780471684
 30
0.0
 40
1.0
  0
LINE
  5
33A
  8
DATA
  6
CONTINUOUS
 62
     7
 10
102.25
 20
-93.0
 30
0.0
 11
135.25
 21
-93.0
 31
0.0
  0
LINE
  5
33B
  8
DATA
  6
CONTINUOUS
 62
     7
 10
99.25
 20
-90.0
 30
0.0
 11
138.25
 21
-90.0
 31
0.0
  0
LINE
  5
33C
  8
DATA
  6
CONTINUOUS
 62
     7
 10
102.25
 20
-93.0
 30
0.0
 11
99.25
 21
-90.0
 31
0.0
  0
LINE
  5
33D
  8
DATA
  6
CONTINUOUS
 62
     7
 10
135.25
 20
-93.0
 30
0.0
 11
138.25
 21
-90.0
 31
0.0
  0
LINE
  5
33E
  8
DATA
  6
CONTINUOUS
 62
     7
 10
120.0579760241196
 20
-82.0
 30
0.0
 11
117.4420239758804
 21
-82.0
 31
0.0
  0
LINE
  5
33F
  8
DATA
  6
CONTINUOUS
 62
     7
 10
119.7879760241196
 20
-72.0
 30
0.0
 11
117.7120239758804
 21
-72.0
 31
0.0
  0
LINE
  5
340
  8
DATA
  6
CONTINUOUS
 62
     7
 10
120.25
 20
-81.31861641369261
 30
0.0
 11
120.25
 21
-72.5186164136926
 31
0.0
  0
LINE
  5
341
  8
DATA
  6
CONTINUOUS
 62
     7
 10
117.25
 20
-81.31861641369261
 30
0.0
 11
120.25
 21
-81.31861641369261
 31
0.0
  0
LINE
  5
342
  8
DATA
  6
CONTINUOUS
 62
     7
 10
117.25
 20
-72.5186164136926
 30
0.0
 11
117.25
 21
-81.31861641369261
 31
0.0
  0
LINE
  5
343
  8
DATA
  6
CONTINUOUS
 62
     7
 10
120.25
 20
-72.5186164136926
 30
0.0
 11
117.25
 21
-72.5186164136926
 31
0.0
  0
LINE
  5
344
  8
DATA
  6
CONTINUOUS
 62
     7
 10
122.0559540944078
 20
-79.91009098683702
 30
0.0
 11
121.7859540944075
 21
-73.91009098683702
 31
0.0
  0
LINE
  5
345
  8
DATA
  6
CONTINUOUS
 62
     7
 10
115.4440459055922
 20
-79.91009098683702
 30
0.0
 11
115.7140459055922
 21
-73.91009098683702
 31
0.0
  0
ARC
  5
346
  8
DATA
  6
CONTINUOUS
 62
     7
 10
120.0579760241196
 20
-80.0
 30
0.0
 40
2.0
 50
270.0
 51
2.576571830269245
  0
ARC
  5
347
  8
DATA
  6
CONTINUOUS
 62
     7
 10
117.4420239758804
 20
-80.0
 30
0.0
 40
2.000000000000052
 50
177.4234281697308
 51
270.0
  0
ARC
  5
348
  8
DATA
  6
CONTINUOUS
 62
     7
 10
117.7120239758804
 20
-74.0
 30
0.0
 40
2.0
 50
90.0
 51
177.4234281697308
  0
ARC
  5
349
  8
DATA
  6
CONTINUOUS
 62
     7
 10
119.7879760241196
 20
-74.0
 30
0.0
 40
1.999999999999825
 50
2.576571830269547
 51
90.0
  0
POLYLINE
  5
34A
  8
DATA
  6
CONTINUOUS
 62
     7
 66
     1
 10
0.0
 20
0.0
 30
0.0
 70
     1
  0
VERTEX
  5
483
  8
DATA
  6
CONTINUOUS
 62
     7
 10
117.5
 20
-74.75
 30
0.0
  0
VERTEX
  5
484
  8
DATA
  6
CONTINUOUS
 62
     7
 10
120.0
 20
-74.75
 30
0.0
  0
VERTEX
  5
485
  8
DATA
  6
CONTINUOUS
 62
     7
 10
120.0
 20
-77.25
 30
0.0
  0
VERTEX
  5
486
  8
DATA
  6
CONTINUOUS
 62
     7
 10
117.5
 20
-77.25
 30
0.0
  0
SEQEND
  5
48B
  8
DATA
  6
CONTINUOUS
 62
     7
  0
TEXT
  5
351
  8
DATA
 62
     7
 10
109.8499907497086
 20
-80.7840592109461
 30
0.0
 40
1.52703857421875
  1
-20dB
 41
0.7
 11
109.8499907497086
 21
-79.25702063672735
 31
0.0
 73
     3
  0
TEXT
  5
352
  8
DATA
 62
     7
 10
111.8763687764189
 20
-75.09104756714724
 30
0.0
 40
1.52703857421875
  1
0dB
 41
0.7
 11
111.8763687764189
 21
-73.56400899292849
 31
0.0
 73
     3
  0
ARC
  5
353
  8
DATA
  6
CONTINUOUS
 62
     7
 10
-87.25000000000001
 20
20.74166666666661
 30
0.0
 40
75.50833333333334
 50
72.53702047502104
 51
107.5118663651105
  0
ARC
  5
354
  8
DATA
  6
CONTINUOUS
 62
     7
 10
-87.25000000000001
 20
129.2583333333333
 30
0.0
 40
75.5083333333333
 50
252.4881336348895
 51
287.462979524979
  0
ARC
  5
355
  8
DATA
  6
CONTINUOUS
 62
     7
 10
-100.0312499999999
 20
74.99999999999996
 30
0.0
 40
40.28124999999994
 50
335.5212126301429
 51
24.47878736985706
  0
ARC
  5
356
  8
DATA
  6
CONTINUOUS
 62
     7
 10
-78.97222222222219
 20
74.99999999999996
 30
0.0
 40
36.27777777777783
 50
152.4707603281819
 51
207.5292396718181
  0
LINE
  5
357
  8
DATA
  6
CONTINUOUS
 62
     7
 10
-114.1681917737663
 20
82.94999999999995
 30
0.0
 11
-60.74230722404685
 21
82.94999999999995
 31
0.0
  0
LINE
  5
358
  8
DATA
  6
CONTINUOUS
 62
     7
 10
-114.1681917737663
 20
67.04999999999995
 30
0.0
 11
-60.74230722404685
 21
67.04999999999995
 31
0.0
  0
LINE
  5
359
  8
DATA
  6
CONTINUOUS
 62
     7
 10
-114.3780456292694
 20
81.94999999999995
 30
0.0
 11
-60.55409534442403
 21
81.94999999999995
 31
0.0
  0
LINE
  5
35A
  8
DATA
  6
CONTINUOUS
 62
     7
 10
-114.3780456292694
 20
68.04999999999995
 30
0.0
 11
-60.55409534442403
 21
68.04999999999995
 31
0.0
  0
ARC
  5
35B
  8
DATA
  6
CONTINUOUS
 62
     7
 10
-87.25000000000001
 20
18.7416666666666
 30
0.0
 40
75.50833333333335
 50
73.60852740661004
 51
106.5305181441259
  0
ARC
  5
35C
  8
DATA
  6
CONTINUOUS
 62
     7
 10
-87.25000000000001
 20
131.2583333333333
 30
0.0
 40
75.50833333333331
 50
253.4694818558741
 51
286.39147259339
  0
ARC
  5
35D
  8
DATA
  6
CONTINUOUS
 62
     7
 10
-76.97222222222219
 20
74.99999999999996
 30
0.0
 40
36.27777777777777
 50
155.5054843392793
 51
167.3413318238906
  0
ARC
  5
35E
  8
DATA
  6
CONTINUOUS
 62
     7
 10
-76.97222222222219
 20
74.99999999999996
 30
0.0
 40
36.27777777777781
 50
192.6586681761094
 51
204.4945156607207
  0
ARC
  5
35F
  8
DATA
  6
CONTINUOUS
 62
     7
 10
-102.0312499999999
 20
74.99999999999996
 30
0.0
 40
40.28124999999996
 50
338.12598868342
 51
348.6172444780423
  0
ARC
  5
360
  8
DATA
  6
CONTINUOUS
 62
     7
 10
-102.0312499999999
 20
74.99999999999996
 30
0.0
 40
40.28124999999986
 50
11.38275552195763
 51
21.87401131658
  0
ARC
  5
361
  8
DATA
  6
CONTINUOUS
 62
     7
 10
-78.77222222222225
 20
74.99999999999996
 30
0.0
 40
36.27777777777781
 50
167.3413318238906
 51
192.6586681761093
  0
ARC
  5
362
  8
DATA
  6
CONTINUOUS
 62
     7
 10
-100.2312499999998
 20
74.99999999999996
 30
0.0
 40
40.28124999999986
 50
348.6172444780423
 51
11.38275552195762
  0
ARC
  5
363
  8
DATA
  6
CONTINUOUS
 62
     7
 10
-109.368901154038
 20
90.84323070900696
 30
0.0
 40
1.999999999999971
 50
107.5118663651098
 51
152.4707603281828
  0
ARC
  5
364
  8
DATA
  6
CONTINUOUS
 62
     7
 10
-108.1650329427555
 20
89.21177711391866
 30
0.0
 40
1.999999999999999
 50
106.5305181441265
 51
155.5054843392782
  0
ARC
  5
365
  8
DATA
  6
CONTINUOUS
 62
     7
 10
-109.368901154038
 20
59.15676929099307
 30
0.0
 40
2.000000000000068
 50
207.5292396718197
 51
252.4881336348911
  0
ARC
  5
366
  8
DATA
  6
CONTINUOUS
 62
     7
 10
-108.1650329427555
 20
60.78822288608127
 30
0.0
 40
2.00000000000002
 50
204.4945156607205
 51
253.4694818558735
  0
ARC
  5
367
  8
DATA
  6
CONTINUOUS
 62
     7
 10
-66.50604552977713
 20
89.26232620968115
 30
0.0
 40
2.000000000000021
 50
21.87401131657996
 51
73.60852740661075
  0
ARC
  5
368
  8
DATA
  6
CONTINUOUS
 62
     7
 10
-65.19092009073258
 20
90.86207783917044
 30
0.0
 40
2.000000000000058
 50
24.47878736985642
 51
72.53702047502088
  0
ARC
  5
369
  8
DATA
  6
CONTINUOUS
 62
     7
 10
-66.50604552977713
 20
60.73767379031871
 30
0.0
 40
1.99999999999994
 50
286.3914725933897
 51
338.1259886834216
  0
ARC
  5
36A
  8
DATA
  6
CONTINUOUS
 62
     7
 10
-65.19092009073269
 20
59.13792216082963
 30
0.0
 40
2.00000000000018
 50
287.4629795249809
 51
335.5212126301409
  0
ARC
  5
36B
  8
DATA
  6
STYLE_02
 62
     7
 10
-87.25000000000001
 20
-44.40000000000005
 30
0.0
 40
146.9
 50
77.61485731775934
 51
102.3851426822406
  0
ARC
  5
36C
  8
DATA
  6
STYLE_02
 62
     7
 10
-87.25000000000001
 20
194.3999999999999
 30
0.0
 40
146.9
 50
257.6148573177593
 51
282.3851426822407
  0
ARC
  5
36D
  8
DATA
  6
STYLE_02
 62
     7
 10
-47.12500000000001
 20
74.99999999999996
 30
0.0
 40
78.12499999999997
 50
164.7796118257337
 51
195.2203881742663
  0
ARC
  5
36E
  8
DATA
  6
STYLE_02
 62
     7
 10
-127.375
 20
74.99999999999996
 30
0.0
 40
78.12500000000009
 50
344.7796118257338
 51
15.22038817426625
  0
ARC
  5
36F
  8
DATA
  6
STYLE_02
 62
     7
 10
-117.6850043038209
 20
94.19769302923623
 30
0.0
 40
5.000000000000014
 50
102.3851426822406
 51
164.7796118257334
  0
ARC
  5
370
  8
DATA
  6
STYLE_02
 62
     7
 10
-56.81499569617917
 20
94.19769302923625
 30
0.0
 40
5.00000000000006
 50
15.22038817426617
 51
77.61485731775943
  0
ARC
  5
371
  8
DATA
  6
STYLE_02
 62
     7
 10
-117.6850043038207
 20
55.80230697076369
 30
0.0
 40
5.00000000000006
 50
195.2203881742662
 51
257.6148573177582
  0
ARC
  5
372
  8
DATA
  6
STYLE_02
 62
     7
 10
-56.81499569617917
 20
55.80230697076372
 30
0.0
 40
5.000000000000028
 50
282.3851426822405
 51
344.7796118257335
  0
LINE
  5
373
  8
DATA
  6
CONTINUOUS
 62
     7
 10
-49.74999999999756
 20
38.50011526881821
 30
0.0
 11
24.99999999999999
 21
38.50011526881821
 31
0.0
  0
LINE
  5
374
  8
DATA
  6
CONTINUOUS
 62
     7
 10
-49.74999999999756
 20
37.5
 30
0.0
 11
-60.26389246297246
 21
50.0
 31
0.0
  0
LINE
  5
375
  8
DATA
  6
CONTINUOUS
 62
     7
 10
-60.26389246297246
 20
50.0
 30
0.0
 11
-54.81379635574915
 21
46.32386375806812
 31
0.0
  0
LINE
  5
376
  8
DATA
  6
CONTINUOUS
 62
     7
 10
-60.26389246297246
 20
50.0
 30
0.0
 11
-57.38203890201633
 21
44.09132457310267
 31
0.0
  0
LINE
  5
377
  8
DATA
  6
CONTINUOUS
 62
     7
 10
-27.0
 20
-57.8998847311818
 30
0.0
 11
14.5
 21
-57.8998847311818
 31
0.0
  0
LINE
  5
378
  8
DATA
  6
CONTINUOUS
 62
     7
 10
-114.75
 20
-57.8998847311818
 30
0.0
 11
-115.25
 21
-47.99988473118179
 31
0.0
  0
LINE
  5
379
  8
DATA
  6
CONTINUOUS
 62
     7
 10
-60.25
 20
-57.8998847311818
 30
0.0
 11
-59.75
 21
-47.99988473118179
 31
0.0
  0
LINE
  5
37A
  8
DATA
  6
CONTINUOUS
 62
     7
 10
-27.0
 20
-59.3998847311818
 30
0.0
 11
14.5
 21
-59.3998847311818
 31
0.0
  0
LINE
  5
37B
  8
DATA
  6
CONTINUOUS
 62
     7
 10
-25.75
 20
-90.0
 30
0.0
 11
-27.0
 21
-59.3998847311818
 31
0.0
  0
LINE
  5
37C
  8
DATA
  6
CONTINUOUS
 62
     7
 10
13.25
 20
-90.0
 30
0.0
 11
14.5
 21
-59.3998847311818
 31
0.0
  0
LINE
  5
37D
  8
DATA
  6
CONTINUOUS
 62
     7
 10
-26.5
 20
-57.8998847311818
 30
0.0
 11
-26.5
 21
-59.3998847311818
 31
0.0
  0
LINE
  5
37E
  8
DATA
  6
CONTINUOUS
 62
     7
 10
14.0
 20
-57.8998847311818
 30
0.0
 11
14.0
 21
-59.3998847311818
 31
0.0
  0
LINE
  5
37F
  8
DATA
  6
CONTINUOUS
 62
     7
 10
-114.25
 20
-57.8998847311818
 30
0.0
 11
-114.25
 21
-59.3998847311818
 31
0.0
  0
LINE
  5
380
  8
DATA
  6
CONTINUOUS
 62
     7
 10
-60.75
 20
-57.8998847311818
 30
0.0
 11
-60.75
 21
-59.3998847311818
 31
0.0
  0
LINE
  5
381
  8
DATA
  6
CONTINUOUS
 62
     7
 10
-14.20000000000005
 20
-48.05510843778188
 30
0.0
 11
-13.2076234591982
 21
21.96224039967321
 31
0.0
  0
LINE
  5
382
  8
DATA
  6
CONTINUOUS
 62
     7
 10
1.700000000000045
 20
-47.99988473118179
 30
0.0
 11
0.7076294307680655
 21
21.96224039967323
 31
0.0
  0
LINE
  5
383
  8
DATA
  6
CONTINUOUS
 62
     7
 10
-24.75
 20
-47.99988473118179
 30
0.0
 11
-24.51768019748943
 21
17.51429957679899
 31
0.0
  0
LINE
  5
384
  8
DATA
  6
CONTINUOUS
 62
     7
 10
12.25
 20
-47.99988473118179
 30
0.0
 11
12.01768019748943
 21
17.51429957679899
 31
0.0
  0
LINE
  5
385
  8
DATA
  6
CONTINUOUS
 62
     7
 10
-20.51770534689263
 20
21.50011526881815
 30
0.0
 11
-13.21417329500878
 21
21.50011526881815
 31
0.0
  0
LINE
  5
386
  8
DATA
  6
CONTINUOUS
 62
     7
 10
0.7141843971630806
 20
21.50011526881815
 30
0.0
 11
8.017705346892626
 21
21.50011526881815
 31
0.0
  0
ARC
  5
387
  8
DATA
  6
CONTINUOUS
 62
     7
 10
-6.249997014215069
 20
-22.76866183559966
 30
0.0
 40
45.26877710441791
 50
81.1588281466588
 51
98.84117185334121
  0
ARC
  5
388
  8
DATA
  6
CONTINUOUS
 62
     7
 10
-20.51770534689263
 20
17.50011526881815
 30
0.0
 40
4.0
 50
90.0
 51
179.7968243285336
  0
ARC
  5
389
  8
DATA
  6
CONTINUOUS
 62
     7
 10
8.017705346892626
 20
17.50011526881815
 30
0.0
 40
3.999999999999973
 50
0.2031756714663999
 51
90.0
  0
ARC
  5
38A
  8
DATA
  6
CONTINUOUS
 62
     7
 10
181.9166128657926
 20
-1.063596801441534
 30
0.0
 40
203.6879335960387
 50
173.6399558676764
 51
177.8718992816158
  0
ARC
  5
38B
  8
DATA
  6
CONTINUOUS
 62
     7
 10
-194.4166128657926
 20
-1.063596801441534
 30
0.0
 40
203.6879335960386
 50
2.128100718384207
 51
6.360044132323624
  0
LINE
  5
38C
  8
DATA
  6
CONTINUOUS
 62
     7
 10
-21.63083750473515
 20
6.500115268818206
 30
0.0
 11
-21.82409991608256
 21
-47.99988473118179
 31
0.0
  0
LINE
  5
38D
  8
DATA
  6
CONTINUOUS
 62
     7
 10
9.130837504735155
 20
6.500115268818206
 30
0.0
 11
9.32409991608256
 21
-47.99988473118179
 31
0.0
  0
LINE
  5
38E
  8
DATA
  6
CONTINUOUS
 62
     7
 10
-27.5
 20
-47.99988473118179
 30
0.0
 11
15.0
 21
-47.99988473118179
 31
0.0
  0
LINE
  5
38F
  8
DATA
  6
CONTINUOUS
 62
     7
 10
-27.0
 20
-57.8998847311818
 30
0.0
 11
-27.5
 21
-47.99988473118179
 31
0.0
  0
LINE
  5
390
  8
DATA
  6
CONTINUOUS
 62
     7
 10
14.5
 20
-57.8998847311818
 30
0.0
 11
15.0
 21
-47.99988473118179
 31
0.0
  0
LINE
  5
391
  8
DATA
  6
CONTINUOUS
 62
     7
 10
83.49999999999994
 20
-57.8998847311818
 30
0.0
 11
83.99999999999994
 21
-47.99988473118179
 31
0.0
  0
LINE
  5
392
  8
DATA
  6
CONTINUOUS
 62
     7
 10
28.99999999999994
 20
-57.8998847311818
 30
0.0
 11
28.49999999999994
 21
-47.99988473118179
 31
0.0
  0
LINE
  5
393
  8
DATA
  6
CONTINUOUS
 62
     7
 10
82.99999999999994
 20
-57.8998847311818
 30
0.0
 11
82.99999999999994
 21
-59.3998847311818
 31
0.0
  0
LINE
  5
394
  8
DATA
  6
CONTINUOUS
 62
     7
 10
29.49999999999994
 20
-57.8998847311818
 30
0.0
 11
29.49999999999994
 21
-59.3998847311818
 31
0.0
  0
LINE
  5
395
  8
DATA
  6
CONTINUOUS
 62
     7
 10
139.5
 20
-57.8998847311818
 30
0.0
 11
98.0
 21
-57.8998847311818
 31
0.0
  0
LINE
  5
396
  8
DATA
  6
CONTINUOUS
 62
     7
 10
139.5
 20
-57.8998847311818
 30
0.0
 11
140.0
 21
-47.99988473118179
 31
0.0
  0
LINE
  5
397
  8
DATA
  6
CONTINUOUS
 62
     7
 10
98.0
 20
-57.8998847311818
 30
0.0
 11
97.5
 21
-47.99988473118179
 31
0.0
  0
LINE
  5
398
  8
DATA
  6
CONTINUOUS
 62
     7
 10
139.5
 20
-59.3998847311818
 30
0.0
 11
98.0
 21
-59.3998847311818
 31
0.0
  0
LINE
  5
399
  8
DATA
  6
CONTINUOUS
 62
     7
 10
138.25
 20
-90.0
 30
0.0
 11
139.5
 21
-59.3998847311818
 31
0.0
  0
LINE
  5
39A
  8
DATA
  6
CONTINUOUS
 62
     7
 10
99.25
 20
-90.0
 30
0.0
 11
98.0
 21
-59.3998847311818
 31
0.0
  0
LINE
  5
39B
  8
DATA
  6
CONTINUOUS
 62
     7
 10
139.0
 20
-57.8998847311818
 30
0.0
 11
139.0
 21
-59.3998847311818
 31
0.0
  0
LINE
  5
39C
  8
DATA
  6
CONTINUOUS
 62
     7
 10
98.5
 20
-57.8998847311818
 30
0.0
 11
98.5
 21
-59.3998847311818
 31
0.0
  0
LINE
  5
39D
  8
DATA
  6
CONTINUOUS
 62
     7
 10
140.0
 20
-47.99988473118179
 30
0.0
 11
97.5
 21
-47.99988473118179
 31
0.0
  0
LINE
  5
39E
  8
DATA
  6
CONTINUOUS
 62
     7
 10
126.7
 20
-48.05510843778188
 30
0.0
 11
125.7076234591982
 21
21.96224039967321
 31
0.0
  0
LINE
  5
39F
  8
DATA
  6
CONTINUOUS
 62
     7
 10
110.8
 20
-47.99988473118179
 30
0.0
 11
111.7923705692319
 21
21.96224039967323
 31
0.0
  0
LINE
  5
3A0
  8
DATA
  6
CONTINUOUS
 62
     7
 10
137.25
 20
-47.99988473118179
 30
0.0
 11
137.0176801974894
 21
17.51429957679899
 31
0.0
  0
LINE
  5
3A1
  8
DATA
  6
CONTINUOUS
 62
     7
 10
100.25
 20
-47.99988473118179
 30
0.0
 11
100.4823198025106
 21
17.51429957679899
 31
0.0
  0
ARC
  5
3A2
  8
DATA
  6
CONTINUOUS
 62
     7
 10
-69.41661286579256
 20
-1.063596801441534
 30
0.0
 40
203.6879335960386
 50
2.128100718384207
 51
6.360044132323624
  0
ARC
  5
3A3
  8
DATA
  6
CONTINUOUS
 62
     7
 10
306.9166128657926
 20
-1.063596801441534
 30
0.0
 40
203.6879335960387
 50
173.6399558676764
 51
177.8718992816158
  0
LINE
  5
3A4
  8
DATA
  6
CONTINUOUS
 62
     7
 10
133.0177053468926
 20
21.50011526881815
 30
0.0
 11
125.7141732950088
 21
21.50011526881815
 31
0.0
  0
LINE
  5
3A5
  8
DATA
  6
CONTINUOUS
 62
     7
 10
111.7858156028369
 20
21.50011526881815
 30
0.0
 11
104.4822946531074
 21
21.50011526881815
 31
0.0
  0
ARC
  5
3A6
  8
DATA
  6
CONTINUOUS
 62
     7
 10
118.7499970142151
 20
-22.76866183559966
 30
0.0
 40
45.26877710441791
 50
81.1588281466588
 51
98.84117185334121
  0
ARC
  5
3A7
  8
DATA
  6
CONTINUOUS
 62
     7
 10
133.0177053468926
 20
17.50011526881815
 30
0.0
 40
3.999999999999973
 50
0.2031756714663999
 51
90.0
  0
ARC
  5
3A8
  8
DATA
  6
CONTINUOUS
 62
     7
 10
104.4822946531074
 20
17.50011526881815
 30
0.0
 40
4.0
 50
90.0
 51
179.7968243285336
  0
LINE
  5
3A9
  8
DATA
  6
CONTINUOUS
 62
     7
 10
134.1308375047352
 20
6.500115268818206
 30
0.0
 11
134.3240999160826
 21
-47.99988473118179
 31
0.0
  0
LINE
  5
3AA
  8
DATA
  6
CONTINUOUS
 62
     7
 10
103.3691624952648
 20
6.500115268818206
 30
0.0
 11
103.1759000839174
 21
-47.99988473118179
 31
0.0
  0
LINE
  5
3AB
  8
DATA
  6
CONTINUOUS
 62
     7
 10
-109.05
 20
-47.99988473118179
 30
0.0
 11
-107.6847452565239
 21
14.09718585916602
 31
0.0
  0
LINE
  5
3AC
  8
DATA
  6
CONTINUOUS
 62
     7
 10
-65.95000000000005
 20
-47.99988473118179
 30
0.0
 11
-67.31525474347654
 21
14.09718585920328
 31
0.0
  0
ARC
  5
3AD
  8
DATA
  6
CONTINUOUS
 62
     7
 10
-87.50000000000011
 20
-252.6053505643819
 30
0.0
 40
271.1054658332001
 50
86.52593611435134
 51
93.4740638856492
  0
ARC
  5
3AE
  8
DATA
  6
CONTINUOUS
 62
     7
 10
-103.6857116583351
 20
14.00926384388667
 30
0.0
 40
4.000000000026771
 50
93.47406388602984
 51
178.7405084666824
  0
ARC
  5
3AF
  8
DATA
  6
CONTINUOUS
 62
     7
 10
-71.31428834162489
 20
14.00926384392484
 30
0.0
 40
3.999999999986239
 50
1.259491533317329
 51
86.52593611454837
  0
LINE
  5
3B0
  8
DATA
  6
CONTINUOUS
 62
     7
 10
34.70000000001102
 20
-47.99988473118179
 30
0.0
 11
36.06525474348706
 21
14.09718585916602
 31
0.0
  0
LINE
  5
3B1
  8
DATA
  6
CONTINUOUS
 62
     7
 10
77.80000000001093
 20
-47.99988473118179
 30
0.0
 11
76.43474525653443
 21
14.09718585920328
 31
0.0
  0
ARC
  5
3B2
  8
DATA
  6
CONTINUOUS
 62
     7
 10
56.25000000001086
 20
-252.6053505643819
 30
0.0
 40
271.1054658332001
 50
86.52593611435134
 51
93.4740638856492
  0
ARC
  5
3B3
  8
DATA
  6
CONTINUOUS
 62
     7
 10
40.06428834167588
 20
14.00926384388667
 30
0.0
 40
4.000000000026771
 50
93.47406388602984
 51
178.7405084666824
  0
ARC
  5
3B4
  8
DATA
  6
CONTINUOUS
 62
     7
 10
72.43571165838608
 20
14.00926384392484
 30
0.0
 40
3.999999999986239
 50
1.259491533317329
 51
86.52593611454837
  0
CIRCLE
  5
3B5
  8
DATA
  6
CONTINUOUS
 62
     7
 10
118.75
 20
-85.81753481929246
 30
0.0
 40
1.5
  0
TEXT
  5
3B6
  8
DATA
 62
     7
 10
95.00047499999998
 20
-226.9154319125001
 30
0.0
 40
3.800648343424479
  1
サイドアドレス型マイクロホン
 41
0.7
 11
95.00047499999998
 21
-223.1147835690756
 31
0.0
 73
     3
  0
ARC
  5
3B7
  8
DATA
  6
CONTINUOUS
 62
     7
 10
-87.25
 20
-133.2416666666667
 30
0.0
 40
75.50833333333331
 50
252.4881336348895
 51
287.4629795249788
  0
ARC
  5
3B8
  8
DATA
  6
CONTINUOUS
 62
     7
 10
-87.25
 20
-241.7583333333333
 30
0.0
 40
75.50833333333334
 50
72.53702047502104
 51
107.5118663651105
  0
ARC
  5
3B9
  8
DATA
  6
CONTINUOUS
 62
     7
 10
-100.0312499999999
 20
-187.5
 30
0.0
 40
40.28124999999995
 50
335.5212126301429
 51
24.47878736985712
  0
ARC
  5
3BA
  8
DATA
  6
CONTINUOUS
 62
     7
 10
-78.97222222222217
 20
-187.5
 30
0.0
 40
36.27777777777781
 50
152.470760328182
 51
207.5292396718181
  0
ARC
  5
3BB
  8
DATA
  6
CONTINUOUS
 62
     7
 10
-109.368901154038
 20
-203.343230709007
 30
0.0
 40
2.000000000000036
 50
207.5292396718179
 51
252.4881336348903
  0
ARC
  5
3BC
  8
DATA
  6
CONTINUOUS
 62
     7
 10
-109.368901154038
 20
-171.6567692909931
 30
0.0
 40
2.00000000000008
 50
107.5118663651088
 51
152.4707603281807
  0
ARC
  5
3BD
  8
DATA
  6
CONTINUOUS
 62
     7
 10
-65.19092009073256
 20
-203.3620778391705
 30
0.0
 40
2.000000000000037
 50
287.4629795249787
 51
335.5212126301425
  0
ARC
  5
3BE
  8
DATA
  6
CONTINUOUS
 62
     7
 10
-65.19092009073267
 20
-171.6379221608297
 30
0.0
 40
2.00000000000025
 50
24.47878736986063
 51
72.53702047501962
  0
CIRCLE
  5
3BF
  8
DATA
  6
CONTINUOUS
 62
     7
 10
-87.25
 20
-187.5
 30
0.0
 40
9.75
  0
ARC
  5
3C0
  8
DATA
  6
CONTINUOUS
 62
     7
 10
-87.25
 20
-245.5583333333333
 30
0.0
 40
75.50833333333337
 50
74.62486563798218
 51
105.5779638571717
  0
ARC
  5
3C1
  8
DATA
  6
CONTINUOUS
 62
     7
 10
-87.25
 20
-129.4416666666667
 30
0.0
 40
75.50833333333335
 50
254.4220361428283
 51
285.3751343620178
  0
ARC
  5
3C2
  8
DATA
  6
CONTINUOUS
 62
     7
 10
-75.17222222222222
 20
-187.5
 30
0.0
 40
36.27777777777773
 50
158.1638551149797
 51
201.8361448850202
  0
ARC
  5
3C3
  8
DATA
  6
CONTINUOUS
 62
     7
 10
-103.8312499999998
 20
-187.5
 30
0.0
 40
40.28124999999986
 50
340.435469019355
 51
19.56453098064492
  0
ARC
  5
3C4
  8
DATA
  6
CONTINUOUS
 62
     7
 10
-106.9906162598068
 20
-174.7502607771092
 30
0.0
 40
1.999999999999984
 50
105.5779638571711
 51
158.16385511498
  0
ARC
  5
3C5
  8
DATA
  6
CONTINUOUS
 62
     7
 10
-67.76017049718223
 20
-174.680821981738
 30
0.0
 40
2.000000000000118
 50
19.56453098064625
 51
74.6248656379789
  0
ARC
  5
3C6
  8
DATA
  6
CONTINUOUS
 62
     7
 10
-106.9906162598068
 20
-200.2497392228908
 30
0.0
 40
1.999999999999954
 50
201.8361448850201
 51
254.4220361428285
  0
ARC
  5
3C7
  8
DATA
  6
CONTINUOUS
 62
     7
 10
-67.76017049718212
 20
-200.3191780182621
 30
0.0
 40
2.000000000000038
 50
285.3751343620185
 51
340.4354690193542
  0
CIRCLE
  5
3C8
  8
DATA
  6
CONTINUOUS
 62
     7
 10
-103.2500000000007
 20
-195.9250000000001
 30
0.0
 40
2.5
  0
LINE
  5
3C9
  8
DATA
  6
CONTINUOUS
 62
     7
 10
-104.3999999999999
 20
-195.9250000000001
 30
0.0
 11
-102.1
 21
-195.9250000000001
 31
0.0
  0
LINE
  5
3CA
  8
DATA
  6
CONTINUOUS
 62
     7
 10
-103.2500000000007
 20
-197.0750000000004
 30
0.0
 11
-103.2500000000007
 21
-194.7750000000004
 31
0.0
  0
CIRCLE
  5
3CB
  8
DATA
  6
CONTINUOUS
 62
     7
 10
-87.25
 20
-187.5
 30
0.0
 40
12.34999999999999
  0
ARC
  5
3CC
  8
DATA
  6
CONTINUOUS
 62
     7
 10
-87.25
 20
-187.5
 30
0.0
 40
7.999999999999927
 50
51.10045644322414
 51
43.93731780590854
  0
CIRCLE
  5
3CD
  8
DATA
  6
CONTINUOUS
 62
     7
 10
-83.34999999999994
 20
-187.5
 30
0.0
 40
1.200000000000003
  0
ARC
  5
3CE
  8
DATA
  6
CONTINUOUS
 62
     7
 10
-81.84722293630384
 20
-181.6000000000001
 30
0.0
 40
0.5000000000000029
 50
315.7281024652314
 51
139.3096717839017
  0
CIRCLE
  5
3CF
  8
DATA
  6
CONTINUOUS
 62
     7
 10
-87.24999999999991
 20
-190.8500540753542
 30
0.0
 40
1.200000000000003
  0
CIRCLE
  5
3D0
  8
DATA
  6
CONTINUOUS
 62
     7
 10
-91.14999999999995
 20
-187.5
 30
0.0
 40
1.200000000000003
  0
CIRCLE
  5
3D1
  8
DATA
  6
CONTINUOUS
 62
     7
 10
-71.24999999999994
 20
-177.9249999999998
 30
0.0
 40
2.5
  0
LINE
  5
3D2
  8
DATA
  6
CONTINUOUS
 62
     7
 10
-72.39999999999912
 20
-177.9249999999998
 30
0.0
 11
-70.09999999999917
 21
-177.9249999999998
 31
0.0
  0
LINE
  5
3D3
  8
DATA
  6
CONTINUOUS
 62
     7
 10
-71.24999999999994
 20
-179.0750000000001
 30
0.0
 11
-71.24999999999994
 21
-176.7750000000001
 31
0.0
  0
CIRCLE
  5
3D4
  8
DATA
  6
CONTINUOUS
 62
     7
 10
-87.25
 20
-187.5
 30
0.0
 40
11.15000000000001
  0
CIRCLE
  5
3D5
  8
DATA
  6
CONTINUOUS
 62
     7
 10
-87.25
 20
-187.5
 30
0.0
 40
13.0
  0
ARC
  5
3D6
  8
DATA
  6
CONTINUOUS
 62
     7
 10
-70.72830188679197
 20
-95.33142688679258
 30
0.0
 40
4.43410171124168
 50
148.2782469527533
 51
175.7134298354206
  0
LINE
  5
3D7
  8
DATA
  6
CONTINUOUS
 62
     7
 10
-49.74999999999756
 20
38.50011526881821
 30
0.0
 11
-59.72819538290067
 21
28.66750194358999
 31
0.0
  0
LINE
  5
3D8
  8
DATA
  6
CONTINUOUS
 62
     7
 10
-59.72819538290067
 20
28.66750194358999
 30
0.0
 11
-56.34233314931328
 21
34.30252298901497
 31
0.0
  0
LINE
  5
3D9
  8
DATA
  6
CONTINUOUS
 62
     7
 10
-59.72819538290067
 20
28.66750194358999
 30
0.0
 11
-53.97844215218718
 21
31.85464220299427
 31
0.0
  0
LINE
  5
3DA
  8
DATA
  6
STYLE_02
 62
     7
 10
-125.5
 20
24.41567118025014
 30
0.0
 11
-125.5
 21
-43.49988473118179
 31
0.0
  0
LINE
  5
3DB
  8
DATA
  6
STYLE_02
 62
     7
 10
-49.50000000000001
 20
24.41567118025014
 30
0.0
 11
-49.50000000000001
 21
-43.49988473118179
 31
0.0
  0
LINE
  5
3DC
  8
DATA
  6
STYLE_02
 62
     7
 10
-123.5426547937088
 20
-46.99988473118179
 30
0.0
 11
-51.45734520629107
 21
-46.99988473118179
 31
0.0
  0
LINE
  5
3DD
  8
DATA
  6
STYLE_02
 62
     7
 10
-125.5
 20
-43.49988473118179
 30
0.0
 11
-49.50000000000001
 21
-43.49988473118179
 31
0.0
  0
ARC
  5
3DE
  8
DATA
  6
STYLE_02
 62
     7
 10
-87.50000000000001
 20
-260.0498847311819
 30
0.0
 40
290.0500000000001
 50
83.08493660806954
 51
96.91506339193046
  0
LINE
  5
3DF
  8
DATA
  6
STYLE_02
 62
     7
 10
-125.5
 20
-43.49988473118179
 30
0.0
 11
-123.5426547937088
 21
-46.99988473118182
 31
0.0
  0
LINE
  5
3E0
  8
DATA
  6
STYLE_02
 62
     7
 10
-49.50000000000001
 20
-43.49988473118179
 30
0.0
 11
-51.45734520629107
 21
-46.99988473118182
 31
0.0
  0
ARC
  5
3E1
  8
DATA
  6
STYLE_02
 62
     7
 10
-122.0
 20
24.41567118025014
 30
0.0
 40
3.500000000000008
 50
96.91506339192942
 51
180.0
  0
ARC
  5
3E2
  8
DATA
  6
STYLE_02
 62
     7
 10
-53.00000000000001
 20
24.41567118025014
 30
0.0
 40
3.5
 50
0.0
 51
83.08493660806874
  0
LINE
  5
3E3
  8
DATA
  6
STYLE_02
 62
     7
 10
-33.04265479370896
 20
-46.99988473118182
 30
0.0
 11
20.04265479370893
 21
-46.99988473118182
 31
0.0
  0
LINE
  5
3E4
  8
DATA
  6
STYLE_02
 62
     7
 10
-35.00000000000001
 20
25.4074719790631
 30
0.0
 11
-35.00000000000001
 21
-43.49988473118179
 31
0.0
  0
LINE
  5
3E5
  8
DATA
  6
STYLE_02
 62
     7
 10
21.99999999999999
 20
25.4074719790631
 30
0.0
 11
21.99999999999999
 21
-43.49988473118182
 31
0.0
  0
LINE
  5
3E6
  8
DATA
  6
STYLE_02
 62
     7
 10
-35.00000000000001
 20
-43.49988473118179
 30
0.0
 11
21.99999999999999
 21
-43.49988473118179
 31
0.0
  0
LINE
  5
3E7
  8
DATA
  6
STYLE_02
 62
     7
 10
21.99999999999999
 20
-43.49988473118179
 30
0.0
 11
20.04265479370893
 21
-46.99988473118182
 31
0.0
  0
LINE
  5
3E8
  8
DATA
  6
STYLE_02
 62
     7
 10
-35.00000000000001
 20
-43.49988473118179
 30
0.0
 11
-33.04265479370896
 21
-46.99988473118182
 31
0.0
  0
ARC
  5
3E9
  8
DATA
  6
STYLE_02
 62
     7
 10
-6.500000000000014
 20
-260.0498847311819
 30
0.0
 40
290.0500000000001
 50
84.99487737031495
 51
95.00512262968506
  0
ARC
  5
3EA
  8
DATA
  6
STYLE_02
 62
     7
 10
-31.50000000000001
 20
25.4074719790631
 30
0.0
 40
3.499999999999959
 50
95.00512262968559
 51
180.0
  0
ARC
  5
3EB
  8
DATA
  6
STYLE_02
 62
     7
 10
18.49999999999999
 20
25.4074719790631
 30
0.0
 40
3.5
 50
0.0
 51
84.99487737031438
  0
LINE
  5
3EC
  8
DATA
  6
CONTINUOUS
 62
     7
 10
-97.0
 20
-137.5
 30
0.0
 11
-98.65
 21
-135.0
 31
0.0
  0
ARC
  5
3ED
  8
DATA
  6
CONTINUOUS
 62
     7
 10
-104.271698113208
 20
-95.33142688679258
 30
0.0
 40
4.434101711241683
 50
4.286570164579437
 51
31.72175304724672
  0
LINE
  5
3EE
  8
DATA
  6
CONTINUOUS
 62
     7
 10
-15.75
 20
-137.5
 30
0.0
 11
3.25
 21
-137.5
 31
0.0
  0
LINE
  5
3EF
  8
DATA
  6
CONTINUOUS
 62
     7
 10
-17.39999999999999
 20
-135.0000000000001
 30
0.0
 11
-18.60000000000001
 21
-95.0
 31
0.0
  0
LINE
  5
3F0
  8
DATA
  6
CONTINUOUS
 62
     7
 10
4.900000000000006
 20
-135.0
 30
0.0
 11
6.099999999999994
 21
-95.0
 31
0.0
  0
LINE
  5
3F1
  8
DATA
  6
CONTINUOUS
 62
     7
 10
-18.60000000000001
 20
-95.0
 30
0.0
 11
6.099999999999994
 21
-95.0
 31
0.0
  0
LINE
  5
3F2
  8
DATA
  6
CONTINUOUS
 62
     7
 10
3.25
 20
-137.5
 30
0.0
 11
4.900000000000006
 21
-135.0
 31
0.0
  0
LINE
  5
3F3
  8
DATA
  6
CONTINUOUS
 62
     7
 10
-17.39999999999999
 20
-135.0000000000001
 30
0.0
 11
4.900000000000006
 21
-135.0
 31
0.0
  0
ARC
  5
3F4
  8
DATA
  6
CONTINUOUS
 62
     7
 10
10.52169811320803
 20
-95.33142688679258
 30
0.0
 40
4.43410171124168
 50
148.2782469527533
 51
175.7134298354206
  0
LINE
  5
3F5
  8
DATA
  6
CONTINUOUS
 62
     7
 10
-15.75
 20
-137.5
 30
0.0
 11
-17.40000000000001
 21
-135.0
 31
0.0
  0
ARC
  5
3F6
  8
DATA
  6
CONTINUOUS
 62
     7
 10
-23.02169811320803
 20
-95.33142688679258
 30
0.0
 40
4.434101711241683
 50
4.286570164579437
 51
31.72175304724672
  0
LINE
  5
3F7
  8
DATA
  6
CONTINUOUS
 62
     7
 10
46.75
 20
-137.5
 30
0.0
 11
65.75
 21
-137.5
 31
0.0
  0
LINE
  5
3F8
  8
DATA
  6
CONTINUOUS
 62
     7
 10
45.10000000000001
 20
-135.0000000000001
 30
0.0
 11
43.89999999999999
 21
-95.0
 31
0.0
  0
LINE
  5
3F9
  8
DATA
  6
CONTINUOUS
 62
     7
 10
67.4
 20
-135.0
 30
0.0
 11
68.6
 21
-95.0
 31
0.0
  0
LINE
  5
3FA
  8
DATA
  6
CONTINUOUS
 62
     7
 10
43.89999999999999
 20
-95.0
 30
0.0
 11
68.6
 21
-95.0
 31
0.0
  0
LINE
  5
3FB
  8
DATA
  6
CONTINUOUS
 62
     7
 10
65.75
 20
-137.5
 30
0.0
 11
67.4
 21
-135.0
 31
0.0
  0
LINE
  5
3FC
  8
DATA
  6
CONTINUOUS
 62
     7
 10
45.10000000000001
 20
-135.0000000000001
 30
0.0
 11
67.4
 21
-135.0
 31
0.0
  0
ARC
  5
3FD
  8
DATA
  6
CONTINUOUS
 62
     7
 10
73.02169811320803
 20
-95.33142688679258
 30
0.0
 40
4.43410171124168
 50
148.2782469527533
 51
175.7134298354206
  0
LINE
  5
3FE
  8
DATA
  6
CONTINUOUS
 62
     7
 10
46.75
 20
-137.5
 30
0.0
 11
45.09999999999999
 21
-135.0
 31
0.0
  0
ARC
  5
3FF
  8
DATA
  6
CONTINUOUS
 62
     7
 10
39.47830188679197
 20
-95.33142688679258
 30
0.0
 40
4.434101711241683
 50
4.286570164579437
 51
31.72175304724672
  0
LINE
  5
400
  8
DATA
  6
CONTINUOUS
 62
     7
 10
109.25
 20
-137.5
 30
0.0
 11
128.25
 21
-137.5
 31
0.0
  0
LINE
  5
401
  8
DATA
  6
CONTINUOUS
 62
     7
 10
107.6
 20
-135.0000000000001
 30
0.0
 11
106.4
 21
-95.0
 31
0.0
  0
LINE
  5
402
  8
DATA
  6
CONTINUOUS
 62
     7
 10
129.9
 20
-135.0
 30
0.0
 11
131.1
 21
-95.0
 31
0.0
  0
LINE
  5
403
  8
DATA
  6
CONTINUOUS
 62
     7
 10
106.4
 20
-95.0
 30
0.0
 11
131.1
 21
-95.0
 31
0.0
  0
LINE
  5
404
  8
DATA
  6
CONTINUOUS
 62
     7
 10
128.25
 20
-137.5
 30
0.0
 11
129.9
 21
-135.0
 31
0.0
  0
LINE
  5
405
  8
DATA
  6
CONTINUOUS
 62
     7
 10
107.6
 20
-135.0000000000001
 30
0.0
 11
129.9
 21
-135.0
 31
0.0
  0
ARC
  5
406
  8
DATA
  6
CONTINUOUS
 62
     7
 10
135.521698113208
 20
-95.33142688679258
 30
0.0
 40
4.43410171124168
 50
148.2782469527533
 51
175.7134298354206
  0
LINE
  5
407
  8
DATA
  6
CONTINUOUS
 62
     7
 10
109.25
 20
-137.5
 30
0.0
 11
107.6
 21
-135.0
 31
0.0
  0
ARC
  5
408
  8
DATA
  6
CONTINUOUS
 62
     7
 10
101.978301886792
 20
-95.33142688679258
 30
0.0
 40
4.434101711241683
 50
4.286570164579437
 51
31.72175304724672
  0
ENDSEC
  0
EOF
