  0
SECTION
  2
HEADER
  9
$ACADVER
  1
AC1015
  9
$ACADMAINTVER
 70
    20
  9
$DWGCODEPAGE
  3
ANSI_932
  9
$INSBASE
 10
0.0
 20
0.0
 30
0.0
  9
$EXTMIN
 10
-180.0109855799529
 20
-271.7120124132013
 30
-0.0015258207003583
  9
$EXTMAX
 10
180.0109872563334
 20
263.5481166475565
 30
0.0000000349246037
  9
$LIMMIN
 10
0.0
 20
0.0
  9
$LIMMAX
 10
0.0
 20
0.0
  9
$ORTHOMODE
 70
     0
  9
$REGENMODE
 70
     1
  9
$FILLMODE
 70
     1
  9
$QTEXTMODE
 70
     0
  9
$MIRRTEXT
 70
     1
  9
$LTSCALE
 40
10.16
  9
$ATTMODE
 70
     1
  9
$TEXTSIZE
 40
0.0
  9
$TRACEWID
 40
1.0
  9
$TEXTSTYLE
  7
STANDARD
  9
$CLAYER
  8
DATA
  9
$CELTYPE
  6
ByLayer
  9
$CECOLOR
 62
   256
  9
$CELTSCALE
 40
1.0
  9
$DISPSILH
 70
     0
  9
$DIMSCALE
 40
1.0
  9
$DIMASZ
 40
0.18
  9
$DIMEXO
 40
0.0625
  9
$DIMDLI
 40
0.38
  9
$DIMRND
 40
0.0
  9
$DIMDLE
 40
0.0
  9
$DIMEXE
 40
0.18
  9
$DIMTP
 40
0.0
  9
$DIMTM
 40
0.0
  9
$DIMTXT
 40
0.18
  9
$DIMCEN
 40
0.09
  9
$DIMTSZ
 40
0.0
  9
$DIMTOL
 70
     0
  9
$DIMLIM
 70
     0
  9
$DIMTIH
 70
     1
  9
$DIMTOH
 70
     1
  9
$DIMSE1
 70
     0
  9
$DIMSE2
 70
     0
  9
$DIMTAD
 70
     0
  9
$DIMZIN
 70
     0
  9
$DIMBLK
  1

  9
$DIMASO
 70
     1
  9
$DIMSHO
 70
     1
  9
$DIMPOST
  1

  9
$DIMAPOST
  1

  9
$DIMALT
 70
     0
  9
$DIMALTD
 70
     2
  9
$DIMALTF
 40
25.4
  9
$DIMLFAC
 40
1.0
  9
$DIMTOFL
 70
     0
  9
$DIMTVP
 40
0.0
  9
$DIMTIX
 70
     0
  9
$DIMSOXD
 70
     0
  9
$DIMSAH
 70
     0
  9
$DIMBLK1
  1

  9
$DIMBLK2
  1

  9
$DIMSTYLE
  2
STANDARD
  9
$DIMCLRD
 70
     0
  9
$DIMCLRE
 70
     0
  9
$DIMCLRT
 70
     0
  9
$DIMTFAC
 40
1.0
  9
$DIMGAP
 40
0.09
  9
$DIMJUST
 70
     0
  9
$DIMSD1
 70
     0
  9
$DIMSD2
 70
     0
  9
$DIMTOLJ
 70
     1
  9
$DIMTZIN
 70
     0
  9
$DIMALTZ
 70
     0
  9
$DIMALTTZ
 70
     0
  9
$DIMUPT
 70
     0
  9
$DIMDEC
 70
     4
  9
$DIMTDEC
 70
     4
  9
$DIMALTU
 70
     2
  9
$DIMALTTD
 70
     2
  9
$DIMTXSTY
  7
STANDARD
  9
$DIMAUNIT
 70
     0
  9
$DIMADEC
 70
     0
  9
$DIMALTRND
 40
0.0
  9
$DIMAZIN
 70
     0
  9
$DIMDSEP
 70
    46
  9
$DIMATFIT
 70
     3
  9
$DIMFRAC
 70
     0
  9
$DIMLDRBLK
  1

  9
$DIMLUNIT
 70
     2
  9
$DIMLWD
 70
    -2
  9
$DIMLWE
 70
    -2
  9
$DIMTMOVE
 70
     0
  9
$LUNITS
 70
     2
  9
$LUPREC
 70
     4
  9
$SKETCHINC
 40
0.1
  9
$FILLETRAD
 40
0.0
  9
$AUNITS
 70
     0
  9
$AUPREC
 70
     0
  9
$MENU
  1
acad
  9
$ELEVATION
 40
0.0
  9
$PELEVATION
 40
0.0
  9
$THICKNESS
 40
0.0
  9
$LIMCHECK
 70
     0
  9
$CHAMFERA
 40
0.0
  9
$CHAMFERB
 40
0.0
  9
$CHAMFERC
 40
0.0
  9
$CHAMFERD
 40
0.0
  9
$SKPOLY
 70
     0
  9
$TDCREATE
 40
2458206.444120370
  9
$TDUCREATE
 40
2458206.069120370
  9
$TDUPDATE
 40
2458206.444872685
  9
$TDUUPDATE
 40
2458206.069872685
  9
$TDINDWG
 40
0.0005324074
  9
$TDUSRTIMER
 40
0.0005324074
  9
$USRTIMER
 70
     1
  9
$ANGBASE
 50
0.0
  9
$ANGDIR
 70
     0
  9
$PDMODE
 70
     1
  9
$PDSIZE
 40
-2.0
  9
$PLINEWID
 40
0.0
  9
$SPLFRAME
 70
     0
  9
$SPLINETYPE
 70
     6
  9
$SPLINESEGS
 70
     8
  9
$HANDSEED
  5
6DA
  9
$SURFTAB1
 70
     6
  9
$SURFTAB2
 70
     6
  9
$SURFTYPE
 70
     6
  9
$SURFU
 70
     6
  9
$SURFV
 70
     6
  9
$UCSBASE
  2

  9
$UCSNAME
  2

  9
$UCSORG
 10
0.0
 20
0.0
 30
0.0
  9
$UCSXDIR
 10
1.0
 20
0.0
 30
0.0
  9
$UCSYDIR
 10
0.0
 20
1.0
 30
0.0
  9
$UCSORTHOREF
  2

  9
$UCSORTHOVIEW
 70
     0
  9
$UCSORGTOP
 10
0.0
 20
0.0
 30
0.0
  9
$UCSORGBOTTOM
 10
0.0
 20
0.0
 30
0.0
  9
$UCSORGLEFT
 10
0.0
 20
0.0
 30
0.0
  9
$UCSORGRIGHT
 10
0.0
 20
0.0
 30
0.0
  9
$UCSORGFRONT
 10
0.0
 20
0.0
 30
0.0
  9
$UCSORGBACK
 10
0.0
 20
0.0
 30
0.0
  9
$PUCSBASE
  2

  9
$PUCSNAME
  2

  9
$PUCSORG
 10
0.0
 20
0.0
 30
0.0
  9
$PUCSXDIR
 10
1.0
 20
0.0
 30
0.0
  9
$PUCSYDIR
 10
0.0
 20
1.0
 30
0.0
  9
$PUCSORTHOREF
  2

  9
$PUCSORTHOVIEW
 70
     0
  9
$PUCSORGTOP
 10
0.0
 20
0.0
 30
0.0
  9
$PUCSORGBOTTOM
 10
0.0
 20
0.0
 30
0.0
  9
$PUCSORGLEFT
 10
0.0
 20
0.0
 30
0.0
  9
$PUCSORGRIGHT
 10
0.0
 20
0.0
 30
0.0
  9
$PUCSORGFRONT
 10
0.0
 20
0.0
 30
0.0
  9
$PUCSORGBACK
 10
0.0
 20
0.0
 30
0.0
  9
$USERI1
 70
     0
  9
$USERI2
 70
     0
  9
$USERI3
 70
     0
  9
$USERI4
 70
     0
  9
$USERI5
 70
     0
  9
$USERR1
 40
0.0
  9
$USERR2
 40
0.0
  9
$USERR3
 40
0.0
  9
$USERR4
 40
0.0
  9
$USERR5
 40
0.0
  9
$WORLDVIEW
 70
     1
  9
$SHADEDGE
 70
     3
  9
$SHADEDIF
 70
    70
  9
$TILEMODE
 70
     1
  9
$MAXACTVP
 70
    64
  9
$PINSBASE
 10
0.0
 20
0.0
 30
0.0
  9
$PLIMCHECK
 70
     0
  9
$PEXTMIN
 10
1.000000000000000E+20
 20
1.000000000000000E+20
 30
1.000000000000000E+20
  9
$PEXTMAX
 10
-1.000000000000000E+20
 20
-1.000000000000000E+20
 30
-1.000000000000000E+20
  9
$PLIMMIN
 10
0.0
 20
0.0
  9
$PLIMMAX
 10
12.0
 20
9.0
  9
$UNITMODE
 70
     0
  9
$VISRETAIN
 70
     0
  9
$PLINEGEN
 70
     1
  9
$PSLTSCALE
 70
     0
  9
$TREEDEPTH
 70
  3020
  9
$CMLSTYLE
  2
Standard
  9
$CMLJUST
 70
     0
  9
$CMLSCALE
 40
1.0
  9
$PROXYGRAPHICS
 70
     1
  9
$MEASUREMENT
 70
     0
  9
$CELWEIGHT
370
    -1
  9
$ENDCAPS
280
     0
  9
$JOINSTYLE
280
     0
  9
$LWDISPLAY
290
     0
  9
$INSUNITS
 70
     0
  9
$HYPERLINKBASE
  1

  9
$STYLESHEET
  1

  9
$XEDIT
290
     1
  9
$CEPSNTYPE
380
     0
  9
$PSTYLEMODE
290
     1
  9
$FINGERPRINTGUID
  2
{4AB804B3-CCB6-064B-AD79-9AD5C9F8F81D}
  9
$VERSIONGUID
  2
{CDB72421-682F-6142-A56F-E12F1A5F5BAA}
  9
$EXTNAMES
290
     1
  9
$PSVPSCALE
 40
0.0
  9
$OLESTARTUP
290
     0
  0
ENDSEC
  0
SECTION
  2
CLASSES
  0
CLASS
  1
ACDBDICTIONARYWDFLT
  2
AcDbDictionaryWithDefault
  3
ObjectDBX Classes
 90
        0
280
     0
281
     0
  0
CLASS
  1
MATERIAL
  2
AcDbMaterial
  3
ObjectDBX Classes
 90
     1153
280
     0
281
     0
  0
CLASS
  1
VISUALSTYLE
  2
AcDbVisualStyle
  3
ObjectDBX Classes
 90
     4095
280
     0
281
     0
  0
CLASS
  1
SCALE
  2
AcDbScale
  3
ObjectDBX Classes
 90
     1153
280
     0
281
     0
  0
CLASS
  1
TABLESTYLE
  2
AcDbTableStyle
  3
ObjectDBX Classes
 90
     4095
280
     0
281
     0
  0
CLASS
  1
MLEADERSTYLE
  2
AcDbMLeaderStyle
  3
ACDB_MLEADERSTYLE_CLASS
 90
     4095
280
     0
281
     0
  0
CLASS
  1
ACDBSECTIONVIEWSTYLE
  2
AcDbSectionViewStyle
  3
ObjectDBX Classes
 90
     1025
280
     0
281
     0
  0
CLASS
  1
ACDBDETAILVIEWSTYLE
  2
AcDbDetailViewStyle
  3
ObjectDBX Classes
 90
     1025
280
     0
281
     0
  0
CLASS
  1
DICTIONARYVAR
  2
AcDbDictionaryVar
  3
ObjectDBX Classes
 90
        0
280
     0
281
     0
  0
CLASS
  1
CELLSTYLEMAP
  2
AcDbCellStyleMap
  3
ObjectDBX Classes
 90
     1152
280
     0
281
     0
  0
CLASS
  1
ACDBPLACEHOLDER
  2
AcDbPlaceHolder
  3
ObjectDBX Classes
 90
        0
280
     0
281
     0
  0
CLASS
  1
LAYOUT
  2
AcDbLayout
  3
ObjectDBX Classes
 90
        0
280
     0
281
     0
  0
ENDSEC
  0
SECTION
  2
TABLES
  0
TABLE
  2
VPORT
  5
601
330
0
100
AcDbSymbolTable
 70
     1
  0
VPORT
  5
66D
330
601
100
AcDbSymbolTableRecord
100
AcDbViewportTableRecord
  2
*ACTIVE
 70
     0
 10
0.0
 20
0.0
 11
1.0
 21
1.0
 12
0.0000008381902035
 22
-4.081947882822419
 13
0.0
 23
0.0
 14
1.0
 24
1.0
 15
0.0
 25
0.0
 16
0.0
 26
0.0
 36
1.0
 17
0.0
 27
0.0
 37
0.0
 40
538.2420796404836
 41
2.360594795539033
 42
50.0
 43
0.0
 44
0.0
 50
0.0
 51
0.0
 71
     0
 72
  2000
 73
     1
 74
     1
 75
     0
 76
     0
 77
     0
 78
     0
281
     0
 65
     1
110
0.0
120
0.0
130
0.0
111
1.0
121
0.0
131
0.0
112
0.0
122
1.0
132
0.0
 79
     0
146
0.0
1001
ACAD_NAV_VCDISPLAY
1070
     3
  0
ENDTAB
  0
TABLE
  2
LTYPE
  5
5FE
330
0
100
AcDbSymbolTable
 70
    11
  0
LTYPE
  5
653
330
5FE
100
AcDbSymbolTableRecord
100
AcDbLinetypeTableRecord
  2
ByBlock
 70
     0
  3

 72
    65
 73
     0
 40
0.0
  0
LTYPE
  5
654
330
5FE
100
AcDbSymbolTableRecord
100
AcDbLinetypeTableRecord
  2
ByLayer
 70
     0
  3

 72
    65
 73
     0
 40
0.0
  0
LTYPE
  5
655
330
5FE
100
AcDbSymbolTableRecord
100
AcDbLinetypeTableRecord
  2
CONTINUOUS
 70
     0
  3
Solid line
 72
    65
 73
     0
 40
0.0
  0
ENDTAB
  0
TABLE
  2
LAYER
  5
5FB
330
0
100
AcDbSymbolTable
 70
     6
  0
LAYER
  5
64D
102
{ACAD_XDICTIONARY
360
682
102
}
330
5FB
100
AcDbSymbolTableRecord
100
AcDbLayerTableRecord
  2
0
 70
     0
 62
     7
  6
CONTINUOUS
370
    -3
390
608
  0
LAYER
  5
66C
102
{ACAD_XDICTIONARY
360
684
102
}
330
5FB
100
AcDbSymbolTableRecord
100
AcDbLayerTableRecord
  2
DATA
 70
     0
 62
     7
  6
CONTINUOUS
370
    -3
390
608
  0
LAYER
  5
678
102
{ACAD_XDICTIONARY
360
686
102
}
330
5FB
100
AcDbSymbolTableRecord
100
AcDbLayerTableRecord
  2
HIBINO-BASE
 70
     0
 62
     7
  6
CONTINUOUS
370
    -3
390
608
  0
LAYER
  5
679
102
{ACAD_XDICTIONARY
360
688
102
}
330
5FB
100
AcDbSymbolTableRecord
100
AcDbLayerTableRecord
  2
PATTERN_FILL
 70
     0
 62
     7
  6
CONTINUOUS
370
    -3
390
608
  0
LAYER
  5
67A
102
{ACAD_XDICTIONARY
360
68A
102
}
330
5FB
100
AcDbSymbolTableRecord
100
AcDbLayerTableRecord
  2
SPEC
 70
     0
 62
     7
  6
CONTINUOUS
370
    -3
390
608
  0
LAYER
  5
67B
102
{ACAD_XDICTIONARY
360
68C
102
}
330
5FB
100
AcDbSymbolTableRecord
100
AcDbLayerTableRecord
  2
DIMNSIONS
 70
     0
 62
     7
  6
CONTINUOUS
370
    -3
390
608
  0
ENDTAB
  0
TABLE
  2
STYLE
  5
5FC
330
0
100
AcDbSymbolTable
 70
     3
  0
STYLE
  5
64E
330
5FC
100
AcDbSymbolTableRecord
100
AcDbTextStyleTableRecord
  2
STANDARD
 70
     0
 40
0.0
 41
1.0
 50
0.0
 71
     0
 42
0.0
  3
txt
  4
BIGFONT.SHX
  0
ENDTAB
  0
TABLE
  2
VIEW
  5
5FF
330
0
100
AcDbSymbolTable
 70
     0
  0
ENDTAB
  0
TABLE
  2
UCS
  5
600
330
0
100
AcDbSymbolTable
 70
     0
  0
ENDTAB
  0
TABLE
  2
APPID
  5
602
330
0
100
AcDbSymbolTable
 70
     4
  0
APPID
  5
64F
330
602
100
AcDbSymbolTableRecord
100
AcDbRegAppTableRecord
  2
ACAD
 70
     0
  0
APPID
  5
656
330
602
100
AcDbSymbolTableRecord
100
AcDbRegAppTableRecord
  2
AcadAnnotative
 70
     0
  0
APPID
  5
698
330
602
100
AcDbSymbolTableRecord
100
AcDbRegAppTableRecord
  2
ACAD_NAV_VCDISPLAY
 70
     0
  0
APPID
  5
6D1
330
602
100
AcDbSymbolTableRecord
100
AcDbRegAppTableRecord
  2
ACAD_MLEADERVER
 70
     0
  0
ENDTAB
  0
TABLE
  2
DIMSTYLE
  5
603
330
0
100
AcDbSymbolTable
 70
     2
100
AcDbDimStyleTable
 71
     0
  0
DIMSTYLE
105
650
330
603
100
AcDbSymbolTableRecord
100
AcDbDimStyleTableRecord
  2
STANDARD
 70
     0
279
     2
340
64E
  0
ENDTAB
  0
TABLE
  2
BLOCK_RECORD
  5
5FA
330
0
100
AcDbSymbolTable
 70
     0
  0
BLOCK_RECORD
  5
668
330
5FA
100
AcDbSymbolTableRecord
100
AcDbBlockTableRecord
  2
*Model_Space
340
66B
  0
BLOCK_RECORD
  5
664
330
5FA
100
AcDbSymbolTableRecord
100
AcDbBlockTableRecord
  2
*Paper_Space
340
667
  0
ENDTAB
  0
ENDSEC
  0
SECTION
  2
BLOCKS
  0
BLOCK
  5
669
330
668
100
AcDbEntity
  8
0
100
AcDbBlockBegin
  2
*Model_Space
 70
     0
 10
0.0
 20
0.0
 30
0.0
  3
*Model_Space
  1

  0
ENDBLK
  5
66A
330
668
100
AcDbEntity
  8
0
100
AcDbBlockEnd
  0
BLOCK
  5
665
330
664
100
AcDbEntity
 67
     1
  8
0
100
AcDbBlockBegin
  2
*Paper_Space
 70
     0
 10
0.0
 20
0.0
 30
0.0
  3
*Paper_Space
  1

  0
ENDBLK
  5
666
330
664
100
AcDbEntity
 67
     1
  8
0
100
AcDbBlockEnd
  0
ENDSEC
  0
SECTION
  2
ENTITIES
  0
LINE
  5
2D
330
668
100
AcDbEntity
  8
HIBINO-BASE
  6
Continuous
 62
     7
100
AcDbLine
 10
-180.0000000899999
 20
263.5318151335318
 30
0.0
 11
180.0000000899999
 21
263.5318151335318
 31
0.0
  0
LINE
  5
2E
330
668
100
AcDbEntity
  8
HIBINO-BASE
  6
Continuous
 62
     7
100
AcDbLine
 10
180.0000000899999
 20
-256.4681851264682
 30
0.0
 11
-180.0000000899999
 21
-256.4681851264682
 31
0.0
  0
LINE
  5
2F
330
668
100
AcDbEntity
  8
HIBINO-BASE
  6
Continuous
 62
     7
100
AcDbLine
 10
-180.0000000899999
 20
-256.4681851264682
 30
0.0
 11
-180.0000000899999
 21
263.5318151335318
 31
0.0
  0
LINE
  5
30
330
668
100
AcDbEntity
  8
HIBINO-BASE
  6
Continuous
 62
     7
100
AcDbLine
 10
180.0000000899999
 20
263.5318151335318
 30
0.0
 11
180.0000000899999
 21
-256.4681851264682
 31
0.0
  0
LINE
  5
31
330
668
100
AcDbEntity
  8
HIBINO-BASE
  6
Continuous
 62
     7
100
AcDbLine
 10
0.0000000000000142
 20
-211.4681851039682
 30
0.0
 11
180.0000000899999
 21
-211.4681851039682
 31
0.0
  0
LINE
  5
32
330
668
100
AcDbEntity
  8
HIBINO-BASE
  6
Continuous
 62
     7
100
AcDbLine
 10
0.0000000000000142
 20
-256.4681851264682
 30
0.0
 11
0.0000000000000142
 21
-211.4681851039682
 31
0.0
  0
TEXT
  5
33
330
668
100
AcDbEntity
  8
HIBINO-BASE
 62
     7
100
AcDbText
 10
1.800000000900025
 20
-216.4855717731435
 30
0.0
 40
3.257682293295507
  1
NOTE
 41
0.7
 11
1.800000000900025
 21
-213.227889479848
 31
0.0
100
AcDbText
 73
     3
  0
LINE
  5
34
330
668
100
AcDbEntity
  8
HIBINO-BASE
  6
Continuous
 62
     7
100
AcDbLine
 10
70.00000003500004
 20
-256.4681851264682
 30
0.0
 11
70.00000003500004
 21
-211.4681851039682
 31
0.0
  0
TEXT
  5
35
330
668
100
AcDbEntity
  8
HIBINO-BASE
 62
     7
100
AcDbText
 10
71.8000000359
 20
-216.4855717731435
 30
0.0
 40
3.257682293295507
  1
TITLE
 41
0.7
 11
71.8000000359
 21
-213.227889479848
 31
0.0
100
AcDbText
 73
     3
  0
LINE
  5
36
330
668
100
AcDbEntity
  8
HIBINO-BASE
  6
Continuous
 62
     7
100
AcDbLine
 10
0.0000000000000142
 20
-236.4681851164682
 30
0.0
 11
180.0000000899999
 21
-236.4681851164682
 31
0.0
  0
TEXT
  5
37
330
668
100
AcDbEntity
  8
HIBINO-BASE
 62
     7
100
AcDbText
 10
96.80000004840001
 20
-241.3729317855871
 30
0.0
 40
3.257682293295507
  1
DRAWN
 41
0.7
 11
96.80000004840001
 21
-238.1152494922917
 31
0.0
100
AcDbText
 73
     3
  0
TEXT
  5
38
330
668
100
AcDbEntity
  8
HIBINO-BASE
 62
     7
100
AcDbText
 10
46.80000002339999
 20
-241.3729317855871
 30
0.0
 40
3.257682293295507
  1
DATE
 41
0.7
 11
46.80000002339999
 21
-238.1152494922917
 31
0.0
100
AcDbText
 73
     3
  0
TEXT
  5
39
330
668
100
AcDbEntity
  8
HIBINO-BASE
 62
     7
100
AcDbText
 10
26.8000000134
 20
-241.3729317855871
 30
0.0
 40
3.257682293295507
  1
SCALE
 41
0.7
 11
26.8000000134
 21
-238.1152494922917
 31
0.0
100
AcDbText
 73
     3
  0
TEXT
  5
3A
330
668
100
AcDbEntity
  8
HIBINO-BASE
 62
     7
100
AcDbText
 10
71.8000000359
 20
-241.3729317855871
 30
0.0
 40
3.257682293295507
  1
DESIGN
 41
0.7
 11
71.8000000359
 21
-238.1152494922917
 31
0.0
100
AcDbText
 73
     3
  0
TEXT
  5
3B
330
668
100
AcDbEntity
  8
HIBINO-BASE
 62
     7
100
AcDbText
 10
146.8000000734
 20
-241.3729317855871
 30
0.0
 40
3.257682293295507
  1
DRAWING NO.
 41
0.7
 11
146.8000000734
 21
-238.1152494922917
 31
0.0
100
AcDbText
 73
     3
  0
TEXT
  5
3C
330
668
100
AcDbEntity
  8
HIBINO-BASE
 62
     7
100
AcDbText
 10
121.8000000609
 20
-241.3729317855871
 30
0.0
 40
3.257682293295507
  1
CHECK
 41
0.7
 11
121.8000000609
 21
-238.1152494922917
 31
0.0
100
AcDbText
 73
     3
  0
LINE
  5
3D
330
668
100
AcDbEntity
  8
HIBINO-BASE
  6
Continuous
 62
     7
100
AcDbLine
 10
28.75000001437501
 20
-253.9681851252181
 30
0.0
 11
36.25000001812504
 21
-246.4681851214682
 31
0.0
  0
TEXT
  5
3E
330
668
100
AcDbEntity
  8
HIBINO-BASE
 62
     7
100
AcDbText
 10
27.50000001375001
 20
-248.6860717892438
 30
0.0
 40
3.257682293295507
  1
1
 41
0.7
 11
27.50000001375001
 21
-245.4283894959483
 31
0.0
100
AcDbText
 73
     3
  0
LINE
  5
3F
330
668
100
AcDbEntity
  8
HIBINO-BASE
  6
Continuous
 62
     7
100
AcDbLine
 10
25.00000001250001
 20
-256.4681851264682
 30
0.0
 11
25.00000001250001
 21
-236.4681851164682
 31
0.0
  0
LINE
  5
40
330
668
100
AcDbEntity
  8
HIBINO-BASE
  6
Continuous
 62
     7
100
AcDbLine
 10
45.00000002249998
 20
-256.4681851264682
 30
0.0
 11
45.00000002249998
 21
-236.4681851164682
 31
0.0
  0
LINE
  5
41
330
668
100
AcDbEntity
  8
HIBINO-BASE
  6
Continuous
 62
     7
100
AcDbLine
 10
95.00000004749997
 20
-236.4681851164682
 30
0.0
 11
95.00000004749997
 21
-256.4681851264682
 31
0.0
  0
LINE
  5
42
330
668
100
AcDbEntity
  8
HIBINO-BASE
  6
Continuous
 62
     7
100
AcDbLine
 10
145.0000000725
 20
-236.4681851164682
 30
0.0
 11
145.0000000725
 21
-256.4681851264682
 31
0.0
  0
LINE
  5
43
330
668
100
AcDbEntity
  8
HIBINO-BASE
  6
Continuous
 62
     7
100
AcDbLine
 10
120.0000000599999
 20
-256.4681851264682
 30
0.0
 11
120.0000000599999
 21
-236.4681851164682
 31
0.0
  0
TEXT
  5
44
330
668
100
AcDbEntity
  8
HIBINO-BASE
 62
     7
100
AcDbText
 10
46.71308002335656
 20
-250.7408917902712
 30
0.0
 40
3.257682293295507
  1
'18.04.
 41
0.7
 11
46.71308002335656
 21
-247.4832094969757
 31
0.0
100
AcDbText
 73
     3
  0
TEXT
  5
45
330
668
100
AcDbEntity
  8
HIBINO-BASE
 62
     7
100
AcDbText
 10
35.00000001750001
 20
-252.4360717911188
 30
0.0
 40
3.257682293295507
  1
2
 41
0.7
 11
35.00000001750001
 21
-249.1783894978233
 31
0.0
100
AcDbText
 73
     3
  0
TEXT
  5
46
330
668
100
AcDbEntity
  8
HIBINO-BASE
 62
     7
100
AcDbText
 10
98.01162007107507
 20
-250.7408917902712
 30
0.0
 40
3.257682293295507
  1
N.Sasaki
 41
0.7
 11
98.01162007107507
 21
-247.4832094969757
 31
0.0
100
AcDbText
 73
     3
  0
TEXT
  5
47
330
668
100
AcDbEntity
  8
HIBINO-BASE
 62
     7
100
AcDbText
 10
7.766666670550056
 20
-252.5161851244922
 30
0.0
 40
6.515364586591014
  1
A4
 41
0.7
 11
7.766666670550056
 21
-246.0008205379012
 31
0.0
100
AcDbText
 73
     3
  0
TEXT
  5
48
330
668
100
AcDbEntity
  8
HIBINO-BASE
 62
     7
100
AcDbText
 10
1.916666667625004
 20
-241.7070951190876
 30
0.0
 40
3.257682293295507
  1
PAPER SIZE
 41
0.7
 11
1.916666667625004
 21
-238.4494128257921
 31
0.0
100
AcDbText
 73
     3
  0
TEXT
  5
49
330
668
100
AcDbEntity
  8
HIBINO-BASE
 62
     7
100
AcDbText
 10
-165.6320000828159
 20
-269.2855407328768
 30
0.0
 40
7.200088362975042
  1
Hibino Corporation
 41
0.7
 11
-165.6320000828159
 21
-262.0854523699017
 31
0.0
100
AcDbText
 73
     3
  0
TEXT
  5
4A
330
668
100
AcDbEntity
  8
HIBINO-BASE
 62
     7
100
AcDbText
 10
100.1367800500684
 20
-269.2855407328768
 30
0.0
 40
7.200088362975042
  1
ヒビノ株式会社
 41
0.7
 11
100.1367800500684
 21
-262.0854523699017
 31
0.0
100
AcDbText
 73
     3
  0
LINE
  5
4B
330
668
100
AcDbEntity
  8
PATTERN_FILL
  6
Continuous
 62
     7
100
AcDbLine
 10
31.60806520518141
 20
20.54811586271705
 30
0.0
 11
34.55994934246434
 21
23.49999999999997
 31
0.0
  0
LINE
  5
4C
330
668
100
AcDbEntity
  8
PATTERN_FILL
  6
Continuous
 62
     7
100
AcDbLine
 10
31.15316629382837
 20
17.59321695136402
 30
0.0
 11
37.05994934246434
 21
23.49999999999997
 31
0.0
  0
LINE
  5
4D
330
668
100
AcDbEntity
  8
PATTERN_FILL
  6
Continuous
 62
     7
100
AcDbLine
 10
30.69826738247536
 20
14.638318040011
 30
0.0
 11
39.55994934246433
 21
23.49999999999997
 31
0.0
  0
LINE
  5
4E
330
668
100
AcDbEntity
  8
PATTERN_FILL
  6
Continuous
 62
     7
100
AcDbLine
 10
30.24336847112233
 20
11.68341912865796
 30
0.0
 11
42.05994934246433
 21
23.49999999999997
 31
0.0
  0
LINE
  5
4F
330
668
100
AcDbEntity
  8
PATTERN_FILL
  6
Continuous
 62
     7
100
AcDbLine
 10
29.78846955976933
 20
8.728520217304961
 30
0.0
 11
44.55994934246433
 21
23.49999999999997
 31
0.0
  0
LINE
  5
50
330
668
100
AcDbEntity
  8
PATTERN_FILL
  6
Continuous
 62
     7
100
AcDbLine
 10
29.33357064841628
 20
5.77362130595192
 30
0.0
 11
47.05994934246434
 21
23.49999999999997
 31
0.0
  0
LINE
  5
51
330
668
100
AcDbEntity
  8
PATTERN_FILL
  6
Continuous
 62
     7
100
AcDbLine
 10
28.87867173706326
 20
2.818722394598893
 30
0.0
 11
49.55994934246435
 21
23.49999999999999
 31
0.0
  0
LINE
  5
52
330
668
100
AcDbEntity
  8
PATTERN_FILL
  6
Continuous
 62
     7
100
AcDbLine
 10
28.42377282571021
 20
-0.1361765167541549
 30
0.0
 11
52.05994934246435
 21
23.49999999999999
 31
0.0
  0
LINE
  5
53
330
668
100
AcDbEntity
  8
PATTERN_FILL
  6
Continuous
 62
     7
100
AcDbLine
 10
27.96887391435721
 20
-3.09107542810716
 30
0.0
 11
54.55994934246435
 21
23.49999999999999
 31
0.0
  0
LINE
  5
54
330
668
100
AcDbEntity
  8
PATTERN_FILL
  6
Continuous
 62
     7
100
AcDbLine
 10
27.51397500300417
 20
-6.045974339460201
 30
0.0
 11
57.05994934246434
 21
23.49999999999997
 31
0.0
  0
LINE
  5
55
330
668
100
AcDbEntity
  8
PATTERN_FILL
  6
Continuous
 62
     7
100
AcDbLine
 10
27.05907609165112
 20
-9.00087325081324
 30
0.0
 11
59.55994934246434
 21
23.49999999999997
 31
0.0
  0
LINE
  5
56
330
668
100
AcDbEntity
  8
PATTERN_FILL
  6
Continuous
 62
     7
100
AcDbLine
 10
26.60417718029808
 20
-11.95577216216628
 30
0.0
 11
62.05994934246434
 21
23.49999999999997
 31
0.0
  0
LINE
  5
57
330
668
100
AcDbEntity
  8
PATTERN_FILL
  6
Continuous
 62
     7
100
AcDbLine
 10
26.55994934246436
 20
-14.5
 30
0.0
 11
64.55994934246432
 21
23.49999999999996
 31
0.0
  0
LINE
  5
58
330
668
100
AcDbEntity
  8
PATTERN_FILL
  6
Continuous
 62
     7
100
AcDbLine
 10
29.05994934246436
 20
-14.5
 30
0.0
 11
66.96274936471053
 21
23.40280002224618
 31
0.0
  0
LINE
  5
59
330
668
100
AcDbEntity
  8
PATTERN_FILL
  6
Continuous
 62
     7
100
AcDbLine
 10
31.55994934246436
 20
-14.5
 30
0.0
 11
68.23092338245982
 21
22.17097403999545
 31
0.0
  0
LINE
  5
5A
330
668
100
AcDbEntity
  8
PATTERN_FILL
  6
Continuous
 62
     7
100
AcDbLine
 10
26.31249999999999
 20
-22.24744934246439
 30
0.0
 11
27.05994934246436
 21
-21.50000000000001
 31
0.0
  0
LINE
  5
5B
330
668
100
AcDbEntity
  8
PATTERN_FILL
  6
Continuous
 62
     7
100
AcDbLine
 10
34.05994934246436
 20
-14.5
 30
0.0
 11
68.59579711866399
 21
20.03584777619961
 31
0.0
  0
LINE
  5
5C
330
668
100
AcDbEntity
  8
PATTERN_FILL
  6
Continuous
 62
     7
100
AcDbLine
 10
26.65751507141805
 20
-24.40243427104632
 30
0.0
 11
29.55994934246436
 21
-21.5
 31
0.0
  0
LINE
  5
5D
330
668
100
AcDbEntity
  8
PATTERN_FILL
  6
Continuous
 62
     7
100
AcDbLine
 10
36.55994934246435
 20
-14.50000000000001
 30
0.0
 11
68.92932049380653
 21
17.86937115134218
 31
0.0
  0
LINE
  5
5E
330
668
100
AcDbEntity
  8
PATTERN_FILL
  6
Continuous
 62
     7
100
AcDbLine
 10
39.05994934246436
 20
-14.50000000000001
 30
0.0
 11
69.26284386894905
 21
15.70289452648466
 31
0.0
  0
LINE
  5
5F
330
668
100
AcDbEntity
  8
PATTERN_FILL
  6
Continuous
 62
     7
100
AcDbLine
 10
27.38208071300665
 20
-28.67786862945772
 30
0.0
 11
34.55994934246437
 21
-21.5
 31
0.0
  0
LINE
  5
60
330
668
100
AcDbEntity
  8
PATTERN_FILL
  6
Continuous
 62
     7
100
AcDbLine
 10
41.55994934246433
 20
-14.50000000000003
 30
0.0
 11
69.59636724409157
 21
13.5364179016272
 31
0.0
  0
LINE
  5
61
330
668
100
AcDbEntity
  8
PATTERN_FILL
  6
Continuous
 62
     7
100
AcDbLine
 10
27.77048529687255
 20
-30.78946404559183
 30
0.0
 11
37.05994934246437
 21
-21.5
 31
0.0
  0
LINE
  5
62
330
668
100
AcDbEntity
  8
PATTERN_FILL
  6
Continuous
 62
     7
100
AcDbLine
 10
44.05994934246435
 20
-14.50000000000001
 30
0.0
 11
69.92989061923413
 21
11.36994127676976
 31
0.0
  0
LINE
  5
63
330
668
100
AcDbEntity
  8
PATTERN_FILL
  6
Continuous
 62
     7
100
AcDbLine
 10
28.17586022877185
 20
-32.88408911369251
 30
0.0
 11
39.55994934246435
 21
-21.50000000000001
 31
0.0
  0
LINE
  5
64
330
668
100
AcDbEntity
  8
PATTERN_FILL
  6
Continuous
 62
     7
100
AcDbLine
 10
46.55994934246435
 20
-14.50000000000001
 30
0.0
 11
70.26341399437663
 21
9.203464651912275
 31
0.0
  0
LINE
  5
65
330
668
100
AcDbEntity
  8
PATTERN_FILL
  6
Continuous
 62
     7
100
AcDbLine
 10
30.15994934246436
 20
-33.40000000000002
 30
0.0
 11
42.05994934246435
 21
-21.50000000000001
 31
0.0
  0
LINE
  5
66
330
668
100
AcDbEntity
  8
PATTERN_FILL
  6
Continuous
 62
     7
100
AcDbLine
 10
49.05994934246435
 20
-14.50000000000001
 30
0.0
 11
70.59693736951921
 21
7.036988027054825
 31
0.0
  0
LINE
  5
67
330
668
100
AcDbEntity
  8
PATTERN_FILL
  6
Continuous
 62
     7
100
AcDbLine
 10
32.65994934246436
 20
-33.40000000000002
 30
0.0
 11
44.55994934246435
 21
-21.50000000000001
 31
0.0
  0
LINE
  5
68
330
668
100
AcDbEntity
  8
PATTERN_FILL
  6
Continuous
 62
     7
100
AcDbLine
 10
51.55994934246435
 20
-14.50000000000001
 30
0.0
 11
70.93046074466172
 21
4.870511402197352
 31
0.0
  0
LINE
  5
69
330
668
100
AcDbEntity
  8
PATTERN_FILL
  6
Continuous
 62
     7
100
AcDbLine
 10
35.15994934246436
 20
-33.40000000000002
 30
0.0
 11
47.05994934246435
 21
-21.50000000000001
 31
0.0
  0
LINE
  5
6A
330
668
100
AcDbEntity
  8
PATTERN_FILL
  6
Continuous
 62
     7
100
AcDbLine
 10
54.05994934246434
 20
-14.50000000000003
 30
0.0
 11
71.26398411980426
 21
2.704034777339892
 31
0.0
  0
LINE
  5
6B
330
668
100
AcDbEntity
  8
PATTERN_FILL
  6
Continuous
 62
     7
100
AcDbLine
 10
37.65994934246437
 20
-33.39999999999999
 30
0.0
 11
49.55994934246437
 21
-21.49999999999999
 31
0.0
  0
LINE
  5
6C
330
668
100
AcDbEntity
  8
PATTERN_FILL
  6
Continuous
 62
     7
100
AcDbLine
 10
56.55994934246437
 20
-14.5
 30
0.0
 11
71.5975074949468
 21
0.5375581524824256
 31
0.0
  0
LINE
  5
6D
330
668
100
AcDbEntity
  8
PATTERN_FILL
  6
Continuous
 62
     7
100
AcDbLine
 10
40.15994934246435
 20
-33.40000000000002
 30
0.0
 11
52.05994934246437
 21
-21.49999999999999
 31
0.0
  0
LINE
  5
6E
330
668
100
AcDbEntity
  8
PATTERN_FILL
  6
Continuous
 62
     7
100
AcDbLine
 10
59.05994934246437
 20
-14.5
 30
0.0
 11
71.93103087008933
 21
-1.628918472375048
 31
0.0
  0
LINE
  5
6F
330
668
100
AcDbEntity
  8
PATTERN_FILL
  6
Continuous
 62
     7
100
AcDbLine
 10
42.65994934246435
 20
-33.40000000000002
 30
0.0
 11
54.55994934246437
 21
-21.5
 31
0.0
  0
LINE
  5
70
330
668
100
AcDbEntity
  8
PATTERN_FILL
  6
Continuous
 62
     7
100
AcDbLine
 10
61.55994934246437
 20
-14.5
 30
0.0
 11
72.26455424523186
 21
-3.795395097232514
 31
0.0
  0
LINE
  5
71
330
668
100
AcDbEntity
  8
PATTERN_FILL
  6
Continuous
 62
     7
100
AcDbLine
 10
45.15994934246435
 20
-33.40000000000002
 30
0.0
 11
57.05994934246435
 21
-21.5
 31
0.0
  0
LINE
  5
72
330
668
100
AcDbEntity
  8
PATTERN_FILL
  6
Continuous
 62
     7
100
AcDbLine
 10
64.05994934246436
 20
-14.5
 30
0.0
 11
72.59807762037437
 21
-5.961871722089995
 31
0.0
  0
LINE
  5
73
330
668
100
AcDbEntity
  8
PATTERN_FILL
  6
Continuous
 62
     7
100
AcDbLine
 10
47.65994934246435
 20
-33.40000000000002
 30
0.0
 11
59.55994934246435
 21
-21.5
 31
0.0
  0
LINE
  5
74
330
668
100
AcDbEntity
  8
PATTERN_FILL
  6
Continuous
 62
     7
100
AcDbLine
 10
66.55994934246436
 20
-14.5
 30
0.0
 11
72.93160099551691
 21
-8.128348346947461
 31
0.0
  0
LINE
  5
75
330
668
100
AcDbEntity
  8
PATTERN_FILL
  6
Continuous
 62
     7
100
AcDbLine
 10
50.15994934246439
 20
-33.39999999999998
 30
0.0
 11
62.05994934246437
 21
-21.5
 31
0.0
  0
LINE
  5
76
330
668
100
AcDbEntity
  8
PATTERN_FILL
  6
Continuous
 62
     7
100
AcDbLine
 10
69.05994934246436
 20
-14.5
 30
0.0
 11
73.2651243706594
 21
-10.29482497180494
 31
0.0
  0
LINE
  5
77
330
668
100
AcDbEntity
  8
PATTERN_FILL
  6
Continuous
 62
     7
100
AcDbLine
 10
52.65994934246437
 20
-33.39999999999999
 30
0.0
 11
64.55994934246437
 21
-21.5
 31
0.0
  0
LINE
  5
78
330
668
100
AcDbEntity
  8
PATTERN_FILL
  6
Continuous
 62
     7
100
AcDbLine
 10
71.55994934246436
 20
-14.5
 30
0.0
 11
73.59864774580197
 21
-12.46130159666239
 31
0.0
  0
LINE
  5
79
330
668
100
AcDbEntity
  8
PATTERN_FILL
  6
Continuous
 62
     7
100
AcDbLine
 10
55.15994934246435
 20
-33.40000000000002
 30
0.0
 11
67.05994934246433
 21
-21.50000000000001
 31
0.0
  0
LINE
  5
7A
330
668
100
AcDbEntity
  8
PATTERN_FILL
  6
Continuous
 62
     7
100
AcDbLine
 10
57.65994934246435
 20
-33.39999999999999
 30
0.0
 11
69.55994934246439
 21
-21.49999999999999
 31
0.0
  0
LINE
  5
7B
330
668
100
AcDbEntity
  8
PATTERN_FILL
  6
Continuous
 62
     7
100
AcDbLine
 10
60.15994934246435
 20
-33.40000000000002
 30
0.0
 11
72.05994934246433
 21
-21.5
 31
0.0
  0
LINE
  5
7C
330
668
100
AcDbEntity
  8
PATTERN_FILL
  6
Continuous
 62
     7
100
AcDbLine
 10
62.65994934246434
 20
-33.40000000000002
 30
0.0
 11
73.79956138268862
 21
-22.2603879597757
 31
0.0
  0
LINE
  5
7D
330
668
100
AcDbEntity
  8
PATTERN_FILL
  6
Continuous
 62
     7
100
AcDbLine
 10
65.15994934246437
 20
-33.40000000000002
 30
0.0
 11
73.33439945953125
 21
-25.22554988293312
 31
0.0
  0
LINE
  5
7E
330
668
100
AcDbEntity
  8
PATTERN_FILL
  6
Continuous
 62
     7
100
AcDbLine
 10
67.65994934246439
 20
-33.39999999999998
 30
0.0
 11
72.82113417963739
 21
-28.23881516282698
 31
0.0
  0
LINE
  5
7F
330
668
100
AcDbEntity
  8
PATTERN_FILL
  6
Continuous
 62
     7
100
AcDbLine
 10
70.15994934246435
 20
-33.40000000000002
 30
0.0
 11
72.25699370338222
 21
-31.30295563908215
 31
0.0
  0
LINE
  5
80
330
668
100
AcDbEntity
  8
PATTERN_FILL
  6
Continuous
 62
     7
100
AcDbLine
 10
65.56505065753563
 20
23.5
 30
0.0
 11
68.51693479481854
 21
20.54811586271707
 31
0.0
  0
LINE
  5
81
330
668
100
AcDbEntity
  8
PATTERN_FILL
  6
Continuous
 62
     7
100
AcDbLine
 10
63.06505065753563
 20
23.5
 30
0.0
 11
68.9718337061716
 21
17.59321695136404
 31
0.0
  0
LINE
  5
82
330
668
100
AcDbEntity
  8
PATTERN_FILL
  6
Continuous
 62
     7
100
AcDbLine
 10
60.56505065753562
 20
23.50000000000001
 30
0.0
 11
69.42673261752465
 21
14.63831804001101
 31
0.0
  0
LINE
  5
83
330
668
100
AcDbEntity
  8
PATTERN_FILL
  6
Continuous
 62
     7
100
AcDbLine
 10
58.06505065753562
 20
23.50000000000001
 30
0.0
 11
69.88163152887764
 21
11.68341912865798
 31
0.0
  0
LINE
  5
84
330
668
100
AcDbEntity
  8
PATTERN_FILL
  6
Continuous
 62
     7
100
AcDbLine
 10
55.56505065753562
 20
23.50000000000001
 30
0.0
 11
70.33653044023068
 21
8.728520217304946
 31
0.0
  0
LINE
  5
85
330
668
100
AcDbEntity
  8
PATTERN_FILL
  6
Continuous
 62
     7
100
AcDbLine
 10
53.06505065753562
 20
23.50000000000001
 30
0.0
 11
70.7914293515837
 21
5.77362130595192
 31
0.0
  0
LINE
  5
86
330
668
100
AcDbEntity
  8
PATTERN_FILL
  6
Continuous
 62
     7
100
AcDbLine
 10
50.56505065753562
 20
23.50000000000001
 30
0.0
 11
71.24632826293673
 21
2.8187223945989
 31
0.0
  0
LINE
  5
87
330
668
100
AcDbEntity
  8
PATTERN_FILL
  6
Continuous
 62
     7
100
AcDbLine
 10
48.06505065753563
 20
23.5
 30
0.0
 11
71.70122717428978
 21
-0.1361765167541336
 31
0.0
  0
LINE
  5
88
330
668
100
AcDbEntity
  8
PATTERN_FILL
  6
Continuous
 62
     7
100
AcDbLine
 10
45.56505065753563
 20
23.5
 30
0.0
 11
72.15612608564281
 21
-3.09107542810716
 31
0.0
  0
LINE
  5
89
330
668
100
AcDbEntity
  8
PATTERN_FILL
  6
Continuous
 62
     7
100
AcDbLine
 10
43.06505065753563
 20
23.5
 30
0.0
 11
72.61102499699581
 21
-6.045974339460201
 31
0.0
  0
LINE
  5
8A
330
668
100
AcDbEntity
  8
PATTERN_FILL
  6
Continuous
 62
     7
100
AcDbLine
 10
40.56505065753561
 20
23.50000000000001
 30
0.0
 11
73.06592390834885
 21
-9.000873250813228
 31
0.0
  0
LINE
  5
8B
330
668
100
AcDbEntity
  8
PATTERN_FILL
  6
Continuous
 62
     7
100
AcDbLine
 10
38.06505065753562
 20
23.50000000000001
 30
0.0
 11
73.52082281970189
 21
-11.95577216216626
 31
0.0
  0
LINE
  5
8C
330
668
100
AcDbEntity
  8
PATTERN_FILL
  6
Continuous
 62
     7
100
AcDbLine
 10
35.56505065753562
 20
23.50000000000001
 30
0.0
 11
73.56505065753563
 21
-14.5
 31
0.0
  0
LINE
  5
8D
330
668
100
AcDbEntity
  8
PATTERN_FILL
  6
Continuous
 62
     7
100
AcDbLine
 10
33.16225063528943
 20
23.40280002224622
 30
0.0
 11
71.06505065753561
 21
-14.49999999999998
 31
0.0
  0
LINE
  5
8E
330
668
100
AcDbEntity
  8
PATTERN_FILL
  6
Continuous
 62
     7
100
AcDbLine
 10
31.89407661754017
 20
22.17097403999545
 30
0.0
 11
68.56505065753563
 21
-14.5
 31
0.0
  0
LINE
  5
8F
330
668
100
AcDbEntity
  8
PATTERN_FILL
  6
Continuous
 62
     7
100
AcDbLine
 10
31.529202881336
 20
20.03584777619964
 30
0.0
 11
66.06505065753561
 21
-14.49999999999997
 31
0.0
  0
LINE
  5
90
330
668
100
AcDbEntity
  8
PATTERN_FILL
  6
Continuous
 62
     7
100
AcDbLine
 10
73.06505065753566
 20
-21.5
 30
0.0
 11
73.80294015192355
 21
-22.23788949438793
 31
0.0
  0
LINE
  5
91
330
668
100
AcDbEntity
  8
PATTERN_FILL
  6
Continuous
 62
     7
100
AcDbLine
 10
31.19567950619347
 20
17.86937115134216
 30
0.0
 11
63.56505065753563
 21
-14.49999999999998
 31
0.0
  0
LINE
  5
92
330
668
100
AcDbEntity
  8
PATTERN_FILL
  6
Continuous
 62
     7
100
AcDbLine
 10
70.56505065753561
 20
-21.49999999999999
 30
0.0
 11
73.46748492858198
 21
-24.40243427104636
 31
0.0
  0
LINE
  5
93
330
668
100
AcDbEntity
  8
PATTERN_FILL
  6
Continuous
 62
     7
100
AcDbLine
 10
30.86215613105093
 20
15.70289452648469
 30
0.0
 11
61.06505065753561
 21
-14.49999999999998
 31
0.0
  0
LINE
  5
94
330
668
100
AcDbEntity
  8
PATTERN_FILL
  6
Continuous
 62
     7
100
AcDbLine
 10
30.52863275590841
 20
13.53641790162723
 30
0.0
 11
58.56505065753563
 21
-14.5
 31
0.0
  0
LINE
  5
95
330
668
100
AcDbEntity
  8
PATTERN_FILL
  6
Continuous
 62
     7
100
AcDbLine
 10
65.56505065753563
 20
-21.5
 30
0.0
 11
72.74291928699341
 21
-28.67786862945778
 31
0.0
  0
LINE
  5
96
330
668
100
AcDbEntity
  8
PATTERN_FILL
  6
Continuous
 62
     7
100
AcDbLine
 10
30.19510938076589
 20
11.36994127676975
 30
0.0
 11
56.06505065753563
 21
-14.5
 31
0.0
  0
LINE
  5
97
330
668
100
AcDbEntity
  8
PATTERN_FILL
  6
Continuous
 62
     7
100
AcDbLine
 10
63.06505065753563
 20
-21.5
 30
0.0
 11
72.35451470312749
 21
-30.78946404559187
 31
0.0
  0
LINE
  5
98
330
668
100
AcDbEntity
  8
PATTERN_FILL
  6
Continuous
 62
     7
100
AcDbLine
 10
29.86158600562331
 20
9.203464651912319
 30
0.0
 11
53.56505065753562
 21
-14.5
 31
0.0
  0
LINE
  5
99
330
668
100
AcDbEntity
  8
PATTERN_FILL
  6
Continuous
 62
     7
100
AcDbLine
 10
60.56505065753563
 20
-21.5
 30
0.0
 11
71.94913977122819
 21
-32.88408911369254
 31
0.0
  0
LINE
  5
9A
330
668
100
AcDbEntity
  8
PATTERN_FILL
  6
Continuous
 62
     7
100
AcDbLine
 10
29.5280626304808
 20
7.036988027054832
 30
0.0
 11
51.06505065753563
 21
-14.5
 31
0.0
  0
LINE
  5
9B
330
668
100
AcDbEntity
  8
PATTERN_FILL
  6
Continuous
 62
     7
100
AcDbLine
 10
58.06505065753563
 20
-21.5
 30
0.0
 11
69.96505065753564
 21
-33.40000000000002
 31
0.0
  0
LINE
  5
9C
330
668
100
AcDbEntity
  8
PATTERN_FILL
  6
Continuous
 62
     7
100
AcDbLine
 10
29.19453925533827
 20
4.870511402197372
 30
0.0
 11
48.56505065753563
 21
-14.5
 31
0.0
  0
LINE
  5
9D
330
668
100
AcDbEntity
  8
PATTERN_FILL
  6
Continuous
 62
     7
100
AcDbLine
 10
55.56505065753562
 20
-21.49999999999999
 30
0.0
 11
67.46505065753564
 21
-33.40000000000002
 31
0.0
  0
LINE
  5
9E
330
668
100
AcDbEntity
  8
PATTERN_FILL
  6
Continuous
 62
     7
100
AcDbLine
 10
28.86101588019577
 20
2.704034777339877
 30
0.0
 11
46.06505065753563
 21
-14.5
 31
0.0
  0
LINE
  5
9F
330
668
100
AcDbEntity
  8
PATTERN_FILL
  6
Continuous
 62
     7
100
AcDbLine
 10
53.06505065753562
 20
-21.49999999999999
 30
0.0
 11
64.96505065753564
 21
-33.40000000000002
 31
0.0
  0
LINE
  5
A0
330
668
100
AcDbEntity
  8
PATTERN_FILL
  6
Continuous
 62
     7
100
AcDbLine
 10
28.52749250505321
 20
0.5375581524824256
 30
0.0
 11
43.56505065753563
 21
-14.5
 31
0.0
  0
LINE
  5
A1
330
668
100
AcDbEntity
  8
PATTERN_FILL
  6
Continuous
 62
     7
100
AcDbLine
 10
50.56505065753562
 20
-21.5
 30
0.0
 11
62.46505065753559
 21
-33.39999999999998
 31
0.0
  0
LINE
  5
A2
330
668
100
AcDbEntity
  8
PATTERN_FILL
  6
Continuous
 62
     7
100
AcDbLine
 10
28.19396912991067
 20
-1.628918472375033
 30
0.0
 11
41.06505065753562
 21
-14.5
 31
0.0
  0
LINE
  5
A3
330
668
100
AcDbEntity
  8
PATTERN_FILL
  6
Continuous
 62
     7
100
AcDbLine
 10
48.06505065753563
 20
-21.5
 30
0.0
 11
59.96505065753561
 21
-33.39999999999998
 31
0.0
  0
LINE
  5
A4
330
668
100
AcDbEntity
  8
PATTERN_FILL
  6
Continuous
 62
     7
100
AcDbLine
 10
27.86044575476814
 20
-3.795395097232499
 30
0.0
 11
38.56505065753564
 21
-14.5
 31
0.0
  0
LINE
  5
A5
330
668
100
AcDbEntity
  8
PATTERN_FILL
  6
Continuous
 62
     7
100
AcDbLine
 10
45.56505065753563
 20
-21.5
 30
0.0
 11
57.46505065753561
 21
-33.39999999999998
 31
0.0
  0
LINE
  5
A6
330
668
100
AcDbEntity
  8
PATTERN_FILL
  6
Continuous
 62
     7
100
AcDbLine
 10
27.52692237962563
 20
-5.961871722089995
 30
0.0
 11
36.06505065753564
 21
-14.49999999999998
 31
0.0
  0
LINE
  5
A7
330
668
100
AcDbEntity
  8
PATTERN_FILL
  6
Continuous
 62
     7
100
AcDbLine
 10
43.06505065753563
 20
-21.5
 30
0.0
 11
54.96505065753564
 21
-33.39999999999999
 31
0.0
  0
LINE
  5
A8
330
668
100
AcDbEntity
  8
PATTERN_FILL
  6
Continuous
 62
     7
100
AcDbLine
 10
27.19339900448309
 20
-8.128348346947461
 30
0.0
 11
33.56505065753564
 21
-14.5
 31
0.0
  0
LINE
  5
A9
330
668
100
AcDbEntity
  8
PATTERN_FILL
  6
Continuous
 62
     7
100
AcDbLine
 10
40.56505065753563
 20
-21.5
 30
0.0
 11
52.46505065753564
 21
-33.40000000000002
 31
0.0
  0
LINE
  5
AA
330
668
100
AcDbEntity
  8
PATTERN_FILL
  6
Continuous
 62
     7
100
AcDbLine
 10
26.85987562934057
 20
-10.29482497180493
 30
0.0
 11
31.06505065753565
 21
-14.5
 31
0.0
  0
LINE
  5
AB
330
668
100
AcDbEntity
  8
PATTERN_FILL
  6
Continuous
 62
     7
100
AcDbLine
 10
38.06505065753564
 20
-21.5
 30
0.0
 11
49.96505065753562
 21
-33.39999999999999
 31
0.0
  0
LINE
  5
AC
330
668
100
AcDbEntity
  8
PATTERN_FILL
  6
Continuous
 62
     7
100
AcDbLine
 10
26.526352254198
 20
-12.46130159666236
 30
0.0
 11
28.56505065753564
 21
-14.5
 31
0.0
  0
LINE
  5
AD
330
668
100
AcDbEntity
  8
PATTERN_FILL
  6
Continuous
 62
     7
100
AcDbLine
 10
35.56505065753562
 20
-21.49999999999999
 30
0.0
 11
47.46505065753564
 21
-33.40000000000002
 31
0.0
  0
LINE
  5
AE
330
668
100
AcDbEntity
  8
PATTERN_FILL
  6
Continuous
 62
     7
100
AcDbLine
 10
28.06505065753564
 20
-21.5
 30
0.0
 11
39.96505065753564
 21
-33.40000000000002
 31
0.0
  0
LINE
  5
AF
330
668
100
AcDbEntity
  8
PATTERN_FILL
  6
Continuous
 62
     7
100
AcDbLine
 10
26.31249999999999
 20
-22.24744934246436
 30
0.0
 11
37.46505065753563
 21
-33.40000000000002
 31
0.0
  0
LINE
  5
B0
330
668
100
AcDbEntity
  8
PATTERN_FILL
  6
Continuous
 62
     7
100
AcDbLine
 10
26.79060054046873
 20
-25.22554988293309
 30
0.0
 11
34.9650506575356
 21
-33.39999999999997
 31
0.0
  0
LINE
  5
B1
330
668
100
AcDbEntity
  8
PATTERN_FILL
  6
Continuous
 62
     7
100
AcDbLine
 10
27.30386582036263
 20
-28.238815162827
 30
0.0
 11
32.4650506575356
 21
-33.39999999999997
 31
0.0
  0
LINE
  5
B2
330
668
100
AcDbEntity
  8
PATTERN_FILL
  6
Continuous
 62
     7
100
AcDbLine
 10
27.86800629661776
 20
-31.30295563908213
 30
0.0
 11
29.9650506575356
 21
-33.39999999999997
 31
0.0
  0
LINE
  5
B3
330
668
100
AcDbEntity
  8
PATTERN_FILL
  6
Continuous
 62
     7
100
AcDbLine
 10
33.06505065753562
 20
-21.49999999999999
 30
0.0
 11
44.96505065753564
 21
-33.40000000000002
 31
0.0
  0
LINE
  5
B4
330
668
100
AcDbEntity
  8
PATTERN_FILL
  6
Continuous
 62
     7
100
AcDbLine
 10
30.56505065753563
 20
-21.49999999999999
 30
0.0
 11
42.46505065753564
 21
-33.40000000000002
 31
0.0
  0
LINE
  5
B5
330
668
100
AcDbEntity
  8
PATTERN_FILL
  6
Continuous
 62
     7
100
AcDbLine
 10
27.01097573585665
 20
-26.54897360660772
 30
0.0
 11
32.05994934246437
 21
-21.5
 31
0.0
  0
LINE
  5
B6
330
668
100
AcDbEntity
  8
PATTERN_FILL
  6
Continuous
 62
     7
100
AcDbLine
 10
68.06505065753563
 20
-21.5
 30
0.0
 11
73.11402426414332
 21
-26.54897360660767
 31
0.0
  0
LINE
  5
B7
330
668
100
AcDbEntity
  8
PATTERN_FILL
  6
Continuous
 62
     7
100
AcDbLine
 10
-92.92836119118431
 20
73.19663880881569
 30
0.0
 11
-91.276557055553
 21
74.84844294444698
 31
0.0
  0
LINE
  5
B8
330
668
100
AcDbEntity
  8
PATTERN_FILL
  6
Continuous
 62
     7
100
AcDbLine
 10
-99.40008250201609
 20
59.2249174979839
 30
0.0
 11
-77.75033737813306
 21
80.87466262186694
 31
0.0
  0
LINE
  5
B9
330
668
100
AcDbEntity
  8
PATTERN_FILL
  6
Continuous
 62
     7
100
AcDbLine
 10
-99.5671824458622
 20
56.55781755413778
 30
0.0
 11
-75.08323743428694
 21
81.04176256571305
 31
0.0
  0
LINE
  5
BA
330
668
100
AcDbEntity
  8
PATTERN_FILL
  6
Continuous
 62
     7
100
AcDbLine
 10
-99.47031784119456
 20
54.15468215880546
 30
0.0
 11
-72.68010203895459
 21
80.94489796104541
 31
0.0
  0
LINE
  5
BB
330
668
100
AcDbEntity
  8
PATTERN_FILL
  6
Continuous
 62
     7
100
AcDbLine
 10
-99.1732739395427
 20
51.9517260604573
 30
0.0
 11
-70.47714594060645
 21
80.64785405939355
 31
0.0
  0
LINE
  5
BC
330
668
100
AcDbEntity
  8
PATTERN_FILL
  6
Continuous
 62
     7
100
AcDbLine
 10
-98.776557055553
 20
49.848442944447
 30
0.0
 11
-68.4365189338145
 21
80.1884810661855
 31
0.0
  0
LINE
  5
BD
330
668
100
AcDbEntity
  8
PATTERN_FILL
  6
Continuous
 62
     7
100
AcDbLine
 10
-98.11659968997329
 20
48.00840031002672
 30
0.0
 11
-66.53382019017588
 21
79.59117980982412
 31
0.0
  0
LINE
  5
BE
330
668
100
AcDbEntity
  8
PATTERN_FILL
  6
Continuous
 62
     7
100
AcDbLine
 10
-97.39792463718893
 20
46.22707536281107
 30
0.0
 11
-64.75249524296024
 21
78.87250475703976
 31
0.0
  0
LINE
  5
BF
330
668
100
AcDbEntity
  8
PATTERN_FILL
  6
Continuous
 62
     7
100
AcDbLine
 10
-96.56943401685932
 20
44.55556598314066
 30
0.0
 11
-63.08098586328981
 21
78.04401413671019
 31
0.0
  0
LINE
  5
C0
330
668
100
AcDbEntity
  8
PATTERN_FILL
  6
Continuous
 62
     7
100
AcDbLine
 10
-95.63926762820273
 20
42.98573237179727
 30
0.0
 11
-61.51115225194639
 21
77.11384774805363
 31
0.0
  0
LINE
  5
C1
330
668
100
AcDbEntity
  8
PATTERN_FILL
  6
Continuous
 62
     7
100
AcDbLine
 10
-94.6130695425225
 20
41.51193045747748
 30
0.0
 11
-60.02655705555298
 21
76.09844294444702
 31
0.0
  0
LINE
  5
C2
330
668
100
AcDbEntity
  8
PATTERN_FILL
  6
Continuous
 62
     7
100
AcDbLine
 10
-93.49454157145864
 20
40.13045842854135
 30
0.0
 11
-58.65587830869049
 21
74.96912169130952
 31
0.0
  0
LINE
  5
C3
330
668
100
AcDbEntity
  8
PATTERN_FILL
  6
Continuous
 62
     7
100
AcDbLine
 10
-92.28576947676536
 20
38.83923052323464
 30
0.0
 11
-57.36465040338377
 21
73.76034959661622
 31
0.0
  0
LINE
  5
C4
330
668
100
AcDbEntity
  8
PATTERN_FILL
  6
Continuous
 62
     7
100
AcDbLine
 10
-90.98739430001378
 20
37.63760569998625
 30
0.0
 11
-56.16302558013536
 21
72.46197441986463
 31
0.0
  0
LINE
  5
C5
330
668
100
AcDbEntity
  8
PATTERN_FILL
  6
Continuous
 62
     7
100
AcDbLine
 10
-89.59866324376278
 20
36.52633675623722
 30
0.0
 11
-55.02655705555298
 21
71.09844294444702
 31
0.0
  0
LINE
  5
C6
330
668
100
AcDbEntity
  8
PATTERN_FILL
  6
Continuous
 62
     7
100
AcDbLine
 10
-88.11736983501992
 20
35.50763016498007
 30
0.0
 11
-54.03305004512922
 21
69.59194995487078
 31
0.0
  0
LINE
  5
C7
330
668
100
AcDbEntity
  8
PATTERN_FILL
  6
Continuous
 62
     7
100
AcDbLine
 10
-86.53967190374752
 20
34.58532809625249
 30
0.0
 11
-53.11074797640164
 21
68.01425202359836
 31
0.0
  0
LINE
  5
C8
330
668
100
AcDbEntity
  8
PATTERN_FILL
  6
Continuous
 62
     7
100
AcDbLine
 10
-84.85975057176744
 20
33.76524942823255
 30
0.0
 11
-52.29066930838167
 21
66.33433069161835
 31
0.0
  0
LINE
  5
C9
330
668
100
AcDbEntity
  8
PATTERN_FILL
  6
Continuous
 62
     7
100
AcDbLine
 10
-83.0692338359991
 20
33.05576616400089
 30
0.0
 11
-51.58118604415003
 21
64.54381395584997
 31
0.0
  0
LINE
  5
CA
330
668
100
AcDbEntity
  8
PATTERN_FILL
  6
Continuous
 62
     7
100
AcDbLine
 10
-81.15623488155746
 20
32.46876511844255
 30
0.0
 11
-50.99418499859165
 21
62.63081500140835
 31
0.0
  0
LINE
  5
CB
330
668
100
AcDbEntity
  8
PATTERN_FILL
  6
Continuous
 62
     7
100
AcDbLine
 10
-79.10370209211272
 20
32.02129790788725
 30
0.0
 11
-50.54671778803638
 21
60.57828221196362
 31
0.0
  0
LINE
  5
CC
330
668
100
AcDbEntity
  8
PATTERN_FILL
  6
Continuous
 62
     7
100
AcDbLine
 10
-76.88642186784439
 20
31.73857813215561
 30
0.0
 11
-50.26399801230475
 21
58.36100198769525
 31
0.0
  0
LINE
  5
CD
330
668
100
AcDbEntity
  8
PATTERN_FILL
  6
Continuous
 62
     7
100
AcDbLine
 10
-74.46507764265634
 20
31.65992235734365
 30
0.0
 11
-50.18534223749276
 21
55.93965776250723
 31
0.0
  0
LINE
  5
CE
330
668
100
AcDbEntity
  8
PATTERN_FILL
  6
Continuous
 62
     7
100
AcDbLine
 10
-71.77284578573573
 20
31.85215421426426
 30
0.0
 11
-50.37757409441338
 21
53.24742590558662
 31
0.0
  0
LINE
  5
CF
330
668
100
AcDbEntity
  8
PATTERN_FILL
  6
Continuous
 62
     7
100
AcDbLine
 10
-68.67831321161507
 20
32.44668678838492
 30
0.0
 11
-50.97210666853405
 21
50.15289333146593
 31
0.0
  0
LINE
  5
D0
330
668
100
AcDbEntity
  8
PATTERN_FILL
  6
Continuous
 62
     7
100
AcDbLine
 10
-64.83543856103944
 20
33.78956143896056
 30
0.0
 11
-52.31498131910969
 21
46.31001868089031
 31
0.0
  0
LINE
  5
D1
330
668
100
AcDbEntity
  8
PATTERN_FILL
  6
Continuous
 62
     7
100
AcDbLine
 10
-55.02655705555297
 20
71.09844294444703
 30
0.0
 11
-60.02655705555297
 21
76.09844294444704
 31
0.0
  0
LINE
  5
D2
330
668
100
AcDbEntity
  8
PATTERN_FILL
  6
Continuous
 62
     7
100
AcDbLine
 10
-51.94780373940459
 20
65.5196896282986
 30
0.0
 11
-65.70489049155225
 21
79.27677638044631
 31
0.0
  0
LINE
  5
D3
330
668
100
AcDbEntity
  8
PATTERN_FILL
  6
Continuous
 62
     7
100
AcDbLine
 10
-50.80955202829574
 20
61.88143791718977
 30
0.0
 11
-69.34314220266109
 21
80.41502809155515
 31
0.0
  0
LINE
  5
D4
330
668
100
AcDbEntity
  8
PATTERN_FILL
  6
Continuous
 62
     7
100
AcDbLine
 10
-50.31237310973747
 20
58.8842589986315
 30
0.0
 11
-72.34032112121933
 21
80.91220701011337
 31
0.0
  0
LINE
  5
D5
330
668
100
AcDbEntity
  8
PATTERN_FILL
  6
Continuous
 62
     7
100
AcDbLine
 10
-50.18212444479665
 20
56.25401033369069
 30
0.0
 11
-74.97056978616014
 21
81.04245567505419
 31
0.0
  0
LINE
  5
D6
330
668
100
AcDbEntity
  8
PATTERN_FILL
  6
Continuous
 62
     7
100
AcDbLine
 10
-50.30595925781154
 20
53.8778451467056
 30
0.0
 11
-77.34673497314526
 21
80.91862086203933
 31
0.0
  0
LINE
  5
D7
330
668
100
AcDbEntity
  8
PATTERN_FILL
  6
Continuous
 62
     7
100
AcDbLine
 10
-50.62435693996804
 20
51.69624282886207
 30
0.0
 11
-79.52833729098883
 21
80.60022317988286
 31
0.0
  0
LINE
  5
D8
330
668
100
AcDbEntity
  8
PATTERN_FILL
  6
Continuous
 62
     7
100
AcDbLine
 10
-51.10155968693439
 20
49.67344557582841
 30
0.0
 11
-81.55113454402245
 21
80.12302043291652
 31
0.0
  0
LINE
  5
D9
330
668
100
AcDbEntity
  8
PATTERN_FILL
  6
Continuous
 62
     7
100
AcDbLine
 10
-51.71433953586679
 20
47.78622542476082
 30
0.0
 11
-83.43835469509004
 21
79.51024058398411
 31
0.0
  0
LINE
  5
DA
330
668
100
AcDbEntity
  8
PATTERN_FILL
  6
Continuous
 62
     7
100
AcDbLine
 10
-52.44686554044193
 20
46.01875142933593
 30
0.0
 11
-85.20582869051494
 21
78.77771457940899
 31
0.0
  0
LINE
  5
DB
330
668
100
AcDbEntity
  8
PATTERN_FILL
  6
Continuous
 62
     7
100
AcDbLine
 10
-53.28806105411215
 20
44.35994694300616
 30
0.0
 11
-86.86463317684468
 21
77.93651906573874
 31
0.0
  0
LINE
  5
DC
330
668
100
AcDbEntity
  8
PATTERN_FILL
  6
Continuous
 62
     7
100
AcDbLine
 10
-54.23012878832874
 20
42.80201467722275
 30
0.0
 11
-88.42256544262811
 21
76.99445133152214
 31
0.0
  0
LINE
  5
DD
330
668
100
AcDbEntity
  8
PATTERN_FILL
  6
Continuous
 62
     7
100
AcDbLine
 10
-55.26768416015826
 20
41.33957004905229
 30
0.0
 11
-89.88501007079859
 21
75.95689595969265
 31
0.0
  0
LINE
  5
DE
330
668
100
AcDbEntity
  8
PATTERN_FILL
  6
Continuous
 62
     7
100
AcDbLine
 10
-56.39723510389916
 20
39.96912099279317
 30
0.0
 11
-91.276557055553
 21
74.84844294444704
 31
0.0
  0
LINE
  5
DF
330
668
100
AcDbEntity
  8
PATTERN_FILL
  6
Continuous
 62
     7
100
AcDbLine
 10
-57.61687754382533
 20
38.68876343271935
 30
0.0
 11
-92.53581668713156
 21
73.60770257602559
 31
0.0
  0
LINE
  5
E0
330
668
100
AcDbEntity
  8
PATTERN_FILL
  6
Continuous
 62
     7
100
AcDbLine
 10
-58.92613993467784
 20
37.49802582357185
 30
0.0
 11
-93.72655429627899
 21
72.29844018517302
 31
0.0
  0
LINE
  5
E1
330
668
100
AcDbEntity
  8
PATTERN_FILL
  6
Continuous
 62
     7
100
AcDbLine
 10
-60.32594589851862
 20
36.39783178741264
 30
0.0
 11
-94.82674833243825
 21
70.89863422133229
 31
0.0
  0
LINE
  5
E2
330
668
100
AcDbEntity
  8
PATTERN_FILL
  6
Continuous
 62
     7
100
AcDbLine
 10
-61.81868783039772
 20
35.39057371929174
 30
0.0
 11
-95.83400640055911
 21
69.40589228945315
 31
0.0
  0
LINE
  5
E3
330
668
100
AcDbEntity
  8
PATTERN_FILL
  6
Continuous
 62
     7
100
AcDbLine
 10
-63.40842563232115
 20
34.48031152121517
 30
0.0
 11
-96.74426859863572
 21
67.81615448752972
 31
0.0
  0
LINE
  5
E4
330
668
100
AcDbEntity
  8
PATTERN_FILL
  6
Continuous
 62
     7
100
AcDbLine
 10
-65.10125115952181
 20
33.67313704841581
 30
0.0
 11
-97.55144307143504
 21
66.12332896032907
 31
0.0
  0
LINE
  5
E5
330
668
100
AcDbEntity
  8
PATTERN_FILL
  6
Continuous
 62
     7
100
AcDbLine
 10
-66.90590133396653
 20
32.97778722286054
 30
0.0
 11
-98.24679289699032
 21
64.31867878588434
 31
0.0
  0
LINE
  5
E6
330
668
100
AcDbEntity
  8
PATTERN_FILL
  6
Continuous
 62
     7
100
AcDbLine
 10
-68.8347827140356
 20
32.40666860292961
 30
0.0
 11
-98.81791151692123
 21
62.38979740581529
 31
0.0
  0
LINE
  5
E7
330
668
100
AcDbEntity
  8
PATTERN_FILL
  6
Continuous
 62
     7
100
AcDbLine
 10
-70.90573896290042
 20
31.97762485179441
 30
0.0
 11
-99.24695526805649
 21
60.31884115695053
 31
0.0
  0
LINE
  5
E8
330
668
100
AcDbEntity
  8
PATTERN_FILL
  6
Continuous
 62
     7
100
AcDbLine
 10
-73.145289964202
 20
31.71717585309601
 30
0.0
 11
-99.50740426675483
 21
58.07929015564887
 31
0.0
  0
LINE
  5
E9
330
668
100
AcDbEntity
  8
PATTERN_FILL
  6
Continuous
 62
     7
100
AcDbLine
 10
-75.59513683285175
 20
31.66702272174575
 30
0.0
 11
-99.55755739810513
 21
55.62944328699916
 31
0.0
  0
LINE
  5
EA
330
668
100
AcDbEntity
  8
PATTERN_FILL
  6
Continuous
 62
     7
100
AcDbLine
 10
-78.32713133296291
 20
31.89901722185689
 30
0.0
 11
-99.325562897994
 21
52.89744878688803
 31
0.0
  0
LINE
  5
EB
330
668
100
AcDbEntity
  8
PATTERN_FILL
  6
Continuous
 62
     7
100
AcDbLine
 10
-81.48608144676204
 20
32.55796733565606
 30
0.0
 11
-98.77655705555298
 21
49.848442944447
 31
0.0
  0
LINE
  5
EC
330
668
100
AcDbEntity
  8
PATTERN_FILL
  6
Continuous
 62
     7
100
AcDbLine
 10
-85.47597990730837
 20
34.04786579620239
 30
0.0
 11
-97.1767143236485
 21
45.74860021254253
 31
0.0
  0
LINE
  5
ED
330
668
100
AcDbEntity
  8
PATTERN_FILL
  6
Continuous
 62
     7
100
AcDbLine
 10
-98.84545611920342
 20
62.27954388079662
 30
0.0
 11
-80.80496376094572
 21
80.32003623905428
 31
0.0
  0
LINE
  5
EE
330
668
100
AcDbEntity
  8
PATTERN_FILL
  6
Continuous
 62
     7
100
AcDbLine
 10
-97.58879699191487
 20
66.03620300808514
 30
0.0
 11
-84.56162288823426
 21
79.06337711176573
 31
0.0
  0
LINE
  5
EF
330
668
100
AcDbEntity
  8
PATTERN_FILL
  6
Continuous
 62
     7
100
AcDbLine
 10
-52.38539816701173
 20
-204.0459052501337
 30
0.0
 11
-64.67867486971671
 21
-216.3391819528388
 31
0.0
  0
LINE
  5
F0
330
668
100
AcDbEntity
  8
PATTERN_FILL
  6
Continuous
 62
     7
100
AcDbLine
 10
-50.9390730367289
 20
-200.0995801198508
 30
0.0
 11
-56.01342227145396
 21
-205.1739293545759
 31
0.0
  0
LINE
  5
F1
330
668
100
AcDbEntity
  8
PATTERN_FILL
  6
Continuous
 62
     7
100
AcDbLine
 10
-63.5506507652746
 20
-212.7111578483967
 30
0.0
 11
-68.56133442459825
 21
-217.7218415077204
 31
0.0
  0
LINE
  5
F2
330
668
100
AcDbEntity
  8
PATTERN_FILL
  6
Continuous
 62
     7
100
AcDbLine
 10
-50.39032704899359
 20
-197.0508341321153
 30
0.0
 11
-53.93468757343396
 21
-200.5951946565558
 31
0.0
  0
LINE
  5
F3
330
668
100
AcDbEntity
  8
PATTERN_FILL
  6
Continuous
 62
     7
100
AcDbLine
 10
-68.12938546329458
 20
-214.7898925464168
 30
0.0
 11
-71.67374598773493
 21
-218.3342530708572
 31
0.0
  0
LINE
  5
F4
330
668
100
AcDbEntity
  8
PATTERN_FILL
  6
Continuous
 62
     7
100
AcDbLine
 10
-50.18695945641129
 20
-194.347466539533
 30
0.0
 11
-53.14873094205782
 21
-197.3092380251796
 31
0.0
  0
LINE
  5
F5
330
668
100
AcDbEntity
  8
PATTERN_FILL
  6
Continuous
 62
     7
100
AcDbLine
 10
-71.41534209467083
 20
-215.575849177793
 30
0.0
 11
-74.37711358031734
 21
-218.5376206634396
 31
0.0
  0
LINE
  5
F6
330
668
100
AcDbEntity
  8
PATTERN_FILL
  6
Continuous
 62
     7
100
AcDbLine
 10
-50.25759499193203
 20
-191.9181020750537
 30
0.0
 11
-52.88604293137209
 21
-194.5465500144938
 31
0.0
  0
LINE
  5
F7
330
668
100
AcDbEntity
  8
PATTERN_FILL
  6
Continuous
 62
     7
100
AcDbLine
 10
-74.17803010535664
 20
-215.8385371884788
 30
0.0
 11
-76.80647804479668
 21
-218.4669851279189
 31
0.0
  0
LINE
  5
F8
330
668
100
AcDbEntity
  8
PATTERN_FILL
  6
Continuous
 62
     7
100
AcDbLine
 10
-50.53402941060509
 20
-189.6945364937267
 30
0.0
 11
-52.94429652466758
 21
-192.1048036077892
 31
0.0
  0
LINE
  5
F9
330
668
100
AcDbEntity
  8
PATTERN_FILL
  6
Continuous
 62
     7
100
AcDbLine
 10
-76.61977651206121
 20
-215.7802835951834
 30
0.0
 11
-79.0300436261237
 21
-218.190550709246
 31
0.0
  0
LINE
  5
FA
330
668
100
AcDbEntity
  8
PATTERN_FILL
  6
Continuous
 62
     7
100
AcDbLine
 10
-50.93907303672918
 20
-187.5995801198507
 30
0.0
 11
-53.23352110201796
 21
-189.8940281851395
 31
0.0
  0
LINE
  5
FB
330
668
100
AcDbEntity
  8
PATTERN_FILL
  6
Continuous
 62
     7
100
AcDbLine
 10
-78.83055193471081
 20
-215.491059017833
 30
0.0
 11
-81.08778675695592
 21
-217.7482938400782
 31
0.0
  0
LINE
  5
FC
330
668
100
AcDbEntity
  8
PATTERN_FILL
  6
Continuous
 62
     7
100
AcDbLine
 10
-51.55878863661502
 20
-185.7192957197365
 30
0.0
 11
-53.70459546467003
 21
-187.8651025477916
 31
0.0
  0
LINE
  5
FD
330
668
100
AcDbEntity
  8
PATTERN_FILL
  6
Continuous
 62
     7
100
AcDbLine
 10
-80.85947757205879
 20
-215.019984655181
 30
0.0
 11
-83.00528440011378
 21
-217.165791483236
 31
0.0
  0
LINE
  5
FE
330
668
100
AcDbEntity
  8
PATTERN_FILL
  6
Continuous
 62
     7
100
AcDbLine
 10
-52.26426369431058
 20
-183.9247707774321
 30
0.0
 11
-54.32757192899554
 21
-185.988079012117
 31
0.0
  0
LINE
  5
FF
330
668
100
AcDbEntity
  8
PATTERN_FILL
  6
Continuous
 62
     7
100
AcDbLine
 10
-82.73650110773337
 20
-214.3970081908555
 30
0.0
 11
-84.79980934241829
 21
-216.4603164255405
 31
0.0
  0
LINE
  5
100
330
668
100
AcDbEntity
  8
PATTERN_FILL
  6
Continuous
 62
     7
100
AcDbLine
 10
-53.08067904781393
 20
-182.2411861309354
 30
0.0
 11
-55.08299835341222
 21
-184.2435054365337
 31
0.0
  0
LINE
  5
101
330
668
100
AcDbEntity
  8
PATTERN_FILL
  6
Continuous
 62
     7
100
AcDbLine
 10
-84.48107468331674
 20
-213.6415817664389
 30
0.0
 11
-86.48339398891499
 21
-215.6439010720372
 31
0.0
  0
LINE
  5
102
330
668
100
AcDbEntity
  8
PATTERN_FILL
  6
Continuous
 62
     7
100
AcDbLine
 10
-53.99956018451334
 20
-180.6600672676347
 30
0.0
 11
-55.95783233775146
 21
-182.6183394208728
 31
0.0
  0
LINE
  5
103
330
668
100
AcDbEntity
  8
PATTERN_FILL
  6
Continuous
 62
     7
100
AcDbLine
 10
-86.10624069897758
 20
-212.7667477820997
 30
0.0
 11
-88.06451285221571
 21
-214.7250199353378
 31
0.0
  0
LINE
  5
104
330
668
100
AcDbEntity
  8
PATTERN_FILL
  6
Continuous
 62
     7
100
AcDbLine
 10
-55.01501133255763
 20
-179.175518415679
 30
0.0
 11
-56.94330970083171
 21
-181.1038167839531
 31
0.0
  0
LINE
  5
105
330
668
100
AcDbEntity
  8
PATTERN_FILL
  6
Continuous
 62
     7
100
AcDbLine
 10
-87.62076333589735
 20
-211.7812704190194
 30
0.0
 11
-89.54906170417151
 21
-213.7095687872936
 31
0.0
  0
LINE
  5
106
330
668
100
AcDbEntity
  8
PATTERN_FILL
  6
Continuous
 62
     7
100
AcDbLine
 10
-56.1231288136469
 20
-177.7836358967681
 30
0.0
 11
-58.03376406344275
 21
-179.6942711465641
 31
0.0
  0
LINE
  5
107
330
668
100
AcDbEntity
  8
PATTERN_FILL
  6
Continuous
 62
     7
100
AcDbLine
 10
-89.03030897328642
 20
-210.6908160564084
 30
0.0
 11
-90.94094422308227
 21
-212.6014513062044
 31
0.0
  0
LINE
  5
108
330
668
100
AcDbEntity
  8
PATTERN_FILL
  6
Continuous
 62
     7
100
AcDbLine
 10
-57.32165347057699
 20
-176.4821605536982
 30
0.0
 11
-59.22596510585568
 21
-178.386472188977
 31
0.0
  0
LINE
  5
109
330
668
100
AcDbEntity
  8
PATTERN_FILL
  6
Continuous
 62
     7
100
AcDbLine
 10
-90.33810793087351
 20
-209.4986150139956
 30
0.0
 11
-92.24241956615214
 21
-211.4029266492742
 31
0.0
  0
LINE
  5
10A
330
668
100
AcDbEntity
  8
PATTERN_FILL
  6
Continuous
 62
     7
100
AcDbLine
 10
-58.60978394071103
 20
-175.2702910238323
 30
0.0
 11
-60.51877552993396
 21
-177.1792826130553
 31
0.0
  0
LINE
  5
10B
330
668
100
AcDbEntity
  8
PATTERN_FILL
  6
Continuous
 62
     7
100
AcDbLine
 10
-91.54529750679536
 20
-208.2058045899174
 30
0.0
 11
-93.45428909601816
 21
-210.1147961791403
 31
0.0
  0
LINE
  5
10C
330
668
100
AcDbEntity
  8
PATTERN_FILL
  6
Continuous
 62
     7
100
AcDbLine
 10
-59.98811291544439
 20
-174.1486199985656
 30
0.0
 11
-61.91303605642001
 21
-176.0735431395413
 31
0.0
  0
LINE
  5
10D
330
668
100
AcDbEntity
  8
PATTERN_FILL
  6
Continuous
 62
     7
100
AcDbLine
 10
-92.65103698030932
 20
-206.8115440634313
 30
0.0
 11
-94.57596012128496
 21
-208.736467204407
 31
0.0
  0
LINE
  5
10E
330
668
100
AcDbEntity
  8
PATTERN_FILL
  6
Continuous
 62
     7
100
AcDbLine
 10
-61.45867415801713
 20
-173.1191812411383
 30
0.0
 11
-63.4116501508362
 21
-175.0721572339574
 31
0.0
  0
LINE
  5
10F
330
668
100
AcDbEntity
  8
PATTERN_FILL
  6
Continuous
 62
     7
100
AcDbLine
 10
-93.65242288589323
 20
-205.3129299690152
 30
0.0
 11
-95.60539887871227
 21
-207.2659059618342
 31
0.0
  0
LINE
  5
110
330
668
100
AcDbEntity
  8
PATTERN_FILL
  6
Continuous
 62
     7
100
AcDbLine
 10
-63.02510926448485
 20
-172.185616347606
 30
0.0
 11
-65.01988922850777
 21
-174.1803963116289
 31
0.0
  0
LINE
  5
111
330
668
100
AcDbEntity
  8
PATTERN_FILL
  6
Continuous
 62
     7
100
AcDbLine
 10
-94.54418380822172
 20
-203.7046908913436
 30
0.0
 11
-96.53896377224455
 21
-205.6994708553665
 31
0.0
  0
LINE
  5
112
330
668
100
AcDbEntity
  8
PATTERN_FILL
  6
Continuous
 62
     7
100
AcDbLine
 10
-64.68907303672954
 20
-171.3495801198507
 30
0.0
 11
-66.7459978332876
 21
-173.4065049164088
 31
0.0
  0
LINE
  5
113
330
668
100
AcDbEntity
  8
PATTERN_FILL
  6
Continuous
 62
     7
100
AcDbLine
 10
-95.31807520344191
 20
-201.9785822865638
 30
0.0
 11
-97.37108544098905
 21
-204.031592524111
 31
0.0
  0
LINE
  5
114
330
668
100
AcDbEntity
  8
PATTERN_FILL
  6
Continuous
 62
     7
100
AcDbLine
 10
-66.4703500681471
 20
-170.6308571512682
 30
0.0
 11
-68.60227738248784
 21
-172.762784465609
 31
0.0
  0
LINE
  5
115
330
668
100
AcDbEntity
  8
PATTERN_FILL
  6
Continuous
 62
     7
100
AcDbLine
 10
-95.96179565424174
 20
-200.1223027373636
 30
0.0
 11
-98.09372296858249
 21
-202.2542300517044
 31
0.0
  0
LINE
  5
116
330
668
100
AcDbEntity
  8
PATTERN_FILL
  6
Continuous
 62
     7
100
AcDbLine
 10
-68.36861549591451
 20
-170.0291225790357
 30
0.0
 11
-70.6070328928451
 21
-172.2675399759663
 31
0.0
  0
LINE
  5
117
330
668
100
AcDbEntity
  8
PATTERN_FILL
  6
Continuous
 62
     7
100
AcDbLine
 10
-96.45704014388449
 20
-198.1175472270063
 30
0.0
 11
-98.69545754081508
 21
-200.3559646239369
 31
0.0
  0
LINE
  5
118
330
668
100
AcDbEntity
  8
PATTERN_FILL
  6
Continuous
 62
     7
100
AcDbLine
 10
-70.40412826270484
 20
-169.564635345826
 30
0.0
 11
-72.78826199056142
 21
-171.9487690736826
 31
0.0
  0
LINE
  5
119
330
668
100
AcDbEntity
  8
PATTERN_FILL
  6
Continuous
 62
     7
100
AcDbLine
 10
-96.77581104616827
 20
-195.93631812929
 30
0.0
 11
-99.15994477402485
 21
-198.3204518571466
 31
0.0
  0
LINE
  5
11A
330
668
100
AcDbEntity
  8
PATTERN_FILL
  6
Continuous
 62
     7
100
AcDbLine
 10
-72.6009474146375
 20
-169.2614544977586
 30
0.0
 11
-75.19134760446852
 21
-171.8518546875897
 31
0.0
  0
LINE
  5
11B
330
668
100
AcDbEntity
  8
PATTERN_FILL
  6
Continuous
 62
     7
100
AcDbLine
 10
-96.87272543226123
 20
-193.5332325153829
 30
0.0
 11
-99.46312562209227
 21
-196.123632705214
 31
0.0
  0
LINE
  5
11C
330
668
100
AcDbEntity
  8
PATTERN_FILL
  6
Continuous
 62
     7
100
AcDbLine
 10
-74.99631052368501
 20
-169.1568176068061
 30
0.0
 11
-77.89771742575283
 21
-172.058224508874
 31
0.0
  0
LINE
  5
11D
330
668
100
AcDbEntity
  8
PATTERN_FILL
  6
Continuous
 62
     7
100
AcDbLine
 10
-96.66635561097695
 20
-190.8268626940986
 30
0.0
 11
-99.56776251304475
 21
-193.7282695961664
 31
0.0
  0
LINE
  5
11E
330
668
100
AcDbEntity
  8
PATTERN_FILL
  6
Continuous
 62
     7
100
AcDbLine
 10
-77.65274555247739
 20
-169.3132526355985
 30
0.0
 11
-81.08318737664834
 21
-172.7436944597696
 31
0.0
  0
LINE
  5
11F
330
668
100
AcDbEntity
  8
PATTERN_FILL
  6
Continuous
 62
     7
100
AcDbLine
 10
-95.98088566008158
 20
-187.6413927432031
 30
0.0
 11
-99.41132748425236
 21
-191.071834567374
 31
0.0
  0
LINE
  5
120
330
668
100
AcDbEntity
  8
PATTERN_FILL
  6
Continuous
 62
     7
100
AcDbLine
 10
-80.69061855280374
 20
-169.8511256359249
 30
0.0
 11
-85.33453584493727
 21
-174.4950429280584
 31
0.0
  0
LINE
  5
121
330
668
100
AcDbEntity
  8
PATTERN_FILL
  6
Continuous
 62
     7
100
AcDbLine
 10
-94.22953719179274
 20
-183.3900442749142
 30
0.0
 11
-98.87345448392618
 21
-188.0339615670477
 31
0.0
  0
LINE
  5
122
330
668
100
AcDbEntity
  8
PATTERN_FILL
  6
Continuous
 62
     7
100
AcDbLine
 10
-84.4120826417418
 20
-171.072589724863
 30
0.0
 11
-97.65199039498812
 21
-184.3124974781096
 31
0.0
  0
LINE
  5
123
330
668
100
AcDbEntity
  8
PATTERN_FILL
  6
Continuous
 62
     7
100
AcDbLine
 10
-90.91503321452616
 20
-175.0755402976474
 30
0.0
 11
-93.64903982220377
 21
-177.8095469053251
 31
0.0
  0
LINE
  5
124
330
668
100
AcDbEntity
  8
PATTERN_FILL
  6
Continuous
 62
     7
100
AcDbLine
 10
-64.68907303672954
 20
-171.3495801198507
 30
0.0
 11
-52.38539816701165
 21
-183.6532549895683
 31
0.0
  0
LINE
  5
125
330
668
100
AcDbEntity
  8
PATTERN_FILL
  6
Continuous
 62
     7
100
AcDbLine
 10
-68.56133442459935
 20
-169.977318731981
 30
0.0
 11
-63.55065076527594
 21
-174.9880023913042
 31
0.0
  0
LINE
  5
126
330
668
100
AcDbEntity
  8
PATTERN_FILL
  6
Continuous
 62
     7
100
AcDbLine
 10
-56.01342227145376
 20
-182.5252308851262
 30
0.0
 11
-50.93907303672914
 21
-187.5995801198507
 31
0.0
  0
LINE
  5
127
330
668
100
AcDbEntity
  8
PATTERN_FILL
  6
Continuous
 62
     7
100
AcDbLine
 10
-71.67374598773587
 20
-169.3649071688444
 30
0.0
 11
-68.12938546329559
 21
-172.9092676932846
 31
0.0
  0
LINE
  5
128
330
668
100
AcDbEntity
  8
PATTERN_FILL
  6
Continuous
 62
     7
100
AcDbLine
 10
-53.93468757343399
 20
-187.1039655831459
 30
0.0
 11
-50.39032704899365
 21
-190.6483261075861
 31
0.0
  0
LINE
  5
129
330
668
100
AcDbEntity
  8
PATTERN_FILL
  6
Continuous
 62
     7
100
AcDbLine
 10
-74.37711358031814
 20
-169.1615395762621
 30
0.0
 11
-71.41534209467168
 21
-172.1233110619085
 31
0.0
  0
LINE
  5
12A
330
668
100
AcDbEntity
  8
PATTERN_FILL
  6
Continuous
 62
     7
100
AcDbLine
 10
-53.14873094205781
 20
-190.389922214522
 30
0.0
 11
-50.18695945641132
 21
-193.3516937001684
 31
0.0
  0
LINE
  5
12B
330
668
100
AcDbEntity
  8
PATTERN_FILL
  6
Continuous
 62
     7
100
AcDbLine
 10
-76.80647804479744
 20
-169.2321751117828
 30
0.0
 11
-74.17803010535734
 21
-171.8606230512229
 31
0.0
  0
LINE
  5
12C
330
668
100
AcDbEntity
  8
PATTERN_FILL
  6
Continuous
 62
     7
100
AcDbLine
 10
-52.88604293137206
 20
-193.1526102252076
 30
0.0
 11
-50.25759499193201
 21
-195.7810581646477
 31
0.0
  0
LINE
  5
12D
330
668
100
AcDbEntity
  8
PATTERN_FILL
  6
Continuous
 62
     7
100
AcDbLine
 10
-79.0300436261243
 20
-169.508609530456
 30
0.0
 11
-76.61977651206182
 21
-171.9188766445184
 31
0.0
  0
LINE
  5
12E
330
668
100
AcDbEntity
  8
PATTERN_FILL
  6
Continuous
 62
     7
100
AcDbLine
 10
-52.94429652466752
 20
-195.5943566319122
 30
0.0
 11
-50.53402941060502
 21
-198.0046237459746
 31
0.0
  0
LINE
  5
12F
330
668
100
AcDbEntity
  8
PATTERN_FILL
  6
Continuous
 62
     7
100
AcDbLine
 10
-81.08778675695644
 20
-169.9508663996238
 30
0.0
 11
-78.83055193471145
 21
-172.2081012218688
 31
0.0
  0
LINE
  5
130
330
668
100
AcDbEntity
  8
PATTERN_FILL
  6
Continuous
 62
     7
100
AcDbLine
 10
-83.00528440011435
 20
-170.5333687564659
 30
0.0
 11
-80.85947757205934
 21
-172.6791755845208
 31
0.0
  0
LINE
  5
131
330
668
100
AcDbEntity
  8
PATTERN_FILL
  6
Continuous
 62
     7
100
AcDbLine
 10
-53.70459546466991
 20
-199.8340576919096
 30
0.0
 11
-51.55878863661484
 21
-201.9798645199648
 31
0.0
  0
LINE
  5
132
330
668
100
AcDbEntity
  8
PATTERN_FILL
  6
Continuous
 62
     7
100
AcDbLine
 10
-84.79980934241885
 20
-171.2388438141614
 30
0.0
 11
-82.73650110773379
 21
-173.3021520488464
 31
0.0
  0
LINE
  5
133
330
668
100
AcDbEntity
  8
PATTERN_FILL
  6
Continuous
 62
     7
100
AcDbLine
 10
-54.32757192899536
 20
-201.7110812275842
 30
0.0
 11
-52.26426369431037
 21
-203.7743894622692
 31
0.0
  0
LINE
  5
134
330
668
100
AcDbEntity
  8
PATTERN_FILL
  6
Continuous
 62
     7
100
AcDbLine
 10
-86.48339398891542
 20
-172.0552591676648
 30
0.0
 11
-84.48107468331716
 21
-174.057578473263
 31
0.0
  0
LINE
  5
135
330
668
100
AcDbEntity
  8
PATTERN_FILL
  6
Continuous
 62
     7
100
AcDbLine
 10
-55.08299835341198
 20
-203.4556548031676
 30
0.0
 11
-53.08067904781364
 21
-205.4579741087658
 31
0.0
  0
LINE
  5
136
330
668
100
AcDbEntity
  8
PATTERN_FILL
  6
Continuous
 62
     7
100
AcDbLine
 10
-88.06451285221612
 20
-172.9741403043641
 30
0.0
 11
-86.10624069897793
 21
-174.9324124576022
 31
0.0
  0
LINE
  5
137
330
668
100
AcDbEntity
  8
PATTERN_FILL
  6
Continuous
 62
     7
100
AcDbLine
 10
-55.95783233775117
 20
-205.0808208188284
 30
0.0
 11
-53.99956018451293
 21
-207.0390929720665
 31
0.0
  0
LINE
  5
138
330
668
100
AcDbEntity
  8
PATTERN_FILL
  6
Continuous
 62
     7
100
AcDbLine
 10
-89.54906170417178
 20
-173.9895914524084
 30
0.0
 11
-87.62076333589766
 21
-175.9178898206825
 31
0.0
  0
LINE
  5
139
330
668
100
AcDbEntity
  8
PATTERN_FILL
  6
Continuous
 62
     7
100
AcDbLine
 10
-56.94330970083136
 20
-206.5953434557481
 30
0.0
 11
-55.0150113325572
 21
-208.5236418240222
 31
0.0
  0
LINE
  5
13A
330
668
100
AcDbEntity
  8
PATTERN_FILL
  6
Continuous
 62
     7
100
AcDbLine
 10
-90.94094422308257
 20
-175.0977089334976
 30
0.0
 11
-89.03030897328665
 21
-177.0083441832935
 31
0.0
  0
LINE
  5
13B
330
668
100
AcDbEntity
  8
PATTERN_FILL
  6
Continuous
 62
     7
100
AcDbLine
 10
-58.03376406344228
 20
-208.0048890931372
 30
0.0
 11
-56.12312881364641
 21
-209.915524342933
 31
0.0
  0
LINE
  5
13C
330
668
100
AcDbEntity
  8
PATTERN_FILL
  6
Continuous
 62
     7
100
AcDbLine
 10
-92.24241956615241
 20
-176.2962335904277
 30
0.0
 11
-90.33810793087372
 21
-178.2005452257064
 31
0.0
  0
LINE
  5
13D
330
668
100
AcDbEntity
  8
PATTERN_FILL
  6
Continuous
 62
     7
100
AcDbLine
 10
-59.22596510585518
 20
-209.3126880507242
 30
0.0
 11
-57.32165347057648
 21
-211.2169996860029
 31
0.0
  0
LINE
  5
13E
330
668
100
AcDbEntity
  8
PATTERN_FILL
  6
Continuous
 62
     7
100
AcDbLine
 10
-93.45428909601837
 20
-177.5843640605617
 30
0.0
 11
-91.54529750679552
 21
-179.4933556497845
 31
0.0
  0
LINE
  5
13F
330
668
100
AcDbEntity
  8
PATTERN_FILL
  6
Continuous
 62
     7
100
AcDbLine
 10
-60.51877552993336
 20
-210.519877626646
 30
0.0
 11
-58.60978394071044
 21
-212.4288692158688
 31
0.0
  0
LINE
  5
140
330
668
100
AcDbEntity
  8
PATTERN_FILL
  6
Continuous
 62
     7
100
AcDbLine
 10
-94.57596012128515
 20
-178.9626930352949
 30
0.0
 11
-92.65103698030943
 21
-180.8876161762706
 31
0.0
  0
LINE
  5
141
330
668
100
AcDbEntity
  8
PATTERN_FILL
  6
Continuous
 62
     7
100
AcDbLine
 10
-61.91303605641934
 20
-211.62561710016
 30
0.0
 11
-59.98811291544367
 21
-213.5505402411356
 31
0.0
  0
LINE
  5
142
330
668
100
AcDbEntity
  8
PATTERN_FILL
  6
Continuous
 62
     7
100
AcDbLine
 10
-95.60539887871231
 20
-180.4332542778677
 30
0.0
 11
-93.65242288589334
 21
-182.3862302706867
 31
0.0
  0
LINE
  5
143
330
668
100
AcDbEntity
  8
PATTERN_FILL
  6
Continuous
 62
     7
100
AcDbLine
 10
-63.4116501508354
 20
-212.6270030057439
 30
0.0
 11
-61.45867415801635
 21
-214.5799789985629
 31
0.0
  0
LINE
  5
144
330
668
100
AcDbEntity
  8
PATTERN_FILL
  6
Continuous
 62
     7
100
AcDbLine
 10
-96.53896377224464
 20
-181.9996893843354
 30
0.0
 11
-94.54418380822176
 21
-183.9944693483582
 31
0.0
  0
LINE
  5
145
330
668
100
AcDbEntity
  8
PATTERN_FILL
  6
Continuous
 62
     7
100
AcDbLine
 10
-65.01988922850689
 20
-213.5187639280724
 30
0.0
 11
-63.02510926448402
 21
-215.5135438920953
 31
0.0
  0
LINE
  5
146
330
668
100
AcDbEntity
  8
PATTERN_FILL
  6
Continuous
 62
     7
100
AcDbLine
 10
-97.37108544098905
 20
-183.6675677155908
 30
0.0
 11
-95.31807520344193
 21
-185.720577953138
 31
0.0
  0
LINE
  5
147
330
668
100
AcDbEntity
  8
PATTERN_FILL
  6
Continuous
 62
     7
100
AcDbLine
 10
-66.74599783328665
 20
-214.2926553232926
 30
0.0
 11
-64.69298759573951
 21
-216.3456655608397
 31
0.0
  0
LINE
  5
148
330
668
100
AcDbEntity
  8
PATTERN_FILL
  6
Continuous
 62
     7
100
AcDbLine
 10
-98.09372296858251
 20
-185.4449301879974
 30
0.0
 11
-95.96179565424174
 21
-187.5768575023381
 31
0.0
  0
LINE
  5
149
330
668
100
AcDbEntity
  8
PATTERN_FILL
  6
Continuous
 62
     7
100
AcDbLine
 10
-68.60227738248683
 20
-214.9363757740925
 30
0.0
 11
-66.47035006814603
 21
-217.0683030884332
 31
0.0
  0
LINE
  5
14A
330
668
100
AcDbEntity
  8
PATTERN_FILL
  6
Continuous
 62
     7
100
AcDbLine
 10
-98.69545754081505
 20
-187.3431956157649
 30
0.0
 11
-96.45704014388449
 21
-189.5816130126954
 31
0.0
  0
LINE
  5
14B
330
668
100
AcDbEntity
  8
PATTERN_FILL
  6
Continuous
 62
     7
100
AcDbLine
 10
-70.60703289284397
 20
-215.4316202637353
 30
0.0
 11
-68.3686154959134
 21
-217.6700376606658
 31
0.0
  0
LINE
  5
14C
330
668
100
AcDbEntity
  8
PATTERN_FILL
  6
Continuous
 62
     7
100
AcDbLine
 10
-99.15994477402479
 20
-189.378708382555
 30
0.0
 11
-96.77581104616823
 21
-191.7628421104115
 31
0.0
  0
LINE
  5
14D
330
668
100
AcDbEntity
  8
PATTERN_FILL
  6
Continuous
 62
     7
100
AcDbLine
 10
-72.78826199056023
 20
-215.750391166019
 30
0.0
 11
-70.40412826270365
 21
-218.1345248938756
 31
0.0
  0
LINE
  5
14E
330
668
100
AcDbEntity
  8
PATTERN_FILL
  6
Continuous
 62
     7
100
AcDbLine
 10
-99.46312562209222
 20
-191.5755275344876
 30
0.0
 11
-96.87272543226121
 21
-194.1659277243184
 31
0.0
  0
LINE
  5
14F
330
668
100
AcDbEntity
  8
PATTERN_FILL
  6
Continuous
 62
     7
100
AcDbLine
 10
-75.19134760446722
 20
-215.8473055521121
 30
0.0
 11
-72.60094741463614
 21
-218.437705741943
 31
0.0
  0
LINE
  5
150
330
668
100
AcDbEntity
  8
PATTERN_FILL
  6
Continuous
 62
     7
100
AcDbLine
 10
-99.56776251304479
 20
-193.9708906435349
 30
0.0
 11
-96.66635561097701
 21
-196.8722975456027
 31
0.0
  0
LINE
  5
151
330
668
100
AcDbEntity
  8
PATTERN_FILL
  6
Continuous
 62
     7
100
AcDbLine
 10
-77.8977174257513
 20
-215.640935730828
 30
0.0
 11
-74.99631052368352
 21
-218.5423426328956
 31
0.0
  0
LINE
  5
152
330
668
100
AcDbEntity
  8
PATTERN_FILL
  6
Continuous
 62
     7
100
AcDbLine
 10
-99.41132748425241
 20
-196.6273256723272
 30
0.0
 11
-95.9808856600817
 21
-200.0577674964979
 31
0.0
  0
LINE
  5
153
330
668
100
AcDbEntity
  8
PATTERN_FILL
  6
Continuous
 62
     7
100
AcDbLine
 10
-81.08318737664658
 20
-214.9554657799327
 30
0.0
 11
-77.65274555247579
 21
-218.3859076041034
 31
0.0
  0
LINE
  5
154
330
668
100
AcDbEntity
  8
PATTERN_FILL
  6
Continuous
 62
     7
100
AcDbLine
 10
-98.87345448392636
 20
-199.6651986726532
 30
0.0
 11
-94.22953719179364
 21
-204.3091159647858
 31
0.0
  0
LINE
  5
155
330
668
100
AcDbEntity
  8
PATTERN_FILL
  6
Continuous
 62
     7
100
AcDbLine
 10
-85.33453584493463
 20
-213.2041173116447
 30
0.0
 11
-80.6906185528018
 21
-217.8480346037774
 31
0.0
  0
LINE
  5
156
330
668
100
AcDbEntity
  8
PATTERN_FILL
  6
Continuous
 62
     7
100
AcDbLine
 10
-53.23352110201788
 20
-197.8051320545618
 30
0.0
 11
-50.9390730367289
 21
-200.0995801198508
 31
0.0
  0
LINE
  5
157
330
668
100
AcDbEntity
  8
PATTERN_FILL
  6
Continuous
 62
     7
100
AcDbLine
 10
-97.65199039498869
 20
-203.3866627615909
 30
0.0
 11
-84.41208264173942
 21
-216.6265705148398
 31
0.0
  0
LINE
  5
158
330
668
100
AcDbEntity
  8
PATTERN_FILL
  6
Continuous
 62
     7
100
AcDbLine
 10
-93.64903982220976
 20
-209.8896133343696
 30
0.0
 11
-90.91503321451773
 21
-212.6236199420616
 31
0.0
  0
LINE
  5
159
330
668
100
AcDbEntity
  8
PATTERN_FILL
  6
Continuous
 62
     7
100
AcDbLine
 10
-30.89193479481859
 20
20.54811586271705
 30
0.0
 11
-27.94005065753566
 21
23.49999999999997
 31
0.0
  0
LINE
  5
15A
330
668
100
AcDbEntity
  8
PATTERN_FILL
  6
Continuous
 62
     7
100
AcDbLine
 10
-31.34683370617163
 20
17.59321695136402
 30
0.0
 11
-25.44005065753566
 21
23.49999999999997
 31
0.0
  0
LINE
  5
15B
330
668
100
AcDbEntity
  8
PATTERN_FILL
  6
Continuous
 62
     7
100
AcDbLine
 10
-31.80173261752464
 20
14.638318040011
 30
0.0
 11
-22.94005065753566
 21
23.49999999999997
 31
0.0
  0
LINE
  5
15C
330
668
100
AcDbEntity
  8
PATTERN_FILL
  6
Continuous
 62
     7
100
AcDbLine
 10
-32.25663152887768
 20
11.68341912865796
 30
0.0
 11
-20.44005065753566
 21
23.49999999999997
 31
0.0
  0
LINE
  5
15D
330
668
100
AcDbEntity
  8
PATTERN_FILL
  6
Continuous
 62
     7
100
AcDbLine
 10
-32.71153044023068
 20
8.728520217304961
 30
0.0
 11
-17.94005065753566
 21
23.49999999999997
 31
0.0
  0
LINE
  5
15E
330
668
100
AcDbEntity
  8
PATTERN_FILL
  6
Continuous
 62
     7
100
AcDbLine
 10
-33.16642935158372
 20
5.77362130595192
 30
0.0
 11
-15.44005065753566
 21
23.49999999999997
 31
0.0
  0
LINE
  5
15F
330
668
100
AcDbEntity
  8
PATTERN_FILL
  6
Continuous
 62
     7
100
AcDbLine
 10
-33.62132826293674
 20
2.818722394598893
 30
0.0
 11
-12.94005065753565
 21
23.49999999999999
 31
0.0
  0
LINE
  5
160
330
668
100
AcDbEntity
  8
PATTERN_FILL
  6
Continuous
 62
     7
100
AcDbLine
 10
-34.07622717428978
 20
-0.1361765167541549
 30
0.0
 11
-10.44005065753565
 21
23.49999999999999
 31
0.0
  0
LINE
  5
161
330
668
100
AcDbEntity
  8
PATTERN_FILL
  6
Continuous
 62
     7
100
AcDbLine
 10
-34.53112608564281
 20
-3.09107542810716
 30
0.0
 11
-7.940050657535649
 21
23.49999999999999
 31
0.0
  0
LINE
  5
162
330
668
100
AcDbEntity
  8
PATTERN_FILL
  6
Continuous
 62
     7
100
AcDbLine
 10
-34.98602499699584
 20
-6.045974339460201
 30
0.0
 11
-5.440050657535664
 21
23.49999999999997
 31
0.0
  0
LINE
  5
163
330
668
100
AcDbEntity
  8
PATTERN_FILL
  6
Continuous
 62
     7
100
AcDbLine
 10
-35.44092390834889
 20
-9.00087325081324
 30
0.0
 11
-2.940050657535664
 21
23.49999999999997
 31
0.0
  0
LINE
  5
164
330
668
100
AcDbEntity
  8
PATTERN_FILL
  6
Continuous
 62
     7
100
AcDbLine
 10
-35.89582281970192
 20
-11.95577216216628
 30
0.0
 11
-0.4400506575356645
 21
23.49999999999997
 31
0.0
  0
LINE
  5
165
330
668
100
AcDbEntity
  8
PATTERN_FILL
  6
Continuous
 62
     7
100
AcDbLine
 10
-35.94005065753564
 20
-14.5
 30
0.0
 11
2.059949342464321
 21
23.49999999999996
 31
0.0
  0
LINE
  5
166
330
668
100
AcDbEntity
  8
PATTERN_FILL
  6
Continuous
 62
     7
100
AcDbLine
 10
-33.44005065753564
 20
-14.5
 30
0.0
 11
4.462749364710546
 21
23.40280002224618
 31
0.0
  0
LINE
  5
167
330
668
100
AcDbEntity
  8
PATTERN_FILL
  6
Continuous
 62
     7
100
AcDbLine
 10
-30.94005065753564
 20
-14.5
 30
0.0
 11
5.730923382459807
 21
22.17097403999545
 31
0.0
  0
LINE
  5
168
330
668
100
AcDbEntity
  8
PATTERN_FILL
  6
Continuous
 62
     7
100
AcDbLine
 10
-36.18750000000002
 20
-22.24744934246439
 30
0.0
 11
-35.44005065753564
 21
-21.50000000000001
 31
0.0
  0
LINE
  5
169
330
668
100
AcDbEntity
  8
PATTERN_FILL
  6
Continuous
 62
     7
100
AcDbLine
 10
-28.44005065753564
 20
-14.5
 30
0.0
 11
6.09579711866398
 21
20.03584777619961
 31
0.0
  0
LINE
  5
16A
330
668
100
AcDbEntity
  8
PATTERN_FILL
  6
Continuous
 62
     7
100
AcDbLine
 10
-35.84248492858196
 20
-24.40243427104632
 30
0.0
 11
-32.94005065753564
 21
-21.5
 31
0.0
  0
LINE
  5
16B
330
668
100
AcDbEntity
  8
PATTERN_FILL
  6
Continuous
 62
     7
100
AcDbLine
 10
-25.94005065753565
 20
-14.50000000000001
 30
0.0
 11
6.429320493806542
 21
17.86937115134218
 31
0.0
  0
LINE
  5
16C
330
668
100
AcDbEntity
  8
PATTERN_FILL
  6
Continuous
 62
     7
100
AcDbLine
 10
-23.44005065753564
 20
-14.50000000000001
 30
0.0
 11
6.762843868949033
 21
15.70289452648466
 31
0.0
  0
LINE
  5
16D
330
668
100
AcDbEntity
  8
PATTERN_FILL
  6
Continuous
 62
     7
100
AcDbLine
 10
-35.11791928699337
 20
-28.67786862945772
 30
0.0
 11
-27.94005065753564
 21
-21.5
 31
0.0
  0
LINE
  5
16E
330
668
100
AcDbEntity
  8
PATTERN_FILL
  6
Continuous
 62
     7
100
AcDbLine
 10
-20.94005065753567
 20
-14.50000000000003
 30
0.0
 11
7.096367244091567
 21
13.5364179016272
 31
0.0
  0
LINE
  5
16F
330
668
100
AcDbEntity
  8
PATTERN_FILL
  6
Continuous
 62
     7
100
AcDbLine
 10
-34.72951470312745
 20
-30.78946404559183
 30
0.0
 11
-25.44005065753564
 21
-21.5
 31
0.0
  0
LINE
  5
170
330
668
100
AcDbEntity
  8
PATTERN_FILL
  6
Continuous
 62
     7
100
AcDbLine
 10
-18.44005065753565
 20
-14.50000000000001
 30
0.0
 11
7.429890619234129
 21
11.36994127676976
 31
0.0
  0
LINE
  5
171
330
668
100
AcDbEntity
  8
PATTERN_FILL
  6
Continuous
 62
     7
100
AcDbLine
 10
-34.32413977122815
 20
-32.88408911369251
 30
0.0
 11
-22.94005065753565
 21
-21.50000000000001
 31
0.0
  0
LINE
  5
172
330
668
100
AcDbEntity
  8
PATTERN_FILL
  6
Continuous
 62
     7
100
AcDbLine
 10
-15.94005065753565
 20
-14.50000000000001
 30
0.0
 11
7.763413994376633
 21
9.203464651912275
 31
0.0
  0
LINE
  5
173
330
668
100
AcDbEntity
  8
PATTERN_FILL
  6
Continuous
 62
     7
100
AcDbLine
 10
-32.34005065753564
 20
-33.40000000000002
 30
0.0
 11
-20.44005065753565
 21
-21.50000000000001
 31
0.0
  0
LINE
  5
174
330
668
100
AcDbEntity
  8
PATTERN_FILL
  6
Continuous
 62
     7
100
AcDbLine
 10
-13.44005065753565
 20
-14.50000000000001
 30
0.0
 11
8.096937369519196
 21
7.036988027054825
 31
0.0
  0
LINE
  5
175
330
668
100
AcDbEntity
  8
PATTERN_FILL
  6
Continuous
 62
     7
100
AcDbLine
 10
-29.84005065753564
 20
-33.40000000000002
 30
0.0
 11
-17.94005065753564
 21
-21.50000000000001
 31
0.0
  0
LINE
  5
176
330
668
100
AcDbEntity
  8
PATTERN_FILL
  6
Continuous
 62
     7
100
AcDbLine
 10
-10.94005065753565
 20
-14.50000000000001
 30
0.0
 11
8.430460744661715
 21
4.870511402197352
 31
0.0
  0
LINE
  5
177
330
668
100
AcDbEntity
  8
PATTERN_FILL
  6
Continuous
 62
     7
100
AcDbLine
 10
-27.34005065753564
 20
-33.40000000000002
 30
0.0
 11
-15.44005065753565
 21
-21.50000000000001
 31
0.0
  0
LINE
  5
178
330
668
100
AcDbEntity
  8
PATTERN_FILL
  6
Continuous
 62
     7
100
AcDbLine
 10
-8.440050657535664
 20
-14.50000000000003
 30
0.0
 11
8.763984119804248
 21
2.704034777339892
 31
0.0
  0
LINE
  5
179
330
668
100
AcDbEntity
  8
PATTERN_FILL
  6
Continuous
 62
     7
100
AcDbLine
 10
-24.84005065753563
 20
-33.39999999999999
 30
0.0
 11
-12.94005065753562
 21
-21.49999999999999
 31
0.0
  0
LINE
  5
17A
330
668
100
AcDbEntity
  8
PATTERN_FILL
  6
Continuous
 62
     7
100
AcDbLine
 10
-5.940050657535635
 20
-14.5
 30
0.0
 11
9.097507494946796
 21
0.5375581524824256
 31
0.0
  0
LINE
  5
17B
330
668
100
AcDbEntity
  8
PATTERN_FILL
  6
Continuous
 62
     7
100
AcDbLine
 10
-22.34005065753564
 20
-33.40000000000002
 30
0.0
 11
-10.44005065753562
 21
-21.49999999999999
 31
0.0
  0
LINE
  5
17C
330
668
100
AcDbEntity
  8
PATTERN_FILL
  6
Continuous
 62
     7
100
AcDbLine
 10
-3.440050657535636
 20
-14.5
 30
0.0
 11
9.431030870089315
 21
-1.628918472375048
 31
0.0
  0
LINE
  5
17D
330
668
100
AcDbEntity
  8
PATTERN_FILL
  6
Continuous
 62
     7
100
AcDbLine
 10
-19.84005065753564
 20
-33.40000000000002
 30
0.0
 11
-7.940050657535635
 21
-21.5
 31
0.0
  0
LINE
  5
17E
330
668
100
AcDbEntity
  8
PATTERN_FILL
  6
Continuous
 62
     7
100
AcDbLine
 10
-0.9400506575356359
 20
-14.5
 30
0.0
 11
9.764554245231847
 21
-3.795395097232514
 31
0.0
  0
LINE
  5
17F
330
668
100
AcDbEntity
  8
PATTERN_FILL
  6
Continuous
 62
     7
100
AcDbLine
 10
-17.34005065753564
 20
-33.40000000000002
 30
0.0
 11
-5.440050657535649
 21
-21.5
 31
0.0
  0
LINE
  5
180
330
668
100
AcDbEntity
  8
PATTERN_FILL
  6
Continuous
 62
     7
100
AcDbLine
 10
1.559949342464363
 20
-14.5
 30
0.0
 11
10.09807762037437
 21
-5.961871722089995
 31
0.0
  0
LINE
  5
181
330
668
100
AcDbEntity
  8
PATTERN_FILL
  6
Continuous
 62
     7
100
AcDbLine
 10
-14.84005065753564
 20
-33.40000000000002
 30
0.0
 11
-2.94005065753565
 21
-21.5
 31
0.0
  0
LINE
  5
182
330
668
100
AcDbEntity
  8
PATTERN_FILL
  6
Continuous
 62
     7
100
AcDbLine
 10
4.059949342464364
 20
-14.5
 30
0.0
 11
10.4316009955169
 21
-8.128348346947461
 31
0.0
  0
LINE
  5
183
330
668
100
AcDbEntity
  8
PATTERN_FILL
  6
Continuous
 62
     7
100
AcDbLine
 10
-12.34005065753561
 20
-33.39999999999998
 30
0.0
 11
-0.440050657535636
 21
-21.5
 31
0.0
  0
LINE
  5
184
330
668
100
AcDbEntity
  8
PATTERN_FILL
  6
Continuous
 62
     7
100
AcDbLine
 10
6.559949342464364
 20
-14.5
 30
0.0
 11
10.76512437065942
 21
-10.29482497180494
 31
0.0
  0
LINE
  5
185
330
668
100
AcDbEntity
  8
PATTERN_FILL
  6
Continuous
 62
     7
100
AcDbLine
 10
-9.840050657535629
 20
-33.39999999999999
 30
0.0
 11
2.059949342464364
 21
-21.5
 31
0.0
  0
LINE
  5
186
330
668
100
AcDbEntity
  8
PATTERN_FILL
  6
Continuous
 62
     7
100
AcDbLine
 10
9.059949342464364
 20
-14.5
 30
0.0
 11
11.09864774580196
 21
-12.46130159666239
 31
0.0
  0
LINE
  5
187
330
668
100
AcDbEntity
  8
PATTERN_FILL
  6
Continuous
 62
     7
100
AcDbLine
 10
-7.340050657535641
 20
-33.40000000000002
 30
0.0
 11
4.559949342464349
 21
-21.50000000000001
 31
0.0
  0
LINE
  5
188
330
668
100
AcDbEntity
  8
PATTERN_FILL
  6
Continuous
 62
     7
100
AcDbLine
 10
-4.840050657535641
 20
-33.39999999999999
 30
0.0
 11
7.059949342464377
 21
-21.49999999999999
 31
0.0
  0
LINE
  5
189
330
668
100
AcDbEntity
  8
PATTERN_FILL
  6
Continuous
 62
     7
100
AcDbLine
 10
-2.340050657535641
 20
-33.40000000000002
 30
0.0
 11
9.559949342464364
 21
-21.5
 31
0.0
  0
LINE
  5
18A
330
668
100
AcDbEntity
  8
PATTERN_FILL
  6
Continuous
 62
     7
100
AcDbLine
 10
0.1599493424643441
 20
-33.40000000000002
 30
0.0
 11
11.29956138268865
 21
-22.2603879597757
 31
0.0
  0
LINE
  5
18B
330
668
100
AcDbEntity
  8
PATTERN_FILL
  6
Continuous
 62
     7
100
AcDbLine
 10
2.659949342464372
 20
-33.40000000000002
 30
0.0
 11
10.83439945953125
 21
-25.22554988293312
 31
0.0
  0
LINE
  5
18C
330
668
100
AcDbEntity
  8
PATTERN_FILL
  6
Continuous
 62
     7
100
AcDbLine
 10
5.159949342464386
 20
-33.39999999999998
 30
0.0
 11
10.32113417963738
 21
-28.23881516282698
 31
0.0
  0
LINE
  5
18D
330
668
100
AcDbEntity
  8
PATTERN_FILL
  6
Continuous
 62
     7
100
AcDbLine
 10
7.659949342464358
 20
-33.40000000000002
 30
0.0
 11
9.756993703382221
 21
-31.30295563908215
 31
0.0
  0
LINE
  5
18E
330
668
100
AcDbEntity
  8
PATTERN_FILL
  6
Continuous
 62
     7
100
AcDbLine
 10
3.065050657535636
 20
23.5
 30
0.0
 11
6.016934794818568
 21
20.54811586271707
 31
0.0
  0
LINE
  5
18F
330
668
100
AcDbEntity
  8
PATTERN_FILL
  6
Continuous
 62
     7
100
AcDbLine
 10
0.565050657535636
 20
23.5
 30
0.0
 11
6.471833706171593
 21
17.59321695136404
 31
0.0
  0
LINE
  5
190
330
668
100
AcDbEntity
  8
PATTERN_FILL
  6
Continuous
 62
     7
100
AcDbLine
 10
-1.934949342464378
 20
23.50000000000001
 30
0.0
 11
6.926732617524621
 21
14.63831804001101
 31
0.0
  0
LINE
  5
191
330
668
100
AcDbEntity
  8
PATTERN_FILL
  6
Continuous
 62
     7
100
AcDbLine
 10
-4.434949342464377
 20
23.50000000000001
 30
0.0
 11
7.381631528877647
 21
11.68341912865798
 31
0.0
  0
LINE
  5
192
330
668
100
AcDbEntity
  8
PATTERN_FILL
  6
Continuous
 62
     7
100
AcDbLine
 10
-6.934949342464377
 20
23.50000000000001
 30
0.0
 11
7.836530440230689
 21
8.728520217304946
 31
0.0
  0
LINE
  5
193
330
668
100
AcDbEntity
  8
PATTERN_FILL
  6
Continuous
 62
     7
100
AcDbLine
 10
-9.434949342464378
 20
23.50000000000001
 30
0.0
 11
8.291429351583717
 21
5.77362130595192
 31
0.0
  0
LINE
  5
194
330
668
100
AcDbEntity
  8
PATTERN_FILL
  6
Continuous
 62
     7
100
AcDbLine
 10
-11.93494934246438
 20
23.50000000000001
 30
0.0
 11
8.746328262936742
 21
2.8187223945989
 31
0.0
  0
LINE
  5
195
330
668
100
AcDbEntity
  8
PATTERN_FILL
  6
Continuous
 62
     7
100
AcDbLine
 10
-14.43494934246436
 20
23.5
 30
0.0
 11
9.201227174289767
 21
-0.1361765167541336
 31
0.0
  0
LINE
  5
196
330
668
100
AcDbEntity
  8
PATTERN_FILL
  6
Continuous
 62
     7
100
AcDbLine
 10
-16.93494934246437
 20
23.5
 30
0.0
 11
9.656126085642808
 21
-3.09107542810716
 31
0.0
  0
LINE
  5
197
330
668
100
AcDbEntity
  8
PATTERN_FILL
  6
Continuous
 62
     7
100
AcDbLine
 10
-19.43494934246436
 20
23.5
 30
0.0
 11
10.11102499699583
 21
-6.045974339460201
 31
0.0
  0
LINE
  5
198
330
668
100
AcDbEntity
  8
PATTERN_FILL
  6
Continuous
 62
     7
100
AcDbLine
 10
-21.93494934246437
 20
23.50000000000001
 30
0.0
 11
10.56592390834886
 21
-9.000873250813228
 31
0.0
  0
LINE
  5
199
330
668
100
AcDbEntity
  8
PATTERN_FILL
  6
Continuous
 62
     7
100
AcDbLine
 10
-24.43494934246438
 20
23.50000000000001
 30
0.0
 11
11.02082281970189
 21
-11.95577216216626
 31
0.0
  0
LINE
  5
19A
330
668
100
AcDbEntity
  8
PATTERN_FILL
  6
Continuous
 62
     7
100
AcDbLine
 10
-26.93494934246438
 20
23.50000000000001
 30
0.0
 11
11.06505065753563
 21
-14.5
 31
0.0
  0
LINE
  5
19B
330
668
100
AcDbEntity
  8
PATTERN_FILL
  6
Continuous
 62
     7
100
AcDbLine
 10
-29.33774936471057
 20
23.40280002224622
 30
0.0
 11
8.565050657535621
 21
-14.49999999999998
 31
0.0
  0
LINE
  5
19C
330
668
100
AcDbEntity
  8
PATTERN_FILL
  6
Continuous
 62
     7
100
AcDbLine
 10
-30.60592338245982
 20
22.17097403999545
 30
0.0
 11
6.065050657535635
 21
-14.5
 31
0.0
  0
LINE
  5
19D
330
668
100
AcDbEntity
  8
PATTERN_FILL
  6
Continuous
 62
     7
100
AcDbLine
 10
-30.970797118664
 20
20.03584777619964
 30
0.0
 11
3.565050657535621
 21
-14.49999999999997
 31
0.0
  0
LINE
  5
19E
330
668
100
AcDbEntity
  8
PATTERN_FILL
  6
Continuous
 62
     7
100
AcDbLine
 10
10.56505065753565
 20
-21.5
 30
0.0
 11
11.30294015192356
 21
-22.23788949438793
 31
0.0
  0
LINE
  5
19F
330
668
100
AcDbEntity
  8
PATTERN_FILL
  6
Continuous
 62
     7
100
AcDbLine
 10
-31.30432049380653
 20
17.86937115134216
 30
0.0
 11
1.065050657535635
 21
-14.49999999999998
 31
0.0
  0
LINE
  5
1A0
330
668
100
AcDbEntity
  8
PATTERN_FILL
  6
Continuous
 62
     7
100
AcDbLine
 10
8.065050657535621
 20
-21.49999999999999
 30
0.0
 11
10.96748492858198
 21
-24.40243427104636
 31
0.0
  0
LINE
  5
1A1
330
668
100
AcDbEntity
  8
PATTERN_FILL
  6
Continuous
 62
     7
100
AcDbLine
 10
-31.63784386894907
 20
15.70289452648469
 30
0.0
 11
-1.434949342464392
 21
-14.49999999999998
 31
0.0
  0
LINE
  5
1A2
330
668
100
AcDbEntity
  8
PATTERN_FILL
  6
Continuous
 62
     7
100
AcDbLine
 10
-31.97136724409161
 20
13.53641790162723
 30
0.0
 11
-3.934949342464363
 21
-14.5
 31
0.0
  0
LINE
  5
1A3
330
668
100
AcDbEntity
  8
PATTERN_FILL
  6
Continuous
 62
     7
100
AcDbLine
 10
3.065050657535636
 20
-21.5
 30
0.0
 11
10.24291928699341
 21
-28.67786862945778
 31
0.0
  0
LINE
  5
1A4
330
668
100
AcDbEntity
  8
PATTERN_FILL
  6
Continuous
 62
     7
100
AcDbLine
 10
-32.30489061923412
 20
11.36994127676975
 30
0.0
 11
-6.434949342464364
 21
-14.5
 31
0.0
  0
LINE
  5
1A5
330
668
100
AcDbEntity
  8
PATTERN_FILL
  6
Continuous
 62
     7
100
AcDbLine
 10
0.565050657535636
 20
-21.5
 30
0.0
 11
9.854514703127506
 21
-30.78946404559187
 31
0.0
  0
LINE
  5
1A6
330
668
100
AcDbEntity
  8
PATTERN_FILL
  6
Continuous
 62
     7
100
AcDbLine
 10
-32.63841399437669
 20
9.203464651912319
 30
0.0
 11
-8.934949342464378
 21
-14.5
 31
0.0
  0
LINE
  5
1A7
330
668
100
AcDbEntity
  8
PATTERN_FILL
  6
Continuous
 62
     7
100
AcDbLine
 10
-1.934949342464363
 20
-21.5
 30
0.0
 11
9.449139771228175
 21
-32.88408911369254
 31
0.0
  0
LINE
  5
1A8
330
668
100
AcDbEntity
  8
PATTERN_FILL
  6
Continuous
 62
     7
100
AcDbLine
 10
-32.9719373695192
 20
7.036988027054832
 30
0.0
 11
-11.43494934246436
 21
-14.5
 31
0.0
  0
LINE
  5
1A9
330
668
100
AcDbEntity
  8
PATTERN_FILL
  6
Continuous
 62
     7
100
AcDbLine
 10
-4.434949342464364
 20
-21.5
 30
0.0
 11
7.465050657535641
 21
-33.40000000000002
 31
0.0
  0
LINE
  5
1AA
330
668
100
AcDbEntity
  8
PATTERN_FILL
  6
Continuous
 62
     7
100
AcDbLine
 10
-33.30546074466173
 20
4.870511402197372
 30
0.0
 11
-13.93494934246436
 21
-14.5
 31
0.0
  0
LINE
  5
1AB
330
668
100
AcDbEntity
  8
PATTERN_FILL
  6
Continuous
 62
     7
100
AcDbLine
 10
-6.934949342464377
 20
-21.49999999999999
 30
0.0
 11
4.965050657535641
 21
-33.40000000000002
 31
0.0
  0
LINE
  5
1AC
330
668
100
AcDbEntity
  8
PATTERN_FILL
  6
Continuous
 62
     7
100
AcDbLine
 10
-33.63898411980424
 20
2.704034777339877
 30
0.0
 11
-16.43494934246437
 21
-14.5
 31
0.0
  0
LINE
  5
1AD
330
668
100
AcDbEntity
  8
PATTERN_FILL
  6
Continuous
 62
     7
100
AcDbLine
 10
-9.434949342464378
 20
-21.49999999999999
 30
0.0
 11
2.465050657535641
 21
-33.40000000000002
 31
0.0
  0
LINE
  5
1AE
330
668
100
AcDbEntity
  8
PATTERN_FILL
  6
Continuous
 62
     7
100
AcDbLine
 10
-33.9725074949468
 20
0.5375581524824256
 30
0.0
 11
-18.93494934246436
 21
-14.5
 31
0.0
  0
LINE
  5
1AF
330
668
100
AcDbEntity
  8
PATTERN_FILL
  6
Continuous
 62
     7
100
AcDbLine
 10
-11.93494934246438
 20
-21.5
 30
0.0
 11
-0.034949342464401
 21
-33.39999999999998
 31
0.0
  0
LINE
  5
1B0
330
668
100
AcDbEntity
  8
PATTERN_FILL
  6
Continuous
 62
     7
100
AcDbLine
 10
-34.30603087008933
 20
-1.628918472375033
 30
0.0
 11
-21.43494934246437
 21
-14.5
 31
0.0
  0
LINE
  5
1B1
330
668
100
AcDbEntity
  8
PATTERN_FILL
  6
Continuous
 62
     7
100
AcDbLine
 10
-14.43494934246436
 20
-21.5
 30
0.0
 11
-2.534949342464386
 21
-33.39999999999998
 31
0.0
  0
LINE
  5
1B2
330
668
100
AcDbEntity
  8
PATTERN_FILL
  6
Continuous
 62
     7
100
AcDbLine
 10
-34.63955424523187
 20
-3.795395097232499
 30
0.0
 11
-23.93494934246436
 21
-14.5
 31
0.0
  0
LINE
  5
1B3
330
668
100
AcDbEntity
  8
PATTERN_FILL
  6
Continuous
 62
     7
100
AcDbLine
 10
-16.93494934246437
 20
-21.5
 30
0.0
 11
-5.034949342464386
 21
-33.39999999999998
 31
0.0
  0
LINE
  5
1B4
330
668
100
AcDbEntity
  8
PATTERN_FILL
  6
Continuous
 62
     7
100
AcDbLine
 10
-34.97307762037437
 20
-5.961871722089995
 30
0.0
 11
-26.43494934246436
 21
-14.49999999999998
 31
0.0
  0
LINE
  5
1B5
330
668
100
AcDbEntity
  8
PATTERN_FILL
  6
Continuous
 62
     7
100
AcDbLine
 10
-19.43494934246436
 20
-21.5
 30
0.0
 11
-7.534949342464358
 21
-33.39999999999999
 31
0.0
  0
LINE
  5
1B6
330
668
100
AcDbEntity
  8
PATTERN_FILL
  6
Continuous
 62
     7
100
AcDbLine
 10
-35.30660099551691
 20
-8.128348346947461
 30
0.0
 11
-28.93494934246436
 21
-14.5
 31
0.0
  0
LINE
  5
1B7
330
668
100
AcDbEntity
  8
PATTERN_FILL
  6
Continuous
 62
     7
100
AcDbLine
 10
-21.93494934246436
 20
-21.5
 30
0.0
 11
-10.03494934246436
 21
-33.40000000000002
 31
0.0
  0
LINE
  5
1B8
330
668
100
AcDbEntity
  8
PATTERN_FILL
  6
Continuous
 62
     7
100
AcDbLine
 10
-35.64012437065944
 20
-10.29482497180493
 30
0.0
 11
-31.43494934246435
 21
-14.5
 31
0.0
  0
LINE
  5
1B9
330
668
100
AcDbEntity
  8
PATTERN_FILL
  6
Continuous
 62
     7
100
AcDbLine
 10
-24.43494934246436
 20
-21.5
 30
0.0
 11
-12.53494934246437
 21
-33.39999999999999
 31
0.0
  0
LINE
  5
1BA
330
668
100
AcDbEntity
  8
PATTERN_FILL
  6
Continuous
 62
     7
100
AcDbLine
 10
-35.97364774580201
 20
-12.46130159666236
 30
0.0
 11
-33.93494934246437
 21
-14.5
 31
0.0
  0
LINE
  5
1BB
330
668
100
AcDbEntity
  8
PATTERN_FILL
  6
Continuous
 62
     7
100
AcDbLine
 10
-26.93494934246438
 20
-21.49999999999999
 30
0.0
 11
-15.03494934246435
 21
-33.40000000000002
 31
0.0
  0
LINE
  5
1BC
330
668
100
AcDbEntity
  8
PATTERN_FILL
  6
Continuous
 62
     7
100
AcDbLine
 10
-34.43494934246436
 20
-21.5
 30
0.0
 11
-22.53494934246436
 21
-33.40000000000002
 31
0.0
  0
LINE
  5
1BD
330
668
100
AcDbEntity
  8
PATTERN_FILL
  6
Continuous
 62
     7
100
AcDbLine
 10
-36.18750000000002
 20
-22.24744934246436
 30
0.0
 11
-25.03494934246437
 21
-33.40000000000002
 31
0.0
  0
LINE
  5
1BE
330
668
100
AcDbEntity
  8
PATTERN_FILL
  6
Continuous
 62
     7
100
AcDbLine
 10
-35.70939945953128
 20
-25.22554988293309
 30
0.0
 11
-27.5349493424644
 21
-33.39999999999997
 31
0.0
  0
LINE
  5
1BF
330
668
100
AcDbEntity
  8
PATTERN_FILL
  6
Continuous
 62
     7
100
AcDbLine
 10
-35.19613417963737
 20
-28.238815162827
 30
0.0
 11
-30.0349493424644
 21
-33.39999999999997
 31
0.0
  0
LINE
  5
1C0
330
668
100
AcDbEntity
  8
PATTERN_FILL
  6
Continuous
 62
     7
100
AcDbLine
 10
-34.63199370338224
 20
-31.30295563908213
 30
0.0
 11
-32.5349493424644
 21
-33.39999999999997
 31
0.0
  0
LINE
  5
1C1
330
668
100
AcDbEntity
  8
PATTERN_FILL
  6
Continuous
 62
     7
100
AcDbLine
 10
-29.43494934246438
 20
-21.49999999999999
 30
0.0
 11
-17.53494934246435
 21
-33.40000000000002
 31
0.0
  0
LINE
  5
1C2
330
668
100
AcDbEntity
  8
PATTERN_FILL
  6
Continuous
 62
     7
100
AcDbLine
 10
-31.93494934246438
 20
-21.49999999999999
 30
0.0
 11
-20.03494934246436
 21
-33.40000000000002
 31
0.0
  0
LINE
  5
1C3
330
668
100
AcDbEntity
  8
PATTERN_FILL
  6
Continuous
 62
     7
100
AcDbLine
 10
-35.48902426414335
 20
-26.54897360660772
 30
0.0
 11
-30.44005065753564
 21
-21.5
 31
0.0
  0
LINE
  5
1C4
330
668
100
AcDbEntity
  8
PATTERN_FILL
  6
Continuous
 62
     7
100
AcDbLine
 10
5.565050657535635
 20
-21.5
 30
0.0
 11
10.61402426414332
 21
-26.54897360660767
 31
0.0
  0
LINE
  5
1C5
330
668
100
AcDbEntity
  8
PATTERN_FILL
  6
Continuous
 62
     7
100
AcDbLine
 10
-93.39193479481856
 20
20.54811586271705
 30
0.0
 11
-90.44005065753564
 21
23.49999999999997
 31
0.0
  0
LINE
  5
1C6
330
668
100
AcDbEntity
  8
PATTERN_FILL
  6
Continuous
 62
     7
100
AcDbLine
 10
-93.84683370617162
 20
17.59321695136402
 30
0.0
 11
-87.94005065753564
 21
23.49999999999997
 31
0.0
  0
LINE
  5
1C7
330
668
100
AcDbEntity
  8
PATTERN_FILL
  6
Continuous
 62
     7
100
AcDbLine
 10
-94.30173261752464
 20
14.638318040011
 30
0.0
 11
-85.44005065753566
 21
23.49999999999997
 31
0.0
  0
LINE
  5
1C8
330
668
100
AcDbEntity
  8
PATTERN_FILL
  6
Continuous
 62
     7
100
AcDbLine
 10
-94.75663152887769
 20
11.68341912865796
 30
0.0
 11
-82.94005065753566
 21
23.49999999999997
 31
0.0
  0
LINE
  5
1C9
330
668
100
AcDbEntity
  8
PATTERN_FILL
  6
Continuous
 62
     7
100
AcDbLine
 10
-95.21153044023069
 20
8.728520217304961
 30
0.0
 11
-80.44005065753566
 21
23.49999999999997
 31
0.0
  0
LINE
  5
1CA
330
668
100
AcDbEntity
  8
PATTERN_FILL
  6
Continuous
 62
     7
100
AcDbLine
 10
-95.66642935158371
 20
5.77362130595192
 30
0.0
 11
-77.94005065753566
 21
23.49999999999997
 31
0.0
  0
LINE
  5
1CB
330
668
100
AcDbEntity
  8
PATTERN_FILL
  6
Continuous
 62
     7
100
AcDbLine
 10
-96.12132826293674
 20
2.818722394598893
 30
0.0
 11
-75.44005065753566
 21
23.49999999999999
 31
0.0
  0
LINE
  5
1CC
330
668
100
AcDbEntity
  8
PATTERN_FILL
  6
Continuous
 62
     7
100
AcDbLine
 10
-96.57622717428978
 20
-0.1361765167541549
 30
0.0
 11
-72.94005065753566
 21
23.49999999999999
 31
0.0
  0
LINE
  5
1CD
330
668
100
AcDbEntity
  8
PATTERN_FILL
  6
Continuous
 62
     7
100
AcDbLine
 10
-97.0311260856428
 20
-3.09107542810716
 30
0.0
 11
-70.44005065753566
 21
23.49999999999999
 31
0.0
  0
LINE
  5
1CE
330
668
100
AcDbEntity
  8
PATTERN_FILL
  6
Continuous
 62
     7
100
AcDbLine
 10
-97.48602499699586
 20
-6.045974339460201
 30
0.0
 11
-67.94005065753566
 21
23.49999999999997
 31
0.0
  0
LINE
  5
1CF
330
668
100
AcDbEntity
  8
PATTERN_FILL
  6
Continuous
 62
     7
100
AcDbLine
 10
-97.9409239083489
 20
-9.00087325081324
 30
0.0
 11
-65.44005065753566
 21
23.49999999999997
 31
0.0
  0
LINE
  5
1D0
330
668
100
AcDbEntity
  8
PATTERN_FILL
  6
Continuous
 62
     7
100
AcDbLine
 10
-98.39582281970193
 20
-11.95577216216628
 30
0.0
 11
-62.94005065753566
 21
23.49999999999997
 31
0.0
  0
LINE
  5
1D1
330
668
100
AcDbEntity
  8
PATTERN_FILL
  6
Continuous
 62
     7
100
AcDbLine
 10
-98.44005065753565
 20
-14.5
 30
0.0
 11
-60.44005065753568
 21
23.49999999999996
 31
0.0
  0
LINE
  5
1D2
330
668
100
AcDbEntity
  8
PATTERN_FILL
  6
Continuous
 62
     7
100
AcDbLine
 10
-95.94005065753565
 20
-14.5
 30
0.0
 11
-58.03725063528944
 21
23.40280002224618
 31
0.0
  0
LINE
  5
1D3
330
668
100
AcDbEntity
  8
PATTERN_FILL
  6
Continuous
 62
     7
100
AcDbLine
 10
-93.44005065753565
 20
-14.5
 30
0.0
 11
-56.76907661754018
 21
22.17097403999545
 31
0.0
  0
LINE
  5
1D4
330
668
100
AcDbEntity
  8
PATTERN_FILL
  6
Continuous
 62
     7
100
AcDbLine
 10
-98.6875
 20
-22.24744934246439
 30
0.0
 11
-97.94005065753566
 21
-21.50000000000001
 31
0.0
  0
LINE
  5
1D5
330
668
100
AcDbEntity
  8
PATTERN_FILL
  6
Continuous
 62
     7
100
AcDbLine
 10
-90.94005065753565
 20
-14.5
 30
0.0
 11
-56.40420288133602
 21
20.03584777619961
 31
0.0
  0
LINE
  5
1D6
330
668
100
AcDbEntity
  8
PATTERN_FILL
  6
Continuous
 62
     7
100
AcDbLine
 10
-98.34248492858197
 20
-24.40243427104632
 30
0.0
 11
-95.44005065753564
 21
-21.5
 31
0.0
  0
LINE
  5
1D7
330
668
100
AcDbEntity
  8
PATTERN_FILL
  6
Continuous
 62
     7
100
AcDbLine
 10
-88.44005065753565
 20
-14.50000000000001
 30
0.0
 11
-56.07067950619345
 21
17.86937115134218
 31
0.0
  0
LINE
  5
1D8
330
668
100
AcDbEntity
  8
PATTERN_FILL
  6
Continuous
 62
     7
100
AcDbLine
 10
-85.94005065753563
 20
-14.50000000000001
 30
0.0
 11
-55.73715613105097
 21
15.70289452648466
 31
0.0
  0
LINE
  5
1D9
330
668
100
AcDbEntity
  8
PATTERN_FILL
  6
Continuous
 62
     7
100
AcDbLine
 10
-97.61791928699336
 20
-28.67786862945772
 30
0.0
 11
-90.44005065753564
 21
-21.5
 31
0.0
  0
LINE
  5
1DA
330
668
100
AcDbEntity
  8
PATTERN_FILL
  6
Continuous
 62
     7
100
AcDbLine
 10
-83.44005065753567
 20
-14.50000000000003
 30
0.0
 11
-55.40363275590843
 21
13.5364179016272
 31
0.0
  0
LINE
  5
1DB
330
668
100
AcDbEntity
  8
PATTERN_FILL
  6
Continuous
 62
     7
100
AcDbLine
 10
-97.22951470312743
 20
-30.78946404559183
 30
0.0
 11
-87.94005065753564
 21
-21.5
 31
0.0
  0
LINE
  5
1DC
330
668
100
AcDbEntity
  8
PATTERN_FILL
  6
Continuous
 62
     7
100
AcDbLine
 10
-80.94005065753567
 20
-14.50000000000001
 30
0.0
 11
-55.07010938076586
 21
11.36994127676976
 31
0.0
  0
LINE
  5
1DD
330
668
100
AcDbEntity
  8
PATTERN_FILL
  6
Continuous
 62
     7
100
AcDbLine
 10
-96.82413977122815
 20
-32.88408911369251
 30
0.0
 11
-85.44005065753566
 21
-21.50000000000001
 31
0.0
  0
LINE
  5
1DE
330
668
100
AcDbEntity
  8
PATTERN_FILL
  6
Continuous
 62
     7
100
AcDbLine
 10
-78.44005065753567
 20
-14.50000000000001
 30
0.0
 11
-54.73658600562337
 21
9.203464651912275
 31
0.0
  0
LINE
  5
1DF
330
668
100
AcDbEntity
  8
PATTERN_FILL
  6
Continuous
 62
     7
100
AcDbLine
 10
-94.84005065753564
 20
-33.40000000000002
 30
0.0
 11
-82.94005065753566
 21
-21.50000000000001
 31
0.0
  0
LINE
  5
1E0
330
668
100
AcDbEntity
  8
PATTERN_FILL
  6
Continuous
 62
     7
100
AcDbLine
 10
-75.94005065753567
 20
-14.50000000000001
 30
0.0
 11
-54.40306263048079
 21
7.036988027054825
 31
0.0
  0
LINE
  5
1E1
330
668
100
AcDbEntity
  8
PATTERN_FILL
  6
Continuous
 62
     7
100
AcDbLine
 10
-92.34005065753564
 20
-33.40000000000002
 30
0.0
 11
-80.44005065753566
 21
-21.50000000000001
 31
0.0
  0
LINE
  5
1E2
330
668
100
AcDbEntity
  8
PATTERN_FILL
  6
Continuous
 62
     7
100
AcDbLine
 10
-73.44005065753567
 20
-14.50000000000001
 30
0.0
 11
-54.06953925533828
 21
4.870511402197352
 31
0.0
  0
LINE
  5
1E3
330
668
100
AcDbEntity
  8
PATTERN_FILL
  6
Continuous
 62
     7
100
AcDbLine
 10
-89.84005065753564
 20
-33.40000000000002
 30
0.0
 11
-77.94005065753566
 21
-21.50000000000001
 31
0.0
  0
LINE
  5
1E4
330
668
100
AcDbEntity
  8
PATTERN_FILL
  6
Continuous
 62
     7
100
AcDbLine
 10
-70.94005065753567
 20
-14.50000000000003
 30
0.0
 11
-53.73601588019575
 21
2.704034777339892
 31
0.0
  0
LINE
  5
1E5
330
668
100
AcDbEntity
  8
PATTERN_FILL
  6
Continuous
 62
     7
100
AcDbLine
 10
-87.34005065753562
 20
-33.39999999999999
 30
0.0
 11
-75.44005065753563
 21
-21.49999999999999
 31
0.0
  0
LINE
  5
1E6
330
668
100
AcDbEntity
  8
PATTERN_FILL
  6
Continuous
 62
     7
100
AcDbLine
 10
-68.44005065753563
 20
-14.5
 30
0.0
 11
-53.4024925050532
 21
0.5375581524824256
 31
0.0
  0
LINE
  5
1E7
330
668
100
AcDbEntity
  8
PATTERN_FILL
  6
Continuous
 62
     7
100
AcDbLine
 10
-84.84005065753565
 20
-33.40000000000002
 30
0.0
 11
-72.94005065753563
 21
-21.49999999999999
 31
0.0
  0
LINE
  5
1E8
330
668
100
AcDbEntity
  8
PATTERN_FILL
  6
Continuous
 62
     7
100
AcDbLine
 10
-65.94005065753563
 20
-14.5
 30
0.0
 11
-53.06896912991069
 21
-1.628918472375048
 31
0.0
  0
LINE
  5
1E9
330
668
100
AcDbEntity
  8
PATTERN_FILL
  6
Continuous
 62
     7
100
AcDbLine
 10
-82.34005065753565
 20
-33.40000000000002
 30
0.0
 11
-70.44005065753563
 21
-21.5
 31
0.0
  0
LINE
  5
1EA
330
668
100
AcDbEntity
  8
PATTERN_FILL
  6
Continuous
 62
     7
100
AcDbLine
 10
-63.44005065753563
 20
-14.5
 30
0.0
 11
-52.73544575476815
 21
-3.795395097232514
 31
0.0
  0
LINE
  5
1EB
330
668
100
AcDbEntity
  8
PATTERN_FILL
  6
Continuous
 62
     7
100
AcDbLine
 10
-79.84005065753565
 20
-33.40000000000002
 30
0.0
 11
-67.94005065753565
 21
-21.5
 31
0.0
  0
LINE
  5
1EC
330
668
100
AcDbEntity
  8
PATTERN_FILL
  6
Continuous
 62
     7
100
AcDbLine
 10
-60.94005065753563
 20
-14.5
 30
0.0
 11
-52.40192237962563
 21
-5.961871722089995
 31
0.0
  0
LINE
  5
1ED
330
668
100
AcDbEntity
  8
PATTERN_FILL
  6
Continuous
 62
     7
100
AcDbLine
 10
-77.34005065753565
 20
-33.40000000000002
 30
0.0
 11
-65.44005065753565
 21
-21.5
 31
0.0
  0
LINE
  5
1EE
330
668
100
AcDbEntity
  8
PATTERN_FILL
  6
Continuous
 62
     7
100
AcDbLine
 10
-58.44005065753563
 20
-14.5
 30
0.0
 11
-52.0683990044831
 21
-8.128348346947461
 31
0.0
  0
LINE
  5
1EF
330
668
100
AcDbEntity
  8
PATTERN_FILL
  6
Continuous
 62
     7
100
AcDbLine
 10
-74.84005065753563
 20
-33.39999999999998
 30
0.0
 11
-62.94005065753563
 21
-21.5
 31
0.0
  0
LINE
  5
1F0
330
668
100
AcDbEntity
  8
PATTERN_FILL
  6
Continuous
 62
     7
100
AcDbLine
 10
-55.94005065753563
 20
-14.5
 30
0.0
 11
-51.73487562934058
 21
-10.29482497180494
 31
0.0
  0
LINE
  5
1F1
330
668
100
AcDbEntity
  8
PATTERN_FILL
  6
Continuous
 62
     7
100
AcDbLine
 10
-72.34005065753563
 20
-33.39999999999999
 30
0.0
 11
-60.44005065753563
 21
-21.5
 31
0.0
  0
LINE
  5
1F2
330
668
100
AcDbEntity
  8
PATTERN_FILL
  6
Continuous
 62
     7
100
AcDbLine
 10
-53.44005065753563
 20
-14.5
 30
0.0
 11
-51.40135225419802
 21
-12.46130159666239
 31
0.0
  0
LINE
  5
1F3
330
668
100
AcDbEntity
  8
PATTERN_FILL
  6
Continuous
 62
     7
100
AcDbLine
 10
-69.84005065753564
 20
-33.40000000000002
 30
0.0
 11
-57.94005065753565
 21
-21.50000000000001
 31
0.0
  0
LINE
  5
1F4
330
668
100
AcDbEntity
  8
PATTERN_FILL
  6
Continuous
 62
     7
100
AcDbLine
 10
-67.34005065753564
 20
-33.39999999999999
 30
0.0
 11
-55.44005065753562
 21
-21.49999999999999
 31
0.0
  0
LINE
  5
1F5
330
668
100
AcDbEntity
  8
PATTERN_FILL
  6
Continuous
 62
     7
100
AcDbLine
 10
-64.84005065753564
 20
-33.40000000000002
 30
0.0
 11
-52.94005065753563
 21
-21.5
 31
0.0
  0
LINE
  5
1F6
330
668
100
AcDbEntity
  8
PATTERN_FILL
  6
Continuous
 62
     7
100
AcDbLine
 10
-62.34005065753565
 20
-33.40000000000002
 30
0.0
 11
-51.20043861731136
 21
-22.2603879597757
 31
0.0
  0
LINE
  5
1F7
330
668
100
AcDbEntity
  8
PATTERN_FILL
  6
Continuous
 62
     7
100
AcDbLine
 10
-59.84005065753562
 20
-33.40000000000002
 30
0.0
 11
-51.66560054046874
 21
-25.22554988293312
 31
0.0
  0
LINE
  5
1F8
330
668
100
AcDbEntity
  8
PATTERN_FILL
  6
Continuous
 62
     7
100
AcDbLine
 10
-57.34005065753561
 20
-33.39999999999998
 30
0.0
 11
-52.17886582036261
 21
-28.23881516282698
 31
0.0
  0
LINE
  5
1F9
330
668
100
AcDbEntity
  8
PATTERN_FILL
  6
Continuous
 62
     7
100
AcDbLine
 10
-54.84005065753564
 20
-33.40000000000002
 30
0.0
 11
-52.74300629661778
 21
-31.30295563908215
 31
0.0
  0
LINE
  5
1FA
330
668
100
AcDbEntity
  8
PATTERN_FILL
  6
Continuous
 62
     7
100
AcDbLine
 10
-59.43494934246437
 20
23.5
 30
0.0
 11
-56.48306520518143
 21
20.54811586271707
 31
0.0
  0
LINE
  5
1FB
330
668
100
AcDbEntity
  8
PATTERN_FILL
  6
Continuous
 62
     7
100
AcDbLine
 10
-61.93494934246437
 20
23.5
 30
0.0
 11
-56.02816629382839
 21
17.59321695136404
 31
0.0
  0
LINE
  5
1FC
330
668
100
AcDbEntity
  8
PATTERN_FILL
  6
Continuous
 62
     7
100
AcDbLine
 10
-64.43494934246437
 20
23.50000000000001
 30
0.0
 11
-55.57326738247539
 21
14.63831804001101
 31
0.0
  0
LINE
  5
1FD
330
668
100
AcDbEntity
  8
PATTERN_FILL
  6
Continuous
 62
     7
100
AcDbLine
 10
-66.93494934246437
 20
23.50000000000001
 30
0.0
 11
-55.11836847112235
 21
11.68341912865798
 31
0.0
  0
LINE
  5
1FE
330
668
100
AcDbEntity
  8
PATTERN_FILL
  6
Continuous
 62
     7
100
AcDbLine
 10
-69.43494934246437
 20
23.50000000000001
 30
0.0
 11
-54.66346955976931
 21
8.728520217304946
 31
0.0
  0
LINE
  5
1FF
330
668
100
AcDbEntity
  8
PATTERN_FILL
  6
Continuous
 62
     7
100
AcDbLine
 10
-71.93494934246436
 20
23.50000000000001
 30
0.0
 11
-54.20857064841629
 21
5.77362130595192
 31
0.0
  0
LINE
  5
200
330
668
100
AcDbEntity
  8
PATTERN_FILL
  6
Continuous
 62
     7
100
AcDbLine
 10
-74.43494934246436
 20
23.50000000000001
 30
0.0
 11
-53.75367173706326
 21
2.8187223945989
 31
0.0
  0
LINE
  5
201
330
668
100
AcDbEntity
  8
PATTERN_FILL
  6
Continuous
 62
     7
100
AcDbLine
 10
-76.93494934246434
 20
23.5
 30
0.0
 11
-53.29877282571023
 21
-0.1361765167541336
 31
0.0
  0
LINE
  5
202
330
668
100
AcDbEntity
  8
PATTERN_FILL
  6
Continuous
 62
     7
100
AcDbLine
 10
-79.43494934246434
 20
23.5
 30
0.0
 11
-52.84387391435718
 21
-3.09107542810716
 31
0.0
  0
LINE
  5
203
330
668
100
AcDbEntity
  8
PATTERN_FILL
  6
Continuous
 62
     7
100
AcDbLine
 10
-81.93494934246434
 20
23.5
 30
0.0
 11
-52.38897500300416
 21
-6.045974339460201
 31
0.0
  0
LINE
  5
204
330
668
100
AcDbEntity
  8
PATTERN_FILL
  6
Continuous
 62
     7
100
AcDbLine
 10
-84.43494934246436
 20
23.50000000000001
 30
0.0
 11
-51.93407609165114
 21
-9.000873250813228
 31
0.0
  0
LINE
  5
205
330
668
100
AcDbEntity
  8
PATTERN_FILL
  6
Continuous
 62
     7
100
AcDbLine
 10
-86.93494934246436
 20
23.50000000000001
 30
0.0
 11
-51.4791771802981
 21
-11.95577216216626
 31
0.0
  0
LINE
  5
206
330
668
100
AcDbEntity
  8
PATTERN_FILL
  6
Continuous
 62
     7
100
AcDbLine
 10
-89.43494934246436
 20
23.50000000000001
 30
0.0
 11
-51.43494934246437
 21
-14.5
 31
0.0
  0
LINE
  5
207
330
668
100
AcDbEntity
  8
PATTERN_FILL
  6
Continuous
 62
     7
100
AcDbLine
 10
-91.83774936471056
 20
23.40280002224622
 30
0.0
 11
-53.93494934246437
 21
-14.49999999999998
 31
0.0
  0
LINE
  5
208
330
668
100
AcDbEntity
  8
PATTERN_FILL
  6
Continuous
 62
     7
100
AcDbLine
 10
-93.1059233824598
 20
22.17097403999545
 30
0.0
 11
-56.43494934246437
 21
-14.5
 31
0.0
  0
LINE
  5
209
330
668
100
AcDbEntity
  8
PATTERN_FILL
  6
Continuous
 62
     7
100
AcDbLine
 10
-93.47079711866399
 20
20.03584777619964
 30
0.0
 11
-58.93494934246437
 21
-14.49999999999997
 31
0.0
  0
LINE
  5
20A
330
668
100
AcDbEntity
  8
PATTERN_FILL
  6
Continuous
 62
     7
100
AcDbLine
 10
-51.93494934246435
 20
-21.5
 30
0.0
 11
-51.19705984807644
 21
-22.23788949438793
 31
0.0
  0
LINE
  5
20B
330
668
100
AcDbEntity
  8
PATTERN_FILL
  6
Continuous
 62
     7
100
AcDbLine
 10
-93.80432049380656
 20
17.86937115134216
 30
0.0
 11
-61.43494934246437
 21
-14.49999999999998
 31
0.0
  0
LINE
  5
20C
330
668
100
AcDbEntity
  8
PATTERN_FILL
  6
Continuous
 62
     7
100
AcDbLine
 10
-54.43494934246437
 20
-21.49999999999999
 30
0.0
 11
-51.53251507141803
 21
-24.40243427104636
 31
0.0
  0
LINE
  5
20D
330
668
100
AcDbEntity
  8
PATTERN_FILL
  6
Continuous
 62
     7
100
AcDbLine
 10
-94.13784386894908
 20
15.70289452648469
 30
0.0
 11
-63.93494934246439
 21
-14.49999999999998
 31
0.0
  0
LINE
  5
20E
330
668
100
AcDbEntity
  8
PATTERN_FILL
  6
Continuous
 62
     7
100
AcDbLine
 10
-94.47136724409158
 20
13.53641790162723
 30
0.0
 11
-66.43494934246437
 21
-14.5
 31
0.0
  0
LINE
  5
20F
330
668
100
AcDbEntity
  8
PATTERN_FILL
  6
Continuous
 62
     7
100
AcDbLine
 10
-59.43494934246437
 20
-21.5
 30
0.0
 11
-52.25708071300658
 21
-28.67786862945778
 31
0.0
  0
LINE
  5
210
330
668
100
AcDbEntity
  8
PATTERN_FILL
  6
Continuous
 62
     7
100
AcDbLine
 10
-94.80489061923412
 20
11.36994127676975
 30
0.0
 11
-68.93494934246437
 21
-14.5
 31
0.0
  0
LINE
  5
211
330
668
100
AcDbEntity
  8
PATTERN_FILL
  6
Continuous
 62
     7
100
AcDbLine
 10
-61.93494934246437
 20
-21.5
 30
0.0
 11
-52.6454852968725
 21
-30.78946404559187
 31
0.0
  0
LINE
  5
212
330
668
100
AcDbEntity
  8
PATTERN_FILL
  6
Continuous
 62
     7
100
AcDbLine
 10
-95.13841399437668
 20
9.203464651912319
 30
0.0
 11
-71.43494934246437
 21
-14.5
 31
0.0
  0
LINE
  5
213
330
668
100
AcDbEntity
  8
PATTERN_FILL
  6
Continuous
 62
     7
100
AcDbLine
 10
-64.43494934246436
 20
-21.5
 30
0.0
 11
-53.05086022877183
 21
-32.88408911369254
 31
0.0
  0
LINE
  5
214
330
668
100
AcDbEntity
  8
PATTERN_FILL
  6
Continuous
 62
     7
100
AcDbLine
 10
-95.47193736951919
 20
7.036988027054832
 30
0.0
 11
-73.93494934246433
 21
-14.5
 31
0.0
  0
LINE
  5
215
330
668
100
AcDbEntity
  8
PATTERN_FILL
  6
Continuous
 62
     7
100
AcDbLine
 10
-66.93494934246436
 20
-21.5
 30
0.0
 11
-55.03494934246436
 21
-33.40000000000002
 31
0.0
  0
LINE
  5
216
330
668
100
AcDbEntity
  8
PATTERN_FILL
  6
Continuous
 62
     7
100
AcDbLine
 10
-95.80546074466171
 20
4.870511402197372
 30
0.0
 11
-76.43494934246433
 21
-14.5
 31
0.0
  0
LINE
  5
217
330
668
100
AcDbEntity
  8
PATTERN_FILL
  6
Continuous
 62
     7
100
AcDbLine
 10
-69.43494934246437
 20
-21.49999999999999
 30
0.0
 11
-57.53494934246436
 21
-33.40000000000002
 31
0.0
  0
LINE
  5
218
330
668
100
AcDbEntity
  8
PATTERN_FILL
  6
Continuous
 62
     7
100
AcDbLine
 10
-96.13898411980423
 20
2.704034777339877
 30
0.0
 11
-78.93494934246433
 21
-14.5
 31
0.0
  0
LINE
  5
219
330
668
100
AcDbEntity
  8
PATTERN_FILL
  6
Continuous
 62
     7
100
AcDbLine
 10
-71.93494934246436
 20
-21.49999999999999
 30
0.0
 11
-60.03494934246436
 21
-33.40000000000002
 31
0.0
  0
LINE
  5
21A
330
668
100
AcDbEntity
  8
PATTERN_FILL
  6
Continuous
 62
     7
100
AcDbLine
 10
-96.47250749494681
 20
0.5375581524824256
 30
0.0
 11
-81.43494934246433
 21
-14.5
 31
0.0
  0
LINE
  5
21B
330
668
100
AcDbEntity
  8
PATTERN_FILL
  6
Continuous
 62
     7
100
AcDbLine
 10
-74.43494934246436
 20
-21.5
 30
0.0
 11
-62.5349493424644
 21
-33.39999999999998
 31
0.0
  0
LINE
  5
21C
330
668
100
AcDbEntity
  8
PATTERN_FILL
  6
Continuous
 62
     7
100
AcDbLine
 10
-96.80603087008933
 20
-1.628918472375033
 30
0.0
 11
-83.93494934246437
 21
-14.5
 31
0.0
  0
LINE
  5
21D
330
668
100
AcDbEntity
  8
PATTERN_FILL
  6
Continuous
 62
     7
100
AcDbLine
 10
-76.93494934246434
 20
-21.5
 30
0.0
 11
-65.03494934246439
 21
-33.39999999999998
 31
0.0
  0
LINE
  5
21E
330
668
100
AcDbEntity
  8
PATTERN_FILL
  6
Continuous
 62
     7
100
AcDbLine
 10
-97.13955424523186
 20
-3.795395097232499
 30
0.0
 11
-86.43494934246435
 21
-14.5
 31
0.0
  0
LINE
  5
21F
330
668
100
AcDbEntity
  8
PATTERN_FILL
  6
Continuous
 62
     7
100
AcDbLine
 10
-79.43494934246434
 20
-21.5
 30
0.0
 11
-67.53494934246439
 21
-33.39999999999998
 31
0.0
  0
LINE
  5
220
330
668
100
AcDbEntity
  8
PATTERN_FILL
  6
Continuous
 62
     7
100
AcDbLine
 10
-97.47307762037436
 20
-5.961871722089995
 30
0.0
 11
-88.93494934246435
 21
-14.49999999999998
 31
0.0
  0
LINE
  5
221
330
668
100
AcDbEntity
  8
PATTERN_FILL
  6
Continuous
 62
     7
100
AcDbLine
 10
-81.93494934246434
 20
-21.5
 30
0.0
 11
-70.03494934246436
 21
-33.39999999999999
 31
0.0
  0
LINE
  5
222
330
668
100
AcDbEntity
  8
PATTERN_FILL
  6
Continuous
 62
     7
100
AcDbLine
 10
-97.80660099551692
 20
-8.128348346947461
 30
0.0
 11
-91.43494934246435
 21
-14.5
 31
0.0
  0
LINE
  5
223
330
668
100
AcDbEntity
  8
PATTERN_FILL
  6
Continuous
 62
     7
100
AcDbLine
 10
-84.43494934246434
 20
-21.5
 30
0.0
 11
-72.53494934246434
 21
-33.40000000000002
 31
0.0
  0
LINE
  5
224
330
668
100
AcDbEntity
  8
PATTERN_FILL
  6
Continuous
 62
     7
100
AcDbLine
 10
-98.14012437065946
 20
-10.29482497180493
 30
0.0
 11
-93.93494934246435
 21
-14.5
 31
0.0
  0
LINE
  5
225
330
668
100
AcDbEntity
  8
PATTERN_FILL
  6
Continuous
 62
     7
100
AcDbLine
 10
-86.93494934246436
 20
-21.5
 30
0.0
 11
-75.03494934246437
 21
-33.39999999999999
 31
0.0
  0
LINE
  5
226
330
668
100
AcDbEntity
  8
PATTERN_FILL
  6
Continuous
 62
     7
100
AcDbLine
 10
-98.47364774580203
 20
-12.46130159666236
 30
0.0
 11
-96.43494934246435
 21
-14.5
 31
0.0
  0
LINE
  5
227
330
668
100
AcDbEntity
  8
PATTERN_FILL
  6
Continuous
 62
     7
100
AcDbLine
 10
-89.43494934246436
 20
-21.49999999999999
 30
0.0
 11
-77.53494934246434
 21
-33.40000000000002
 31
0.0
  0
LINE
  5
228
330
668
100
AcDbEntity
  8
PATTERN_FILL
  6
Continuous
 62
     7
100
AcDbLine
 10
-96.93494934246436
 20
-21.5
 30
0.0
 11
-85.03494934246434
 21
-33.40000000000002
 31
0.0
  0
LINE
  5
229
330
668
100
AcDbEntity
  8
PATTERN_FILL
  6
Continuous
 62
     7
100
AcDbLine
 10
-98.6875
 20
-22.24744934246436
 30
0.0
 11
-87.53494934246438
 21
-33.40000000000002
 31
0.0
  0
LINE
  5
22A
330
668
100
AcDbEntity
  8
PATTERN_FILL
  6
Continuous
 62
     7
100
AcDbLine
 10
-98.20939945953128
 20
-25.22554988293309
 30
0.0
 11
-90.03494934246441
 21
-33.39999999999997
 31
0.0
  0
LINE
  5
22B
330
668
100
AcDbEntity
  8
PATTERN_FILL
  6
Continuous
 62
     7
100
AcDbLine
 10
-97.69613417963737
 20
-28.238815162827
 30
0.0
 11
-92.53494934246441
 21
-33.39999999999997
 31
0.0
  0
LINE
  5
22C
330
668
100
AcDbEntity
  8
PATTERN_FILL
  6
Continuous
 62
     7
100
AcDbLine
 10
-97.13199370338223
 20
-31.30295563908213
 30
0.0
 11
-95.03494934246441
 21
-33.39999999999997
 31
0.0
  0
LINE
  5
22D
330
668
100
AcDbEntity
  8
PATTERN_FILL
  6
Continuous
 62
     7
100
AcDbLine
 10
-91.93494934246436
 20
-21.49999999999999
 30
0.0
 11
-80.03494934246434
 21
-33.40000000000002
 31
0.0
  0
LINE
  5
22E
330
668
100
AcDbEntity
  8
PATTERN_FILL
  6
Continuous
 62
     7
100
AcDbLine
 10
-94.43494934246436
 20
-21.49999999999999
 30
0.0
 11
-82.53494934246434
 21
-33.40000000000002
 31
0.0
  0
LINE
  5
22F
330
668
100
AcDbEntity
  8
PATTERN_FILL
  6
Continuous
 62
     7
100
AcDbLine
 10
-97.98902426414336
 20
-26.54897360660772
 30
0.0
 11
-92.94005065753564
 21
-21.5
 31
0.0
  0
LINE
  5
230
330
668
100
AcDbEntity
  8
PATTERN_FILL
  6
Continuous
 62
     7
100
AcDbLine
 10
-56.93494934246437
 20
-21.5
 30
0.0
 11
-51.88597573585667
 21
-26.54897360660767
 31
0.0
  0
LINE
  5
231
330
668
100
AcDbEntity
  8
SPEC
  6
Continuous
 62
     7
100
AcDbLine
 10
-165.0000000824999
 20
243.5318151235318
 30
0.0
 11
130.000000065
 21
243.5318151235318
 31
0.0
  0
LINE
  5
232
330
668
100
AcDbEntity
  8
SPEC
  6
Continuous
 62
     7
100
AcDbLine
 10
-165.0000000824999
 20
236.0318151197818
 30
0.0
 11
130.000000065
 21
236.0318151197818
 31
0.0
  0
LINE
  5
233
330
668
100
AcDbEntity
  8
SPEC
  6
Continuous
 62
     7
100
AcDbLine
 10
-165.0000000824999
 20
243.5318151235318
 30
0.0
 11
-165.0000000824999
 21
146.0318150747817
 31
0.0
  0
TEXT
  5
234
330
668
100
AcDbEntity
  8
SPEC
 62
     7
100
AcDbText
 10
-162.5000000812499
 20
246.3183551249251
 30
0.0
 40
4.88652343994326
  1
仕様
 41
0.7
 11
-162.5000000812499
 21
251.2048785648683
 31
0.0
100
AcDbText
 73
     3
  0
LINE
  5
235
330
668
100
AcDbEntity
  8
SPEC
  6
Continuous
 62
     7
100
AcDbLine
 10
-100.0000000499999
 20
243.5318151235318
 30
0.0
 11
-100.0000000499999
 21
146.0318150747817
 31
0.0
  0
LINE
  5
236
330
668
100
AcDbEntity
  8
SPEC
  6
Continuous
 62
     7
100
AcDbLine
 10
130.000000065
 20
243.5318151235318
 30
0.0
 11
130.000000065
 21
146.0318150747817
 31
0.0
  0
LINE
  5
237
330
668
100
AcDbEntity
  8
SPEC
  6
Continuous
 62
     7
100
AcDbLine
 10
-165.0000000824999
 20
228.5318151160318
 30
0.0
 11
130.000000065
 21
228.5318151160318
 31
0.0
  0
LINE
  5
238
330
668
100
AcDbEntity
  8
SPEC
  6
Continuous
 62
     7
100
AcDbLine
 10
-165.0000000824999
 20
221.0318151122818
 30
0.0
 11
130.000000065
 21
221.0318151122818
 31
0.0
  0
LINE
  5
239
330
668
100
AcDbEntity
  8
SPEC
  6
Continuous
 62
     7
100
AcDbLine
 10
-165.0000000824999
 20
213.5318151085318
 30
0.0
 11
130.000000065
 21
213.5318151085318
 31
0.0
  0
LINE
  5
23A
330
668
100
AcDbEntity
  8
SPEC
  6
Continuous
 62
     7
100
AcDbLine
 10
-165.0000000824999
 20
206.0318151047818
 30
0.0
 11
130.000000065
 21
206.0318151047818
 31
0.0
  0
LINE
  5
23B
330
668
100
AcDbEntity
  8
SPEC
  6
Continuous
 62
     7
100
AcDbLine
 10
-165.0000000824999
 20
198.5318151010318
 30
0.0
 11
130.000000065
 21
198.5318151010318
 31
0.0
  0
LINE
  5
23C
330
668
100
AcDbEntity
  8
SPEC
  6
Continuous
 62
     7
100
AcDbLine
 10
-165.0000000824999
 20
191.0318150972818
 30
0.0
 11
130.000000065
 21
191.0318150972818
 31
0.0
  0
LINE
  5
23D
330
668
100
AcDbEntity
  8
SPEC
  6
Continuous
 62
     7
100
AcDbLine
 10
-165.0000000824999
 20
183.5318150935318
 30
0.0
 11
130.000000065
 21
183.5318150935318
 31
0.0
  0
LINE
  5
23E
330
668
100
AcDbEntity
  8
SPEC
  6
Continuous
 62
     7
100
AcDbLine
 10
-165.0000000824999
 20
176.0318150897818
 30
0.0
 11
130.000000065
 21
176.0318150897818
 31
0.0
  0
LINE
  5
23F
330
668
100
AcDbEntity
  8
SPEC
  6
Continuous
 62
     7
100
AcDbLine
 10
-165.0000000824999
 20
168.5318150860318
 30
0.0
 11
130.000000065
 21
168.5318150860318
 31
0.0
  0
LINE
  5
240
330
668
100
AcDbEntity
  8
SPEC
  6
Continuous
 62
     7
100
AcDbLine
 10
-165.0000000824999
 20
161.0318150822818
 30
0.0
 11
130.000000065
 21
161.0318150822818
 31
0.0
  0
LINE
  5
241
330
668
100
AcDbEntity
  8
SPEC
  6
Continuous
 62
     7
100
AcDbLine
 10
-165.0000000824999
 20
153.5318150785318
 30
0.0
 11
130.000000065
 21
153.5318150785318
 31
0.0
  0
LINE
  5
242
330
668
100
AcDbEntity
  8
SPEC
  6
Continuous
 62
     7
100
AcDbLine
 10
-165.0000000824999
 20
146.0318150747817
 30
0.0
 11
130.000000065
 21
146.0318150747817
 31
0.0
  0
TEXT
  5
243
330
668
100
AcDbEntity
  8
SPEC
 62
     7
100
AcDbText
 10
-163.2000000899999
 20
147.6076506881984
 30
0.0
 40
3.800629342178092
  1
付属品
 41
0.7
 11
-163.2000000899999
 21
151.4082800303765
 31
0.0
100
AcDbText
 73
     3
  0
TEXT
  5
244
330
668
100
AcDbEntity
  8
SPEC
 62
     7
100
AcDbText
 10
-163.2000000899999
 20
162.6076506881983
 30
0.0
 40
3.800629342178092
  1
寸法(φ×H)
 41
0.7
 11
-163.2000000899999
 21
166.4082800303764
 31
0.0
100
AcDbText
 73
     3
  0
TEXT
  5
245
330
668
100
AcDbEntity
  8
SPEC
 62
     7
100
AcDbText
 10
-163.2000000899999
 20
155.1076506881983
 30
0.0
 40
3.800629342178092
  1
質量
 41
0.7
 11
-163.2000000899999
 21
158.9082800303764
 31
0.0
100
AcDbText
 73
     3
  0
TEXT
  5
246
330
668
100
AcDbEntity
  8
SPEC
 62
     7
100
AcDbText
 10
-98.20000008999995
 20
162.6076506881983
 30
0.0
 40
3.800629342178092
  1
52×186mm
 41
0.7
 11
-98.20000008999995
 21
166.4082800303764
 31
0.0
100
AcDbText
 73
     3
  0
TEXT
  5
247
330
668
100
AcDbEntity
  8
SPEC
 62
     7
100
AcDbText
 10
-98.20000008999995
 20
155.1076506881983
 30
0.0
 40
3.800629342178092
  1
328g
 41
0.7
 11
-98.20000008999995
 21
158.9082800303764
 31
0.0
100
AcDbText
 73
     3
  0
TEXT
  5
248
330
668
100
AcDbEntity
  8
SPEC
 62
     7
100
AcDbText
 10
-163.2000000899999
 20
237.6076506890874
 30
0.0
 40
3.800629340277777
  1
形式
 41
0.7
 11
-163.2000000899999
 21
241.4082800293652
 31
0.0
100
AcDbText
 73
     3
  0
TEXT
  5
249
330
668
100
AcDbEntity
  8
SPEC
 62
     7
100
AcDbText
 10
-163.9000001716
 20
230.1076506732643
 30
0.0
 40
3.800629340277777
  1
指向特性
 41
0.7
 11
-163.9000001716
 21
233.908280013542
 31
0.0
100
AcDbText
 73
     3
  0
TEXT
  5
24A
330
668
100
AcDbEntity
  8
SPEC
 62
     7
100
AcDbText
 10
-163.2000000899999
 20
222.6076506890874
 30
0.0
 40
3.800629340277777
  1
周波数特性
 41
0.7
 11
-163.2000000899999
 21
226.4082800293652
 31
0.0
100
AcDbText
 73
     3
  0
TEXT
  5
24B
330
668
100
AcDbEntity
  8
SPEC
 62
     7
100
AcDbText
 10
-163.2000000899999
 20
215.1076506890874
 30
0.0
 40
3.800629340277777
  1
開回路感度
 41
0.7
 11
-163.2000000899999
 21
218.9082800293652
 31
0.0
100
AcDbText
 73
     3
  0
TEXT
  5
24C
330
668
100
AcDbEntity
  8
SPEC
 62
     7
100
AcDbText
 10
-163.2000000899999
 20
207.6076506890874
 30
0.0
 40
3.800629340277777
  1
最大音圧レベル
 41
0.7
 11
-163.2000000899999
 21
211.4082800293652
 31
0.0
100
AcDbText
 73
     3
  0
TEXT
  5
24D
330
668
100
AcDbEntity
  8
SPEC
 62
     7
100
AcDbText
 10
-163.2000000899999
 20
200.1076506890874
 30
0.0
 40
3.800629340277777
  1
等価雑音レベル
 41
0.7
 11
-163.2000000899999
 21
203.9082800293652
 31
0.0
100
AcDbText
 73
     3
  0
TEXT
  5
24E
330
668
100
AcDbEntity
  8
SPEC
 62
     7
100
AcDbText
 10
-163.2000000899999
 20
192.6076506890874
 30
0.0
 40
3.800629340277777
  1
ローカットフィルター
 41
0.7
 11
-163.2000000899999
 21
196.4082800293652
 31
0.0
100
AcDbText
 73
     3
  0
TEXT
  5
24F
330
668
100
AcDbEntity
  8
SPEC
 62
     7
100
AcDbText
 10
-163.2000000899999
 20
185.1076506890874
 30
0.0
 40
3.800629340277777
  1
インピーダンス
 41
0.7
 11
-163.2000000899999
 21
188.9082800293652
 31
0.0
100
AcDbText
 73
     3
  0
TEXT
  5
250
330
668
100
AcDbEntity
  8
SPEC
 62
     7
100
AcDbText
 10
-163.2000000899999
 20
177.6076506890874
 30
0.0
 40
3.800629340277777
  1
電源ファンタム
 41
0.7
 11
-163.2000000899999
 21
181.4082800293652
 31
0.0
100
AcDbText
 73
     3
  0
TEXT
  5
251
330
668
100
AcDbEntity
  8
SPEC
 62
     7
100
AcDbText
 10
-163.2000000899999
 20
170.1076506890874
 30
0.0
 40
3.800629340277777
  1
端子
 41
0.7
 11
-163.2000000899999
 21
173.9082800293652
 31
0.0
100
AcDbText
 73
     3
  0
TEXT
  5
252
330
668
100
AcDbEntity
  8
SPEC
 62
     7
100
AcDbText
 10
-98.20000008999995
 20
237.6076506890874
 30
0.0
 40
3.800629340277777
  1
コンデンサー型 
 41
0.7
 11
-98.20000008999995
 21
241.4082800293652
 31
0.0
100
AcDbText
 73
     3
  0
TEXT
  5
253
330
668
100
AcDbEntity
  8
SPEC
 62
     7
100
AcDbText
 10
-98.20000008999995
 20
230.1076506890874
 30
0.0
 40
3.800629340277777
  1
カーディオイド
 41
0.7
 11
-98.20000008999995
 21
233.9082800293652
 31
0.0
100
AcDbText
 73
     3
  0
TEXT
  5
254
330
668
100
AcDbEntity
  8
SPEC
 62
     7
100
AcDbText
 10
-98.20000008999995
 20
222.6076506890874
 30
0.0
 40
3.800629340277777
  1
20Hz～20kHz
 41
0.7
 11
-98.20000008999995
 21
226.4082800293652
 31
0.0
100
AcDbText
 73
     3
  0
TEXT
  5
255
330
668
100
AcDbEntity
  8
SPEC
 62
     7
100
AcDbText
 10
-98.20000008999995
 20
215.1076506890874
 30
0.0
 40
3.800629340277777
  1
-45dB re 1V/Pa
 41
0.7
 11
-98.20000008999995
 21
218.9082800293652
 31
0.0
100
AcDbText
 73
     3
  0
TEXT
  5
256
330
668
100
AcDbEntity
  8
SPEC
 62
     7
100
AcDbText
 10
-98.20000008999995
 20
207.6076506890874
 30
0.0
 40
3.800629340277777
  1
150dB SPL(THD1%%%)
 41
0.7
 11
-98.20000008999995
 21
211.4082800293652
 31
0.0
100
AcDbText
 73
     3
  0
TEXT
  5
257
330
668
100
AcDbEntity
  8
SPEC
 62
     7
100
AcDbText
 10
-98.20000008999995
 20
200.1076506890874
 30
0.0
 40
3.800629340277777
  1
20dB SPL(Aウェイト)
 41
0.7
 11
-98.20000008999995
 21
203.9082800293652
 31
0.0
100
AcDbText
 73
     3
  0
TEXT
  5
258
330
668
100
AcDbEntity
  8
SPEC
 62
     7
100
AcDbText
 10
-98.20000008999995
 20
192.6076506890874
 30
0.0
 40
3.800629340277777
  1
Flat/80Hz(12dB/oct)
 41
0.7
 11
-98.20000008999995
 21
196.4082800293652
 31
0.0
100
AcDbText
 73
     3
  0
TEXT
  5
259
330
668
100
AcDbEntity
  8
SPEC
 62
     7
100
AcDbText
 10
-98.20000008999995
 20
185.1076506890874
 30
0.0
 40
3.800629340277777
  1
200Ω以下
 41
0.7
 11
-98.20000008999995
 21
188.9082800293652
 31
0.0
100
AcDbText
 73
     3
  0
TEXT
  5
25A
330
668
100
AcDbEntity
  8
SPEC
 62
     7
100
AcDbText
 10
-98.20000008999995
 20
177.6076506890874
 30
0.0
 40
3.800629340277777
  1
DC48V±4V/4mA以下
 41
0.7
 11
-98.20000008999995
 21
181.4082800293652
 31
0.0
100
AcDbText
 73
     3
  0
TEXT
  5
25B
330
668
100
AcDbEntity
  8
SPEC
 62
     7
100
AcDbText
 10
-98.20000008999995
 20
170.1076506890874
 30
0.0
 40
3.800629340277777
  1
XLR(バランス)
 41
0.7
 11
-98.20000008999995
 21
173.9082800293652
 31
0.0
100
AcDbText
 73
     3
  0
TEXT
  5
25C
330
668
100
AcDbEntity
  8
SPEC
 62
     7
100
AcDbText
 10
-98.20000008999995
 20
147.6076506890874
 30
0.0
 40
3.800629340277777
  1
マイクホルダー(SA61)、マイクポーチ
 41
0.7
 11
-98.20000008999995
 21
151.4082800293652
 31
0.0
100
AcDbText
 73
     3
  0
TEXT
  5
25D
330
668
100
AcDbEntity
  8
DIMNSIONS
 62
     7
100
AcDbText
 10
-40.00000001999999
 20
-231.9292051141986
 30
0.0
 40
4.88652343994326
  1
(単位：mm)
 41
0.7
 11
-40.00000001999999
 21
-227.0426816742554
 31
0.0
100
AcDbText
 73
     3
  0
LINE
  5
25E
330
668
100
AcDbEntity
  8
DIMNSIONS
  6
Continuous
 62
     7
100
AcDbLine
 10
-54.11246809227609
 20
40.59985032081112
 30
0.0
 11
-50.0
 21
37.5
 31
0.0
  0
LINE
  5
25F
330
668
100
AcDbEntity
  8
DIMNSIONS
  6
Continuous
 62
     7
100
AcDbLine
 10
-54.11246809227609
 20
40.59985032081112
 30
0.0
 11
-50.27313700277732
 21
39.04865987098936
 31
0.0
  0
LINE
  5
260
330
668
100
AcDbEntity
  8
DIMNSIONS
  6
Continuous
 62
     7
100
AcDbLine
 10
-54.11246809227609
 20
40.59985032081112
 30
0.0
 11
-51.56310506014165
 21
37.33681444040828
 31
0.0
  0
LINE
  5
261
330
668
100
AcDbEntity
  8
DIMNSIONS
  6
Continuous
 62
     7
100
AcDbLine
 10
-50.0
 20
37.5
 30
0.0
 11
-46.0
 21
37.5
 31
0.0
  0
TEXT
  5
262
330
668
100
AcDbEntity
  8
DIMNSIONS
 62
     7
100
AcDbText
 10
-46.0
 20
34.96
 30
0.0
 40
5.429470486111111
  1
φ52.0
 41
0.7
 11
-46.0
 21
40.38947048611111
 31
0.0
100
AcDbText
 73
     3
  0
LINE
  5
263
330
668
100
AcDbEntity
  8
DIMNSIONS
  6
Continuous
 62
     7
100
AcDbLine
 10
-87.0
 20
-162.5
 30
0.0
 11
-114.5
 21
-162.5
 31
0.0
  0
LINE
  5
264
330
668
100
AcDbEntity
  8
DIMNSIONS
  6
Continuous
 62
     7
100
AcDbLine
 10
-94.22183372491906
 20
23.5
 30
0.0
 11
-114.5
 21
23.5
 31
0.0
  0
LINE
  5
265
330
668
100
AcDbEntity
  8
DIMNSIONS
  6
Continuous
 62
     7
100
AcDbLine
 10
-112.5
 20
-162.5
 30
0.0
 11
-112.5
 21
23.5
 31
0.0
  0
LINE
  5
266
330
668
100
AcDbEntity
  8
DIMNSIONS
  6
Continuous
 62
     7
100
AcDbLine
 10
-112.5
 20
-162.5
 30
0.0
 11
-113.5717313524412
 21
-158.500244140625
 31
0.0
  0
LINE
  5
267
330
668
100
AcDbEntity
  8
DIMNSIONS
  6
Continuous
 62
     7
100
AcDbLine
 10
-112.5
 20
-162.5
 30
0.0
 11
-111.4282686475588
 21
-158.500244140625
 31
0.0
  0
LINE
  5
268
330
668
100
AcDbEntity
  8
DIMNSIONS
  6
Continuous
 62
     7
100
AcDbLine
 10
-112.5
 20
23.5
 30
0.0
 11
-111.4282686475588
 21
19.500244140625
 31
0.0
  0
LINE
  5
269
330
668
100
AcDbEntity
  8
DIMNSIONS
  6
Continuous
 62
     7
100
AcDbLine
 10
-112.5
 20
23.5
 30
0.0
 11
-113.5717313524412
 21
19.500244140625
 31
0.0
  0
TEXT
  5
26A
330
668
100
AcDbEntity
  8
DIMNSIONS
 62
     7
100
AcDbText
 10
-114.4877777777777
 20
-74.79166666666666
 30
0.0
 40
5.429470486111111
  1
186
 50
90.0
 41
0.7
 11
-119.9172482638888
 21
-74.79166666666666
 31
0.0
100
AcDbText
 73
     3
  0
LINE
  5
26B
330
668
100
AcDbEntity
  8
DIMNSIONS
  6
Continuous
 62
     7
100
AcDbLine
 10
-65.47394247923492
 20
-186.6018301282013
 30
0.0
 11
-50.0
 21
-175.0
 31
0.0
  0
LINE
  5
26C
330
668
100
AcDbEntity
  8
DIMNSIONS
  6
Continuous
 62
     7
100
AcDbLine
 10
-65.47394247923492
 20
-186.6018301282013
 30
0.0
 11
-62.86801989903417
 21
-183.3837837437608
 31
0.0
  0
LINE
  5
26D
330
668
100
AcDbEntity
  8
DIMNSIONS
  6
Continuous
 62
     7
100
AcDbLine
 10
-65.47394247923492
 20
-186.6018301282013
 30
0.0
 11
-61.60812413226539
 21
-185.1178814988196
 31
0.0
  0
LINE
  5
26E
330
668
100
AcDbEntity
  8
DIMNSIONS
  6
Continuous
 62
     7
100
AcDbLine
 10
-50.0
 20
-175.0
 30
0.0
 11
-45.99999999999999
 21
-175.0
 31
0.0
  0
TEXT
  5
26F
330
668
100
AcDbEntity
  8
DIMNSIONS
 62
     7
100
AcDbText
 10
-45.99999999999999
 20
-177.54
 30
0.0
 40
5.429470486111111
  1
φ23.5
 41
0.7
 11
-45.99999999999999
 21
-172.1105295138889
 31
0.0
100
AcDbText
 73
     3
  0
LINE
  5
270
330
668
100
AcDbEntity
  8
DIMNSIONS
  6
Continuous
 62
     7
100
AcDbLine
 10
-87.0
 20
-162.5
 30
0.0
 11
-102.0
 21
-162.5
 31
0.0
  0
LINE
  5
271
330
668
100
AcDbEntity
  8
DIMNSIONS
  6
Continuous
 62
     7
100
AcDbLine
 10
-93.18749999999999
 20
-57.5
 30
0.0
 11
-102.0
 21
-57.5
 31
0.0
  0
LINE
  5
272
330
668
100
AcDbEntity
  8
DIMNSIONS
  6
Continuous
 62
     7
100
AcDbLine
 10
-100.0
 20
-162.5
 30
0.0
 11
-100.0
 21
-57.5
 31
0.0
  0
LINE
  5
273
330
668
100
AcDbEntity
  8
DIMNSIONS
  6
Continuous
 62
     7
100
AcDbLine
 10
-100.0
 20
-162.5
 30
0.0
 11
-101.0717313524412
 21
-158.500244140625
 31
0.0
  0
LINE
  5
274
330
668
100
AcDbEntity
  8
DIMNSIONS
  6
Continuous
 62
     7
100
AcDbLine
 10
-100.0
 20
-162.5
 30
0.0
 11
-98.92826864755882
 21
-158.500244140625
 31
0.0
  0
LINE
  5
275
330
668
100
AcDbEntity
  8
DIMNSIONS
  6
Continuous
 62
     7
100
AcDbLine
 10
-100.0
 20
-57.5
 30
0.0
 11
-98.92826864755882
 21
-61.499755859375
 31
0.0
  0
LINE
  5
276
330
668
100
AcDbEntity
  8
DIMNSIONS
  6
Continuous
 62
     7
100
AcDbLine
 10
-100.0
 20
-57.5
 30
0.0
 11
-101.0717313524412
 21
-61.499755859375
 31
0.0
  0
TEXT
  5
277
330
668
100
AcDbEntity
  8
DIMNSIONS
 62
     7
100
AcDbText
 10
-101.9877777777777
 20
-115.2916666666666
 30
0.0
 40
5.429470486111111
  1
105
 50
90.0
 41
0.7
 11
-107.4172482638888
 21
-115.2916666666666
 31
0.0
100
AcDbText
 73
     3
  0
CIRCLE
  5
278
330
668
100
AcDbEntity
  8
DATA
  6
Continuous
 62
     7
100
AcDbCircle
 10
-74.875
 20
-193.8495801198509
 30
0.0
 40
9.0
  0
CIRCLE
  5
279
330
668
100
AcDbEntity
  8
DATA
  6
Continuous
 62
     7
100
AcDbCircle
 10
-74.875
 20
-189.65
 30
0.0
 40
1.174999999999997
  0
CIRCLE
  5
27A
330
668
100
AcDbEntity
  8
DATA
  6
Continuous
 62
     7
100
AcDbCircle
 10
-78.97500000000002
 20
-193.2444776699017
 30
0.0
 40
1.174999999999997
  0
CIRCLE
  5
27B
330
668
100
AcDbEntity
  8
DATA
  6
Continuous
 62
     7
100
AcDbCircle
 10
-70.77499999999997
 20
-193.2444776699017
 30
0.0
 40
1.174999999999982
  0
TEXT
  5
27C
330
668
100
AcDbEntity
  8
DATA
 62
     7
100
AcDbText
 10
100.0000000499999
 20
-234.2064051153372
 30
0.0
 40
4.88652343994326
  1
C636
 41
0.7
 11
100.0000000499999
 21
-229.319881675394
 31
0.0
100
AcDbText
 73
     3
  0
TEXT
  5
27D
330
668
100
AcDbEntity
  8
DATA
 62
     7
100
AcDbText
 10
100.0000000499999
 20
-219.7064051080872
 30
0.0
 40
4.88652343994326
  1
AKG
 41
0.7
 11
100.0000000499999
 21
-214.819881668144
 31
0.0
100
AcDbText
 73
     3
  0
TEXT
  5
27E
330
668
100
AcDbEntity
  8
DATA
 62
     7
100
AcDbText
 10
-175.0000000874999
 20
-240.7156295630364
 30
0.0
 40
3.800629342178092
  1
※仕様及び外観は予告なく変更されることがあります。
 41
0.7
 11
-175.0000000874999
 21
-236.9150002208583
 31
0.0
100
AcDbText
 73
     3
  0
TEXT
  5
27F
330
668
100
AcDbEntity
  8
DATA
 62
     7
100
AcDbText
 10
-175.0000000874999
 20
-245.6545184543946
 30
0.0
 40
3.800629342178092
  1
　また、同一商品でも若干の個体差があることがあります。ご了承ください。
 41
0.7
 11
-175.0000000874999
 21
-241.8538891122166
 31
0.0
100
AcDbText
 73
     3
  0
LINE
  5
280
330
668
100
AcDbEntity
  8
DATA
  6
Continuous
 62
     7
100
AcDbLine
 10
41.0
 20
-162.5
 30
0.0
 11
59.0
 21
-162.5
 31
0.0
  0
LINE
  5
281
330
668
100
AcDbEntity
  8
DATA
  6
Continuous
 62
     7
100
AcDbLine
 10
24.27077724344748
 20
-14.5
 30
0.0
 11
75.85422275655253
 21
-14.5
 31
0.0
  0
LINE
  5
282
330
668
100
AcDbEntity
  8
DATA
  6
Continuous
 62
     7
100
AcDbLine
 10
24.27077724344748
 20
-21.5
 30
0.0
 11
75.85422275655253
 21
-21.5
 31
0.0
  0
LINE
  5
283
330
668
100
AcDbEntity
  8
DATA
  6
Continuous
 62
     7
100
AcDbLine
 10
26.21250000000001
 20
-14.5
 30
0.0
 11
31.80145295809593
 21
21.80430981327269
 31
0.0
  0
LINE
  5
284
330
668
100
AcDbEntity
  8
DATA
  6
Continuous
 62
     7
100
AcDbLine
 10
73.91249999999998
 20
-14.5
 30
0.0
 11
68.32354704190407
 21
21.80430981327269
 31
0.0
  0
LINE
  5
285
330
668
100
AcDbEntity
  8
DATA
  6
Continuous
 62
     7
100
AcDbLine
 10
33.77816627508097
 20
23.5
 30
0.0
 11
66.34683372491906
 21
23.5
 31
0.0
  0
LINE
  5
286
330
668
100
AcDbEntity
  8
DATA
  6
Continuous
 62
     7
100
AcDbLine
 10
41.0
 20
-162.5
 30
0.0
 11
38.3125
 21
-159.5
 31
0.0
  0
LINE
  5
287
330
668
100
AcDbEntity
  8
DATA
  6
Continuous
 62
     7
100
AcDbLine
 10
59.0
 20
-162.5
 30
0.0
 11
61.8125
 21
-159.5
 31
0.0
  0
LINE
  5
288
330
668
100
AcDbEntity
  8
DATA
  6
Continuous
 62
     7
100
AcDbLine
 10
34.8125
 20
-57.5
 30
0.0
 11
65.3125
 21
-57.5
 31
0.0
  0
LINE
  5
289
330
668
100
AcDbEntity
  8
DATA
  6
Continuous
 62
     7
100
AcDbLine
 10
38.3125
 20
-159.5
 30
0.0
 11
34.8125
 21
-57.5
 31
0.0
  0
LINE
  5
28A
330
668
100
AcDbEntity
  8
DATA
  6
Continuous
 62
     7
100
AcDbLine
 10
61.8125
 20
-159.5
 30
0.0
 11
65.3125
 21
-57.5
 31
0.0
  0
LINE
  5
28B
330
668
100
AcDbEntity
  8
DATA
  6
Continuous
 62
     7
100
AcDbLine
 10
30.0625
 20
-40.49999999999999
 30
0.0
 11
70.0625
 21
-40.49999999999999
 31
0.0
  0
LINE
  5
28C
330
668
100
AcDbEntity
  8
DATA
  6
Continuous
 62
     7
100
AcDbLine
 10
29.97867647058821
 20
-40.2
 30
0.0
 11
70.14632352941179
 21
-40.2
 31
0.0
  0
LINE
  5
28D
330
668
100
AcDbEntity
  8
DATA
  6
Continuous
 62
     7
100
AcDbLine
 10
34.8125
 20
-57.5
 30
0.0
 11
30.06249999999997
 21
-40.49999999999999
 31
0.0
  0
LINE
  5
28E
330
668
100
AcDbEntity
  8
DATA
  6
Continuous
 62
     7
100
AcDbLine
 10
29.97867647058821
 20
-40.2
 30
0.0
 11
28.07867647058822
 21
-33.40000000000002
 31
0.0
  0
LINE
  5
28F
330
668
100
AcDbEntity
  8
DATA
  6
Continuous
 62
     7
100
AcDbLine
 10
65.3125
 20
-57.5
 30
0.0
 11
70.0625
 21
-40.49999999999999
 31
0.0
  0
LINE
  5
290
330
668
100
AcDbEntity
  8
DATA
  6
Continuous
 62
     7
100
AcDbLine
 10
70.14632352941179
 20
-40.2
 30
0.0
 11
72.04632352941178
 21
-33.40000000000002
 31
0.0
  0
LINE
  5
291
330
668
100
AcDbEntity
  8
DATA
  6
Continuous
 62
     7
100
AcDbLine
 10
28.07867647058822
 20
-33.40000000000002
 30
0.0
 11
72.04632352941178
 21
-33.40000000000002
 31
0.0
  0
ARC
  5
292
330
668
100
AcDbEntity
  8
DATA
  6
Continuous
 62
     7
100
AcDbCircle
 10
254.8383485249499
 20
12.06867293275643
 30
0.0
 40
231.0771178983754
100
AcDbArc
 50
188.3529396641758
 51
191.3480466844639
  0
ARC
  5
293
330
668
100
AcDbEntity
  8
DATA
  6
Continuous
 62
     7
100
AcDbCircle
 10
-154.7133485249499
 20
12.06867293275643
 30
0.0
 40
231.0771178983754
100
AcDbArc
 50
348.6519533155361
 51
351.6470603358241
  0
LINE
  5
294
330
668
100
AcDbEntity
  8
DATA
  6
Continuous
 62
     7
100
AcDbLine
 10
28.16249999999996
 20
-33.7
 30
0.0
 11
71.96250000000002
 21
-33.7
 31
0.0
  0
LINE
  5
295
330
668
100
AcDbEntity
  8
DATA
  6
Continuous
 62
     7
100
AcDbLine
 10
31.8125
 20
-40.19999999999998
 30
0.0
 11
31.8125
 21
-40.49999999999999
 31
0.0
  0
LINE
  5
296
330
668
100
AcDbEntity
  8
DATA
  6
Continuous
 62
     7
100
AcDbLine
 10
68.3125
 20
-40.19999999999998
 30
0.0
 11
68.3125
 21
-40.49999999999999
 31
0.0
  0
ARC
  5
297
330
668
100
AcDbEntity
  8
DATA
  6
Continuous
 62
     7
100
AcDbCircle
 10
53.57455615806671
 20
-18.0
 30
0.0
 40
29.5120561580667
100
AcDbArc
 50
173.1889424160222
 51
186.8110575839778
  0
ARC
  5
298
330
668
100
AcDbEntity
  8
DATA
  6
Continuous
 62
     7
100
AcDbCircle
 10
46.55044384193328
 20
-18.0
 30
0.0
 40
29.51205615806672
100
AcDbArc
 50
353.1889424160223
 51
6.811057583977744
  0
CIRCLE
  5
299
330
668
100
AcDbEntity
  8
DATA
  6
Continuous
 62
     7
100
AcDbCircle
 10
50.06250000000002
 20
-145.5
 30
0.0
 40
2.5
  0
LINE
  5
29A
330
668
100
AcDbEntity
  8
DATA
  6
Continuous
 62
     7
100
AcDbLine
 10
48.79660110988279
 20
-145.5
 30
0.0
 11
51.32839889011721
 21
-145.5
 31
0.0
  0
LINE
  5
29B
330
668
100
AcDbEntity
  8
DATA
  6
Continuous
 62
     7
100
AcDbLine
 10
50.06250000000002
 20
-146.7658988901172
 30
0.0
 11
50.06250000000002
 21
-144.2341011098828
 31
0.0
  0
LINE
  5
29C
330
668
100
AcDbEntity
  8
DATA
  6
Continuous
 62
     7
100
AcDbLine
 10
48.81249999999999
 20
-95.75000000000001
 30
0.0
 11
48.81249999999999
 21
-101.25
 31
0.0
  0
ARC
  5
29D
330
668
100
AcDbEntity
  8
DATA
  6
Continuous
 62
     7
100
AcDbCircle
 10
50.06249999999999
 20
-95.75000000000001
 30
0.0
 40
1.25
100
AcDbArc
 50
0.0
 51
180.0
  0
ARC
  5
29E
330
668
100
AcDbEntity
  8
DATA
  6
Continuous
 62
     7
100
AcDbCircle
 10
50.06249999999999
 20
-101.25
 30
0.0
 40
1.25
100
AcDbArc
 50
180.0
 51
0.0
  0
LINE
  5
29F
330
668
100
AcDbEntity
  8
DATA
  6
Continuous
 62
     7
100
AcDbLine
 10
51.31249999999999
 20
-101.25
 30
0.0
 11
51.31249999999999
 21
-95.75000000000001
 31
0.0
  0
LINE
  5
2A0
330
668
100
AcDbEntity
  8
DATA
  6
Continuous
 62
     7
100
AcDbLine
 10
48.81249999999999
 20
-98.2436600454598
 30
0.0
 11
51.31249999999999
 21
-98.2436600454598
 31
0.0
  0
LINE
  5
2A1
330
668
100
AcDbEntity
  8
DATA
  6
Continuous
 62
     7
100
AcDbLine
 10
46.81249999999999
 20
-101.25
 30
0.0
 11
46.81249999999999
 21
-95.75000000000001
 31
0.0
  0
LINE
  5
2A2
330
668
100
AcDbEntity
  8
DATA
  6
Continuous
 62
     7
100
AcDbLine
 10
53.31249999999999
 20
-95.75000000000001
 30
0.0
 11
53.31249999999999
 21
-101.25
 31
0.0
  0
ARC
  5
2A3
330
668
100
AcDbEntity
  8
DATA
  6
Continuous
 62
     7
100
AcDbCircle
 10
50.0625
 20
-95.75000000000001
 30
0.0
 40
3.25
100
AcDbArc
 50
0.0
 51
180.0
  0
ARC
  5
2A4
330
668
100
AcDbEntity
  8
DATA
  6
Continuous
 62
     7
100
AcDbCircle
 10
50.0625
 20
-101.25
 30
0.0
 40
3.250000000000014
100
AcDbArc
 50
180.0
 51
0.0
  0
LINE
  5
2A5
330
668
100
AcDbEntity
  8
DATA
  6
Continuous
 62
     7
100
AcDbLine
 10
48.81249999999999
 20
-96.44366004545981
 30
0.0
 11
51.31249999999999
 21
-96.44366004545981
 31
0.0
  0
LINE
  5
2A6
330
668
100
AcDbEntity
  8
DATA
  6
Continuous
 62
     7
100
AcDbLine
 10
46.16899461271832
 20
-96.55180335420205
 30
0.0
 11
44.16899461271833
 21
-96.55180335420205
 31
0.0
  0
LINE
  5
2A7
330
668
100
AcDbEntity
  8
DATA
  6
Continuous
 62
     7
100
AcDbLine
 10
45.16899461271834
 20
-100.1048141198105
 30
0.0
 11
46.16899461271832
 21
-100.1048141198105
 31
0.0
  0
LINE
  5
2A8
330
668
100
AcDbEntity
  8
DATA
  6
Continuous
 62
     7
100
AcDbLine
 10
45.16899461271834
 20
-100.1048141198105
 30
0.0
 11
44.16899461271832
 21
-100.5755542537011
 31
0.0
  0
TEXT
  5
2A9
330
668
100
AcDbEntity
  8
DATA
 62
     7
100
AcDbText
 10
54.63516093194296
 20
-97.38352117354255
 30
0.0
 40
2.462807812499993
  1
lin
 41
0.7
 72
     1
 11
55.92813503350545
 21
-96.15211726729256
 31
0.0
100
AcDbText
 73
     2
  0
TEXT
  5
2AA
330
668
100
AcDbEntity
  8
DATA
 62
     7
100
AcDbText
 10
54.07312472367832
 20
-102.2819393145039
 30
0.0
 40
2.462807812499993
  1
80Hz
 41
0.7
 72
     1
 11
57.09006429399082
 21
-101.0505354082539
 31
0.0
100
AcDbText
 73
     2
  0
ARC
  5
2AB
330
668
100
AcDbEntity
  8
DATA
  6
Continuous
 62
     7
100
AcDbCircle
 10
33.77816627508097
 20
21.5
 30
0.0
 40
2.0
100
AcDbArc
 50
90.0
 51
171.2481727404775
  0
ARC
  5
2AC
330
668
100
AcDbEntity
  8
DATA
  6
Continuous
 62
     7
100
AcDbCircle
 10
66.34683372491906
 20
21.5
 30
0.0
 40
1.999999999999988
100
AcDbArc
 50
8.751827259522494
 51
90.0
  0
CIRCLE
  5
2AD
330
668
100
AcDbEntity
  8
DATA
  6
Continuous
 62
     7
100
AcDbCircle
 10
-74.875
 20
56.34958011985088
 30
0.0
 40
17.58652041918653
  0
CIRCLE
  5
2AE
330
668
100
AcDbEntity
  8
DATA
  6
Continuous
 62
     7
100
AcDbCircle
 10
-74.875
 20
56.34958011985088
 30
0.0
 40
24.69306049822063
  0
CIRCLE
  5
2AF
330
668
100
AcDbEntity
  8
DATA
  6
Continuous
 62
     7
100
AcDbCircle
 10
-74.875
 20
-193.8495801198509
 30
0.0
 40
24.69306049822063
  0
CIRCLE
  5
2B0
330
668
100
AcDbEntity
  8
DATA
  6
Continuous
 62
     7
100
AcDbCircle
 10
-74.87500000000003
 20
-193.8495801198509
 30
0.0
 40
22.00000000000005
  0
CIRCLE
  5
2B1
330
668
100
AcDbEntity
  8
DATA
  6
Continuous
 62
     7
100
AcDbCircle
 10
-74.875
 20
56.25
 30
0.0
 40
26.00019069545969
  0
CIRCLE
  5
2B2
330
668
100
AcDbEntity
  8
DATA
  6
Continuous
 62
     7
100
AcDbCircle
 10
-74.875
 20
-193.75
 30
0.0
 40
26.00019069545969
  0
CIRCLE
  5
2B3
330
668
100
AcDbEntity
  8
DATA
  6
Continuous
 62
     7
100
AcDbCircle
 10
-74.875
 20
-193.8495801198509
 30
0.0
 40
11.75
  0
CIRCLE
  5
2B4
330
668
100
AcDbEntity
  8
DATA
  6
Continuous
 62
     7
100
AcDbCircle
 10
-74.875
 20
-193.8495801198509
 30
0.0
 40
15.00000000000001
  0
LINE
  5
2B5
330
668
100
AcDbEntity
  8
DATA
  6
Continuous
 62
     7
100
AcDbLine
 10
-38.22922275655253
 20
-14.5
 30
0.0
 11
13.35422275655253
 21
-14.5
 31
0.0
  0
LINE
  5
2B6
330
668
100
AcDbEntity
  8
DATA
  6
Continuous
 62
     7
100
AcDbLine
 10
-38.22922275655253
 20
-21.5
 30
0.0
 11
13.35422275655253
 21
-21.5
 31
0.0
  0
LINE
  5
2B7
330
668
100
AcDbEntity
  8
DATA
  6
Continuous
 62
     7
100
AcDbLine
 10
-36.2875
 20
-14.5
 30
0.0
 11
-30.69854704190407
 21
21.80430981327269
 31
0.0
  0
LINE
  5
2B8
330
668
100
AcDbEntity
  8
DATA
  6
Continuous
 62
     7
100
AcDbLine
 10
11.41249999999999
 20
-14.5
 30
0.0
 11
5.823547041904077
 21
21.80430981327269
 31
0.0
  0
LINE
  5
2B9
330
668
100
AcDbEntity
  8
DATA
  6
Continuous
 62
     7
100
AcDbLine
 10
-28.72183372491904
 20
23.5
 30
0.0
 11
3.846833724919051
 21
23.5
 31
0.0
  0
ARC
  5
2BA
330
668
100
AcDbEntity
  8
DATA
  6
Continuous
 62
     7
100
AcDbCircle
 10
192.3383485249499
 20
12.06867293275643
 30
0.0
 40
231.0771178983754
100
AcDbArc
 50
188.3529396641758
 51
191.3480466844639
  0
ARC
  5
2BB
330
668
100
AcDbEntity
  8
DATA
  6
Continuous
 62
     7
100
AcDbCircle
 10
-217.2133485249499
 20
12.06867293275643
 30
0.0
 40
231.0771178983754
100
AcDbArc
 50
348.6519533155361
 51
351.6470603358241
  0
ARC
  5
2BC
330
668
100
AcDbEntity
  8
DATA
  6
Continuous
 62
     7
100
AcDbCircle
 10
-8.925443841933287
 20
-18.0
 30
0.0
 40
29.5120561580667
100
AcDbArc
 50
173.1889424160222
 51
186.8110575839778
  0
ARC
  5
2BD
330
668
100
AcDbEntity
  8
DATA
  6
Continuous
 62
     7
100
AcDbCircle
 10
-15.94955615806671
 20
-18.0
 30
0.0
 40
29.5120561580667
100
AcDbArc
 50
353.1889424160223
 51
6.811057583977744
  0
ARC
  5
2BE
330
668
100
AcDbEntity
  8
DATA
  6
Continuous
 62
     7
100
AcDbCircle
 10
-28.72183372491904
 20
21.5
 30
0.0
 40
2.0
100
AcDbArc
 50
90.0
 51
171.2481727404775
  0
ARC
  5
2BF
330
668
100
AcDbEntity
  8
DATA
  6
Continuous
 62
     7
100
AcDbCircle
 10
3.846833724919065
 20
21.5
 30
0.0
 40
1.999999999999988
100
AcDbArc
 50
8.751827259522494
 51
90.00000000000044
  0
LINE
  5
2C0
330
668
100
AcDbEntity
  8
DATA
  6
Continuous
 62
     7
100
AcDbLine
 10
-100.7292227565525
 20
-14.5
 30
0.0
 11
-49.14577724344745
 21
-14.5
 31
0.0
  0
LINE
  5
2C1
330
668
100
AcDbEntity
  8
DATA
  6
Continuous
 62
     7
100
AcDbLine
 10
-100.7292227565525
 20
-21.5
 30
0.0
 11
-49.14577724344745
 21
-21.5
 31
0.0
  0
LINE
  5
2C2
330
668
100
AcDbEntity
  8
DATA
  6
Continuous
 62
     7
100
AcDbLine
 10
-98.7875
 20
-14.5
 30
0.0
 11
-93.19854704190406
 21
21.80430981327269
 31
0.0
  0
LINE
  5
2C3
330
668
100
AcDbEntity
  8
DATA
  6
Continuous
 62
     7
100
AcDbLine
 10
-51.08750000000001
 20
-14.5
 30
0.0
 11
-56.67645295809592
 21
21.80430981327269
 31
0.0
  0
LINE
  5
2C4
330
668
100
AcDbEntity
  8
DATA
  6
Continuous
 62
     7
100
AcDbLine
 10
-91.22183372491905
 20
23.5
 30
0.0
 11
-58.65316627508096
 21
23.5
 31
0.0
  0
ARC
  5
2C5
330
668
100
AcDbEntity
  8
DATA
  6
Continuous
 62
     7
100
AcDbCircle
 10
129.8383485249499
 20
12.06867293275643
 30
0.0
 40
231.0771178983754
100
AcDbArc
 50
188.3529396641758
 51
191.3480466844639
  0
ARC
  5
2C6
330
668
100
AcDbEntity
  8
DATA
  6
Continuous
 62
     7
100
AcDbCircle
 10
-279.7133485249499
 20
12.06867293275643
 30
0.0
 40
231.0771178983754
100
AcDbArc
 50
348.6519533155361
 51
351.6470603358241
  0
ARC
  5
2C7
330
668
100
AcDbEntity
  8
DATA
  6
Continuous
 62
     7
100
AcDbCircle
 10
-71.4254438419333
 20
-18.0
 30
0.0
 40
29.5120561580667
100
AcDbArc
 50
173.1889424160222
 51
186.8110575839778
  0
ARC
  5
2C8
330
668
100
AcDbEntity
  8
DATA
  6
Continuous
 62
     7
100
AcDbCircle
 10
-78.4495561580667
 20
-18.0
 30
0.0
 40
29.5120561580667
100
AcDbArc
 50
353.1889424160223
 51
6.811057583977744
  0
ARC
  5
2C9
330
668
100
AcDbEntity
  8
DATA
  6
Continuous
 62
     7
100
AcDbCircle
 10
-91.22183372491905
 20
21.5
 30
0.0
 40
2.0
100
AcDbArc
 50
90.0
 51
171.2481727404775
  0
ARC
  5
2CA
330
668
100
AcDbEntity
  8
DATA
  6
Continuous
 62
     7
100
AcDbCircle
 10
-58.65316627508094
 20
21.5
 30
0.0
 40
1.999999999999988
100
AcDbArc
 50
8.751827259522494
 51
90.00000000000044
  0
LWPOLYLINE
  5
2CB
330
668
100
AcDbEntity
  8
DATA
  6
Continuous
 62
     7
100
AcDbPolyline
 90
      770
 70
   129
 43
0.0
 10
-78.68750000000003
 20
-75.10529041877837
 10
-78.6330473600702
 20
-75.07101993948518
 10
-78.57846325632862
 20
-75.03728915277934
 10
-78.52374768877526
 20
-75.00409805866073
 10
-78.46890065741018
 20
-74.97144665712942
 10
-78.41392216223335
 20
-74.93933494818543
 10
-78.35881220324475
 20
-74.90776293182874
 10
-78.30357078044444
 20
-74.87673060805933
 10
-78.24819789383234
 20
-74.84623797687721
 10
-78.1926935434085
 20
-74.8162850382824
 10
-78.13705772917291
 20
-74.78687179227485
 10
-78.08129045112557
 20
-74.75799823885461
 10
-78.02539170926646
 20
-74.7296643780217
 10
-77.96936150359563
 20
-74.70187020977603
 10
-77.91319983411302
 20
-74.67461573411769
 10
-77.85690670081867
 20
-74.64790095104659
 10
-77.80048210371258
 20
-74.62172586056283
 10
-77.74392604279469
 20
-74.59609046266638
 10
-77.68723851806509
 20
-74.57099475735718
 10
-77.63041952952376
 20
-74.54643874463531
 10
-77.57346907717064
 20
-74.5224224245007
 10
-77.51638716100578
 20
-74.49894579695342
 10
-77.45917378102916
 20
-74.47600886199342
 10
-77.40182893724081
 20
-74.45361161962073
 10
-77.34435262964068
 20
-74.43175406983531
 10
-77.28674485822883
 20
-74.41043621263718
 10
-77.2290056230052
 20
-74.38965804802638
 10
-77.17113492396984
 20
-74.36941957600284
 10
-77.11313276112273
 20
-74.34972079656659
 10
-77.05499913446387
 20
-74.33056170971766
 10
-76.99673404399323
 20
-74.311942315456
 10
-76.93833748971086
 20
-74.29386261378166
 10
-76.87980947161674
 20
-74.2763226046946
 10
-76.82114998971086
 20
-74.25932228819485
 10
-76.76235904399323
 20
-74.24286166428237
 10
-76.70343663446387
 20
-74.2269407329572
 10
-76.64438276112273
 20
-74.21155949421929
 10
-76.58519742396984
 20
-74.19671794806871
 10
-76.5258806230052
 20
-74.18241609450539
 10
-76.46643235822883
 20
-74.1686539335294
 10
-76.40685262964068
 20
-74.15543146514071
 10
-76.34714143724081
 20
-74.14274868933929
 10
-76.28729878102916
 20
-74.13060560612518
 10
-76.22732466100578
 20
-74.11900221549837
 10
-76.16721907717064
 20
-74.10793851745883
 10
-76.10698202952376
 20
-74.09741451200659
 10
-76.04661351806509
 20
-74.08743019914165
 10
-75.98611354279469
 20
-74.077985578864
 10
-75.92548210371255
 20
-74.06908065117367
 10
-75.86471920081864
 20
-74.06071541607059
 10
-75.80382483411298
 20
-74.05288987355482
 10
-75.74279900359558
 20
-74.04560402362635
 10
-75.68164170926642
 20
-74.03885786628517
 10
-75.62035295112554
 20
-74.0326514015313
 10
-75.55893272917288
 20
-74.0269846293647
 10
-75.49738104340848
 20
-74.02185754978543
 10
-75.43569789383231
 20
-74.01727016279342
 10
-75.37388328044442
 20
-74.0132224683887
 10
-75.31193720324475
 20
-74.0097144665713
 10
-75.24985966223335
 20
-74.00674615734117
 10
-75.18765065741018
 20
-74.00431754069835
 10
-75.12531018877526
 20
-74.00242861664283
 10
-75.06283825632862
 20
-74.00107938517459
 10
-75.0002348600702
 20
-74.00026984629362
 10
-74.93750000000002
 20
-74.0
 10
-74.8747651399298
 20
-74.00026984629362
 10
-74.81216174367141
 20
-74.00107938517459
 10
-74.74968981122474
 20
-74.00242861664283
 10
-74.68734934258984
 20
-74.00431754069835
 10
-74.62514033776668
 20
-74.00674615734117
 10
-74.56306279675526
 20
-74.0097144665713
 10
-74.50111671955562
 20
-74.0132224683887
 10
-74.4393021061677
 20
-74.01727016279342
 10
-74.37761895659154
 20
-74.02185754978543
 10
-74.31606727082715
 20
-74.0269846293647
 10
-74.2546470488745
 20
-74.0326514015313
 10
-74.19335829073357
 20
-74.03885786628517
 10
-74.13220099640444
 20
-74.04560402362635
 10
-74.07117516588705
 20
-74.05288987355482
 10
-74.01028079918138
 20
-74.06071541607059
 10
-73.94951789628747
 20
-74.06908065117367
 10
-73.88888645720531
 20
-74.077985578864
 10
-73.82838648193491
 20
-74.08743019914165
 10
-73.7680179704763
 20
-74.09741451200659
 10
-73.70778092282937
 20
-74.10793851745883
 10
-73.64767533899423
 20
-74.11900221549837
 10
-73.58770121897086
 20
-74.13060560612518
 10
-73.52785856275922
 20
-74.14274868933929
 10
-73.46814737035932
 20
-74.15543146514071
 10
-73.4085676417712
 20
-74.1686539335294
 10
-73.3491193769948
 20
-74.18241609450539
 10
-73.28980257603018
 20
-74.19671794806871
 10
-73.2306172388773
 20
-74.21155949421929
 10
-73.17156336553619
 20
-74.2269407329572
 10
-73.1126409560068
 20
-74.24286166428237
 10
-73.05385001028915
 20
-74.25932228819485
 10
-72.99519052838329
 20
-74.2763226046946
 10
-72.93666251028915
 20
-74.29386261378166
 10
-72.8782659560068
 20
-74.311942315456
 10
-72.82000086553619
 20
-74.33056170971766
 10
-72.7618672388773
 20
-74.34972079656659
 10
-72.70386507603018
 20
-74.36941957600284
 10
-72.6459943769948
 20
-74.38965804802638
 10
-72.5882551417712
 20
-74.41043621263718
 10
-72.53064737035932
 20
-74.43175406983531
 10
-72.47317106275922
 20
-74.45361161962073
 10
-72.41582621897086
 20
-74.47600886199342
 10
-72.35861283899423
 20
-74.49894579695342
 10
-72.30153092282937
 20
-74.5224224245007
 10
-72.2445804704763
 20
-74.54643874463531
 10
-72.18776148193491
 20
-74.57099475735718
 10
-72.13107395720531
 20
-74.59609046266638
 10
-72.07451789628745
 20
-74.62172586056283
 10
-72.01809329918136
 20
-74.64790095104659
 10
-71.96180016588701
 20
-74.67461573411769
 10
-71.9056384964044
 20
-74.70187020977603
 10
-71.84960829073357
 20
-74.7296643780217
 10
-71.79370954887446
 20
-74.75799823885461
 10
-71.73794227082712
 20
-74.78687179227485
 10
-71.68230645659154
 20
-74.8162850382824
 10
-71.62680210616769
 20
-74.84623797687721
 10
-71.5714292195556
 20
-74.87673060805933
 10
-71.51618779675529
 20
-74.90776293182874
 10
-71.46107783776668
 20
-74.93933494818543
 10
-71.40609934258984
 20
-74.97144665712942
 10
-71.35125231122477
 20
-75.00409805866073
 10
-71.29653674367144
 20
-75.03728915277934
 10
-71.24195263992985
 20
-75.07101993948518
 10
-71.1875
 20
-75.10529041877837
 10
-71.13329267488257
 20
-75.14002828556236
 10
-71.07944451557822
 20
-75.17516123474075
 10
-71.0259555220869
 20
-75.21068926631349
 10
-70.97282569440867
 20
-75.24661238028061
 10
-70.9200550325435
 20
-75.28293057664207
 10
-70.86764353649137
 20
-75.31964385539791
 10
-70.81559120625231
 20
-75.35675221654813
 10
-70.76389804182631
 20
-75.39425566009271
 10
-70.71256404321339
 20
-75.43215418603165
 10
-70.66158921041351
 20
-75.47044779436498
 10
-70.6109735434267
 20
-75.50913648509267
 10
-70.56071704225295
 20
-75.54822025821472
 10
-70.51081970689228
 20
-75.58769911373113
 10
-70.46128153734466
 20
-75.62757305164194
 10
-70.41210253361008
 20
-75.66784207194709
 10
-70.36328269568858
 20
-75.7085061746466
 10
-70.31482202358015
 20
-75.74956535974052
 10
-70.26672051728478
 20
-75.79101962722877
 10
-70.21897817680244
 20
-75.83286897711139
 10
-70.17159500213319
 20
-75.87511340938838
 10
-70.12457099327699
 20
-75.91775292405974
 10
-70.07790615023385
 20
-75.96078752112546
 10
-70.03160047300378
 20
-76.00421720058557
 10
-69.98565396158676
 20
-76.04804196244003
 10
-69.9400666159828
 20
-76.09226180668887
 10
-69.89483843619192
 20
-76.13687673333206
 10
-69.8499694222141
 20
-76.18188674236963
 10
-69.80545957404934
 20
-76.22729183380156
 10
-69.76130889169765
 20
-76.27309200762785
 10
-69.71751737515899
 20
-76.31928726384851
 10
-69.6740850244334
 20
-76.36587760246356
 10
-69.63101183952088
 20
-76.41286302347295
 10
-69.58829782042141
 20
-76.46024352687674
 10
-69.54594296713503
 20
-76.50801911267485
 10
-69.5039472796617
 20
-76.55618978086737
 10
-69.46231075800142
 20
-76.60475553145428
 10
-69.42103340215419
 20
-76.65371636443548
 10
-69.38011521212004
 20
-76.70307227981111
 10
-69.33955618789894
 20
-76.75282327758108
 10
-69.29935632949093
 20
-76.80296935774544
 10
-69.25951563689597
 20
-76.85351052030414
 10
-69.22003411011407
 20
-76.90444676525723
 10
-69.18091174914522
 20
-76.95577809260467
 10
-69.14214855398944
 20
-77.00750450234649
 10
-69.10374452464671
 20
-77.05962599448267
 10
-69.06569966111705
 20
-77.11214256901323
 10
-69.02801396340047
 20
-77.16505422593816
 10
-68.99068743149692
 20
-77.21836096525743
 10
-68.95372006540644
 20
-77.27206278697109
 10
-68.91711186512904
 20
-77.3261596910791
 10
-68.88086283066468
 20
-77.38065167758148
 10
-68.8449729620134
 20
-77.43553874647822
 10
-68.80944225917517
 20
-77.49082089776938
 10
-68.77427072215001
 20
-77.54649813145483
 10
-68.73945835093789
 20
-77.6025704475347
 10
-68.70500514553885
 20
-77.65903784600894
 10
-68.67091110595286
 20
-77.71590032687756
 10
-68.63717623217993
 20
-77.77315789014051
 10
-68.60380052422008
 20
-77.83081053579786
 10
-68.57078398207329
 20
-77.88885826384954
 10
-68.53812660573954
 20
-77.94730107429562
 10
-68.50582839521888
 20
-78.00613896713601
 10
-68.47388935051125
 20
-78.06537194237083
 10
-68.44230947161671
 20
-78.125
 10
-68.41115449044109
 20
-78.18489790392281
 10
-68.3804901388903
 20
-78.24494041803855
 10
-68.35031641696431
 20
-78.30512754234722
 10
-68.32063332466315
 20
-78.36545927684881
 10
-68.29144086198677
 20
-78.42593562154333
 10
-68.26273902893523
 20
-78.48655657643077
 10
-68.23452782550848
 20
-78.54732214151116
 10
-68.20680725170653
 20
-78.60823231678445
 10
-68.17957730752944
 20
-78.66928710225069
 10
-68.15283799297714
 20
-78.7304864979098
 10
-68.12658930804966
 20
-78.7918305037619
 10
-68.10083125274697
 20
-78.85331911980691
 10
-68.07556382706912
 20
-78.91495234604484
 10
-68.05078703101606
 20
-78.9767301824757
 10
-68.02650086458783
 20
-79.03865262909949
 10
-68.0027053277844
 20
-79.10071968591619
 10
-67.97940042060578
 20
-79.16293135292587
 10
-67.956586143052
 20
-79.22528763012841
 10
-67.934262495123
 20
-79.28778851752389
 10
-67.91242947681881
 20
-79.35043401511229
 10
-67.89108708813947
 20
-79.41322412289365
 10
-67.87023532908492
 20
-79.47615884086795
 10
-67.84987419965519
 20
-79.53923816903515
 10
-67.83000369985025
 20
-79.60246210739528
 10
-67.81062382967014
 20
-79.66583065594831
 10
-67.79173458911486
 20
-79.7293438146943
 10
-67.77333597818439
 20
-79.79300158363322
 10
-67.75542799687872
 20
-79.85680396276504
 10
-67.73801064519786
 20
-79.92075095208979
 10
-67.72108392314182
 20
-79.98484255160747
 10
-67.7046478307106
 20
-80.04907876131806
 10
-67.68870236790417
 20
-80.11345958122163
 10
-67.67324753472258
 20
-80.17798501131805
 10
-67.65828333116577
 20
-80.24265505160746
 10
-67.6438097572338
 20
-80.30746970208978
 10
-67.62982681292665
 20
-80.37242896276504
 10
-67.61633449824429
 20
-80.43753283363322
 10
-67.60333281318674
 20
-80.50278131469431
 10
-67.59082175775401
 20
-80.56817440594832
 10
-67.57880133194611
 20
-80.63371210739529
 10
-67.56727153576299
 20
-80.69939441903514
 10
-67.5562323692047
 20
-80.76522134086795
 10
-67.54568383227123
 20
-80.83119287289365
 10
-67.53562592496257
 20
-80.89730901511229
 10
-67.52605864727872
 20
-80.96356976752389
 10
-67.51698199921968
 20
-81.02997513012841
 10
-67.50839598078545
 20
-81.09652510292587
 10
-67.50030059197604
 20
-81.16321968591618
 10
-67.49269583279143
 20
-81.23005887909949
 10
-67.48558170323166
 20
-81.2970426824757
 10
-67.47895820329668
 20
-81.36417109604485
 10
-67.47282533298653
 20
-81.4314441198069
 10
-67.46718309230118
 20
-81.4988617537619
 10
-67.46203148124064
 20
-81.5664239979098
 10
-67.45737049980492
 20
-81.63413085225069
 10
-67.453200147994
 20
-81.70198231678446
 10
-67.44952042580791
 20
-81.76997839151116
 10
-67.44633133324663
 20
-81.83811907643077
 10
-67.44363287031017
 20
-81.90640437154334
 10
-67.44142503699851
 20
-81.97483427684881
 10
-67.43970783331167
 20
-82.04340879234722
 10
-67.43848125924962
 20
-82.11212791803855
 10
-67.4377453148124
 20
-82.18099165392281
 10
-67.4375
 20
-82.24999999999999
 10
-67.4377453148124
 20
-82.31900834607719
 10
-67.43848125924962
 20
-82.38787208196145
 10
-67.43970783331167
 20
-82.45659120765276
 10
-67.44142503699851
 20
-82.52516572315119
 10
-67.44363287031017
 20
-82.59359562845666
 10
-67.44633133324663
 20
-82.66188092356923
 10
-67.44952042580791
 20
-82.73002160848884
 10
-67.453200147994
 20
-82.79801768321554
 10
-67.45737049980492
 20
-82.86586914774931
 10
-67.46203148124064
 20
-82.93357600209018
 10
-67.46718309230118
 20
-83.00113824623808
 10
-67.47282533298653
 20
-83.06855588019308
 10
-67.47895820329668
 20
-83.13582890395514
 10
-67.48558170323166
 20
-83.20295731752429
 10
-67.49269583279143
 20
-83.26994112090051
 10
-67.50030059197604
 20
-83.3367803140838
 10
-67.50839598078545
 20
-83.40347489707413
 10
-67.51698199921968
 20
-83.47002486987157
 10
-67.52605864727872
 20
-83.53643023247609
 10
-67.53562592496257
 20
-83.60269098488769
 10
-67.54568383227123
 20
-83.66880712710635
 10
-67.5562323692047
 20
-83.73477865913207
 10
-67.56727153576299
 20
-83.80060558096484
 10
-67.57880133194611
 20
-83.86628789260473
 10
-67.59082175775401
 20
-83.93182559405166
 10
-67.60333281318674
 20
-83.99721868530569
 10
-67.61633449824429
 20
-84.06246716636678
 10
-67.62982681292665
 20
-84.12757103723492
 10
-67.6438097572338
 20
-84.19253029791018
 10
-67.65828333116577
 20
-84.25734494839252
 10
-67.67324753472258
 20
-84.32201498868193
 10
-67.68870236790417
 20
-84.38654041877837
 10
-67.7046478307106
 20
-84.45092123868194
 10
-67.72108392314182
 20
-84.51515744839253
 10
-67.73801064519786
 20
-84.57924904791019
 10
-67.75542799687872
 20
-84.64319603723494
 10
-67.77333597818439
 20
-84.70699841636678
 10
-67.79173458911486
 20
-84.7706561853057
 10
-67.81062382967014
 20
-84.83416934405166
 10
-67.83000369985025
 20
-84.89753789260474
 10
-67.84987419965519
 20
-84.96076183096484
 10
-67.87023532908492
 20
-85.02384115913207
 10
-67.89108708813947
 20
-85.08677587710634
 10
-67.91242947681881
 20
-85.14956598488769
 10
-67.934262495123
 20
-85.2122114824761
 10
-67.956586143052
 20
-85.27471236987159
 10
-67.97940042060578
 20
-85.33706864707413
 10
-68.0027053277844
 20
-85.39928031408379
 10
-68.02650086458783
 20
-85.46134737090051
 10
-68.05078703101606
 20
-85.52326981752429
 10
-68.07556382706912
 20
-85.58504765395515
 10
-68.10083125274697
 20
-85.64668088019308
 10
-68.12658930804966
 20
-85.70816949623809
 10
-68.15283799297714
 20
-85.7695135020902
 10
-68.17957730752944
 20
-85.83071289774931
 10
-68.20680725170653
 20
-85.89176768321555
 10
-68.23452782550848
 20
-85.95267785848884
 10
-68.26273902893523
 20
-86.01344342356922
 10
-68.29144086198677
 20
-86.07406437845666
 10
-68.32063332466315
 20
-86.1345407231512
 10
-68.35031641696431
 20
-86.19487245765276
 10
-68.3804901388903
 20
-86.25505958196145
 10
-68.41115449044109
 20
-86.3151020960772
 10
-68.44230947161671
 20
-86.37500000000001
 10
-68.47388935051125
 20
-86.43462805762917
 10
-68.50582839521888
 20
-86.49386103286396
 10
-68.53812660573954
 20
-86.55269892570439
 10
-68.57078398207329
 20
-86.61114173615045
 10
-68.60380052422008
 20
-86.66918946420214
 10
-68.63717623217993
 20
-86.72684210985947
 10
-68.67091110595286
 20
-86.78409967312244
 10
-68.70500514553885
 20
-86.84096215399106
 10
-68.73945835093789
 20
-86.89742955246527
 10
-68.77427072215001
 20
-86.95350186854513
 10
-68.80944225917517
 20
-87.00917910223061
 10
-68.8449729620134
 20
-87.06446125352172
 10
-68.88086283066468
 20
-87.11934832241849
 10
-68.91711186512904
 20
-87.17384030892088
 10
-68.95372006540644
 20
-87.2279372130289
 10
-68.99068743149692
 20
-87.28163903474257
 10
-69.02801396340047
 20
-87.33494577406185
 10
-69.06569966111705
 20
-87.38785743098677
 10
-69.10374452464671
 20
-87.4403740055173
 10
-69.14214855398944
 20
-87.4924954976535
 10
-69.18091174914522
 20
-87.54422190739532
 10
-69.22003411011407
 20
-87.59555323474275
 10
-69.25951563689597
 20
-87.64648947969583
 10
-69.29935632949093
 20
-87.69703064225456
 10
-69.33955618789894
 20
-87.74717672241889
 10
-69.38011521212004
 20
-87.79692772018888
 10
-69.42103340215419
 20
-87.8462836355645
 10
-69.46231075800142
 20
-87.89524446854574
 10
-69.5039472796617
 20
-87.94381021913261
 10
-69.54594296713503
 20
-87.99198088732515
 10
-69.58829782042141
 20
-88.03975647312325
 10
-69.63101183952088
 20
-88.08713697652702
 10
-69.6740850244334
 20
-88.13412239753644
 10
-69.71751737515899
 20
-88.18071273615146
 10
-69.76130889169765
 20
-88.22690799237212
 10
-69.80545957404934
 20
-88.27270816619844
 10
-69.8499694222141
 20
-88.31811325763037
 10
-69.89483843619192
 20
-88.36312326666794
 10
-69.9400666159828
 20
-88.40773819331113
 10
-69.98565396158676
 20
-88.45195803755997
 10
-70.03160047300378
 20
-88.49578279941445
 10
-70.07790615023385
 20
-88.53921247887454
 10
-70.12457099327699
 20
-88.58224707594025
 10
-70.17159500213319
 20
-88.62488659061162
 10
-70.21897817680244
 20
-88.6671310228886
 10
-70.26672051728478
 20
-88.70898037277122
 10
-70.31482202358015
 20
-88.75043464025948
 10
-70.36328269568858
 20
-88.79149382535336
 10
-70.41210253361008
 20
-88.83215792805291
 10
-70.46128153734466
 20
-88.87242694835808
 10
-70.51081970689228
 20
-88.91230088626883
 10
-70.56071704225295
 20
-88.95177974178526
 10
-70.6109735434267
 20
-88.99086351490732
 10
-70.66158921041351
 20
-89.02955220563502
 10
-70.71256404321339
 20
-89.06784581396834
 10
-70.76389804182631
 20
-89.10574433990726
 10
-70.81559120625231
 20
-89.14324778345187
 10
-70.86764353649137
 20
-89.18035614460206
 10
-70.9200550325435
 20
-89.21706942335791
 10
-70.97282569440867
 20
-89.25338761971939
 10
-71.0259555220869
 20
-89.2893107336865
 10
-71.07944451557822
 20
-89.32483876525923
 10
-71.13329267488257
 20
-89.3599717144376
 10
-71.1875
 20
-89.39470958122162
 10
-71.24195263992985
 20
-89.42898006051478
 10
-71.29653674367144
 20
-89.46271084722067
 10
-71.35125231122477
 20
-89.49590194133927
 10
-71.40609934258984
 20
-89.52855334287056
 10
-71.46107783776668
 20
-89.56066505181455
 10
-71.51618779675529
 20
-89.59223706817127
 10
-71.5714292195556
 20
-89.62326939194067
 10
-71.62680210616769
 20
-89.65376202312278
 10
-71.68230645659154
 20
-89.68371496171762
 10
-71.73794227082712
 20
-89.71312820772515
 10
-71.79370954887446
 20
-89.74200176114539
 10
-71.84960829073357
 20
-89.77033562197831
 10
-71.9056384964044
 20
-89.79812979022396
 10
-71.96180016588701
 20
-89.82538426588233
 10
-72.01809329918136
 20
-89.8520990489534
 10
-72.07451789628745
 20
-89.87827413943717
 10
-72.13107395720531
 20
-89.90390953733362
 10
-72.18776148193491
 20
-89.9290052426428
 10
-72.2445804704763
 20
-89.95356125536469
 10
-72.30153092282937
 20
-89.97757757549928
 10
-72.35861283899423
 20
-90.00105420304659
 10
-72.41582621897086
 20
-90.02399113800654
 10
-72.47317106275922
 20
-90.04638838037925
 10
-72.53064737035932
 20
-90.06824593016467
 10
-72.5882551417712
 20
-90.0895637873628
 10
-72.6459943769948
 20
-90.11034195197362
 10
-72.70386507603018
 20
-90.13058042399716
 10
-72.7618672388773
 20
-90.1502792034334
 10
-72.82000086553619
 20
-90.16943829028233
 10
-72.8782659560068
 20
-90.18805768454399
 10
-72.93666251028915
 20
-90.20613738621834
 10
-72.99519052838329
 20
-90.2236773953054
 10
-73.05385001028915
 20
-90.24067771180515
 10
-73.1126409560068
 20
-90.25713833571762
 10
-73.17156336553619
 20
-90.27305926704277
 10
-73.2306172388773
 20
-90.2884405057807
 10
-73.28980257603018
 20
-90.30328205193129
 10
-73.3491193769948
 20
-90.31758390549457
 10
-73.4085676417712
 20
-90.33134606647058
 10
-73.46814737035932
 20
-90.34456853485927
 10
-73.52785856275922
 20
-90.35725131066071
 10
-73.58770121897086
 20
-90.36939439387479
 10
-73.64767533899423
 20
-90.38099778450165
 10
-73.70778092282937
 20
-90.39206148254116
 10
-73.7680179704763
 20
-90.40258548799341
 10
-73.82838648193491
 20
-90.41256980085831
 10
-73.88888645720531
 20
-90.42201442113599
 10
-73.94951789628747
 20
-90.43091934882635
 10
-74.01028079918138
 20
-90.4392845839294
 10
-74.07117516588705
 20
-90.44711012644517
 10
-74.13220099640444
 20
-90.45439597637365
 10
-74.19335829073357
 20
-90.46114213371485
 10
-74.2546470488745
 20
-90.46734859846869
 10
-74.31606727082715
 20
-90.47301537063528
 10
-74.37761895659154
 20
-90.47814245021459
 10
-74.4393021061677
 20
-90.48272983720659
 10
-74.50111671955562
 20
-90.48677753161129
 10
-74.56306279675526
 20
-90.4902855334287
 10
-74.62514033776668
 20
-90.49325384265884
 10
-74.68734934258984
 20
-90.49568245930165
 10
-74.74968981122474
 20
-90.49757138335717
 10
-74.81216174367141
 20
-90.49892061482541
 10
-74.8747651399298
 20
-90.49973015370637
 10
-74.93750000000002
 20
-90.5
 10
-75.0002348600702
 20
-90.49973015370637
 10
-75.06283825632862
 20
-90.49892061482541
 10
-75.12531018877526
 20
-90.49757138335717
 10
-75.18765065741018
 20
-90.49568245930165
 10
-75.24985966223335
 20
-90.49325384265884
 10
-75.31193720324475
 20
-90.4902855334287
 10
-75.37388328044442
 20
-90.48677753161129
 10
-75.43569789383231
 20
-90.48272983720659
 10
-75.49738104340848
 20
-90.47814245021459
 10
-75.55893272917288
 20
-90.47301537063528
 10
-75.62035295112554
 20
-90.46734859846869
 10
-75.68164170926642
 20
-90.46114213371485
 10
-75.74279900359558
 20
-90.45439597637365
 10
-75.80382483411298
 20
-90.44711012644517
 10
-75.86471920081864
 20
-90.4392845839294
 10
-75.92548210371255
 20
-90.43091934882635
 10
-75.98611354279469
 20
-90.42201442113599
 10
-76.04661351806509
 20
-90.41256980085831
 10
-76.10698202952376
 20
-90.40258548799341
 10
-76.16721907717064
 20
-90.39206148254116
 10
-76.22732466100578
 20
-90.38099778450165
 10
-76.28729878102916
 20
-90.36939439387479
 10
-76.34714143724081
 20
-90.35725131066071
 10
-76.40685262964068
 20
-90.34456853485927
 10
-76.46643235822883
 20
-90.33134606647058
 10
-76.5258806230052
 20
-90.31758390549457
 10
-76.58519742396984
 20
-90.30328205193129
 10
-76.64438276112273
 20
-90.2884405057807
 10
-76.70343663446387
 20
-90.27305926704277
 10
-76.76235904399323
 20
-90.25713833571762
 10
-76.82114998971086
 20
-90.24067771180515
 10
-76.87980947161674
 20
-90.2236773953054
 10
-76.93833748971086
 20
-90.20613738621834
 10
-76.99673404399323
 20
-90.18805768454399
 10
-77.05499913446387
 20
-90.16943829028233
 10
-77.11313276112273
 20
-90.1502792034334
 10
-77.17113492396984
 20
-90.13058042399716
 10
-77.2290056230052
 20
-90.11034195197362
 10
-77.28674485822883
 20
-90.0895637873628
 10
-77.34435262964068
 20
-90.06824593016467
 10
-77.40182893724081
 20
-90.04638838037925
 10
-77.45917378102916
 20
-90.02399113800654
 10
-77.51638716100578
 20
-90.00105420304659
 10
-77.57346907717064
 20
-89.97757757549928
 10
-77.63041952952376
 20
-89.95356125536469
 10
-77.68723851806509
 20
-89.9290052426428
 10
-77.74392604279469
 20
-89.90390953733362
 10
-77.80048210371258
 20
-89.87827413943717
 10
-77.85690670081867
 20
-89.8520990489534
 10
-77.91319983411302
 20
-89.82538426588233
 10
-77.96936150359563
 20
-89.79812979022396
 10
-78.02539170926646
 20
-89.77033562197831
 10
-78.08129045112557
 20
-89.74200176114539
 10
-78.13705772917291
 20
-89.71312820772515
 10
-78.1926935434085
 20
-89.68371496171762
 10
-78.24819789383234
 20
-89.65376202312278
 10
-78.30357078044444
 20
-89.62326939194067
 10
-78.35881220324475
 20
-89.59223706817127
 10
-78.41392216223335
 20
-89.56066505181455
 10
-78.46890065741018
 20
-89.52855334287056
 10
-78.52374768877526
 20
-89.49590194133927
 10
-78.57846325632862
 20
-89.46271084722067
 10
-78.6330473600702
 20
-89.42898006051478
 10
-78.68750000000003
 20
-89.39470958122162
 10
-78.74170732511746
 20
-89.3599717144376
 10
-78.79555548442181
 20
-89.32483876525923
 10
-78.84904447791313
 20
-89.2893107336865
 10
-78.90217430559136
 20
-89.25338761971939
 10
-78.95494496745651
 20
-89.21706942335791
 10
-79.00735646350864
 20
-89.18035614460206
 10
-79.05940879374771
 20
-89.14324778345187
 10
-79.11110195817371
 20
-89.10574433990726
 10
-79.16243595678662
 20
-89.06784581396834
 10
-79.21341078958653
 20
-89.02955220563502
 10
-79.26402645657332
 20
-88.99086351490732
 10
-79.31428295774705
 20
-88.95177974178526
 10
-79.36418029310774
 20
-88.91230088626883
 10
-79.41371846265536
 20
-88.87242694835808
 10
-79.46289746638995
 20
-88.83215792805291
 10
-79.51171730431143
 20
-88.79149382535336
 10
-79.56017797641988
 20
-88.75043464025948
 10
-79.60827948271526
 20
-88.70898037277122
 10
-79.65602182319758
 20
-88.6671310228886
 10
-79.70340499786684
 20
-88.62488659061162
 10
-79.75042900672305
 20
-88.58224707594025
 10
-79.79709384976619
 20
-88.53921247887454
 10
-79.84339952699627
 20
-88.49578279941445
 10
-79.88934603841326
 20
-88.45195803755997
 10
-79.93493338401721
 20
-88.40773819331113
 10
-79.98016156380811
 20
-88.36312326666794
 10
-80.02503057778595
 20
-88.31811325763037
 10
-80.06954042595069
 20
-88.27270816619844
 10
-80.11369110830239
 20
-88.22690799237212
 10
-80.157482624841
 20
-88.18071273615146
 10
-80.20091497556661
 20
-88.13412239753644
 10
-80.24398816047915
 20
-88.08713697652702
 10
-80.28670217957861
 20
-88.03975647312325
 10
-80.32905703286498
 20
-87.99198088732515
 10
-80.37105272033832
 20
-87.94381021913261
 10
-80.4126892419986
 20
-87.89524446854574
 10
-80.4539665978458
 20
-87.8462836355645
 10
-80.49488478787997
 20
-87.79692772018888
 10
-80.53544381210109
 20
-87.74717672241889
 10
-80.57564367050909
 20
-87.69703064225456
 10
-80.61548436310408
 20
-87.64648947969583
 10
-80.65496588988594
 20
-87.59555323474275
 10
-80.6940882508548
 20
-87.54422190739532
 10
-80.73285144601058
 20
-87.4924954976535
 10
-80.77125547535331
 20
-87.4403740055173
 10
-80.80930033888295
 20
-87.38785743098677
 10
-80.84698603659957
 20
-87.33494577406185
 10
-80.88431256850309
 20
-87.28163903474257
 10
-80.92127993459358
 20
-87.2279372130289
 10
-80.95788813487098
 20
-87.17384030892088
 10
-80.99413716933534
 20
-87.11934832241849
 10
-81.03002703798663
 20
-87.06446125352172
 10
-81.06555774082485
 20
-87.00917910223061
 10
-81.10072927785003
 20
-86.95350186854513
 10
-81.13554164906213
 20
-86.89742955246527
 10
-81.16999485446118
 20
-86.84096215399106
 10
-81.20408889404718
 20
-86.78409967312244
 10
-81.23782376782008
 20
-86.72684210985947
 10
-81.27119947577995
 20
-86.66918946420214
 10
-81.30421601792674
 20
-86.61114173615045
 10
-81.33687339426048
 20
-86.55269892570439
 10
-81.36917160478114
 20
-86.49386103286396
 10
-81.40111064948875
 20
-86.43462805762917
 10
-81.43269052838332
 20
-86.37500000000001
 10
-81.46384550955893
 20
-86.3151020960772
 10
-81.49450986110974
 20
-86.25505958196145
 10
-81.5246835830357
 20
-86.19487245765276
 10
-81.5543666753369
 20
-86.1345407231512
 10
-81.58355913801324
 20
-86.07406437845666
 10
-81.61226097106482
 20
-86.01344342356922
 10
-81.64047217449155
 20
-85.95267785848884
 10
-81.66819274829347
 20
-85.89176768321555
 10
-81.69542269247058
 20
-85.83071289774931
 10
-81.72216200702287
 20
-85.7695135020902
 10
-81.74841069195037
 20
-85.70816949623809
 10
-81.77416874725304
 20
-85.64668088019308
 10
-81.79943617293091
 20
-85.58504765395515
 10
-81.82421296898397
 20
-85.52326981752429
 10
-81.84849913541219
 20
-85.46134737090051
 10
-81.87229467221563
 20
-85.39928031408379
 10
-81.89559957939422
 20
-85.33706864707413
 10
-81.91841385694804
 20
-85.27471236987159
 10
-81.94073750487701
 20
-85.2122114824761
 10
-81.9625705231812
 20
-85.14956598488769
 10
-81.98391291186053
 20
-85.08677587710634
 10
-82.0047646709151
 20
-85.02384115913207
 10
-82.02512580034483
 20
-84.96076183096484
 10
-82.04499630014977
 20
-84.89753789260474
 10
-82.06437617032985
 20
-84.83416934405166
 10
-82.08326541088515
 20
-84.7706561853057
 10
-82.10166402181561
 20
-84.70699841636678
 10
-82.11957200312131
 20
-84.64319603723494
 10
-82.13698935480218
 20
-84.57924904791019
 10
-82.15391607685821
 20
-84.51515744839253
 10
-82.17035216928943
 20
-84.45092123868194
 10
-82.18629763209587
 20
-84.38654041877837
 10
-82.20175246527745
 20
-84.32201498868193
 10
-82.21671666883427
 20
-84.25734494839252
 10
-82.23119024276622
 20
-84.19253029791018
 10
-82.2451731870734
 20
-84.12757103723492
 10
-82.25866550175572
 20
-84.06246716636678
 10
-82.27166718681329
 20
-83.99721868530569
 10
-82.28417824224601
 20
-83.93182559405166
 10
-82.29619866805395
 20
-83.86628789260473
 10
-82.30772846423702
 20
-83.80060558096484
 10
-82.31876763079531
 20
-83.73477865913207
 10
-82.32931616772878
 20
-83.66880712710635
 10
-82.33937407503745
 20
-83.60269098488769
 10
-82.34894135272131
 20
-83.53643023247609
 10
-82.35801800078034
 20
-83.47002486987157
 10
-82.36660401921458
 20
-83.40347489707413
 10
-82.37469940802398
 20
-83.3367803140838
 10
-82.38230416720858
 20
-83.26994112090051
 10
-82.38941829676837
 20
-83.20295731752429
 10
-82.39604179670335
 20
-83.13582890395514
 10
-82.40217466701349
 20
-83.06855588019308
 10
-82.40781690769884
 20
-83.00113824623808
 10
-82.41296851875937
 20
-82.93357600209018
 10
-82.41762950019509
 20
-82.86586914774931
 10
-82.42179985200602
 20
-82.79801768321554
 10
-82.4254795741921
 20
-82.73002160848884
 10
-82.42866866675338
 20
-82.66188092356923
 10
-82.43136712968986
 20
-82.59359562845666
 10
-82.43357496300152
 20
-82.52516572315119
 10
-82.43529216668834
 20
-82.45659120765276
 10
-82.43651874075041
 20
-82.38787208196145
 10
-82.43725468518762
 20
-82.31900834607719
 10
-82.43750000000003
 20
-82.24999999999999
 10
-82.43725468518762
 20
-82.18099165392281
 10
-82.43651874075041
 20
-82.11212791803855
 10
-82.43529216668834
 20
-82.04340879234722
 10
-82.43357496300152
 20
-81.97483427684881
 10
-82.43136712968986
 20
-81.90640437154334
 10
-82.42866866675338
 20
-81.83811907643077
 10
-82.4254795741921
 20
-81.76997839151116
 10
-82.42179985200602
 20
-81.70198231678446
 10
-82.41762950019509
 20
-81.63413085225069
 10
-82.41296851875937
 20
-81.5664239979098
 10
-82.40781690769884
 20
-81.4988617537619
 10
-82.40217466701349
 20
-81.4314441198069
 10
-82.39604179670335
 20
-81.36417109604485
 10
-82.38941829676837
 20
-81.2970426824757
 10
-82.38230416720858
 20
-81.23005887909949
 10
-82.37469940802398
 20
-81.16321968591618
 10
-82.36660401921458
 20
-81.09652510292587
 10
-82.35801800078034
 20
-81.02997513012841
 10
-82.34894135272131
 20
-80.96356976752389
 10
-82.33937407503745
 20
-80.89730901511229
 10
-82.32931616772878
 20
-80.83119287289365
 10
-82.31876763079531
 20
-80.76522134086795
 10
-82.30772846423702
 20
-80.69939441903514
 10
-82.29619866805395
 20
-80.63371210739529
 10
-82.28417824224601
 20
-80.56817440594832
 10
-82.27166718681329
 20
-80.50278131469431
 10
-82.25866550175572
 20
-80.43753283363322
 10
-82.2451731870734
 20
-80.37242896276504
 10
-82.23119024276622
 20
-80.30746970208978
 10
-82.21671666883427
 20
-80.24265505160746
 10
-82.20175246527745
 20
-80.17798501131805
 10
-82.18629763209587
 20
-80.11345958122163
 10
-82.17035216928943
 20
-80.04907876131806
 10
-82.15391607685821
 20
-79.98484255160747
 10
-82.13698935480218
 20
-79.92075095208979
 10
-82.11957200312131
 20
-79.85680396276504
 10
-82.10166402181561
 20
-79.79300158363322
 10
-82.08326541088515
 20
-79.7293438146943
 10
-82.06437617032985
 20
-79.66583065594831
 10
-82.04499630014977
 20
-79.60246210739528
 10
-82.02512580034483
 20
-79.53923816903515
 10
-82.0047646709151
 20
-79.47615884086795
 10
-81.98391291186053
 20
-79.41322412289365
 10
-81.9625705231812
 20
-79.35043401511229
 10
-81.94073750487701
 20
-79.28778851752389
 10
-81.91841385694804
 20
-79.22528763012841
 10
-81.89559957939422
 20
-79.16293135292587
 10
-81.87229467221563
 20
-79.10071968591619
 10
-81.84849913541219
 20
-79.03865262909949
 10
-81.82421296898397
 20
-78.9767301824757
 10
-81.79943617293091
 20
-78.91495234604484
 10
-81.77416874725304
 20
-78.85331911980691
 10
-81.74841069195037
 20
-78.7918305037619
 10
-81.72216200702287
 20
-78.7304864979098
 10
-81.69542269247058
 20
-78.66928710225069
 10
-81.66819274829347
 20
-78.60823231678445
 10
-81.64047217449155
 20
-78.54732214151116
 10
-81.61226097106482
 20
-78.48655657643077
 10
-81.58355913801324
 20
-78.42593562154333
 10
-81.5543666753369
 20
-78.36545927684881
 10
-81.5246835830357
 20
-78.30512754234722
 10
-81.49450986110974
 20
-78.24494041803855
 10
-81.46384550955893
 20
-78.18489790392281
 10
-81.43269052838332
 20
-78.125
 10
-81.40111064948875
 20
-78.06537194237083
 10
-81.36917160478114
 20
-78.00613896713601
 10
-81.33687339426048
 20
-77.94730107429562
 10
-81.30421601792674
 20
-77.88885826384954
 10
-81.27119947577995
 20
-77.83081053579786
 10
-81.23782376782008
 20
-77.77315789014051
 10
-81.20408889404718
 20
-77.71590032687756
 10
-81.16999485446118
 20
-77.65903784600894
 10
-81.13554164906213
 20
-77.6025704475347
 10
-81.10072927785003
 20
-77.54649813145483
 10
-81.06555774082485
 20
-77.49082089776938
 10
-81.03002703798663
 20
-77.43553874647822
 10
-80.99413716933534
 20
-77.38065167758148
 10
-80.95788813487098
 20
-77.3261596910791
 10
-80.92127993459358
 20
-77.27206278697109
 10
-80.88431256850309
 20
-77.21836096525743
 10
-80.84698603659957
 20
-77.16505422593816
 10
-80.80930033888295
 20
-77.11214256901323
 10
-80.77125547535331
 20
-77.05962599448267
 10
-80.73285144601058
 20
-77.00750450234649
 10
-80.6940882508548
 20
-76.95577809260467
 10
-80.65496588988594
 20
-76.90444676525723
 10
-80.61548436310408
 20
-76.85351052030414
 10
-80.57564367050909
 20
-76.80296935774544
 10
-80.53544381210109
 20
-76.75282327758108
 10
-80.49488478787997
 20
-76.70307227981111
 10
-80.4539665978458
 20
-76.65371636443548
 10
-80.4126892419986
 20
-76.60475553145428
 10
-80.37105272033832
 20
-76.55618978086737
 10
-80.32905703286498
 20
-76.50801911267485
 10
-80.28670217957861
 20
-76.46024352687674
 10
-80.24398816047915
 20
-76.41286302347295
 10
-80.20091497556661
 20
-76.36587760246356
 10
-80.157482624841
 20
-76.31928726384851
 10
-80.11369110830239
 20
-76.27309200762785
 10
-80.06954042595069
 20
-76.22729183380156
 10
-80.02503057778595
 20
-76.18188674236963
 10
-79.98016156380811
 20
-76.13687673333206
 10
-79.93493338401721
 20
-76.09226180668887
 10
-79.88934603841326
 20
-76.04804196244003
 10
-79.84339952699627
 20
-76.00421720058557
 10
-79.79709384976619
 20
-75.96078752112546
 10
-79.75042900672305
 20
-75.91775292405974
 10
-79.70340499786684
 20
-75.87511340938838
 10
-79.65602182319758
 20
-75.83286897711139
 10
-79.60827948271526
 20
-75.79101962722877
 10
-79.56017797641988
 20
-75.74956535974052
 10
-79.51171730431143
 20
-75.7085061746466
 10
-79.46289746638995
 20
-75.66784207194709
 10
-79.41371846265536
 20
-75.62757305164194
 10
-79.36418029310774
 20
-75.58769911373113
 10
-79.31428295774705
 20
-75.54822025821472
 10
-79.26402645657332
 20
-75.50913648509267
 10
-79.21341078958653
 20
-75.47044779436498
 10
-79.16243595678662
 20
-75.43215418603165
 10
-79.11110195817371
 20
-75.39425566009271
 10
-79.05940879374771
 20
-75.35675221654813
 10
-79.00735646350864
 20
-75.31964385539791
 10
-78.95494496745651
 20
-75.28293057664207
 10
-78.90217430559136
 20
-75.24661238028061
 10
-78.84904447791313
 20
-75.21068926631349
 10
-78.79555548442181
 20
-75.17516123474075
 10
-78.74170732511746
 20
-75.14002828556236
 10
-78.68750000000003
 20
-75.10529041877837
 10
-78.68750000000003
 20
-75.10529041877837
  0
LINE
  5
5CF
330
668
100
AcDbEntity
  8
DATA
  6
Continuous
 62
     7
100
AcDbLine
 10
38.3125
 20
-159.5
 30
0.0
 11
61.8125
 21
-159.5
 31
0.0
  0
ARC
  5
5D0
330
668
100
AcDbEntity
  8
DATA
  6
Continuous
 62
     7
100
AcDbCircle
 10
-74.87500000000024
 20
-193.849580119851
 30
0.0
 40
7.999999999999738
100
AcDbArc
 50
230.8371546261398
 51
220.0902578833736
  0
ARC
  5
5D1
330
668
100
AcDbEntity
  8
DATA
  6
Continuous
 62
     7
100
AcDbCircle
 10
-80.48588743064625
 20
-199.5520306668191
 30
0.0
 40
0.7499999999999862
100
AcDbArc
 50
132.7769820690551
 51
318.1504304404571
  0
LINE
  5
5D2
330
668
100
AcDbEntity
  8
DATA
  6
Continuous
 62
     7
100
AcDbLine
 10
-21.5
 20
-162.5
 30
0.0
 11
-3.5
 21
-162.5
 31
0.0
  0
LINE
  5
5D3
330
668
100
AcDbEntity
  8
DATA
  6
Continuous
 62
     7
100
AcDbLine
 10
-21.5
 20
-162.5
 30
0.0
 11
-24.1875
 21
-159.5
 31
0.0
  0
LINE
  5
5D4
330
668
100
AcDbEntity
  8
DATA
  6
Continuous
 62
     7
100
AcDbLine
 10
-3.5
 20
-162.5
 30
0.0
 11
-0.6875
 21
-159.5
 31
0.0
  0
LINE
  5
5D5
330
668
100
AcDbEntity
  8
DATA
  6
Continuous
 62
     7
100
AcDbLine
 10
-27.6875
 20
-57.5
 30
0.0
 11
2.8125
 21
-57.5
 31
0.0
  0
LINE
  5
5D6
330
668
100
AcDbEntity
  8
DATA
  6
Continuous
 62
     7
100
AcDbLine
 10
-32.4375
 20
-40.49999999999999
 30
0.0
 11
7.5625
 21
-40.49999999999999
 31
0.0
  0
LINE
  5
5D7
330
668
100
AcDbEntity
  8
DATA
  6
Continuous
 62
     7
100
AcDbLine
 10
-32.52132352941179
 20
-40.2
 30
0.0
 11
7.646323529411772
 21
-40.2
 31
0.0
  0
LINE
  5
5D8
330
668
100
AcDbEntity
  8
DATA
  6
Continuous
 62
     7
100
AcDbLine
 10
-27.6875
 20
-57.5
 30
0.0
 11
-32.43750000000004
 21
-40.49999999999999
 31
0.0
  0
LINE
  5
5D9
330
668
100
AcDbEntity
  8
DATA
  6
Continuous
 62
     7
100
AcDbLine
 10
-32.52132352941179
 20
-40.2
 30
0.0
 11
-34.4213235294118
 21
-33.40000000000002
 31
0.0
  0
LINE
  5
5DA
330
668
100
AcDbEntity
  8
DATA
  6
Continuous
 62
     7
100
AcDbLine
 10
2.8125
 20
-57.5
 30
0.0
 11
7.5625
 21
-40.49999999999999
 31
0.0
  0
LINE
  5
5DB
330
668
100
AcDbEntity
  8
DATA
  6
Continuous
 62
     7
100
AcDbLine
 10
7.646323529411766
 20
-40.2
 30
0.0
 11
9.546323529411763
 21
-33.40000000000002
 31
0.0
  0
LINE
  5
5DC
330
668
100
AcDbEntity
  8
DATA
  6
Continuous
 62
     7
100
AcDbLine
 10
-34.4213235294118
 20
-33.40000000000002
 30
0.0
 11
9.546323529411763
 21
-33.40000000000002
 31
0.0
  0
LINE
  5
5DD
330
668
100
AcDbEntity
  8
DATA
  6
Continuous
 62
     7
100
AcDbLine
 10
-34.33750000000003
 20
-33.7
 30
0.0
 11
9.462499999999998
 21
-33.7
 31
0.0
  0
LINE
  5
5DE
330
668
100
AcDbEntity
  8
DATA
  6
Continuous
 62
     7
100
AcDbLine
 10
-30.6875
 20
-40.19999999999998
 30
0.0
 11
-30.6875
 21
-40.49999999999999
 31
0.0
  0
LINE
  5
5DF
330
668
100
AcDbEntity
  8
DATA
  6
Continuous
 62
     7
100
AcDbLine
 10
5.8125
 20
-40.19999999999998
 30
0.0
 11
5.8125
 21
-40.49999999999999
 31
0.0
  0
LINE
  5
5E0
330
668
100
AcDbEntity
  8
DATA
  6
Continuous
 62
     7
100
AcDbLine
 10
-24.1875
 20
-159.5
 30
0.0
 11
-0.6875
 21
-159.5
 31
0.0
  0
LINE
  5
5E1
330
668
100
AcDbEntity
  8
DATA
  6
Continuous
 62
     7
100
AcDbLine
 10
-84.0
 20
-162.5
 30
0.0
 11
-66.0
 21
-162.5
 31
0.0
  0
LINE
  5
5E2
330
668
100
AcDbEntity
  8
DATA
  6
Continuous
 62
     7
100
AcDbLine
 10
-84.0
 20
-162.5
 30
0.0
 11
-86.68750000000001
 21
-159.5
 31
0.0
  0
LINE
  5
5E3
330
668
100
AcDbEntity
  8
DATA
  6
Continuous
 62
     7
100
AcDbLine
 10
-66.0
 20
-162.5
 30
0.0
 11
-63.1875
 21
-159.5
 31
0.0
  0
LINE
  5
5E4
330
668
100
AcDbEntity
  8
DATA
  6
Continuous
 62
     7
100
AcDbLine
 10
-90.1875
 20
-57.5
 30
0.0
 11
-59.6875
 21
-57.5
 31
0.0
  0
LINE
  5
5E5
330
668
100
AcDbEntity
  8
DATA
  6
Continuous
 62
     7
100
AcDbLine
 10
-86.68750000000001
 20
-159.5
 30
0.0
 11
-90.1875
 21
-57.5
 31
0.0
  0
LINE
  5
5E6
330
668
100
AcDbEntity
  8
DATA
  6
Continuous
 62
     7
100
AcDbLine
 10
-63.1875
 20
-159.5
 30
0.0
 11
-59.6875
 21
-57.5
 31
0.0
  0
LINE
  5
5E7
330
668
100
AcDbEntity
  8
DATA
  6
Continuous
 62
     7
100
AcDbLine
 10
-94.9375
 20
-40.49999999999999
 30
0.0
 11
-54.9375
 21
-40.49999999999999
 31
0.0
  0
LINE
  5
5E8
330
668
100
AcDbEntity
  8
DATA
  6
Continuous
 62
     7
100
AcDbLine
 10
-95.02132352941178
 20
-40.2
 30
0.0
 11
-54.85367647058822
 21
-40.2
 31
0.0
  0
LINE
  5
5E9
330
668
100
AcDbEntity
  8
DATA
  6
Continuous
 62
     7
100
AcDbLine
 10
-90.1875
 20
-57.5
 30
0.0
 11
-94.93750000000003
 21
-40.49999999999999
 31
0.0
  0
LINE
  5
5EA
330
668
100
AcDbEntity
  8
DATA
  6
Continuous
 62
     7
100
AcDbLine
 10
-95.02132352941178
 20
-40.2
 30
0.0
 11
-96.92132352941179
 21
-33.40000000000002
 31
0.0
  0
LINE
  5
5EB
330
668
100
AcDbEntity
  8
DATA
  6
Continuous
 62
     7
100
AcDbLine
 10
-59.6875
 20
-57.5
 30
0.0
 11
-54.9375
 21
-40.49999999999999
 31
0.0
  0
LINE
  5
5EC
330
668
100
AcDbEntity
  8
DATA
  6
Continuous
 62
     7
100
AcDbLine
 10
-54.85367647058822
 20
-40.2
 30
0.0
 11
-52.95367647058824
 21
-33.40000000000002
 31
0.0
  0
LINE
  5
5ED
330
668
100
AcDbEntity
  8
DATA
  6
Continuous
 62
     7
100
AcDbLine
 10
-96.92132352941179
 20
-33.40000000000002
 30
0.0
 11
-52.95367647058824
 21
-33.40000000000002
 31
0.0
  0
LINE
  5
5EE
330
668
100
AcDbEntity
  8
DATA
  6
Continuous
 62
     7
100
AcDbLine
 10
-96.83750000000003
 20
-33.7
 30
0.0
 11
-53.0375
 21
-33.7
 31
0.0
  0
LINE
  5
5EF
330
668
100
AcDbEntity
  8
DATA
  6
Continuous
 62
     7
100
AcDbLine
 10
-93.18749999999999
 20
-40.19999999999998
 30
0.0
 11
-93.18749999999999
 21
-40.49999999999999
 31
0.0
  0
LINE
  5
5F0
330
668
100
AcDbEntity
  8
DATA
  6
Continuous
 62
     7
100
AcDbLine
 10
-56.6875
 20
-40.19999999999998
 30
0.0
 11
-56.6875
 21
-40.49999999999999
 31
0.0
  0
LINE
  5
5F1
330
668
100
AcDbEntity
  8
DATA
  6
Continuous
 62
     7
100
AcDbLine
 10
-86.68750000000001
 20
-159.5
 30
0.0
 11
-63.1875
 21
-159.5
 31
0.0
  0
TEXT
  5
5F2
330
668
100
AcDbEntity
  8
DATA
 62
     7
100
AcDbText
 10
95.00000004749997
 20
-226.9143151116913
 30
0.0
 40
3.800629342178091
  1
ハンドヘルド型マイクロホン
 41
0.7
 11
95.00000004749997
 21
-223.1136857695132
 31
0.0
100
AcDbText
 73
     3
  0
LINE
  5
5F3
330
668
100
AcDbEntity
  8
DATA
  6
Continuous
 62
     7
100
AcDbLine
 10
-26.47690886699506
 20
-90.5
 30
0.0
 11
-26.41770873214705
 21
-90.5
 31
0.0
  0
ARC
  5
5F4
330
668
100
AcDbEntity
  8
DATA
  6
Continuous
 62
     7
100
AcDbCircle
 10
-224.8697894450849
 20
-89.04394696817355
 30
0.0
 40
198.3198833006497
100
AcDbArc
 50
359.5800573529017
 51
4.350463790939329
  0
LINE
  5
5F5
330
668
100
AcDbEntity
  8
DATA
  6
Continuous
 62
     7
100
AcDbLine
 10
-0.6875
 20
-159.5
 30
0.0
 11
2.8125
 21
-57.5
 31
0.0
  0
LINE
  5
5F6
330
668
100
AcDbEntity
  8
DATA
  6
Continuous
 62
     7
100
AcDbLine
 10
-24.1875
 20
-159.5
 30
0.0
 11
-26.55523297663684
 21
-90.49749610944047
 31
0.0
  0
LINE
  5
5F7
330
668
100
AcDbEntity
  8
DATA
  6
Continuous
 62
     7
100
AcDbLine
 10
-27.12132352941175
 20
-74.00000000000048
 30
0.0
 11
-27.6875
 21
-57.5
 31
0.0
  0
ENDSEC
  0
SECTION
  2
OBJECTS
  0
DICTIONARY
  5
605
330
0
100
AcDbDictionary
281
     1
  3
ACAD_CIP_PREVIOUS_PRODUCT_INFO
350
681
  3
ACAD_COLOR
350
65B
  3
ACAD_DETAILVIEWSTYLE
350
662
  3
ACAD_GROUP
350
606
  3
ACAD_LAYOUT
350
65A
  3
ACAD_MATERIAL
350
609
  3
ACAD_MLEADERSTYLE
350
65E
  3
ACAD_MLINESTYLE
350
657
  3
ACAD_PLOTSETTINGS
350
659
  3
ACAD_PLOTSTYLENAME
350
607
  3
ACAD_SCALELIST
350
63B
  3
ACAD_SECTIONVIEWSTYLE
350
660
  3
ACAD_TABLESTYLE
350
65C
  3
ACAD_VISUALSTYLE
350
622
  3
ACDB_RECOMPOSE_DATA
350
69B
  3
AcDbVariableDictionary
350
68E
  3
DWGPROPS
350
69C
  0
DICTIONARY
  5
682
330
64D
100
AcDbDictionary
280
     1
281
     1
  3
ADSK_XREC_LAYER_RECONCILED
360
683
  0
DICTIONARY
  5
684
330
66C
100
AcDbDictionary
280
     1
281
     1
  3
ADSK_XREC_LAYER_RECONCILED
360
685
  0
DICTIONARY
  5
686
330
678
100
AcDbDictionary
280
     1
281
     1
  3
ADSK_XREC_LAYER_RECONCILED
360
687
  0
DICTIONARY
  5
688
330
679
100
AcDbDictionary
280
     1
281
     1
  3
ADSK_XREC_LAYER_RECONCILED
360
689
  0
DICTIONARY
  5
68A
330
67A
100
AcDbDictionary
280
     1
281
     1
  3
ADSK_XREC_LAYER_RECONCILED
360
68B
  0
DICTIONARY
  5
68C
330
67B
100
AcDbDictionary
280
     1
281
     1
  3
ADSK_XREC_LAYER_RECONCILED
360
68D
  0
XRECORD
  5
681
102
{ACAD_REACTORS
330
605
102
}
330
605
100
AcDbXrecord
280
     1
300
ACDLT
300
2018
300

  0
DICTIONARY
  5
65B
102
{ACAD_REACTORS
330
605
102
}
330
605
100
AcDbDictionary
281
     1
  0
DICTIONARY
  5
662
102
{ACAD_REACTORS
330
605
102
}
330
605
100
AcDbDictionary
281
     1
  3
Imperial24
350
663
  0
DICTIONARY
  5
606
102
{ACAD_REACTORS
330
605
102
}
330
605
100
AcDbDictionary
281
     1
  0
DICTIONARY
  5
65A
102
{ACAD_REACTORS
330
605
102
}
330
605
100
AcDbDictionary
281
     1
  3
Model
350
66B
  3
レイアウト1
350
667
  0
DICTIONARY
  5
609
102
{ACAD_REACTORS
330
605
102
}
330
605
100
AcDbDictionary
281
     1
  3
ByBlock
350
612
  3
ByLayer
350
60A
  3
Global
350
61A
  0
DICTIONARY
  5
65E
102
{ACAD_REACTORS
330
605
102
}
330
605
100
AcDbDictionary
281
     1
  3
Standard
350
65F
  0
DICTIONARY
  5
657
102
{ACAD_REACTORS
330
605
102
}
330
605
100
AcDbDictionary
281
     1
  3
Standard
350
658
  0
DICTIONARY
  5
659
102
{ACAD_REACTORS
330
605
102
}
330
605
100
AcDbDictionary
281
     1
  0
ACDBDICTIONARYWDFLT
  5
607
102
{ACAD_REACTORS
330
605
102
}
330
605
100
AcDbDictionary
281
     1
  3
Normal
350
608
100
AcDbDictionaryWithDefault
340
608
  0
DICTIONARY
  5
63B
102
{ACAD_REACTORS
330
605
102
}
330
605
100
AcDbDictionary
281
     1
  3
A0
350
63C
  3
A1
350
63D
  3
A2
350
63E
  3
A3
350
63F
  3
A4
350
640
  3
A5
350
641
  3
A6
350
642
  3
A7
350
643
  3
A8
350
644
  3
A9
350
645
  3
B0
350
646
  3
B1
350
647
  3
B2
350
648
  3
B3
350
649
  3
B4
350
64A
  3
B5
350
64B
  3
B6
350
64C
  0
DICTIONARY
  5
660
102
{ACAD_REACTORS
330
605
102
}
330
605
100
AcDbDictionary
281
     1
  3
Imperial24
350
661
  0
DICTIONARY
  5
65C
102
{ACAD_REACTORS
330
605
102
}
330
605
100
AcDbDictionary
281
     1
  3
Standard
350
65D
  0
DICTIONARY
  5
622
102
{ACAD_REACTORS
330
605
102
}
330
605
100
AcDbDictionary
281
     1
  3
2dWireframe
350
628
  3
Basic
350
627
  3
Brighten
350
62E
  3
ColorChange
350
632
  3
Conceptual
350
62B
  3
Dim
350
62D
  3
EdgeColorOff
350
63A
  3
Facepattern
350
631
  3
Flat
350
623
  3
FlatWithEdges
350
624
  3
Gouraud
350
625
  3
GouraudWithEdges
350
626
  3
Hidden
350
62A
  3
JitterOff
350
638
  3
Linepattern
350
630
  3
OverhangOff
350
639
  3
Realistic
350
62C
  3
Shaded
350
637
  3
Shaded with edges
350
636
  3
Shades of Gray
350
633
  3
Sketchy
350
634
  3
Thicken
350
62F
  3
Wireframe
350
629
  3
X-Ray
350
635
  0
XRECORD
  5
69B
102
{ACAD_REACTORS
330
605
102
}
330
605
100
AcDbXrecord
280
     1
 90
        1
330
65D
  0
DICTIONARY
  5
68E
102
{ACAD_REACTORS
330
605
102
}
330
605
100
AcDbDictionary
281
     1
  3
CANNOSCALE
350
693
  3
CMLEADERSTYLE
350
690
  3
CTABLESTYLE
350
68F
  3
CVIEWDETAILSTYLE
350
691
  3
CVIEWSECTIONSTYLE
350
692
  3
DIMASSOC
350
696
  3
INDEXCTL
350
695
  3
SORTENTS
350
694
  3
XCLIPFRAME
350
697
  0
XRECORD
  5
69C
102
{ACAD_REACTORS
330
605
102
}
330
605
100
AcDbXrecord
280
     1
  1
DWGPROPS COOKIE
  2

  3

  4

  6

  7

  8
sasaki_n
  9

300
=
301
=
302
=
303
=
304
=
305
=
306
=
307
=
308
=
309
=
 40
0.0005324074074074
 41
2458206.44412037
 42
2458206.444872685
  1

 90
        0
  0
XRECORD
  5
683
102
{ACAD_REACTORS
330
682
102
}
330
682
100
AcDbXrecord
280
     1
290
     1
  0
XRECORD
  5
685
102
{ACAD_REACTORS
330
684
102
}
330
684
100
AcDbXrecord
280
     1
290
     1
  0
XRECORD
  5
687
102
{ACAD_REACTORS
330
686
102
}
330
686
100
AcDbXrecord
280
     1
290
     1
  0
XRECORD
  5
689
102
{ACAD_REACTORS
330
688
102
}
330
688
100
AcDbXrecord
280
     1
290
     1
  0
XRECORD
  5
68B
102
{ACAD_REACTORS
330
68A
102
}
330
68A
100
AcDbXrecord
280
     1
290
     1
  0
XRECORD
  5
68D
102
{ACAD_REACTORS
330
68C
102
}
330
68C
100
AcDbXrecord
280
     1
290
     1
  0
ACDBDETAILVIEWSTYLE
  5
663
102
{ACAD_XDICTIONARY
360
6D4
102
}
102
{ACAD_REACTORS
330
662
102
}
330
662
100
AcDbModelDocViewStyle
 70
     0
  3
Imperial24
290
     0
100
AcDbDetailViewStyle
 70
     0
 71
     0
 90
        3
 71
     1
340
64E
 40
0.24
340
0
 40
0.24
300

 40
0.36
280
     3
 71
     2
340
655
 90
       25
 71
     3
340
64E
 40
0.24
 90
        1
 40
0.75
 90
        1
300
%<\AcVar ViewType \f "%tc1">% %<\AcVar ViewDetailId>%\PSCALE %<\AcVar ViewScale \f "%sn">%
 71
     4
340
655
 90
       25
340
655
 90
       25
280
     0
  0
LAYOUT
  5
66B
102
{ACAD_XDICTIONARY
360
6D8
102
}
102
{ACAD_REACTORS
330
65A
102
}
330
65A
100
AcDbPlotSettings
  1

  2
DocuPrint 3000-3
  4

  6

 40
0.0
 41
0.0
 42
0.0
 43
0.0
 44
0.0
 45
0.0
 46
0.0
 47
0.0
 48
0.0
 49
0.0
140
0.0
141
0.0
142
1.0
143
1.0
 70
  1712
 72
     0
 73
     0
 74
     0
  7

 75
     0
147
1.0
148
0.0
149
0.0
100
AcDbLayout
  1
Model
 70
     1
 71
     0
 10
0.0
 20
0.0
 11
12.0
 21
9.0
 12
0.0
 22
0.0
 32
0.0
 14
0.0
 24
0.0
 34
0.0
 15
0.0
 25
0.0
 35
0.0
146
0.0
 13
0.0
 23
0.0
 33
0.0
 16
1.0
 26
0.0
 36
0.0
 17
0.0
 27
1.0
 37
0.0
 76
     0
330
668
331
66D
  0
LAYOUT
  5
667
102
{ACAD_XDICTIONARY
360
6D6
102
}
102
{ACAD_REACTORS
330
65A
102
}
330
65A
100
AcDbPlotSettings
  1

  2
DocuPrint 3000-3
  4

  6

 40
0.0
 41
0.0
 42
0.0
 43
0.0
 44
0.0
 45
0.0
 46
0.0
 47
0.0
 48
0.0
 49
0.0
140
0.0
141
0.0
142
1.0
143
1.0
 70
   688
 72
     0
 73
     0
 74
     5
  7

 75
    16
147
1.0
148
0.0
149
0.0
100
AcDbLayout
  1
レイアウト1
 70
     0
 71
     1
 10
0.0
 20
0.0
 11
12.0
 21
9.0
 12
0.0
 22
0.0
 32
0.0
 14
1.000000000000000E+20
 24
1.000000000000000E+20
 34
1.000000000000000E+20
 15
-1.000000000000000E+20
 25
-1.000000000000000E+20
 35
-1.000000000000000E+20
146
0.0
 13
0.0
 23
0.0
 33
0.0
 16
1.0
 26
0.0
 36
0.0
 17
0.0
 27
1.0
 37
0.0
 76
     0
330
664
  0
MATERIAL
  5
612
102
{ACAD_XDICTIONARY
360
613
102
}
102
{ACAD_REACTORS
330
609
102
}
330
609
100
AcDbMaterial
  1
ByBlock
 72
     0
 43
0.0208333333333333
 43
0.0
 43
0.0
 43
0.0
 43
0.0
 43
0.0208333333333333
 43
0.0
 43
0.0
 43
0.0
 43
0.0
 43
1.0
 43
0.0
 43
0.0
 43
0.0
 43
0.0
 43
1.0
 77
     0
 47
0.0208333333333333
 47
0.0
 47
0.0
 47
0.0
 47
0.0
 47
0.0208333333333333
 47
0.0
 47
0.0
 47
0.0
 47
0.0
 47
1.0
 47
0.0
 47
0.0
 47
0.0
 47
0.0
 47
1.0
171
     0
 49
0.0208333333333333
 49
0.0
 49
0.0
 49
0.0
 49
0.0
 49
0.0208333333333333
 49
0.0
 49
0.0
 49
0.0
 49
0.0
 49
1.0
 49
0.0
 49
0.0
 49
0.0
 49
0.0
 49
1.0
175
     0
142
0.0208333333333333
142
0.0
142
0.0
142
0.0
142
0.0
142
0.0208333333333333
142
0.0
142
0.0
142
0.0
142
0.0
142
1.0
142
0.0
142
0.0
142
0.0
142
0.0
142
1.0
179
     0
144
0.0208333333333333
144
0.0
144
0.0
144
0.0
144
0.0
144
0.0208333333333333
144
0.0
144
0.0
144
0.0
144
0.0
144
1.0
144
0.0
144
0.0
144
0.0
144
0.0
144
1.0
147
0.0208333333333333
147
0.0
147
0.0
147
0.0
147
0.0
147
0.0208333333333333
147
0.0
147
0.0
147
0.0
147
0.0
147
1.0
147
0.0
147
0.0
147
0.0
147
0.0
147
1.0
  0
MATERIAL
  5
60A
102
{ACAD_XDICTIONARY
360
60B
102
}
102
{ACAD_REACTORS
330
609
102
}
330
609
100
AcDbMaterial
  1
ByLayer
 72
     0
 43
0.0208333333333333
 43
0.0
 43
0.0
 43
0.0
 43
0.0
 43
0.0208333333333333
 43
0.0
 43
0.0
 43
0.0
 43
0.0
 43
1.0
 43
0.0
 43
0.0
 43
0.0
 43
0.0
 43
1.0
 77
     0
 47
0.0208333333333333
 47
0.0
 47
0.0
 47
0.0
 47
0.0
 47
0.0208333333333333
 47
0.0
 47
0.0
 47
0.0
 47
0.0
 47
1.0
 47
0.0
 47
0.0
 47
0.0
 47
0.0
 47
1.0
171
     0
 49
0.0208333333333333
 49
0.0
 49
0.0
 49
0.0
 49
0.0
 49
0.0208333333333333
 49
0.0
 49
0.0
 49
0.0
 49
0.0
 49
1.0
 49
0.0
 49
0.0
 49
0.0
 49
0.0
 49
1.0
175
     0
142
0.0208333333333333
142
0.0
142
0.0
142
0.0
142
0.0
142
0.0208333333333333
142
0.0
142
0.0
142
0.0
142
0.0
142
1.0
142
0.0
142
0.0
142
0.0
142
0.0
142
1.0
179
     0
144
0.0208333333333333
144
0.0
144
0.0
144
0.0
144
0.0
144
0.0208333333333333
144
0.0
144
0.0
144
0.0
144
0.0
144
1.0
144
0.0
144
0.0
144
0.0
144
0.0
144
1.0
147
0.0208333333333333
147
0.0
147
0.0
147
0.0
147
0.0
147
0.0208333333333333
147
0.0
147
0.0
147
0.0
147
0.0
147
1.0
147
0.0
147
0.0
147
0.0
147
0.0
147
1.0
  0
MATERIAL
  5
61A
102
{ACAD_XDICTIONARY
360
61B
102
}
102
{ACAD_REACTORS
330
609
102
}
330
609
100
AcDbMaterial
  1
Global
 72
     0
 43
0.0208333333333333
 43
0.0
 43
0.0
 43
0.0
 43
0.0
 43
0.0208333333333333
 43
0.0
 43
0.0
 43
0.0
 43
0.0
 43
1.0
 43
0.0
 43
0.0
 43
0.0
 43
0.0
 43
1.0
 77
     0
 47
0.0208333333333333
 47
0.0
 47
0.0
 47
0.0
 47
0.0
 47
0.0208333333333333
 47
0.0
 47
0.0
 47
0.0
 47
0.0
 47
1.0
 47
0.0
 47
0.0
 47
0.0
 47
0.0
 47
1.0
171
     0
 49
0.0208333333333333
 49
0.0
 49
0.0
 49
0.0
 49
0.0
 49
0.0208333333333333
 49
0.0
 49
0.0
 49
0.0
 49
0.0
 49
1.0
 49
0.0
 49
0.0
 49
0.0
 49
0.0
 49
1.0
175
     0
142
0.0208333333333333
142
0.0
142
0.0
142
0.0
142
0.0
142
0.0208333333333333
142
0.0
142
0.0
142
0.0
142
0.0
142
1.0
142
0.0
142
0.0
142
0.0
142
0.0
142
1.0
179
     0
144
0.0208333333333333
144
0.0
144
0.0
144
0.0
144
0.0
144
0.0208333333333333
144
0.0
144
0.0
144
0.0
144
0.0
144
1.0
144
0.0
144
0.0
144
0.0
144
0.0
144
1.0
147
0.0208333333333333
147
0.0
147
0.0
147
0.0
147
0.0
147
0.0208333333333333
147
0.0
147
0.0
147
0.0
147
0.0
147
1.0
147
0.0
147
0.0
147
0.0
147
0.0
147
1.0
  0
MLEADERSTYLE
  5
65F
102
{ACAD_REACTORS
330
65E
102
}
330
65E
100
AcDbMLeaderStyle
170
     2
171
     1
172
     0
 90
        2
 40
0.0
 41
0.0
173
     1
 91
-1056964608
340
653
 92
       -2
290
     1
 42
0.09
291
     1
 43
0.36
  3
Standard
 44
0.18
300

342
64E
174
     1
178
     6
175
     1
176
     0
 93
-1056964608
 45
0.18
292
     0
297
     0
 46
0.18
 94
-1056964608
 47
1.0
 49
1.0
140
1.0
293
     1
141
0.0
294
     1
177
     0
142
1.0
295
     0
296
     0
143
0.125
1001
ACAD_MLEADERVER
1070
     2
  0
MLINESTYLE
  5
658
102
{ACAD_REACTORS
330
657
102
}
330
657
100
AcDbMlineStyle
  2
STANDARD
 70
     0
  3

 62
   256
 51
90.0
 52
90.0
 71
     2
 49
0.5
 62
   256
  6
BYLAYER
 49
-0.5
 62
   256
  6
BYLAYER
  0
ACDBPLACEHOLDER
  5
608
102
{ACAD_REACTORS
330
607
102
}
330
607
  0
SCALE
  5
63C
102
{ACAD_REACTORS
330
63B
102
}
330
63B
100
AcDbScale
 70
     0
300
1:1
140
1.0
141
1.0
290
     1
  0
SCALE
  5
63D
102
{ACAD_REACTORS
330
63B
102
}
330
63B
100
AcDbScale
 70
     0
300
1/128" = 1'-0"
140
0.0078125
141
12.0
290
     0
  0
SCALE
  5
63E
102
{ACAD_REACTORS
330
63B
102
}
330
63B
100
AcDbScale
 70
     0
300
1/64" = 1'-0"
140
0.015625
141
12.0
290
     0
  0
SCALE
  5
63F
102
{ACAD_REACTORS
330
63B
102
}
330
63B
100
AcDbScale
 70
     0
300
1/32" = 1'-0"
140
0.03125
141
12.0
290
     0
  0
SCALE
  5
640
102
{ACAD_REACTORS
330
63B
102
}
330
63B
100
AcDbScale
 70
     0
300
1/16" = 1'-0"
140
0.0625
141
12.0
290
     0
  0
SCALE
  5
641
102
{ACAD_REACTORS
330
63B
102
}
330
63B
100
AcDbScale
 70
     0
300
3/32" = 1'-0"
140
0.09375
141
12.0
290
     0
  0
SCALE
  5
642
102
{ACAD_REACTORS
330
63B
102
}
330
63B
100
AcDbScale
 70
     0
300
1/8" = 1'-0"
140
0.125
141
12.0
290
     0
  0
SCALE
  5
643
102
{ACAD_REACTORS
330
63B
102
}
330
63B
100
AcDbScale
 70
     0
300
3/16" = 1'-0"
140
0.1875
141
12.0
290
     0
  0
SCALE
  5
644
102
{ACAD_REACTORS
330
63B
102
}
330
63B
100
AcDbScale
 70
     0
300
1/4" = 1'-0"
140
0.25
141
12.0
290
     0
  0
SCALE
  5
645
102
{ACAD_REACTORS
330
63B
102
}
330
63B
100
AcDbScale
 70
     0
300
3/8" = 1'-0"
140
0.375
141
12.0
290
     0
  0
SCALE
  5
646
102
{ACAD_REACTORS
330
63B
102
}
330
63B
100
AcDbScale
 70
     0
300
1/2" = 1'-0"
140
0.5
141
12.0
290
     0
  0
SCALE
  5
647
102
{ACAD_REACTORS
330
63B
102
}
330
63B
100
AcDbScale
 70
     0
300
3/4" = 1'-0"
140
0.75
141
12.0
290
     0
  0
SCALE
  5
648
102
{ACAD_REACTORS
330
63B
102
}
330
63B
100
AcDbScale
 70
     0
300
1" = 1'-0"
140
1.0
141
12.0
290
     0
  0
SCALE
  5
649
102
{ACAD_REACTORS
330
63B
102
}
330
63B
100
AcDbScale
 70
     0
300
1-1/2" = 1'-0"
140
1.5
141
12.0
290
     0
  0
SCALE
  5
64A
102
{ACAD_REACTORS
330
63B
102
}
330
63B
100
AcDbScale
 70
     0
300
3" = 1'-0"
140
3.0
141
12.0
290
     0
  0
SCALE
  5
64B
102
{ACAD_REACTORS
330
63B
102
}
330
63B
100
AcDbScale
 70
     0
300
6" = 1'-0"
140
6.0
141
12.0
290
     0
  0
SCALE
  5
64C
102
{ACAD_REACTORS
330
63B
102
}
330
63B
100
AcDbScale
 70
     0
300
1'-0" = 1'-0"
140
12.0
141
12.0
290
     0
  0
ACDBSECTIONVIEWSTYLE
  5
661
102
{ACAD_XDICTIONARY
360
6D2
102
}
102
{ACAD_REACTORS
330
660
102
}
330
660
100
AcDbModelDocViewStyle
 70
     0
  3
Imperial24
290
     0
100
AcDbSectionViewStyle
 70
     0
 71
     0
 90
       78
 71
     1
340
64E
 40
0.24
340
0
340
0
 40
0.24
300
I, O, Q, S, X, Z
 40
0.48
 90
        3
 40
0.18
 90
        1
 71
     2
340
655
 90
       25
340
655
 90
       50
 40
0.24
 40
0.0
 40
0.24
 71
     3
340
64E
 40
0.24
 90
        1
 40
0.75
 90
        1
300
%<\AcVar ViewType \f "%tc1">% %<\AcVar ViewSectionStartId>%-%<\AcVar ViewSectionEndId>%\PSCALE %<\AcVar ViewScale \f "%sn">%
 71
     4
300
ANSI31
 40
1.0
 90
        0
290
     0
290
     0
 90
        6
 40
0.0
 40
1.570796326794896
 40
0.2617993877991494
 40
1.308996938995747
 40
-0.2617993877991494
 40
1.832595714594046
  0
TABLESTYLE
  5
65D
102
{ACAD_XDICTIONARY
360
699
102
}
102
{ACAD_REACTORS
330
65C
102
}
330
65C
100
AcDbTableStyle
  3
Standard
 70
     0
 71
     0
 40
0.06
 41
0.06
280
     0
281
     0
  7
STANDARD
140
0.18
170
     2
 62
     0
 63
     7
283
     0
274
    -2
284
     1
 64
     0
275
    -2
285
     1
 65
     0
276
    -2
286
     1
 66
     0
277
    -2
287
     1
 67
     0
278
    -2
288
     1
 68
     0
279
    -2
289
     1
 69
     0
  7
STANDARD
140
0.25
170
     5
 62
     0
 63
     7
283
     0
274
    -2
284
     1
 64
     0
275
    -2
285
     1
 65
     0
276
    -2
286
     1
 66
     0
277
    -2
287
     1
 67
     0
278
    -2
288
     1
 68
     0
279
    -2
289
     1
 69
     0
  7
STANDARD
140
0.18
170
     5
 62
     0
 63
     7
283
     0
274
    -2
284
     1
 64
     0
275
    -2
285
     1
 65
     0
276
    -2
286
     1
 66
     0
277
    -2
287
     1
 67
     0
278
    -2
288
     1
 68
     0
279
    -2
289
     1
 69
     0
  0
VISUALSTYLE
  5
628
102
{ACAD_XDICTIONARY
360
6AA
102
}
102
{ACAD_REACTORS
330
622
102
}
330
622
100
AcDbVisualStyle
  2
2dWireframe
 70
     4
 71
     0
 72
     2
 73
     0
 90
        0
 40
-0.6
 41
-30.0
 62
     5
 63
     7
 74
     1
 91
        4
 64
     7
 65
   257
 75
     1
175
     1
 42
1.0
 92
        0
 66
   257
 43
1.0
 76
     1
 77
     6
 78
     2
 67
     7
 79
     5
170
     0
171
     0
290
     0
174
     0
 93
        1
 44
0.0
173
     0
291
     0
 45
0.0
1001
ACAD
1000
AcDbSavedByObjectVersion
1070
     0
  0
VISUALSTYLE
  5
627
102
{ACAD_XDICTIONARY
360
6A8
102
}
102
{ACAD_REACTORS
330
622
102
}
330
622
100
AcDbVisualStyle
  2
Basic
 70
     7
 71
     1
 72
     0
 73
     1
 90
        0
 40
-0.6
 41
-30.0
 62
     5
 63
     7
 74
     0
 91
        4
 64
     7
 65
   257
 75
     1
175
     1
 42
1.0
 92
        8
 66
     7
 43
1.0
 76
     1
 77
     6
 78
     2
 67
     7
 79
     5
170
     0
171
     0
290
     0
174
     0
 93
        1
 44
0.0
173
     0
291
     1
 45
0.0
1001
ACAD
1000
AcDbSavedByObjectVersion
1070
     0
  0
VISUALSTYLE
  5
62E
102
{ACAD_XDICTIONARY
360
6B6
102
}
102
{ACAD_REACTORS
330
622
102
}
330
622
100
AcDbVisualStyle
  2
Brighten
 70
    12
 71
     2
 72
     2
 73
     0
 90
        0
 40
-0.6
 41
-30.0
 62
     5
 63
     7
 74
     1
 91
        4
 64
     7
 65
   257
 75
     1
175
     1
 42
1.0
 92
        8
 66
     7
 43
1.0
 76
     1
 77
     6
 78
     2
 67
     7
 79
     5
170
     0
171
     0
290
     0
174
     0
 93
        1
 44
50.0
173
     0
291
     1
 45
0.0
1001
ACAD
1000
AcDbSavedByObjectVersion
1070
     0
  0
VISUALSTYLE
  5
632
102
{ACAD_XDICTIONARY
360
6BE
102
}
102
{ACAD_REACTORS
330
622
102
}
330
622
100
AcDbVisualStyle
  2
ColorChange
 70
    16
 71
     2
 72
     2
 73
     3
 90
        0
 40
-0.6
 41
-30.0
 62
     5
 63
     8
 74
     1
 91
        4
 64
     7
 65
   257
 75
     1
175
     1
 42
1.0
 92
        8
 66
     8
 43
1.0
 76
     1
 77
     6
 78
     2
 67
     7
 79
     5
170
     0
171
     0
290
     0
174
     0
 93
        1
 44
0.0
173
     0
291
     1
 45
0.0
1001
ACAD
1000
AcDbSavedByObjectVersion
1070
     0
  0
VISUALSTYLE
  5
62B
102
{ACAD_XDICTIONARY
360
6B0
102
}
102
{ACAD_REACTORS
330
622
102
}
330
622
100
AcDbVisualStyle
  2
Conceptual
 70
     9
 71
     3
 72
     2
 73
     0
 90
        0
 40
-0.6
 41
-30.0
 62
     5
 63
     7
 74
     2
 91
        2
 64
     7
 65
   257
 75
     1
175
     1
 42
179.0
 92
        8
 66
     7
 43
1.0
 76
     1
 77
     6
 78
     2
 67
     7
 79
     3
170
     0
171
     0
290
     0
174
     0
 93
        1
 44
0.0
173
     0
291
     0
 45
0.0
1001
ACAD
1000
AcDbSavedByObjectVersion
1070
     0
  0
VISUALSTYLE
  5
62D
102
{ACAD_XDICTIONARY
360
6B4
102
}
102
{ACAD_REACTORS
330
622
102
}
330
622
100
AcDbVisualStyle
  2
Dim
 70
    11
 71
     2
 72
     2
 73
     0
 90
        0
 40
-0.6
 41
-30.0
 62
     5
 63
     7
 74
     1
 91
        4
 64
     7
 65
   257
 75
     1
175
     1
 42
1.0
 92
        8
 66
     7
 43
1.0
 76
     1
 77
     6
 78
     2
 67
     7
 79
     5
170
     0
171
     0
290
     0
174
     0
 93
        1
 44
-50.0
173
     0
291
     1
 45
0.0
1001
ACAD
1000
AcDbSavedByObjectVersion
1070
     0
  0
VISUALSTYLE
  5
63A
102
{ACAD_XDICTIONARY
360
6CE
102
}
102
{ACAD_REACTORS
330
622
102
}
330
622
100
AcDbVisualStyle
  2
EdgeColorOff
 70
    22
 71
     2
 72
     2
 73
     0
 90
        0
 40
-0.6
 41
-30.0
 62
     5
 63
     7
 74
     1
 91
        4
 64
     7
 65
   257
 75
     1
175
     1
 42
1.0
 92
        8
 66
     7
 43
1.0
 76
     1
 77
     6
 78
     2
 67
     7
 79
     5
170
     0
171
     0
290
     0
174
     0
 93
        1
 44
0.0
173
     0
291
     1
 45
0.0
1001
ACAD
1000
AcDbSavedByObjectVersion
1070
     0
  0
VISUALSTYLE
  5
631
102
{ACAD_XDICTIONARY
360
6BC
102
}
102
{ACAD_REACTORS
330
622
102
}
330
622
100
AcDbVisualStyle
  2
Facepattern
 70
    15
 71
     2
 72
     2
 73
     0
 90
        0
 40
-0.6
 41
-30.0
 62
     5
 63
     7
 74
     1
 91
        4
 64
     7
 65
   257
 75
     1
175
     1
 42
1.0
 92
        8
 66
     7
 43
1.0
 76
     1
 77
     6
 78
     2
 67
     7
 79
     5
170
     0
171
     0
290
     0
174
     0
 93
        1
 44
0.0
173
     0
291
     1
 45
0.0
1001
ACAD
1000
AcDbSavedByObjectVersion
1070
     0
  0
VISUALSTYLE
  5
623
102
{ACAD_XDICTIONARY
360
6A0
102
}
102
{ACAD_REACTORS
330
622
102
}
330
622
100
AcDbVisualStyle
  2
Flat
 70
     0
 71
     2
 72
     1
 73
     1
 90
        2
 40
-0.6
 41
30.0
 62
     5
 63
     7
 74
     0
 91
        0
 64
     7
 65
   257
 75
     1
175
     1
 42
1.0
 92
        8
 66
     7
 43
1.0
 76
     1
 77
     6
 78
     2
 67
     7
 79
     5
170
     0
171
     0
290
     0
174
     0
 93
       13
 44
0.0
173
     0
291
     1
 45
0.0
1001
ACAD
1000
AcDbSavedByObjectVersion
1070
     0
  0
VISUALSTYLE
  5
624
102
{ACAD_XDICTIONARY
360
6A2
102
}
102
{ACAD_REACTORS
330
622
102
}
330
622
100
AcDbVisualStyle
  2
FlatWithEdges
 70
     1
 71
     2
 72
     1
 73
     1
 90
        2
 40
-0.6
 41
30.0
 62
     5
 63
     7
 74
     1
 91
        0
 64
     7
 65
   257
 75
     1
175
     1
 42
1.0
 92
        0
 66
   257
 43
1.0
 76
     1
 77
     6
 78
     2
 67
     7
 79
     5
170
     0
171
     0
290
     0
174
     0
 93
       13
 44
0.0
173
     0
291
     1
 45
0.0
1001
ACAD
1000
AcDbSavedByObjectVersion
1070
     0
  0
VISUALSTYLE
  5
625
102
{ACAD_XDICTIONARY
360
6A4
102
}
102
{ACAD_REACTORS
330
622
102
}
330
622
100
AcDbVisualStyle
  2
Gouraud
 70
     2
 71
     2
 72
     2
 73
     1
 90
        2
 40
-0.6
 41
30.0
 62
     5
 63
     7
 74
     0
 91
        0
 64
     7
 65
   257
 75
     1
175
     1
 42
1.0
 92
        0
 66
     7
 43
1.0
 76
     1
 77
     6
 78
     2
 67
     7
 79
     5
170
     0
171
     0
290
     0
174
     0
 93
       13
 44
0.0
173
     0
291
     1
 45
0.0
1001
ACAD
1000
AcDbSavedByObjectVersion
1070
     0
  0
VISUALSTYLE
  5
626
102
{ACAD_XDICTIONARY
360
6A6
102
}
102
{ACAD_REACTORS
330
622
102
}
330
622
100
AcDbVisualStyle
  2
GouraudWithEdges
 70
     3
 71
     2
 72
     2
 73
     1
 90
        2
 40
-0.6
 41
30.0
 62
     5
 63
     7
 74
     1
 91
        0
 64
     7
 65
   257
 75
     1
175
     1
 42
1.0
 92
        0
 66
   257
 43
1.0
 76
     1
 77
     6
 78
     2
 67
     7
 79
     5
170
     0
171
     0
290
     0
174
     0
 93
       13
 44
0.0
173
     0
291
     1
 45
0.0
1001
ACAD
1000
AcDbSavedByObjectVersion
1070
     0
  0
VISUALSTYLE
  5
62A
102
{ACAD_XDICTIONARY
360
6AE
102
}
102
{ACAD_REACTORS
330
622
102
}
330
622
100
AcDbVisualStyle
  2
Hidden
 70
     6
 71
     1
 72
     2
 73
     2
 90
        0
 40
-0.6
 41
-30.0
 62
     5
 63
     7
 74
     2
 91
        2
 64
     7
 65
   257
 75
     2
175
     1
 42
40.0
 92
        0
 66
   257
 43
1.0
 76
     1
 77
     6
 78
     2
 67
     7
 79
     3
170
     0
171
     0
290
     0
174
     0
 93
        1
 44
0.0
173
     0
291
     0
 45
0.0
1001
ACAD
1000
AcDbSavedByObjectVersion
1070
     0
  0
VISUALSTYLE
  5
638
102
{ACAD_XDICTIONARY
360
6CA
102
}
102
{ACAD_REACTORS
330
622
102
}
330
622
100
AcDbVisualStyle
  2
JitterOff
 70
    20
 71
     2
 72
     2
 73
     0
 90
        0
 40
-0.6
 41
-30.0
 62
     5
 63
     7
 74
     1
 91
        4
 64
     7
 65
   257
 75
     1
175
     1
 42
1.0
 92
       10
 66
     7
 43
1.0
 76
     1
 77
     6
 78
     2
 67
     7
 79
     5
170
     0
171
     0
290
     0
174
     0
 93
        1
 44
0.0
173
     0
291
     1
 45
0.0
1001
ACAD
1000
AcDbSavedByObjectVersion
1070
     0
  0
VISUALSTYLE
  5
630
102
{ACAD_XDICTIONARY
360
6BA
102
}
102
{ACAD_REACTORS
330
622
102
}
330
622
100
AcDbVisualStyle
  2
Linepattern
 70
    14
 71
     2
 72
     2
 73
     0
 90
        0
 40
-0.6
 41
-30.0
 62
     5
 63
     7
 74
     1
 91
        4
 64
     7
 65
   257
 75
     7
175
     7
 42
1.0
 92
        8
 66
     7
 43
1.0
 76
     1
 77
     6
 78
     2
 67
     7
 79
     5
170
     0
171
     0
290
     0
174
     0
 93
        1
 44
0.0
173
     0
291
     1
 45
0.0
1001
ACAD
1000
AcDbSavedByObjectVersion
1070
     0
  0
VISUALSTYLE
  5
639
102
{ACAD_XDICTIONARY
360
6CC
102
}
102
{ACAD_REACTORS
330
622
102
}
330
622
100
AcDbVisualStyle
  2
OverhangOff
 70
    21
 71
     2
 72
     2
 73
     0
 90
        0
 40
-0.6
 41
-30.0
 62
     5
 63
     7
 74
     1
 91
        4
 64
     7
 65
   257
 75
     1
175
     1
 42
1.0
 92
        9
 66
     7
 43
1.0
 76
     1
 77
     6
 78
     2
 67
     7
 79
     5
170
     0
171
     0
290
     0
174
     0
 93
        1
 44
0.0
173
     0
291
     1
 45
0.0
1001
ACAD
1000
AcDbSavedByObjectVersion
1070
     0
  0
VISUALSTYLE
  5
62C
102
{ACAD_XDICTIONARY
360
6B2
102
}
102
{ACAD_REACTORS
330
622
102
}
330
622
100
AcDbVisualStyle
  2
Realistic
 70
     8
 71
     2
 72
     3
 73
     0
 90
        2
 40
-0.6
 41
30.0
 62
     5
 63
     7
 74
     0
 91
        0
 64
     7
 65
   257
 75
     1
175
     1
 42
1.0
 92
        8
 66
   257
 43
1.0
 76
     1
 77
     6
 78
     2
 67
     7
 79
     3
170
     0
171
     0
290
     0
174
     0
 93
       13
 44
0.0
173
     0
291
     0
 45
0.0
1001
ACAD
1000
AcDbSavedByObjectVersion
1070
     0
  0
VISUALSTYLE
  5
637
102
{ACAD_XDICTIONARY
360
6C8
102
}
102
{ACAD_REACTORS
330
622
102
}
330
622
100
AcDbVisualStyle
  2
Shaded
 70
    27
 71
     2
 72
     2
 73
     1
 90
        2
 40
-0.6
 41
30.0
 62
     5
 63
     7
 74
     0
 91
        4
 64
     7
 65
   257
 75
     1
175
     1
 42
1.0
 92
        8
 66
   257
 43
1.0
 76
     1
 77
     6
 78
     2
 67
     8
 79
     3
170
     0
171
     0
290
     0
174
     0
 93
        5
 44
0.0
173
     0
291
     0
 45
0.0
1001
ACAD
1000
AcDbSavedByObjectVersion
1070
     0
  0
VISUALSTYLE
  5
636
102
{ACAD_XDICTIONARY
360
6C6
102
}
102
{ACAD_REACTORS
330
622
102
}
330
622
100
AcDbVisualStyle
  2
Shaded with edges
 70
    26
 71
     2
 72
     2
 73
     1
 90
        2
 40
-0.6
 41
30.0
 62
     5
 63
     7
 74
     1
 91
        2
 64
     7
 65
   257
 75
     2
175
     1
 42
1.0
 92
        8
 66
   257
 43
1.0
 76
     1
 77
     6
 78
     2
 67
     7
 79
     3
170
     0
171
     0
290
     0
174
     0
 93
        5
 44
0.0
173
     0
291
     0
 45
0.0
1001
ACAD
1000
AcDbSavedByObjectVersion
1070
     0
  0
VISUALSTYLE
  5
633
102
{ACAD_XDICTIONARY
360
6C0
102
}
102
{ACAD_REACTORS
330
622
102
}
330
622
100
AcDbVisualStyle
  2
Shades of Gray
 70
    23
 71
     2
 72
     2
 73
     3
 90
        0
 40
-0.6
 41
-30.0
 62
     5
 63
     7
 74
     2
 91
        2
 64
     7
 65
     7
 75
     1
175
     1
 42
40.0
 92
        8
 66
     7
 43
1.0
 76
     1
 77
     6
 78
     2
 67
     7
 79
     3
170
     0
171
     0
290
     0
174
     0
 93
        1
 44
0.0
173
     0
291
     0
 45
0.0
1001
ACAD
1000
AcDbSavedByObjectVersion
1070
     0
  0
VISUALSTYLE
  5
634
102
{ACAD_XDICTIONARY
360
6C2
102
}
102
{ACAD_REACTORS
330
622
102
}
330
622
100
AcDbVisualStyle
  2
Sketchy
 70
    24
 71
     1
 72
     2
 73
     2
 90
        0
 40
-0.6
 41
-30.0
 62
     5
 63
     7
 74
     2
 91
        2
 64
     7
 65
     7
 75
     1
175
     1
 42
40.0
 92
       11
 66
     7
 43
1.0
 76
     1
 77
     6
 78
     2
 67
     7
 79
     6
170
     0
171
     0
290
     0
174
     0
 93
        1
 44
0.0
173
     0
291
     0
 45
0.0
1001
ACAD
1000
AcDbSavedByObjectVersion
1070
     0
  0
VISUALSTYLE
  5
62F
102
{ACAD_XDICTIONARY
360
6B8
102
}
102
{ACAD_REACTORS
330
622
102
}
330
622
100
AcDbVisualStyle
  2
Thicken
 70
    13
 71
     2
 72
     2
 73
     0
 90
        0
 40
-0.6
 41
-30.0
 62
     5
 63
     7
 74
     1
 91
        4
 64
     7
 65
   257
 75
     1
175
     1
 42
1.0
 92
       12
 66
     7
 43
1.0
 76
     1
 77
     6
 78
     2
 67
     7
 79
     5
170
     0
171
     0
290
     0
174
     0
 93
        1
 44
0.0
173
     0
291
     1
 45
0.0
1001
ACAD
1000
AcDbSavedByObjectVersion
1070
     0
  0
VISUALSTYLE
  5
629
102
{ACAD_XDICTIONARY
360
6AC
102
}
102
{ACAD_REACTORS
330
622
102
}
330
622
100
AcDbVisualStyle
  2
Wireframe
 70
     5
 71
     0
 72
     2
 73
     0
 90
        0
 40
-0.6
 41
-30.0
 62
     5
 63
     7
 74
     1
 91
        4
 64
     7
 65
   257
 75
     1
175
     1
 42
1.0
 92
        0
 66
   257
 43
1.0
 76
     1
 77
     6
 78
     2
 67
     7
 79
     3
170
     0
171
     0
290
     0
174
     0
 93
        1
 44
0.0
173
     0
291
     0
 45
0.0
1001
ACAD
1000
AcDbSavedByObjectVersion
1070
     0
  0
VISUALSTYLE
  5
635
102
{ACAD_XDICTIONARY
360
6C4
102
}
102
{ACAD_REACTORS
330
622
102
}
330
622
100
AcDbVisualStyle
  2
X-Ray
 70
    25
 71
     2
 72
     2
 73
     1
 90
        1
 40
0.5
 41
-30.0
 62
     5
 63
     7
 74
     1
 91
        0
 64
     7
 65
   257
 75
     1
175
     1
 42
1.0
 92
        8
 66
     7
 43
1.0
 76
     1
 77
     6
 78
     2
 67
     7
 79
     3
170
     0
171
     0
290
     0
174
     0
 93
       13
 44
0.0
173
     0
291
     0
 45
0.0
1001
ACAD
1000
AcDbSavedByObjectVersion
1070
     0
  0
DICTIONARYVAR
  5
693
102
{ACAD_REACTORS
330
68E
102
}
330
68E
100
DictionaryVariables
280
     0
  1
1:1
  0
DICTIONARYVAR
  5
690
102
{ACAD_REACTORS
330
68E
102
}
330
68E
100
DictionaryVariables
280
     0
  1
STANDARD
  0
DICTIONARYVAR
  5
68F
102
{ACAD_REACTORS
330
68E
102
}
330
68E
100
DictionaryVariables
280
     0
  1
STANDARD
  0
DICTIONARYVAR
  5
691
102
{ACAD_REACTORS
330
68E
102
}
330
68E
100
DictionaryVariables
280
     0
  1
Imperial24
  0
DICTIONARYVAR
  5
692
102
{ACAD_REACTORS
330
68E
102
}
330
68E
100
DictionaryVariables
280
     0
  1
Imperial24
  0
DICTIONARYVAR
  5
696
102
{ACAD_REACTORS
330
68E
102
}
330
68E
100
DictionaryVariables
280
     0
  1
1
  0
DICTIONARYVAR
  5
695
102
{ACAD_REACTORS
330
68E
102
}
330
68E
100
DictionaryVariables
280
     0
  1
0
  0
DICTIONARYVAR
  5
694
102
{ACAD_REACTORS
330
68E
102
}
330
68E
100
DictionaryVariables
280
     0
  1
127
  0
DICTIONARYVAR
  5
697
102
{ACAD_REACTORS
330
68E
102
}
330
68E
100
DictionaryVariables
280
     0
  1
2
  0
DICTIONARY
  5
6D4
330
663
100
AcDbDictionary
280
     1
281
     1
  3
ACAD_XREC_ROUNDTRIP
360
6D5
  0
DICTIONARY
  5
6D8
330
66B
100
AcDbDictionary
280
     1
281
     1
  3
ACAD_XREC_ROUNDTRIP
360
6D9
  0
DICTIONARY
  5
6D6
330
667
100
AcDbDictionary
280
     1
281
     1
  3
ACAD_XREC_ROUNDTRIP
360
6D7
  0
DICTIONARY
  5
613
330
612
100
AcDbDictionary
280
     1
281
     1
  3
ACAD_XREC_ROUNDTRIP
360
69E
  3
BUMPTILE
360
615
  3
DIFFUSETILE
360
614
  3
OPACITYTILE
360
618
  3
REFLECTIONTILE
360
617
  3
REFRACTIONTILE
360
619
  3
SPECULARTILE
360
616
  0
DICTIONARY
  5
60B
330
60A
100
AcDbDictionary
280
     1
281
     1
  3
ACAD_XREC_ROUNDTRIP
360
69D
  3
BUMPTILE
360
60D
  3
DIFFUSETILE
360
60C
  3
OPACITYTILE
360
610
  3
REFLECTIONTILE
360
60F
  3
REFRACTIONTILE
360
611
  3
SPECULARTILE
360
60E
  0
DICTIONARY
  5
61B
330
61A
100
AcDbDictionary
280
     1
281
     1
  3
ACAD_XREC_ROUNDTRIP
360
69F
  3
BUMPTILE
360
61D
  3
DIFFUSETILE
360
61C
  3
OPACITYTILE
360
620
  3
REFLECTIONTILE
360
61F
  3
REFRACTIONTILE
360
621
  3
SPECULARTILE
360
61E
  0
DICTIONARY
  5
6D2
330
661
100
AcDbDictionary
280
     1
281
     1
  3
ACAD_XREC_ROUNDTRIP
360
6D3
  0
DICTIONARY
  5
699
330
65D
100
AcDbDictionary
280
     1
281
     1
  3
ACAD_ROUNDTRIP_2008_TABLESTYLE_CELLSTYLEMAP
360
69A
  3
ACAD_XREC_ROUNDTRIP
360
6D0
  0
DICTIONARY
  5
6AA
330
628
100
AcDbDictionary
280
     1
281
     1
  3
ACAD_XREC_ROUNDTRIP
360
6AB
  0
DICTIONARY
  5
6A8
330
627
100
AcDbDictionary
280
     1
281
     1
  3
ACAD_XREC_ROUNDTRIP
360
6A9
  0
DICTIONARY
  5
6B6
330
62E
100
AcDbDictionary
280
     1
281
     1
  3
ACAD_XREC_ROUNDTRIP
360
6B7
  0
DICTIONARY
  5
6BE
330
632
100
AcDbDictionary
280
     1
281
     1
  3
ACAD_XREC_ROUNDTRIP
360
6BF
  0
DICTIONARY
  5
6B0
330
62B
100
AcDbDictionary
280
     1
281
     1
  3
ACAD_XREC_ROUNDTRIP
360
6B1
  0
DICTIONARY
  5
6B4
330
62D
100
AcDbDictionary
280
     1
281
     1
  3
ACAD_XREC_ROUNDTRIP
360
6B5
  0
DICTIONARY
  5
6CE
330
63A
100
AcDbDictionary
280
     1
281
     1
  3
ACAD_XREC_ROUNDTRIP
360
6CF
  0
DICTIONARY
  5
6BC
330
631
100
AcDbDictionary
280
     1
281
     1
  3
ACAD_XREC_ROUNDTRIP
360
6BD
  0
DICTIONARY
  5
6A0
330
623
100
AcDbDictionary
280
     1
281
     1
  3
ACAD_XREC_ROUNDTRIP
360
6A1
  0
DICTIONARY
  5
6A2
330
624
100
AcDbDictionary
280
     1
281
     1
  3
ACAD_XREC_ROUNDTRIP
360
6A3
  0
DICTIONARY
  5
6A4
330
625
100
AcDbDictionary
280
     1
281
     1
  3
ACAD_XREC_ROUNDTRIP
360
6A5
  0
DICTIONARY
  5
6A6
330
626
100
AcDbDictionary
280
     1
281
     1
  3
ACAD_XREC_ROUNDTRIP
360
6A7
  0
DICTIONARY
  5
6AE
330
62A
100
AcDbDictionary
280
     1
281
     1
  3
ACAD_XREC_ROUNDTRIP
360
6AF
  0
DICTIONARY
  5
6CA
330
638
100
AcDbDictionary
280
     1
281
     1
  3
ACAD_XREC_ROUNDTRIP
360
6CB
  0
DICTIONARY
  5
6BA
330
630
100
AcDbDictionary
280
     1
281
     1
  3
ACAD_XREC_ROUNDTRIP
360
6BB
  0
DICTIONARY
  5
6CC
330
639
100
AcDbDictionary
280
     1
281
     1
  3
ACAD_XREC_ROUNDTRIP
360
6CD
  0
DICTIONARY
  5
6B2
330
62C
100
AcDbDictionary
280
     1
281
     1
  3
ACAD_XREC_ROUNDTRIP
360
6B3
  0
DICTIONARY
  5
6C8
330
637
100
AcDbDictionary
280
     1
281
     1
  3
ACAD_XREC_ROUNDTRIP
360
6C9
  0
DICTIONARY
  5
6C6
330
636
100
AcDbDictionary
280
     1
281
     1
  3
ACAD_XREC_ROUNDTRIP
360
6C7
  0
DICTIONARY
  5
6C0
330
633
100
AcDbDictionary
280
     1
281
     1
  3
ACAD_XREC_ROUNDTRIP
360
6C1
  0
DICTIONARY
  5
6C2
330
634
100
AcDbDictionary
280
     1
281
     1
  3
ACAD_XREC_ROUNDTRIP
360
6C3
  0
DICTIONARY
  5
6B8
330
62F
100
AcDbDictionary
280
     1
281
     1
  3
ACAD_XREC_ROUNDTRIP
360
6B9
  0
DICTIONARY
  5
6AC
330
629
100
AcDbDictionary
280
     1
281
     1
  3
ACAD_XREC_ROUNDTRIP
360
6AD
  0
DICTIONARY
  5
6C4
330
635
100
AcDbDictionary
280
     1
281
     1
  3
ACAD_XREC_ROUNDTRIP
360
6C5
  0
XRECORD
  5
6D5
102
{ACAD_REACTORS
330
6D4
102
}
330
6D4
100
AcDbXrecord
280
     1
102
DISPLAYNAME
  1
Imperial24
102
FLAGS
 90
        0
  0
XRECORD
  5
6D9
102
{ACAD_REACTORS
330
6D8
102
}
330
6D8
100
AcDbXrecord
280
     1
102
SHADEPLOT
 70
     0
102
SHADEPLOTRESLEVEL
 70
     2
102
SHADEPLOTCUSTOMDPI
 70
   300
  0
XRECORD
  5
6D7
102
{ACAD_REACTORS
330
6D6
102
}
330
6D6
100
AcDbXrecord
280
     1
102
SHADEPLOT
 70
     0
102
SHADEPLOTRESLEVEL
 70
     2
102
SHADEPLOTCUSTOMDPI
 70
   300
  0
XRECORD
  5
69E
102
{ACAD_REACTORS
330
613
102
}
330
613
100
AcDbXrecord
280
     1
102
MATERIAL
148
0.0
149
0.0
149
0.0
 93
        0
 94
      127
282
     0
 72
     0
 77
     0
171
     0
175
     0
179
     0
273
     0
  0
XRECORD
  5
615
102
{ACAD_REACTORS
330
613
102
}
330
613
100
AcDbXrecord
280
     1
270
     1
271
     1
  0
XRECORD
  5
614
102
{ACAD_REACTORS
330
613
102
}
330
613
100
AcDbXrecord
280
     1
270
     1
271
     1
  0
XRECORD
  5
618
102
{ACAD_REACTORS
330
613
102
}
330
613
100
AcDbXrecord
280
     1
270
     1
271
     1
  0
XRECORD
  5
617
102
{ACAD_REACTORS
330
613
102
}
330
613
100
AcDbXrecord
280
     1
270
     1
271
     1
  0
XRECORD
  5
619
102
{ACAD_REACTORS
330
613
102
}
330
613
100
AcDbXrecord
280
     1
270
     1
271
     1
  0
XRECORD
  5
616
102
{ACAD_REACTORS
330
613
102
}
330
613
100
AcDbXrecord
280
     1
270
     1
271
     1
  0
XRECORD
  5
69D
102
{ACAD_REACTORS
330
60B
102
}
330
60B
100
AcDbXrecord
280
     1
102
MATERIAL
148
0.0
149
0.0
149
0.0
 93
        0
 94
      127
282
     0
 72
     0
 77
     0
171
     0
175
     0
179
     0
273
     0
  0
XRECORD
  5
60D
102
{ACAD_REACTORS
330
60B
102
}
330
60B
100
AcDbXrecord
280
     1
270
     1
271
     1
  0
XRECORD
  5
60C
102
{ACAD_REACTORS
330
60B
102
}
330
60B
100
AcDbXrecord
280
     1
270
     1
271
     1
  0
XRECORD
  5
610
102
{ACAD_REACTORS
330
60B
102
}
330
60B
100
AcDbXrecord
280
     1
270
     1
271
     1
  0
XRECORD
  5
60F
102
{ACAD_REACTORS
330
60B
102
}
330
60B
100
AcDbXrecord
280
     1
270
     1
271
     1
  0
XRECORD
  5
611
102
{ACAD_REACTORS
330
60B
102
}
330
60B
100
AcDbXrecord
280
     1
270
     1
271
     1
  0
XRECORD
  5
60E
102
{ACAD_REACTORS
330
60B
102
}
330
60B
100
AcDbXrecord
280
     1
270
     1
271
     1
  0
XRECORD
  5
69F
102
{ACAD_REACTORS
330
61B
102
}
330
61B
100
AcDbXrecord
280
     1
102
MATERIAL
148
0.0
149
0.0
149
0.0
 93
        0
 94
      127
282
     0
 72
     0
 77
     0
171
     0
175
     0
179
     0
273
     0
  0
XRECORD
  5
61D
102
{ACAD_REACTORS
330
61B
102
}
330
61B
100
AcDbXrecord
280
     1
270
     1
271
     1
  0
XRECORD
  5
61C
102
{ACAD_REACTORS
330
61B
102
}
330
61B
100
AcDbXrecord
280
     1
270
     1
271
     1
  0
XRECORD
  5
620
102
{ACAD_REACTORS
330
61B
102
}
330
61B
100
AcDbXrecord
280
     1
270
     1
271
     1
  0
XRECORD
  5
61F
102
{ACAD_REACTORS
330
61B
102
}
330
61B
100
AcDbXrecord
280
     1
270
     1
271
     1
  0
XRECORD
  5
621
102
{ACAD_REACTORS
330
61B
102
}
330
61B
100
AcDbXrecord
280
     1
270
     1
271
     1
  0
XRECORD
  5
61E
102
{ACAD_REACTORS
330
61B
102
}
330
61B
100
AcDbXrecord
280
     1
270
     1
271
     1
  0
XRECORD
  5
6D3
102
{ACAD_REACTORS
330
6D2
102
}
330
6D2
100
AcDbXrecord
280
     1
102
DISPLAYNAME
  1
Imperial24
102
FLAGS
 90
        0
  0
CELLSTYLEMAP
  5
69A
102
{ACAD_REACTORS
330
699
102
}
330
699
100
AcDbCellStyleMap
 90
        3
300
CELLSTYLE
  1
TABLEFORMAT_BEGIN
 90
        5
170
     1
 91
        0
 92
    32768
 62
   257
 93
        1
300
CONTENTFORMAT
  1
CONTENTFORMAT_BEGIN
 90
        0
 91
        0
 92
      512
 93
        0
300

 40
0.0
140
1.0
 94
        5
 62
     0
340
64E
144
0.25
309
CONTENTFORMAT_END
171
     0
 94
        0
309
TABLEFORMAT_END
  1
CELLSTYLE_BEGIN
 90
        1
 91
        1
300
_TITLE
309
CELLSTYLE_END
300
CELLSTYLE
  1
TABLEFORMAT_BEGIN
 90
        5
170
     1
 91
        0
 92
        0
 62
   257
 93
        1
300
CONTENTFORMAT
  1
CONTENTFORMAT_BEGIN
 90
        0
 91
        0
 92
      512
 93
        0
300

 40
0.0
140
1.0
 94
        5
 62
     0
340
64E
144
0.18
309
CONTENTFORMAT_END
171
     0
 94
        0
309
TABLEFORMAT_END
  1
CELLSTYLE_BEGIN
 90
        2
 91
        1
300
_HEADER
309
CELLSTYLE_END
300
CELLSTYLE
  1
TABLEFORMAT_BEGIN
 90
        5
170
     1
 91
        0
 92
        0
 62
   257
 93
        1
300
CONTENTFORMAT
  1
CONTENTFORMAT_BEGIN
 90
        0
 91
        0
 92
      512
 93
        0
300

 40
0.0
140
1.0
 94
        2
 62
     0
340
64E
144
0.18
309
CONTENTFORMAT_END
171
     0
 94
        0
309
TABLEFORMAT_END
  1
CELLSTYLE_BEGIN
 90
        3
 91
        2
300
_DATA
309
CELLSTYLE_END
  0
XRECORD
  5
6D0
102
{ACAD_REACTORS
330
699
102
}
330
699
100
AcDbXrecord
280
     1
102
ACAD_ROUNDTRIP_PRE2007_TABLESTYLE
 90
      512
 91
        0
  1

 92
      512
 93
        0
  2

 94
      512
 95
        0
  3

  0
XRECORD
  5
6AB
102
{ACAD_REACTORS
330
6AA
102
}
330
6AA
100
AcDbXrecord
280
     1
102
RTVSPost2010Prop28
280
     1
102
RTVSPost2010PropOp28
 70
     1
102
RTVSPost2010Prop29
280
     1
102
RTVSPost2010PropOp29
 70
     1
102
RTVSPost2010Prop30
280
     0
102
RTVSPost2010PropOp30
 70
     1
102
RTVSPost2010Prop31
280
     0
102
RTVSPost2010PropOp31
 70
     1
102
RTVSPost2010Prop32
280
     0
102
RTVSPost2010PropOp32
 70
     1
102
RTVSPost2010Prop33
280
     0
102
RTVSPost2010PropOp33
 70
     1
102
RTVSPost2010Prop34
280
     0
102
RTVSPost2010PropOp34
 70
     1
102
RTVSPost2010Prop35
280
     0
102
RTVSPost2010PropOp35
 70
     1
102
RTVSPost2010Prop36
280
     0
102
RTVSPost2010PropOp36
 70
     1
102
RTVSPost2010Prop37
 90
       50
102
RTVSPost2010PropOp37
 70
     1
102
RTVSPost2010Prop38
140
0.0
102
RTVSPost2010PropOp38
 70
     1
102
RTVSPost2010Prop39
140
1.0
102
RTVSPost2010PropOp39
 70
     1
102
RTVSPost2010Prop40
 90
        0
102
RTVSPost2010PropOp40
 70
     1
102
RTVSPost2010Prop41ColorIndex
 90
       18
102
RTVSPost2010Prop41ColorRGB
 90
        0
102
RTVSPost2010PropOp41
 70
     1
102
RTVSPost2010Prop42
 90
       50
102
RTVSPost2010PropOp42
 70
     1
102
RTVSPost2010Prop43
 90
        3
102
RTVSPost2010PropOp43
 70
     1
102
RTVSPost2010Prop44ColorIndex
 90
        5
102
RTVSPost2010Prop44ColorRGB
 90
      255
102
RTVSPost2010PropOp44
 70
     1
102
RTVSPost2010Prop45
280
     0
102
RTVSPost2010PropOp45
 70
     1
102
RTVSPost2010Prop46
 90
       50
102
RTVSPost2010PropOp46
 70
     1
102
RTVSPost2010Prop47
 90
       50
102
RTVSPost2010PropOp47
 70
     1
102
RTVSPost2010Prop48
 90
       50
102
RTVSPost2010PropOp48
 70
     1
102
RTVSPost2010Prop49
280
     0
102
RTVSPost2010PropOp49
 70
     1
102
RTVSPost2010Prop50
 90
       50
102
RTVSPost2010PropOp50
 70
     1
102
RTVSPost2010Prop51ColorIndex
 90
      256
102
RTVSPost2010Prop51ColorRGB
 90
-16777216
102
RTVSPost2010PropOp51
 70
     0
102
RTVSPost2010Prop52
140
1.0
102
RTVSPost2010PropOp52
 70
     0
102
RTVSPost2010Prop53
 90
        2
102
RTVSPost2010PropOp53
 70
     1
102
RTVSPost2010Prop54
  1
strokes_ogs.tif
102
RTVSPost2010PropOp54
 70
     1
102
RTVSPost2010Prop55
280
     0
102
RTVSPost2010PropOp55
 70
     1
102
RTVSPost2010Prop56
140
1.0
102
RTVSPost2010PropOp56
 70
     1
102
RTVSPost2010Prop57
140
1.0
102
RTVSPost2010PropOp57
 70
     1
102
RTVSPropertyOp0
 70
     1
102
RTVSPropertyOp1
 70
     1
102
RTVSPropertyOp2
 70
     1
102
RTVSPropertyOp3
 70
     1
102
RTVSPropertyOp4
 70
     1
102
RTVSPropertyOp5
 70
     1
102
RTVSPropertyOp6
 70
     1
102
RTVSPropertyOp7
 70
     1
102
RTVSPropertyOp8
 70
     1
102
RTVSPropertyOp9
 70
     1
102
RTVSPropertyOp10
 70
     1
102
RTVSPropertyOp11
 70
     1
102
RTVSPropertyOp12
 70
     1
102
RTVSPropertyOp13
 70
     1
102
RTVSPropertyOp14
 70
     1
102
RTVSPropertyOp15
 70
     1
102
RTVSPropertyOp16
 70
     1
102
RTVSPropertyOp17
 70
     1
102
RTVSPropertyOp18
 70
     1
102
RTVSPropertyOp19
 70
     1
102
RTVSPropertyOp20
 70
     1
102
RTVSPropertyOp21
 70
     1
102
RTVSPropertyOp22
 70
     1
102
RTVSPropertyOp23
 70
     1
102
RTVSPropertyOp24
 70
     1
102
RTVSPropertyOp25
 70
     1
102
RTVSPropertyOp26
 70
     1
102
RTVSPropertyOp27
 70
     1
102
RTVSPropertyOp28
 70
     1
102
RTVSPropertyOp29
 70
     1
102
RTVSPropertyOp30
 70
     1
102
RTVSPropertyOp31
 70
     1
102
RTVSPropertyOp32
 70
     1
102
RTVSPropertyOp33
 70
     1
102
RTVSPropertyOp34
 70
     1
102
RTVSPropertyOp35
 70
     1
102
RTVSPropertyOp36
 70
     1
102
RTVSPropertyOp37
 70
     1
102
RTVSPropertyOp38
 70
     1
102
RTVSPropertyOp39
 70
     1
102
RTVSPropertyOp40
 70
     1
102
RTVSPropertyOp41
 70
     1
102
RTVSPropertyOp42
 70
     1
102
RTVSPropertyOp43
 70
     1
102
RTVSPropertyOp44
 70
     1
102
RTVSPropertyOp45
 70
     1
102
RTVSPropertyOp46
 70
     1
102
RTVSPropertyOp47
 70
     1
102
RTVSPropertyOp48
 70
     1
102
RTVSPropertyOp49
 70
     1
102
RTVSPropertyOp50
 70
     1
102
RTVSPropertyOp51
 70
     0
102
RTVSPropertyOp52
 70
     0
102
RTVSPropertyOp53
 70
     1
102
RTVSPropertyOp54
 70
     1
102
RTVSPropertyOp55
 70
     1
102
RTVSPropertyOp56
 70
     1
102
RTVSPropertyOp57
 70
     1
102
RTVSPropertyOp58
 70
     1
102
RTVSPropertyOp59
 70
     1
102
RTVSPropertyOp60
 70
     1
102
RTVSPropertyOp61
 70
     1
102
RTVSPropertyOp62
 70
     1
  0
XRECORD
  5
6A9
102
{ACAD_REACTORS
330
6A8
102
}
330
6A8
100
AcDbXrecord
280
     1
102
RTVSPost2010Prop28
280
     0
102
RTVSPost2010PropOp28
 70
     1
102
RTVSPost2010Prop29
280
     1
102
RTVSPost2010PropOp29
 70
     1
102
RTVSPost2010Prop30
280
     1
102
RTVSPost2010PropOp30
 70
     1
102
RTVSPost2010Prop31
280
     0
102
RTVSPost2010PropOp31
 70
     1
102
RTVSPost2010Prop32
280
     0
102
RTVSPost2010PropOp32
 70
     1
102
RTVSPost2010Prop33
280
     0
102
RTVSPost2010PropOp33
 70
     1
102
RTVSPost2010Prop34
280
     0
102
RTVSPost2010PropOp34
 70
     1
102
RTVSPost2010Prop35
280
     0
102
RTVSPost2010PropOp35
 70
     1
102
RTVSPost2010Prop36
280
     0
102
RTVSPost2010PropOp36
 70
     1
102
RTVSPost2010Prop37
 90
       50
102
RTVSPost2010PropOp37
 70
     1
102
RTVSPost2010Prop38
140
0.0
102
RTVSPost2010PropOp38
 70
     1
102
RTVSPost2010Prop39
140
1.0
102
RTVSPost2010PropOp39
 70
     1
102
RTVSPost2010Prop40
 90
        0
102
RTVSPost2010PropOp40
 70
     1
102
RTVSPost2010Prop41ColorIndex
 90
       18
102
RTVSPost2010Prop41ColorRGB
 90
        0
102
RTVSPost2010PropOp41
 70
     1
102
RTVSPost2010Prop42
 90
       50
102
RTVSPost2010PropOp42
 70
     1
102
RTVSPost2010Prop43
 90
        3
102
RTVSPost2010PropOp43
 70
     1
102
RTVSPost2010Prop44ColorIndex
 90
        5
102
RTVSPost2010Prop44ColorRGB
 90
      255
102
RTVSPost2010PropOp44
 70
     1
102
RTVSPost2010Prop45
280
     0
102
RTVSPost2010PropOp45
 70
     1
102
RTVSPost2010Prop46
 90
       50
102
RTVSPost2010PropOp46
 70
     1
102
RTVSPost2010Prop47
 90
       50
102
RTVSPost2010PropOp47
 70
     1
102
RTVSPost2010Prop48
 90
       50
102
RTVSPost2010PropOp48
 70
     1
102
RTVSPost2010Prop49
280
     0
102
RTVSPost2010PropOp49
 70
     1
102
RTVSPost2010Prop50
 90
       50
102
RTVSPost2010PropOp50
 70
     1
102
RTVSPost2010Prop51ColorIndex
 90
      256
102
RTVSPost2010Prop51ColorRGB
 90
-16777216
102
RTVSPost2010PropOp51
 70
     0
102
RTVSPost2010Prop52
140
1.0
102
RTVSPost2010PropOp52
 70
     0
102
RTVSPost2010Prop53
 90
        2
102
RTVSPost2010PropOp53
 70
     1
102
RTVSPost2010Prop54
  1
strokes_ogs.tif
102
RTVSPost2010PropOp54
 70
     1
102
RTVSPost2010Prop55
280
     0
102
RTVSPost2010PropOp55
 70
     1
102
RTVSPost2010Prop56
140
1.0
102
RTVSPost2010PropOp56
 70
     1
102
RTVSPost2010Prop57
140
1.0
102
RTVSPost2010PropOp57
 70
     1
102
RTVSPropertyOp0
 70
     1
102
RTVSPropertyOp1
 70
     1
102
RTVSPropertyOp2
 70
     1
102
RTVSPropertyOp3
 70
     1
102
RTVSPropertyOp4
 70
     1
102
RTVSPropertyOp5
 70
     1
102
RTVSPropertyOp6
 70
     1
102
RTVSPropertyOp7
 70
     1
102
RTVSPropertyOp8
 70
     1
102
RTVSPropertyOp9
 70
     1
102
RTVSPropertyOp10
 70
     1
102
RTVSPropertyOp11
 70
     1
102
RTVSPropertyOp12
 70
     1
102
RTVSPropertyOp13
 70
     1
102
RTVSPropertyOp14
 70
     1
102
RTVSPropertyOp15
 70
     1
102
RTVSPropertyOp16
 70
     1
102
RTVSPropertyOp17
 70
     1
102
RTVSPropertyOp18
 70
     1
102
RTVSPropertyOp19
 70
     1
102
RTVSPropertyOp20
 70
     1
102
RTVSPropertyOp21
 70
     1
102
RTVSPropertyOp22
 70
     1
102
RTVSPropertyOp23
 70
     1
102
RTVSPropertyOp24
 70
     1
102
RTVSPropertyOp25
 70
     1
102
RTVSPropertyOp26
 70
     1
102
RTVSPropertyOp27
 70
     1
102
RTVSPropertyOp28
 70
     1
102
RTVSPropertyOp29
 70
     1
102
RTVSPropertyOp30
 70
     1
102
RTVSPropertyOp31
 70
     1
102
RTVSPropertyOp32
 70
     1
102
RTVSPropertyOp33
 70
     1
102
RTVSPropertyOp34
 70
     1
102
RTVSPropertyOp35
 70
     1
102
RTVSPropertyOp36
 70
     1
102
RTVSPropertyOp37
 70
     1
102
RTVSPropertyOp38
 70
     1
102
RTVSPropertyOp39
 70
     1
102
RTVSPropertyOp40
 70
     1
102
RTVSPropertyOp41
 70
     1
102
RTVSPropertyOp42
 70
     1
102
RTVSPropertyOp43
 70
     1
102
RTVSPropertyOp44
 70
     1
102
RTVSPropertyOp45
 70
     1
102
RTVSPropertyOp46
 70
     1
102
RTVSPropertyOp47
 70
     1
102
RTVSPropertyOp48
 70
     1
102
RTVSPropertyOp49
 70
     1
102
RTVSPropertyOp50
 70
     1
102
RTVSPropertyOp51
 70
     0
102
RTVSPropertyOp52
 70
     0
102
RTVSPropertyOp53
 70
     1
102
RTVSPropertyOp54
 70
     1
102
RTVSPropertyOp55
 70
     1
102
RTVSPropertyOp56
 70
     1
102
RTVSPropertyOp57
 70
     1
102
RTVSPropertyOp58
 70
     1
102
RTVSPropertyOp59
 70
     1
102
RTVSPropertyOp60
 70
     1
102
RTVSPropertyOp61
 70
     1
102
RTVSPropertyOp62
 70
     1
  0
XRECORD
  5
6B7
102
{ACAD_REACTORS
330
6B6
102
}
330
6B6
100
AcDbXrecord
280
     1
102
RTVSPost2010Prop28
280
     0
102
RTVSPost2010PropOp28
 70
     1
102
RTVSPost2010Prop29
280
     1
102
RTVSPost2010PropOp29
 70
     1
102
RTVSPost2010Prop30
280
     1
102
RTVSPost2010PropOp30
 70
     1
102
RTVSPost2010Prop31
280
     0
102
RTVSPost2010PropOp31
 70
     1
102
RTVSPost2010Prop32
280
     0
102
RTVSPost2010PropOp32
 70
     1
102
RTVSPost2010Prop33
280
     0
102
RTVSPost2010PropOp33
 70
     1
102
RTVSPost2010Prop34
280
     0
102
RTVSPost2010PropOp34
 70
     1
102
RTVSPost2010Prop35
280
     0
102
RTVSPost2010PropOp35
 70
     1
102
RTVSPost2010Prop36
280
     0
102
RTVSPost2010PropOp36
 70
     1
102
RTVSPost2010Prop37
 90
       50
102
RTVSPost2010PropOp37
 70
     1
102
RTVSPost2010Prop38
140
0.0
102
RTVSPost2010PropOp38
 70
     1
102
RTVSPost2010Prop39
140
1.0
102
RTVSPost2010PropOp39
 70
     1
102
RTVSPost2010Prop40
 90
        0
102
RTVSPost2010PropOp40
 70
     1
102
RTVSPost2010Prop41ColorIndex
 90
       18
102
RTVSPost2010Prop41ColorRGB
 90
        0
102
RTVSPost2010PropOp41
 70
     1
102
RTVSPost2010Prop42
 90
       50
102
RTVSPost2010PropOp42
 70
     1
102
RTVSPost2010Prop43
 90
        3
102
RTVSPost2010PropOp43
 70
     1
102
RTVSPost2010Prop44ColorIndex
 90
        5
102
RTVSPost2010Prop44ColorRGB
 90
      255
102
RTVSPost2010PropOp44
 70
     1
102
RTVSPost2010Prop45
280
     0
102
RTVSPost2010PropOp45
 70
     1
102
RTVSPost2010Prop46
 90
       50
102
RTVSPost2010PropOp46
 70
     1
102
RTVSPost2010Prop47
 90
       50
102
RTVSPost2010PropOp47
 70
     1
102
RTVSPost2010Prop48
 90
       50
102
RTVSPost2010PropOp48
 70
     1
102
RTVSPost2010Prop49
280
     0
102
RTVSPost2010PropOp49
 70
     1
102
RTVSPost2010Prop50
 90
       50
102
RTVSPost2010PropOp50
 70
     1
102
RTVSPost2010Prop51ColorIndex
 90
      256
102
RTVSPost2010Prop51ColorRGB
 90
-16777216
102
RTVSPost2010PropOp51
 70
     0
102
RTVSPost2010Prop52
140
1.0
102
RTVSPost2010PropOp52
 70
     0
102
RTVSPost2010Prop53
 90
        2
102
RTVSPost2010PropOp53
 70
     1
102
RTVSPost2010Prop54
  1
strokes_ogs.tif
102
RTVSPost2010PropOp54
 70
     1
102
RTVSPost2010Prop55
280
     0
102
RTVSPost2010PropOp55
 70
     1
102
RTVSPost2010Prop56
140
1.0
102
RTVSPost2010PropOp56
 70
     1
102
RTVSPost2010Prop57
140
1.0
102
RTVSPost2010PropOp57
 70
     1
102
RTVSPropertyOp0
 70
     1
102
RTVSPropertyOp1
 70
     1
102
RTVSPropertyOp2
 70
     1
102
RTVSPropertyOp3
 70
     1
102
RTVSPropertyOp4
 70
     1
102
RTVSPropertyOp5
 70
     1
102
RTVSPropertyOp6
 70
     1
102
RTVSPropertyOp7
 70
     1
102
RTVSPropertyOp8
 70
     1
102
RTVSPropertyOp9
 70
     1
102
RTVSPropertyOp10
 70
     1
102
RTVSPropertyOp11
 70
     1
102
RTVSPropertyOp12
 70
     1
102
RTVSPropertyOp13
 70
     1
102
RTVSPropertyOp14
 70
     1
102
RTVSPropertyOp15
 70
     1
102
RTVSPropertyOp16
 70
     1
102
RTVSPropertyOp17
 70
     1
102
RTVSPropertyOp18
 70
     1
102
RTVSPropertyOp19
 70
     1
102
RTVSPropertyOp20
 70
     1
102
RTVSPropertyOp21
 70
     1
102
RTVSPropertyOp22
 70
     1
102
RTVSPropertyOp23
 70
     1
102
RTVSPropertyOp24
 70
     1
102
RTVSPropertyOp25
 70
     1
102
RTVSPropertyOp26
 70
     1
102
RTVSPropertyOp27
 70
     1
102
RTVSPropertyOp28
 70
     1
102
RTVSPropertyOp29
 70
     1
102
RTVSPropertyOp30
 70
     1
102
RTVSPropertyOp31
 70
     1
102
RTVSPropertyOp32
 70
     1
102
RTVSPropertyOp33
 70
     1
102
RTVSPropertyOp34
 70
     1
102
RTVSPropertyOp35
 70
     1
102
RTVSPropertyOp36
 70
     1
102
RTVSPropertyOp37
 70
     1
102
RTVSPropertyOp38
 70
     1
102
RTVSPropertyOp39
 70
     1
102
RTVSPropertyOp40
 70
     1
102
RTVSPropertyOp41
 70
     1
102
RTVSPropertyOp42
 70
     1
102
RTVSPropertyOp43
 70
     1
102
RTVSPropertyOp44
 70
     1
102
RTVSPropertyOp45
 70
     1
102
RTVSPropertyOp46
 70
     1
102
RTVSPropertyOp47
 70
     1
102
RTVSPropertyOp48
 70
     1
102
RTVSPropertyOp49
 70
     1
102
RTVSPropertyOp50
 70
     1
102
RTVSPropertyOp51
 70
     0
102
RTVSPropertyOp52
 70
     0
102
RTVSPropertyOp53
 70
     1
102
RTVSPropertyOp54
 70
     1
102
RTVSPropertyOp55
 70
     1
102
RTVSPropertyOp56
 70
     1
102
RTVSPropertyOp57
 70
     1
102
RTVSPropertyOp58
 70
     1
102
RTVSPropertyOp59
 70
     1
102
RTVSPropertyOp60
 70
     1
102
RTVSPropertyOp61
 70
     1
102
RTVSPropertyOp62
 70
     1
  0
XRECORD
  5
6BF
102
{ACAD_REACTORS
330
6BE
102
}
330
6BE
100
AcDbXrecord
280
     1
102
RTVSPost2010Prop28
280
     0
102
RTVSPost2010PropOp28
 70
     1
102
RTVSPost2010Prop29
280
     1
102
RTVSPost2010PropOp29
 70
     1
102
RTVSPost2010Prop30
280
     1
102
RTVSPost2010PropOp30
 70
     1
102
RTVSPost2010Prop31
280
     0
102
RTVSPost2010PropOp31
 70
     1
102
RTVSPost2010Prop32
280
     0
102
RTVSPost2010PropOp32
 70
     1
102
RTVSPost2010Prop33
280
     0
102
RTVSPost2010PropOp33
 70
     1
102
RTVSPost2010Prop34
280
     0
102
RTVSPost2010PropOp34
 70
     1
102
RTVSPost2010Prop35
280
     0
102
RTVSPost2010PropOp35
 70
     1
102
RTVSPost2010Prop36
280
     0
102
RTVSPost2010PropOp36
 70
     1
102
RTVSPost2010Prop37
 90
       50
102
RTVSPost2010PropOp37
 70
     1
102
RTVSPost2010Prop38
140
0.0
102
RTVSPost2010PropOp38
 70
     1
102
RTVSPost2010Prop39
140
1.0
102
RTVSPost2010PropOp39
 70
     1
102
RTVSPost2010Prop40
 90
        0
102
RTVSPost2010PropOp40
 70
     1
102
RTVSPost2010Prop41ColorIndex
 90
       18
102
RTVSPost2010Prop41ColorRGB
 90
        0
102
RTVSPost2010PropOp41
 70
     1
102
RTVSPost2010Prop42
 90
       50
102
RTVSPost2010PropOp42
 70
     1
102
RTVSPost2010Prop43
 90
        3
102
RTVSPost2010PropOp43
 70
     1
102
RTVSPost2010Prop44ColorIndex
 90
        5
102
RTVSPost2010Prop44ColorRGB
 90
      255
102
RTVSPost2010PropOp44
 70
     1
102
RTVSPost2010Prop45
280
     0
102
RTVSPost2010PropOp45
 70
     1
102
RTVSPost2010Prop46
 90
       50
102
RTVSPost2010PropOp46
 70
     1
102
RTVSPost2010Prop47
 90
       50
102
RTVSPost2010PropOp47
 70
     1
102
RTVSPost2010Prop48
 90
       50
102
RTVSPost2010PropOp48
 70
     1
102
RTVSPost2010Prop49
280
     0
102
RTVSPost2010PropOp49
 70
     1
102
RTVSPost2010Prop50
 90
       50
102
RTVSPost2010PropOp50
 70
     1
102
RTVSPost2010Prop51ColorIndex
 90
      256
102
RTVSPost2010Prop51ColorRGB
 90
-16777216
102
RTVSPost2010PropOp51
 70
     0
102
RTVSPost2010Prop52
140
1.0
102
RTVSPost2010PropOp52
 70
     0
102
RTVSPost2010Prop53
 90
        2
102
RTVSPost2010PropOp53
 70
     1
102
RTVSPost2010Prop54
  1
strokes_ogs.tif
102
RTVSPost2010PropOp54
 70
     1
102
RTVSPost2010Prop55
280
     0
102
RTVSPost2010PropOp55
 70
     1
102
RTVSPost2010Prop56
140
1.0
102
RTVSPost2010PropOp56
 70
     1
102
RTVSPost2010Prop57
140
1.0
102
RTVSPost2010PropOp57
 70
     1
102
RTVSPropertyOp0
 70
     1
102
RTVSPropertyOp1
 70
     1
102
RTVSPropertyOp2
 70
     1
102
RTVSPropertyOp3
 70
     1
102
RTVSPropertyOp4
 70
     1
102
RTVSPropertyOp5
 70
     1
102
RTVSPropertyOp6
 70
     1
102
RTVSPropertyOp7
 70
     1
102
RTVSPropertyOp8
 70
     1
102
RTVSPropertyOp9
 70
     1
102
RTVSPropertyOp10
 70
     1
102
RTVSPropertyOp11
 70
     1
102
RTVSPropertyOp12
 70
     1
102
RTVSPropertyOp13
 70
     1
102
RTVSPropertyOp14
 70
     1
102
RTVSPropertyOp15
 70
     1
102
RTVSPropertyOp16
 70
     1
102
RTVSPropertyOp17
 70
     1
102
RTVSPropertyOp18
 70
     1
102
RTVSPropertyOp19
 70
     1
102
RTVSPropertyOp20
 70
     1
102
RTVSPropertyOp21
 70
     1
102
RTVSPropertyOp22
 70
     1
102
RTVSPropertyOp23
 70
     1
102
RTVSPropertyOp24
 70
     1
102
RTVSPropertyOp25
 70
     1
102
RTVSPropertyOp26
 70
     1
102
RTVSPropertyOp27
 70
     1
102
RTVSPropertyOp28
 70
     1
102
RTVSPropertyOp29
 70
     1
102
RTVSPropertyOp30
 70
     1
102
RTVSPropertyOp31
 70
     1
102
RTVSPropertyOp32
 70
     1
102
RTVSPropertyOp33
 70
     1
102
RTVSPropertyOp34
 70
     1
102
RTVSPropertyOp35
 70
     1
102
RTVSPropertyOp36
 70
     1
102
RTVSPropertyOp37
 70
     1
102
RTVSPropertyOp38
 70
     1
102
RTVSPropertyOp39
 70
     1
102
RTVSPropertyOp40
 70
     1
102
RTVSPropertyOp41
 70
     1
102
RTVSPropertyOp42
 70
     1
102
RTVSPropertyOp43
 70
     1
102
RTVSPropertyOp44
 70
     1
102
RTVSPropertyOp45
 70
     1
102
RTVSPropertyOp46
 70
     1
102
RTVSPropertyOp47
 70
     1
102
RTVSPropertyOp48
 70
     1
102
RTVSPropertyOp49
 70
     1
102
RTVSPropertyOp50
 70
     1
102
RTVSPropertyOp51
 70
     0
102
RTVSPropertyOp52
 70
     0
102
RTVSPropertyOp53
 70
     1
102
RTVSPropertyOp54
 70
     1
102
RTVSPropertyOp55
 70
     1
102
RTVSPropertyOp56
 70
     1
102
RTVSPropertyOp57
 70
     1
102
RTVSPropertyOp58
 70
     1
102
RTVSPropertyOp59
 70
     1
102
RTVSPropertyOp60
 70
     1
102
RTVSPropertyOp61
 70
     1
102
RTVSPropertyOp62
 70
     1
  0
XRECORD
  5
6B1
102
{ACAD_REACTORS
330
6B0
102
}
330
6B0
100
AcDbXrecord
280
     1
102
RTVSPost2010Prop28
280
     0
102
RTVSPost2010PropOp28
 70
     1
102
RTVSPost2010Prop29
280
     1
102
RTVSPost2010PropOp29
 70
     1
102
RTVSPost2010Prop30
280
     1
102
RTVSPost2010PropOp30
 70
     1
102
RTVSPost2010Prop31
280
     0
102
RTVSPost2010PropOp31
 70
     1
102
RTVSPost2010Prop32
280
     0
102
RTVSPost2010PropOp32
 70
     1
102
RTVSPost2010Prop33
280
     0
102
RTVSPost2010PropOp33
 70
     1
102
RTVSPost2010Prop34
280
     0
102
RTVSPost2010PropOp34
 70
     1
102
RTVSPost2010Prop35
280
     0
102
RTVSPost2010PropOp35
 70
     1
102
RTVSPost2010Prop36
280
     0
102
RTVSPost2010PropOp36
 70
     1
102
RTVSPost2010Prop37
 90
       50
102
RTVSPost2010PropOp37
 70
     1
102
RTVSPost2010Prop38
140
0.0
102
RTVSPost2010PropOp38
 70
     1
102
RTVSPost2010Prop39
140
1.0
102
RTVSPost2010PropOp39
 70
     1
102
RTVSPost2010Prop40
 90
        0
102
RTVSPost2010PropOp40
 70
     1
102
RTVSPost2010Prop41ColorIndex
 90
       18
102
RTVSPost2010Prop41ColorRGB
 90
        0
102
RTVSPost2010PropOp41
 70
     1
102
RTVSPost2010Prop42
 90
       50
102
RTVSPost2010PropOp42
 70
     1
102
RTVSPost2010Prop43
 90
        3
102
RTVSPost2010PropOp43
 70
     1
102
RTVSPost2010Prop44ColorIndex
 90
        5
102
RTVSPost2010Prop44ColorRGB
 90
      255
102
RTVSPost2010PropOp44
 70
     1
102
RTVSPost2010Prop45
280
     0
102
RTVSPost2010PropOp45
 70
     1
102
RTVSPost2010Prop46
 90
       50
102
RTVSPost2010PropOp46
 70
     1
102
RTVSPost2010Prop47
 90
       50
102
RTVSPost2010PropOp47
 70
     1
102
RTVSPost2010Prop48
 90
       50
102
RTVSPost2010PropOp48
 70
     1
102
RTVSPost2010Prop49
280
     0
102
RTVSPost2010PropOp49
 70
     1
102
RTVSPost2010Prop50
 90
       50
102
RTVSPost2010PropOp50
 70
     1
102
RTVSPost2010Prop51ColorIndex
 90
      256
102
RTVSPost2010Prop51ColorRGB
 90
-16777216
102
RTVSPost2010PropOp51
 70
     0
102
RTVSPost2010Prop52
140
1.0
102
RTVSPost2010PropOp52
 70
     0
102
RTVSPost2010Prop53
 90
        2
102
RTVSPost2010PropOp53
 70
     1
102
RTVSPost2010Prop54
  1
strokes_ogs.tif
102
RTVSPost2010PropOp54
 70
     1
102
RTVSPost2010Prop55
280
     0
102
RTVSPost2010PropOp55
 70
     1
102
RTVSPost2010Prop56
140
1.0
102
RTVSPost2010PropOp56
 70
     1
102
RTVSPost2010Prop57
140
1.0
102
RTVSPost2010PropOp57
 70
     1
102
RTVSPropertyOp0
 70
     1
102
RTVSPropertyOp1
 70
     1
102
RTVSPropertyOp2
 70
     1
102
RTVSPropertyOp3
 70
     1
102
RTVSPropertyOp4
 70
     1
102
RTVSPropertyOp5
 70
     1
102
RTVSPropertyOp6
 70
     1
102
RTVSPropertyOp7
 70
     1
102
RTVSPropertyOp8
 70
     1
102
RTVSPropertyOp9
 70
     1
102
RTVSPropertyOp10
 70
     1
102
RTVSPropertyOp11
 70
     1
102
RTVSPropertyOp12
 70
     1
102
RTVSPropertyOp13
 70
     1
102
RTVSPropertyOp14
 70
     1
102
RTVSPropertyOp15
 70
     1
102
RTVSPropertyOp16
 70
     1
102
RTVSPropertyOp17
 70
     1
102
RTVSPropertyOp18
 70
     1
102
RTVSPropertyOp19
 70
     1
102
RTVSPropertyOp20
 70
     1
102
RTVSPropertyOp21
 70
     1
102
RTVSPropertyOp22
 70
     1
102
RTVSPropertyOp23
 70
     1
102
RTVSPropertyOp24
 70
     1
102
RTVSPropertyOp25
 70
     1
102
RTVSPropertyOp26
 70
     1
102
RTVSPropertyOp27
 70
     1
102
RTVSPropertyOp28
 70
     1
102
RTVSPropertyOp29
 70
     1
102
RTVSPropertyOp30
 70
     1
102
RTVSPropertyOp31
 70
     1
102
RTVSPropertyOp32
 70
     1
102
RTVSPropertyOp33
 70
     1
102
RTVSPropertyOp34
 70
     1
102
RTVSPropertyOp35
 70
     1
102
RTVSPropertyOp36
 70
     1
102
RTVSPropertyOp37
 70
     1
102
RTVSPropertyOp38
 70
     1
102
RTVSPropertyOp39
 70
     1
102
RTVSPropertyOp40
 70
     1
102
RTVSPropertyOp41
 70
     1
102
RTVSPropertyOp42
 70
     1
102
RTVSPropertyOp43
 70
     1
102
RTVSPropertyOp44
 70
     1
102
RTVSPropertyOp45
 70
     1
102
RTVSPropertyOp46
 70
     1
102
RTVSPropertyOp47
 70
     1
102
RTVSPropertyOp48
 70
     1
102
RTVSPropertyOp49
 70
     1
102
RTVSPropertyOp50
 70
     1
102
RTVSPropertyOp51
 70
     0
102
RTVSPropertyOp52
 70
     0
102
RTVSPropertyOp53
 70
     1
102
RTVSPropertyOp54
 70
     1
102
RTVSPropertyOp55
 70
     1
102
RTVSPropertyOp56
 70
     1
102
RTVSPropertyOp57
 70
     1
102
RTVSPropertyOp58
 70
     1
102
RTVSPropertyOp59
 70
     1
102
RTVSPropertyOp60
 70
     1
102
RTVSPropertyOp61
 70
     1
102
RTVSPropertyOp62
 70
     1
  0
XRECORD
  5
6B5
102
{ACAD_REACTORS
330
6B4
102
}
330
6B4
100
AcDbXrecord
280
     1
102
RTVSPost2010Prop28
280
     0
102
RTVSPost2010PropOp28
 70
     1
102
RTVSPost2010Prop29
280
     1
102
RTVSPost2010PropOp29
 70
     1
102
RTVSPost2010Prop30
280
     1
102
RTVSPost2010PropOp30
 70
     1
102
RTVSPost2010Prop31
280
     0
102
RTVSPost2010PropOp31
 70
     1
102
RTVSPost2010Prop32
280
     0
102
RTVSPost2010PropOp32
 70
     1
102
RTVSPost2010Prop33
280
     0
102
RTVSPost2010PropOp33
 70
     1
102
RTVSPost2010Prop34
280
     0
102
RTVSPost2010PropOp34
 70
     1
102
RTVSPost2010Prop35
280
     0
102
RTVSPost2010PropOp35
 70
     1
102
RTVSPost2010Prop36
280
     0
102
RTVSPost2010PropOp36
 70
     1
102
RTVSPost2010Prop37
 90
       50
102
RTVSPost2010PropOp37
 70
     1
102
RTVSPost2010Prop38
140
0.0
102
RTVSPost2010PropOp38
 70
     1
102
RTVSPost2010Prop39
140
1.0
102
RTVSPost2010PropOp39
 70
     1
102
RTVSPost2010Prop40
 90
        0
102
RTVSPost2010PropOp40
 70
     1
102
RTVSPost2010Prop41ColorIndex
 90
       18
102
RTVSPost2010Prop41ColorRGB
 90
        0
102
RTVSPost2010PropOp41
 70
     1
102
RTVSPost2010Prop42
 90
       50
102
RTVSPost2010PropOp42
 70
     1
102
RTVSPost2010Prop43
 90
        3
102
RTVSPost2010PropOp43
 70
     1
102
RTVSPost2010Prop44ColorIndex
 90
        5
102
RTVSPost2010Prop44ColorRGB
 90
      255
102
RTVSPost2010PropOp44
 70
     1
102
RTVSPost2010Prop45
280
     0
102
RTVSPost2010PropOp45
 70
     1
102
RTVSPost2010Prop46
 90
       50
102
RTVSPost2010PropOp46
 70
     1
102
RTVSPost2010Prop47
 90
       50
102
RTVSPost2010PropOp47
 70
     1
102
RTVSPost2010Prop48
 90
       50
102
RTVSPost2010PropOp48
 70
     1
102
RTVSPost2010Prop49
280
     0
102
RTVSPost2010PropOp49
 70
     1
102
RTVSPost2010Prop50
 90
       50
102
RTVSPost2010PropOp50
 70
     1
102
RTVSPost2010Prop51ColorIndex
 90
      256
102
RTVSPost2010Prop51ColorRGB
 90
-16777216
102
RTVSPost2010PropOp51
 70
     0
102
RTVSPost2010Prop52
140
1.0
102
RTVSPost2010PropOp52
 70
     0
102
RTVSPost2010Prop53
 90
        2
102
RTVSPost2010PropOp53
 70
     1
102
RTVSPost2010Prop54
  1
strokes_ogs.tif
102
RTVSPost2010PropOp54
 70
     1
102
RTVSPost2010Prop55
280
     0
102
RTVSPost2010PropOp55
 70
     1
102
RTVSPost2010Prop56
140
1.0
102
RTVSPost2010PropOp56
 70
     1
102
RTVSPost2010Prop57
140
1.0
102
RTVSPost2010PropOp57
 70
     1
102
RTVSPropertyOp0
 70
     1
102
RTVSPropertyOp1
 70
     1
102
RTVSPropertyOp2
 70
     1
102
RTVSPropertyOp3
 70
     1
102
RTVSPropertyOp4
 70
     1
102
RTVSPropertyOp5
 70
     1
102
RTVSPropertyOp6
 70
     1
102
RTVSPropertyOp7
 70
     1
102
RTVSPropertyOp8
 70
     1
102
RTVSPropertyOp9
 70
     1
102
RTVSPropertyOp10
 70
     1
102
RTVSPropertyOp11
 70
     1
102
RTVSPropertyOp12
 70
     1
102
RTVSPropertyOp13
 70
     1
102
RTVSPropertyOp14
 70
     1
102
RTVSPropertyOp15
 70
     1
102
RTVSPropertyOp16
 70
     1
102
RTVSPropertyOp17
 70
     1
102
RTVSPropertyOp18
 70
     1
102
RTVSPropertyOp19
 70
     1
102
RTVSPropertyOp20
 70
     1
102
RTVSPropertyOp21
 70
     1
102
RTVSPropertyOp22
 70
     1
102
RTVSPropertyOp23
 70
     1
102
RTVSPropertyOp24
 70
     1
102
RTVSPropertyOp25
 70
     1
102
RTVSPropertyOp26
 70
     1
102
RTVSPropertyOp27
 70
     1
102
RTVSPropertyOp28
 70
     1
102
RTVSPropertyOp29
 70
     1
102
RTVSPropertyOp30
 70
     1
102
RTVSPropertyOp31
 70
     1
102
RTVSPropertyOp32
 70
     1
102
RTVSPropertyOp33
 70
     1
102
RTVSPropertyOp34
 70
     1
102
RTVSPropertyOp35
 70
     1
102
RTVSPropertyOp36
 70
     1
102
RTVSPropertyOp37
 70
     1
102
RTVSPropertyOp38
 70
     1
102
RTVSPropertyOp39
 70
     1
102
RTVSPropertyOp40
 70
     1
102
RTVSPropertyOp41
 70
     1
102
RTVSPropertyOp42
 70
     1
102
RTVSPropertyOp43
 70
     1
102
RTVSPropertyOp44
 70
     1
102
RTVSPropertyOp45
 70
     1
102
RTVSPropertyOp46
 70
     1
102
RTVSPropertyOp47
 70
     1
102
RTVSPropertyOp48
 70
     1
102
RTVSPropertyOp49
 70
     1
102
RTVSPropertyOp50
 70
     1
102
RTVSPropertyOp51
 70
     0
102
RTVSPropertyOp52
 70
     0
102
RTVSPropertyOp53
 70
     1
102
RTVSPropertyOp54
 70
     1
102
RTVSPropertyOp55
 70
     1
102
RTVSPropertyOp56
 70
     1
102
RTVSPropertyOp57
 70
     1
102
RTVSPropertyOp58
 70
     1
102
RTVSPropertyOp59
 70
     1
102
RTVSPropertyOp60
 70
     1
102
RTVSPropertyOp61
 70
     1
102
RTVSPropertyOp62
 70
     1
  0
XRECORD
  5
6CF
102
{ACAD_REACTORS
330
6CE
102
}
330
6CE
100
AcDbXrecord
280
     1
102
RTVSPost2010Prop28
280
     0
102
RTVSPost2010PropOp28
 70
     1
102
RTVSPost2010Prop29
280
     1
102
RTVSPost2010PropOp29
 70
     1
102
RTVSPost2010Prop30
280
     1
102
RTVSPost2010PropOp30
 70
     1
102
RTVSPost2010Prop31
280
     0
102
RTVSPost2010PropOp31
 70
     1
102
RTVSPost2010Prop32
280
     0
102
RTVSPost2010PropOp32
 70
     1
102
RTVSPost2010Prop33
280
     0
102
RTVSPost2010PropOp33
 70
     1
102
RTVSPost2010Prop34
280
     0
102
RTVSPost2010PropOp34
 70
     1
102
RTVSPost2010Prop35
280
     0
102
RTVSPost2010PropOp35
 70
     1
102
RTVSPost2010Prop36
280
     0
102
RTVSPost2010PropOp36
 70
     1
102
RTVSPost2010Prop37
 90
       50
102
RTVSPost2010PropOp37
 70
     0
102
RTVSPost2010Prop38
140
0.0
102
RTVSPost2010PropOp38
 70
     0
102
RTVSPost2010Prop39
140
1.0
102
RTVSPost2010PropOp39
 70
     0
102
RTVSPost2010Prop40
 90
        0
102
RTVSPost2010PropOp40
 70
     0
102
RTVSPost2010Prop41ColorIndex
 90
       18
102
RTVSPost2010Prop41ColorRGB
 90
        0
102
RTVSPost2010PropOp41
 70
     0
102
RTVSPost2010Prop42
 90
       50
102
RTVSPost2010PropOp42
 70
     0
102
RTVSPost2010Prop43
 90
        3
102
RTVSPost2010PropOp43
 70
     0
102
RTVSPost2010Prop44ColorIndex
 90
        5
102
RTVSPost2010Prop44ColorRGB
 90
      255
102
RTVSPost2010PropOp44
 70
     0
102
RTVSPost2010Prop45
280
     0
102
RTVSPost2010PropOp45
 70
     1
102
RTVSPost2010Prop46
 90
       50
102
RTVSPost2010PropOp46
 70
     0
102
RTVSPost2010Prop47
 90
       50
102
RTVSPost2010PropOp47
 70
     0
102
RTVSPost2010Prop48
 90
       50
102
RTVSPost2010PropOp48
 70
     0
102
RTVSPost2010Prop49
280
     0
102
RTVSPost2010PropOp49
 70
     1
102
RTVSPost2010Prop50
 90
       50
102
RTVSPost2010PropOp50
 70
     0
102
RTVSPost2010Prop51ColorIndex
 90
      256
102
RTVSPost2010Prop51ColorRGB
 90
-16777216
102
RTVSPost2010PropOp51
 70
     0
102
RTVSPost2010Prop52
140
1.0
102
RTVSPost2010PropOp52
 70
     0
102
RTVSPost2010Prop53
 90
        2
102
RTVSPost2010PropOp53
 70
     0
102
RTVSPost2010Prop54
  1
strokes_ogs.tif
102
RTVSPost2010PropOp54
 70
     0
102
RTVSPost2010Prop55
280
     0
102
RTVSPost2010PropOp55
 70
     1
102
RTVSPost2010Prop56
140
1.0
102
RTVSPost2010PropOp56
 70
     0
102
RTVSPost2010Prop57
140
1.0
102
RTVSPost2010PropOp57
 70
     0
102
RTVSPropertyOp0
 70
     0
102
RTVSPropertyOp1
 70
     0
102
RTVSPropertyOp2
 70
     0
102
RTVSPropertyOp3
 70
     0
102
RTVSPropertyOp4
 70
     0
102
RTVSPropertyOp5
 70
     0
102
RTVSPropertyOp6
 70
     0
102
RTVSPropertyOp7
 70
     0
102
RTVSPropertyOp8
 70
     0
102
RTVSPropertyOp9
 70
     0
102
RTVSPropertyOp10
 70
     0
102
RTVSPropertyOp11
 70
     0
102
RTVSPropertyOp12
 70
     0
102
RTVSPropertyOp13
 70
     0
102
RTVSPropertyOp14
 70
     2
102
RTVSPropertyOp15
 70
     0
102
RTVSPropertyOp16
 70
     0
102
RTVSPropertyOp17
 70
     0
102
RTVSPropertyOp18
 70
     0
102
RTVSPropertyOp19
 70
     0
102
RTVSPropertyOp20
 70
     0
102
RTVSPropertyOp21
 70
     0
102
RTVSPropertyOp22
 70
     0
102
RTVSPropertyOp23
 70
     0
102
RTVSPropertyOp24
 70
     0
102
RTVSPropertyOp25
 70
     0
102
RTVSPropertyOp26
 70
     0
102
RTVSPropertyOp27
 70
     0
102
RTVSPropertyOp28
 70
     1
102
RTVSPropertyOp29
 70
     1
102
RTVSPropertyOp30
 70
     1
102
RTVSPropertyOp31
 70
     1
102
RTVSPropertyOp32
 70
     1
102
RTVSPropertyOp33
 70
     1
102
RTVSPropertyOp34
 70
     1
102
RTVSPropertyOp35
 70
     1
102
RTVSPropertyOp36
 70
     1
102
RTVSPropertyOp37
 70
     0
102
RTVSPropertyOp38
 70
     0
102
RTVSPropertyOp39
 70
     0
102
RTVSPropertyOp40
 70
     0
102
RTVSPropertyOp41
 70
     0
102
RTVSPropertyOp42
 70
     0
102
RTVSPropertyOp43
 70
     0
102
RTVSPropertyOp44
 70
     0
102
RTVSPropertyOp45
 70
     1
102
RTVSPropertyOp46
 70
     0
102
RTVSPropertyOp47
 70
     0
102
RTVSPropertyOp48
 70
     0
102
RTVSPropertyOp49
 70
     1
102
RTVSPropertyOp50
 70
     0
102
RTVSPropertyOp51
 70
     0
102
RTVSPropertyOp52
 70
     0
102
RTVSPropertyOp53
 70
     0
102
RTVSPropertyOp54
 70
     0
102
RTVSPropertyOp55
 70
     1
102
RTVSPropertyOp56
 70
     0
102
RTVSPropertyOp57
 70
     0
102
RTVSPropertyOp58
 70
     0
102
RTVSPropertyOp59
 70
     0
102
RTVSPropertyOp60
 70
     0
102
RTVSPropertyOp61
 70
     0
102
RTVSPropertyOp62
 70
     0
  0
XRECORD
  5
6BD
102
{ACAD_REACTORS
330
6BC
102
}
330
6BC
100
AcDbXrecord
280
     1
102
RTVSPost2010Prop28
280
     0
102
RTVSPost2010PropOp28
 70
     1
102
RTVSPost2010Prop29
280
     1
102
RTVSPost2010PropOp29
 70
     1
102
RTVSPost2010Prop30
280
     1
102
RTVSPost2010PropOp30
 70
     1
102
RTVSPost2010Prop31
280
     0
102
RTVSPost2010PropOp31
 70
     1
102
RTVSPost2010Prop32
280
     0
102
RTVSPost2010PropOp32
 70
     1
102
RTVSPost2010Prop33
280
     0
102
RTVSPost2010PropOp33
 70
     1
102
RTVSPost2010Prop34
280
     0
102
RTVSPost2010PropOp34
 70
     1
102
RTVSPost2010Prop35
280
     0
102
RTVSPost2010PropOp35
 70
     1
102
RTVSPost2010Prop36
280
     0
102
RTVSPost2010PropOp36
 70
     1
102
RTVSPost2010Prop37
 90
       50
102
RTVSPost2010PropOp37
 70
     1
102
RTVSPost2010Prop38
140
0.0
102
RTVSPost2010PropOp38
 70
     1
102
RTVSPost2010Prop39
140
1.0
102
RTVSPost2010PropOp39
 70
     1
102
RTVSPost2010Prop40
 90
        0
102
RTVSPost2010PropOp40
 70
     1
102
RTVSPost2010Prop41ColorIndex
 90
       18
102
RTVSPost2010Prop41ColorRGB
 90
        0
102
RTVSPost2010PropOp41
 70
     1
102
RTVSPost2010Prop42
 90
       50
102
RTVSPost2010PropOp42
 70
     1
102
RTVSPost2010Prop43
 90
        3
102
RTVSPost2010PropOp43
 70
     1
102
RTVSPost2010Prop44ColorIndex
 90
        5
102
RTVSPost2010Prop44ColorRGB
 90
      255
102
RTVSPost2010PropOp44
 70
     1
102
RTVSPost2010Prop45
280
     0
102
RTVSPost2010PropOp45
 70
     1
102
RTVSPost2010Prop46
 90
       50
102
RTVSPost2010PropOp46
 70
     1
102
RTVSPost2010Prop47
 90
       50
102
RTVSPost2010PropOp47
 70
     1
102
RTVSPost2010Prop48
 90
       50
102
RTVSPost2010PropOp48
 70
     1
102
RTVSPost2010Prop49
280
     0
102
RTVSPost2010PropOp49
 70
     1
102
RTVSPost2010Prop50
 90
       50
102
RTVSPost2010PropOp50
 70
     1
102
RTVSPost2010Prop51ColorIndex
 90
      256
102
RTVSPost2010Prop51ColorRGB
 90
-16777216
102
RTVSPost2010PropOp51
 70
     0
102
RTVSPost2010Prop52
140
1.0
102
RTVSPost2010PropOp52
 70
     0
102
RTVSPost2010Prop53
 90
        2
102
RTVSPost2010PropOp53
 70
     1
102
RTVSPost2010Prop54
  1
strokes_ogs.tif
102
RTVSPost2010PropOp54
 70
     1
102
RTVSPost2010Prop55
280
     0
102
RTVSPost2010PropOp55
 70
     1
102
RTVSPost2010Prop56
140
1.0
102
RTVSPost2010PropOp56
 70
     1
102
RTVSPost2010Prop57
140
1.0
102
RTVSPost2010PropOp57
 70
     1
102
RTVSPropertyOp0
 70
     1
102
RTVSPropertyOp1
 70
     1
102
RTVSPropertyOp2
 70
     1
102
RTVSPropertyOp3
 70
     1
102
RTVSPropertyOp4
 70
     1
102
RTVSPropertyOp5
 70
     1
102
RTVSPropertyOp6
 70
     1
102
RTVSPropertyOp7
 70
     1
102
RTVSPropertyOp8
 70
     1
102
RTVSPropertyOp9
 70
     1
102
RTVSPropertyOp10
 70
     1
102
RTVSPropertyOp11
 70
     1
102
RTVSPropertyOp12
 70
     1
102
RTVSPropertyOp13
 70
     1
102
RTVSPropertyOp14
 70
     1
102
RTVSPropertyOp15
 70
     1
102
RTVSPropertyOp16
 70
     1
102
RTVSPropertyOp17
 70
     1
102
RTVSPropertyOp18
 70
     1
102
RTVSPropertyOp19
 70
     1
102
RTVSPropertyOp20
 70
     1
102
RTVSPropertyOp21
 70
     1
102
RTVSPropertyOp22
 70
     1
102
RTVSPropertyOp23
 70
     1
102
RTVSPropertyOp24
 70
     1
102
RTVSPropertyOp25
 70
     1
102
RTVSPropertyOp26
 70
     1
102
RTVSPropertyOp27
 70
     1
102
RTVSPropertyOp28
 70
     1
102
RTVSPropertyOp29
 70
     1
102
RTVSPropertyOp30
 70
     1
102
RTVSPropertyOp31
 70
     1
102
RTVSPropertyOp32
 70
     1
102
RTVSPropertyOp33
 70
     1
102
RTVSPropertyOp34
 70
     1
102
RTVSPropertyOp35
 70
     1
102
RTVSPropertyOp36
 70
     1
102
RTVSPropertyOp37
 70
     1
102
RTVSPropertyOp38
 70
     1
102
RTVSPropertyOp39
 70
     1
102
RTVSPropertyOp40
 70
     1
102
RTVSPropertyOp41
 70
     1
102
RTVSPropertyOp42
 70
     1
102
RTVSPropertyOp43
 70
     1
102
RTVSPropertyOp44
 70
     1
102
RTVSPropertyOp45
 70
     1
102
RTVSPropertyOp46
 70
     1
102
RTVSPropertyOp47
 70
     1
102
RTVSPropertyOp48
 70
     1
102
RTVSPropertyOp49
 70
     1
102
RTVSPropertyOp50
 70
     1
102
RTVSPropertyOp51
 70
     0
102
RTVSPropertyOp52
 70
     0
102
RTVSPropertyOp53
 70
     1
102
RTVSPropertyOp54
 70
     1
102
RTVSPropertyOp55
 70
     1
102
RTVSPropertyOp56
 70
     1
102
RTVSPropertyOp57
 70
     1
102
RTVSPropertyOp58
 70
     1
102
RTVSPropertyOp59
 70
     1
102
RTVSPropertyOp60
 70
     1
102
RTVSPropertyOp61
 70
     1
102
RTVSPropertyOp62
 70
     1
  0
XRECORD
  5
6A1
102
{ACAD_REACTORS
330
6A0
102
}
330
6A0
100
AcDbXrecord
280
     1
102
RTVSPost2010Prop28
280
     0
102
RTVSPost2010PropOp28
 70
     1
102
RTVSPost2010Prop29
280
     1
102
RTVSPost2010PropOp29
 70
     1
102
RTVSPost2010Prop30
280
     1
102
RTVSPost2010PropOp30
 70
     1
102
RTVSPost2010Prop31
280
     0
102
RTVSPost2010PropOp31
 70
     1
102
RTVSPost2010Prop32
280
     0
102
RTVSPost2010PropOp32
 70
     1
102
RTVSPost2010Prop33
280
     0
102
RTVSPost2010PropOp33
 70
     1
102
RTVSPost2010Prop34
280
     0
102
RTVSPost2010PropOp34
 70
     1
102
RTVSPost2010Prop35
280
     0
102
RTVSPost2010PropOp35
 70
     1
102
RTVSPost2010Prop36
280
     0
102
RTVSPost2010PropOp36
 70
     1
102
RTVSPost2010Prop37
 90
       50
102
RTVSPost2010PropOp37
 70
     1
102
RTVSPost2010Prop38
140
0.0
102
RTVSPost2010PropOp38
 70
     1
102
RTVSPost2010Prop39
140
1.0
102
RTVSPost2010PropOp39
 70
     1
102
RTVSPost2010Prop40
 90
        0
102
RTVSPost2010PropOp40
 70
     1
102
RTVSPost2010Prop41ColorIndex
 90
       18
102
RTVSPost2010Prop41ColorRGB
 90
        0
102
RTVSPost2010PropOp41
 70
     1
102
RTVSPost2010Prop42
 90
       50
102
RTVSPost2010PropOp42
 70
     1
102
RTVSPost2010Prop43
 90
        3
102
RTVSPost2010PropOp43
 70
     1
102
RTVSPost2010Prop44ColorIndex
 90
        5
102
RTVSPost2010Prop44ColorRGB
 90
      255
102
RTVSPost2010PropOp44
 70
     1
102
RTVSPost2010Prop45
280
     0
102
RTVSPost2010PropOp45
 70
     1
102
RTVSPost2010Prop46
 90
       50
102
RTVSPost2010PropOp46
 70
     1
102
RTVSPost2010Prop47
 90
       50
102
RTVSPost2010PropOp47
 70
     1
102
RTVSPost2010Prop48
 90
       50
102
RTVSPost2010PropOp48
 70
     1
102
RTVSPost2010Prop49
280
     0
102
RTVSPost2010PropOp49
 70
     1
102
RTVSPost2010Prop50
 90
       50
102
RTVSPost2010PropOp50
 70
     1
102
RTVSPost2010Prop51ColorIndex
 90
      256
102
RTVSPost2010Prop51ColorRGB
 90
-16777216
102
RTVSPost2010PropOp51
 70
     0
102
RTVSPost2010Prop52
140
1.0
102
RTVSPost2010PropOp52
 70
     0
102
RTVSPost2010Prop53
 90
        2
102
RTVSPost2010PropOp53
 70
     1
102
RTVSPost2010Prop54
  1
strokes_ogs.tif
102
RTVSPost2010PropOp54
 70
     1
102
RTVSPost2010Prop55
280
     0
102
RTVSPost2010PropOp55
 70
     1
102
RTVSPost2010Prop56
140
1.0
102
RTVSPost2010PropOp56
 70
     1
102
RTVSPost2010Prop57
140
1.0
102
RTVSPost2010PropOp57
 70
     1
102
RTVSPropertyOp0
 70
     1
102
RTVSPropertyOp1
 70
     1
102
RTVSPropertyOp2
 70
     1
102
RTVSPropertyOp3
 70
     1
102
RTVSPropertyOp4
 70
     1
102
RTVSPropertyOp5
 70
     1
102
RTVSPropertyOp6
 70
     1
102
RTVSPropertyOp7
 70
     1
102
RTVSPropertyOp8
 70
     1
102
RTVSPropertyOp9
 70
     1
102
RTVSPropertyOp10
 70
     1
102
RTVSPropertyOp11
 70
     1
102
RTVSPropertyOp12
 70
     1
102
RTVSPropertyOp13
 70
     1
102
RTVSPropertyOp14
 70
     1
102
RTVSPropertyOp15
 70
     1
102
RTVSPropertyOp16
 70
     1
102
RTVSPropertyOp17
 70
     1
102
RTVSPropertyOp18
 70
     1
102
RTVSPropertyOp19
 70
     1
102
RTVSPropertyOp20
 70
     1
102
RTVSPropertyOp21
 70
     1
102
RTVSPropertyOp22
 70
     1
102
RTVSPropertyOp23
 70
     1
102
RTVSPropertyOp24
 70
     1
102
RTVSPropertyOp25
 70
     1
102
RTVSPropertyOp26
 70
     1
102
RTVSPropertyOp27
 70
     1
102
RTVSPropertyOp28
 70
     1
102
RTVSPropertyOp29
 70
     1
102
RTVSPropertyOp30
 70
     1
102
RTVSPropertyOp31
 70
     1
102
RTVSPropertyOp32
 70
     1
102
RTVSPropertyOp33
 70
     1
102
RTVSPropertyOp34
 70
     1
102
RTVSPropertyOp35
 70
     1
102
RTVSPropertyOp36
 70
     1
102
RTVSPropertyOp37
 70
     1
102
RTVSPropertyOp38
 70
     1
102
RTVSPropertyOp39
 70
     1
102
RTVSPropertyOp40
 70
     1
102
RTVSPropertyOp41
 70
     1
102
RTVSPropertyOp42
 70
     1
102
RTVSPropertyOp43
 70
     1
102
RTVSPropertyOp44
 70
     1
102
RTVSPropertyOp45
 70
     1
102
RTVSPropertyOp46
 70
     1
102
RTVSPropertyOp47
 70
     1
102
RTVSPropertyOp48
 70
     1
102
RTVSPropertyOp49
 70
     1
102
RTVSPropertyOp50
 70
     1
102
RTVSPropertyOp51
 70
     0
102
RTVSPropertyOp52
 70
     0
102
RTVSPropertyOp53
 70
     1
102
RTVSPropertyOp54
 70
     1
102
RTVSPropertyOp55
 70
     1
102
RTVSPropertyOp56
 70
     1
102
RTVSPropertyOp57
 70
     1
102
RTVSPropertyOp58
 70
     1
102
RTVSPropertyOp59
 70
     1
102
RTVSPropertyOp60
 70
     1
102
RTVSPropertyOp61
 70
     1
102
RTVSPropertyOp62
 70
     1
  0
XRECORD
  5
6A3
102
{ACAD_REACTORS
330
6A2
102
}
330
6A2
100
AcDbXrecord
280
     1
102
RTVSPost2010Prop28
280
     0
102
RTVSPost2010PropOp28
 70
     1
102
RTVSPost2010Prop29
280
     1
102
RTVSPost2010PropOp29
 70
     1
102
RTVSPost2010Prop30
280
     1
102
RTVSPost2010PropOp30
 70
     1
102
RTVSPost2010Prop31
280
     0
102
RTVSPost2010PropOp31
 70
     1
102
RTVSPost2010Prop32
280
     0
102
RTVSPost2010PropOp32
 70
     1
102
RTVSPost2010Prop33
280
     0
102
RTVSPost2010PropOp33
 70
     1
102
RTVSPost2010Prop34
280
     0
102
RTVSPost2010PropOp34
 70
     1
102
RTVSPost2010Prop35
280
     0
102
RTVSPost2010PropOp35
 70
     1
102
RTVSPost2010Prop36
280
     0
102
RTVSPost2010PropOp36
 70
     1
102
RTVSPost2010Prop37
 90
       50
102
RTVSPost2010PropOp37
 70
     1
102
RTVSPost2010Prop38
140
0.0
102
RTVSPost2010PropOp38
 70
     1
102
RTVSPost2010Prop39
140
1.0
102
RTVSPost2010PropOp39
 70
     1
102
RTVSPost2010Prop40
 90
        0
102
RTVSPost2010PropOp40
 70
     1
102
RTVSPost2010Prop41ColorIndex
 90
       18
102
RTVSPost2010Prop41ColorRGB
 90
        0
102
RTVSPost2010PropOp41
 70
     1
102
RTVSPost2010Prop42
 90
       50
102
RTVSPost2010PropOp42
 70
     1
102
RTVSPost2010Prop43
 90
        3
102
RTVSPost2010PropOp43
 70
     1
102
RTVSPost2010Prop44ColorIndex
 90
        5
102
RTVSPost2010Prop44ColorRGB
 90
      255
102
RTVSPost2010PropOp44
 70
     1
102
RTVSPost2010Prop45
280
     0
102
RTVSPost2010PropOp45
 70
     1
102
RTVSPost2010Prop46
 90
       50
102
RTVSPost2010PropOp46
 70
     1
102
RTVSPost2010Prop47
 90
       50
102
RTVSPost2010PropOp47
 70
     1
102
RTVSPost2010Prop48
 90
       50
102
RTVSPost2010PropOp48
 70
     1
102
RTVSPost2010Prop49
280
     0
102
RTVSPost2010PropOp49
 70
     1
102
RTVSPost2010Prop50
 90
       50
102
RTVSPost2010PropOp50
 70
     1
102
RTVSPost2010Prop51ColorIndex
 90
      256
102
RTVSPost2010Prop51ColorRGB
 90
-16777216
102
RTVSPost2010PropOp51
 70
     0
102
RTVSPost2010Prop52
140
1.0
102
RTVSPost2010PropOp52
 70
     0
102
RTVSPost2010Prop53
 90
        2
102
RTVSPost2010PropOp53
 70
     1
102
RTVSPost2010Prop54
  1
strokes_ogs.tif
102
RTVSPost2010PropOp54
 70
     1
102
RTVSPost2010Prop55
280
     0
102
RTVSPost2010PropOp55
 70
     1
102
RTVSPost2010Prop56
140
1.0
102
RTVSPost2010PropOp56
 70
     1
102
RTVSPost2010Prop57
140
1.0
102
RTVSPost2010PropOp57
 70
     1
102
RTVSPropertyOp0
 70
     1
102
RTVSPropertyOp1
 70
     1
102
RTVSPropertyOp2
 70
     1
102
RTVSPropertyOp3
 70
     1
102
RTVSPropertyOp4
 70
     1
102
RTVSPropertyOp5
 70
     1
102
RTVSPropertyOp6
 70
     1
102
RTVSPropertyOp7
 70
     1
102
RTVSPropertyOp8
 70
     1
102
RTVSPropertyOp9
 70
     1
102
RTVSPropertyOp10
 70
     1
102
RTVSPropertyOp11
 70
     1
102
RTVSPropertyOp12
 70
     1
102
RTVSPropertyOp13
 70
     1
102
RTVSPropertyOp14
 70
     1
102
RTVSPropertyOp15
 70
     1
102
RTVSPropertyOp16
 70
     1
102
RTVSPropertyOp17
 70
     1
102
RTVSPropertyOp18
 70
     1
102
RTVSPropertyOp19
 70
     1
102
RTVSPropertyOp20
 70
     1
102
RTVSPropertyOp21
 70
     1
102
RTVSPropertyOp22
 70
     1
102
RTVSPropertyOp23
 70
     1
102
RTVSPropertyOp24
 70
     1
102
RTVSPropertyOp25
 70
     1
102
RTVSPropertyOp26
 70
     1
102
RTVSPropertyOp27
 70
     1
102
RTVSPropertyOp28
 70
     1
102
RTVSPropertyOp29
 70
     1
102
RTVSPropertyOp30
 70
     1
102
RTVSPropertyOp31
 70
     1
102
RTVSPropertyOp32
 70
     1
102
RTVSPropertyOp33
 70
     1
102
RTVSPropertyOp34
 70
     1
102
RTVSPropertyOp35
 70
     1
102
RTVSPropertyOp36
 70
     1
102
RTVSPropertyOp37
 70
     1
102
RTVSPropertyOp38
 70
     1
102
RTVSPropertyOp39
 70
     1
102
RTVSPropertyOp40
 70
     1
102
RTVSPropertyOp41
 70
     1
102
RTVSPropertyOp42
 70
     1
102
RTVSPropertyOp43
 70
     1
102
RTVSPropertyOp44
 70
     1
102
RTVSPropertyOp45
 70
     1
102
RTVSPropertyOp46
 70
     1
102
RTVSPropertyOp47
 70
     1
102
RTVSPropertyOp48
 70
     1
102
RTVSPropertyOp49
 70
     1
102
RTVSPropertyOp50
 70
     1
102
RTVSPropertyOp51
 70
     0
102
RTVSPropertyOp52
 70
     0
102
RTVSPropertyOp53
 70
     1
102
RTVSPropertyOp54
 70
     1
102
RTVSPropertyOp55
 70
     1
102
RTVSPropertyOp56
 70
     1
102
RTVSPropertyOp57
 70
     1
102
RTVSPropertyOp58
 70
     1
102
RTVSPropertyOp59
 70
     1
102
RTVSPropertyOp60
 70
     1
102
RTVSPropertyOp61
 70
     1
102
RTVSPropertyOp62
 70
     1
  0
XRECORD
  5
6A5
102
{ACAD_REACTORS
330
6A4
102
}
330
6A4
100
AcDbXrecord
280
     1
102
RTVSPost2010Prop28
280
     0
102
RTVSPost2010PropOp28
 70
     1
102
RTVSPost2010Prop29
280
     1
102
RTVSPost2010PropOp29
 70
     1
102
RTVSPost2010Prop30
280
     1
102
RTVSPost2010PropOp30
 70
     1
102
RTVSPost2010Prop31
280
     0
102
RTVSPost2010PropOp31
 70
     1
102
RTVSPost2010Prop32
280
     0
102
RTVSPost2010PropOp32
 70
     1
102
RTVSPost2010Prop33
280
     0
102
RTVSPost2010PropOp33
 70
     1
102
RTVSPost2010Prop34
280
     0
102
RTVSPost2010PropOp34
 70
     1
102
RTVSPost2010Prop35
280
     0
102
RTVSPost2010PropOp35
 70
     1
102
RTVSPost2010Prop36
280
     0
102
RTVSPost2010PropOp36
 70
     1
102
RTVSPost2010Prop37
 90
       50
102
RTVSPost2010PropOp37
 70
     1
102
RTVSPost2010Prop38
140
0.0
102
RTVSPost2010PropOp38
 70
     1
102
RTVSPost2010Prop39
140
1.0
102
RTVSPost2010PropOp39
 70
     1
102
RTVSPost2010Prop40
 90
        0
102
RTVSPost2010PropOp40
 70
     1
102
RTVSPost2010Prop41ColorIndex
 90
       18
102
RTVSPost2010Prop41ColorRGB
 90
        0
102
RTVSPost2010PropOp41
 70
     1
102
RTVSPost2010Prop42
 90
       50
102
RTVSPost2010PropOp42
 70
     1
102
RTVSPost2010Prop43
 90
        3
102
RTVSPost2010PropOp43
 70
     1
102
RTVSPost2010Prop44ColorIndex
 90
        5
102
RTVSPost2010Prop44ColorRGB
 90
      255
102
RTVSPost2010PropOp44
 70
     1
102
RTVSPost2010Prop45
280
     0
102
RTVSPost2010PropOp45
 70
     1
102
RTVSPost2010Prop46
 90
       50
102
RTVSPost2010PropOp46
 70
     1
102
RTVSPost2010Prop47
 90
       50
102
RTVSPost2010PropOp47
 70
     1
102
RTVSPost2010Prop48
 90
       50
102
RTVSPost2010PropOp48
 70
     1
102
RTVSPost2010Prop49
280
     0
102
RTVSPost2010PropOp49
 70
     1
102
RTVSPost2010Prop50
 90
       50
102
RTVSPost2010PropOp50
 70
     1
102
RTVSPost2010Prop51ColorIndex
 90
      256
102
RTVSPost2010Prop51ColorRGB
 90
-16777216
102
RTVSPost2010PropOp51
 70
     0
102
RTVSPost2010Prop52
140
1.0
102
RTVSPost2010PropOp52
 70
     0
102
RTVSPost2010Prop53
 90
        2
102
RTVSPost2010PropOp53
 70
     1
102
RTVSPost2010Prop54
  1
strokes_ogs.tif
102
RTVSPost2010PropOp54
 70
     1
102
RTVSPost2010Prop55
280
     0
102
RTVSPost2010PropOp55
 70
     1
102
RTVSPost2010Prop56
140
1.0
102
RTVSPost2010PropOp56
 70
     1
102
RTVSPost2010Prop57
140
1.0
102
RTVSPost2010PropOp57
 70
     1
102
RTVSPropertyOp0
 70
     1
102
RTVSPropertyOp1
 70
     1
102
RTVSPropertyOp2
 70
     1
102
RTVSPropertyOp3
 70
     1
102
RTVSPropertyOp4
 70
     1
102
RTVSPropertyOp5
 70
     1
102
RTVSPropertyOp6
 70
     1
102
RTVSPropertyOp7
 70
     1
102
RTVSPropertyOp8
 70
     1
102
RTVSPropertyOp9
 70
     1
102
RTVSPropertyOp10
 70
     1
102
RTVSPropertyOp11
 70
     1
102
RTVSPropertyOp12
 70
     1
102
RTVSPropertyOp13
 70
     1
102
RTVSPropertyOp14
 70
     1
102
RTVSPropertyOp15
 70
     1
102
RTVSPropertyOp16
 70
     1
102
RTVSPropertyOp17
 70
     1
102
RTVSPropertyOp18
 70
     1
102
RTVSPropertyOp19
 70
     1
102
RTVSPropertyOp20
 70
     1
102
RTVSPropertyOp21
 70
     1
102
RTVSPropertyOp22
 70
     1
102
RTVSPropertyOp23
 70
     1
102
RTVSPropertyOp24
 70
     1
102
RTVSPropertyOp25
 70
     1
102
RTVSPropertyOp26
 70
     1
102
RTVSPropertyOp27
 70
     1
102
RTVSPropertyOp28
 70
     1
102
RTVSPropertyOp29
 70
     1
102
RTVSPropertyOp30
 70
     1
102
RTVSPropertyOp31
 70
     1
102
RTVSPropertyOp32
 70
     1
102
RTVSPropertyOp33
 70
     1
102
RTVSPropertyOp34
 70
     1
102
RTVSPropertyOp35
 70
     1
102
RTVSPropertyOp36
 70
     1
102
RTVSPropertyOp37
 70
     1
102
RTVSPropertyOp38
 70
     1
102
RTVSPropertyOp39
 70
     1
102
RTVSPropertyOp40
 70
     1
102
RTVSPropertyOp41
 70
     1
102
RTVSPropertyOp42
 70
     1
102
RTVSPropertyOp43
 70
     1
102
RTVSPropertyOp44
 70
     1
102
RTVSPropertyOp45
 70
     1
102
RTVSPropertyOp46
 70
     1
102
RTVSPropertyOp47
 70
     1
102
RTVSPropertyOp48
 70
     1
102
RTVSPropertyOp49
 70
     1
102
RTVSPropertyOp50
 70
     1
102
RTVSPropertyOp51
 70
     0
102
RTVSPropertyOp52
 70
     0
102
RTVSPropertyOp53
 70
     1
102
RTVSPropertyOp54
 70
     1
102
RTVSPropertyOp55
 70
     1
102
RTVSPropertyOp56
 70
     1
102
RTVSPropertyOp57
 70
     1
102
RTVSPropertyOp58
 70
     1
102
RTVSPropertyOp59
 70
     1
102
RTVSPropertyOp60
 70
     1
102
RTVSPropertyOp61
 70
     1
102
RTVSPropertyOp62
 70
     1
  0
XRECORD
  5
6A7
102
{ACAD_REACTORS
330
6A6
102
}
330
6A6
100
AcDbXrecord
280
     1
102
RTVSPost2010Prop28
280
     0
102
RTVSPost2010PropOp28
 70
     1
102
RTVSPost2010Prop29
280
     1
102
RTVSPost2010PropOp29
 70
     1
102
RTVSPost2010Prop30
280
     1
102
RTVSPost2010PropOp30
 70
     1
102
RTVSPost2010Prop31
280
     0
102
RTVSPost2010PropOp31
 70
     1
102
RTVSPost2010Prop32
280
     0
102
RTVSPost2010PropOp32
 70
     1
102
RTVSPost2010Prop33
280
     0
102
RTVSPost2010PropOp33
 70
     1
102
RTVSPost2010Prop34
280
     0
102
RTVSPost2010PropOp34
 70
     1
102
RTVSPost2010Prop35
280
     0
102
RTVSPost2010PropOp35
 70
     1
102
RTVSPost2010Prop36
280
     0
102
RTVSPost2010PropOp36
 70
     1
102
RTVSPost2010Prop37
 90
       50
102
RTVSPost2010PropOp37
 70
     1
102
RTVSPost2010Prop38
140
0.0
102
RTVSPost2010PropOp38
 70
     1
102
RTVSPost2010Prop39
140
1.0
102
RTVSPost2010PropOp39
 70
     1
102
RTVSPost2010Prop40
 90
        0
102
RTVSPost2010PropOp40
 70
     1
102
RTVSPost2010Prop41ColorIndex
 90
       18
102
RTVSPost2010Prop41ColorRGB
 90
        0
102
RTVSPost2010PropOp41
 70
     1
102
RTVSPost2010Prop42
 90
       50
102
RTVSPost2010PropOp42
 70
     1
102
RTVSPost2010Prop43
 90
        3
102
RTVSPost2010PropOp43
 70
     1
102
RTVSPost2010Prop44ColorIndex
 90
        5
102
RTVSPost2010Prop44ColorRGB
 90
      255
102
RTVSPost2010PropOp44
 70
     1
102
RTVSPost2010Prop45
280
     0
102
RTVSPost2010PropOp45
 70
     1
102
RTVSPost2010Prop46
 90
       50
102
RTVSPost2010PropOp46
 70
     1
102
RTVSPost2010Prop47
 90
       50
102
RTVSPost2010PropOp47
 70
     1
102
RTVSPost2010Prop48
 90
       50
102
RTVSPost2010PropOp48
 70
     1
102
RTVSPost2010Prop49
280
     0
102
RTVSPost2010PropOp49
 70
     1
102
RTVSPost2010Prop50
 90
       50
102
RTVSPost2010PropOp50
 70
     1
102
RTVSPost2010Prop51ColorIndex
 90
      256
102
RTVSPost2010Prop51ColorRGB
 90
-16777216
102
RTVSPost2010PropOp51
 70
     0
102
RTVSPost2010Prop52
140
1.0
102
RTVSPost2010PropOp52
 70
     0
102
RTVSPost2010Prop53
 90
        2
102
RTVSPost2010PropOp53
 70
     1
102
RTVSPost2010Prop54
  1
strokes_ogs.tif
102
RTVSPost2010PropOp54
 70
     1
102
RTVSPost2010Prop55
280
     0
102
RTVSPost2010PropOp55
 70
     1
102
RTVSPost2010Prop56
140
1.0
102
RTVSPost2010PropOp56
 70
     1
102
RTVSPost2010Prop57
140
1.0
102
RTVSPost2010PropOp57
 70
     1
102
RTVSPropertyOp0
 70
     1
102
RTVSPropertyOp1
 70
     1
102
RTVSPropertyOp2
 70
     1
102
RTVSPropertyOp3
 70
     1
102
RTVSPropertyOp4
 70
     1
102
RTVSPropertyOp5
 70
     1
102
RTVSPropertyOp6
 70
     1
102
RTVSPropertyOp7
 70
     1
102
RTVSPropertyOp8
 70
     1
102
RTVSPropertyOp9
 70
     1
102
RTVSPropertyOp10
 70
     1
102
RTVSPropertyOp11
 70
     1
102
RTVSPropertyOp12
 70
     1
102
RTVSPropertyOp13
 70
     1
102
RTVSPropertyOp14
 70
     1
102
RTVSPropertyOp15
 70
     1
102
RTVSPropertyOp16
 70
     1
102
RTVSPropertyOp17
 70
     1
102
RTVSPropertyOp18
 70
     1
102
RTVSPropertyOp19
 70
     1
102
RTVSPropertyOp20
 70
     1
102
RTVSPropertyOp21
 70
     1
102
RTVSPropertyOp22
 70
     1
102
RTVSPropertyOp23
 70
     1
102
RTVSPropertyOp24
 70
     1
102
RTVSPropertyOp25
 70
     1
102
RTVSPropertyOp26
 70
     1
102
RTVSPropertyOp27
 70
     1
102
RTVSPropertyOp28
 70
     1
102
RTVSPropertyOp29
 70
     1
102
RTVSPropertyOp30
 70
     1
102
RTVSPropertyOp31
 70
     1
102
RTVSPropertyOp32
 70
     1
102
RTVSPropertyOp33
 70
     1
102
RTVSPropertyOp34
 70
     1
102
RTVSPropertyOp35
 70
     1
102
RTVSPropertyOp36
 70
     1
102
RTVSPropertyOp37
 70
     1
102
RTVSPropertyOp38
 70
     1
102
RTVSPropertyOp39
 70
     1
102
RTVSPropertyOp40
 70
     1
102
RTVSPropertyOp41
 70
     1
102
RTVSPropertyOp42
 70
     1
102
RTVSPropertyOp43
 70
     1
102
RTVSPropertyOp44
 70
     1
102
RTVSPropertyOp45
 70
     1
102
RTVSPropertyOp46
 70
     1
102
RTVSPropertyOp47
 70
     1
102
RTVSPropertyOp48
 70
     1
102
RTVSPropertyOp49
 70
     1
102
RTVSPropertyOp50
 70
     1
102
RTVSPropertyOp51
 70
     0
102
RTVSPropertyOp52
 70
     0
102
RTVSPropertyOp53
 70
     1
102
RTVSPropertyOp54
 70
     1
102
RTVSPropertyOp55
 70
     1
102
RTVSPropertyOp56
 70
     1
102
RTVSPropertyOp57
 70
     1
102
RTVSPropertyOp58
 70
     1
102
RTVSPropertyOp59
 70
     1
102
RTVSPropertyOp60
 70
     1
102
RTVSPropertyOp61
 70
     1
102
RTVSPropertyOp62
 70
     1
  0
XRECORD
  5
6AF
102
{ACAD_REACTORS
330
6AE
102
}
330
6AE
100
AcDbXrecord
280
     1
102
RTVSPost2010Prop28
280
     0
102
RTVSPost2010PropOp28
 70
     1
102
RTVSPost2010Prop29
280
     1
102
RTVSPost2010PropOp29
 70
     1
102
RTVSPost2010Prop30
280
     1
102
RTVSPost2010PropOp30
 70
     1
102
RTVSPost2010Prop31
280
     0
102
RTVSPost2010PropOp31
 70
     1
102
RTVSPost2010Prop32
280
     0
102
RTVSPost2010PropOp32
 70
     1
102
RTVSPost2010Prop33
280
     0
102
RTVSPost2010PropOp33
 70
     1
102
RTVSPost2010Prop34
280
     0
102
RTVSPost2010PropOp34
 70
     1
102
RTVSPost2010Prop35
280
     0
102
RTVSPost2010PropOp35
 70
     1
102
RTVSPost2010Prop36
280
     0
102
RTVSPost2010PropOp36
 70
     1
102
RTVSPost2010Prop37
 90
       50
102
RTVSPost2010PropOp37
 70
     1
102
RTVSPost2010Prop38
140
0.0
102
RTVSPost2010PropOp38
 70
     1
102
RTVSPost2010Prop39
140
1.0
102
RTVSPost2010PropOp39
 70
     1
102
RTVSPost2010Prop40
 90
        0
102
RTVSPost2010PropOp40
 70
     1
102
RTVSPost2010Prop41ColorIndex
 90
       18
102
RTVSPost2010Prop41ColorRGB
 90
        0
102
RTVSPost2010PropOp41
 70
     1
102
RTVSPost2010Prop42
 90
       50
102
RTVSPost2010PropOp42
 70
     1
102
RTVSPost2010Prop43
 90
        3
102
RTVSPost2010PropOp43
 70
     1
102
RTVSPost2010Prop44ColorIndex
 90
        5
102
RTVSPost2010Prop44ColorRGB
 90
      255
102
RTVSPost2010PropOp44
 70
     1
102
RTVSPost2010Prop45
280
     0
102
RTVSPost2010PropOp45
 70
     1
102
RTVSPost2010Prop46
 90
       50
102
RTVSPost2010PropOp46
 70
     1
102
RTVSPost2010Prop47
 90
       50
102
RTVSPost2010PropOp47
 70
     1
102
RTVSPost2010Prop48
 90
       50
102
RTVSPost2010PropOp48
 70
     1
102
RTVSPost2010Prop49
280
     0
102
RTVSPost2010PropOp49
 70
     1
102
RTVSPost2010Prop50
 90
       50
102
RTVSPost2010PropOp50
 70
     1
102
RTVSPost2010Prop51ColorIndex
 90
      256
102
RTVSPost2010Prop51ColorRGB
 90
-16777216
102
RTVSPost2010PropOp51
 70
     0
102
RTVSPost2010Prop52
140
1.0
102
RTVSPost2010PropOp52
 70
     0
102
RTVSPost2010Prop53
 90
        2
102
RTVSPost2010PropOp53
 70
     1
102
RTVSPost2010Prop54
  1
strokes_ogs.tif
102
RTVSPost2010PropOp54
 70
     1
102
RTVSPost2010Prop55
280
     0
102
RTVSPost2010PropOp55
 70
     1
102
RTVSPost2010Prop56
140
1.0
102
RTVSPost2010PropOp56
 70
     1
102
RTVSPost2010Prop57
140
1.0
102
RTVSPost2010PropOp57
 70
     1
102
RTVSPropertyOp0
 70
     1
102
RTVSPropertyOp1
 70
     1
102
RTVSPropertyOp2
 70
     1
102
RTVSPropertyOp3
 70
     1
102
RTVSPropertyOp4
 70
     1
102
RTVSPropertyOp5
 70
     1
102
RTVSPropertyOp6
 70
     1
102
RTVSPropertyOp7
 70
     1
102
RTVSPropertyOp8
 70
     1
102
RTVSPropertyOp9
 70
     1
102
RTVSPropertyOp10
 70
     1
102
RTVSPropertyOp11
 70
     1
102
RTVSPropertyOp12
 70
     1
102
RTVSPropertyOp13
 70
     1
102
RTVSPropertyOp14
 70
     1
102
RTVSPropertyOp15
 70
     1
102
RTVSPropertyOp16
 70
     1
102
RTVSPropertyOp17
 70
     1
102
RTVSPropertyOp18
 70
     1
102
RTVSPropertyOp19
 70
     1
102
RTVSPropertyOp20
 70
     1
102
RTVSPropertyOp21
 70
     1
102
RTVSPropertyOp22
 70
     1
102
RTVSPropertyOp23
 70
     1
102
RTVSPropertyOp24
 70
     1
102
RTVSPropertyOp25
 70
     1
102
RTVSPropertyOp26
 70
     1
102
RTVSPropertyOp27
 70
     1
102
RTVSPropertyOp28
 70
     1
102
RTVSPropertyOp29
 70
     1
102
RTVSPropertyOp30
 70
     1
102
RTVSPropertyOp31
 70
     1
102
RTVSPropertyOp32
 70
     1
102
RTVSPropertyOp33
 70
     1
102
RTVSPropertyOp34
 70
     1
102
RTVSPropertyOp35
 70
     1
102
RTVSPropertyOp36
 70
     1
102
RTVSPropertyOp37
 70
     1
102
RTVSPropertyOp38
 70
     1
102
RTVSPropertyOp39
 70
     1
102
RTVSPropertyOp40
 70
     1
102
RTVSPropertyOp41
 70
     1
102
RTVSPropertyOp42
 70
     1
102
RTVSPropertyOp43
 70
     1
102
RTVSPropertyOp44
 70
     1
102
RTVSPropertyOp45
 70
     1
102
RTVSPropertyOp46
 70
     1
102
RTVSPropertyOp47
 70
     1
102
RTVSPropertyOp48
 70
     1
102
RTVSPropertyOp49
 70
     1
102
RTVSPropertyOp50
 70
     1
102
RTVSPropertyOp51
 70
     0
102
RTVSPropertyOp52
 70
     0
102
RTVSPropertyOp53
 70
     1
102
RTVSPropertyOp54
 70
     1
102
RTVSPropertyOp55
 70
     1
102
RTVSPropertyOp56
 70
     1
102
RTVSPropertyOp57
 70
     1
102
RTVSPropertyOp58
 70
     1
102
RTVSPropertyOp59
 70
     1
102
RTVSPropertyOp60
 70
     1
102
RTVSPropertyOp61
 70
     1
102
RTVSPropertyOp62
 70
     1
  0
XRECORD
  5
6CB
102
{ACAD_REACTORS
330
6CA
102
}
330
6CA
100
AcDbXrecord
280
     1
102
RTVSPost2010Prop28
280
     0
102
RTVSPost2010PropOp28
 70
     1
102
RTVSPost2010Prop29
280
     1
102
RTVSPost2010PropOp29
 70
     1
102
RTVSPost2010Prop30
280
     1
102
RTVSPost2010PropOp30
 70
     1
102
RTVSPost2010Prop31
280
     0
102
RTVSPost2010PropOp31
 70
     1
102
RTVSPost2010Prop32
280
     0
102
RTVSPost2010PropOp32
 70
     1
102
RTVSPost2010Prop33
280
     0
102
RTVSPost2010PropOp33
 70
     1
102
RTVSPost2010Prop34
280
     0
102
RTVSPost2010PropOp34
 70
     1
102
RTVSPost2010Prop35
280
     0
102
RTVSPost2010PropOp35
 70
     1
102
RTVSPost2010Prop36
280
     0
102
RTVSPost2010PropOp36
 70
     1
102
RTVSPost2010Prop37
 90
       50
102
RTVSPost2010PropOp37
 70
     0
102
RTVSPost2010Prop38
140
0.0
102
RTVSPost2010PropOp38
 70
     0
102
RTVSPost2010Prop39
140
1.0
102
RTVSPost2010PropOp39
 70
     0
102
RTVSPost2010Prop40
 90
        0
102
RTVSPost2010PropOp40
 70
     0
102
RTVSPost2010Prop41ColorIndex
 90
       18
102
RTVSPost2010Prop41ColorRGB
 90
        0
102
RTVSPost2010PropOp41
 70
     0
102
RTVSPost2010Prop42
 90
       50
102
RTVSPost2010PropOp42
 70
     0
102
RTVSPost2010Prop43
 90
        3
102
RTVSPost2010PropOp43
 70
     0
102
RTVSPost2010Prop44ColorIndex
 90
        5
102
RTVSPost2010Prop44ColorRGB
 90
      255
102
RTVSPost2010PropOp44
 70
     0
102
RTVSPost2010Prop45
280
     0
102
RTVSPost2010PropOp45
 70
     1
102
RTVSPost2010Prop46
 90
       50
102
RTVSPost2010PropOp46
 70
     0
102
RTVSPost2010Prop47
 90
       50
102
RTVSPost2010PropOp47
 70
     0
102
RTVSPost2010Prop48
 90
       50
102
RTVSPost2010PropOp48
 70
     0
102
RTVSPost2010Prop49
280
     0
102
RTVSPost2010PropOp49
 70
     1
102
RTVSPost2010Prop50
 90
       50
102
RTVSPost2010PropOp50
 70
     0
102
RTVSPost2010Prop51ColorIndex
 90
      256
102
RTVSPost2010Prop51ColorRGB
 90
-16777216
102
RTVSPost2010PropOp51
 70
     0
102
RTVSPost2010Prop52
140
1.0
102
RTVSPost2010PropOp52
 70
     0
102
RTVSPost2010Prop53
 90
        2
102
RTVSPost2010PropOp53
 70
     0
102
RTVSPost2010Prop54
  1
strokes_ogs.tif
102
RTVSPost2010PropOp54
 70
     0
102
RTVSPost2010Prop55
280
     0
102
RTVSPost2010PropOp55
 70
     1
102
RTVSPost2010Prop56
140
1.0
102
RTVSPost2010PropOp56
 70
     0
102
RTVSPost2010Prop57
140
1.0
102
RTVSPost2010PropOp57
 70
     0
102
RTVSPropertyOp0
 70
     0
102
RTVSPropertyOp1
 70
     0
102
RTVSPropertyOp2
 70
     0
102
RTVSPropertyOp3
 70
     0
102
RTVSPropertyOp4
 70
     0
102
RTVSPropertyOp5
 70
     0
102
RTVSPropertyOp6
 70
     0
102
RTVSPropertyOp7
 70
     0
102
RTVSPropertyOp8
 70
     0
102
RTVSPropertyOp9
 70
     0
102
RTVSPropertyOp10
 70
     0
102
RTVSPropertyOp11
 70
     0
102
RTVSPropertyOp12
 70
     0
102
RTVSPropertyOp13
 70
     0
102
RTVSPropertyOp14
 70
     2
102
RTVSPropertyOp15
 70
     0
102
RTVSPropertyOp16
 70
     0
102
RTVSPropertyOp17
 70
     0
102
RTVSPropertyOp18
 70
     0
102
RTVSPropertyOp19
 70
     0
102
RTVSPropertyOp20
 70
     0
102
RTVSPropertyOp21
 70
     0
102
RTVSPropertyOp22
 70
     0
102
RTVSPropertyOp23
 70
     0
102
RTVSPropertyOp24
 70
     0
102
RTVSPropertyOp25
 70
     0
102
RTVSPropertyOp26
 70
     0
102
RTVSPropertyOp27
 70
     0
102
RTVSPropertyOp28
 70
     1
102
RTVSPropertyOp29
 70
     1
102
RTVSPropertyOp30
 70
     1
102
RTVSPropertyOp31
 70
     1
102
RTVSPropertyOp32
 70
     1
102
RTVSPropertyOp33
 70
     1
102
RTVSPropertyOp34
 70
     1
102
RTVSPropertyOp35
 70
     1
102
RTVSPropertyOp36
 70
     1
102
RTVSPropertyOp37
 70
     0
102
RTVSPropertyOp38
 70
     0
102
RTVSPropertyOp39
 70
     0
102
RTVSPropertyOp40
 70
     0
102
RTVSPropertyOp41
 70
     0
102
RTVSPropertyOp42
 70
     0
102
RTVSPropertyOp43
 70
     0
102
RTVSPropertyOp44
 70
     0
102
RTVSPropertyOp45
 70
     1
102
RTVSPropertyOp46
 70
     0
102
RTVSPropertyOp47
 70
     0
102
RTVSPropertyOp48
 70
     0
102
RTVSPropertyOp49
 70
     1
102
RTVSPropertyOp50
 70
     0
102
RTVSPropertyOp51
 70
     0
102
RTVSPropertyOp52
 70
     0
102
RTVSPropertyOp53
 70
     0
102
RTVSPropertyOp54
 70
     0
102
RTVSPropertyOp55
 70
     1
102
RTVSPropertyOp56
 70
     0
102
RTVSPropertyOp57
 70
     0
102
RTVSPropertyOp58
 70
     0
102
RTVSPropertyOp59
 70
     0
102
RTVSPropertyOp60
 70
     0
102
RTVSPropertyOp61
 70
     0
102
RTVSPropertyOp62
 70
     0
  0
XRECORD
  5
6BB
102
{ACAD_REACTORS
330
6BA
102
}
330
6BA
100
AcDbXrecord
280
     1
102
RTVSPost2010Prop28
280
     0
102
RTVSPost2010PropOp28
 70
     1
102
RTVSPost2010Prop29
280
     1
102
RTVSPost2010PropOp29
 70
     1
102
RTVSPost2010Prop30
280
     1
102
RTVSPost2010PropOp30
 70
     1
102
RTVSPost2010Prop31
280
     0
102
RTVSPost2010PropOp31
 70
     1
102
RTVSPost2010Prop32
280
     0
102
RTVSPost2010PropOp32
 70
     1
102
RTVSPost2010Prop33
280
     0
102
RTVSPost2010PropOp33
 70
     1
102
RTVSPost2010Prop34
280
     0
102
RTVSPost2010PropOp34
 70
     1
102
RTVSPost2010Prop35
280
     0
102
RTVSPost2010PropOp35
 70
     1
102
RTVSPost2010Prop36
280
     0
102
RTVSPost2010PropOp36
 70
     1
102
RTVSPost2010Prop37
 90
       50
102
RTVSPost2010PropOp37
 70
     1
102
RTVSPost2010Prop38
140
0.0
102
RTVSPost2010PropOp38
 70
     1
102
RTVSPost2010Prop39
140
1.0
102
RTVSPost2010PropOp39
 70
     1
102
RTVSPost2010Prop40
 90
        0
102
RTVSPost2010PropOp40
 70
     1
102
RTVSPost2010Prop41ColorIndex
 90
       18
102
RTVSPost2010Prop41ColorRGB
 90
        0
102
RTVSPost2010PropOp41
 70
     1
102
RTVSPost2010Prop42
 90
       50
102
RTVSPost2010PropOp42
 70
     1
102
RTVSPost2010Prop43
 90
        3
102
RTVSPost2010PropOp43
 70
     1
102
RTVSPost2010Prop44ColorIndex
 90
        5
102
RTVSPost2010Prop44ColorRGB
 90
      255
102
RTVSPost2010PropOp44
 70
     1
102
RTVSPost2010Prop45
280
     0
102
RTVSPost2010PropOp45
 70
     1
102
RTVSPost2010Prop46
 90
       50
102
RTVSPost2010PropOp46
 70
     1
102
RTVSPost2010Prop47
 90
       50
102
RTVSPost2010PropOp47
 70
     1
102
RTVSPost2010Prop48
 90
       50
102
RTVSPost2010PropOp48
 70
     1
102
RTVSPost2010Prop49
280
     0
102
RTVSPost2010PropOp49
 70
     1
102
RTVSPost2010Prop50
 90
       50
102
RTVSPost2010PropOp50
 70
     1
102
RTVSPost2010Prop51ColorIndex
 90
      256
102
RTVSPost2010Prop51ColorRGB
 90
-16777216
102
RTVSPost2010PropOp51
 70
     0
102
RTVSPost2010Prop52
140
1.0
102
RTVSPost2010PropOp52
 70
     0
102
RTVSPost2010Prop53
 90
        2
102
RTVSPost2010PropOp53
 70
     1
102
RTVSPost2010Prop54
  1
strokes_ogs.tif
102
RTVSPost2010PropOp54
 70
     1
102
RTVSPost2010Prop55
280
     0
102
RTVSPost2010PropOp55
 70
     1
102
RTVSPost2010Prop56
140
1.0
102
RTVSPost2010PropOp56
 70
     1
102
RTVSPost2010Prop57
140
1.0
102
RTVSPost2010PropOp57
 70
     1
102
RTVSPropertyOp0
 70
     1
102
RTVSPropertyOp1
 70
     1
102
RTVSPropertyOp2
 70
     1
102
RTVSPropertyOp3
 70
     1
102
RTVSPropertyOp4
 70
     1
102
RTVSPropertyOp5
 70
     1
102
RTVSPropertyOp6
 70
     1
102
RTVSPropertyOp7
 70
     1
102
RTVSPropertyOp8
 70
     1
102
RTVSPropertyOp9
 70
     1
102
RTVSPropertyOp10
 70
     1
102
RTVSPropertyOp11
 70
     1
102
RTVSPropertyOp12
 70
     1
102
RTVSPropertyOp13
 70
     1
102
RTVSPropertyOp14
 70
     1
102
RTVSPropertyOp15
 70
     1
102
RTVSPropertyOp16
 70
     1
102
RTVSPropertyOp17
 70
     1
102
RTVSPropertyOp18
 70
     1
102
RTVSPropertyOp19
 70
     1
102
RTVSPropertyOp20
 70
     1
102
RTVSPropertyOp21
 70
     1
102
RTVSPropertyOp22
 70
     1
102
RTVSPropertyOp23
 70
     1
102
RTVSPropertyOp24
 70
     1
102
RTVSPropertyOp25
 70
     1
102
RTVSPropertyOp26
 70
     1
102
RTVSPropertyOp27
 70
     1
102
RTVSPropertyOp28
 70
     1
102
RTVSPropertyOp29
 70
     1
102
RTVSPropertyOp30
 70
     1
102
RTVSPropertyOp31
 70
     1
102
RTVSPropertyOp32
 70
     1
102
RTVSPropertyOp33
 70
     1
102
RTVSPropertyOp34
 70
     1
102
RTVSPropertyOp35
 70
     1
102
RTVSPropertyOp36
 70
     1
102
RTVSPropertyOp37
 70
     1
102
RTVSPropertyOp38
 70
     1
102
RTVSPropertyOp39
 70
     1
102
RTVSPropertyOp40
 70
     1
102
RTVSPropertyOp41
 70
     1
102
RTVSPropertyOp42
 70
     1
102
RTVSPropertyOp43
 70
     1
102
RTVSPropertyOp44
 70
     1
102
RTVSPropertyOp45
 70
     1
102
RTVSPropertyOp46
 70
     1
102
RTVSPropertyOp47
 70
     1
102
RTVSPropertyOp48
 70
     1
102
RTVSPropertyOp49
 70
     1
102
RTVSPropertyOp50
 70
     1
102
RTVSPropertyOp51
 70
     0
102
RTVSPropertyOp52
 70
     0
102
RTVSPropertyOp53
 70
     1
102
RTVSPropertyOp54
 70
     1
102
RTVSPropertyOp55
 70
     1
102
RTVSPropertyOp56
 70
     1
102
RTVSPropertyOp57
 70
     1
102
RTVSPropertyOp58
 70
     1
102
RTVSPropertyOp59
 70
     1
102
RTVSPropertyOp60
 70
     1
102
RTVSPropertyOp61
 70
     1
102
RTVSPropertyOp62
 70
     1
  0
XRECORD
  5
6CD
102
{ACAD_REACTORS
330
6CC
102
}
330
6CC
100
AcDbXrecord
280
     1
102
RTVSPost2010Prop28
280
     0
102
RTVSPost2010PropOp28
 70
     1
102
RTVSPost2010Prop29
280
     1
102
RTVSPost2010PropOp29
 70
     1
102
RTVSPost2010Prop30
280
     1
102
RTVSPost2010PropOp30
 70
     1
102
RTVSPost2010Prop31
280
     0
102
RTVSPost2010PropOp31
 70
     1
102
RTVSPost2010Prop32
280
     0
102
RTVSPost2010PropOp32
 70
     1
102
RTVSPost2010Prop33
280
     0
102
RTVSPost2010PropOp33
 70
     1
102
RTVSPost2010Prop34
280
     0
102
RTVSPost2010PropOp34
 70
     1
102
RTVSPost2010Prop35
280
     0
102
RTVSPost2010PropOp35
 70
     1
102
RTVSPost2010Prop36
280
     0
102
RTVSPost2010PropOp36
 70
     1
102
RTVSPost2010Prop37
 90
       50
102
RTVSPost2010PropOp37
 70
     0
102
RTVSPost2010Prop38
140
0.0
102
RTVSPost2010PropOp38
 70
     0
102
RTVSPost2010Prop39
140
1.0
102
RTVSPost2010PropOp39
 70
     0
102
RTVSPost2010Prop40
 90
        0
102
RTVSPost2010PropOp40
 70
     0
102
RTVSPost2010Prop41ColorIndex
 90
       18
102
RTVSPost2010Prop41ColorRGB
 90
        0
102
RTVSPost2010PropOp41
 70
     0
102
RTVSPost2010Prop42
 90
       50
102
RTVSPost2010PropOp42
 70
     0
102
RTVSPost2010Prop43
 90
        3
102
RTVSPost2010PropOp43
 70
     0
102
RTVSPost2010Prop44ColorIndex
 90
        5
102
RTVSPost2010Prop44ColorRGB
 90
      255
102
RTVSPost2010PropOp44
 70
     0
102
RTVSPost2010Prop45
280
     0
102
RTVSPost2010PropOp45
 70
     1
102
RTVSPost2010Prop46
 90
       50
102
RTVSPost2010PropOp46
 70
     0
102
RTVSPost2010Prop47
 90
       50
102
RTVSPost2010PropOp47
 70
     0
102
RTVSPost2010Prop48
 90
       50
102
RTVSPost2010PropOp48
 70
     0
102
RTVSPost2010Prop49
280
     0
102
RTVSPost2010PropOp49
 70
     1
102
RTVSPost2010Prop50
 90
       50
102
RTVSPost2010PropOp50
 70
     0
102
RTVSPost2010Prop51ColorIndex
 90
      256
102
RTVSPost2010Prop51ColorRGB
 90
-16777216
102
RTVSPost2010PropOp51
 70
     0
102
RTVSPost2010Prop52
140
1.0
102
RTVSPost2010PropOp52
 70
     0
102
RTVSPost2010Prop53
 90
        2
102
RTVSPost2010PropOp53
 70
     0
102
RTVSPost2010Prop54
  1
strokes_ogs.tif
102
RTVSPost2010PropOp54
 70
     0
102
RTVSPost2010Prop55
280
     0
102
RTVSPost2010PropOp55
 70
     1
102
RTVSPost2010Prop56
140
1.0
102
RTVSPost2010PropOp56
 70
     0
102
RTVSPost2010Prop57
140
1.0
102
RTVSPost2010PropOp57
 70
     0
102
RTVSPropertyOp0
 70
     0
102
RTVSPropertyOp1
 70
     0
102
RTVSPropertyOp2
 70
     0
102
RTVSPropertyOp3
 70
     0
102
RTVSPropertyOp4
 70
     0
102
RTVSPropertyOp5
 70
     0
102
RTVSPropertyOp6
 70
     0
102
RTVSPropertyOp7
 70
     0
102
RTVSPropertyOp8
 70
     0
102
RTVSPropertyOp9
 70
     0
102
RTVSPropertyOp10
 70
     0
102
RTVSPropertyOp11
 70
     0
102
RTVSPropertyOp12
 70
     0
102
RTVSPropertyOp13
 70
     0
102
RTVSPropertyOp14
 70
     2
102
RTVSPropertyOp15
 70
     0
102
RTVSPropertyOp16
 70
     0
102
RTVSPropertyOp17
 70
     0
102
RTVSPropertyOp18
 70
     0
102
RTVSPropertyOp19
 70
     0
102
RTVSPropertyOp20
 70
     0
102
RTVSPropertyOp21
 70
     0
102
RTVSPropertyOp22
 70
     0
102
RTVSPropertyOp23
 70
     0
102
RTVSPropertyOp24
 70
     0
102
RTVSPropertyOp25
 70
     0
102
RTVSPropertyOp26
 70
     0
102
RTVSPropertyOp27
 70
     0
102
RTVSPropertyOp28
 70
     1
102
RTVSPropertyOp29
 70
     1
102
RTVSPropertyOp30
 70
     1
102
RTVSPropertyOp31
 70
     1
102
RTVSPropertyOp32
 70
     1
102
RTVSPropertyOp33
 70
     1
102
RTVSPropertyOp34
 70
     1
102
RTVSPropertyOp35
 70
     1
102
RTVSPropertyOp36
 70
     1
102
RTVSPropertyOp37
 70
     0
102
RTVSPropertyOp38
 70
     0
102
RTVSPropertyOp39
 70
     0
102
RTVSPropertyOp40
 70
     0
102
RTVSPropertyOp41
 70
     0
102
RTVSPropertyOp42
 70
     0
102
RTVSPropertyOp43
 70
     0
102
RTVSPropertyOp44
 70
     0
102
RTVSPropertyOp45
 70
     1
102
RTVSPropertyOp46
 70
     0
102
RTVSPropertyOp47
 70
     0
102
RTVSPropertyOp48
 70
     0
102
RTVSPropertyOp49
 70
     1
102
RTVSPropertyOp50
 70
     0
102
RTVSPropertyOp51
 70
     0
102
RTVSPropertyOp52
 70
     0
102
RTVSPropertyOp53
 70
     0
102
RTVSPropertyOp54
 70
     0
102
RTVSPropertyOp55
 70
     1
102
RTVSPropertyOp56
 70
     0
102
RTVSPropertyOp57
 70
     0
102
RTVSPropertyOp58
 70
     0
102
RTVSPropertyOp59
 70
     0
102
RTVSPropertyOp60
 70
     0
102
RTVSPropertyOp61
 70
     0
102
RTVSPropertyOp62
 70
     0
  0
XRECORD
  5
6B3
102
{ACAD_REACTORS
330
6B2
102
}
330
6B2
100
AcDbXrecord
280
     1
102
RTVSPost2010Prop28
280
     0
102
RTVSPost2010PropOp28
 70
     1
102
RTVSPost2010Prop29
280
     1
102
RTVSPost2010PropOp29
 70
     1
102
RTVSPost2010Prop30
280
     1
102
RTVSPost2010PropOp30
 70
     1
102
RTVSPost2010Prop31
280
     0
102
RTVSPost2010PropOp31
 70
     1
102
RTVSPost2010Prop32
280
     0
102
RTVSPost2010PropOp32
 70
     1
102
RTVSPost2010Prop33
280
     0
102
RTVSPost2010PropOp33
 70
     1
102
RTVSPost2010Prop34
280
     0
102
RTVSPost2010PropOp34
 70
     1
102
RTVSPost2010Prop35
280
     0
102
RTVSPost2010PropOp35
 70
     1
102
RTVSPost2010Prop36
280
     0
102
RTVSPost2010PropOp36
 70
     1
102
RTVSPost2010Prop37
 90
       50
102
RTVSPost2010PropOp37
 70
     1
102
RTVSPost2010Prop38
140
0.0
102
RTVSPost2010PropOp38
 70
     1
102
RTVSPost2010Prop39
140
1.0
102
RTVSPost2010PropOp39
 70
     1
102
RTVSPost2010Prop40
 90
        0
102
RTVSPost2010PropOp40
 70
     1
102
RTVSPost2010Prop41ColorIndex
 90
       18
102
RTVSPost2010Prop41ColorRGB
 90
        0
102
RTVSPost2010PropOp41
 70
     1
102
RTVSPost2010Prop42
 90
       50
102
RTVSPost2010PropOp42
 70
     1
102
RTVSPost2010Prop43
 90
        3
102
RTVSPost2010PropOp43
 70
     1
102
RTVSPost2010Prop44ColorIndex
 90
        5
102
RTVSPost2010Prop44ColorRGB
 90
      255
102
RTVSPost2010PropOp44
 70
     1
102
RTVSPost2010Prop45
280
     0
102
RTVSPost2010PropOp45
 70
     1
102
RTVSPost2010Prop46
 90
       50
102
RTVSPost2010PropOp46
 70
     1
102
RTVSPost2010Prop47
 90
       50
102
RTVSPost2010PropOp47
 70
     1
102
RTVSPost2010Prop48
 90
       50
102
RTVSPost2010PropOp48
 70
     1
102
RTVSPost2010Prop49
280
     0
102
RTVSPost2010PropOp49
 70
     1
102
RTVSPost2010Prop50
 90
       50
102
RTVSPost2010PropOp50
 70
     1
102
RTVSPost2010Prop51ColorIndex
 90
      256
102
RTVSPost2010Prop51ColorRGB
 90
-16777216
102
RTVSPost2010PropOp51
 70
     0
102
RTVSPost2010Prop52
140
1.0
102
RTVSPost2010PropOp52
 70
     0
102
RTVSPost2010Prop53
 90
        2
102
RTVSPost2010PropOp53
 70
     1
102
RTVSPost2010Prop54
  1
strokes_ogs.tif
102
RTVSPost2010PropOp54
 70
     1
102
RTVSPost2010Prop55
280
     0
102
RTVSPost2010PropOp55
 70
     1
102
RTVSPost2010Prop56
140
1.0
102
RTVSPost2010PropOp56
 70
     1
102
RTVSPost2010Prop57
140
1.0
102
RTVSPost2010PropOp57
 70
     1
102
RTVSPropertyOp0
 70
     1
102
RTVSPropertyOp1
 70
     1
102
RTVSPropertyOp2
 70
     1
102
RTVSPropertyOp3
 70
     1
102
RTVSPropertyOp4
 70
     1
102
RTVSPropertyOp5
 70
     1
102
RTVSPropertyOp6
 70
     1
102
RTVSPropertyOp7
 70
     1
102
RTVSPropertyOp8
 70
     1
102
RTVSPropertyOp9
 70
     1
102
RTVSPropertyOp10
 70
     1
102
RTVSPropertyOp11
 70
     1
102
RTVSPropertyOp12
 70
     1
102
RTVSPropertyOp13
 70
     1
102
RTVSPropertyOp14
 70
     1
102
RTVSPropertyOp15
 70
     1
102
RTVSPropertyOp16
 70
     1
102
RTVSPropertyOp17
 70
     1
102
RTVSPropertyOp18
 70
     1
102
RTVSPropertyOp19
 70
     1
102
RTVSPropertyOp20
 70
     1
102
RTVSPropertyOp21
 70
     1
102
RTVSPropertyOp22
 70
     1
102
RTVSPropertyOp23
 70
     1
102
RTVSPropertyOp24
 70
     1
102
RTVSPropertyOp25
 70
     1
102
RTVSPropertyOp26
 70
     1
102
RTVSPropertyOp27
 70
     1
102
RTVSPropertyOp28
 70
     1
102
RTVSPropertyOp29
 70
     1
102
RTVSPropertyOp30
 70
     1
102
RTVSPropertyOp31
 70
     1
102
RTVSPropertyOp32
 70
     1
102
RTVSPropertyOp33
 70
     1
102
RTVSPropertyOp34
 70
     1
102
RTVSPropertyOp35
 70
     1
102
RTVSPropertyOp36
 70
     1
102
RTVSPropertyOp37
 70
     1
102
RTVSPropertyOp38
 70
     1
102
RTVSPropertyOp39
 70
     1
102
RTVSPropertyOp40
 70
     1
102
RTVSPropertyOp41
 70
     1
102
RTVSPropertyOp42
 70
     1
102
RTVSPropertyOp43
 70
     1
102
RTVSPropertyOp44
 70
     1
102
RTVSPropertyOp45
 70
     1
102
RTVSPropertyOp46
 70
     1
102
RTVSPropertyOp47
 70
     1
102
RTVSPropertyOp48
 70
     1
102
RTVSPropertyOp49
 70
     1
102
RTVSPropertyOp50
 70
     1
102
RTVSPropertyOp51
 70
     0
102
RTVSPropertyOp52
 70
     0
102
RTVSPropertyOp53
 70
     1
102
RTVSPropertyOp54
 70
     1
102
RTVSPropertyOp55
 70
     1
102
RTVSPropertyOp56
 70
     1
102
RTVSPropertyOp57
 70
     1
102
RTVSPropertyOp58
 70
     1
102
RTVSPropertyOp59
 70
     1
102
RTVSPropertyOp60
 70
     1
102
RTVSPropertyOp61
 70
     1
102
RTVSPropertyOp62
 70
     1
  0
XRECORD
  5
6C9
102
{ACAD_REACTORS
330
6C8
102
}
330
6C8
100
AcDbXrecord
280
     1
102
RTVSPost2010Prop28
280
     0
102
RTVSPost2010PropOp28
 70
     1
102
RTVSPost2010Prop29
280
     1
102
RTVSPost2010PropOp29
 70
     1
102
RTVSPost2010Prop30
280
     1
102
RTVSPost2010PropOp30
 70
     1
102
RTVSPost2010Prop31
280
     0
102
RTVSPost2010PropOp31
 70
     1
102
RTVSPost2010Prop32
280
     0
102
RTVSPost2010PropOp32
 70
     1
102
RTVSPost2010Prop33
280
     0
102
RTVSPost2010PropOp33
 70
     1
102
RTVSPost2010Prop34
280
     0
102
RTVSPost2010PropOp34
 70
     1
102
RTVSPost2010Prop35
280
     0
102
RTVSPost2010PropOp35
 70
     1
102
RTVSPost2010Prop36
280
     0
102
RTVSPost2010PropOp36
 70
     1
102
RTVSPost2010Prop37
 90
       50
102
RTVSPost2010PropOp37
 70
     1
102
RTVSPost2010Prop38
140
0.0
102
RTVSPost2010PropOp38
 70
     1
102
RTVSPost2010Prop39
140
1.0
102
RTVSPost2010PropOp39
 70
     1
102
RTVSPost2010Prop40
 90
        0
102
RTVSPost2010PropOp40
 70
     1
102
RTVSPost2010Prop41ColorIndex
 90
       18
102
RTVSPost2010Prop41ColorRGB
 90
        0
102
RTVSPost2010PropOp41
 70
     1
102
RTVSPost2010Prop42
 90
       50
102
RTVSPost2010PropOp42
 70
     1
102
RTVSPost2010Prop43
 90
        3
102
RTVSPost2010PropOp43
 70
     1
102
RTVSPost2010Prop44ColorIndex
 90
        5
102
RTVSPost2010Prop44ColorRGB
 90
      255
102
RTVSPost2010PropOp44
 70
     1
102
RTVSPost2010Prop45
280
     0
102
RTVSPost2010PropOp45
 70
     1
102
RTVSPost2010Prop46
 90
       50
102
RTVSPost2010PropOp46
 70
     1
102
RTVSPost2010Prop47
 90
       50
102
RTVSPost2010PropOp47
 70
     1
102
RTVSPost2010Prop48
 90
       50
102
RTVSPost2010PropOp48
 70
     1
102
RTVSPost2010Prop49
280
     0
102
RTVSPost2010PropOp49
 70
     1
102
RTVSPost2010Prop50
 90
       50
102
RTVSPost2010PropOp50
 70
     1
102
RTVSPost2010Prop51ColorIndex
 90
      256
102
RTVSPost2010Prop51ColorRGB
 90
-16777216
102
RTVSPost2010PropOp51
 70
     0
102
RTVSPost2010Prop52
140
1.0
102
RTVSPost2010PropOp52
 70
     0
102
RTVSPost2010Prop53
 90
        2
102
RTVSPost2010PropOp53
 70
     1
102
RTVSPost2010Prop54
  1
strokes_ogs.tif
102
RTVSPost2010PropOp54
 70
     1
102
RTVSPost2010Prop55
280
     0
102
RTVSPost2010PropOp55
 70
     1
102
RTVSPost2010Prop56
140
1.0
102
RTVSPost2010PropOp56
 70
     1
102
RTVSPost2010Prop57
140
1.0
102
RTVSPost2010PropOp57
 70
     1
102
RTVSPropertyOp0
 70
     1
102
RTVSPropertyOp1
 70
     1
102
RTVSPropertyOp2
 70
     1
102
RTVSPropertyOp3
 70
     1
102
RTVSPropertyOp4
 70
     1
102
RTVSPropertyOp5
 70
     1
102
RTVSPropertyOp6
 70
     1
102
RTVSPropertyOp7
 70
     1
102
RTVSPropertyOp8
 70
     1
102
RTVSPropertyOp9
 70
     1
102
RTVSPropertyOp10
 70
     1
102
RTVSPropertyOp11
 70
     1
102
RTVSPropertyOp12
 70
     1
102
RTVSPropertyOp13
 70
     1
102
RTVSPropertyOp14
 70
     1
102
RTVSPropertyOp15
 70
     1
102
RTVSPropertyOp16
 70
     1
102
RTVSPropertyOp17
 70
     1
102
RTVSPropertyOp18
 70
     1
102
RTVSPropertyOp19
 70
     1
102
RTVSPropertyOp20
 70
     1
102
RTVSPropertyOp21
 70
     1
102
RTVSPropertyOp22
 70
     1
102
RTVSPropertyOp23
 70
     1
102
RTVSPropertyOp24
 70
     1
102
RTVSPropertyOp25
 70
     1
102
RTVSPropertyOp26
 70
     1
102
RTVSPropertyOp27
 70
     1
102
RTVSPropertyOp28
 70
     1
102
RTVSPropertyOp29
 70
     1
102
RTVSPropertyOp30
 70
     1
102
RTVSPropertyOp31
 70
     1
102
RTVSPropertyOp32
 70
     1
102
RTVSPropertyOp33
 70
     1
102
RTVSPropertyOp34
 70
     1
102
RTVSPropertyOp35
 70
     1
102
RTVSPropertyOp36
 70
     1
102
RTVSPropertyOp37
 70
     1
102
RTVSPropertyOp38
 70
     1
102
RTVSPropertyOp39
 70
     1
102
RTVSPropertyOp40
 70
     1
102
RTVSPropertyOp41
 70
     1
102
RTVSPropertyOp42
 70
     1
102
RTVSPropertyOp43
 70
     1
102
RTVSPropertyOp44
 70
     1
102
RTVSPropertyOp45
 70
     1
102
RTVSPropertyOp46
 70
     1
102
RTVSPropertyOp47
 70
     1
102
RTVSPropertyOp48
 70
     1
102
RTVSPropertyOp49
 70
     1
102
RTVSPropertyOp50
 70
     1
102
RTVSPropertyOp51
 70
     0
102
RTVSPropertyOp52
 70
     0
102
RTVSPropertyOp53
 70
     1
102
RTVSPropertyOp54
 70
     1
102
RTVSPropertyOp55
 70
     1
102
RTVSPropertyOp56
 70
     1
102
RTVSPropertyOp57
 70
     1
102
RTVSPropertyOp58
 70
     1
102
RTVSPropertyOp59
 70
     1
102
RTVSPropertyOp60
 70
     1
102
RTVSPropertyOp61
 70
     1
102
RTVSPropertyOp62
 70
     1
  0
XRECORD
  5
6C7
102
{ACAD_REACTORS
330
6C6
102
}
330
6C6
100
AcDbXrecord
280
     1
102
RTVSPost2010Prop28
280
     0
102
RTVSPost2010PropOp28
 70
     1
102
RTVSPost2010Prop29
280
     1
102
RTVSPost2010PropOp29
 70
     1
102
RTVSPost2010Prop30
280
     1
102
RTVSPost2010PropOp30
 70
     1
102
RTVSPost2010Prop31
280
     0
102
RTVSPost2010PropOp31
 70
     1
102
RTVSPost2010Prop32
280
     0
102
RTVSPost2010PropOp32
 70
     1
102
RTVSPost2010Prop33
280
     0
102
RTVSPost2010PropOp33
 70
     1
102
RTVSPost2010Prop34
280
     0
102
RTVSPost2010PropOp34
 70
     1
102
RTVSPost2010Prop35
280
     0
102
RTVSPost2010PropOp35
 70
     1
102
RTVSPost2010Prop36
280
     0
102
RTVSPost2010PropOp36
 70
     1
102
RTVSPost2010Prop37
 90
       50
102
RTVSPost2010PropOp37
 70
     1
102
RTVSPost2010Prop38
140
0.0
102
RTVSPost2010PropOp38
 70
     1
102
RTVSPost2010Prop39
140
1.0
102
RTVSPost2010PropOp39
 70
     1
102
RTVSPost2010Prop40
 90
        0
102
RTVSPost2010PropOp40
 70
     1
102
RTVSPost2010Prop41ColorIndex
 90
       18
102
RTVSPost2010Prop41ColorRGB
 90
        0
102
RTVSPost2010PropOp41
 70
     1
102
RTVSPost2010Prop42
 90
       50
102
RTVSPost2010PropOp42
 70
     1
102
RTVSPost2010Prop43
 90
        3
102
RTVSPost2010PropOp43
 70
     1
102
RTVSPost2010Prop44ColorIndex
 90
        5
102
RTVSPost2010Prop44ColorRGB
 90
      255
102
RTVSPost2010PropOp44
 70
     1
102
RTVSPost2010Prop45
280
     0
102
RTVSPost2010PropOp45
 70
     1
102
RTVSPost2010Prop46
 90
       50
102
RTVSPost2010PropOp46
 70
     1
102
RTVSPost2010Prop47
 90
       50
102
RTVSPost2010PropOp47
 70
     1
102
RTVSPost2010Prop48
 90
       50
102
RTVSPost2010PropOp48
 70
     1
102
RTVSPost2010Prop49
280
     0
102
RTVSPost2010PropOp49
 70
     1
102
RTVSPost2010Prop50
 90
       50
102
RTVSPost2010PropOp50
 70
     1
102
RTVSPost2010Prop51ColorIndex
 90
      256
102
RTVSPost2010Prop51ColorRGB
 90
-16777216
102
RTVSPost2010PropOp51
 70
     0
102
RTVSPost2010Prop52
140
1.0
102
RTVSPost2010PropOp52
 70
     0
102
RTVSPost2010Prop53
 90
        2
102
RTVSPost2010PropOp53
 70
     1
102
RTVSPost2010Prop54
  1
strokes_ogs.tif
102
RTVSPost2010PropOp54
 70
     1
102
RTVSPost2010Prop55
280
     0
102
RTVSPost2010PropOp55
 70
     1
102
RTVSPost2010Prop56
140
1.0
102
RTVSPost2010PropOp56
 70
     1
102
RTVSPost2010Prop57
140
1.0
102
RTVSPost2010PropOp57
 70
     1
102
RTVSPropertyOp0
 70
     1
102
RTVSPropertyOp1
 70
     1
102
RTVSPropertyOp2
 70
     1
102
RTVSPropertyOp3
 70
     1
102
RTVSPropertyOp4
 70
     1
102
RTVSPropertyOp5
 70
     1
102
RTVSPropertyOp6
 70
     1
102
RTVSPropertyOp7
 70
     1
102
RTVSPropertyOp8
 70
     1
102
RTVSPropertyOp9
 70
     1
102
RTVSPropertyOp10
 70
     1
102
RTVSPropertyOp11
 70
     1
102
RTVSPropertyOp12
 70
     1
102
RTVSPropertyOp13
 70
     1
102
RTVSPropertyOp14
 70
     1
102
RTVSPropertyOp15
 70
     1
102
RTVSPropertyOp16
 70
     1
102
RTVSPropertyOp17
 70
     1
102
RTVSPropertyOp18
 70
     1
102
RTVSPropertyOp19
 70
     1
102
RTVSPropertyOp20
 70
     1
102
RTVSPropertyOp21
 70
     1
102
RTVSPropertyOp22
 70
     1
102
RTVSPropertyOp23
 70
     1
102
RTVSPropertyOp24
 70
     1
102
RTVSPropertyOp25
 70
     1
102
RTVSPropertyOp26
 70
     1
102
RTVSPropertyOp27
 70
     1
102
RTVSPropertyOp28
 70
     1
102
RTVSPropertyOp29
 70
     1
102
RTVSPropertyOp30
 70
     1
102
RTVSPropertyOp31
 70
     1
102
RTVSPropertyOp32
 70
     1
102
RTVSPropertyOp33
 70
     1
102
RTVSPropertyOp34
 70
     1
102
RTVSPropertyOp35
 70
     1
102
RTVSPropertyOp36
 70
     1
102
RTVSPropertyOp37
 70
     1
102
RTVSPropertyOp38
 70
     1
102
RTVSPropertyOp39
 70
     1
102
RTVSPropertyOp40
 70
     1
102
RTVSPropertyOp41
 70
     1
102
RTVSPropertyOp42
 70
     1
102
RTVSPropertyOp43
 70
     1
102
RTVSPropertyOp44
 70
     1
102
RTVSPropertyOp45
 70
     1
102
RTVSPropertyOp46
 70
     1
102
RTVSPropertyOp47
 70
     1
102
RTVSPropertyOp48
 70
     1
102
RTVSPropertyOp49
 70
     1
102
RTVSPropertyOp50
 70
     1
102
RTVSPropertyOp51
 70
     0
102
RTVSPropertyOp52
 70
     0
102
RTVSPropertyOp53
 70
     1
102
RTVSPropertyOp54
 70
     1
102
RTVSPropertyOp55
 70
     1
102
RTVSPropertyOp56
 70
     1
102
RTVSPropertyOp57
 70
     1
102
RTVSPropertyOp58
 70
     1
102
RTVSPropertyOp59
 70
     1
102
RTVSPropertyOp60
 70
     1
102
RTVSPropertyOp61
 70
     1
102
RTVSPropertyOp62
 70
     1
  0
XRECORD
  5
6C1
102
{ACAD_REACTORS
330
6C0
102
}
330
6C0
100
AcDbXrecord
280
     1
102
RTVSPost2010Prop28
280
     0
102
RTVSPost2010PropOp28
 70
     1
102
RTVSPost2010Prop29
280
     1
102
RTVSPost2010PropOp29
 70
     1
102
RTVSPost2010Prop30
280
     1
102
RTVSPost2010PropOp30
 70
     1
102
RTVSPost2010Prop31
280
     0
102
RTVSPost2010PropOp31
 70
     1
102
RTVSPost2010Prop32
280
     0
102
RTVSPost2010PropOp32
 70
     1
102
RTVSPost2010Prop33
280
     0
102
RTVSPost2010PropOp33
 70
     1
102
RTVSPost2010Prop34
280
     0
102
RTVSPost2010PropOp34
 70
     1
102
RTVSPost2010Prop35
280
     0
102
RTVSPost2010PropOp35
 70
     1
102
RTVSPost2010Prop36
280
     0
102
RTVSPost2010PropOp36
 70
     1
102
RTVSPost2010Prop37
 90
       50
102
RTVSPost2010PropOp37
 70
     1
102
RTVSPost2010Prop38
140
0.0
102
RTVSPost2010PropOp38
 70
     1
102
RTVSPost2010Prop39
140
1.0
102
RTVSPost2010PropOp39
 70
     1
102
RTVSPost2010Prop40
 90
        0
102
RTVSPost2010PropOp40
 70
     1
102
RTVSPost2010Prop41ColorIndex
 90
       18
102
RTVSPost2010Prop41ColorRGB
 90
        0
102
RTVSPost2010PropOp41
 70
     1
102
RTVSPost2010Prop42
 90
       50
102
RTVSPost2010PropOp42
 70
     1
102
RTVSPost2010Prop43
 90
        3
102
RTVSPost2010PropOp43
 70
     1
102
RTVSPost2010Prop44ColorIndex
 90
        5
102
RTVSPost2010Prop44ColorRGB
 90
      255
102
RTVSPost2010PropOp44
 70
     1
102
RTVSPost2010Prop45
280
     0
102
RTVSPost2010PropOp45
 70
     1
102
RTVSPost2010Prop46
 90
       50
102
RTVSPost2010PropOp46
 70
     1
102
RTVSPost2010Prop47
 90
       50
102
RTVSPost2010PropOp47
 70
     1
102
RTVSPost2010Prop48
 90
       50
102
RTVSPost2010PropOp48
 70
     1
102
RTVSPost2010Prop49
280
     0
102
RTVSPost2010PropOp49
 70
     1
102
RTVSPost2010Prop50
 90
       50
102
RTVSPost2010PropOp50
 70
     1
102
RTVSPost2010Prop51ColorIndex
 90
      256
102
RTVSPost2010Prop51ColorRGB
 90
-16777216
102
RTVSPost2010PropOp51
 70
     0
102
RTVSPost2010Prop52
140
1.0
102
RTVSPost2010PropOp52
 70
     0
102
RTVSPost2010Prop53
 90
        2
102
RTVSPost2010PropOp53
 70
     1
102
RTVSPost2010Prop54
  1
strokes_ogs.tif
102
RTVSPost2010PropOp54
 70
     1
102
RTVSPost2010Prop55
280
     0
102
RTVSPost2010PropOp55
 70
     1
102
RTVSPost2010Prop56
140
1.0
102
RTVSPost2010PropOp56
 70
     1
102
RTVSPost2010Prop57
140
1.0
102
RTVSPost2010PropOp57
 70
     1
102
RTVSPropertyOp0
 70
     1
102
RTVSPropertyOp1
 70
     1
102
RTVSPropertyOp2
 70
     1
102
RTVSPropertyOp3
 70
     1
102
RTVSPropertyOp4
 70
     1
102
RTVSPropertyOp5
 70
     1
102
RTVSPropertyOp6
 70
     1
102
RTVSPropertyOp7
 70
     1
102
RTVSPropertyOp8
 70
     1
102
RTVSPropertyOp9
 70
     1
102
RTVSPropertyOp10
 70
     1
102
RTVSPropertyOp11
 70
     1
102
RTVSPropertyOp12
 70
     1
102
RTVSPropertyOp13
 70
     1
102
RTVSPropertyOp14
 70
     1
102
RTVSPropertyOp15
 70
     1
102
RTVSPropertyOp16
 70
     1
102
RTVSPropertyOp17
 70
     1
102
RTVSPropertyOp18
 70
     1
102
RTVSPropertyOp19
 70
     1
102
RTVSPropertyOp20
 70
     1
102
RTVSPropertyOp21
 70
     1
102
RTVSPropertyOp22
 70
     1
102
RTVSPropertyOp23
 70
     1
102
RTVSPropertyOp24
 70
     1
102
RTVSPropertyOp25
 70
     1
102
RTVSPropertyOp26
 70
     1
102
RTVSPropertyOp27
 70
     1
102
RTVSPropertyOp28
 70
     1
102
RTVSPropertyOp29
 70
     1
102
RTVSPropertyOp30
 70
     1
102
RTVSPropertyOp31
 70
     1
102
RTVSPropertyOp32
 70
     1
102
RTVSPropertyOp33
 70
     1
102
RTVSPropertyOp34
 70
     1
102
RTVSPropertyOp35
 70
     1
102
RTVSPropertyOp36
 70
     1
102
RTVSPropertyOp37
 70
     1
102
RTVSPropertyOp38
 70
     1
102
RTVSPropertyOp39
 70
     1
102
RTVSPropertyOp40
 70
     1
102
RTVSPropertyOp41
 70
     1
102
RTVSPropertyOp42
 70
     1
102
RTVSPropertyOp43
 70
     1
102
RTVSPropertyOp44
 70
     1
102
RTVSPropertyOp45
 70
     1
102
RTVSPropertyOp46
 70
     1
102
RTVSPropertyOp47
 70
     1
102
RTVSPropertyOp48
 70
     1
102
RTVSPropertyOp49
 70
     1
102
RTVSPropertyOp50
 70
     1
102
RTVSPropertyOp51
 70
     0
102
RTVSPropertyOp52
 70
     0
102
RTVSPropertyOp53
 70
     1
102
RTVSPropertyOp54
 70
     1
102
RTVSPropertyOp55
 70
     1
102
RTVSPropertyOp56
 70
     1
102
RTVSPropertyOp57
 70
     1
102
RTVSPropertyOp58
 70
     1
102
RTVSPropertyOp59
 70
     1
102
RTVSPropertyOp60
 70
     1
102
RTVSPropertyOp61
 70
     1
102
RTVSPropertyOp62
 70
     1
  0
XRECORD
  5
6C3
102
{ACAD_REACTORS
330
6C2
102
}
330
6C2
100
AcDbXrecord
280
     1
102
RTVSPost2010Prop28
280
     0
102
RTVSPost2010PropOp28
 70
     1
102
RTVSPost2010Prop29
280
     1
102
RTVSPost2010PropOp29
 70
     1
102
RTVSPost2010Prop30
280
     1
102
RTVSPost2010PropOp30
 70
     1
102
RTVSPost2010Prop31
280
     0
102
RTVSPost2010PropOp31
 70
     1
102
RTVSPost2010Prop32
280
     0
102
RTVSPost2010PropOp32
 70
     1
102
RTVSPost2010Prop33
280
     0
102
RTVSPost2010PropOp33
 70
     1
102
RTVSPost2010Prop34
280
     0
102
RTVSPost2010PropOp34
 70
     1
102
RTVSPost2010Prop35
280
     0
102
RTVSPost2010PropOp35
 70
     1
102
RTVSPost2010Prop36
280
     0
102
RTVSPost2010PropOp36
 70
     1
102
RTVSPost2010Prop37
 90
       50
102
RTVSPost2010PropOp37
 70
     1
102
RTVSPost2010Prop38
140
0.0
102
RTVSPost2010PropOp38
 70
     1
102
RTVSPost2010Prop39
140
1.0
102
RTVSPost2010PropOp39
 70
     1
102
RTVSPost2010Prop40
 90
        0
102
RTVSPost2010PropOp40
 70
     1
102
RTVSPost2010Prop41ColorIndex
 90
       18
102
RTVSPost2010Prop41ColorRGB
 90
        0
102
RTVSPost2010PropOp41
 70
     1
102
RTVSPost2010Prop42
 90
       50
102
RTVSPost2010PropOp42
 70
     1
102
RTVSPost2010Prop43
 90
        3
102
RTVSPost2010PropOp43
 70
     1
102
RTVSPost2010Prop44ColorIndex
 90
        5
102
RTVSPost2010Prop44ColorRGB
 90
      255
102
RTVSPost2010PropOp44
 70
     1
102
RTVSPost2010Prop45
280
     0
102
RTVSPost2010PropOp45
 70
     1
102
RTVSPost2010Prop46
 90
       50
102
RTVSPost2010PropOp46
 70
     1
102
RTVSPost2010Prop47
 90
       50
102
RTVSPost2010PropOp47
 70
     1
102
RTVSPost2010Prop48
 90
       50
102
RTVSPost2010PropOp48
 70
     1
102
RTVSPost2010Prop49
280
     0
102
RTVSPost2010PropOp49
 70
     1
102
RTVSPost2010Prop50
 90
       50
102
RTVSPost2010PropOp50
 70
     1
102
RTVSPost2010Prop51ColorIndex
 90
      256
102
RTVSPost2010Prop51ColorRGB
 90
-16777216
102
RTVSPost2010PropOp51
 70
     0
102
RTVSPost2010Prop52
140
1.0
102
RTVSPost2010PropOp52
 70
     0
102
RTVSPost2010Prop53
 90
        2
102
RTVSPost2010PropOp53
 70
     1
102
RTVSPost2010Prop54
  1
strokes_ogs.tif
102
RTVSPost2010PropOp54
 70
     1
102
RTVSPost2010Prop55
280
     0
102
RTVSPost2010PropOp55
 70
     1
102
RTVSPost2010Prop56
140
1.0
102
RTVSPost2010PropOp56
 70
     1
102
RTVSPost2010Prop57
140
1.0
102
RTVSPost2010PropOp57
 70
     1
102
RTVSPropertyOp0
 70
     1
102
RTVSPropertyOp1
 70
     1
102
RTVSPropertyOp2
 70
     1
102
RTVSPropertyOp3
 70
     1
102
RTVSPropertyOp4
 70
     1
102
RTVSPropertyOp5
 70
     1
102
RTVSPropertyOp6
 70
     1
102
RTVSPropertyOp7
 70
     1
102
RTVSPropertyOp8
 70
     1
102
RTVSPropertyOp9
 70
     1
102
RTVSPropertyOp10
 70
     1
102
RTVSPropertyOp11
 70
     1
102
RTVSPropertyOp12
 70
     1
102
RTVSPropertyOp13
 70
     1
102
RTVSPropertyOp14
 70
     1
102
RTVSPropertyOp15
 70
     1
102
RTVSPropertyOp16
 70
     1
102
RTVSPropertyOp17
 70
     1
102
RTVSPropertyOp18
 70
     1
102
RTVSPropertyOp19
 70
     1
102
RTVSPropertyOp20
 70
     1
102
RTVSPropertyOp21
 70
     1
102
RTVSPropertyOp22
 70
     1
102
RTVSPropertyOp23
 70
     1
102
RTVSPropertyOp24
 70
     1
102
RTVSPropertyOp25
 70
     1
102
RTVSPropertyOp26
 70
     1
102
RTVSPropertyOp27
 70
     1
102
RTVSPropertyOp28
 70
     1
102
RTVSPropertyOp29
 70
     1
102
RTVSPropertyOp30
 70
     1
102
RTVSPropertyOp31
 70
     1
102
RTVSPropertyOp32
 70
     1
102
RTVSPropertyOp33
 70
     1
102
RTVSPropertyOp34
 70
     1
102
RTVSPropertyOp35
 70
     1
102
RTVSPropertyOp36
 70
     1
102
RTVSPropertyOp37
 70
     1
102
RTVSPropertyOp38
 70
     1
102
RTVSPropertyOp39
 70
     1
102
RTVSPropertyOp40
 70
     1
102
RTVSPropertyOp41
 70
     1
102
RTVSPropertyOp42
 70
     1
102
RTVSPropertyOp43
 70
     1
102
RTVSPropertyOp44
 70
     1
102
RTVSPropertyOp45
 70
     1
102
RTVSPropertyOp46
 70
     1
102
RTVSPropertyOp47
 70
     1
102
RTVSPropertyOp48
 70
     1
102
RTVSPropertyOp49
 70
     1
102
RTVSPropertyOp50
 70
     1
102
RTVSPropertyOp51
 70
     0
102
RTVSPropertyOp52
 70
     0
102
RTVSPropertyOp53
 70
     1
102
RTVSPropertyOp54
 70
     1
102
RTVSPropertyOp55
 70
     1
102
RTVSPropertyOp56
 70
     1
102
RTVSPropertyOp57
 70
     1
102
RTVSPropertyOp58
 70
     1
102
RTVSPropertyOp59
 70
     1
102
RTVSPropertyOp60
 70
     1
102
RTVSPropertyOp61
 70
     1
102
RTVSPropertyOp62
 70
     1
  0
XRECORD
  5
6B9
102
{ACAD_REACTORS
330
6B8
102
}
330
6B8
100
AcDbXrecord
280
     1
102
RTVSPost2010Prop28
280
     0
102
RTVSPost2010PropOp28
 70
     1
102
RTVSPost2010Prop29
280
     1
102
RTVSPost2010PropOp29
 70
     1
102
RTVSPost2010Prop30
280
     1
102
RTVSPost2010PropOp30
 70
     1
102
RTVSPost2010Prop31
280
     0
102
RTVSPost2010PropOp31
 70
     1
102
RTVSPost2010Prop32
280
     0
102
RTVSPost2010PropOp32
 70
     1
102
RTVSPost2010Prop33
280
     0
102
RTVSPost2010PropOp33
 70
     1
102
RTVSPost2010Prop34
280
     0
102
RTVSPost2010PropOp34
 70
     1
102
RTVSPost2010Prop35
280
     0
102
RTVSPost2010PropOp35
 70
     1
102
RTVSPost2010Prop36
280
     0
102
RTVSPost2010PropOp36
 70
     1
102
RTVSPost2010Prop37
 90
       50
102
RTVSPost2010PropOp37
 70
     1
102
RTVSPost2010Prop38
140
0.0
102
RTVSPost2010PropOp38
 70
     1
102
RTVSPost2010Prop39
140
1.0
102
RTVSPost2010PropOp39
 70
     1
102
RTVSPost2010Prop40
 90
        0
102
RTVSPost2010PropOp40
 70
     1
102
RTVSPost2010Prop41ColorIndex
 90
       18
102
RTVSPost2010Prop41ColorRGB
 90
        0
102
RTVSPost2010PropOp41
 70
     1
102
RTVSPost2010Prop42
 90
       50
102
RTVSPost2010PropOp42
 70
     1
102
RTVSPost2010Prop43
 90
        3
102
RTVSPost2010PropOp43
 70
     1
102
RTVSPost2010Prop44ColorIndex
 90
        5
102
RTVSPost2010Prop44ColorRGB
 90
      255
102
RTVSPost2010PropOp44
 70
     1
102
RTVSPost2010Prop45
280
     0
102
RTVSPost2010PropOp45
 70
     1
102
RTVSPost2010Prop46
 90
       50
102
RTVSPost2010PropOp46
 70
     1
102
RTVSPost2010Prop47
 90
       50
102
RTVSPost2010PropOp47
 70
     1
102
RTVSPost2010Prop48
 90
       50
102
RTVSPost2010PropOp48
 70
     1
102
RTVSPost2010Prop49
280
     0
102
RTVSPost2010PropOp49
 70
     1
102
RTVSPost2010Prop50
 90
       50
102
RTVSPost2010PropOp50
 70
     1
102
RTVSPost2010Prop51ColorIndex
 90
      256
102
RTVSPost2010Prop51ColorRGB
 90
-16777216
102
RTVSPost2010PropOp51
 70
     0
102
RTVSPost2010Prop52
140
1.0
102
RTVSPost2010PropOp52
 70
     0
102
RTVSPost2010Prop53
 90
        2
102
RTVSPost2010PropOp53
 70
     1
102
RTVSPost2010Prop54
  1
strokes_ogs.tif
102
RTVSPost2010PropOp54
 70
     1
102
RTVSPost2010Prop55
280
     0
102
RTVSPost2010PropOp55
 70
     1
102
RTVSPost2010Prop56
140
1.0
102
RTVSPost2010PropOp56
 70
     1
102
RTVSPost2010Prop57
140
1.0
102
RTVSPost2010PropOp57
 70
     1
102
RTVSPropertyOp0
 70
     1
102
RTVSPropertyOp1
 70
     1
102
RTVSPropertyOp2
 70
     1
102
RTVSPropertyOp3
 70
     1
102
RTVSPropertyOp4
 70
     1
102
RTVSPropertyOp5
 70
     1
102
RTVSPropertyOp6
 70
     1
102
RTVSPropertyOp7
 70
     1
102
RTVSPropertyOp8
 70
     1
102
RTVSPropertyOp9
 70
     1
102
RTVSPropertyOp10
 70
     1
102
RTVSPropertyOp11
 70
     1
102
RTVSPropertyOp12
 70
     1
102
RTVSPropertyOp13
 70
     1
102
RTVSPropertyOp14
 70
     1
102
RTVSPropertyOp15
 70
     1
102
RTVSPropertyOp16
 70
     1
102
RTVSPropertyOp17
 70
     1
102
RTVSPropertyOp18
 70
     1
102
RTVSPropertyOp19
 70
     1
102
RTVSPropertyOp20
 70
     1
102
RTVSPropertyOp21
 70
     1
102
RTVSPropertyOp22
 70
     1
102
RTVSPropertyOp23
 70
     1
102
RTVSPropertyOp24
 70
     1
102
RTVSPropertyOp25
 70
     1
102
RTVSPropertyOp26
 70
     1
102
RTVSPropertyOp27
 70
     1
102
RTVSPropertyOp28
 70
     1
102
RTVSPropertyOp29
 70
     1
102
RTVSPropertyOp30
 70
     1
102
RTVSPropertyOp31
 70
     1
102
RTVSPropertyOp32
 70
     1
102
RTVSPropertyOp33
 70
     1
102
RTVSPropertyOp34
 70
     1
102
RTVSPropertyOp35
 70
     1
102
RTVSPropertyOp36
 70
     1
102
RTVSPropertyOp37
 70
     1
102
RTVSPropertyOp38
 70
     1
102
RTVSPropertyOp39
 70
     1
102
RTVSPropertyOp40
 70
     1
102
RTVSPropertyOp41
 70
     1
102
RTVSPropertyOp42
 70
     1
102
RTVSPropertyOp43
 70
     1
102
RTVSPropertyOp44
 70
     1
102
RTVSPropertyOp45
 70
     1
102
RTVSPropertyOp46
 70
     1
102
RTVSPropertyOp47
 70
     1
102
RTVSPropertyOp48
 70
     1
102
RTVSPropertyOp49
 70
     1
102
RTVSPropertyOp50
 70
     1
102
RTVSPropertyOp51
 70
     0
102
RTVSPropertyOp52
 70
     0
102
RTVSPropertyOp53
 70
     1
102
RTVSPropertyOp54
 70
     1
102
RTVSPropertyOp55
 70
     1
102
RTVSPropertyOp56
 70
     1
102
RTVSPropertyOp57
 70
     1
102
RTVSPropertyOp58
 70
     1
102
RTVSPropertyOp59
 70
     1
102
RTVSPropertyOp60
 70
     1
102
RTVSPropertyOp61
 70
     1
102
RTVSPropertyOp62
 70
     1
  0
XRECORD
  5
6AD
102
{ACAD_REACTORS
330
6AC
102
}
330
6AC
100
AcDbXrecord
280
     1
102
RTVSPost2010Prop28
280
     0
102
RTVSPost2010PropOp28
 70
     1
102
RTVSPost2010Prop29
280
     1
102
RTVSPost2010PropOp29
 70
     1
102
RTVSPost2010Prop30
280
     1
102
RTVSPost2010PropOp30
 70
     1
102
RTVSPost2010Prop31
280
     0
102
RTVSPost2010PropOp31
 70
     1
102
RTVSPost2010Prop32
280
     0
102
RTVSPost2010PropOp32
 70
     1
102
RTVSPost2010Prop33
280
     0
102
RTVSPost2010PropOp33
 70
     1
102
RTVSPost2010Prop34
280
     0
102
RTVSPost2010PropOp34
 70
     1
102
RTVSPost2010Prop35
280
     0
102
RTVSPost2010PropOp35
 70
     1
102
RTVSPost2010Prop36
280
     0
102
RTVSPost2010PropOp36
 70
     1
102
RTVSPost2010Prop37
 90
       50
102
RTVSPost2010PropOp37
 70
     1
102
RTVSPost2010Prop38
140
0.0
102
RTVSPost2010PropOp38
 70
     1
102
RTVSPost2010Prop39
140
1.0
102
RTVSPost2010PropOp39
 70
     1
102
RTVSPost2010Prop40
 90
        0
102
RTVSPost2010PropOp40
 70
     1
102
RTVSPost2010Prop41ColorIndex
 90
       18
102
RTVSPost2010Prop41ColorRGB
 90
        0
102
RTVSPost2010PropOp41
 70
     1
102
RTVSPost2010Prop42
 90
       50
102
RTVSPost2010PropOp42
 70
     1
102
RTVSPost2010Prop43
 90
        3
102
RTVSPost2010PropOp43
 70
     1
102
RTVSPost2010Prop44ColorIndex
 90
        5
102
RTVSPost2010Prop44ColorRGB
 90
      255
102
RTVSPost2010PropOp44
 70
     1
102
RTVSPost2010Prop45
280
     0
102
RTVSPost2010PropOp45
 70
     1
102
RTVSPost2010Prop46
 90
       50
102
RTVSPost2010PropOp46
 70
     1
102
RTVSPost2010Prop47
 90
       50
102
RTVSPost2010PropOp47
 70
     1
102
RTVSPost2010Prop48
 90
       50
102
RTVSPost2010PropOp48
 70
     1
102
RTVSPost2010Prop49
280
     0
102
RTVSPost2010PropOp49
 70
     1
102
RTVSPost2010Prop50
 90
       50
102
RTVSPost2010PropOp50
 70
     1
102
RTVSPost2010Prop51ColorIndex
 90
      256
102
RTVSPost2010Prop51ColorRGB
 90
-16777216
102
RTVSPost2010PropOp51
 70
     0
102
RTVSPost2010Prop52
140
1.0
102
RTVSPost2010PropOp52
 70
     0
102
RTVSPost2010Prop53
 90
        2
102
RTVSPost2010PropOp53
 70
     1
102
RTVSPost2010Prop54
  1
strokes_ogs.tif
102
RTVSPost2010PropOp54
 70
     1
102
RTVSPost2010Prop55
280
     0
102
RTVSPost2010PropOp55
 70
     1
102
RTVSPost2010Prop56
140
1.0
102
RTVSPost2010PropOp56
 70
     1
102
RTVSPost2010Prop57
140
1.0
102
RTVSPost2010PropOp57
 70
     1
102
RTVSPropertyOp0
 70
     1
102
RTVSPropertyOp1
 70
     1
102
RTVSPropertyOp2
 70
     1
102
RTVSPropertyOp3
 70
     1
102
RTVSPropertyOp4
 70
     1
102
RTVSPropertyOp5
 70
     1
102
RTVSPropertyOp6
 70
     1
102
RTVSPropertyOp7
 70
     1
102
RTVSPropertyOp8
 70
     1
102
RTVSPropertyOp9
 70
     1
102
RTVSPropertyOp10
 70
     1
102
RTVSPropertyOp11
 70
     1
102
RTVSPropertyOp12
 70
     1
102
RTVSPropertyOp13
 70
     1
102
RTVSPropertyOp14
 70
     1
102
RTVSPropertyOp15
 70
     1
102
RTVSPropertyOp16
 70
     1
102
RTVSPropertyOp17
 70
     1
102
RTVSPropertyOp18
 70
     1
102
RTVSPropertyOp19
 70
     1
102
RTVSPropertyOp20
 70
     1
102
RTVSPropertyOp21
 70
     1
102
RTVSPropertyOp22
 70
     1
102
RTVSPropertyOp23
 70
     1
102
RTVSPropertyOp24
 70
     1
102
RTVSPropertyOp25
 70
     1
102
RTVSPropertyOp26
 70
     1
102
RTVSPropertyOp27
 70
     1
102
RTVSPropertyOp28
 70
     1
102
RTVSPropertyOp29
 70
     1
102
RTVSPropertyOp30
 70
     1
102
RTVSPropertyOp31
 70
     1
102
RTVSPropertyOp32
 70
     1
102
RTVSPropertyOp33
 70
     1
102
RTVSPropertyOp34
 70
     1
102
RTVSPropertyOp35
 70
     1
102
RTVSPropertyOp36
 70
     1
102
RTVSPropertyOp37
 70
     1
102
RTVSPropertyOp38
 70
     1
102
RTVSPropertyOp39
 70
     1
102
RTVSPropertyOp40
 70
     1
102
RTVSPropertyOp41
 70
     1
102
RTVSPropertyOp42
 70
     1
102
RTVSPropertyOp43
 70
     1
102
RTVSPropertyOp44
 70
     1
102
RTVSPropertyOp45
 70
     1
102
RTVSPropertyOp46
 70
     1
102
RTVSPropertyOp47
 70
     1
102
RTVSPropertyOp48
 70
     1
102
RTVSPropertyOp49
 70
     1
102
RTVSPropertyOp50
 70
     1
102
RTVSPropertyOp51
 70
     0
102
RTVSPropertyOp52
 70
     0
102
RTVSPropertyOp53
 70
     1
102
RTVSPropertyOp54
 70
     1
102
RTVSPropertyOp55
 70
     1
102
RTVSPropertyOp56
 70
     1
102
RTVSPropertyOp57
 70
     1
102
RTVSPropertyOp58
 70
     1
102
RTVSPropertyOp59
 70
     1
102
RTVSPropertyOp60
 70
     1
102
RTVSPropertyOp61
 70
     1
102
RTVSPropertyOp62
 70
     1
  0
XRECORD
  5
6C5
102
{ACAD_REACTORS
330
6C4
102
}
330
6C4
100
AcDbXrecord
280
     1
102
RTVSPost2010Prop28
280
     0
102
RTVSPost2010PropOp28
 70
     1
102
RTVSPost2010Prop29
280
     1
102
RTVSPost2010PropOp29
 70
     1
102
RTVSPost2010Prop30
280
     1
102
RTVSPost2010PropOp30
 70
     1
102
RTVSPost2010Prop31
280
     0
102
RTVSPost2010PropOp31
 70
     1
102
RTVSPost2010Prop32
280
     0
102
RTVSPost2010PropOp32
 70
     1
102
RTVSPost2010Prop33
280
     0
102
RTVSPost2010PropOp33
 70
     1
102
RTVSPost2010Prop34
280
     0
102
RTVSPost2010PropOp34
 70
     1
102
RTVSPost2010Prop35
280
     0
102
RTVSPost2010PropOp35
 70
     1
102
RTVSPost2010Prop36
280
     0
102
RTVSPost2010PropOp36
 70
     1
102
RTVSPost2010Prop37
 90
       50
102
RTVSPost2010PropOp37
 70
     1
102
RTVSPost2010Prop38
140
0.0
102
RTVSPost2010PropOp38
 70
     1
102
RTVSPost2010Prop39
140
1.0
102
RTVSPost2010PropOp39
 70
     1
102
RTVSPost2010Prop40
 90
        0
102
RTVSPost2010PropOp40
 70
     1
102
RTVSPost2010Prop41ColorIndex
 90
       18
102
RTVSPost2010Prop41ColorRGB
 90
        0
102
RTVSPost2010PropOp41
 70
     1
102
RTVSPost2010Prop42
 90
       50
102
RTVSPost2010PropOp42
 70
     1
102
RTVSPost2010Prop43
 90
        3
102
RTVSPost2010PropOp43
 70
     1
102
RTVSPost2010Prop44ColorIndex
 90
        5
102
RTVSPost2010Prop44ColorRGB
 90
      255
102
RTVSPost2010PropOp44
 70
     1
102
RTVSPost2010Prop45
280
     0
102
RTVSPost2010PropOp45
 70
     1
102
RTVSPost2010Prop46
 90
       50
102
RTVSPost2010PropOp46
 70
     1
102
RTVSPost2010Prop47
 90
       50
102
RTVSPost2010PropOp47
 70
     1
102
RTVSPost2010Prop48
 90
       50
102
RTVSPost2010PropOp48
 70
     1
102
RTVSPost2010Prop49
280
     0
102
RTVSPost2010PropOp49
 70
     1
102
RTVSPost2010Prop50
 90
       50
102
RTVSPost2010PropOp50
 70
     1
102
RTVSPost2010Prop51ColorIndex
 90
      256
102
RTVSPost2010Prop51ColorRGB
 90
-16777216
102
RTVSPost2010PropOp51
 70
     0
102
RTVSPost2010Prop52
140
1.0
102
RTVSPost2010PropOp52
 70
     0
102
RTVSPost2010Prop53
 90
        2
102
RTVSPost2010PropOp53
 70
     1
102
RTVSPost2010Prop54
  1
strokes_ogs.tif
102
RTVSPost2010PropOp54
 70
     1
102
RTVSPost2010Prop55
280
     0
102
RTVSPost2010PropOp55
 70
     1
102
RTVSPost2010Prop56
140
1.0
102
RTVSPost2010PropOp56
 70
     1
102
RTVSPost2010Prop57
140
1.0
102
RTVSPost2010PropOp57
 70
     1
102
RTVSPropertyOp0
 70
     1
102
RTVSPropertyOp1
 70
     1
102
RTVSPropertyOp2
 70
     1
102
RTVSPropertyOp3
 70
     1
102
RTVSPropertyOp4
 70
     1
102
RTVSPropertyOp5
 70
     1
102
RTVSPropertyOp6
 70
     1
102
RTVSPropertyOp7
 70
     1
102
RTVSPropertyOp8
 70
     1
102
RTVSPropertyOp9
 70
     1
102
RTVSPropertyOp10
 70
     1
102
RTVSPropertyOp11
 70
     1
102
RTVSPropertyOp12
 70
     1
102
RTVSPropertyOp13
 70
     1
102
RTVSPropertyOp14
 70
     1
102
RTVSPropertyOp15
 70
     1
102
RTVSPropertyOp16
 70
     1
102
RTVSPropertyOp17
 70
     1
102
RTVSPropertyOp18
 70
     1
102
RTVSPropertyOp19
 70
     1
102
RTVSPropertyOp20
 70
     1
102
RTVSPropertyOp21
 70
     1
102
RTVSPropertyOp22
 70
     1
102
RTVSPropertyOp23
 70
     1
102
RTVSPropertyOp24
 70
     1
102
RTVSPropertyOp25
 70
     1
102
RTVSPropertyOp26
 70
     1
102
RTVSPropertyOp27
 70
     1
102
RTVSPropertyOp28
 70
     1
102
RTVSPropertyOp29
 70
     1
102
RTVSPropertyOp30
 70
     1
102
RTVSPropertyOp31
 70
     1
102
RTVSPropertyOp32
 70
     1
102
RTVSPropertyOp33
 70
     1
102
RTVSPropertyOp34
 70
     1
102
RTVSPropertyOp35
 70
     1
102
RTVSPropertyOp36
 70
     1
102
RTVSPropertyOp37
 70
     1
102
RTVSPropertyOp38
 70
     1
102
RTVSPropertyOp39
 70
     1
102
RTVSPropertyOp40
 70
     1
102
RTVSPropertyOp41
 70
     1
102
RTVSPropertyOp42
 70
     1
102
RTVSPropertyOp43
 70
     1
102
RTVSPropertyOp44
 70
     1
102
RTVSPropertyOp45
 70
     1
102
RTVSPropertyOp46
 70
     1
102
RTVSPropertyOp47
 70
     1
102
RTVSPropertyOp48
 70
     1
102
RTVSPropertyOp49
 70
     1
102
RTVSPropertyOp50
 70
     1
102
RTVSPropertyOp51
 70
     0
102
RTVSPropertyOp52
 70
     0
102
RTVSPropertyOp53
 70
     1
102
RTVSPropertyOp54
 70
     1
102
RTVSPropertyOp55
 70
     1
102
RTVSPropertyOp56
 70
     1
102
RTVSPropertyOp57
 70
     1
102
RTVSPropertyOp58
 70
     1
102
RTVSPropertyOp59
 70
     1
102
RTVSPropertyOp60
 70
     1
102
RTVSPropertyOp61
 70
     1
102
RTVSPropertyOp62
 70
     1
  0
ENDSEC
  0
EOF
