  0
SECTION
  2
HEADER
  9
$ACADVER
  1
AC1009
  9
$INSBASE
 10
0.0
 20
0.0
 30
0.0
  9
$EXTMIN
 10
9.9963383446405487
 20
2.381287252508741
 30
-0.0015258207003583
  9
$EXTMAX
 10
190.00579878222879
 20
270.00824037474621
 30
0.0000000349246037
  9
$LIMMIN
 10
0.0
 20
0.0
  9
$LIMMAX
 10
0.0
 20
0.0
  9
$ORTHOMODE
 70
     0
  9
$REGENMODE
 70
     1
  9
$FILLMODE
 70
     1
  9
$QTEXTMODE
 70
     0
  9
$MIRRTEXT
 70
     1
  9
$DRAGMODE
 70
     2
  9
$LTSCALE
 40
5.0800000000000001
  9
$OSMODE
 70
   231
  9
$ATTMODE
 70
     1
  9
$TEXTSIZE
 40
0.0
  9
$TRACEWID
 40
1.0
  9
$TEXTSTYLE
  7
STANDARD
  9
$CLAYER
  8
DATA
  9
$CELTYPE
  6
BYLAYER
  9
$CECOLOR
 62
   256
  9
$DIMSCALE
 40
1.0
  9
$DIMASZ
 40
0.18
  9
$DIMEXO
 40
0.0625
  9
$DIMDLI
 40
0.38
  9
$DIMRND
 40
0.0
  9
$DIMDLE
 40
0.0
  9
$DIMEXE
 40
0.18
  9
$DIMTP
 40
0.0
  9
$DIMTM
 40
0.0
  9
$DIMTXT
 40
0.18
  9
$DIMCEN
 40
0.09
  9
$DIMTSZ
 40
0.0
  9
$DIMTOL
 70
     0
  9
$DIMLIM
 70
     0
  9
$DIMTIH
 70
     1
  9
$DIMTOH
 70
     1
  9
$DIMSE1
 70
     0
  9
$DIMSE2
 70
     0
  9
$DIMTAD
 70
     0
  9
$DIMZIN
 70
     0
  9
$DIMBLK
  1

  9
$DIMASO
 70
     1
  9
$DIMSHO
 70
     1
  9
$DIMPOST
  1

  9
$DIMAPOST
  1

  9
$DIMALT
 70
     0
  9
$DIMALTD
 70
     2
  9
$DIMALTF
 40
25.399999999999999
  9
$DIMLFAC
 40
1.0
  9
$DIMTOFL
 70
     0
  9
$DIMTVP
 40
0.0
  9
$DIMTIX
 70
     0
  9
$DIMSOXD
 70
     0
  9
$DIMSAH
 70
     0
  9
$DIMBLK1
  1

  9
$DIMBLK2
  1

  9
$DIMSTYLE
  2
STANDARD
  9
$DIMCLRD
 70
     0
  9
$DIMCLRE
 70
     0
  9
$DIMCLRT
 70
     0
  9
$DIMTFAC
 40
1.0
  9
$DIMGAP
 40
0.09
  9
$LUNITS
 70
     2
  9
$LUPREC
 70
     4
  9
$SKETCHINC
 40
0.1
  9
$FILLETRAD
 40
0.0
  9
$AUNITS
 70
     0
  9
$AUPREC
 70
     0
  9
$MENU
  1
acad
  9
$ELEVATION
 40
0.0
  9
$PELEVATION
 40
0.0
  9
$THICKNESS
 40
0.0
  9
$LIMCHECK
 70
     0
  9
$BLIPMODE
 70
     0
  9
$CHAMFERA
 40
0.0
  9
$CHAMFERB
 40
0.0
  9
$SKPOLY
 70
     0
  9
$TDCREATE
 40
2455092.6712152781
  9
$TDUPDATE
 40
2455092.6824120949
  9
$TDINDWG
 40
0.000296412
  9
$TDUSRTIMER
 40
0.0002962269
  9
$USRTIMER
 70
     1
  9
$ANGBASE
 50
0.0
  9
$ANGDIR
 70
     0
  9
$PDMODE
 70
     1
  9
$PDSIZE
 40
-2.0
  9
$PLINEWID
 40
0.0
  9
$COORDS
 70
     0
  9
$SPLFRAME
 70
     0
  9
$SPLINETYPE
 70
     6
  9
$SPLINESEGS
 70
     8
  9
$ATTDIA
 70
     0
  9
$ATTREQ
 70
     1
  9
$HANDLING
 70
     1
  9
$HANDSEED
  5
1E2
  9
$SURFTAB1
 70
     6
  9
$SURFTAB2
 70
     6
  9
$SURFTYPE
 70
     6
  9
$SURFU
 70
     6
  9
$SURFV
 70
     6
  9
$UCSNAME
  2

  9
$UCSORG
 10
0.0
 20
0.0
 30
0.0
  9
$UCSXDIR
 10
1.0
 20
0.0
 30
0.0
  9
$UCSYDIR
 10
0.0
 20
1.0
 30
0.0
  9
$PUCSNAME
  2

  9
$PUCSORG
 10
0.0
 20
0.0
 30
0.0
  9
$PUCSXDIR
 10
1.0
 20
0.0
 30
0.0
  9
$PUCSYDIR
 10
0.0
 20
1.0
 30
0.0
  9
$USERI1
 70
     0
  9
$USERI2
 70
     0
  9
$USERI3
 70
     0
  9
$USERI4
 70
     0
  9
$USERI5
 70
     0
  9
$USERR1
 40
0.0
  9
$USERR2
 40
0.0
  9
$USERR3
 40
0.0
  9
$USERR4
 40
0.0
  9
$USERR5
 40
0.0
  9
$WORLDVIEW
 70
     1
  9
$SHADEDGE
 70
     3
  9
$SHADEDIF
 70
    70
  9
$TILEMODE
 70
     1
  9
$MAXACTVP
 70
    64
  9
$PLIMCHECK
 70
     0
  9
$PEXTMIN
 10
1.0000000000000000E+020
 20
1.0000000000000000E+020
 30
1.0000000000000000E+020
  9
$PEXTMAX
 10
-1.0000000000000000E+020
 20
-1.0000000000000000E+020
 30
-1.0000000000000000E+020
  9
$PLIMMIN
 10
0.0
 20
0.0
  9
$PLIMMAX
 10
12.0
 20
9.0
  9
$UNITMODE
 70
     0
  9
$VISRETAIN
 70
     0
  9
$PLINEGEN
 70
     1
  9
$PSLTSCALE
 70
     0
  0
ENDSEC
  0
SECTION
  2
TABLES
  0
TABLE
  2
VPORT
 70
     1
  0
VPORT
  2
*ACTIVE
 70
     0
 10
0.0
 20
0.0
 11
1.0
 21
1.0
 12
100.0010685634346
 22
136.19476381362739
 13
0.0
 23
0.0
 14
1.0
 24
1.0
 15
0.0
 25
0.0
 16
0.0
 26
0.0
 36
1.0
 17
0.0
 27
0.0
 37
0.0
 40
269.62168817656459
 41
1.9863184079601981
 42
50.0
 43
0.0
 44
0.0
 50
0.0
 51
0.0
 71
     0
 72
  2000
 73
     1
 74
     1
 75
     0
 76
     0
 77
     0
 78
     0
  0
ENDTAB
  0
TABLE
  2
LTYPE
 70
    11
  0
LTYPE
  2
CONTINUOUS
 70
     0
  3
Solid line
 72
    65
 73
     0
 40
0.0
  0
LTYPE
  2
STYLE_01
 70
     0
  3

 72
    65
 73
     2
 40
0.4166412353515625
 49
0.208282470703125
 49
-0.2083587646484375
  0
ENDTAB
  0
TABLE
  2
LAYER
 70
     5
  0
LAYER
  2
0
 70
     0
 62
     7
  6
CONTINUOUS
  0
LAYER
  2
DATA
 70
     0
 62
     7
  6
CONTINUOUS
  0
LAYER
  2
HIBINO-BASE
 70
     0
 62
     7
  6
CONTINUOUS
  0
LAYER
  2
SPEC
 70
     0
 62
     7
  6
CONTINUOUS
  0
LAYER
  2
DIMNSIONS
 70
     0
 62
     7
  6
CONTINUOUS
  0
ENDTAB
  0
TABLE
  2
STYLE
 70
     3
  0
STYLE
  2
STANDARD
 70
     0
 40
0.0
 41
1.0
 50
0.0
 71
     0
 42
0.0
  3
txt
  4
BIGFONT.SHX
  0
ENDTAB
  0
TABLE
  2
VIEW
 70
     0
  0
ENDTAB
  0
TABLE
  2
UCS
 70
     0
  0
ENDTAB
  0
TABLE
  2
APPID
 70
     3
  0
APPID
  2
ACAD
 70
     0
  0
APPID
  2
ACADANNOTATIVE
 70
     0
  0
APPID
  2
ACAD_MLEADERVER
 70
     0
  0
ENDTAB
  0
TABLE
  2
DIMSTYLE
 70
     2
  0
DIMSTYLE
  2
STANDARD
 70
     0
  3

  4

  5

  6

  7

 40
1.0
 41
0.18
 42
0.0625
 43
0.38
 44
0.18
 45
0.0
 46
0.0
 47
0.0
 48
0.0
140
0.18
141
0.09
142
0.0
143
25.399999999999999
144
1.0
145
0.0
146
1.0
147
0.09
 71
     0
 72
     0
 73
     1
 74
     1
 75
     0
 76
     0
 77
     0
 78
     0
170
     0
171
     2
172
     0
173
     0
174
     0
175
     0
176
     0
177
     0
178
     0
  0
ENDTAB
  0
ENDSEC
  0
SECTION
  2
BLOCKS
  0
BLOCK
  8
0
  2
$MODEL_SPACE
 70
     0
 10
0.0
 20
0.0
 30
0.0
  3
$MODEL_SPACE
  1

  0
ENDBLK
  5
17B
  8
0
  0
BLOCK
 67
     1
  8
0
  2
$PAPER_SPACE
 70
     0
 10
0.0
 20
0.0
 30
0.0
  3
$PAPER_SPACE
  1

  0
ENDBLK
  5
177
 67
     1
  8
0
  0
ENDSEC
  0
SECTION
  2
ENTITIES
  0
LINE
  5
2C
  8
HIBINO-BASE
  6
CONTINUOUS
 62
     7
 10
10.0
 20
270.0
 30
0.0
 11
190.0
 21
270.0
 31
0.0
  0
LINE
  5
2D
  8
HIBINO-BASE
  6
CONTINUOUS
 62
     7
 10
190.0
 20
10.0
 30
0.0
 11
10.0
 21
10.0
 31
0.0
  0
LINE
  5
2E
  8
HIBINO-BASE
  6
CONTINUOUS
 62
     7
 10
10.0
 20
10.0
 30
0.0
 11
10.0
 21
270.0
 31
0.0
  0
TEXT
  5
2F
  8
HIBINO-BASE
 62
     7
 10
17.18399999999999
 20
3.591322200000036
 30
0.0
 40
3.6000441796875
  1
Hibino Corporation
 41
0.7
 11
17.18399999999999
 21
7.191366379687536
 31
0.0
 73
     3
  0
LINE
  5
30
  8
HIBINO-BASE
  6
CONTINUOUS
 62
     7
 10
190.0
 20
270.0
 30
0.0
 11
190.0
 21
10.0
 31
0.0
  0
LINE
  5
31
  8
HIBINO-BASE
  6
CONTINUOUS
 62
     7
 10
100.0
 20
32.500000000000007
 30
0.0
 11
190.0
 21
32.500000000000007
 31
0.0
  0
LINE
  5
32
  8
HIBINO-BASE
  6
CONTINUOUS
 62
     7
 10
100.0
 20
10.0
 30
0.0
 11
100.0
 21
32.500000000000007
 31
0.0
  0
TEXT
  5
33
  8
HIBINO-BASE
 62
     7
 10
100.90000000000001
 20
29.991306666666681
 30
0.0
 40
1.6288411458333329
  1
NOTE
 41
0.7
 11
100.90000000000001
 21
31.620147812500011
 31
0.0
 73
     3
  0
LINE
  5
34
  8
HIBINO-BASE
  6
CONTINUOUS
 62
     7
 10
135.0
 20
10.0
 30
0.0
 11
135.0
 21
32.500000000000007
 31
0.0
  0
TEXT
  5
35
  8
HIBINO-BASE
 62
     7
 10
135.89999999999989
 20
29.991306666666681
 30
0.0
 40
1.6288411458333329
  1
TITLE
 41
0.7
 11
135.89999999999989
 21
31.620147812500011
 31
0.0
 73
     3
  0
TEXT
  5
36
  8
HIBINO-BASE
 62
     7
 10
150.06838999999991
 20
3.591322200000036
 30
0.0
 40
3.6000441796875
  1
ヒビノ株式会社
 41
0.7
 11
150.06838999999991
 21
7.191366379687536
 31
0.0
 73
     3
  0
LINE
  5
37
  8
HIBINO-BASE
  6
CONTINUOUS
 62
     7
 10
100.0
 20
20.000000000000011
 30
0.0
 11
190.0
 21
20.000000000000011
 31
0.0
  0
TEXT
  5
38
  8
HIBINO-BASE
 62
     7
 10
148.39999999999989
 20
17.54762666666667
 30
0.0
 40
1.6288411458333329
  1
DRAWN
 41
0.7
 11
148.39999999999989
 21
19.176467812500011
 31
0.0
 73
     3
  0
TEXT
  5
39
  8
HIBINO-BASE
 62
     7
 10
123.39999999999991
 20
17.54762666666667
 30
0.0
 40
1.6288411458333329
  1
DATE
 41
0.7
 11
123.39999999999991
 21
19.176467812500011
 31
0.0
 73
     3
  0
TEXT
  5
3A
  8
HIBINO-BASE
 62
     7
 10
113.40000000000001
 20
17.54762666666667
 30
0.0
 40
1.6288411458333329
  1
SCALE
 41
0.7
 11
113.40000000000001
 21
19.176467812500011
 31
0.0
 73
     3
  0
TEXT
  5
3B
  8
HIBINO-BASE
 62
     7
 10
135.89999999999989
 20
17.54762666666667
 30
0.0
 40
1.6288411458333329
  1
DESIGN
 41
0.7
 11
135.89999999999989
 21
19.176467812500011
 31
0.0
 73
     3
  0
TEXT
  5
3C
  8
HIBINO-BASE
 62
     7
 10
173.39999999999989
 20
17.54762666666667
 30
0.0
 40
1.6288411458333329
  1
DRAWING NO.
 41
0.7
 11
173.39999999999989
 21
19.176467812500011
 31
0.0
 73
     3
  0
TEXT
  5
3D
  8
HIBINO-BASE
 62
     7
 10
160.89999999999989
 20
17.54762666666667
 30
0.0
 40
1.6288411458333329
  1
CHECK
 41
0.7
 11
160.89999999999989
 21
19.176467812500011
 31
0.0
 73
     3
  0
LINE
  5
3E
  8
HIBINO-BASE
  6
CONTINUOUS
 62
     7
 10
114.375
 20
11.25
 30
0.0
 11
118.125
 21
15.000000000000011
 31
0.0
  0
TEXT
  5
3F
  8
HIBINO-BASE
 62
     7
 10
113.75
 20
13.891056666666669
 30
0.0
 40
1.6288411458333329
  1
1
 41
0.7
 11
113.75
 21
15.5198978125
 31
0.0
 73
     3
  0
LINE
  5
40
  8
HIBINO-BASE
  6
CONTINUOUS
 62
     7
 10
112.5
 20
10.0
 30
0.0
 11
112.5
 21
20.000000000000011
 31
0.0
  0
LINE
  5
41
  8
HIBINO-BASE
  6
CONTINUOUS
 62
     7
 10
122.5
 20
10.0
 30
0.0
 11
122.5
 21
20.000000000000011
 31
0.0
  0
LINE
  5
42
  8
HIBINO-BASE
  6
CONTINUOUS
 62
     7
 10
147.49999999999989
 20
20.000000000000011
 30
0.0
 11
147.49999999999989
 21
10.0
 31
0.0
  0
LINE
  5
43
  8
HIBINO-BASE
  6
CONTINUOUS
 62
     7
 10
172.5
 20
20.000000000000011
 30
0.0
 11
172.5
 21
10.0
 31
0.0
  0
LINE
  5
44
  8
HIBINO-BASE
  6
CONTINUOUS
 62
     7
 10
159.99999999999989
 20
10.0
 30
0.0
 11
159.99999999999989
 21
20.000000000000011
 31
0.0
  0
TEXT
  5
45
  8
HIBINO-BASE
 62
     7
 10
123.35654
 20
12.86364666666667
 30
0.0
 40
1.6288411458333329
  1
'09.09.
 41
0.7
 11
123.35654
 21
14.4924878125
 31
0.0
 73
     3
  0
TEXT
  5
46
  8
HIBINO-BASE
 62
     7
 10
117.5
 20
12.016056666666669
 30
0.0
 40
1.6288411458333329
  1
1
 41
0.7
 11
117.5
 21
13.6448978125
 31
0.0
 73
     3
  0
TEXT
  5
47
  8
HIBINO-BASE
 62
     7
 10
149.00581001103461
 20
12.86364666666667
 30
0.0
 40
1.6288411458333329
  1
N.Sasaki
 41
0.7
 11
149.00581001103461
 21
14.4924878125
 31
0.0
 73
     3
  0
TEXT
  5
48
  8
HIBINO-BASE
 62
     7
 10
103.8833333333333
 20
11.97600000000001
 30
0.0
 40
3.2576822916666659
  1
A4
 41
0.7
 11
103.8833333333333
 21
15.23368229166668
 31
0.0
 73
     3
  0
TEXT
  5
49
  8
HIBINO-BASE
 62
     7
 10
100.9583333333333
 20
17.380545000000009
 30
0.0
 40
1.6288411458333329
  1
PAPER SIZE
 41
0.7
 11
100.9583333333333
 21
19.009386145833339
 31
0.0
 73
     3
  0
LINE
  5
4A
  8
SPEC
  6
CONTINUOUS
 62
     7
 10
17.5
 20
260.0
 30
0.0
 11
165.0
 21
260.0
 31
0.0
  0
LINE
  5
4B
  8
SPEC
  6
CONTINUOUS
 62
     7
 10
17.5
 20
256.25
 30
0.0
 11
165.0
 21
256.25
 31
0.0
  0
LINE
  5
4C
  8
SPEC
  6
CONTINUOUS
 62
     7
 10
17.5
 20
241.25
 30
0.0
 11
165.0
 21
241.25
 31
0.0
  0
LINE
  5
4D
  8
SPEC
  6
CONTINUOUS
 62
     7
 10
17.5
 20
245.0
 30
0.0
 11
165.0
 21
245.0
 31
0.0
  0
LINE
  5
4E
  8
SPEC
  6
CONTINUOUS
 62
     7
 10
17.5
 20
248.75
 30
0.0
 11
165.0
 21
248.75
 31
0.0
  0
LINE
  5
4F
  8
SPEC
  6
CONTINUOUS
 62
     7
 10
17.5
 20
237.5
 30
0.0
 11
165.0
 21
237.5
 31
0.0
  0
LINE
  5
50
  8
SPEC
  6
CONTINUOUS
 62
     7
 10
17.5
 20
230.0
 30
0.0
 11
165.0
 21
230.0
 31
0.0
  0
LINE
  5
51
  8
SPEC
  6
CONTINUOUS
 62
     7
 10
17.5
 20
233.75
 30
0.0
 11
165.0
 21
233.75
 31
0.0
  0
LINE
  5
52
  8
SPEC
  6
CONTINUOUS
 62
     7
 10
17.5
 20
252.5
 30
0.0
 11
165.0
 21
252.5
 31
0.0
  0
LINE
  5
53
  8
SPEC
  6
CONTINUOUS
 62
     7
 10
17.5
 20
260.0
 30
0.0
 11
17.5
 21
226.25
 31
0.0
  0
TEXT
  5
54
  8
SPEC
 62
     7
 10
18.75
 20
261.39326999999997
 30
0.0
 40
2.4432617187500001
  1
仕様
 41
0.7
 11
18.75
 21
263.83653171875
 31
0.0
 73
     3
  0
LINE
  5
55
  8
SPEC
  6
CONTINUOUS
 62
     7
 10
50.0
 20
260.0
 30
0.0
 11
50.0
 21
226.25
 31
0.0
  0
LINE
  5
56
  8
SPEC
  6
CONTINUOUS
 62
     7
 10
165.0
 20
260.0
 30
0.0
 11
165.0
 21
226.25
 31
0.0
  0
TEXT
  5
57
  8
SPEC
 62
     7
 10
18.344084913846881
 20
257.16036272779462
 30
0.0
 40
1.900314670138888
  1
形式
 41
0.7
 11
18.344084913846881
 21
259.06067739793349
 31
0.0
 73
     3
  0
TEXT
  5
58
  8
SPEC
 62
     7
 10
18.31071121608711
 20
234.80924028228239
 30
0.0
 40
1.900314670138888
  1
寸法
 41
0.7
 11
18.31071121608711
 21
236.70955495242131
 31
0.0
 73
     3
  0
TEXT
  5
59
  8
SPEC
 62
     7
 10
50.630821836314233
 20
234.7028433930428
 30
0.0
 40
1.900314670138888
  1
\U+03A619\U+00D759mm(突起部含まず)
 41
0.7
 11
50.630821836314233
 21
236.6031580631817
 31
0.0
 73
     3
  0
TEXT
  5
5A
  8
SPEC
 62
     7
 10
50.888053160648298
 20
231.03411213016631
 30
0.0
 40
1.900314670138888
  1
約32g
 41
0.7
 11
50.888053160648298
 21
232.9344268003052
 31
0.0
 73
     3
  0
TEXT
  5
5B
  8
SPEC
 62
     7
 10
18.361267489485211
 20
231.05565919650959
 30
0.0
 40
1.900314670138888
  1
重量
 41
0.7
 11
18.361267489485211
 21
232.95597386664849
 31
0.0
 73
     3
  0
TEXT
  5
5C
  8
SPEC
 62
     7
 10
50.620067886635063
 20
257.22259185705963
 30
0.0
 40
1.900314670138888
  1
コンデンサー型 
 41
0.7
 11
50.620067886635063
 21
259.12290652719838
 31
0.0
 73
     3
  0
TEXT
  5
5D
  8
SPEC
 62
     7
 10
50.69683262390879
 20
227.36572481047031
 30
0.0
 40
1.900314670138888
  1
ウインドスクリーン（W 90）
 41
0.7
 11
50.69683262390879
 21
229.26603948060921
 31
0.0
 73
     3
  0
TEXT
  5
5E
  8
SPEC
 62
     7
 10
18.371878639884319
 20
249.71758880320769
 30
0.0
 40
1.900314670138888
  1
周波数特性
 41
0.7
 11
18.371878639884319
 21
251.61790347334659
 31
0.0
 73
     3
  0
TEXT
  5
5F
  8
SPEC
 62
     7
 10
50.923124672102368
 20
249.67519212566631
 30
0.0
 40
1.900314670138888
  1
20Hz～20kHz
 41
0.7
 11
50.923124672102368
 21
251.57550679580521
 31
0.0
 73
     3
  0
TEXT
  5
60
  8
SPEC
 62
     7
 10
18.357326528775001
 20
245.9436666642498
 30
0.0
 40
1.900314670138888
  1
開回路感度
 41
0.7
 11
18.357326528775001
 21
247.8439813343887
 31
0.0
 73
     3
  0
TEXT
  5
61
  8
SPEC
 62
     7
 10
50.876250692287719
 20
246.0159312962021
 30
0.0
 40
1.900314670138888
  1
ー40dBV re 1V/Pa
 41
0.7
 11
50.876250692287719
 21
247.91624596634099
 31
0.0
 73
     3
  0
TEXT
  5
62
  8
SPEC
 62
     7
 10
18.415037606599519
 20
242.2479401373547
 30
0.0
 40
1.900314670138888
  1
最大音圧レベル
 41
0.7
 11
18.415037606599519
 21
244.1482548074936
 31
0.0
 73
     3
  0
TEXT
  5
63
  8
SPEC
 62
     7
 10
50.82237099792664
 20
242.1843878753958
 30
0.0
 40
1.900314670138888
  1
132dB SPL(パッドOFF,THD 1%%%）
 41
0.7
 11
50.82237099792664
 21
244.08470254553461
 31
0.0
 73
     3
  0
TEXT
  5
64
  8
SPEC
 62
     7
 10
18.37316730742447
 20
238.4344166622985
 30
0.0
 40
1.900314670138888
  1
等価雑音レベル
 41
0.7
 11
18.37316730742447
 21
240.3347313324374
 31
0.0
 73
     3
  0
TEXT
  5
65
  8
SPEC
 62
     7
 10
50.883417625447883
 20
238.41514616509971
 30
0.0
 40
1.900314670138888
  1
22dB SPL（Aウェイト）
 41
0.7
 11
50.883417625447883
 21
240.31546083523861
 31
0.0
 73
     3
  0
TEXT
  5
66
  8
SPEC
 62
     7
 10
18.399202767658071
 20
227.32428049067229
 30
0.0
 40
1.900314670138888
  1
付属品
 41
0.7
 11
18.399202767658071
 21
229.22459516081119
 31
0.0
 73
     3
  0
LINE
  5
67
  8
SPEC
  6
CONTINUOUS
 62
     7
 10
17.5
 20
226.25
 30
0.0
 11
165.0
 21
226.25
 31
0.0
  0
TEXT
  5
68
  8
SPEC
 62
     7
 10
18.344084913846881
 20
253.41036272779459
 30
0.0
 40
1.900314670138888
  1
指向特性
 41
0.7
 11
18.344084913846881
 21
255.3106773979334
 31
0.0
 73
     3
  0
TEXT
  5
69
  8
SPEC
 62
     7
 10
50.620067886635063
 20
253.47259185705951
 30
0.0
 40
1.900314670138888
  1
双指向性
 41
0.7
 11
50.620067886635063
 21
255.37290652719841
 31
0.0
 73
     3
  0
TEXT
  5
6A
  8
DIMNSIONS
 62
     7
 10
79.999999999999986
 20
22.269490000000012
 30
0.0
 40
2.4432617187500001
  1
(単位：mm)
 41
0.7
 11
79.999999999999986
 21
24.71275171875001
 31
0.0
 73
     3
  0
LINE
  5
6B
  8
DIMNSIONS
  6
CONTINUOUS
 62
     7
 10
93.200000000000003
 20
188.84999999999999
 30
0.0
 11
106.25
 21
206.25
 31
0.0
  0
LINE
  5
6C
  8
DIMNSIONS
  6
CONTINUOUS
 62
     7
 10
93.200000000000003
 20
188.84999999999999
 30
0.0
 11
94.169794649442849
 21
191.25032598734941
 31
0.0
  0
LINE
  5
6D
  8
DIMNSIONS
  6
CONTINUOUS
 62
     7
 10
93.200000000000003
 20
188.84999999999999
 30
0.0
 11
95.240029796546423
 21
190.4438459576871
 31
0.0
  0
LINE
  5
6E
  8
DIMNSIONS
  6
CONTINUOUS
 62
     7
 10
106.25
 20
206.25
 30
0.0
 11
115.3055555555555
 21
206.25
 31
0.0
  0
TEXT
  5
6F
  8
DIMNSIONS
 62
     7
 10
108.25
 20
207.2438888888889
 30
0.0
 40
2.7147352430555549
  1
\U+03C619
 41
0.7
 11
108.25
 21
209.95862413194439
 31
0.0
 73
     3
  0
LINE
  5
70
  8
DIMNSIONS
  6
CONTINUOUS
 62
     7
 10
75.5
 20
88.250000000000014
 30
0.0
 11
54.25
 21
88.250000000000014
 31
0.0
  0
LINE
  5
71
  8
DIMNSIONS
  6
CONTINUOUS
 62
     7
 10
77.0
 20
132.25
 30
0.0
 11
54.25
 21
132.25
 31
0.0
  0
LINE
  5
72
  8
DIMNSIONS
  6
CONTINUOUS
 62
     7
 10
56.25
 20
88.250000000000014
 30
0.0
 11
56.25
 21
132.25
 31
0.0
  0
LINE
  5
73
  8
DIMNSIONS
  6
CONTINUOUS
 62
     7
 10
56.25
 20
88.250000000000014
 30
0.0
 11
55.579960204849748
 21
90.750622558593733
 31
0.0
  0
LINE
  5
74
  8
DIMNSIONS
  6
CONTINUOUS
 62
     7
 10
56.25
 20
88.250000000000014
 30
0.0
 11
56.920039795150252
 21
90.750622558593733
 31
0.0
  0
LINE
  5
75
  8
DIMNSIONS
  6
CONTINUOUS
 62
     7
 10
56.25
 20
132.25
 30
0.0
 11
56.920039795150252
 21
129.74937744140621
 31
0.0
  0
LINE
  5
76
  8
DIMNSIONS
  6
CONTINUOUS
 62
     7
 10
56.25
 20
132.25
 30
0.0
 11
55.579960204849748
 21
129.74937744140621
 31
0.0
  0
TEXT
  5
77
  8
DIMNSIONS
 62
     7
 10
55.25611111111111
 20
108.4861111111111
 30
0.0
 40
2.7147352430555549
  1
44
 50
90.0
 41
0.7
 11
52.54137586805556
 21
108.4861111111111
 31
0.0
 73
     3
  0
LINE
  5
78
  8
DIMNSIONS
  6
CONTINUOUS
 62
     7
 10
82.0
 20
73.25
 30
0.0
 11
48.0
 21
73.25
 31
0.0
  0
LINE
  5
79
  8
DIMNSIONS
  6
CONTINUOUS
 62
     7
 10
77.0
 20
132.25
 30
0.0
 11
48.0
 21
132.25
 31
0.0
  0
LINE
  5
7A
  8
DIMNSIONS
  6
CONTINUOUS
 62
     7
 10
50.0
 20
73.25
 30
0.0
 11
50.0
 21
132.25
 31
0.0
  0
LINE
  5
7B
  8
DIMNSIONS
  6
CONTINUOUS
 62
     7
 10
50.0
 20
73.25
 30
0.0
 11
49.329960204849748
 21
75.750622558593733
 31
0.0
  0
LINE
  5
7C
  8
DIMNSIONS
  6
CONTINUOUS
 62
     7
 10
50.0
 20
73.25
 30
0.0
 11
50.670039795150252
 21
75.750622558593733
 31
0.0
  0
LINE
  5
7D
  8
DIMNSIONS
  6
CONTINUOUS
 62
     7
 10
50.0
 20
132.25
 30
0.0
 11
50.670039795150252
 21
129.74937744140621
 31
0.0
  0
LINE
  5
7E
  8
DIMNSIONS
  6
CONTINUOUS
 62
     7
 10
50.0
 20
132.25
 30
0.0
 11
49.329960204849748
 21
129.74937744140621
 31
0.0
  0
TEXT
  5
7F
  8
DIMNSIONS
 62
     7
 10
49.00611111111111
 20
100.9861111111111
 30
0.0
 40
2.7147352430555549
  1
59
 50
90.0
 41
0.7
 11
46.29137586805556
 21
100.9861111111111
 31
0.0
 73
     3
  0
TEXT
  5
80
  8
DATA
 62
     7
 10
150.0
 20
21.130890000000011
 30
0.0
 40
2.4432617187500001
  1
CK94
 41
0.7
 11
150.0
 21
23.574151718750009
 31
0.0
 73
     3
  0
TEXT
  5
81
  8
DATA
 62
     7
 10
150.0
 20
28.380890000000011
 30
0.0
 40
2.4432617187500001
  1
AKG
 41
0.7
 11
150.0
 21
30.824151718750009
 31
0.0
 73
     3
  0
TEXT
  5
82
  8
DATA
 62
     7
 10
147.49999999999989
 20
24.903933800000011
 30
0.0
 40
1.6288437109374989
  1
カートリッジ
 41
0.7
 11
147.49999999999989
 21
26.53277751093751
 31
0.0
 73
     3
  0
TEXT
  5
83
  8
DATA
 62
     7
 10
20.0
 20
14.238
 30
0.0
 40
1.6288411458333329
  1
仕様および外観は予告なく変更されることがありますので、ご了承ください。
 41
0.7
 11
20.0
 21
15.86684114583333
 31
0.0
 73
     3
  0
LINE
  5
84
  8
DATA
  6
CONTINUOUS
 62
     7
 10
78.0
 20
88.250000000000014
 30
0.0
 11
78.0
 21
130.75
 31
0.0
  0
LINE
  5
85
  8
DATA
  6
CONTINUOUS
 62
     7
 10
97.0
 20
88.250000000000014
 30
0.0
 11
78.0
 21
88.250000000000014
 31
0.0
  0
LINE
  5
86
  8
DATA
  6
CONTINUOUS
 62
     7
 10
97.0
 20
130.75
 30
0.0
 11
97.0
 21
88.250000000000014
 31
0.0
  0
ARC
  5
87
  8
DATA
  6
CONTINUOUS
 62
     7
 10
95.5
 20
130.75
 30
0.0
 40
1.5
 50
0.0
 51
90.0
  0
ARC
  5
88
  8
DATA
  6
CONTINUOUS
 62
     7
 10
79.5
 20
130.75
 30
0.0
 40
1.5
 50
90.0
 51
180.0
  0
LINE
  5
89
  8
DATA
  6
CONTINUOUS
 62
     7
 10
81.5
 20
79.25
 30
0.0
 11
81.5
 21
86.25
 31
0.0
  0
LINE
  5
8A
  8
DATA
  6
CONTINUOUS
 62
     7
 10
93.499999999999986
 20
79.25
 30
0.0
 11
81.5
 21
79.25
 31
0.0
  0
LINE
  5
8B
  8
DATA
  6
CONTINUOUS
 62
     7
 10
93.499999999999986
 20
86.25
 30
0.0
 11
93.499999999999986
 21
79.25
 31
0.0
  0
LINE
  5
8C
  8
DATA
  6
CONTINUOUS
 62
     7
 10
81.5
 20
86.25
 30
0.0
 11
93.499999999999986
 21
86.25
 31
0.0
  0
LINE
  5
8D
  8
DATA
  6
CONTINUOUS
 62
     7
 10
84.0
 20
73.25
 30
0.0
 11
84.0
 21
78.25
 31
0.0
  0
LINE
  5
8E
  8
DATA
  6
CONTINUOUS
 62
     7
 10
91.0
 20
73.25
 30
0.0
 11
91.0
 21
78.25
 31
0.0
  0
LINE
  5
8F
  8
DATA
  6
CONTINUOUS
 62
     7
 10
84.0
 20
78.25
 30
0.0
 11
81.5
 21
79.25
 31
0.0
  0
LINE
  5
90
  8
DATA
  6
CONTINUOUS
 62
     7
 10
91.0
 20
78.25
 30
0.0
 11
93.499999999999986
 21
79.25
 31
0.0
  0
LINE
  5
91
  8
DATA
  6
CONTINUOUS
 62
     7
 10
84.0
 20
78.25
 30
0.0
 11
91.0
 21
78.25
 31
0.0
  0
POLYLINE
  5
92
  8
DATA
  6
CONTINUOUS
 62
     7
 66
     1
 10
0.0
 20
0.0
 30
0.0
  0
VERTEX
  5
1A7
  8
DATA
  6
CONTINUOUS
 62
     7
 10
91.0
 20
75.549999999999983
 30
0.0
  0
VERTEX
  5
1A8
  8
DATA
  6
CONTINUOUS
 62
     7
 10
92.799999999999983
 20
75.549999999999983
 30
0.0
  0
VERTEX
  5
1A9
  8
DATA
  6
CONTINUOUS
 62
     7
 10
92.799999999999983
 20
74.289230484541307
 30
0.0
  0
SEQEND
  5
1AA
  8
DATA
  6
CONTINUOUS
 62
     7
  0
LINE
  5
98
  8
DATA
  6
CONTINUOUS
 62
     7
 10
91.0
 20
73.25
 30
0.0
 11
84.0
 21
73.25
 31
0.0
  0
POLYLINE
  5
99
  8
DATA
  6
CONTINUOUS
 62
     7
 66
     1
 10
0.0
 20
0.0
 30
0.0
  0
VERTEX
  5
1AB
  8
DATA
  6
CONTINUOUS
 62
     7
 10
82.200000000000003
 20
74.289230484541307
 30
0.0
  0
VERTEX
  5
1AC
  8
DATA
  6
CONTINUOUS
 62
     7
 10
82.200000000000003
 20
75.549999999999983
 30
0.0
  0
VERTEX
  5
1AD
  8
DATA
  6
CONTINUOUS
 62
     7
 10
84.0
 20
75.549999999999983
 30
0.0
  0
SEQEND
  5
1AE
  8
DATA
  6
CONTINUOUS
 62
     7
  0
LINE
  5
9F
  8
DATA
  6
CONTINUOUS
 62
     7
 10
84.0
 20
73.25
 30
0.0
 11
82.200000000000003
 21
74.289230484541307
 31
0.0
  0
LINE
  5
A0
  8
DATA
  6
CONTINUOUS
 62
     7
 10
91.0
 20
73.25
 30
0.0
 11
92.799999999999983
 21
74.289230484541307
 31
0.0
  0
CIRCLE
  5
A1
  8
DATA
  6
CONTINUOUS
 62
     7
 10
87.5
 20
181.25
 30
0.0
 40
9.5
  0
LINE
  5
A2
  8
DATA
  6
CONTINUOUS
 62
     7
 10
90.099999999999994
 20
184.8633929253796
 30
0.0
 11
90.099999999999994
 21
190.38728624920981
 31
0.0
  0
LINE
  5
A3
  8
DATA
  6
CONTINUOUS
 62
     7
 10
87.5
 20
183.38430276000329
 30
0.0
 11
87.5
 21
190.75
 31
0.0
  0
LINE
  5
A4
  8
DATA
  6
CONTINUOUS
 62
     7
 10
87.5
 20
171.75
 30
0.0
 11
87.5
 21
179.15249242552721
 31
0.0
  0
LINE
  5
A5
  8
DATA
  6
CONTINUOUS
 62
     7
 10
84.900000000000006
 20
172.11271375079011
 30
0.0
 11
84.900000000000006
 21
177.92417792630889
 31
0.0
  0
LINE
  5
A6
  8
DATA
  6
CONTINUOUS
 62
     7
 10
85.217712194856844
 20
181.25
 30
0.0
 11
78.0
 21
181.25
 31
0.0
  0
LINE
  5
A7
  8
DATA
  6
CONTINUOUS
 62
     7
 10
83.886607074620443
 20
183.84999999999999
 30
0.0
 11
78.362713750790107
 21
183.84999999999999
 31
0.0
  0
LINE
  5
A8
  8
DATA
  6
CONTINUOUS
 62
     7
 10
89.634302760003322
 20
181.25
 30
0.0
 11
97.0
 21
181.25
 31
0.0
  0
LINE
  5
A9
  8
DATA
  6
CONTINUOUS
 62
     7
 10
91.135073183963357
 20
178.65000000000001
 30
0.0
 11
96.637286249209893
 21
178.65000000000001
 31
0.0
  0
LINE
  5
AA
  8
DATA
  6
CONTINUOUS
 62
     7
 10
94.177148303078766
 20
188.0076394205885
 30
0.0
 11
90.099999999999994
 21
184.8633929253796
 31
0.0
  0
LINE
  5
AB
  8
DATA
  6
CONTINUOUS
 62
     7
 10
95.756919183440957
 20
185.9482215356584
 30
0.0
 11
89.634302760003322
 21
181.25
 31
0.0
  0
LINE
  5
AC
  8
DATA
  6
CONTINUOUS
 62
     7
 10
94.177148303078766
 20
188.0076394205885
 30
0.0
 11
90.099999999999994
 21
184.8633929253796
 31
0.0
  0
LINE
  5
AD
  8
DATA
  6
CONTINUOUS
 62
     7
 10
95.756919183440957
 20
185.9482215356584
 30
0.0
 11
89.634302760003322
 21
181.25
 31
0.0
  0
LINE
  5
AE
  8
DATA
  6
CONTINUOUS
 62
     7
 10
80.742360579411454
 20
187.92714830307881
 30
0.0
 11
83.886607074620443
 21
183.84999999999999
 31
0.0
  0
LINE
  5
AF
  8
DATA
  6
CONTINUOUS
 62
     7
 10
82.801778464341567
 20
189.506919183441
 30
0.0
 11
87.5
 21
183.38430276000329
 31
0.0
  0
LINE
  5
B0
  8
DATA
  6
CONTINUOUS
 62
     7
 10
92.204258136795303
 20
172.99651859017081
 30
0.0
 11
87.5
 21
179.15249242552721
 31
0.0
  0
LINE
  5
B1
  8
DATA
  6
CONTINUOUS
 62
     7
 10
94.262520266507934
 20
174.57779499377691
 30
0.0
 11
91.135073183963357
 21
178.65000000000001
 31
0.0
  0
LINE
  5
B2
  8
DATA
  6
CONTINUOUS
 62
     7
 10
78.97714992011349
 20
177.05345064180361
 30
0.0
 11
85.217712194856844
 21
181.25
 31
0.0
  0
LINE
  5
B3
  8
DATA
  6
CONTINUOUS
 62
     7
 10
80.431066464303626
 20
174.9033332632076
 30
0.0
 11
84.900000000000006
 21
177.92417792630889
 31
0.0
  0
LINE
  5
B4
  8
DATA
  6
CONTINUOUS
 62
     7
 10
78.887316282640199
 20
111.5196874926129
 30
0.0
 11
90.887316282640185
 21
114.519687492613
 31
0.0
  0
LINE
  5
B5
  8
DATA
  6
CONTINUOUS
 62
     7
 10
78.887316282640199
 20
113.41968749261299
 30
0.0
 11
90.887316282640185
 21
116.41968749261299
 31
0.0
  0
LINE
  5
B6
  8
DATA
  6
CONTINUOUS
 62
     7
 10
78.887316282640199
 20
111.5196874926129
 30
0.0
 11
78.887316282640199
 21
113.41968749261299
 31
0.0
  0
LINE
  5
B7
  8
DATA
  6
CONTINUOUS
 62
     7
 10
90.887316282640185
 20
114.519687492613
 30
0.0
 11
90.887316282640185
 21
116.41968749261299
 31
0.0
  0
CIRCLE
  5
B8
  8
DATA
  6
CONTINUOUS
 62
     7
 10
87.5
 20
56.25
 30
0.0
 40
9.5
  0
ARC
  5
B9
  8
DATA
  6
CONTINUOUS
 62
     7
 10
87.5
 20
56.25
 30
0.0
 40
3.5
 50
213.9272315846857
 51
326.07276841531427
  0
ARC
  5
BA
  8
DATA
  6
CONTINUOUS
 62
     7
 10
87.5
 20
56.25
 30
0.0
 40
3.5000000000000022
 50
33.927231584687647
 51
146.07276841531231
  0
LINE
  5
BB
  8
DATA
  6
CONTINUOUS
 62
     7
 10
82.200000000000003
 20
57.850000000000009
 30
0.0
 11
83.932087445017913
 21
57.850000000000009
 31
0.0
  0
LINE
  5
BC
  8
DATA
  6
CONTINUOUS
 62
     7
 10
91.067912554982058
 20
57.850000000000009
 30
0.0
 11
92.799999999999983
 21
57.850000000000009
 31
0.0
  0
LINE
  5
BD
  8
DATA
  6
CONTINUOUS
 62
     7
 10
82.200000000000003
 20
54.650000000000013
 30
0.0
 11
83.932087445017658
 21
54.650000000000013
 31
0.0
  0
LINE
  5
BE
  8
DATA
  6
CONTINUOUS
 62
     7
 10
91.067912554982357
 20
54.650000000000013
 30
0.0
 11
92.799999999999983
 21
54.650000000000013
 31
0.0
  0
LINE
  5
BF
  8
DATA
  6
CONTINUOUS
 62
     7
 10
82.200000000000003
 20
54.650000000000013
 30
0.0
 11
82.200000000000003
 21
57.850000000000009
 31
0.0
  0
LINE
  5
C0
  8
DATA
  6
CONTINUOUS
 62
     7
 10
92.799999999999983
 20
54.650000000000013
 30
0.0
 11
92.799999999999983
 21
57.850000000000009
 31
0.0
  0
ARC
  5
C1
  8
DATA
  6
CONTINUOUS
 62
     7
 10
83.932087445017913
 20
58.649999999999679
 30
0.0
 40
0.7999999999996703
 50
270.0
 51
326.07276841533132
  0
ARC
  5
C2
  8
DATA
  6
CONTINUOUS
 62
     7
 10
91.067912554982058
 20
58.649999999999693
 30
0.0
 40
0.7999999999996788
 50
213.9272315846695
 51
270.0
  0
ARC
  5
C3
  8
DATA
  6
CONTINUOUS
 62
     7
 10
91.067912554982357
 20
53.849999999999888
 30
0.0
 40
0.8000000000001249
 50
90.0
 51
146.07276841530671
  0
ARC
  5
C4
  8
DATA
  6
CONTINUOUS
 62
     7
 10
83.932087445017658
 20
53.849999999999859
 30
0.0
 40
0.8000000000001346
 50
33.927231584694141
 51
90.0
  0
CIRCLE
  5
C5
  8
DATA
  6
CONTINUOUS
 62
     7
 10
87.5
 20
56.25
 30
0.0
 40
3.2500000000000142
  0
CIRCLE
  5
C6
  8
DATA
  6
CONTINUOUS
 62
     7
 10
87.5
 20
56.25
 30
0.0
 40
6.0
  0
CIRCLE
  5
C7
  8
DATA
  6
STYLE_01
 62
     7
 10
87.499999999999986
 20
181.25
 30
0.0
 40
22.5
  0
TEXT
  5
C8
  8
DATA
 62
     7
 10
84.478444899997697
 20
89.081131698829836
 30
0.0
 40
1.900314670138888
  1
CK 94
 41
0.7
 11
84.478444899997697
 21
90.981446368968719
 31
0.0
 73
     3
  0
LINE
  5
C9
  8
DATA
  6
CONTINUOUS
 62
     7
 10
79.5
 20
132.25
 30
0.0
 11
95.5
 21
132.25
 31
0.0
  0
ARC
  5
CA
  8
DATA
  6
STYLE_01
 62
     7
 10
181.75576923076991
 20
133.5019230769233
 30
0.0
 40
118.85729985697181
 50
190.7903255467522
 51
206.07957209909191
  0
ARC
  5
CB
  8
DATA
  6
STYLE_01
 62
     7
 10
-6.7557692307698991
 20
133.5019230769233
 30
0.0
 40
118.85729985697181
 50
333.92042790090818
 51
349.20967445324783
  0
LINE
  5
CC
  8
DATA
  6
STYLE_01
 62
     7
 10
75.0
 20
81.25
 30
0.0
 11
100.0
 21
81.25
 31
0.0
  0
ARC
  5
CD
  8
DATA
  6
STYLE_01
 62
     7
 10
61.977777777777803
 20
113.75
 30
0.0
 40
3.9222222222222078
 50
320.40224729095002
 51
39.597752709050042
  0
LINE
  5
CE
  8
DATA
  6
STYLE_01
 62
     7
 10
65.0
 20
116.25
 30
0.0
 11
65.0
 21
126.59999999999999
 31
0.0
  0
LINE
  5
CF
  8
DATA
  6
STYLE_01
 62
     7
 10
86.786448663297534
 20
148.25
 30
0.0
 11
88.21355133670248
 21
148.25
 31
0.0
  0
ARC
  5
D0
  8
DATA
  6
STYLE_01
 62
     7
 10
89.802790178571399
 20
123.5694196428571
 30
0.0
 40
24.987253109202289
 50
101.6106772163464
 51
173.0337274753544
  0
ARC
  5
D1
  8
DATA
  6
STYLE_01
 62
     7
 10
113.0222222222222
 20
113.75
 30
0.0
 40
3.9222222222222078
 50
140.40224729094999
 51
219.59775270905001
  0
LINE
  5
D2
  8
DATA
  6
STYLE_01
 62
     7
 10
110.0
 20
116.25
 30
0.0
 11
110.0
 21
126.59999999999999
 31
0.0
  0
ARC
  5
D3
  8
DATA
  6
STYLE_01
 62
     7
 10
85.197209821428572
 20
123.5694196428571
 30
0.0
 40
24.987253109202289
 50
6.9662725246456336
 51
78.389322783653569
  0
ARC
  5
D4
  8
DATA
  6
STYLE_01
 62
     7
 10
86.786448663297534
 20
138.25000000000011
 30
0.0
 40
9.9999999999999112
 50
90.0
 51
101.6106772163465
  0
ARC
  5
D5
  8
DATA
  6
STYLE_01
 62
     7
 10
88.21355133670248
 20
138.24999999999989
 30
0.0
 40
10.00000000000008
 50
78.389322783653682
 51
90.0
  0
LINE
  5
D6
  8
DATA
  6
STYLE_01
 62
     7
 10
65.0
 20
116.25
 30
0.0
 11
110.05
 21
116.25
 31
0.0
  0
LINE
  5
D7
  8
DATA
  6
STYLE_01
 62
     7
 10
65.0
 20
111.25
 30
0.0
 11
110.0
 21
111.25
 31
0.0
  0
TEXT
  5
D8
  8
DATA
 62
     7
 10
120.82172678134739
 20
150.9363137401003
 30
0.0
 40
2.7147352430555549
  1
ウインドスクリーン
 41
0.7
 11
120.82172678134739
 21
153.65104898315579
 31
0.0
 73
     3
  0
LINE
  5
D9
  8
DATA
  6
CONTINUOUS
 62
     7
 10
106.25
 20
137.5
 30
0.0
 11
118.75
 21
150.0
 31
0.0
  0
LINE
  5
DA
  8
DATA
  6
CONTINUOUS
 62
     7
 10
106.25
 20
137.5
 30
0.0
 11
107.893500936401
 21
140.34662712413351
 31
0.0
  0
LINE
  5
DB
  8
DATA
  6
CONTINUOUS
 62
     7
 10
106.25
 20
137.5
 30
0.0
 11
109.09662712413351
 21
139.14350093640101
 31
0.0
  0
LINE
  5
DC
  8
DATA
  6
CONTINUOUS
 62
     7
 10
118.75
 20
150.0
 30
0.0
 11
156.25
 21
150.0
 31
0.0
  0
LINE
  5
DD
  8
DATA
  6
CONTINUOUS
 62
     7
 10
118.75
 20
150.0
 30
0.0
 11
103.75
 21
165.0
 31
0.0
  0
LINE
  5
DE
  8
DATA
  6
CONTINUOUS
 62
     7
 10
103.75
 20
165.0
 30
0.0
 11
106.59662712413351
 21
163.35649906359899
 31
0.0
  0
LINE
  5
DF
  8
DATA
  6
CONTINUOUS
 62
     7
 10
103.75
 20
165.0
 30
0.0
 11
105.393500936401
 21
162.15337287586641
 31
0.0
  0
LINE
  5
E0
  8
DATA
  6
CONTINUOUS
 62
     7
 10
97.0
 20
128.25
 30
0.0
 11
78.0
 21
128.25
 31
0.0
  0
LINE
  5
E1
  8
DATA
  6
CONTINUOUS
 62
     7
 10
93.617781842882124
 20
112.42680850515239
 30
0.0
 11
97.0
 21
113.2723630444318
 31
0.0
  0
LINE
  5
E2
  8
DATA
  6
CONTINUOUS
 62
     7
 10
93.617781842882124
 20
114.3268085051523
 30
0.0
 11
97.0
 21
115.1723630444318
 31
0.0
  0
LINE
  5
E3
  8
DATA
  6
CONTINUOUS
 62
     7
 10
93.617781842882124
 20
112.42680850515239
 30
0.0
 11
93.617781842882124
 21
114.3268085051523
 31
0.0
  0
LINE
  5
E4
  8
DATA
  6
CONTINUOUS
 62
     7
 10
78.887316282640199
 20
108.5196874926129
 30
0.0
 11
90.887316282640185
 21
111.519687492613
 31
0.0
  0
LINE
  5
E5
  8
DATA
  6
CONTINUOUS
 62
     7
 10
78.887316282640199
 20
110.41968749261299
 30
0.0
 11
90.887316282640185
 21
113.41968749261299
 31
0.0
  0
LINE
  5
E6
  8
DATA
  6
CONTINUOUS
 62
     7
 10
78.887316282640199
 20
108.5196874926129
 30
0.0
 11
78.887316282640199
 21
110.41968749261299
 31
0.0
  0
LINE
  5
E7
  8
DATA
  6
CONTINUOUS
 62
     7
 10
90.887316282640185
 20
111.519687492613
 30
0.0
 11
90.887316282640185
 21
113.41968749261299
 31
0.0
  0
LINE
  5
E8
  8
DATA
  6
CONTINUOUS
 62
     7
 10
93.617781842882124
 20
109.42680850515239
 30
0.0
 11
97.0
 21
110.2723630444318
 31
0.0
  0
LINE
  5
E9
  8
DATA
  6
CONTINUOUS
 62
     7
 10
93.617781842882124
 20
111.3268085051523
 30
0.0
 11
97.0
 21
112.1723630444318
 31
0.0
  0
LINE
  5
EA
  8
DATA
  6
CONTINUOUS
 62
     7
 10
93.617781842882124
 20
109.42680850515239
 30
0.0
 11
93.617781842882124
 21
111.3268085051523
 31
0.0
  0
LINE
  5
EB
  8
DATA
  6
CONTINUOUS
 62
     7
 10
78.887316282640199
 20
105.5196874926129
 30
0.0
 11
90.887316282640185
 21
108.519687492613
 31
0.0
  0
LINE
  5
EC
  8
DATA
  6
CONTINUOUS
 62
     7
 10
78.887316282640199
 20
107.41968749261299
 30
0.0
 11
90.887316282640185
 21
110.41968749261299
 31
0.0
  0
LINE
  5
ED
  8
DATA
  6
CONTINUOUS
 62
     7
 10
78.887316282640199
 20
105.5196874926129
 30
0.0
 11
78.887316282640199
 21
107.41968749261299
 31
0.0
  0
LINE
  5
EE
  8
DATA
  6
CONTINUOUS
 62
     7
 10
90.887316282640185
 20
108.519687492613
 30
0.0
 11
90.887316282640185
 21
110.41968749261299
 31
0.0
  0
LINE
  5
EF
  8
DATA
  6
CONTINUOUS
 62
     7
 10
93.617781842882124
 20
106.42680850515239
 30
0.0
 11
97.0
 21
107.2723630444318
 31
0.0
  0
LINE
  5
F0
  8
DATA
  6
CONTINUOUS
 62
     7
 10
93.617781842882124
 20
108.3268085051523
 30
0.0
 11
97.0
 21
109.1723630444318
 31
0.0
  0
LINE
  5
F1
  8
DATA
  6
CONTINUOUS
 62
     7
 10
93.617781842882124
 20
106.42680850515239
 30
0.0
 11
93.617781842882124
 21
108.3268085051523
 31
0.0
  0
LINE
  5
F2
  8
DATA
  6
CONTINUOUS
 62
     7
 10
78.887316282640199
 20
102.5196874926129
 30
0.0
 11
90.887316282640185
 21
105.519687492613
 31
0.0
  0
LINE
  5
F3
  8
DATA
  6
CONTINUOUS
 62
     7
 10
78.887316282640199
 20
104.41968749261299
 30
0.0
 11
90.887316282640185
 21
107.41968749261299
 31
0.0
  0
LINE
  5
F4
  8
DATA
  6
CONTINUOUS
 62
     7
 10
78.887316282640199
 20
102.5196874926129
 30
0.0
 11
78.887316282640199
 21
104.41968749261299
 31
0.0
  0
LINE
  5
F5
  8
DATA
  6
CONTINUOUS
 62
     7
 10
90.887316282640185
 20
105.519687492613
 30
0.0
 11
90.887316282640185
 21
107.41968749261299
 31
0.0
  0
LINE
  5
F6
  8
DATA
  6
CONTINUOUS
 62
     7
 10
93.617781842882124
 20
103.42680850515239
 30
0.0
 11
97.0
 21
104.2723630444318
 31
0.0
  0
LINE
  5
F7
  8
DATA
  6
CONTINUOUS
 62
     7
 10
93.617781842882124
 20
105.3268085051523
 30
0.0
 11
97.0
 21
106.1723630444318
 31
0.0
  0
LINE
  5
F8
  8
DATA
  6
CONTINUOUS
 62
     7
 10
93.617781842882124
 20
103.42680850515239
 30
0.0
 11
93.617781842882124
 21
105.3268085051523
 31
0.0
  0
LINE
  5
F9
  8
DATA
  6
CONTINUOUS
 62
     7
 10
78.887316282640199
 20
99.519687492612974
 30
0.0
 11
90.887316282640185
 21
102.519687492613
 31
0.0
  0
LINE
  5
FA
  8
DATA
  6
CONTINUOUS
 62
     7
 10
78.887316282640199
 20
101.41968749261299
 30
0.0
 11
90.887316282640185
 21
104.41968749261299
 31
0.0
  0
LINE
  5
FB
  8
DATA
  6
CONTINUOUS
 62
     7
 10
78.887316282640199
 20
99.519687492612974
 30
0.0
 11
78.887316282640199
 21
101.41968749261299
 31
0.0
  0
LINE
  5
FC
  8
DATA
  6
CONTINUOUS
 62
     7
 10
90.887316282640185
 20
102.519687492613
 30
0.0
 11
90.887316282640185
 21
104.41968749261299
 31
0.0
  0
LINE
  5
FD
  8
DATA
  6
CONTINUOUS
 62
     7
 10
93.617781842882124
 20
100.42680850515229
 30
0.0
 11
97.0
 21
101.2723630444318
 31
0.0
  0
LINE
  5
FE
  8
DATA
  6
CONTINUOUS
 62
     7
 10
93.617781842882124
 20
102.3268085051523
 30
0.0
 11
97.0
 21
103.1723630444318
 31
0.0
  0
LINE
  5
FF
  8
DATA
  6
CONTINUOUS
 62
     7
 10
93.617781842882124
 20
100.42680850515229
 30
0.0
 11
93.617781842882124
 21
102.3268085051523
 31
0.0
  0
LINE
  5
100
  8
DATA
  6
CONTINUOUS
 62
     7
 10
81.5
 20
86.25
 30
0.0
 11
78.008974596215538
 21
88.265544456622735
 31
0.0
  0
LINE
  5
101
  8
DATA
  6
CONTINUOUS
 62
     7
 10
93.499999999999986
 20
86.25
 30
0.0
 11
97.0
 21
88.250000000000014
 31
0.0
  0
ENDSEC
  0
EOF
