  0
SECTION
  2
HEADER
  9
$ACADVER
  1
AC1009
  9
$INSBASE
 10
0.0
 20
0.0
 30
0.0
  9
$EXTMIN
 10
-170.0164782349211
 20
-265.80302312910823
 30
-0.0015258207003583
  9
$EXTMAX
 10
370.0164807494923
 20
537.52446558899658
 30
0.0000000349246037
  9
$LIMMIN
 10
0.0
 20
0.0
  9
$LIMMAX
 10
0.0
 20
0.0
  9
$ORTHOMODE
 70
     0
  9
$REGENMODE
 70
     1
  9
$FILLMODE
 70
     1
  9
$QTEXTMODE
 70
     0
  9
$MIRRTEXT
 70
     1
  9
$DRAGMODE
 70
     2
  9
$LTSCALE
 40
15.24
  9
$OSMODE
 70
   231
  9
$ATTMODE
 70
     1
  9
$TEXTSIZE
 40
0.0
  9
$TRACEWID
 40
1.0
  9
$TEXTSTYLE
  7
STANDARD
  9
$CLAYER
  8
DATA
  9
$CELTYPE
  6
BYLAYER
  9
$CECOLOR
 62
   256
  9
$DIMSCALE
 40
1.0
  9
$DIMASZ
 40
0.18
  9
$DIMEXO
 40
0.0625
  9
$DIMDLI
 40
0.38
  9
$DIMRND
 40
0.0
  9
$DIMDLE
 40
0.0
  9
$DIMEXE
 40
0.18
  9
$DIMTP
 40
0.0
  9
$DIMTM
 40
0.0
  9
$DIMTXT
 40
0.18
  9
$DIMCEN
 40
0.09
  9
$DIMTSZ
 40
0.0
  9
$DIMTOL
 70
     0
  9
$DIMLIM
 70
     0
  9
$DIMTIH
 70
     1
  9
$DIMTOH
 70
     1
  9
$DIMSE1
 70
     0
  9
$DIMSE2
 70
     0
  9
$DIMTAD
 70
     0
  9
$DIMZIN
 70
     0
  9
$DIMBLK
  1

  9
$DIMASO
 70
     1
  9
$DIMSHO
 70
     1
  9
$DIMPOST
  1

  9
$DIMAPOST
  1

  9
$DIMALT
 70
     0
  9
$DIMALTD
 70
     2
  9
$DIMALTF
 40
25.399999999999999
  9
$DIMLFAC
 40
1.0
  9
$DIMTOFL
 70
     0
  9
$DIMTVP
 40
0.0
  9
$DIMTIX
 70
     0
  9
$DIMSOXD
 70
     0
  9
$DIMSAH
 70
     0
  9
$DIMBLK1
  1

  9
$DIMBLK2
  1

  9
$DIMSTYLE
  2
STANDARD
  9
$DIMCLRD
 70
     0
  9
$DIMCLRE
 70
     0
  9
$DIMCLRT
 70
     0
  9
$DIMTFAC
 40
1.0
  9
$DIMGAP
 40
0.09
  9
$LUNITS
 70
     2
  9
$LUPREC
 70
     4
  9
$SKETCHINC
 40
0.1
  9
$FILLETRAD
 40
0.0
  9
$AUNITS
 70
     0
  9
$AUPREC
 70
     0
  9
$MENU
  1
acad
  9
$ELEVATION
 40
0.0
  9
$PELEVATION
 40
0.0
  9
$THICKNESS
 40
0.0
  9
$LIMCHECK
 70
     0
  9
$BLIPMODE
 70
     0
  9
$CHAMFERA
 40
0.0
  9
$CHAMFERB
 40
0.0
  9
$SKPOLY
 70
     0
  9
$TDCREATE
 40
2455092.6739004632
  9
$TDUPDATE
 40
2455092.6827776851
  9
$TDINDWG
 40
0.0002850231
  9
$TDUSRTIMER
 40
0.000284838
  9
$USRTIMER
 70
     1
  9
$ANGBASE
 50
0.0
  9
$ANGDIR
 70
     0
  9
$PDMODE
 70
     1
  9
$PDSIZE
 40
-2.0
  9
$PLINEWID
 40
0.0
  9
$COORDS
 70
     0
  9
$SPLFRAME
 70
     0
  9
$SPLINETYPE
 70
     6
  9
$SPLINESEGS
 70
     8
  9
$ATTDIA
 70
     0
  9
$ATTREQ
 70
     1
  9
$HANDLING
 70
     1
  9
$HANDSEED
  5
2F4
  9
$SURFTAB1
 70
     6
  9
$SURFTAB2
 70
     6
  9
$SURFTYPE
 70
     6
  9
$SURFU
 70
     6
  9
$SURFV
 70
     6
  9
$UCSNAME
  2

  9
$UCSORG
 10
0.0
 20
0.0
 30
0.0
  9
$UCSXDIR
 10
1.0
 20
0.0
 30
0.0
  9
$UCSYDIR
 10
0.0
 20
1.0
 30
0.0
  9
$PUCSNAME
  2

  9
$PUCSORG
 10
0.0
 20
0.0
 30
0.0
  9
$PUCSXDIR
 10
1.0
 20
0.0
 30
0.0
  9
$PUCSYDIR
 10
0.0
 20
1.0
 30
0.0
  9
$USERI1
 70
     0
  9
$USERI2
 70
     0
  9
$USERI3
 70
     0
  9
$USERI4
 70
     0
  9
$USERI5
 70
     0
  9
$USERR1
 40
0.0
  9
$USERR2
 40
0.0
  9
$USERR3
 40
0.0
  9
$USERR4
 40
0.0
  9
$USERR5
 40
0.0
  9
$WORLDVIEW
 70
     1
  9
$SHADEDGE
 70
     3
  9
$SHADEDIF
 70
    70
  9
$TILEMODE
 70
     1
  9
$MAXACTVP
 70
    64
  9
$PLIMCHECK
 70
     0
  9
$PEXTMIN
 10
1.0000000000000000E+020
 20
1.0000000000000000E+020
 30
1.0000000000000000E+020
  9
$PEXTMAX
 10
-1.0000000000000000E+020
 20
-1.0000000000000000E+020
 30
-1.0000000000000000E+020
  9
$PLIMMIN
 10
0.0
 20
0.0
  9
$PLIMMAX
 10
12.0
 20
9.0
  9
$UNITMODE
 70
     0
  9
$VISRETAIN
 70
     0
  9
$PLINEGEN
 70
     1
  9
$PSLTSCALE
 70
     0
  0
ENDSEC
  0
SECTION
  2
TABLES
  0
TABLE
  2
VPORT
 70
     1
  0
VPORT
  2
*ACTIVE
 70
     0
 10
0.0
 20
0.0
 11
1.0
 21
1.0
 12
100.0000012572856
 22
135.8607212299442
 13
0.0
 23
0.0
 14
1.0
 24
1.0
 15
0.0
 25
0.0
 16
0.0
 26
0.0
 36
1.0
 17
0.0
 27
0.0
 37
0.0
 40
809.31502279550671
 41
1.9863184079601981
 42
50.0
 43
0.0
 44
0.0
 50
0.0
 51
0.0
 71
     0
 72
  2000
 73
     1
 74
     1
 75
     0
 76
     0
 77
     0
 78
     0
  0
ENDTAB
  0
TABLE
  2
LTYPE
 70
    11
  0
LTYPE
  2
CONTINUOUS
 70
     0
  3
Solid line
 72
    65
 73
     0
 40
0.0
  0
LTYPE
  2
STYLE_01
 70
     0
  3

 72
    65
 73
     2
 40
0.4166412353515625
 49
0.208282470703125
 49
-0.2083587646484375
  0
ENDTAB
  0
TABLE
  2
LAYER
 70
     5
  0
LAYER
  2
0
 70
     0
 62
     7
  6
CONTINUOUS
  0
LAYER
  2
DATA
 70
     0
 62
     7
  6
CONTINUOUS
  0
LAYER
  2
HIBINO-BASE
 70
     0
 62
     7
  6
CONTINUOUS
  0
LAYER
  2
SPEC
 70
     0
 62
     7
  6
CONTINUOUS
  0
LAYER
  2
DIMNSIONS
 70
     0
 62
     7
  6
CONTINUOUS
  0
ENDTAB
  0
TABLE
  2
STYLE
 70
     3
  0
STYLE
  2
STANDARD
 70
     0
 40
0.0
 41
1.0
 50
0.0
 71
     0
 42
0.0
  3
txt
  4
BIGFONT.SHX
  0
ENDTAB
  0
TABLE
  2
VIEW
 70
     0
  0
ENDTAB
  0
TABLE
  2
UCS
 70
     0
  0
ENDTAB
  0
TABLE
  2
APPID
 70
     3
  0
APPID
  2
ACAD
 70
     0
  0
APPID
  2
ACADANNOTATIVE
 70
     0
  0
APPID
  2
ACAD_MLEADERVER
 70
     0
  0
ENDTAB
  0
TABLE
  2
DIMSTYLE
 70
     2
  0
DIMSTYLE
  2
STANDARD
 70
     0
  3

  4

  5

  6

  7

 40
1.0
 41
0.18
 42
0.0625
 43
0.38
 44
0.18
 45
0.0
 46
0.0
 47
0.0
 48
0.0
140
0.18
141
0.09
142
0.0
143
25.399999999999999
144
1.0
145
0.0
146
1.0
147
0.09
 71
     0
 72
     0
 73
     1
 74
     1
 75
     0
 76
     0
 77
     0
 78
     0
170
     0
171
     2
172
     0
173
     0
174
     0
175
     0
176
     0
177
     0
178
     0
  0
ENDTAB
  0
ENDSEC
  0
SECTION
  2
BLOCKS
  0
BLOCK
  8
0
  2
$MODEL_SPACE
 70
     0
 10
0.0
 20
0.0
 30
0.0
  3
$MODEL_SPACE
  1

  0
ENDBLK
  5
28D
  8
0
  0
BLOCK
 67
     1
  8
0
  2
$PAPER_SPACE
 70
     0
 10
0.0
 20
0.0
 30
0.0
  3
$PAPER_SPACE
  1

  0
ENDBLK
  5
289
 67
     1
  8
0
  0
ENDSEC
  0
SECTION
  2
ENTITIES
  0
LINE
  5
2C
  8
HIBINO-BASE
  6
CONTINUOUS
 62
     7
 10
-169.99999999999989
 20
537.06362999999999
 30
0.0
 11
370.0
 21
537.06362999999999
 31
0.0
  0
LINE
  5
2D
  8
HIBINO-BASE
  6
CONTINUOUS
 62
     7
 10
370.0
 20
-242.93637000000001
 30
0.0
 11
-169.99999999999989
 21
-242.93637000000001
 31
0.0
  0
TEXT
  5
2E
  8
HIBINO-BASE
 62
     7
 10
-148.44799999999989
 20
-262.1624033999999
 30
0.0
 40
10.800132539062499
  1
Hibino Corporation
 41
0.7
 11
-148.44799999999989
 21
-251.3622708609374
 31
0.0
 73
     3
  0
LINE
  5
2F
  8
HIBINO-BASE
  6
CONTINUOUS
 62
     7
 10
370.0
 20
537.06362999999999
 30
0.0
 11
370.0
 21
-242.93637000000001
 31
0.0
  0
LINE
  5
30
  8
HIBINO-BASE
  6
CONTINUOUS
 62
     7
 10
100.0
 20
-175.4363699999999
 30
0.0
 11
370.0
 21
-175.4363699999999
 31
0.0
  0
LINE
  5
31
  8
HIBINO-BASE
  6
CONTINUOUS
 62
     7
 10
100.0
 20
-242.93637000000001
 30
0.0
 11
100.0
 21
-175.4363699999999
 31
0.0
  0
TEXT
  5
32
  8
HIBINO-BASE
 62
     7
 10
102.7
 20
-182.96244999999999
 30
0.0
 40
4.8865234374999993
  1
NOTE
 41
0.7
 11
102.7
 21
-178.0759265625
 31
0.0
 73
     3
  0
LINE
  5
33
  8
HIBINO-BASE
  6
CONTINUOUS
 62
     7
 10
205.0
 20
-242.93637000000001
 30
0.0
 11
205.0
 21
-175.4363699999999
 31
0.0
  0
TEXT
  5
34
  8
HIBINO-BASE
 62
     7
 10
207.69999999999999
 20
-182.96244999999999
 30
0.0
 40
4.8865234374999993
  1
TITLE
 41
0.7
 11
207.69999999999999
 21
-178.0759265625
 31
0.0
 73
     3
  0
TEXT
  5
35
  8
HIBINO-BASE
 62
     7
 10
250.2051699999999
 20
-262.1624033999999
 30
0.0
 40
10.800132539062499
  1
ヒビノ株式会社
 41
0.7
 11
250.2051699999999
 21
-251.3622708609374
 31
0.0
 73
     3
  0
LINE
  5
36
  8
HIBINO-BASE
  6
CONTINUOUS
 62
     7
 10
100.0
 20
-212.9363699999999
 30
0.0
 11
370.0
 21
-212.9363699999999
 31
0.0
  0
TEXT
  5
37
  8
HIBINO-BASE
 62
     7
 10
245.19999999999999
 20
-220.29348999999999
 30
0.0
 40
4.8865234374999993
  1
DRAWN
 41
0.7
 11
245.19999999999999
 21
-215.4069665625
 31
0.0
 73
     3
  0
TEXT
  5
38
  8
HIBINO-BASE
 62
     7
 10
170.19999999999999
 20
-220.29348999999999
 30
0.0
 40
4.8865234374999993
  1
DATE
 41
0.7
 11
170.19999999999999
 21
-215.4069665625
 31
0.0
 73
     3
  0
TEXT
  5
39
  8
HIBINO-BASE
 62
     7
 10
140.19999999999999
 20
-220.29348999999999
 30
0.0
 40
4.8865234374999993
  1
SCALE
 41
0.7
 11
140.19999999999999
 21
-215.4069665625
 31
0.0
 73
     3
  0
TEXT
  5
3A
  8
HIBINO-BASE
 62
     7
 10
207.69999999999999
 20
-220.29348999999999
 30
0.0
 40
4.8865234374999993
  1
DESIGN
 41
0.7
 11
207.69999999999999
 21
-215.4069665625
 31
0.0
 73
     3
  0
TEXT
  5
3B
  8
HIBINO-BASE
 62
     7
 10
320.19999999999999
 20
-220.29348999999999
 30
0.0
 40
4.8865234374999993
  1
DRAWING NO.
 41
0.7
 11
320.19999999999999
 21
-215.4069665625
 31
0.0
 73
     3
  0
TEXT
  5
3C
  8
HIBINO-BASE
 62
     7
 10
282.69999999999999
 20
-220.29348999999999
 30
0.0
 40
4.8865234374999993
  1
CHECK
 41
0.7
 11
282.69999999999999
 21
-215.4069665625
 31
0.0
 73
     3
  0
LINE
  5
3D
  8
HIBINO-BASE
  6
CONTINUOUS
 62
     7
 10
143.12499999999989
 20
-239.18637000000001
 30
0.0
 11
154.375
 21
-227.93637000000001
 31
0.0
  0
TEXT
  5
3E
  8
HIBINO-BASE
 62
     7
 10
141.24999999999989
 20
-231.26320000000001
 30
0.0
 40
4.8865234374999993
  1
1
 41
0.7
 11
141.24999999999989
 21
-226.37667656249999
 31
0.0
 73
     3
  0
LINE
  5
3F
  8
HIBINO-BASE
  6
CONTINUOUS
 62
     7
 10
137.5
 20
-242.93637000000001
 30
0.0
 11
137.5
 21
-212.9363699999999
 31
0.0
  0
LINE
  5
40
  8
HIBINO-BASE
  6
CONTINUOUS
 62
     7
 10
167.5
 20
-242.93637000000001
 30
0.0
 11
167.5
 21
-212.9363699999999
 31
0.0
  0
LINE
  5
41
  8
HIBINO-BASE
  6
CONTINUOUS
 62
     7
 10
242.5
 20
-212.9363699999999
 30
0.0
 11
242.5
 21
-242.93637000000001
 31
0.0
  0
LINE
  5
42
  8
HIBINO-BASE
  6
CONTINUOUS
 62
     7
 10
317.5
 20
-212.9363699999999
 30
0.0
 11
317.5
 21
-242.93637000000001
 31
0.0
  0
LINE
  5
43
  8
HIBINO-BASE
  6
CONTINUOUS
 62
     7
 10
279.99999999999989
 20
-242.93637000000001
 30
0.0
 11
279.99999999999989
 21
-212.9363699999999
 31
0.0
  0
TEXT
  5
44
  8
HIBINO-BASE
 62
     7
 10
170.06961999999999
 20
-234.34542999999999
 30
0.0
 40
4.8865234374999993
  1
'09.09.
 41
0.7
 11
170.06961999999999
 21
-229.4589065625
 31
0.0
 73
     3
  0
TEXT
  5
45
  8
HIBINO-BASE
 62
     7
 10
152.5
 20
-236.88820000000001
 30
0.0
 40
4.8865234374999993
  1
3
 41
0.7
 11
152.5
 21
-232.00167656249999
 31
0.0
 73
     3
  0
TEXT
  5
46
  8
HIBINO-BASE
 62
     7
 10
247.01743003310389
 20
-234.34542999999999
 30
0.0
 40
4.8865234374999993
  1
N.Sasaki
 41
0.7
 11
247.01743003310389
 21
-229.4589065625
 31
0.0
 73
     3
  0
TEXT
  5
47
  8
HIBINO-BASE
 62
     7
 10
111.65000000000001
 20
-237.00837000000001
 30
0.0
 40
9.7730468749999986
  1
A4
 41
0.7
 11
111.65000000000001
 21
-227.23532312500001
 31
0.0
 73
     3
  0
TEXT
  5
48
  8
HIBINO-BASE
 62
     7
 10
102.875
 20
-220.794735
 30
0.0
 40
4.8865234374999993
  1
PAPER SIZE
 41
0.7
 11
102.875
 21
-215.90821156249999
 31
0.0
 73
     3
  0
LINE
  5
49
  8
HIBINO-BASE
  6
CONTINUOUS
 62
     7
 10
-169.99999999999989
 20
-242.93637000000001
 30
0.0
 11
-169.99999999999989
 21
537.5
 31
0.0
  0
LINE
  5
4A
  8
SPEC
  6
CONTINUOUS
 62
     7
 10
-147.49999999999989
 20
507.06362999999988
 30
0.0
 11
295.0
 21
507.06362999999988
 31
0.0
  0
LINE
  5
4B
  8
SPEC
  6
CONTINUOUS
 62
     7
 10
-147.49999999999989
 20
495.81362999999988
 30
0.0
 11
295.0
 21
495.81362999999988
 31
0.0
  0
LINE
  5
4C
  8
SPEC
  6
CONTINUOUS
 62
     7
 10
-147.49999999999989
 20
450.81362999999988
 30
0.0
 11
295.0
 21
450.81362999999988
 31
0.0
  0
LINE
  5
4D
  8
SPEC
  6
CONTINUOUS
 62
     7
 10
-147.49999999999989
 20
462.06362999999988
 30
0.0
 11
295.0
 21
462.06362999999988
 31
0.0
  0
LINE
  5
4E
  8
SPEC
  6
CONTINUOUS
 62
     7
 10
-147.49999999999989
 20
473.31362999999988
 30
0.0
 11
295.0
 21
473.31362999999988
 31
0.0
  0
LINE
  5
4F
  8
SPEC
  6
CONTINUOUS
 62
     7
 10
-147.49999999999989
 20
439.56362999999988
 30
0.0
 11
295.0
 21
439.56362999999988
 31
0.0
  0
LINE
  5
50
  8
SPEC
  6
CONTINUOUS
 62
     7
 10
-147.49999999999989
 20
484.56362999999988
 30
0.0
 11
295.0
 21
484.56362999999988
 31
0.0
  0
LINE
  5
51
  8
SPEC
  6
CONTINUOUS
 62
     7
 10
-147.49999999999989
 20
507.06362999999988
 30
0.0
 11
-147.49999999999989
 21
405.79362999999989
 31
0.0
  0
TEXT
  5
52
  8
SPEC
 62
     7
 10
-143.74999999999989
 20
513.06377333333307
 30
0.0
 40
5.7009440104166647
  1
仕様
 41
0.7
 11
-143.74999999999989
 21
518.76471734374991
 31
0.0
 73
     3
  0
LINE
  5
53
  8
SPEC
  6
CONTINUOUS
 62
     7
 10
-50.0
 20
507.06362999999988
 30
0.0
 11
-50.0
 21
405.79362999999989
 31
0.0
  0
LINE
  5
54
  8
SPEC
  6
CONTINUOUS
 62
     7
 10
295.0
 20
507.06362999999988
 30
0.0
 11
295.0
 21
405.79362999999989
 31
0.0
  0
TEXT
  5
55
  8
SPEC
 62
     7
 10
-144.94285464602561
 20
498.67737459442299
 30
0.0
 40
5.7009440104166647
  1
形式
 41
0.7
 11
-144.94285464602561
 21
504.37831860483971
 31
0.0
 73
     3
  0
TEXT
  5
56
  8
SPEC
 62
     7
 10
-145.1044233063563
 20
431.43891307808138
 30
0.0
 40
5.7009440104166647
  1
寸法
 41
0.7
 11
-145.1044233063563
 21
437.13985708849822
 31
0.0
 73
     3
  0
TEXT
  5
57
  8
SPEC
 62
     7
 10
-48.067726718133059
 20
431.44953040996489
 30
0.0
 40
5.7009440104166647
  1
\U+03A619\U+00D7262mm
 41
0.7
 11
-48.067726718133059
 21
437.15047442038161
 31
0.0
 73
     3
  0
TEXT
  5
58
  8
SPEC
 62
     7
 10
-47.437088950441598
 20
420.13450121091847
 30
0.0
 40
5.7009440104166647
  1
約68g
 41
0.7
 11
-47.437088950441598
 21
425.83544522133508
 31
0.0
 73
     3
  0
TEXT
  5
59
  8
SPEC
 62
     7
 10
-144.95409280080281
 20
420.03419222362749
 30
0.0
 40
5.7009440104166647
  1
重量
 41
0.7
 11
-144.95409280080281
 21
425.73513623404421
 31
0.0
 73
     3
  0
TEXT
  5
5A
  8
SPEC
 62
     7
 10
-48.081026940160783
 20
498.76280471551138
 30
0.0
 40
5.7009440104166647
  1
コンデンサー型 
 41
0.7
 11
-48.081026940160783
 21
504.46374872592799
 31
0.0
 73
     3
  0
TEXT
  5
5B
  8
SPEC
 62
     7
 10
-144.78880351965509
 20
476.5148137866754
 30
0.0
 40
5.7009440104166647
  1
周波数特性
 41
0.7
 11
-144.78880351965509
 21
482.21575779709201
 31
0.0
 73
     3
  0
TEXT
  5
5C
  8
SPEC
 62
     7
 10
-145.0278892999475
 20
465.20740798346651
 30
0.0
 40
5.7009440104166647
  1
開回路感度
 41
0.7
 11
-145.0278892999475
 21
470.90835199388317
 31
0.0
 73
     3
  0
TEXT
  5
5D
  8
SPEC
 62
     7
 10
-144.83734206879009
 20
453.8249949195752
 30
0.0
 40
5.7009440104166647
  1
最大音圧レベル
 41
0.7
 11
-144.83734206879009
 21
459.52593892999181
 31
0.0
 73
     3
  0
TEXT
  5
5E
  8
SPEC
 62
     7
 10
-144.86255144525549
 20
442.6224633333332
 30
0.0
 40
5.7009440104166647
  1
等価雑音レベル
 41
0.7
 11
-144.86255144525549
 21
448.32340734374992
 31
0.0
 73
     3
  0
LINE
  5
5F
  8
SPEC
  6
CONTINUOUS
 62
     7
 10
-147.49999999999989
 20
428.31362999999988
 30
0.0
 11
295.0
 21
428.31362999999988
 31
0.0
  0
TEXT
  5
60
  8
SPEC
 62
     7
 10
-47.333184238265929
 20
475.85406443461869
 30
0.0
 40
5.7009440104166647
  1
20Hz～20kHz
 41
0.7
 11
-47.333184238265929
 21
481.55500844503541
 31
0.0
 73
     3
  0
TEXT
  5
61
  8
SPEC
 62
     7
 10
-47.429152814446823
 20
465.24926685761562
 30
0.0
 40
5.7009440104166647
  1
ー32dBV re 1V/Pa
 41
0.7
 11
-47.429152814446823
 21
470.95021086803229
 31
0.0
 73
     3
  0
TEXT
  5
62
  8
SPEC
 62
     7
 10
-47.640843428985647
 20
453.5771464753621
 30
0.0
 40
5.7009440104166647
  1
124dB SPL（パッドOFF、THD 1%%%）
 41
0.7
 11
-47.640843428985647
 21
459.27809048577882
 31
0.0
 73
     3
  0
TEXT
  5
63
  8
SPEC
 62
     7
 10
-47.333802804387808
 20
442.51998755793181
 30
0.0
 40
5.7009440104166647
  1
17dB SPL（Aウェイト）
 41
0.7
 11
-47.333802804387808
 21
448.22093156834848
 31
0.0
 73
     3
  0
LINE
  5
64
  8
SPEC
  6
CONTINUOUS
 62
     7
 10
-147.49999999999989
 20
417.06362999999988
 30
0.0
 11
295.0
 21
417.06362999999988
 31
0.0
  0
TEXT
  5
65
  8
SPEC
 62
     7
 10
-144.86141471440791
 20
408.99713469246649
 30
0.0
 40
5.7009440104166647
  1
付属品
 41
0.7
 11
-144.86141471440791
 21
414.69807870288321
 31
0.0
 73
     3
  0
TEXT
  5
66
  8
SPEC
 62
     7
 10
-47.982248396950453
 20
408.8913224302139
 30
0.0
 40
5.7009440104166647
  1
ウインドスクリーン(W 98)
 41
0.7
 11
-47.982248396950453
 21
414.59226644063062
 31
0.0
 73
     3
  0
LINE
  5
67
  8
SPEC
  6
CONTINUOUS
 62
     7
 10
-147.49999999999989
 20
405.79362999999989
 30
0.0
 11
295.0
 21
405.79362999999989
 31
0.0
  0
TEXT
  5
68
  8
SPEC
 62
     7
 10
-144.94285464602561
 20
487.407374594423
 30
0.0
 40
5.7009440104166647
  1
指向特性
 41
0.7
 11
-144.94285464602561
 21
493.10831860483972
 31
0.0
 73
     3
  0
TEXT
  5
69
  8
SPEC
 62
     7
 10
-48.081026940160783
 20
487.4928047155114
 30
0.0
 40
5.7009440104166647
  1
超指向性
 41
0.7
 11
-48.081026940160783
 21
493.193748725928
 31
0.0
 73
     3
  0
TEXT
  5
6A
  8
DIMNSIONS
 62
     7
 10
40.0
 20
-206.12790000000001
 30
0.0
 40
7.3297851562499989
  1
(単位：mm)
 41
0.7
 11
40.0
 21
-198.79811484375
 31
0.0
 73
     3
  0
LINE
  5
6B
  8
DIMNSIONS
  6
CONTINUOUS
 62
     7
 10
2.9999999999999849
 20
-37.499999999852072
 30
0.0
 11
-56.000000000000021
 21
-37.499999999852072
 31
0.0
  0
LINE
  5
6C
  8
DIMNSIONS
  6
CONTINUOUS
 62
     7
 10
-3.0000000000000142
 20
224.5
 30
0.0
 11
-56.000000000000021
 21
224.5
 31
0.0
  0
LINE
  5
6D
  8
DIMNSIONS
  6
CONTINUOUS
 62
     7
 10
-50.000000000000021
 20
-37.499999999852072
 30
0.0
 11
-50.000000000000021
 21
224.5
 31
0.0
  0
LINE
  5
6E
  8
DIMNSIONS
  6
CONTINUOUS
 62
     7
 10
-50.000000000000021
 20
-37.499999999852072
 30
0.0
 11
-52.01011938545075
 21
-29.998132324070809
 31
0.0
  0
LINE
  5
6F
  8
DIMNSIONS
  6
CONTINUOUS
 62
     7
 10
-50.000000000000021
 20
-37.499999999852072
 30
0.0
 11
-47.989880614549278
 21
-29.998132324070809
 31
0.0
  0
LINE
  5
70
  8
DIMNSIONS
  6
CONTINUOUS
 62
     7
 10
-50.000000000000021
 20
224.5
 30
0.0
 11
-47.989880614549278
 21
216.9981323242188
 31
0.0
  0
LINE
  5
71
  8
DIMNSIONS
  6
CONTINUOUS
 62
     7
 10
-50.000000000000021
 20
224.5
 30
0.0
 11
-52.01011938545075
 21
216.9981323242188
 31
0.0
  0
TEXT
  5
72
  8
DIMNSIONS
 62
     7
 10
-52.981666666666662
 20
85.562500000073982
 30
0.0
 40
8.1442057291666661
  1
262
 50
90.0
 41
0.7
 11
-61.125872395833341
 21
85.562500000073982
 31
0.0
 73
     3
  0
LINE
  5
73
  8
DIMNSIONS
  6
CONTINUOUS
 62
     7
 10
19.217514421272181
 20
294.2175144212722
 30
0.0
 11
37.5
 21
312.5
 31
0.0
  0
LINE
  5
74
  8
DIMNSIONS
  6
CONTINUOUS
 62
     7
 10
19.217514421272181
 20
294.2175144212722
 30
0.0
 11
23.100766877934522
 21
300.94350497482799
 31
0.0
  0
LINE
  5
75
  8
DIMNSIONS
  6
CONTINUOUS
 62
     7
 10
19.217514421272181
 20
294.2175144212722
 30
0.0
 11
25.943504974828009
 21
298.10076687793457
 31
0.0
  0
LINE
  5
76
  8
DIMNSIONS
  6
CONTINUOUS
 62
     7
 10
37.5
 20
312.5
 30
0.0
 11
64.666666666666643
 21
312.5
 31
0.0
  0
TEXT
  5
77
  8
DIMNSIONS
 62
     7
 10
43.499999999999993
 20
315.48166666666663
 30
0.0
 40
8.1442057291666661
  1
\U+03C619
 41
0.7
 11
43.499999999999993
 21
323.62587239583331
 31
0.0
 73
     3
  0
LINE
  5
78
  8
DIMNSIONS
  6
CONTINUOUS
 62
     7
 10
-3.0000000000000142
 20
-22.499999999852061
 30
0.0
 11
-31.000000000000011
 21
-22.499999999852061
 31
0.0
  0
LINE
  5
79
  8
DIMNSIONS
  6
CONTINUOUS
 62
     7
 10
-1.000000000000014
 20
224.5
 30
0.0
 11
-30.999999999999989
 21
224.5
 31
0.0
  0
LINE
  5
7A
  8
DIMNSIONS
  6
CONTINUOUS
 62
     7
 10
-25.0
 20
-22.499999999852061
 30
0.0
 11
-25.0
 21
224.5
 31
0.0
  0
LINE
  5
7B
  8
DIMNSIONS
  6
CONTINUOUS
 62
     7
 10
-25.0
 20
-22.499999999852061
 30
0.0
 11
-27.010119385450739
 21
-14.9981323240708
 31
0.0
  0
LINE
  5
7C
  8
DIMNSIONS
  6
CONTINUOUS
 62
     7
 10
-25.0
 20
-22.499999999852061
 30
0.0
 11
-22.989880614549278
 21
-14.9981323240708
 31
0.0
  0
LINE
  5
7D
  8
DIMNSIONS
  6
CONTINUOUS
 62
     7
 10
-25.0
 20
224.5
 30
0.0
 11
-22.989880614549278
 21
216.9981323242188
 31
0.0
  0
LINE
  5
7E
  8
DIMNSIONS
  6
CONTINUOUS
 62
     7
 10
-25.0
 20
224.5
 30
0.0
 11
-27.010119385450739
 21
216.9981323242188
 31
0.0
  0
TEXT
  5
7F
  8
DIMNSIONS
 62
     7
 10
-27.981666666666669
 20
93.062500000073953
 30
0.0
 40
8.1442057291666661
  1
247
 50
90.0
 41
0.7
 11
-36.125872395833341
 21
93.062500000073953
 31
0.0
 73
     3
  0
TEXT
  5
80
  8
DATA
 62
     7
 10
250.0
 20
-209.5437
 30
0.0
 40
7.3297851562499989
  1
CK98
 41
0.7
 11
250.0
 21
-202.21391484374999
 31
0.0
 73
     3
  0
TEXT
  5
81
  8
DATA
 62
     7
 10
250.0
 20
-187.7937
 30
0.0
 40
7.3297851562499989
  1
AKG
 41
0.7
 11
250.0
 21
-180.46391484374999
 31
0.0
 73
     3
  0
TEXT
  5
82
  8
DATA
 62
     7
 10
242.5
 20
-198.03414175600409
 30
0.0
 40
4.8865311328124994
  1
カートリッジ
 41
0.7
 11
242.5
 21
-193.1476106231917
 31
0.0
 73
     3
  0
TEXT
  5
83
  8
DATA
 62
     7
 10
-139.99999999999989
 20
-230.22237000000001
 30
0.0
 40
4.8865234374999993
  1
仕様および外観は予告なく変更されることがありますので、ご了承ください。
 41
0.7
 11
-139.99999999999989
 21
-225.3358465625
 31
0.0
 73
     3
  0
TEXT
  5
84
  8
DATA
 62
     7
 10
80.284092312285182
 20
252.7339618215899
 30
0.0
 40
8.1442057291666661
  1
ウインドスクリーン
 41
0.7
 11
80.284092312285182
 21
260.87816755075647
 31
0.0
 73
     3
  0
LINE
  5
85
  8
DATA
  6
CONTINUOUS
 62
     7
 10
2.9999999999999849
 20
-22.499999999852061
 30
0.0
 11
2.9999999999999849
 21
222.5
 31
0.0
  0
LINE
  5
86
  8
DATA
  6
CONTINUOUS
 62
     7
 10
21.999999999999989
 20
222.5
 30
0.0
 11
21.999999999999989
 21
-22.499999999852061
 31
0.0
  0
LINE
  5
87
  8
DATA
  6
CONTINUOUS
 62
     7
 10
4.9999999999999849
 20
224.5
 30
0.0
 11
19.999999999999979
 21
224.5
 31
0.0
  0
LINE
  5
88
  8
DATA
  6
CONTINUOUS
 62
     7
 10
21.999999999999989
 20
-22.499999999852061
 30
0.0
 11
2.9999999999999849
 21
-22.499999999852061
 31
0.0
  0
LINE
  5
89
  8
DATA
  6
CONTINUOUS
 62
     7
 10
6.4999999999999849
 20
-31.499999999852069
 30
0.0
 11
6.4999999999999849
 21
-24.499999999852069
 31
0.0
  0
LINE
  5
8A
  8
DATA
  6
CONTINUOUS
 62
     7
 10
18.499999999999979
 20
-31.499999999852069
 30
0.0
 11
6.4999999999999849
 21
-31.499999999852069
 31
0.0
  0
LINE
  5
8B
  8
DATA
  6
CONTINUOUS
 62
     7
 10
18.499999999999979
 20
-24.499999999852069
 30
0.0
 11
18.499999999999979
 21
-31.499999999852069
 31
0.0
  0
LINE
  5
8C
  8
DATA
  6
CONTINUOUS
 62
     7
 10
6.4999999999999849
 20
-24.499999999852069
 30
0.0
 11
18.499999999999979
 21
-24.499999999852069
 31
0.0
  0
LINE
  5
8D
  8
DATA
  6
CONTINUOUS
 62
     7
 10
8.9999999999999876
 20
-37.499999999852072
 30
0.0
 11
8.9999999999999876
 21
-32.499999999852058
 31
0.0
  0
LINE
  5
8E
  8
DATA
  6
CONTINUOUS
 62
     7
 10
15.99999999999998
 20
-37.499999999852072
 30
0.0
 11
15.99999999999998
 21
-32.499999999852058
 31
0.0
  0
LINE
  5
8F
  8
DATA
  6
CONTINUOUS
 62
     7
 10
8.9999999999999876
 20
-32.499999999852058
 30
0.0
 11
6.4999999999999849
 21
-31.499999999852069
 31
0.0
  0
LINE
  5
90
  8
DATA
  6
CONTINUOUS
 62
     7
 10
15.99999999999998
 20
-32.499999999852058
 30
0.0
 11
18.499999999999979
 21
-31.499999999852069
 31
0.0
  0
LINE
  5
91
  8
DATA
  6
CONTINUOUS
 62
     7
 10
8.9999999999999876
 20
-32.499999999852058
 30
0.0
 11
15.99999999999998
 21
-32.499999999852058
 31
0.0
  0
POLYLINE
  5
92
  8
DATA
  6
CONTINUOUS
 62
     7
 66
     1
 10
0.0
 20
0.0
 30
0.0
  0
VERTEX
  5
2B9
  8
DATA
  6
CONTINUOUS
 62
     7
 10
15.99999999999998
 20
-35.199999999852047
 30
0.0
  0
VERTEX
  5
2BA
  8
DATA
  6
CONTINUOUS
 62
     7
 10
17.79999999999999
 20
-35.199999999852047
 30
0.0
  0
VERTEX
  5
2BB
  8
DATA
  6
CONTINUOUS
 62
     7
 10
17.79999999999999
 20
-36.460769515310737
 30
0.0
  0
SEQEND
  5
2BC
  8
DATA
  6
CONTINUOUS
 62
     7
  0
LINE
  5
98
  8
DATA
  6
CONTINUOUS
 62
     7
 10
15.99999999999998
 20
-37.499999999852072
 30
0.0
 11
8.9999999999999876
 21
-37.499999999852072
 31
0.0
  0
POLYLINE
  5
99
  8
DATA
  6
CONTINUOUS
 62
     7
 66
     1
 10
0.0
 20
0.0
 30
0.0
  0
VERTEX
  5
2BD
  8
DATA
  6
CONTINUOUS
 62
     7
 10
7.200000000000002
 20
-36.460769515310737
 30
0.0
  0
VERTEX
  5
2BE
  8
DATA
  6
CONTINUOUS
 62
     7
 10
7.200000000000002
 20
-35.199999999852047
 30
0.0
  0
VERTEX
  5
2BF
  8
DATA
  6
CONTINUOUS
 62
     7
 10
8.9999999999999876
 20
-35.199999999852047
 30
0.0
  0
SEQEND
  5
2C0
  8
DATA
  6
CONTINUOUS
 62
     7
  0
LINE
  5
9F
  8
DATA
  6
CONTINUOUS
 62
     7
 10
8.9999999999999876
 20
-37.499999999852072
 30
0.0
 11
7.200000000000002
 21
-36.460769515310737
 31
0.0
  0
LINE
  5
A0
  8
DATA
  6
CONTINUOUS
 62
     7
 10
15.99999999999998
 20
-37.499999999852072
 30
0.0
 11
17.79999999999999
 21
-36.460769515310737
 31
0.0
  0
TEXT
  5
A1
  8
DATA
 62
     7
 10
9.4784448999977116
 20
-21.668868301022219
 30
0.0
 40
1.900314670138888
  1
CK 98
 41
0.7
 11
9.4784448999977116
 21
-19.768553630883329
 31
0.0
 73
     3
  0
LINE
  5
A2
  8
DATA
  6
CONTINUOUS
 62
     7
 10
6.4999999999999849
 20
-24.499999999852069
 30
0.0
 11
2.9999999999999849
 21
-22.499999999852061
 31
0.0
  0
LINE
  5
A3
  8
DATA
  6
CONTINUOUS
 62
     7
 10
18.499999999999979
 20
-24.499999999852069
 30
0.0
 11
21.999999999999989
 21
-22.499999999852061
 31
0.0
  0
LINE
  5
A4
  8
DATA
  6
CONTINUOUS
 62
     7
 10
21.999999999999989
 20
-1.4999999998520639
 30
0.0
 11
2.9999999999999849
 21
-1.4999999998520639
 31
0.0
  0
LINE
  5
A5
  8
DATA
  6
CONTINUOUS
 62
     7
 10
2.9999999999999849
 20
212.5
 30
0.0
 11
21.999999999999989
 21
212.5
 31
0.0
  0
CIRCLE
  5
A6
  8
DATA
  6
CONTINUOUS
 62
     7
 10
12.49999999999998
 20
-75.0
 30
0.0
 40
9.5
  0
ARC
  5
A7
  8
DATA
  6
CONTINUOUS
 62
     7
 10
12.49999999999998
 20
-75.0
 30
0.0
 40
3.499999999999988
 50
213.92723158468559
 51
326.0727684153145
  0
ARC
  5
A8
  8
DATA
  6
CONTINUOUS
 62
     7
 10
12.49999999999998
 20
-75.0
 30
0.0
 40
3.500000000000004
 50
33.927231584687611
 51
146.0727684153124
  0
LINE
  5
A9
  8
DATA
  6
CONTINUOUS
 62
     7
 10
7.1999999999999744
 20
-73.399999999999977
 30
0.0
 11
8.9320874450179257
 21
-73.399999999999977
 31
0.0
  0
LINE
  5
AA
  8
DATA
  6
CONTINUOUS
 62
     7
 10
16.067912554982069
 20
-73.399999999999977
 30
0.0
 11
17.79999999999999
 21
-73.399999999999977
 31
0.0
  0
LINE
  5
AB
  8
DATA
  6
CONTINUOUS
 62
     7
 10
7.1999999999999744
 20
-76.59999999999998
 30
0.0
 11
8.9320874450176433
 21
-76.59999999999998
 31
0.0
  0
LINE
  5
AC
  8
DATA
  6
CONTINUOUS
 62
     7
 10
16.067912554982328
 20
-76.59999999999998
 30
0.0
 11
17.79999999999999
 21
-76.59999999999998
 31
0.0
  0
LINE
  5
AD
  8
DATA
  6
CONTINUOUS
 62
     7
 10
7.1999999999999744
 20
-76.59999999999998
 30
0.0
 11
7.1999999999999744
 21
-73.399999999999977
 31
0.0
  0
LINE
  5
AE
  8
DATA
  6
CONTINUOUS
 62
     7
 10
17.79999999999999
 20
-76.59999999999998
 30
0.0
 11
17.79999999999999
 21
-73.399999999999977
 31
0.0
  0
ARC
  5
AF
  8
DATA
  6
CONTINUOUS
 62
     7
 10
8.9320874450179257
 20
-72.600000000000293
 30
0.0
 40
0.7999999999996703
 50
270.0
 51
326.07276841532962
  0
ARC
  5
B0
  8
DATA
  6
CONTINUOUS
 62
     7
 10
16.067912554982069
 20
-72.600000000000293
 30
0.0
 40
0.7999999999996846
 50
213.9272315846693
 51
270.0
  0
ARC
  5
B1
  8
DATA
  6
CONTINUOUS
 62
     7
 10
16.067912554982328
 20
-77.400000000000119
 30
0.0
 40
0.8000000000001249
 50
90.0
 51
146.0727684153066
  0
ARC
  5
B2
  8
DATA
  6
CONTINUOUS
 62
     7
 10
8.9320874450176433
 20
-77.400000000000148
 30
0.0
 40
0.8000000000001669
 50
33.927231584695051
 51
90.0
  0
CIRCLE
  5
B3
  8
DATA
  6
CONTINUOUS
 62
     7
 10
12.49999999999998
 20
-75.0
 30
0.0
 40
3.25
  0
CIRCLE
  5
B4
  8
DATA
  6
CONTINUOUS
 62
     7
 10
12.49999999999998
 20
-75.0
 30
0.0
 40
6.0
  0
LINE
  5
B5
  8
DATA
  6
CONTINUOUS
 62
     7
 10
7.2435707052059239
 20
-15.664444412991431
 30
0.0
 11
18.243570705205919
 21
-13.49246989069843
 31
0.0
  0
LINE
  5
B6
  8
DATA
  6
CONTINUOUS
 62
     7
 10
7.2435707052059239
 20
-13.664444412991431
 30
0.0
 11
18.243570705205919
 21
-11.49246989069843
 31
0.0
  0
LINE
  5
B7
  8
DATA
  6
CONTINUOUS
 62
     7
 10
7.2435707052059239
 20
-15.664444412991431
 30
0.0
 11
7.2435707052059239
 21
-13.664444412991431
 31
0.0
  0
LINE
  5
B8
  8
DATA
  6
CONTINUOUS
 62
     7
 10
18.243570705205919
 20
-13.49246989069843
 30
0.0
 11
18.243570705205919
 21
-11.49246989069843
 31
0.0
  0
LINE
  5
B9
  8
DATA
  6
CONTINUOUS
 62
     7
 10
7.2435707052059239
 20
-11.664444412991431
 30
0.0
 11
18.243570705205919
 21
-9.4924698906984304
 31
0.0
  0
LINE
  5
BA
  8
DATA
  6
CONTINUOUS
 62
     7
 10
7.2435707052059239
 20
-9.6644444129914273
 30
0.0
 11
18.243570705205919
 21
-7.4924698906984304
 31
0.0
  0
LINE
  5
BB
  8
DATA
  6
CONTINUOUS
 62
     7
 10
7.2435707052059239
 20
-11.664444412991431
 30
0.0
 11
7.2435707052059239
 21
-9.6644444129914273
 31
0.0
  0
LINE
  5
BC
  8
DATA
  6
CONTINUOUS
 62
     7
 10
18.243570705205919
 20
-9.4924698906984304
 30
0.0
 11
18.243570705205919
 21
-7.4924698906984304
 31
0.0
  0
LINE
  5
BD
  8
DATA
  6
CONTINUOUS
 62
     7
 10
7.2435707052059239
 20
-7.6644444129914291
 30
0.0
 11
18.243570705205919
 21
-5.4924698906984304
 31
0.0
  0
LINE
  5
BE
  8
DATA
  6
CONTINUOUS
 62
     7
 10
7.2435707052059239
 20
-5.6644444129914291
 30
0.0
 11
18.243570705205919
 21
-3.4924698906984299
 31
0.0
  0
LINE
  5
BF
  8
DATA
  6
CONTINUOUS
 62
     7
 10
7.2435707052059239
 20
-7.6644444129914291
 30
0.0
 11
7.2435707052059239
 21
-5.6644444129914291
 31
0.0
  0
LINE
  5
C0
  8
DATA
  6
CONTINUOUS
 62
     7
 10
18.243570705205919
 20
-5.4924698906984304
 30
0.0
 11
18.243570705205919
 21
-3.4924698906984299
 31
0.0
  0
LINE
  5
C1
  8
DATA
  6
CONTINUOUS
 62
     7
 10
7.1033785816802171
 20
10.463305495575121
 30
0.0
 11
18.103378581680211
 21
12.635280017868119
 31
0.0
  0
LINE
  5
C2
  8
DATA
  6
CONTINUOUS
 62
     7
 10
7.1033785816802171
 20
12.463305495575121
 30
0.0
 11
18.103378581680211
 21
14.635280017868119
 31
0.0
  0
LINE
  5
C3
  8
DATA
  6
CONTINUOUS
 62
     7
 10
7.1033785816802171
 20
10.463305495575121
 30
0.0
 11
7.1033785816802171
 21
12.463305495575121
 31
0.0
  0
LINE
  5
C4
  8
DATA
  6
CONTINUOUS
 62
     7
 10
18.103378581680211
 20
12.635280017868119
 30
0.0
 11
18.103378581680211
 21
14.635280017868119
 31
0.0
  0
LINE
  5
C5
  8
DATA
  6
CONTINUOUS
 62
     7
 10
18.999999999999979
 20
5.5000000001479341
 30
0.0
 11
5.9999999999999849
 21
5.5000000001479341
 31
0.0
  0
LINE
  5
C6
  8
DATA
  6
CONTINUOUS
 62
     7
 10
5.9999999999999849
 20
205.5
 30
0.0
 11
18.999999999999979
 21
205.5
 31
0.0
  0
LINE
  5
C7
  8
DATA
  6
CONTINUOUS
 62
     7
 10
5.9999999999999849
 20
101.50000000014791
 30
0.0
 11
18.999999999999979
 21
101.50000000014791
 31
0.0
  0
LINE
  5
C8
  8
DATA
  6
CONTINUOUS
 62
     7
 10
5.9999999999999849
 20
109.5
 30
0.0
 11
18.999999999999979
 21
109.5
 31
0.0
  0
LINE
  5
C9
  8
DATA
  6
CONTINUOUS
 62
     7
 10
5.9999999999999849
 20
205.5
 30
0.0
 11
5.9999999999999849
 21
109.5
 31
0.0
  0
LINE
  5
CA
  8
DATA
  6
CONTINUOUS
 62
     7
 10
18.999999999999979
 20
205.5
 30
0.0
 11
18.999999999999979
 21
109.5
 31
0.0
  0
LINE
  5
CB
  8
DATA
  6
CONTINUOUS
 62
     7
 10
5.9999999999999849
 20
101.50000000014791
 30
0.0
 11
5.9999999999999849
 21
5.5000000001479341
 31
0.0
  0
LINE
  5
CC
  8
DATA
  6
CONTINUOUS
 62
     7
 10
18.999999999999979
 20
101.50000000014791
 30
0.0
 11
18.999999999999979
 21
5.5000000001479341
 31
0.0
  0
LINE
  5
CD
  8
DATA
  6
CONTINUOUS
 62
     7
 10
7.1033785816802171
 20
13.763305495575141
 30
0.0
 11
18.103378581680211
 21
15.93528001786814
 31
0.0
  0
LINE
  5
CE
  8
DATA
  6
CONTINUOUS
 62
     7
 10
7.1033785816802171
 20
15.763305495575141
 30
0.0
 11
18.103378581680211
 21
17.93528001786812
 31
0.0
  0
LINE
  5
CF
  8
DATA
  6
CONTINUOUS
 62
     7
 10
7.1033785816802171
 20
13.763305495575141
 30
0.0
 11
7.1033785816802171
 21
15.763305495575141
 31
0.0
  0
LINE
  5
D0
  8
DATA
  6
CONTINUOUS
 62
     7
 10
18.103378581680211
 20
15.93528001786814
 30
0.0
 11
18.103378581680211
 21
17.93528001786812
 31
0.0
  0
LINE
  5
D1
  8
DATA
  6
CONTINUOUS
 62
     7
 10
7.1033785816802171
 20
17.063305495575118
 30
0.0
 11
18.103378581680211
 21
19.235280017868121
 31
0.0
  0
LINE
  5
D2
  8
DATA
  6
CONTINUOUS
 62
     7
 10
7.1033785816802171
 20
19.063305495575118
 30
0.0
 11
18.103378581680211
 21
21.235280017868121
 31
0.0
  0
LINE
  5
D3
  8
DATA
  6
CONTINUOUS
 62
     7
 10
7.1033785816802171
 20
17.063305495575118
 30
0.0
 11
7.1033785816802171
 21
19.063305495575118
 31
0.0
  0
LINE
  5
D4
  8
DATA
  6
CONTINUOUS
 62
     7
 10
18.103378581680211
 20
19.235280017868121
 30
0.0
 11
18.103378581680211
 21
21.235280017868121
 31
0.0
  0
LINE
  5
D5
  8
DATA
  6
CONTINUOUS
 62
     7
 10
7.1033785816802171
 20
25.463305495575131
 30
0.0
 11
18.103378581680211
 21
27.63528001786813
 31
0.0
  0
LINE
  5
D6
  8
DATA
  6
CONTINUOUS
 62
     7
 10
7.1033785816802171
 20
27.463305495575131
 30
0.0
 11
18.103378581680211
 21
29.635280017868119
 31
0.0
  0
LINE
  5
D7
  8
DATA
  6
CONTINUOUS
 62
     7
 10
7.1033785816802171
 20
25.463305495575131
 30
0.0
 11
7.1033785816802171
 21
27.463305495575131
 31
0.0
  0
LINE
  5
D8
  8
DATA
  6
CONTINUOUS
 62
     7
 10
18.103378581680211
 20
27.63528001786813
 30
0.0
 11
18.103378581680211
 21
29.635280017868119
 31
0.0
  0
LINE
  5
D9
  8
DATA
  6
CONTINUOUS
 62
     7
 10
7.1033785816802171
 20
28.763305495575128
 30
0.0
 11
18.103378581680211
 21
30.935280017868141
 31
0.0
  0
LINE
  5
DA
  8
DATA
  6
CONTINUOUS
 62
     7
 10
7.1033785816802171
 20
30.763305495575139
 30
0.0
 11
18.103378581680211
 21
32.935280017868131
 31
0.0
  0
LINE
  5
DB
  8
DATA
  6
CONTINUOUS
 62
     7
 10
7.1033785816802171
 20
28.763305495575128
 30
0.0
 11
7.1033785816802171
 21
30.763305495575139
 31
0.0
  0
LINE
  5
DC
  8
DATA
  6
CONTINUOUS
 62
     7
 10
18.103378581680211
 20
30.935280017868141
 30
0.0
 11
18.103378581680211
 21
32.935280017868131
 31
0.0
  0
LINE
  5
DD
  8
DATA
  6
CONTINUOUS
 62
     7
 10
7.1033785816802171
 20
32.063305495575122
 30
0.0
 11
18.103378581680211
 21
34.235280017868121
 31
0.0
  0
LINE
  5
DE
  8
DATA
  6
CONTINUOUS
 62
     7
 10
7.1033785816802171
 20
34.063305495575122
 30
0.0
 11
18.103378581680211
 21
36.235280017868121
 31
0.0
  0
LINE
  5
DF
  8
DATA
  6
CONTINUOUS
 62
     7
 10
7.1033785816802171
 20
32.063305495575122
 30
0.0
 11
7.1033785816802171
 21
34.063305495575122
 31
0.0
  0
LINE
  5
E0
  8
DATA
  6
CONTINUOUS
 62
     7
 10
18.103378581680211
 20
34.235280017868121
 30
0.0
 11
18.103378581680211
 21
36.235280017868121
 31
0.0
  0
LINE
  5
E1
  8
DATA
  6
CONTINUOUS
 62
     7
 10
7.1033785816802171
 20
40.463305495575128
 30
0.0
 11
18.103378581680211
 21
42.635280017868133
 31
0.0
  0
LINE
  5
E2
  8
DATA
  6
CONTINUOUS
 62
     7
 10
7.1033785816802171
 20
42.463305495575128
 30
0.0
 11
18.103378581680211
 21
44.635280017868141
 31
0.0
  0
LINE
  5
E3
  8
DATA
  6
CONTINUOUS
 62
     7
 10
7.1033785816802171
 20
40.463305495575128
 30
0.0
 11
7.1033785816802171
 21
42.463305495575128
 31
0.0
  0
LINE
  5
E4
  8
DATA
  6
CONTINUOUS
 62
     7
 10
18.103378581680211
 20
42.635280017868133
 30
0.0
 11
18.103378581680211
 21
44.635280017868141
 31
0.0
  0
LINE
  5
E5
  8
DATA
  6
CONTINUOUS
 62
     7
 10
7.1033785816802171
 20
43.763305495575132
 30
0.0
 11
18.103378581680211
 21
45.935280017868138
 31
0.0
  0
LINE
  5
E6
  8
DATA
  6
CONTINUOUS
 62
     7
 10
7.1033785816802171
 20
45.763305495575132
 30
0.0
 11
18.103378581680211
 21
47.935280017868131
 31
0.0
  0
LINE
  5
E7
  8
DATA
  6
CONTINUOUS
 62
     7
 10
7.1033785816802171
 20
43.763305495575132
 30
0.0
 11
7.1033785816802171
 21
45.763305495575132
 31
0.0
  0
LINE
  5
E8
  8
DATA
  6
CONTINUOUS
 62
     7
 10
18.103378581680211
 20
45.935280017868138
 30
0.0
 11
18.103378581680211
 21
47.935280017868131
 31
0.0
  0
LINE
  5
E9
  8
DATA
  6
CONTINUOUS
 62
     7
 10
7.1033785816802171
 20
47.063305495575108
 30
0.0
 11
18.103378581680211
 21
49.235280017868121
 31
0.0
  0
LINE
  5
EA
  8
DATA
  6
CONTINUOUS
 62
     7
 10
7.1033785816802171
 20
49.063305495575122
 30
0.0
 11
18.103378581680211
 21
51.235280017868121
 31
0.0
  0
LINE
  5
EB
  8
DATA
  6
CONTINUOUS
 62
     7
 10
7.1033785816802171
 20
47.063305495575108
 30
0.0
 11
7.1033785816802171
 21
49.063305495575122
 31
0.0
  0
LINE
  5
EC
  8
DATA
  6
CONTINUOUS
 62
     7
 10
18.103378581680211
 20
49.235280017868121
 30
0.0
 11
18.103378581680211
 21
51.235280017868121
 31
0.0
  0
LINE
  5
ED
  8
DATA
  6
CONTINUOUS
 62
     7
 10
7.1033785816802171
 20
55.463305495575128
 30
0.0
 11
18.103378581680211
 21
57.635280017868141
 31
0.0
  0
LINE
  5
EE
  8
DATA
  6
CONTINUOUS
 62
     7
 10
7.1033785816802171
 20
57.463305495575128
 30
0.0
 11
18.103378581680211
 21
59.635280017868141
 31
0.0
  0
LINE
  5
EF
  8
DATA
  6
CONTINUOUS
 62
     7
 10
7.1033785816802171
 20
55.463305495575128
 30
0.0
 11
7.1033785816802171
 21
57.463305495575128
 31
0.0
  0
LINE
  5
F0
  8
DATA
  6
CONTINUOUS
 62
     7
 10
18.103378581680211
 20
57.635280017868141
 30
0.0
 11
18.103378581680211
 21
59.635280017868141
 31
0.0
  0
LINE
  5
F1
  8
DATA
  6
CONTINUOUS
 62
     7
 10
7.1033785816802171
 20
58.763305495575139
 30
0.0
 11
18.103378581680211
 21
60.935280017868138
 31
0.0
  0
LINE
  5
F2
  8
DATA
  6
CONTINUOUS
 62
     7
 10
7.1033785816802171
 20
60.763305495575139
 30
0.0
 11
18.103378581680211
 21
62.935280017868138
 31
0.0
  0
LINE
  5
F3
  8
DATA
  6
CONTINUOUS
 62
     7
 10
7.1033785816802171
 20
58.763305495575139
 30
0.0
 11
7.1033785816802171
 21
60.763305495575139
 31
0.0
  0
LINE
  5
F4
  8
DATA
  6
CONTINUOUS
 62
     7
 10
18.103378581680211
 20
60.935280017868138
 30
0.0
 11
18.103378581680211
 21
62.935280017868138
 31
0.0
  0
LINE
  5
F5
  8
DATA
  6
CONTINUOUS
 62
     7
 10
7.1033785816802171
 20
62.063305495575108
 30
0.0
 11
18.103378581680211
 21
64.235280017868121
 31
0.0
  0
LINE
  5
F6
  8
DATA
  6
CONTINUOUS
 62
     7
 10
7.1033785816802171
 20
64.063305495575108
 30
0.0
 11
18.103378581680211
 21
66.235280017868121
 31
0.0
  0
LINE
  5
F7
  8
DATA
  6
CONTINUOUS
 62
     7
 10
7.1033785816802171
 20
62.063305495575108
 30
0.0
 11
7.1033785816802171
 21
64.063305495575108
 31
0.0
  0
LINE
  5
F8
  8
DATA
  6
CONTINUOUS
 62
     7
 10
18.103378581680211
 20
64.235280017868121
 30
0.0
 11
18.103378581680211
 21
66.235280017868121
 31
0.0
  0
LINE
  5
F9
  8
DATA
  6
CONTINUOUS
 62
     7
 10
7.1033785816802171
 20
70.463305495575128
 30
0.0
 11
18.103378581680211
 21
72.635280017868126
 31
0.0
  0
LINE
  5
FA
  8
DATA
  6
CONTINUOUS
 62
     7
 10
7.1033785816802171
 20
72.463305495575142
 30
0.0
 11
18.103378581680211
 21
74.635280017868126
 31
0.0
  0
LINE
  5
FB
  8
DATA
  6
CONTINUOUS
 62
     7
 10
7.1033785816802171
 20
70.463305495575128
 30
0.0
 11
7.1033785816802171
 21
72.463305495575142
 31
0.0
  0
LINE
  5
FC
  8
DATA
  6
CONTINUOUS
 62
     7
 10
18.103378581680211
 20
72.635280017868126
 30
0.0
 11
18.103378581680211
 21
74.635280017868126
 31
0.0
  0
LINE
  5
FD
  8
DATA
  6
CONTINUOUS
 62
     7
 10
7.1033785816802171
 20
73.763305495575167
 30
0.0
 11
18.103378581680211
 21
75.935280017868124
 31
0.0
  0
LINE
  5
FE
  8
DATA
  6
CONTINUOUS
 62
     7
 10
7.1033785816802171
 20
75.763305495575167
 30
0.0
 11
18.103378581680211
 21
77.935280017868067
 31
0.0
  0
LINE
  5
FF
  8
DATA
  6
CONTINUOUS
 62
     7
 10
7.1033785816802171
 20
73.763305495575167
 30
0.0
 11
7.1033785816802171
 21
75.763305495575167
 31
0.0
  0
LINE
  5
100
  8
DATA
  6
CONTINUOUS
 62
     7
 10
18.103378581680211
 20
75.935280017868124
 30
0.0
 11
18.103378581680211
 21
77.935280017868067
 31
0.0
  0
LINE
  5
101
  8
DATA
  6
CONTINUOUS
 62
     7
 10
7.1033785816802171
 20
77.063305495575094
 30
0.0
 11
18.103378581680211
 21
79.235280017868035
 31
0.0
  0
LINE
  5
102
  8
DATA
  6
CONTINUOUS
 62
     7
 10
7.1033785816802171
 20
79.063305495575023
 30
0.0
 11
18.103378581680211
 21
81.235280017868007
 31
0.0
  0
LINE
  5
103
  8
DATA
  6
CONTINUOUS
 62
     7
 10
7.1033785816802171
 20
77.063305495575094
 30
0.0
 11
7.1033785816802171
 21
79.063305495575023
 31
0.0
  0
LINE
  5
104
  8
DATA
  6
CONTINUOUS
 62
     7
 10
18.103378581680211
 20
79.235280017868035
 30
0.0
 11
18.103378581680211
 21
81.235280017868007
 31
0.0
  0
LINE
  5
105
  8
DATA
  6
CONTINUOUS
 62
     7
 10
7.1033785816802171
 20
85.463305495575014
 30
0.0
 11
18.103378581680211
 21
87.635280017868027
 31
0.0
  0
LINE
  5
106
  8
DATA
  6
CONTINUOUS
 62
     7
 10
7.1033785816802171
 20
87.463305495575014
 30
0.0
 11
18.103378581680211
 21
89.635280017868027
 31
0.0
  0
LINE
  5
107
  8
DATA
  6
CONTINUOUS
 62
     7
 10
7.1033785816802171
 20
85.463305495575014
 30
0.0
 11
7.1033785816802171
 21
87.463305495575014
 31
0.0
  0
LINE
  5
108
  8
DATA
  6
CONTINUOUS
 62
     7
 10
18.103378581680211
 20
87.635280017868027
 30
0.0
 11
18.103378581680211
 21
89.635280017868027
 31
0.0
  0
LINE
  5
109
  8
DATA
  6
CONTINUOUS
 62
     7
 10
7.1033785816802171
 20
88.763305495575011
 30
0.0
 11
18.103378581680211
 21
90.935280017868024
 31
0.0
  0
LINE
  5
10A
  8
DATA
  6
CONTINUOUS
 62
     7
 10
7.1033785816802171
 20
90.763305495575025
 30
0.0
 11
18.103378581680211
 21
92.935280017868024
 31
0.0
  0
LINE
  5
10B
  8
DATA
  6
CONTINUOUS
 62
     7
 10
7.1033785816802171
 20
88.763305495575011
 30
0.0
 11
7.1033785816802171
 21
90.763305495575025
 31
0.0
  0
LINE
  5
10C
  8
DATA
  6
CONTINUOUS
 62
     7
 10
18.103378581680211
 20
90.935280017868024
 30
0.0
 11
18.103378581680211
 21
92.935280017868024
 31
0.0
  0
LINE
  5
10D
  8
DATA
  6
CONTINUOUS
 62
     7
 10
7.1033785816802171
 20
92.063305495575008
 30
0.0
 11
18.103378581680211
 21
94.235280017868007
 31
0.0
  0
LINE
  5
10E
  8
DATA
  6
CONTINUOUS
 62
     7
 10
7.1033785816802171
 20
94.063305495574994
 30
0.0
 11
18.103378581680211
 21
96.235280017868021
 31
0.0
  0
LINE
  5
10F
  8
DATA
  6
CONTINUOUS
 62
     7
 10
7.1033785816802171
 20
92.063305495575008
 30
0.0
 11
7.1033785816802171
 21
94.063305495574994
 31
0.0
  0
LINE
  5
110
  8
DATA
  6
CONTINUOUS
 62
     7
 10
18.103378581680211
 20
94.235280017868007
 30
0.0
 11
18.103378581680211
 21
96.235280017868021
 31
0.0
  0
LINE
  5
111
  8
DATA
  6
CONTINUOUS
 62
     7
 10
7.1033785816802171
 20
114.4633054955751
 30
0.0
 11
18.103378581680211
 21
116.6352800178681
 31
0.0
  0
LINE
  5
112
  8
DATA
  6
CONTINUOUS
 62
     7
 10
7.1033785816802171
 20
116.4633054955751
 30
0.0
 11
18.103378581680211
 21
118.6352800178681
 31
0.0
  0
LINE
  5
113
  8
DATA
  6
CONTINUOUS
 62
     7
 10
7.1033785816802171
 20
114.4633054955751
 30
0.0
 11
7.1033785816802171
 21
116.4633054955751
 31
0.0
  0
LINE
  5
114
  8
DATA
  6
CONTINUOUS
 62
     7
 10
18.103378581680211
 20
116.6352800178681
 30
0.0
 11
18.103378581680211
 21
118.6352800178681
 31
0.0
  0
LINE
  5
115
  8
DATA
  6
CONTINUOUS
 62
     7
 10
7.1033785816802171
 20
117.7633054955751
 30
0.0
 11
18.103378581680211
 21
119.9352800178681
 31
0.0
  0
LINE
  5
116
  8
DATA
  6
CONTINUOUS
 62
     7
 10
7.1033785816802171
 20
119.7633054955751
 30
0.0
 11
18.103378581680211
 21
121.9352800178681
 31
0.0
  0
LINE
  5
117
  8
DATA
  6
CONTINUOUS
 62
     7
 10
7.1033785816802171
 20
117.7633054955751
 30
0.0
 11
7.1033785816802171
 21
119.7633054955751
 31
0.0
  0
LINE
  5
118
  8
DATA
  6
CONTINUOUS
 62
     7
 10
18.103378581680211
 20
119.9352800178681
 30
0.0
 11
18.103378581680211
 21
121.9352800178681
 31
0.0
  0
LINE
  5
119
  8
DATA
  6
CONTINUOUS
 62
     7
 10
7.1033785816802171
 20
121.06330549557509
 30
0.0
 11
18.103378581680211
 21
123.23528001786811
 31
0.0
  0
LINE
  5
11A
  8
DATA
  6
CONTINUOUS
 62
     7
 10
7.1033785816802171
 20
123.06330549557509
 30
0.0
 11
18.103378581680211
 21
125.23528001786811
 31
0.0
  0
LINE
  5
11B
  8
DATA
  6
CONTINUOUS
 62
     7
 10
7.1033785816802171
 20
121.06330549557509
 30
0.0
 11
7.1033785816802171
 21
123.06330549557509
 31
0.0
  0
LINE
  5
11C
  8
DATA
  6
CONTINUOUS
 62
     7
 10
18.103378581680211
 20
123.23528001786811
 30
0.0
 11
18.103378581680211
 21
125.23528001786811
 31
0.0
  0
LINE
  5
11D
  8
DATA
  6
CONTINUOUS
 62
     7
 10
7.1033785816802171
 20
129.4633054955751
 30
0.0
 11
18.103378581680211
 21
131.6352800178681
 31
0.0
  0
LINE
  5
11E
  8
DATA
  6
CONTINUOUS
 62
     7
 10
7.1033785816802171
 20
131.4633054955751
 30
0.0
 11
18.103378581680211
 21
133.6352800178681
 31
0.0
  0
LINE
  5
11F
  8
DATA
  6
CONTINUOUS
 62
     7
 10
7.1033785816802171
 20
129.4633054955751
 30
0.0
 11
7.1033785816802171
 21
131.4633054955751
 31
0.0
  0
LINE
  5
120
  8
DATA
  6
CONTINUOUS
 62
     7
 10
18.103378581680211
 20
131.6352800178681
 30
0.0
 11
18.103378581680211
 21
133.6352800178681
 31
0.0
  0
LINE
  5
121
  8
DATA
  6
CONTINUOUS
 62
     7
 10
7.1033785816802171
 20
132.76330549557511
 30
0.0
 11
18.103378581680211
 21
134.93528001786811
 31
0.0
  0
LINE
  5
122
  8
DATA
  6
CONTINUOUS
 62
     7
 10
7.1033785816802171
 20
134.76330549557511
 30
0.0
 11
18.103378581680211
 21
136.93528001786811
 31
0.0
  0
LINE
  5
123
  8
DATA
  6
CONTINUOUS
 62
     7
 10
7.1033785816802171
 20
132.76330549557511
 30
0.0
 11
7.1033785816802171
 21
134.76330549557511
 31
0.0
  0
LINE
  5
124
  8
DATA
  6
CONTINUOUS
 62
     7
 10
18.103378581680211
 20
134.93528001786811
 30
0.0
 11
18.103378581680211
 21
136.93528001786811
 31
0.0
  0
LINE
  5
125
  8
DATA
  6
CONTINUOUS
 62
     7
 10
7.1033785816802171
 20
136.06330549557509
 30
0.0
 11
18.103378581680211
 21
138.23528001786809
 31
0.0
  0
LINE
  5
126
  8
DATA
  6
CONTINUOUS
 62
     7
 10
7.1033785816802171
 20
138.06330549557509
 30
0.0
 11
18.103378581680211
 21
140.23528001786809
 31
0.0
  0
LINE
  5
127
  8
DATA
  6
CONTINUOUS
 62
     7
 10
7.1033785816802171
 20
136.06330549557509
 30
0.0
 11
7.1033785816802171
 21
138.06330549557509
 31
0.0
  0
LINE
  5
128
  8
DATA
  6
CONTINUOUS
 62
     7
 10
18.103378581680211
 20
138.23528001786809
 30
0.0
 11
18.103378581680211
 21
140.23528001786809
 31
0.0
  0
LINE
  5
129
  8
DATA
  6
CONTINUOUS
 62
     7
 10
7.1033785816802171
 20
144.4633054955751
 30
0.0
 11
18.103378581680211
 21
146.6352800178681
 31
0.0
  0
LINE
  5
12A
  8
DATA
  6
CONTINUOUS
 62
     7
 10
7.1033785816802171
 20
146.4633054955751
 30
0.0
 11
18.103378581680211
 21
148.6352800178681
 31
0.0
  0
LINE
  5
12B
  8
DATA
  6
CONTINUOUS
 62
     7
 10
7.1033785816802171
 20
144.4633054955751
 30
0.0
 11
7.1033785816802171
 21
146.4633054955751
 31
0.0
  0
LINE
  5
12C
  8
DATA
  6
CONTINUOUS
 62
     7
 10
18.103378581680211
 20
146.6352800178681
 30
0.0
 11
18.103378581680211
 21
148.6352800178681
 31
0.0
  0
LINE
  5
12D
  8
DATA
  6
CONTINUOUS
 62
     7
 10
7.1033785816802171
 20
147.76330549557511
 30
0.0
 11
18.103378581680211
 21
149.93528001786811
 31
0.0
  0
LINE
  5
12E
  8
DATA
  6
CONTINUOUS
 62
     7
 10
7.1033785816802171
 20
149.76330549557511
 30
0.0
 11
18.103378581680211
 21
151.93528001786811
 31
0.0
  0
LINE
  5
12F
  8
DATA
  6
CONTINUOUS
 62
     7
 10
7.1033785816802171
 20
147.76330549557511
 30
0.0
 11
7.1033785816802171
 21
149.76330549557511
 31
0.0
  0
LINE
  5
130
  8
DATA
  6
CONTINUOUS
 62
     7
 10
18.103378581680211
 20
149.93528001786811
 30
0.0
 11
18.103378581680211
 21
151.93528001786811
 31
0.0
  0
LINE
  5
131
  8
DATA
  6
CONTINUOUS
 62
     7
 10
7.1033785816802171
 20
151.06330549557509
 30
0.0
 11
18.103378581680211
 21
153.23528001786809
 31
0.0
  0
LINE
  5
132
  8
DATA
  6
CONTINUOUS
 62
     7
 10
7.1033785816802171
 20
153.06330549557509
 30
0.0
 11
18.103378581680211
 21
155.23528001786809
 31
0.0
  0
LINE
  5
133
  8
DATA
  6
CONTINUOUS
 62
     7
 10
7.1033785816802171
 20
151.06330549557509
 30
0.0
 11
7.1033785816802171
 21
153.06330549557509
 31
0.0
  0
LINE
  5
134
  8
DATA
  6
CONTINUOUS
 62
     7
 10
18.103378581680211
 20
153.23528001786809
 30
0.0
 11
18.103378581680211
 21
155.23528001786809
 31
0.0
  0
LINE
  5
135
  8
DATA
  6
CONTINUOUS
 62
     7
 10
7.1033785816802171
 20
159.4633054955751
 30
0.0
 11
18.103378581680211
 21
161.6352800178681
 31
0.0
  0
LINE
  5
136
  8
DATA
  6
CONTINUOUS
 62
     7
 10
7.1033785816802171
 20
161.4633054955751
 30
0.0
 11
18.103378581680211
 21
163.6352800178681
 31
0.0
  0
LINE
  5
137
  8
DATA
  6
CONTINUOUS
 62
     7
 10
7.1033785816802171
 20
159.4633054955751
 30
0.0
 11
7.1033785816802171
 21
161.4633054955751
 31
0.0
  0
LINE
  5
138
  8
DATA
  6
CONTINUOUS
 62
     7
 10
18.103378581680211
 20
161.6352800178681
 30
0.0
 11
18.103378581680211
 21
163.6352800178681
 31
0.0
  0
LINE
  5
139
  8
DATA
  6
CONTINUOUS
 62
     7
 10
7.1033785816802171
 20
162.76330549557511
 30
0.0
 11
18.103378581680211
 21
164.93528001786811
 31
0.0
  0
LINE
  5
13A
  8
DATA
  6
CONTINUOUS
 62
     7
 10
7.1033785816802171
 20
164.76330549557511
 30
0.0
 11
18.103378581680211
 21
166.93528001786811
 31
0.0
  0
LINE
  5
13B
  8
DATA
  6
CONTINUOUS
 62
     7
 10
7.1033785816802171
 20
162.76330549557511
 30
0.0
 11
7.1033785816802171
 21
164.76330549557511
 31
0.0
  0
LINE
  5
13C
  8
DATA
  6
CONTINUOUS
 62
     7
 10
18.103378581680211
 20
164.93528001786811
 30
0.0
 11
18.103378581680211
 21
166.93528001786811
 31
0.0
  0
LINE
  5
13D
  8
DATA
  6
CONTINUOUS
 62
     7
 10
7.1033785816802171
 20
166.06330549557509
 30
0.0
 11
18.103378581680211
 21
168.23528001786809
 31
0.0
  0
LINE
  5
13E
  8
DATA
  6
CONTINUOUS
 62
     7
 10
7.1033785816802171
 20
168.06330549557509
 30
0.0
 11
18.103378581680211
 21
170.23528001786809
 31
0.0
  0
LINE
  5
13F
  8
DATA
  6
CONTINUOUS
 62
     7
 10
7.1033785816802171
 20
166.06330549557509
 30
0.0
 11
7.1033785816802171
 21
168.06330549557509
 31
0.0
  0
LINE
  5
140
  8
DATA
  6
CONTINUOUS
 62
     7
 10
18.103378581680211
 20
168.23528001786809
 30
0.0
 11
18.103378581680211
 21
170.23528001786809
 31
0.0
  0
LINE
  5
141
  8
DATA
  6
CONTINUOUS
 62
     7
 10
7.1033785816802171
 20
174.4633054955751
 30
0.0
 11
18.103378581680211
 21
176.6352800178681
 31
0.0
  0
LINE
  5
142
  8
DATA
  6
CONTINUOUS
 62
     7
 10
7.1033785816802171
 20
176.4633054955751
 30
0.0
 11
18.103378581680211
 21
178.6352800178681
 31
0.0
  0
LINE
  5
143
  8
DATA
  6
CONTINUOUS
 62
     7
 10
7.1033785816802171
 20
174.4633054955751
 30
0.0
 11
7.1033785816802171
 21
176.4633054955751
 31
0.0
  0
LINE
  5
144
  8
DATA
  6
CONTINUOUS
 62
     7
 10
18.103378581680211
 20
176.6352800178681
 30
0.0
 11
18.103378581680211
 21
178.6352800178681
 31
0.0
  0
LINE
  5
145
  8
DATA
  6
CONTINUOUS
 62
     7
 10
7.1033785816802171
 20
177.76330549557511
 30
0.0
 11
18.103378581680211
 21
179.93528001786811
 31
0.0
  0
LINE
  5
146
  8
DATA
  6
CONTINUOUS
 62
     7
 10
7.1033785816802171
 20
179.76330549557511
 30
0.0
 11
18.103378581680211
 21
181.93528001786811
 31
0.0
  0
LINE
  5
147
  8
DATA
  6
CONTINUOUS
 62
     7
 10
7.1033785816802171
 20
177.76330549557511
 30
0.0
 11
7.1033785816802171
 21
179.76330549557511
 31
0.0
  0
LINE
  5
148
  8
DATA
  6
CONTINUOUS
 62
     7
 10
18.103378581680211
 20
179.93528001786811
 30
0.0
 11
18.103378581680211
 21
181.93528001786811
 31
0.0
  0
LINE
  5
149
  8
DATA
  6
CONTINUOUS
 62
     7
 10
7.1033785816802171
 20
181.06330549557509
 30
0.0
 11
18.103378581680211
 21
183.23528001786801
 31
0.0
  0
LINE
  5
14A
  8
DATA
  6
CONTINUOUS
 62
     7
 10
7.1033785816802171
 20
183.06330549557501
 30
0.0
 11
18.103378581680211
 21
185.23528001786801
 31
0.0
  0
LINE
  5
14B
  8
DATA
  6
CONTINUOUS
 62
     7
 10
7.1033785816802171
 20
181.06330549557509
 30
0.0
 11
7.1033785816802171
 21
183.06330549557501
 31
0.0
  0
LINE
  5
14C
  8
DATA
  6
CONTINUOUS
 62
     7
 10
18.103378581680211
 20
183.23528001786801
 30
0.0
 11
18.103378581680211
 21
185.23528001786801
 31
0.0
  0
LINE
  5
14D
  8
DATA
  6
CONTINUOUS
 62
     7
 10
7.1033785816802171
 20
189.46330549557501
 30
0.0
 11
18.103378581680211
 21
191.63528001786801
 31
0.0
  0
LINE
  5
14E
  8
DATA
  6
CONTINUOUS
 62
     7
 10
7.1033785816802171
 20
191.46330549557501
 30
0.0
 11
18.103378581680211
 21
193.63528001786801
 31
0.0
  0
LINE
  5
14F
  8
DATA
  6
CONTINUOUS
 62
     7
 10
7.1033785816802171
 20
189.46330549557501
 30
0.0
 11
7.1033785816802171
 21
191.46330549557501
 31
0.0
  0
LINE
  5
150
  8
DATA
  6
CONTINUOUS
 62
     7
 10
18.103378581680211
 20
191.63528001786801
 30
0.0
 11
18.103378581680211
 21
193.63528001786801
 31
0.0
  0
LINE
  5
151
  8
DATA
  6
CONTINUOUS
 62
     7
 10
7.1033785816802171
 20
192.763305495575
 30
0.0
 11
18.103378581680211
 21
194.935280017868
 31
0.0
  0
LINE
  5
152
  8
DATA
  6
CONTINUOUS
 62
     7
 10
7.1033785816802171
 20
194.763305495575
 30
0.0
 11
18.103378581680211
 21
196.935280017868
 31
0.0
  0
LINE
  5
153
  8
DATA
  6
CONTINUOUS
 62
     7
 10
7.1033785816802171
 20
192.763305495575
 30
0.0
 11
7.1033785816802171
 21
194.763305495575
 31
0.0
  0
LINE
  5
154
  8
DATA
  6
CONTINUOUS
 62
     7
 10
18.103378581680211
 20
194.935280017868
 30
0.0
 11
18.103378581680211
 21
196.935280017868
 31
0.0
  0
LINE
  5
155
  8
DATA
  6
CONTINUOUS
 62
     7
 10
7.1033785816802171
 20
196.06330549557489
 30
0.0
 11
18.103378581680211
 21
198.23528001786801
 31
0.0
  0
LINE
  5
156
  8
DATA
  6
CONTINUOUS
 62
     7
 10
7.1033785816802171
 20
198.06330549557501
 30
0.0
 11
18.103378581680211
 21
200.23528001786801
 31
0.0
  0
LINE
  5
157
  8
DATA
  6
CONTINUOUS
 62
     7
 10
7.1033785816802171
 20
196.06330549557489
 30
0.0
 11
7.1033785816802171
 21
198.06330549557501
 31
0.0
  0
LINE
  5
158
  8
DATA
  6
CONTINUOUS
 62
     7
 10
18.103378581680211
 20
198.23528001786801
 30
0.0
 11
18.103378581680211
 21
200.23528001786801
 31
0.0
  0
LINE
  5
159
  8
DATA
  6
STYLE_01
 62
     7
 10
-9.5000000000000142
 20
-4.499999999852065
 30
0.0
 11
-1.000000000000014
 21
236.50000000014791
 31
0.0
  0
LINE
  5
15A
  8
DATA
  6
STYLE_01
 62
     7
 10
25.999999999999989
 20
236.50000000014791
 30
0.0
 11
34.499999999999993
 21
-4.499999999852065
 31
0.0
  0
LINE
  5
15B
  8
DATA
  6
STYLE_01
 62
     7
 10
-1.000000000000014
 20
236.50000000014791
 30
0.0
 11
26.0
 21
236.50000000014791
 31
0.0
  0
LINE
  5
15C
  8
DATA
  6
STYLE_01
 62
     7
 10
-0.5000000000000142
 20
-22.499999999852061
 30
0.0
 11
-9.5000000000000142
 21
-4.499999999852065
 31
0.0
  0
LINE
  5
15D
  8
DATA
  6
STYLE_01
 62
     7
 10
25.499999999999989
 20
-22.499999999852061
 30
0.0
 11
34.499999999999993
 21
-4.499999999852065
 31
0.0
  0
LINE
  5
15E
  8
DATA
  6
STYLE_01
 62
     7
 10
-0.5000000000000142
 20
-22.726008962381339
 30
0.0
 11
25.499999999999989
 21
-22.726008962381339
 31
0.0
  0
CIRCLE
  5
15F
  8
DATA
  6
STYLE_01
 62
     7
 10
12.49999999999998
 20
287.5
 30
0.0
 40
22.0
  0
CIRCLE
  5
160
  8
DATA
  6
CONTINUOUS
 62
     7
 10
12.49999999999998
 20
287.5
 30
0.0
 40
9.5
  0
LINE
  5
161
  8
DATA
  6
CONTINUOUS
 62
     7
 10
15.1
 20
291.11339292537963
 30
0.0
 11
15.1
 21
296.63728624920998
 31
0.0
  0
LINE
  5
162
  8
DATA
  6
CONTINUOUS
 62
     7
 10
12.49999999999998
 20
289.63430276000332
 30
0.0
 11
12.49999999999998
 21
297.0
 31
0.0
  0
LINE
  5
163
  8
DATA
  6
CONTINUOUS
 62
     7
 10
12.49999999999998
 20
278.0
 30
0.0
 11
12.49999999999998
 21
285.40249242552721
 31
0.0
  0
LINE
  5
164
  8
DATA
  6
CONTINUOUS
 62
     7
 10
9.9000000000000217
 20
278.36271375079002
 30
0.0
 11
9.9000000000000217
 21
284.17417792630891
 31
0.0
  0
LINE
  5
165
  8
DATA
  6
CONTINUOUS
 62
     7
 10
10.217712194856841
 20
287.5
 30
0.0
 11
2.9999999999999849
 21
287.5
 31
0.0
  0
LINE
  5
166
  8
DATA
  6
CONTINUOUS
 62
     7
 10
8.8866070746204144
 20
290.10000000000002
 30
0.0
 11
3.362713750790121
 21
290.10000000000002
 31
0.0
  0
LINE
  5
167
  8
DATA
  6
CONTINUOUS
 62
     7
 10
14.634302760003299
 20
287.5
 30
0.0
 11
21.999999999999989
 21
287.5
 31
0.0
  0
LINE
  5
168
  8
DATA
  6
CONTINUOUS
 62
     7
 10
16.135073183963339
 20
284.89999999999998
 30
0.0
 11
21.637286249209851
 21
284.89999999999998
 31
0.0
  0
LINE
  5
169
  8
DATA
  6
CONTINUOUS
 62
     7
 10
19.177148303078599
 20
294.25763942058842
 30
0.0
 11
15.1
 21
291.11339292537963
 31
0.0
  0
LINE
  5
16A
  8
DATA
  6
CONTINUOUS
 62
     7
 10
20.756919183441038
 20
292.19822153565849
 30
0.0
 11
14.634302760003299
 21
287.5
 31
0.0
  0
LINE
  5
16B
  8
DATA
  6
CONTINUOUS
 62
     7
 10
19.177148303078599
 20
294.25763942058842
 30
0.0
 11
15.1
 21
291.11339292537963
 31
0.0
  0
LINE
  5
16C
  8
DATA
  6
CONTINUOUS
 62
     7
 10
20.756919183441038
 20
292.19822153565849
 30
0.0
 11
14.634302760003299
 21
287.5
 31
0.0
  0
LINE
  5
16D
  8
DATA
  6
CONTINUOUS
 62
     7
 10
5.7423605794106862
 20
294.17714830307978
 30
0.0
 11
8.8866070746204144
 21
290.10000000000002
 31
0.0
  0
LINE
  5
16E
  8
DATA
  6
CONTINUOUS
 62
     7
 10
7.8017784643416359
 20
295.75691918344091
 30
0.0
 11
12.49999999999998
 21
289.63430276000332
 31
0.0
  0
LINE
  5
16F
  8
DATA
  6
CONTINUOUS
 62
     7
 10
17.204258136795129
 20
279.24651859017109
 30
0.0
 11
12.49999999999998
 21
285.40249242552721
 31
0.0
  0
LINE
  5
170
  8
DATA
  6
CONTINUOUS
 62
     7
 10
19.262520266507309
 20
280.82779499377767
 30
0.0
 11
16.135073183963339
 21
284.89999999999998
 31
0.0
  0
LINE
  5
171
  8
DATA
  6
CONTINUOUS
 62
     7
 10
3.9771499201131482
 20
283.30345064180329
 30
0.0
 11
10.217712194856841
 21
287.5
 31
0.0
  0
LINE
  5
172
  8
DATA
  6
CONTINUOUS
 62
     7
 10
5.4310664643034974
 20
281.15333326320763
 30
0.0
 11
9.9000000000000217
 21
284.17417792630891
 31
0.0
  0
LINE
  5
173
  8
DATA
  6
CONTINUOUS
 62
     7
 10
75.0
 20
250.0
 30
0.0
 11
187.5
 21
250.0
 31
0.0
  0
LINE
  5
174
  8
DATA
  6
CONTINUOUS
 62
     7
 10
75.0
 20
250.0
 30
0.0
 11
26.229253112038389
 21
230.0
 31
0.0
  0
LINE
  5
175
  8
DATA
  6
CONTINUOUS
 62
     7
 10
26.229253112038389
 20
230.0
 30
0.0
 11
34.104602363673322
 21
235.93450132454359
 31
0.0
  0
LINE
  5
176
  8
DATA
  6
CONTINUOUS
 62
     7
 10
26.229253112038389
 20
230.0
 30
0.0
 11
36.016756289900762
 21
231.2017542800296
 31
0.0
  0
LINE
  5
177
  8
DATA
  6
CONTINUOUS
 62
     7
 10
75.0
 20
250.0
 30
0.0
 11
30.0
 21
274.16770837402657
 31
0.0
  0
LINE
  5
178
  8
DATA
  6
CONTINUOUS
 62
     7
 10
30.0
 20
274.16770837402657
 30
0.0
 11
39.608268683253861
 21
271.94946476327539
 31
0.0
  0
LINE
  5
179
  8
DATA
  6
CONTINUOUS
 62
     7
 10
30.0
 20
274.16770837402657
 30
0.0
 11
37.211882960708692
 21
267.4425187137067
 31
0.0
  0
ARC
  5
17A
  8
DATA
  6
CONTINUOUS
 62
     7
 10
4.9999999999999849
 20
222.5
 30
0.0
 40
2.0
 50
90.0
 51
180.0
  0
ARC
  5
17B
  8
DATA
  6
CONTINUOUS
 62
     7
 10
19.999999999999979
 20
222.5
 30
0.0
 40
2.0
 50
0.0
 51
90.0
  0
LINE
  5
17C
  8
DATA
  6
CONTINUOUS
 62
     7
 10
103.0
 20
-22.499999999852061
 30
0.0
 11
103.0
 21
222.5
 31
0.0
  0
LINE
  5
17D
  8
DATA
  6
CONTINUOUS
 62
     7
 10
122.0
 20
222.5
 30
0.0
 11
122.0
 21
-22.499999999852061
 31
0.0
  0
LINE
  5
17E
  8
DATA
  6
CONTINUOUS
 62
     7
 10
105.0
 20
224.5
 30
0.0
 11
120.0
 21
224.5
 31
0.0
  0
LINE
  5
17F
  8
DATA
  6
CONTINUOUS
 62
     7
 10
122.0
 20
-22.499999999852061
 30
0.0
 11
103.0
 21
-22.499999999852061
 31
0.0
  0
LINE
  5
180
  8
DATA
  6
CONTINUOUS
 62
     7
 10
106.5
 20
-31.499999999852069
 30
0.0
 11
106.5
 21
-24.499999999852069
 31
0.0
  0
LINE
  5
181
  8
DATA
  6
CONTINUOUS
 62
     7
 10
118.5
 20
-31.499999999852069
 30
0.0
 11
106.5
 21
-31.499999999852069
 31
0.0
  0
LINE
  5
182
  8
DATA
  6
CONTINUOUS
 62
     7
 10
118.5
 20
-24.499999999852069
 30
0.0
 11
118.5
 21
-31.499999999852069
 31
0.0
  0
LINE
  5
183
  8
DATA
  6
CONTINUOUS
 62
     7
 10
106.5
 20
-24.499999999852069
 30
0.0
 11
118.5
 21
-24.499999999852069
 31
0.0
  0
LINE
  5
184
  8
DATA
  6
CONTINUOUS
 62
     7
 10
109.0
 20
-37.499999999852072
 30
0.0
 11
109.0
 21
-32.499999999852058
 31
0.0
  0
LINE
  5
185
  8
DATA
  6
CONTINUOUS
 62
     7
 10
116.0
 20
-37.499999999852072
 30
0.0
 11
116.0
 21
-32.499999999852058
 31
0.0
  0
LINE
  5
186
  8
DATA
  6
CONTINUOUS
 62
     7
 10
109.0
 20
-32.499999999852058
 30
0.0
 11
106.5
 21
-31.499999999852069
 31
0.0
  0
LINE
  5
187
  8
DATA
  6
CONTINUOUS
 62
     7
 10
116.0
 20
-32.499999999852058
 30
0.0
 11
118.5
 21
-31.499999999852069
 31
0.0
  0
LINE
  5
188
  8
DATA
  6
CONTINUOUS
 62
     7
 10
109.0
 20
-32.499999999852058
 30
0.0
 11
116.0
 21
-32.499999999852058
 31
0.0
  0
LINE
  5
189
  8
DATA
  6
CONTINUOUS
 62
     7
 10
116.0
 20
-37.499999999852072
 30
0.0
 11
109.0
 21
-37.499999999852072
 31
0.0
  0
LINE
  5
18A
  8
DATA
  6
CONTINUOUS
 62
     7
 10
106.5
 20
-24.499999999852069
 30
0.0
 11
103.0
 21
-22.499999999852061
 31
0.0
  0
LINE
  5
18B
  8
DATA
  6
CONTINUOUS
 62
     7
 10
118.5
 20
-24.499999999852069
 30
0.0
 11
122.0
 21
-22.499999999852061
 31
0.0
  0
LINE
  5
18C
  8
DATA
  6
CONTINUOUS
 62
     7
 10
122.0
 20
-1.4999999998520639
 30
0.0
 11
103.0
 21
-1.4999999998520639
 31
0.0
  0
LINE
  5
18D
  8
DATA
  6
CONTINUOUS
 62
     7
 10
103.0
 20
212.5
 30
0.0
 11
122.0
 21
212.5
 31
0.0
  0
LINE
  5
18E
  8
DATA
  6
CONTINUOUS
 62
     7
 10
107.2435707052059
 20
-15.664444412991431
 30
0.0
 11
118.2435707052059
 21
-13.49246989069843
 31
0.0
  0
LINE
  5
18F
  8
DATA
  6
CONTINUOUS
 62
     7
 10
107.2435707052059
 20
-13.664444412991431
 30
0.0
 11
118.2435707052059
 21
-11.49246989069843
 31
0.0
  0
LINE
  5
190
  8
DATA
  6
CONTINUOUS
 62
     7
 10
107.2435707052059
 20
-15.664444412991431
 30
0.0
 11
107.2435707052059
 21
-13.664444412991431
 31
0.0
  0
LINE
  5
191
  8
DATA
  6
CONTINUOUS
 62
     7
 10
118.2435707052059
 20
-13.49246989069843
 30
0.0
 11
118.2435707052059
 21
-11.49246989069843
 31
0.0
  0
LINE
  5
192
  8
DATA
  6
CONTINUOUS
 62
     7
 10
107.2435707052059
 20
-11.664444412991431
 30
0.0
 11
118.2435707052059
 21
-9.4924698906984304
 31
0.0
  0
LINE
  5
193
  8
DATA
  6
CONTINUOUS
 62
     7
 10
107.2435707052059
 20
-9.6644444129914273
 30
0.0
 11
118.2435707052059
 21
-7.4924698906984304
 31
0.0
  0
LINE
  5
194
  8
DATA
  6
CONTINUOUS
 62
     7
 10
107.2435707052059
 20
-11.664444412991431
 30
0.0
 11
107.2435707052059
 21
-9.6644444129914273
 31
0.0
  0
LINE
  5
195
  8
DATA
  6
CONTINUOUS
 62
     7
 10
118.2435707052059
 20
-9.4924698906984304
 30
0.0
 11
118.2435707052059
 21
-7.4924698906984304
 31
0.0
  0
LINE
  5
196
  8
DATA
  6
CONTINUOUS
 62
     7
 10
107.2435707052059
 20
-7.6644444129914291
 30
0.0
 11
118.2435707052059
 21
-5.4924698906984304
 31
0.0
  0
LINE
  5
197
  8
DATA
  6
CONTINUOUS
 62
     7
 10
107.2435707052059
 20
-5.6644444129914291
 30
0.0
 11
118.2435707052059
 21
-3.4924698906984299
 31
0.0
  0
LINE
  5
198
  8
DATA
  6
CONTINUOUS
 62
     7
 10
107.2435707052059
 20
-7.6644444129914291
 30
0.0
 11
107.2435707052059
 21
-5.6644444129914291
 31
0.0
  0
LINE
  5
199
  8
DATA
  6
CONTINUOUS
 62
     7
 10
118.2435707052059
 20
-5.4924698906984304
 30
0.0
 11
118.2435707052059
 21
-3.4924698906984299
 31
0.0
  0
LINE
  5
19A
  8
DATA
  6
CONTINUOUS
 62
     7
 10
103.0
 20
11.72820210387979
 30
0.0
 11
107.5939107256828
 21
12.635280017868119
 31
0.0
  0
LINE
  5
19B
  8
DATA
  6
CONTINUOUS
 62
     7
 10
103.0
 20
13.7282021038798
 30
0.0
 11
107.5939107256828
 21
14.635280017868119
 31
0.0
  0
LINE
  5
19C
  8
DATA
  6
CONTINUOUS
 62
     7
 10
107.5939107256828
 20
12.635280017868119
 30
0.0
 11
107.5939107256828
 21
14.635280017868119
 31
0.0
  0
LINE
  5
19D
  8
DATA
  6
CONTINUOUS
 62
     7
 10
108.4905321440025
 20
5.5000000001479341
 30
0.0
 11
103.0
 21
5.5000000001479341
 31
0.0
  0
LINE
  5
19E
  8
DATA
  6
CONTINUOUS
 62
     7
 10
103.0
 20
205.5
 30
0.0
 11
108.4905321440025
 21
205.5
 31
0.0
  0
LINE
  5
19F
  8
DATA
  6
CONTINUOUS
 62
     7
 10
103.0
 20
101.50000000014791
 30
0.0
 11
108.4905321440025
 21
101.50000000014791
 31
0.0
  0
LINE
  5
1A0
  8
DATA
  6
CONTINUOUS
 62
     7
 10
103.0
 20
109.5
 30
0.0
 11
108.4905321440025
 21
109.5
 31
0.0
  0
LINE
  5
1A1
  8
DATA
  6
CONTINUOUS
 62
     7
 10
108.4905321440025
 20
205.5
 30
0.0
 11
108.4905321440025
 21
109.5
 31
0.0
  0
LINE
  5
1A2
  8
DATA
  6
CONTINUOUS
 62
     7
 10
108.4905321440025
 20
101.50000000014791
 30
0.0
 11
108.4905321440025
 21
5.5000000001479341
 31
0.0
  0
LINE
  5
1A3
  8
DATA
  6
CONTINUOUS
 62
     7
 10
103.0
 20
15.028202103879821
 30
0.0
 11
107.5939107256828
 21
15.93528001786814
 31
0.0
  0
LINE
  5
1A4
  8
DATA
  6
CONTINUOUS
 62
     7
 10
103.0
 20
17.028202103879799
 30
0.0
 11
107.5939107256828
 21
17.93528001786812
 31
0.0
  0
LINE
  5
1A5
  8
DATA
  6
CONTINUOUS
 62
     7
 10
107.5939107256828
 20
15.93528001786814
 30
0.0
 11
107.5939107256828
 21
17.93528001786812
 31
0.0
  0
LINE
  5
1A6
  8
DATA
  6
CONTINUOUS
 62
     7
 10
103.0
 20
18.3282021038798
 30
0.0
 11
107.5939107256828
 21
19.235280017868121
 31
0.0
  0
LINE
  5
1A7
  8
DATA
  6
CONTINUOUS
 62
     7
 10
103.0
 20
20.3282021038798
 30
0.0
 11
107.5939107256828
 21
21.235280017868121
 31
0.0
  0
LINE
  5
1A8
  8
DATA
  6
CONTINUOUS
 62
     7
 10
107.5939107256828
 20
19.235280017868121
 30
0.0
 11
107.5939107256828
 21
21.235280017868121
 31
0.0
  0
LINE
  5
1A9
  8
DATA
  6
CONTINUOUS
 62
     7
 10
103.0
 20
26.728202103879809
 30
0.0
 11
107.5939107256828
 21
27.63528001786813
 31
0.0
  0
LINE
  5
1AA
  8
DATA
  6
CONTINUOUS
 62
     7
 10
103.0
 20
28.728202103879809
 30
0.0
 11
107.5939107256828
 21
29.635280017868119
 31
0.0
  0
LINE
  5
1AB
  8
DATA
  6
CONTINUOUS
 62
     7
 10
107.5939107256828
 20
27.63528001786813
 30
0.0
 11
107.5939107256828
 21
29.635280017868119
 31
0.0
  0
LINE
  5
1AC
  8
DATA
  6
CONTINUOUS
 62
     7
 10
103.0
 20
30.028202103879821
 30
0.0
 11
107.5939107256828
 21
30.935280017868141
 31
0.0
  0
LINE
  5
1AD
  8
DATA
  6
CONTINUOUS
 62
     7
 10
103.0
 20
32.028202103879813
 30
0.0
 11
107.5939107256828
 21
32.935280017868131
 31
0.0
  0
LINE
  5
1AE
  8
DATA
  6
CONTINUOUS
 62
     7
 10
107.5939107256828
 20
30.935280017868141
 30
0.0
 11
107.5939107256828
 21
32.935280017868131
 31
0.0
  0
LINE
  5
1AF
  8
DATA
  6
CONTINUOUS
 62
     7
 10
103.0
 20
33.328202103879811
 30
0.0
 11
107.5939107256828
 21
34.235280017868121
 31
0.0
  0
LINE
  5
1B0
  8
DATA
  6
CONTINUOUS
 62
     7
 10
103.0
 20
35.328202103879804
 30
0.0
 11
107.5939107256828
 21
36.235280017868121
 31
0.0
  0
LINE
  5
1B1
  8
DATA
  6
CONTINUOUS
 62
     7
 10
107.5939107256828
 20
34.235280017868121
 30
0.0
 11
107.5939107256828
 21
36.235280017868121
 31
0.0
  0
LINE
  5
1B2
  8
DATA
  6
CONTINUOUS
 62
     7
 10
103.0
 20
41.728202103879809
 30
0.0
 11
107.5939107256828
 21
42.635280017868133
 31
0.0
  0
LINE
  5
1B3
  8
DATA
  6
CONTINUOUS
 62
     7
 10
103.0
 20
43.728202103879809
 30
0.0
 11
107.5939107256828
 21
44.635280017868141
 31
0.0
  0
LINE
  5
1B4
  8
DATA
  6
CONTINUOUS
 62
     7
 10
107.5939107256828
 20
42.635280017868133
 30
0.0
 11
107.5939107256828
 21
44.635280017868141
 31
0.0
  0
LINE
  5
1B5
  8
DATA
  6
CONTINUOUS
 62
     7
 10
103.0
 20
45.028202103879821
 30
0.0
 11
107.5939107256828
 21
45.935280017868138
 31
0.0
  0
LINE
  5
1B6
  8
DATA
  6
CONTINUOUS
 62
     7
 10
103.0
 20
47.028202103879813
 30
0.0
 11
107.5939107256828
 21
47.935280017868131
 31
0.0
  0
LINE
  5
1B7
  8
DATA
  6
CONTINUOUS
 62
     7
 10
107.5939107256828
 20
45.935280017868138
 30
0.0
 11
107.5939107256828
 21
47.935280017868131
 31
0.0
  0
LINE
  5
1B8
  8
DATA
  6
CONTINUOUS
 62
     7
 10
103.0
 20
50.328202103879811
 30
0.0
 11
107.5939107256828
 21
51.235280017868121
 31
0.0
  0
LINE
  5
1B9
  8
DATA
  6
CONTINUOUS
 62
     7
 10
107.5939107256828
 20
49.235280017868121
 30
0.0
 11
107.5939107256828
 21
51.235280017868121
 31
0.0
  0
LINE
  5
1BA
  8
DATA
  6
CONTINUOUS
 62
     7
 10
103.0
 20
56.728202103879823
 30
0.0
 11
107.5939107256828
 21
57.635280017868141
 31
0.0
  0
LINE
  5
1BB
  8
DATA
  6
CONTINUOUS
 62
     7
 10
103.0
 20
58.728202103879809
 30
0.0
 11
107.5939107256828
 21
59.635280017868141
 31
0.0
  0
LINE
  5
1BC
  8
DATA
  6
CONTINUOUS
 62
     7
 10
107.5939107256828
 20
57.635280017868141
 30
0.0
 11
107.5939107256828
 21
59.635280017868141
 31
0.0
  0
LINE
  5
1BD
  8
DATA
  6
CONTINUOUS
 62
     7
 10
103.0
 20
62.028202103879813
 30
0.0
 11
107.5939107256828
 21
62.935280017868138
 31
0.0
  0
LINE
  5
1BE
  8
DATA
  6
CONTINUOUS
 62
     7
 10
107.5939107256828
 20
60.935280017868138
 30
0.0
 11
107.5939107256828
 21
62.935280017868138
 31
0.0
  0
LINE
  5
1BF
  8
DATA
  6
CONTINUOUS
 62
     7
 10
103.0
 20
63.328202103879811
 30
0.0
 11
107.5939107256828
 21
64.235280017868121
 31
0.0
  0
LINE
  5
1C0
  8
DATA
  6
CONTINUOUS
 62
     7
 10
103.0
 20
65.328202103879804
 30
0.0
 11
107.5939107256828
 21
66.235280017868121
 31
0.0
  0
LINE
  5
1C1
  8
DATA
  6
CONTINUOUS
 62
     7
 10
107.5939107256828
 20
64.235280017868121
 30
0.0
 11
107.5939107256828
 21
66.235280017868121
 31
0.0
  0
LINE
  5
1C2
  8
DATA
  6
CONTINUOUS
 62
     7
 10
103.0
 20
71.728202103879809
 30
0.0
 11
107.5939107256828
 21
72.635280017868126
 31
0.0
  0
LINE
  5
1C3
  8
DATA
  6
CONTINUOUS
 62
     7
 10
103.0
 20
73.728202103879809
 30
0.0
 11
107.5939107256828
 21
74.635280017868126
 31
0.0
  0
LINE
  5
1C4
  8
DATA
  6
CONTINUOUS
 62
     7
 10
107.5939107256828
 20
72.635280017868126
 30
0.0
 11
107.5939107256828
 21
74.635280017868126
 31
0.0
  0
LINE
  5
1C5
  8
DATA
  6
CONTINUOUS
 62
     7
 10
103.0
 20
75.028202103879821
 30
0.0
 11
107.5939107256828
 21
75.935280017868124
 31
0.0
  0
LINE
  5
1C6
  8
DATA
  6
CONTINUOUS
 62
     7
 10
103.0
 20
77.028202103879792
 30
0.0
 11
107.5939107256828
 21
77.935280017868067
 31
0.0
  0
LINE
  5
1C7
  8
DATA
  6
CONTINUOUS
 62
     7
 10
107.5939107256828
 20
75.935280017868124
 30
0.0
 11
107.5939107256828
 21
77.935280017868067
 31
0.0
  0
LINE
  5
1C8
  8
DATA
  6
CONTINUOUS
 62
     7
 10
103.0
 20
80.328202103879704
 30
0.0
 11
107.5939107256828
 21
81.235280017868007
 31
0.0
  0
LINE
  5
1C9
  8
DATA
  6
CONTINUOUS
 62
     7
 10
107.5939107256828
 20
79.235280017868035
 30
0.0
 11
107.5939107256828
 21
81.235280017868007
 31
0.0
  0
LINE
  5
1CA
  8
DATA
  6
CONTINUOUS
 62
     7
 10
103.0
 20
86.728202103879696
 30
0.0
 11
107.5939107256828
 21
87.635280017868027
 31
0.0
  0
LINE
  5
1CB
  8
DATA
  6
CONTINUOUS
 62
     7
 10
103.0
 20
88.728202103879696
 30
0.0
 11
107.5939107256828
 21
89.635280017868027
 31
0.0
  0
LINE
  5
1CC
  8
DATA
  6
CONTINUOUS
 62
     7
 10
107.5939107256828
 20
87.635280017868027
 30
0.0
 11
107.5939107256828
 21
89.635280017868027
 31
0.0
  0
LINE
  5
1CD
  8
DATA
  6
CONTINUOUS
 62
     7
 10
103.0
 20
90.028202103879693
 30
0.0
 11
107.5939107256828
 21
90.935280017868024
 31
0.0
  0
LINE
  5
1CE
  8
DATA
  6
CONTINUOUS
 62
     7
 10
103.0
 20
92.028202103879693
 30
0.0
 11
107.5939107256828
 21
92.935280017868024
 31
0.0
  0
LINE
  5
1CF
  8
DATA
  6
CONTINUOUS
 62
     7
 10
107.5939107256828
 20
90.935280017868024
 30
0.0
 11
107.5939107256828
 21
92.935280017868024
 31
0.0
  0
LINE
  5
1D0
  8
DATA
  6
CONTINUOUS
 62
     7
 10
103.0
 20
93.328202103879704
 30
0.0
 11
107.5939107256828
 21
94.235280017868007
 31
0.0
  0
LINE
  5
1D1
  8
DATA
  6
CONTINUOUS
 62
     7
 10
103.0
 20
95.328202103879704
 30
0.0
 11
107.5939107256828
 21
96.235280017868021
 31
0.0
  0
LINE
  5
1D2
  8
DATA
  6
CONTINUOUS
 62
     7
 10
107.5939107256828
 20
94.235280017868007
 30
0.0
 11
107.5939107256828
 21
96.235280017868021
 31
0.0
  0
LINE
  5
1D3
  8
DATA
  6
CONTINUOUS
 62
     7
 10
103.0
 20
115.7282021038798
 30
0.0
 11
107.5939107256828
 21
116.6352800178681
 31
0.0
  0
LINE
  5
1D4
  8
DATA
  6
CONTINUOUS
 62
     7
 10
103.0
 20
117.7282021038798
 30
0.0
 11
107.5939107256828
 21
118.6352800178681
 31
0.0
  0
LINE
  5
1D5
  8
DATA
  6
CONTINUOUS
 62
     7
 10
107.5939107256828
 20
116.6352800178681
 30
0.0
 11
107.5939107256828
 21
118.6352800178681
 31
0.0
  0
LINE
  5
1D6
  8
DATA
  6
CONTINUOUS
 62
     7
 10
103.0
 20
119.02820210387981
 30
0.0
 11
107.5939107256828
 21
119.9352800178681
 31
0.0
  0
LINE
  5
1D7
  8
DATA
  6
CONTINUOUS
 62
     7
 10
103.0
 20
121.02820210387981
 30
0.0
 11
107.5939107256828
 21
121.9352800178681
 31
0.0
  0
LINE
  5
1D8
  8
DATA
  6
CONTINUOUS
 62
     7
 10
107.5939107256828
 20
119.9352800178681
 30
0.0
 11
107.5939107256828
 21
121.9352800178681
 31
0.0
  0
LINE
  5
1D9
  8
DATA
  6
CONTINUOUS
 62
     7
 10
103.0
 20
122.3282021038798
 30
0.0
 11
107.5939107256828
 21
123.23528001786811
 31
0.0
  0
LINE
  5
1DA
  8
DATA
  6
CONTINUOUS
 62
     7
 10
103.0
 20
124.3282021038798
 30
0.0
 11
107.5939107256828
 21
125.23528001786811
 31
0.0
  0
LINE
  5
1DB
  8
DATA
  6
CONTINUOUS
 62
     7
 10
107.5939107256828
 20
123.23528001786811
 30
0.0
 11
107.5939107256828
 21
125.23528001786811
 31
0.0
  0
LINE
  5
1DC
  8
DATA
  6
CONTINUOUS
 62
     7
 10
103.0
 20
130.7282021038798
 30
0.0
 11
107.5939107256828
 21
131.6352800178681
 31
0.0
  0
LINE
  5
1DD
  8
DATA
  6
CONTINUOUS
 62
     7
 10
103.0
 20
132.7282021038798
 30
0.0
 11
107.5939107256828
 21
133.6352800178681
 31
0.0
  0
LINE
  5
1DE
  8
DATA
  6
CONTINUOUS
 62
     7
 10
107.5939107256828
 20
131.6352800178681
 30
0.0
 11
107.5939107256828
 21
133.6352800178681
 31
0.0
  0
LINE
  5
1DF
  8
DATA
  6
CONTINUOUS
 62
     7
 10
103.0
 20
134.02820210387981
 30
0.0
 11
107.5939107256828
 21
134.93528001786811
 31
0.0
  0
LINE
  5
1E0
  8
DATA
  6
CONTINUOUS
 62
     7
 10
103.0
 20
136.02820210387981
 30
0.0
 11
107.5939107256828
 21
136.93528001786811
 31
0.0
  0
LINE
  5
1E1
  8
DATA
  6
CONTINUOUS
 62
     7
 10
107.5939107256828
 20
134.93528001786811
 30
0.0
 11
107.5939107256828
 21
136.93528001786811
 31
0.0
  0
LINE
  5
1E2
  8
DATA
  6
CONTINUOUS
 62
     7
 10
103.0
 20
137.32820210387979
 30
0.0
 11
107.5939107256828
 21
138.23528001786809
 31
0.0
  0
LINE
  5
1E3
  8
DATA
  6
CONTINUOUS
 62
     7
 10
103.0
 20
139.32820210387979
 30
0.0
 11
107.5939107256828
 21
140.23528001786809
 31
0.0
  0
LINE
  5
1E4
  8
DATA
  6
CONTINUOUS
 62
     7
 10
107.5939107256828
 20
138.23528001786809
 30
0.0
 11
107.5939107256828
 21
140.23528001786809
 31
0.0
  0
LINE
  5
1E5
  8
DATA
  6
CONTINUOUS
 62
     7
 10
103.0
 20
145.7282021038798
 30
0.0
 11
107.5939107256828
 21
146.6352800178681
 31
0.0
  0
LINE
  5
1E6
  8
DATA
  6
CONTINUOUS
 62
     7
 10
103.0
 20
147.7282021038798
 30
0.0
 11
107.5939107256828
 21
148.6352800178681
 31
0.0
  0
LINE
  5
1E7
  8
DATA
  6
CONTINUOUS
 62
     7
 10
107.5939107256828
 20
146.6352800178681
 30
0.0
 11
107.5939107256828
 21
148.6352800178681
 31
0.0
  0
LINE
  5
1E8
  8
DATA
  6
CONTINUOUS
 62
     7
 10
103.0
 20
149.02820210387981
 30
0.0
 11
107.5939107256828
 21
149.93528001786811
 31
0.0
  0
LINE
  5
1E9
  8
DATA
  6
CONTINUOUS
 62
     7
 10
103.0
 20
151.02820210387981
 30
0.0
 11
107.5939107256828
 21
151.93528001786811
 31
0.0
  0
LINE
  5
1EA
  8
DATA
  6
CONTINUOUS
 62
     7
 10
107.5939107256828
 20
149.93528001786811
 30
0.0
 11
107.5939107256828
 21
151.93528001786811
 31
0.0
  0
LINE
  5
1EB
  8
DATA
  6
CONTINUOUS
 62
     7
 10
103.0
 20
152.32820210387979
 30
0.0
 11
107.5939107256828
 21
153.23528001786809
 31
0.0
  0
LINE
  5
1EC
  8
DATA
  6
CONTINUOUS
 62
     7
 10
103.0
 20
154.32820210387979
 30
0.0
 11
107.5939107256828
 21
155.23528001786809
 31
0.0
  0
LINE
  5
1ED
  8
DATA
  6
CONTINUOUS
 62
     7
 10
107.5939107256828
 20
153.23528001786809
 30
0.0
 11
107.5939107256828
 21
155.23528001786809
 31
0.0
  0
LINE
  5
1EE
  8
DATA
  6
CONTINUOUS
 62
     7
 10
103.0
 20
162.7282021038798
 30
0.0
 11
107.5939107256828
 21
163.6352800178681
 31
0.0
  0
LINE
  5
1EF
  8
DATA
  6
CONTINUOUS
 62
     7
 10
107.5939107256828
 20
161.6352800178681
 30
0.0
 11
107.5939107256828
 21
163.6352800178681
 31
0.0
  0
LINE
  5
1F0
  8
DATA
  6
CONTINUOUS
 62
     7
 10
103.0
 20
164.02820210387981
 30
0.0
 11
107.5939107256828
 21
164.93528001786811
 31
0.0
  0
LINE
  5
1F1
  8
DATA
  6
CONTINUOUS
 62
     7
 10
103.0
 20
166.02820210387981
 30
0.0
 11
107.5939107256828
 21
166.93528001786811
 31
0.0
  0
LINE
  5
1F2
  8
DATA
  6
CONTINUOUS
 62
     7
 10
107.5939107256828
 20
164.93528001786811
 30
0.0
 11
107.5939107256828
 21
166.93528001786811
 31
0.0
  0
LINE
  5
1F3
  8
DATA
  6
CONTINUOUS
 62
     7
 10
103.0
 20
167.32820210387979
 30
0.0
 11
107.5939107256828
 21
168.23528001786809
 31
0.0
  0
LINE
  5
1F4
  8
DATA
  6
CONTINUOUS
 62
     7
 10
103.0
 20
169.32820210387979
 30
0.0
 11
107.5939107256828
 21
170.23528001786809
 31
0.0
  0
LINE
  5
1F5
  8
DATA
  6
CONTINUOUS
 62
     7
 10
107.5939107256828
 20
168.23528001786809
 30
0.0
 11
107.5939107256828
 21
170.23528001786809
 31
0.0
  0
LINE
  5
1F6
  8
DATA
  6
CONTINUOUS
 62
     7
 10
103.0
 20
175.7282021038798
 30
0.0
 11
107.5939107256828
 21
176.6352800178681
 31
0.0
  0
LINE
  5
1F7
  8
DATA
  6
CONTINUOUS
 62
     7
 10
103.0
 20
177.7282021038798
 30
0.0
 11
107.5939107256828
 21
178.6352800178681
 31
0.0
  0
LINE
  5
1F8
  8
DATA
  6
CONTINUOUS
 62
     7
 10
107.5939107256828
 20
176.6352800178681
 30
0.0
 11
107.5939107256828
 21
178.6352800178681
 31
0.0
  0
LINE
  5
1F9
  8
DATA
  6
CONTINUOUS
 62
     7
 10
103.0
 20
179.02820210387981
 30
0.0
 11
107.5939107256828
 21
179.93528001786811
 31
0.0
  0
LINE
  5
1FA
  8
DATA
  6
CONTINUOUS
 62
     7
 10
103.0
 20
181.02820210387969
 30
0.0
 11
107.5939107256828
 21
181.93528001786811
 31
0.0
  0
LINE
  5
1FB
  8
DATA
  6
CONTINUOUS
 62
     7
 10
107.5939107256828
 20
179.93528001786811
 30
0.0
 11
107.5939107256828
 21
181.93528001786811
 31
0.0
  0
LINE
  5
1FC
  8
DATA
  6
CONTINUOUS
 62
     7
 10
103.0
 20
182.3282021038797
 30
0.0
 11
107.5939107256828
 21
183.23528001786801
 31
0.0
  0
LINE
  5
1FD
  8
DATA
  6
CONTINUOUS
 62
     7
 10
103.0
 20
184.3282021038797
 30
0.0
 11
107.5939107256828
 21
185.23528001786801
 31
0.0
  0
LINE
  5
1FE
  8
DATA
  6
CONTINUOUS
 62
     7
 10
107.5939107256828
 20
183.23528001786801
 30
0.0
 11
107.5939107256828
 21
185.23528001786801
 31
0.0
  0
LINE
  5
1FF
  8
DATA
  6
CONTINUOUS
 62
     7
 10
103.0
 20
190.72820210387971
 30
0.0
 11
107.5939107256828
 21
191.63528001786801
 31
0.0
  0
LINE
  5
200
  8
DATA
  6
CONTINUOUS
 62
     7
 10
103.0
 20
192.72820210387971
 30
0.0
 11
107.5939107256828
 21
193.63528001786801
 31
0.0
  0
LINE
  5
201
  8
DATA
  6
CONTINUOUS
 62
     7
 10
107.5939107256828
 20
191.63528001786801
 30
0.0
 11
107.5939107256828
 21
193.63528001786801
 31
0.0
  0
LINE
  5
202
  8
DATA
  6
CONTINUOUS
 62
     7
 10
103.0
 20
194.02820210387969
 30
0.0
 11
107.5939107256828
 21
194.935280017868
 31
0.0
  0
LINE
  5
203
  8
DATA
  6
CONTINUOUS
 62
     7
 10
103.0
 20
196.02820210387969
 30
0.0
 11
107.5939107256828
 21
196.935280017868
 31
0.0
  0
LINE
  5
204
  8
DATA
  6
CONTINUOUS
 62
     7
 10
107.5939107256828
 20
194.935280017868
 30
0.0
 11
107.5939107256828
 21
196.935280017868
 31
0.0
  0
LINE
  5
205
  8
DATA
  6
CONTINUOUS
 62
     7
 10
103.0
 20
197.3282021038797
 30
0.0
 11
107.5939107256828
 21
198.23528001786801
 31
0.0
  0
LINE
  5
206
  8
DATA
  6
CONTINUOUS
 62
     7
 10
103.0
 20
199.3282021038797
 30
0.0
 11
107.5939107256828
 21
200.23528001786801
 31
0.0
  0
LINE
  5
207
  8
DATA
  6
CONTINUOUS
 62
     7
 10
107.5939107256828
 20
198.23528001786801
 30
0.0
 11
107.5939107256828
 21
200.23528001786801
 31
0.0
  0
LINE
  5
208
  8
DATA
  6
STYLE_01
 62
     7
 10
90.499999999999986
 20
-4.499999999852065
 30
0.0
 11
98.999999999999986
 21
236.50000000014791
 31
0.0
  0
LINE
  5
209
  8
DATA
  6
STYLE_01
 62
     7
 10
126.0
 20
236.50000000014791
 30
0.0
 11
134.5
 21
-4.499999999852065
 31
0.0
  0
LINE
  5
20A
  8
DATA
  6
STYLE_01
 62
     7
 10
98.999999999999986
 20
236.50000000014791
 30
0.0
 11
126.0
 21
236.50000000014791
 31
0.0
  0
LINE
  5
20B
  8
DATA
  6
STYLE_01
 62
     7
 10
99.499999999999986
 20
-22.499999999852061
 30
0.0
 11
90.499999999999986
 21
-4.499999999852065
 31
0.0
  0
LINE
  5
20C
  8
DATA
  6
STYLE_01
 62
     7
 10
125.5
 20
-22.499999999852061
 30
0.0
 11
134.5
 21
-4.499999999852065
 31
0.0
  0
LINE
  5
20D
  8
DATA
  6
STYLE_01
 62
     7
 10
99.499999999999986
 20
-22.726008962381339
 30
0.0
 11
125.5
 21
-22.726008962381339
 31
0.0
  0
ARC
  5
20E
  8
DATA
  6
CONTINUOUS
 62
     7
 10
105.0
 20
222.5
 30
0.0
 40
2.0
 50
90.0
 51
180.0
  0
ARC
  5
20F
  8
DATA
  6
CONTINUOUS
 62
     7
 10
120.0
 20
222.5
 30
0.0
 40
2.0
 50
0.0
 51
90.0
  0
LINE
  5
210
  8
DATA
  6
CONTINUOUS
 62
     7
 10
113.65000000000001
 20
-35.199999999852047
 30
0.0
 11
111.34999999999999
 21
-35.199999999852047
 31
0.0
  0
LINE
  5
211
  8
DATA
  6
CONTINUOUS
 62
     7
 10
112.5
 20
-37.499999999852072
 30
0.0
 11
112.5
 21
-37.5
 31
0.0
  0
LINE
  5
212
  8
DATA
  6
CONTINUOUS
 62
     7
 10
111.34999999999999
 20
-37.499999999852072
 30
0.0
 11
111.34999999999999
 21
-35.199999999852047
 31
0.0
  0
LINE
  5
213
  8
DATA
  6
CONTINUOUS
 62
     7
 10
113.65000000000001
 20
-35.199999999852047
 30
0.0
 11
113.65000000000001
 21
-37.499999999852072
 31
0.0
  0
ENDSEC
  0
EOF
