  0
SECTION
  2
HEADER
  9
$ACADVER
  1
AC1015
  9
$ACADMAINTVER
 70
    20
  9
$DWGCODEPAGE
  3
ANSI_932
  9
$INSBASE
 10
0.0
 20
0.0
 30
0.0
  9
$EXTMIN
 10
-367.1999999999999
 20
-560.8347701062496
 30
0.0
  9
$EXTMAX
 10
367.2000000000001
 20
530.4000000000002
 30
0.0
  9
$LIMMIN
 10
0.0
 20
0.0
  9
$LIMMAX
 10
0.0
 20
0.0
  9
$ORTHOMODE
 70
     0
  9
$REGENMODE
 70
     1
  9
$FILLMODE
 70
     1
  9
$QTEXTMODE
 70
     0
  9
$MIRRTEXT
 70
     1
  9
$LTSCALE
 40
20.32
  9
$ATTMODE
 70
     1
  9
$TEXTSIZE
 40
0.0
  9
$TRACEWID
 40
1.0
  9
$TEXTSTYLE
  7
STANDARD
  9
$CLAYER
  8
DATA
  9
$CELTYPE
  6
ByLayer
  9
$CECOLOR
 62
   256
  9
$CELTSCALE
 40
1.0
  9
$DISPSILH
 70
     0
  9
$DIMSCALE
 40
1.0
  9
$DIMASZ
 40
0.18
  9
$DIMEXO
 40
0.0625
  9
$DIMDLI
 40
0.38
  9
$DIMRND
 40
0.0
  9
$DIMDLE
 40
0.0
  9
$DIMEXE
 40
0.18
  9
$DIMTP
 40
0.0
  9
$DIMTM
 40
0.0
  9
$DIMTXT
 40
0.18
  9
$DIMCEN
 40
0.09
  9
$DIMTSZ
 40
0.0
  9
$DIMTOL
 70
     0
  9
$DIMLIM
 70
     0
  9
$DIMTIH
 70
     1
  9
$DIMTOH
 70
     1
  9
$DIMSE1
 70
     0
  9
$DIMSE2
 70
     0
  9
$DIMTAD
 70
     0
  9
$DIMZIN
 70
     0
  9
$DIMBLK
  1

  9
$DIMASO
 70
     1
  9
$DIMSHO
 70
     1
  9
$DIMPOST
  1

  9
$DIMAPOST
  1

  9
$DIMALT
 70
     0
  9
$DIMALTD
 70
     2
  9
$DIMALTF
 40
25.4
  9
$DIMLFAC
 40
1.0
  9
$DIMTOFL
 70
     0
  9
$DIMTVP
 40
0.0
  9
$DIMTIX
 70
     0
  9
$DIMSOXD
 70
     0
  9
$DIMSAH
 70
     0
  9
$DIMBLK1
  1

  9
$DIMBLK2
  1

  9
$DIMSTYLE
  2
STANDARD
  9
$DIMCLRD
 70
     0
  9
$DIMCLRE
 70
     0
  9
$DIMCLRT
 70
     0
  9
$DIMTFAC
 40
1.0
  9
$DIMGAP
 40
0.09
  9
$DIMJUST
 70
     0
  9
$DIMSD1
 70
     0
  9
$DIMSD2
 70
     0
  9
$DIMTOLJ
 70
     1
  9
$DIMTZIN
 70
     0
  9
$DIMALTZ
 70
     0
  9
$DIMALTTZ
 70
     0
  9
$DIMUPT
 70
     0
  9
$DIMDEC
 70
     4
  9
$DIMTDEC
 70
     4
  9
$DIMALTU
 70
     2
  9
$DIMALTTD
 70
     2
  9
$DIMTXSTY
  7
STANDARD
  9
$DIMAUNIT
 70
     0
  9
$DIMADEC
 70
     0
  9
$DIMALTRND
 40
0.0
  9
$DIMAZIN
 70
     0
  9
$DIMDSEP
 70
    46
  9
$DIMATFIT
 70
     3
  9
$DIMFRAC
 70
     0
  9
$DIMLDRBLK
  1

  9
$DIMLUNIT
 70
     2
  9
$DIMLWD
 70
    -2
  9
$DIMLWE
 70
    -2
  9
$DIMTMOVE
 70
     0
  9
$LUNITS
 70
     2
  9
$LUPREC
 70
     4
  9
$SKETCHINC
 40
0.1
  9
$FILLETRAD
 40
0.0
  9
$AUNITS
 70
     0
  9
$AUPREC
 70
     0
  9
$MENU
  1
acad
  9
$ELEVATION
 40
0.0
  9
$PELEVATION
 40
0.0
  9
$THICKNESS
 40
0.0
  9
$LIMCHECK
 70
     0
  9
$CHAMFERA
 40
0.0
  9
$CHAMFERB
 40
0.0
  9
$CHAMFERC
 40
0.0
  9
$CHAMFERD
 40
0.0
  9
$SKPOLY
 70
     0
  9
$TDCREATE
 40
2457016.769293982
  9
$TDUCREATE
 40
2457016.394293982
  9
$TDUPDATE
 40
2457038.527909364
  9
$TDUUPDATE
 40
2457038.152909364
  9
$TDINDWG
 40
0.0004845023
  9
$TDUSRTIMER
 40
0.0004844444
  9
$USRTIMER
 70
     1
  9
$ANGBASE
 50
0.0
  9
$ANGDIR
 70
     0
  9
$PDMODE
 70
     1
  9
$PDSIZE
 40
-2.0
  9
$PLINEWID
 40
0.0
  9
$SPLFRAME
 70
     0
  9
$SPLINETYPE
 70
     6
  9
$SPLINESEGS
 70
     8
  9
$HANDSEED
  5
56F
  9
$SURFTAB1
 70
     6
  9
$SURFTAB2
 70
     6
  9
$SURFTYPE
 70
     6
  9
$SURFU
 70
     6
  9
$SURFV
 70
     6
  9
$UCSBASE
  2

  9
$UCSNAME
  2

  9
$UCSORG
 10
0.0
 20
0.0
 30
0.0
  9
$UCSXDIR
 10
1.0
 20
0.0
 30
0.0
  9
$UCSYDIR
 10
0.0
 20
1.0
 30
0.0
  9
$UCSORTHOREF
  2

  9
$UCSORTHOVIEW
 70
     0
  9
$UCSORGTOP
 10
0.0
 20
0.0
 30
0.0
  9
$UCSORGBOTTOM
 10
0.0
 20
0.0
 30
0.0
  9
$UCSORGLEFT
 10
0.0
 20
0.0
 30
0.0
  9
$UCSORGRIGHT
 10
0.0
 20
0.0
 30
0.0
  9
$UCSORGFRONT
 10
0.0
 20
0.0
 30
0.0
  9
$UCSORGBACK
 10
0.0
 20
0.0
 30
0.0
  9
$PUCSBASE
  2

  9
$PUCSNAME
  2

  9
$PUCSORG
 10
0.0
 20
0.0
 30
0.0
  9
$PUCSXDIR
 10
1.0
 20
0.0
 30
0.0
  9
$PUCSYDIR
 10
0.0
 20
1.0
 30
0.0
  9
$PUCSORTHOREF
  2

  9
$PUCSORTHOVIEW
 70
     0
  9
$PUCSORGTOP
 10
0.0
 20
0.0
 30
0.0
  9
$PUCSORGBOTTOM
 10
0.0
 20
0.0
 30
0.0
  9
$PUCSORGLEFT
 10
0.0
 20
0.0
 30
0.0
  9
$PUCSORGRIGHT
 10
0.0
 20
0.0
 30
0.0
  9
$PUCSORGFRONT
 10
0.0
 20
0.0
 30
0.0
  9
$PUCSORGBACK
 10
0.0
 20
0.0
 30
0.0
  9
$USERI1
 70
     0
  9
$USERI2
 70
     0
  9
$USERI3
 70
     0
  9
$USERI4
 70
     0
  9
$USERI5
 70
     0
  9
$USERR1
 40
0.0
  9
$USERR2
 40
0.0
  9
$USERR3
 40
0.0
  9
$USERR4
 40
0.0
  9
$USERR5
 40
0.0
  9
$WORLDVIEW
 70
     1
  9
$SHADEDGE
 70
     3
  9
$SHADEDIF
 70
    70
  9
$TILEMODE
 70
     1
  9
$MAXACTVP
 70
    64
  9
$PINSBASE
 10
0.0
 20
0.0
 30
0.0
  9
$PLIMCHECK
 70
     0
  9
$PEXTMIN
 10
1.000000000000000E+20
 20
1.000000000000000E+20
 30
1.000000000000000E+20
  9
$PEXTMAX
 10
-1.000000000000000E+20
 20
-1.000000000000000E+20
 30
-1.000000000000000E+20
  9
$PLIMMIN
 10
0.0
 20
0.0
  9
$PLIMMAX
 10
12.0
 20
9.0
  9
$UNITMODE
 70
     0
  9
$VISRETAIN
 70
     0
  9
$PLINEGEN
 70
     1
  9
$PSLTSCALE
 70
     0
  9
$TREEDEPTH
 70
  3020
  9
$CMLSTYLE
  2
Standard
  9
$CMLJUST
 70
     0
  9
$CMLSCALE
 40
1.0
  9
$PROXYGRAPHICS
 70
     1
  9
$MEASUREMENT
 70
     0
  9
$CELWEIGHT
370
    -1
  9
$ENDCAPS
280
     0
  9
$JOINSTYLE
280
     0
  9
$LWDISPLAY
290
     0
  9
$INSUNITS
 70
     0
  9
$HYPERLINKBASE
  1

  9
$STYLESHEET
  1

  9
$XEDIT
290
     1
  9
$CEPSNTYPE
380
     0
  9
$PSTYLEMODE
290
     1
  9
$FINGERPRINTGUID
  2
{DFBD9140-C538-4E97-893B-4742B9D758AA}
  9
$VERSIONGUID
  2
{4A3CBE68-8E92-4EE6-8E76-948478BCEA14}
  9
$EXTNAMES
290
     1
  9
$PSVPSCALE
 40
0.0
  9
$OLESTARTUP
290
     0
  0
ENDSEC
  0
SECTION
  2
CLASSES
  0
CLASS
  1
ACDBDICTIONARYWDFLT
  2
AcDbDictionaryWithDefault
  3
ObjectDBX Classes
 90
        0
280
     0
281
     0
  0
CLASS
  1
MATERIAL
  2
AcDbMaterial
  3
ObjectDBX Classes
 90
     1153
280
     0
281
     0
  0
CLASS
  1
VISUALSTYLE
  2
AcDbVisualStyle
  3
ObjectDBX Classes
 90
     4095
280
     0
281
     0
  0
CLASS
  1
SCALE
  2
AcDbScale
  3
ObjectDBX Classes
 90
     1153
280
     0
281
     0
  0
CLASS
  1
TABLESTYLE
  2
AcDbTableStyle
  3
ObjectDBX Classes
 90
     4095
280
     0
281
     0
  0
CLASS
  1
MLEADERSTYLE
  2
AcDbMLeaderStyle
  3
ACDB_MLEADERSTYLE_CLASS
 90
     4095
280
     0
281
     0
  0
CLASS
  1
ACDBSECTIONVIEWSTYLE
  2
AcDbSectionViewStyle
  3
ObjectDBX Classes
 90
     1025
280
     0
281
     0
  0
CLASS
  1
ACDBDETAILVIEWSTYLE
  2
AcDbDetailViewStyle
  3
ObjectDBX Classes
 90
     1025
280
     0
281
     0
  0
CLASS
  1
DICTIONARYVAR
  2
AcDbDictionaryVar
  3
ObjectDBX Classes
 90
        0
280
     0
281
     0
  0
CLASS
  1
CELLSTYLEMAP
  2
AcDbCellStyleMap
  3
ObjectDBX Classes
 90
     1152
280
     0
281
     0
  0
CLASS
  1
ACDBPLACEHOLDER
  2
AcDbPlaceHolder
  3
ObjectDBX Classes
 90
        0
280
     0
281
     0
  0
CLASS
  1
LAYOUT
  2
AcDbLayout
  3
ObjectDBX Classes
 90
        0
280
     0
281
     0
  0
ENDSEC
  0
SECTION
  2
TABLES
  0
TABLE
  2
VPORT
  5
4A0
330
0
100
AcDbSymbolTable
 70
     1
  0
VPORT
  5
50C
330
4A0
100
AcDbSymbolTableRecord
100
AcDbViewportTableRecord
  2
*ACTIVE
 70
     0
 10
0.0
 20
0.0
 11
1.0
 21
1.0
 12
0.0000000000004547
 22
-15.21738505312464
 13
0.0
 23
0.0
 14
1.0
 24
1.0
 15
0.0
 25
0.0
 16
0.0
 26
0.0
 36
1.0
 17
0.0
 27
0.0
 37
0.0
 40
1099.219414765564
 41
2.322344322344322
 42
50.0
 43
0.0
 44
0.0
 50
0.0
 51
0.0
 71
     0
 72
  2000
 73
     1
 74
     1
 75
     0
 76
     0
 77
     0
 78
     0
281
     0
 65
     1
110
0.0
120
0.0
130
0.0
111
1.0
121
0.0
131
0.0
112
0.0
122
1.0
132
0.0
 79
     0
146
0.0
1001
ACAD_NAV_VCDISPLAY
1070
     3
  0
ENDTAB
  0
TABLE
  2
LTYPE
  5
49D
330
0
100
AcDbSymbolTable
 70
     2
  0
LTYPE
  5
4F2
330
49D
100
AcDbSymbolTableRecord
100
AcDbLinetypeTableRecord
  2
ByBlock
 70
     0
  3

 72
    65
 73
     0
 40
0.0
  0
LTYPE
  5
4F3
330
49D
100
AcDbSymbolTableRecord
100
AcDbLinetypeTableRecord
  2
ByLayer
 70
     0
  3

 72
    65
 73
     0
 40
0.0
  0
LTYPE
  5
4F4
330
49D
100
AcDbSymbolTableRecord
100
AcDbLinetypeTableRecord
  2
CONTINUOUS
 70
     0
  3
Solid line
 72
    65
 73
     0
 40
0.0
  0
LTYPE
  5
50D
330
49D
100
AcDbSymbolTableRecord
100
AcDbLinetypeTableRecord
  2
STYLE_01
 70
     0
  3

 72
    65
 73
     2
 40
0.4166412353515625
 49
0.208282470703125
 74
     0
 49
-0.2083587646484375
 74
     0
  0
ENDTAB
  0
TABLE
  2
LAYER
  5
49A
330
0
100
AcDbSymbolTable
 70
     5
  0
LAYER
  5
4EC
102
{ACAD_XDICTIONARY
360
51B
102
}
330
49A
100
AcDbSymbolTableRecord
100
AcDbLayerTableRecord
  2
0
 70
     0
 62
     7
  6
CONTINUOUS
370
    -3
390
4A7
  0
LAYER
  5
50B
102
{ACAD_XDICTIONARY
360
51D
102
}
330
49A
100
AcDbSymbolTableRecord
100
AcDbLayerTableRecord
  2
DATA
 70
     0
 62
     7
  6
CONTINUOUS
370
    -3
390
4A7
  0
LAYER
  5
50E
102
{ACAD_XDICTIONARY
360
51F
102
}
330
49A
100
AcDbSymbolTableRecord
100
AcDbLayerTableRecord
  2
HIBINO-BASE
 70
     0
 62
     7
  6
CONTINUOUS
370
    -3
390
4A7
  0
LAYER
  5
50F
102
{ACAD_XDICTIONARY
360
521
102
}
330
49A
100
AcDbSymbolTableRecord
100
AcDbLayerTableRecord
  2
SPEC
 70
     0
 62
     7
  6
CONTINUOUS
370
    -3
390
4A7
  0
LAYER
  5
510
102
{ACAD_XDICTIONARY
360
523
102
}
330
49A
100
AcDbSymbolTableRecord
100
AcDbLayerTableRecord
  2
DIMNSIONS
 70
     0
 62
     7
  6
CONTINUOUS
370
    -3
390
4A7
  0
ENDTAB
  0
TABLE
  2
STYLE
  5
49B
330
0
100
AcDbSymbolTable
 70
     2
  0
STYLE
  5
4ED
330
49B
100
AcDbSymbolTableRecord
100
AcDbTextStyleTableRecord
  2
STANDARD
 70
     0
 40
0.0
 41
1.0
 50
0.0
 71
     0
 42
0.0
  3
txt
  4
BIGFONT.SHX
  0
STYLE
  5
4F1
330
49B
100
AcDbSymbolTableRecord
100
AcDbTextStyleTableRecord
  2
Annotative
 70
     0
 40
0.0
 41
1.0
 50
0.0
 71
     0
 42
0.2
  3
txt
  4

1001
ACADANNOTATIVE
1000
AnnotativeData
1002
{
1070
     1
1070
     1
1002
}
  0
ENDTAB
  0
TABLE
  2
VIEW
  5
49E
330
0
100
AcDbSymbolTable
 70
     0
  0
ENDTAB
  0
TABLE
  2
UCS
  5
49F
330
0
100
AcDbSymbolTable
 70
     0
  0
ENDTAB
  0
TABLE
  2
APPID
  5
4A1
330
0
100
AcDbSymbolTable
 70
     4
  0
APPID
  5
4EE
330
4A1
100
AcDbSymbolTableRecord
100
AcDbRegAppTableRecord
  2
ACAD
 70
     0
  0
APPID
  5
4F5
330
4A1
100
AcDbSymbolTableRecord
100
AcDbRegAppTableRecord
  2
ACADANNOTATIVE
 70
     0
  0
APPID
  5
511
330
4A1
100
AcDbSymbolTableRecord
100
AcDbRegAppTableRecord
  2
ACAD_NAV_VCDISPLAY
 70
     0
  0
APPID
  5
512
330
4A1
100
AcDbSymbolTableRecord
100
AcDbRegAppTableRecord
  2
ACAD_MLEADERVER
 70
     0
  0
ENDTAB
  0
TABLE
  2
DIMSTYLE
  5
4A2
330
0
100
AcDbSymbolTable
 70
     2
100
AcDbDimStyleTable
 71
     0
  0
DIMSTYLE
105
4EF
330
4A2
100
AcDbSymbolTableRecord
100
AcDbDimStyleTableRecord
  2
STANDARD
 70
     0
279
     2
340
4ED
  0
DIMSTYLE
105
4F0
330
4A2
100
AcDbSymbolTableRecord
100
AcDbDimStyleTableRecord
  2
Annotative
 70
     0
340
4ED
1001
ACADANNOTATIVE
1000
AnnotativeData
1002
{
1070
     1
1070
     1
1002
}
  0
ENDTAB
  0
TABLE
  2
BLOCK_RECORD
  5
499
330
0
100
AcDbSymbolTable
 70
     2
  0
BLOCK_RECORD
  5
507
330
499
100
AcDbSymbolTableRecord
100
AcDbBlockTableRecord
  2
*Model_Space
340
50A
  0
BLOCK_RECORD
  5
503
330
499
100
AcDbSymbolTableRecord
100
AcDbBlockTableRecord
  2
*Paper_Space
340
506
  0
BLOCK_RECORD
  5
515
330
499
100
AcDbSymbolTableRecord
100
AcDbBlockTableRecord
  2
$MODEL_SPACE
340
0
  0
BLOCK_RECORD
  5
517
330
499
100
AcDbSymbolTableRecord
100
AcDbBlockTableRecord
  2
$PAPER_SPACE
340
0
  0
ENDTAB
  0
ENDSEC
  0
SECTION
  2
BLOCKS
  0
BLOCK
  5
508
330
507
100
AcDbEntity
  8
0
100
AcDbBlockBegin
  2
*Model_Space
 70
     0
 10
0.0
 20
0.0
 30
0.0
  3
*Model_Space
  1

  0
ENDBLK
  5
509
330
507
100
AcDbEntity
  8
0
100
AcDbBlockEnd
  0
BLOCK
  5
504
330
503
100
AcDbEntity
 67
     1
  8
0
100
AcDbBlockBegin
  2
*Paper_Space
 70
     0
 10
0.0
 20
0.0
 30
0.0
  3
*Paper_Space
  1

  0
ENDBLK
  5
505
330
503
100
AcDbEntity
 67
     1
  8
0
100
AcDbBlockEnd
  0
BLOCK
  5
516
330
515
100
AcDbEntity
  8
0
100
AcDbBlockBegin
  2
$MODEL_SPACE
 70
     0
 10
0.0
 20
0.0
 30
0.0
  3
$MODEL_SPACE
  1

  0
ENDBLK
  5
40A
330
515
100
AcDbEntity
  8
0
100
AcDbBlockEnd
  0
BLOCK
  5
518
330
517
100
AcDbEntity
  8
0
100
AcDbBlockBegin
  2
$PAPER_SPACE
 70
     0
 10
0.0
 20
0.0
 30
0.0
  3
$PAPER_SPACE
  1

  0
ENDBLK
  5
406
330
517
100
AcDbEntity
  8
0
100
AcDbBlockEnd
  0
ENDSEC
  0
SECTION
  2
ENTITIES
  0
LINE
  5
2C
330
507
100
AcDbEntity
  8
HIBINO-BASE
  6
Continuous
 62
     7
100
AcDbLine
 10
-367.1999999999999
 20
530.4000000000002
 30
0.0
 11
367.2000000000001
 21
530.4000000000002
 31
0.0
  0
LINE
  5
2D
330
507
100
AcDbEntity
  8
HIBINO-BASE
  6
Continuous
 62
     7
100
AcDbLine
 10
367.2000000000001
 20
-530.4
 30
0.0
 11
-367.1999999999999
 21
-530.4
 31
0.0
  0
LINE
  5
2E
330
507
100
AcDbEntity
  8
HIBINO-BASE
  6
Continuous
 62
     7
100
AcDbLine
 10
-367.1999999999999
 20
-530.4
 30
0.0
 11
-367.1999999999999
 21
530.4000000000002
 31
0.0
  0
LINE
  5
2F
330
507
100
AcDbEntity
  8
HIBINO-BASE
  6
Continuous
 62
     7
100
AcDbLine
 10
367.2000000000001
 20
530.4000000000002
 30
0.0
 11
367.2000000000001
 21
-530.4
 31
0.0
  0
LINE
  5
30
330
507
100
AcDbEntity
  8
HIBINO-BASE
  6
Continuous
 62
     7
100
AcDbLine
 10
0.000000000000116
 20
-438.5999999999999
 30
0.0
 11
367.2000000000001
 21
-438.5999999999999
 31
0.0
  0
LINE
  5
31
330
507
100
AcDbEntity
  8
HIBINO-BASE
  6
Continuous
 62
     7
100
AcDbLine
 10
0.000000000000116
 20
-530.4
 30
0.0
 11
0.000000000000116
 21
-438.5999999999999
 31
0.0
  0
TEXT
  5
32
330
507
100
AcDbEntity
  8
HIBINO-BASE
 62
     7
100
AcDbText
 10
3.672000000000138
 20
-448.8354687999998
 30
0.0
 40
6.645671874999998
  1
NOTE
 41
0.7
 11
3.672000000000139
 21
-442.1897969249998
 31
0.0
100
AcDbText
 73
     3
  0
LINE
  5
33
330
507
100
AcDbEntity
  8
HIBINO-BASE
  6
Continuous
 62
     7
100
AcDbLine
 10
142.8000000000002
 20
-530.4
 30
0.0
 11
142.8000000000002
 21
-438.5999999999999
 31
0.0
  0
TEXT
  5
34
330
507
100
AcDbEntity
  8
HIBINO-BASE
 62
     7
100
AcDbText
 10
146.4720000000001
 20
-448.8354687999998
 30
0.0
 40
6.645671874999998
  1
TITLE
 41
0.7
 11
146.4720000000001
 21
-442.1897969249998
 31
0.0
100
AcDbText
 73
     3
  0
LINE
  5
35
330
507
100
AcDbEntity
  8
HIBINO-BASE
  6
Continuous
 62
     7
100
AcDbLine
 10
0.000000000000116
 20
-489.5999999999999
 30
0.0
 11
367.2000000000001
 21
-489.5999999999999
 31
0.0
  0
TEXT
  5
36
330
507
100
AcDbEntity
  8
HIBINO-BASE
 62
     7
100
AcDbText
 10
197.4720000000001
 20
-499.6056831999998
 30
0.0
 40
6.645671874999998
  1
DRAWN
 41
0.7
 11
197.4720000000001
 21
-492.9600113249998
 31
0.0
100
AcDbText
 73
     3
  0
TEXT
  5
37
330
507
100
AcDbEntity
  8
HIBINO-BASE
 62
     7
100
AcDbText
 10
95.47200000000016
 20
-499.6056831999998
 30
0.0
 40
6.645671874999998
  1
DATE
 41
0.7
 11
95.47200000000016
 21
-492.9600113249998
 31
0.0
100
AcDbText
 73
     3
  0
TEXT
  5
38
330
507
100
AcDbEntity
  8
HIBINO-BASE
 62
     7
100
AcDbText
 10
54.67200000000016
 20
-499.6056831999998
 30
0.0
 40
6.645671874999998
  1
SCALE
 41
0.7
 11
54.67200000000016
 21
-492.9600113249998
 31
0.0
100
AcDbText
 73
     3
  0
TEXT
  5
39
330
507
100
AcDbEntity
  8
HIBINO-BASE
 62
     7
100
AcDbText
 10
146.4720000000001
 20
-499.6056831999998
 30
0.0
 40
6.645671874999998
  1
DESIGN
 41
0.7
 11
146.4720000000001
 21
-492.9600113249998
 31
0.0
100
AcDbText
 73
     3
  0
TEXT
  5
3A
330
507
100
AcDbEntity
  8
HIBINO-BASE
 62
     7
100
AcDbText
 10
299.4720000000001
 20
-499.6056831999998
 30
0.0
 40
6.645671874999998
  1
DRAWING NO.
 41
0.7
 11
299.4720000000001
 21
-492.9600113249998
 31
0.0
100
AcDbText
 73
     3
  0
TEXT
  5
3B
330
507
100
AcDbEntity
  8
HIBINO-BASE
 62
     7
100
AcDbText
 10
248.4720000000001
 20
-499.6056831999998
 30
0.0
 40
6.645671874999998
  1
CHECK
 41
0.7
 11
248.4720000000001
 21
-492.9600113249998
 31
0.0
100
AcDbText
 73
     3
  0
LINE
  5
3C
330
507
100
AcDbEntity
  8
HIBINO-BASE
  6
Continuous
 62
     7
100
AcDbLine
 10
58.6500000000001
 20
-525.2999999999998
 30
0.0
 11
73.95000000000024
 21
-509.9999999999997
 31
0.0
  0
TEXT
  5
3D
330
507
100
AcDbEntity
  8
HIBINO-BASE
 62
     7
100
AcDbText
 10
56.1000000000001
 20
-514.5244887999999
 30
0.0
 40
6.645671874999998
  1
1
 41
0.7
 11
56.1000000000001
 21
-507.878816925
 31
0.0
100
AcDbText
 73
     3
  0
LINE
  5
3E
330
507
100
AcDbEntity
  8
HIBINO-BASE
  6
Continuous
 62
     7
100
AcDbLine
 10
51.00000000000011
 20
-530.4
 30
0.0
 11
51.00000000000011
 21
-489.5999999999999
 31
0.0
  0
LINE
  5
3F
330
507
100
AcDbEntity
  8
HIBINO-BASE
  6
Continuous
 62
     7
100
AcDbLine
 10
91.79999999999997
 20
-530.4
 30
0.0
 11
91.79999999999997
 21
-489.5999999999999
 31
0.0
  0
LINE
  5
40
330
507
100
AcDbEntity
  8
HIBINO-BASE
  6
Continuous
 62
     7
100
AcDbLine
 10
193.8
 20
-489.5999999999999
 30
0.0
 11
193.8
 21
-530.4
 31
0.0
  0
LINE
  5
41
330
507
100
AcDbEntity
  8
HIBINO-BASE
  6
Continuous
 62
     7
100
AcDbLine
 10
295.8000000000002
 20
-489.5999999999999
 30
0.0
 11
295.8000000000002
 21
-530.4
 31
0.0
  0
LINE
  5
42
330
507
100
AcDbEntity
  8
HIBINO-BASE
  6
Continuous
 62
     7
100
AcDbLine
 10
244.8
 20
-530.4
 30
0.0
 11
244.8
 21
-489.5999999999999
 31
0.0
  0
TEXT
  5
43
330
507
100
AcDbEntity
  8
HIBINO-BASE
 62
     7
100
AcDbText
 10
95.2946832000002
 20
-518.7163215999995
 30
0.0
 40
6.645671874999998
  1
'14.12.
 41
0.7
 11
95.2946832000002
 21
-512.0706497249996
 31
0.0
100
AcDbText
 73
     3
  0
TEXT
  5
44
330
507
100
AcDbEntity
  8
HIBINO-BASE
 62
     7
100
AcDbText
 10
71.40000000000012
 20
-522.1744887999997
 30
0.0
 40
6.645671874999998
  1
4
 41
0.7
 11
71.40000000000012
 21
-515.5288169249997
 31
0.0
100
AcDbText
 73
     3
  0
TEXT
  5
45
330
507
100
AcDbEntity
  8
HIBINO-BASE
 62
     7
100
AcDbText
 10
199.9437048450213
 20
-518.7163215999995
 30
0.0
 40
6.645671874999998
  1
N.Sasaki
 41
0.7
 11
199.9437048450213
 21
-512.0706497249996
 31
0.0
100
AcDbText
 73
     3
  0
TEXT
  5
46
330
507
100
AcDbEntity
  8
HIBINO-BASE
 62
     7
100
AcDbText
 10
15.8440000000002
 20
-522.3379199999999
 30
0.0
 40
13.29134375
  1
A4
 41
0.7
 11
15.8440000000002
 21
-509.0465762499999
 31
0.0
100
AcDbText
 73
     3
  0
TEXT
  5
47
330
507
100
AcDbEntity
  8
HIBINO-BASE
 62
     7
100
AcDbText
 10
3.910000000000153
 20
-500.2873763999998
 30
0.0
 40
6.645671874999998
  1
PAPER SIZE
 41
0.7
 11
3.910000000000153
 21
-493.6417045249998
 31
0.0
100
AcDbText
 73
     3
  0
TEXT
  5
48
330
507
100
AcDbEntity
  8
HIBINO-BASE
 62
     7
100
AcDbText
 10
-331.2639999999997
 20
-556.0347111999996
 30
0.0
 40
14.40017671875
  1
Hibino Corporation
 41
0.7
 11
-331.2639999999997
 21
-541.6345344812497
 31
0.0
100
AcDbText
 73
     3
  0
TEXT
  5
49
330
507
100
AcDbEntity
  8
HIBINO-BASE
 62
     7
100
AcDbText
 10
200.2735600000001
 20
-556.0347111999996
 30
0.0
 40
14.40017671875
  1
ヒビノ株式会社
 41
0.7
 11
200.2735600000001
 21
-541.6345344812497
 31
0.0
100
AcDbText
 73
     3
  0
LINE
  5
4A
330
507
100
AcDbEntity
  8
SPEC
  6
Continuous
 62
     7
100
AcDbLine
 10
-336.5999999999999
 20
489.6
 30
0.0
 11
265.2000000000001
 21
489.6
 31
0.0
  0
LINE
  5
4B
330
507
100
AcDbEntity
  8
SPEC
  6
Continuous
 62
     7
100
AcDbLine
 10
-336.5999999999999
 20
474.3000000000001
 30
0.0
 11
265.2000000000001
 21
474.3000000000001
 31
0.0
  0
LINE
  5
4C
330
507
100
AcDbEntity
  8
SPEC
  6
Continuous
 62
     7
100
AcDbLine
 10
-336.5999999999999
 20
443.7000000000002
 30
0.0
 11
265.2000000000001
 21
443.7000000000002
 31
0.0
  0
LINE
  5
4D
330
507
100
AcDbEntity
  8
SPEC
  6
Continuous
 62
     7
100
AcDbLine
 10
-336.5999999999999
 20
459.0
 30
0.0
 11
265.2000000000001
 21
459.0
 31
0.0
  0
LINE
  5
4E
330
507
100
AcDbEntity
  8
SPEC
  6
Continuous
 62
     7
100
AcDbLine
 10
-336.5999999999999
 20
489.6
 30
0.0
 11
-336.5999999999999
 21
351.9000000000001
 31
0.0
  0
TEXT
  5
4F
330
507
100
AcDbEntity
  8
SPEC
 62
     7
100
AcDbText
 10
-331.4999999999999
 20
495.2845416
 30
0.0
 40
9.968507812499998
  1
仕様
 41
0.7
 11
-331.4999999999999
 21
505.2530494125
 31
0.0
100
AcDbText
 73
     3
  0
LINE
  5
50
330
507
100
AcDbEntity
  8
SPEC
  6
Continuous
 62
     7
100
AcDbLine
 10
-203.9999999999999
 20
489.6
 30
0.0
 11
-203.9999999999999
 21
351.9000000000001
 31
0.0
  0
LINE
  5
51
330
507
100
AcDbEntity
  8
SPEC
  6
Continuous
 62
     7
100
AcDbLine
 10
265.2000000000001
 20
489.6
 30
0.0
 11
265.2000000000001
 21
351.9000000000001
 31
0.0
  0
TEXT
  5
52
330
507
100
AcDbEntity
  8
SPEC
 62
     7
100
AcDbText
 10
-332.9280000000001
 20
446.914720128
 30
0.0
 40
7.753269899999996
  1
周波数特性
 41
0.7
 11
-332.9280000000001
 21
454.667990028
 31
0.0
100
AcDbText
 73
     3
  0
TEXT
  5
53
330
507
100
AcDbEntity
  8
SPEC
 62
     7
100
AcDbText
 10
-332.9280000000001
 20
477.5147201280001
 30
0.0
 40
7.753269899999996
  1
形式
 41
0.7
 11
-332.9280000000001
 21
485.267990028
 31
0.0
100
AcDbText
 73
     3
  0
TEXT
  5
54
330
507
100
AcDbEntity
  8
SPEC
 62
     7
100
AcDbText
 10
-332.9280000000001
 20
462.2147201280001
 30
0.0
 40
7.753269899999996
  1
指向特性
 41
0.7
 11
-332.9280000000001
 21
469.9679900280002
 31
0.0
100
AcDbText
 73
     3
  0
LINE
  5
55
330
507
100
AcDbEntity
  8
SPEC
  6
Continuous
 62
     7
100
AcDbLine
 10
-336.5999999999999
 20
428.3999999999999
 30
0.0
 11
265.2000000000001
 21
428.3999999999999
 31
0.0
  0
LINE
  5
56
330
507
100
AcDbEntity
  8
SPEC
  6
Continuous
 62
     7
100
AcDbLine
 10
-336.5999999999999
 20
413.1000000000001
 30
0.0
 11
265.2000000000001
 21
413.1000000000001
 31
0.0
  0
LINE
  5
57
330
507
100
AcDbEntity
  8
SPEC
  6
Continuous
 62
     7
100
AcDbLine
 10
-336.5999999999999
 20
397.8000000000001
 30
0.0
 11
265.2000000000001
 21
397.8000000000001
 31
0.0
  0
LINE
  5
58
330
507
100
AcDbEntity
  8
SPEC
  6
Continuous
 62
     7
100
AcDbLine
 10
-336.5999999999999
 20
382.5000000000001
 30
0.0
 11
265.2000000000001
 21
382.5000000000001
 31
0.0
  0
LINE
  5
59
330
507
100
AcDbEntity
  8
SPEC
  6
Continuous
 62
     7
100
AcDbLine
 10
-336.5999999999999
 20
367.2000000000001
 30
0.0
 11
265.2000000000001
 21
367.2000000000001
 31
0.0
  0
LINE
  5
5A
330
507
100
AcDbEntity
  8
SPEC
  6
Continuous
 62
     7
100
AcDbLine
 10
-336.5999999999999
 20
351.9000000000001
 30
0.0
 11
265.2000000000001
 21
351.9000000000001
 31
0.0
  0
TEXT
  5
5B
330
507
100
AcDbEntity
  8
SPEC
 62
     7
100
AcDbText
 10
-332.9280000000001
 20
431.6147201279999
 30
0.0
 40
7.753269899999996
  1
開回路感度
 41
0.7
 11
-332.9280000000001
 21
439.367990028
 31
0.0
100
AcDbText
 73
     3
  0
TEXT
  5
5C
330
507
100
AcDbEntity
  8
SPEC
 62
     7
100
AcDbText
 10
-332.9280000000001
 20
416.314720128
 30
0.0
 40
7.753269899999996
  1
最大音圧レベル
 41
0.7
 11
-332.9280000000001
 21
424.067990028
 31
0.0
100
AcDbText
 73
     3
  0
TEXT
  5
5D
330
507
100
AcDbEntity
  8
SPEC
 62
     7
100
AcDbText
 10
-332.9280000000001
 20
401.014720128
 30
0.0
 40
7.753269899999996
  1
等価雑音レベル
 41
0.7
 11
-332.9280000000001
 21
408.7679900280001
 31
0.0
100
AcDbText
 73
     3
  0
TEXT
  5
5E
330
507
100
AcDbEntity
  8
SPEC
 62
     7
100
AcDbText
 10
-332.9280000000001
 20
385.7147201280002
 30
0.0
 40
7.753269899999996
  1
寸法(\U+03C6\U+00D7全長）
 41
0.7
 11
-332.9280000000001
 21
393.4679900280002
 31
0.0
100
AcDbText
 73
     3
  0
TEXT
  5
5F
330
507
100
AcDbEntity
  8
SPEC
 62
     7
100
AcDbText
 10
-332.9280000000001
 20
370.414720128
 30
0.0
 40
7.753269899999996
  1
質量
 41
0.7
 11
-332.9280000000001
 21
378.167990028
 31
0.0
100
AcDbText
 73
     3
  0
TEXT
  5
60
330
507
100
AcDbEntity
  8
SPEC
 62
     7
100
AcDbText
 10
-332.9280000000001
 20
355.114720128
 30
0.0
 40
7.753269899999996
  1
付属品
 41
0.7
 11
-332.9280000000001
 21
362.867990028
 31
0.0
100
AcDbText
 73
     3
  0
TEXT
  5
61
330
507
100
AcDbEntity
  8
SPEC
 62
     7
100
AcDbText
 10
-200.328
 20
385.8846023111113
 30
0.0
 40
7.601258680555553
  1
19\U+00D7525(除突起部)
 41
0.7
 11
-200.328
 21
393.4858609916668
 31
0.0
100
AcDbText
 73
     3
  0
TEXT
  5
62
330
507
100
AcDbEntity
  8
SPEC
 62
     7
100
AcDbText
 10
-200.328
 20
370.414720128
 30
0.0
 40
7.753269899999996
  1
152ｇ
 41
0.7
 11
-200.328
 21
378.167990028
 31
0.0
100
AcDbText
 73
     3
  0
TEXT
  5
63
330
507
100
AcDbEntity
  8
SPEC
 62
     7
100
AcDbText
 10
-200.328
 20
355.114720128
 30
0.0
 40
7.753269899999996
  1
ウインドスクリーン
 41
0.7
 11
-200.328
 21
362.867990028
 31
0.0
100
AcDbText
 73
     3
  0
TEXT
  5
64
330
507
100
AcDbEntity
  8
SPEC
 62
     7
100
AcDbText
 10
-200.328
 20
446.914720128
 30
0.0
 40
7.753269899999996
  1
70Hz～18kHz
 41
0.7
 11
-200.328
 21
454.667990028
 31
0.0
100
AcDbText
 73
     3
  0
TEXT
  5
65
330
507
100
AcDbEntity
  8
SPEC
 62
     7
100
AcDbText
 10
-200.328
 20
477.5147201280001
 30
0.0
 40
7.753269899999996
  1
コンデンサー型 
 41
0.7
 11
-200.328
 21
485.267990028
 31
0.0
100
AcDbText
 73
     3
  0
TEXT
  5
66
330
507
100
AcDbEntity
  8
SPEC
 62
     7
100
AcDbText
 10
-200.328
 20
462.2147201280001
 30
0.0
 40
7.753269899999996
  1
カーディオイド
 41
0.7
 11
-200.328
 21
469.9679900280002
 31
0.0
100
AcDbText
 73
     3
  0
TEXT
  5
67
330
507
100
AcDbEntity
  8
SPEC
 62
     7
100
AcDbText
 10
-200.328
 20
431.6147201280001
 30
0.0
 40
7.753269899999996
  1
-35dB re 1V/Pa
 41
0.7
 11
-200.328
 21
439.3679900280002
 31
0.0
100
AcDbText
 73
     3
  0
TEXT
  5
68
330
507
100
AcDbEntity
  8
SPEC
 62
     7
100
AcDbText
 10
-200.328
 20
416.314720128
 30
0.0
 40
7.753269899999996
  1
125dB SPL(THD1％)
 41
0.7
 11
-200.328
 21
424.067990028
 31
0.0
100
AcDbText
 73
     3
  0
TEXT
  5
69
330
507
100
AcDbEntity
  8
SPEC
 62
     7
100
AcDbText
 10
-200.328
 20
401.014720128
 30
0.0
 40
7.753269899999996
  1
21dB SPL(Aウェイト）
 41
0.7
 11
-200.328
 21
408.7679900280001
 31
0.0
100
AcDbText
 73
     3
  0
TEXT
  5
6A
330
507
100
AcDbEntity
  8
DIMNSIONS
 62
     7
100
AcDbText
 10
-81.59999999999996
 20
-480.3404807999997
 30
0.0
 40
9.968507812499998
  1
(単位：mm)
 41
0.7
 11
-81.59999999999996
 21
-470.3719729874997
 31
0.0
100
AcDbText
 73
     3
  0
LINE
  5
6B
330
507
100
AcDbEntity
  8
DIMNSIONS
  6
Continuous
 62
     7
100
AcDbLine
 10
-217.35
 20
-345.05
 30
0.0
 11
-270.5
 21
-345.05
 31
0.0
  0
LINE
  5
6C
330
507
100
AcDbEntity
  8
DIMNSIONS
  6
Continuous
 62
     7
100
AcDbLine
 10
-208.0
 20
179.95
 30
0.0
 11
-270.5
 21
179.95
 31
0.0
  0
LINE
  5
6D
330
507
100
AcDbEntity
  8
DIMNSIONS
  6
Continuous
 62
     7
100
AcDbLine
 10
-262.5
 20
-345.05
 30
0.0
 11
-262.5
 21
179.95
 31
0.0
  0
LINE
  5
6E
330
507
100
AcDbEntity
  8
DIMNSIONS
  6
Continuous
 62
     7
100
AcDbLine
 10
-262.5
 20
-345.05
 30
0.0
 11
-265.180159180601
 21
-335.0475097656251
 31
0.0
  0
LINE
  5
6F
330
507
100
AcDbEntity
  8
DIMNSIONS
  6
Continuous
 62
     7
100
AcDbLine
 10
-262.5
 20
-345.05
 30
0.0
 11
-259.819840819399
 21
-335.0475097656251
 31
0.0
  0
LINE
  5
70
330
507
100
AcDbEntity
  8
DIMNSIONS
  6
Continuous
 62
     7
100
AcDbLine
 10
-262.5
 20
179.95
 30
0.0
 11
-259.819840819399
 21
169.947509765625
 31
0.0
  0
LINE
  5
71
330
507
100
AcDbEntity
  8
DIMNSIONS
  6
Continuous
 62
     7
100
AcDbLine
 10
-262.5
 20
179.95
 30
0.0
 11
-265.180159180601
 21
169.947509765625
 31
0.0
  0
TEXT
  5
72
330
507
100
AcDbEntity
  8
DIMNSIONS
 62
     7
100
AcDbText
 10
-266.4755555555554
 20
-93.13333333333334
 30
0.0
 40
10.85894097222222
  1
525
 50
90.0
 41
0.7
 11
-277.3344965277777
 21
-93.13333333333334
 31
0.0
100
AcDbText
 73
     3
  0
LINE
  5
73
330
507
100
AcDbEntity
  8
DIMNSIONS
  6
Continuous
 62
     7
100
AcDbLine
 10
-212.25
 20
47.94999999999999
 30
0.0
 11
-233.0
 21
47.94999999999999
 31
0.0
  0
LINE
  5
74
330
507
100
AcDbEntity
  8
DIMNSIONS
  6
Continuous
 62
     7
100
AcDbLine
 10
-212.75
 20
110.95
 30
0.0
 11
-233.0
 21
110.95
 31
0.0
  0
LINE
  5
75
330
507
100
AcDbEntity
  8
DIMNSIONS
  6
Continuous
 62
     7
100
AcDbLine
 10
-225.0
 20
47.94999999999999
 30
0.0
 11
-225.0
 21
110.95
 31
0.0
  0
LINE
  5
76
330
507
100
AcDbEntity
  8
DIMNSIONS
  6
Continuous
 62
     7
100
AcDbLine
 10
-225.0
 20
47.94999999999999
 30
0.0
 11
-227.680159180601
 21
57.95249023437499
 31
0.0
  0
LINE
  5
77
330
507
100
AcDbEntity
  8
DIMNSIONS
  6
Continuous
 62
     7
100
AcDbLine
 10
-225.0
 20
47.94999999999999
 30
0.0
 11
-222.319840819399
 21
57.95249023437499
 31
0.0
  0
LINE
  5
78
330
507
100
AcDbEntity
  8
DIMNSIONS
  6
Continuous
 62
     7
100
AcDbLine
 10
-225.0
 20
110.95
 30
0.0
 11
-222.319840819399
 21
100.947509765625
 31
0.0
  0
LINE
  5
79
330
507
100
AcDbEntity
  8
DIMNSIONS
  6
Continuous
 62
     7
100
AcDbLine
 10
-225.0
 20
110.95
 30
0.0
 11
-227.680159180601
 21
100.947509765625
 31
0.0
  0
TEXT
  5
7A
330
507
100
AcDbEntity
  8
DIMNSIONS
 62
     7
100
AcDbText
 10
-228.9755555555554
 20
65.33888888888888
 30
0.0
 40
10.85894097222222
  1
63.0
 50
90.0
 41
0.7
 11
-239.8344965277777
 21
65.33888888888888
 31
0.0
100
AcDbText
 73
     3
  0
LINE
  5
7B
330
507
100
AcDbEntity
  8
DIMNSIONS
  6
Continuous
 62
     7
100
AcDbLine
 10
-212.25
 20
-222.05
 30
0.0
 11
-233.0
 21
-222.05
 31
0.0
  0
LINE
  5
7C
330
507
100
AcDbEntity
  8
DIMNSIONS
  6
Continuous
 62
     7
100
AcDbLine
 10
-212.25
 20
47.94999999999999
 30
0.0
 11
-233.0
 21
47.94999999999999
 31
0.0
  0
LINE
  5
7D
330
507
100
AcDbEntity
  8
DIMNSIONS
  6
Continuous
 62
     7
100
AcDbLine
 10
-225.0
 20
-222.05
 30
0.0
 11
-225.0
 21
47.94999999999999
 31
0.0
  0
LINE
  5
7E
330
507
100
AcDbEntity
  8
DIMNSIONS
  6
Continuous
 62
     7
100
AcDbLine
 10
-225.0
 20
-222.05
 30
0.0
 11
-227.680159180601
 21
-212.047509765625
 31
0.0
  0
LINE
  5
7F
330
507
100
AcDbEntity
  8
DIMNSIONS
  6
Continuous
 62
     7
100
AcDbLine
 10
-225.0
 20
-222.05
 30
0.0
 11
-222.319840819399
 21
-212.047509765625
 31
0.0
  0
LINE
  5
80
330
507
100
AcDbEntity
  8
DIMNSIONS
  6
Continuous
 62
     7
100
AcDbLine
 10
-225.0
 20
47.94999999999999
 30
0.0
 11
-222.319840819399
 21
37.94750976562499
 31
0.0
  0
LINE
  5
81
330
507
100
AcDbEntity
  8
DIMNSIONS
  6
Continuous
 62
     7
100
AcDbLine
 10
-225.0
 20
47.94999999999999
 30
0.0
 11
-227.680159180601
 21
37.94750976562499
 31
0.0
  0
TEXT
  5
82
330
507
100
AcDbEntity
  8
DIMNSIONS
 62
     7
100
AcDbText
 10
-228.9755555555554
 20
-97.63333333333335
 30
0.0
 40
10.85894097222222
  1
270
 50
90.0
 41
0.7
 11
-239.8344965277777
 21
-97.63333333333335
 31
0.0
100
AcDbText
 73
     3
  0
LINE
  5
83
330
507
100
AcDbEntity
  8
DIMNSIONS
  6
Continuous
 62
     7
100
AcDbLine
 10
-217.35
 20
-345.05
 30
0.0
 11
-233.0
 21
-345.05
 31
0.0
  0
LINE
  5
84
330
507
100
AcDbEntity
  8
DIMNSIONS
  6
Continuous
 62
     7
100
AcDbLine
 10
-213.0
 20
-290.05
 30
0.0
 11
-233.0
 21
-290.05
 31
0.0
  0
LINE
  5
85
330
507
100
AcDbEntity
  8
DIMNSIONS
  6
Continuous
 62
     7
100
AcDbLine
 10
-225.0
 20
-345.05
 30
0.0
 11
-225.0
 21
-290.05
 31
0.0
  0
LINE
  5
86
330
507
100
AcDbEntity
  8
DIMNSIONS
  6
Continuous
 62
     7
100
AcDbLine
 10
-225.0
 20
-345.05
 30
0.0
 11
-227.680159180601
 21
-335.0475097656251
 31
0.0
  0
LINE
  5
87
330
507
100
AcDbEntity
  8
DIMNSIONS
  6
Continuous
 62
     7
100
AcDbLine
 10
-225.0
 20
-345.05
 30
0.0
 11
-222.319840819399
 21
-335.0475097656251
 31
0.0
  0
LINE
  5
88
330
507
100
AcDbEntity
  8
DIMNSIONS
  6
Continuous
 62
     7
100
AcDbLine
 10
-225.0
 20
-290.05
 30
0.0
 11
-222.319840819399
 21
-300.052490234375
 31
0.0
  0
LINE
  5
89
330
507
100
AcDbEntity
  8
DIMNSIONS
  6
Continuous
 62
     7
100
AcDbLine
 10
-225.0
 20
-290.05
 30
0.0
 11
-227.680159180601
 21
-300.052490234375
 31
0.0
  0
TEXT
  5
8A
330
507
100
AcDbEntity
  8
DIMNSIONS
 62
     7
100
AcDbText
 10
-228.9755555555554
 20
-331.6611111111111
 30
0.0
 40
10.85894097222222
  1
55.0
 50
90.0
 41
0.7
 11
-239.8344965277777
 21
-331.6611111111111
 31
0.0
100
AcDbText
 73
     3
  0
LINE
  5
8B
330
507
100
AcDbEntity
  8
DIMNSIONS
  6
Continuous
 62
     7
100
AcDbLine
 10
131.3365418441035
 20
200.0
 30
0.0
 11
112.0
 21
200.0
 31
0.0
  0
LINE
  5
8C
330
507
100
AcDbEntity
  8
DIMNSIONS
  6
Continuous
 62
     7
100
AcDbLine
 10
141.9999999999998
 20
249.0
 30
0.0
 11
112.0
 21
249.0
 31
0.0
  0
LINE
  5
8D
330
507
100
AcDbEntity
  8
DIMNSIONS
  6
Continuous
 62
     7
100
AcDbLine
 10
120.0
 20
200.0
 30
0.0
 11
120.0
 21
249.0
 31
0.0
  0
LINE
  5
8E
330
507
100
AcDbEntity
  8
DIMNSIONS
  6
Continuous
 62
     7
100
AcDbLine
 10
120.0
 20
200.0
 30
0.0
 11
117.319840819399
 21
210.002490234375
 31
0.0
  0
LINE
  5
8F
330
507
100
AcDbEntity
  8
DIMNSIONS
  6
Continuous
 62
     7
100
AcDbLine
 10
120.0
 20
200.0
 30
0.0
 11
122.6801591806009
 21
210.002490234375
 31
0.0
  0
LINE
  5
90
330
507
100
AcDbEntity
  8
DIMNSIONS
  6
Continuous
 62
     7
100
AcDbLine
 10
120.0
 20
249.0
 30
0.0
 11
122.6801591806009
 21
238.9975097656249
 31
0.0
  0
LINE
  5
91
330
507
100
AcDbEntity
  8
DIMNSIONS
  6
Continuous
 62
     7
100
AcDbLine
 10
120.0
 20
249.0
 30
0.0
 11
117.319840819399
 21
238.9975097656249
 31
0.0
  0
TEXT
  5
92
330
507
100
AcDbEntity
  8
DIMNSIONS
 62
     7
100
AcDbText
 10
116.0244444444444
 20
210.3888888888889
 30
0.0
 40
10.85894097222222
  1
49.0
 50
90.0
 41
0.7
 11
105.1655034722222
 21
210.3888888888889
 31
0.0
100
AcDbText
 73
     3
  0
LINE
  5
93
330
507
100
AcDbEntity
  8
DIMNSIONS
  6
Continuous
 62
     7
100
AcDbLine
 10
162.0747670784988
 20
176.0373835392494
 30
0.0
 11
192.0
 21
191.0
 31
0.0
  0
LINE
  5
94
330
507
100
AcDbEntity
  8
DIMNSIONS
  6
Continuous
 62
     7
100
AcDbLine
 10
162.0747670784988
 20
176.0373835392494
 30
0.0
 11
169.8900412957433
 21
182.8310977686971
 31
0.0
  0
LINE
  5
95
330
507
100
AcDbEntity
  8
DIMNSIONS
  6
Continuous
 62
     7
100
AcDbLine
 10
162.0747670784988
 20
176.0373835392494
 30
0.0
 11
172.239850202898
 21
178.0132755393807
 31
0.0
  0
LINE
  5
96
330
507
100
AcDbEntity
  8
DIMNSIONS
  6
Continuous
 62
     7
100
AcDbLine
 10
192.0
 20
191.0
 30
0.0
 11
200.0
 21
191.0
 31
0.0
  0
TEXT
  5
97
330
507
100
AcDbEntity
  8
DIMNSIONS
 62
     7
100
AcDbText
 10
200.0
 20
185.9199999999999
 30
0.0
 40
10.85894097222222
  1
\U+03C627.0
 41
0.7
 11
200.0
 21
196.7789409722221
 31
0.0
100
AcDbText
 73
     3
  0
LINE
  5
98
330
507
100
AcDbEntity
  8
DIMNSIONS
  6
Continuous
 62
     7
100
AcDbLine
 10
-193.388551595906
 20
-406.611448404094
 30
0.0
 11
-175.0
 21
-425.0
 31
0.0
  0
LINE
  5
99
330
507
100
AcDbEntity
  8
DIMNSIONS
  6
Continuous
 62
     7
100
AcDbLine
 10
-193.388551595906
 20
-406.611448404094
 30
0.0
 11
-184.3315672588544
 21
-411.6318168009875
 31
0.0
  0
LINE
  5
9A
330
507
100
AcDbEntity
  8
DIMNSIONS
  6
Continuous
 62
     7
100
AcDbLine
 10
-193.388551595906
 20
-406.611448404094
 30
0.0
 11
-188.0551572767884
 21
-415.4877071406863
 31
0.0
  0
LINE
  5
9B
330
507
100
AcDbEntity
  8
DIMNSIONS
  6
Continuous
 62
     7
100
AcDbLine
 10
-175.0
 20
-425.0
 30
0.0
 11
-124.6666666666666
 21
-425.0
 31
0.0
  0
TEXT
  5
9C
330
507
100
AcDbEntity
  8
DIMNSIONS
 62
     7
100
AcDbText
 10
-167.0
 20
-421.0244444444444
 30
0.0
 40
10.85894097222222
  1
\U+03C618.7
 41
0.7
 11
-167.0
 21
-410.1655034722222
 31
0.0
100
AcDbText
 73
     3
  0
LINE
  5
9D
330
507
100
AcDbEntity
  8
DIMNSIONS
  6
Continuous
 62
     7
100
AcDbLine
 10
-212.75
 20
110.95
 30
0.0
 11
-233.0
 21
110.95
 31
0.0
  0
LINE
  5
9E
330
507
100
AcDbEntity
  8
DIMNSIONS
  6
Continuous
 62
     7
100
AcDbLine
 10
-208.0
 20
179.95
 30
0.0
 11
-233.0
 21
179.95
 31
0.0
  0
LINE
  5
9F
330
507
100
AcDbEntity
  8
DIMNSIONS
  6
Continuous
 62
     7
100
AcDbLine
 10
-225.0
 20
110.95
 30
0.0
 11
-225.0
 21
179.95
 31
0.0
  0
LINE
  5
A0
330
507
100
AcDbEntity
  8
DIMNSIONS
  6
Continuous
 62
     7
100
AcDbLine
 10
-225.0
 20
110.95
 30
0.0
 11
-227.680159180601
 21
120.952490234375
 31
0.0
  0
LINE
  5
A1
330
507
100
AcDbEntity
  8
DIMNSIONS
  6
Continuous
 62
     7
100
AcDbLine
 10
-225.0
 20
110.95
 30
0.0
 11
-222.319840819399
 21
120.952490234375
 31
0.0
  0
LINE
  5
A2
330
507
100
AcDbEntity
  8
DIMNSIONS
  6
Continuous
 62
     7
100
AcDbLine
 10
-225.0
 20
179.95
 30
0.0
 11
-222.319840819399
 21
169.947509765625
 31
0.0
  0
LINE
  5
A3
330
507
100
AcDbEntity
  8
DIMNSIONS
  6
Continuous
 62
     7
100
AcDbLine
 10
-225.0
 20
179.95
 30
0.0
 11
-227.680159180601
 21
169.947509765625
 31
0.0
  0
TEXT
  5
A4
330
507
100
AcDbEntity
  8
DIMNSIONS
 62
     7
100
AcDbText
 10
-228.9755555555554
 20
131.3388888888889
 30
0.0
 40
10.85894097222222
  1
69.0
 50
90.0
 41
0.7
 11
-239.8344965277777
 21
131.3388888888889
 31
0.0
100
AcDbText
 73
     3
  0
LINE
  5
A5
330
507
100
AcDbEntity
  8
DIMNSIONS
  6
Continuous
 62
     7
100
AcDbLine
 10
-213.0
 20
-290.05
 30
0.0
 11
-233.0
 21
-290.05
 31
0.0
  0
LINE
  5
A6
330
507
100
AcDbEntity
  8
DIMNSIONS
  6
Continuous
 62
     7
100
AcDbLine
 10
-212.25
 20
-222.05
 30
0.0
 11
-233.0
 21
-222.05
 31
0.0
  0
LINE
  5
A7
330
507
100
AcDbEntity
  8
DIMNSIONS
  6
Continuous
 62
     7
100
AcDbLine
 10
-225.0
 20
-290.05
 30
0.0
 11
-225.0
 21
-222.05
 31
0.0
  0
LINE
  5
A8
330
507
100
AcDbEntity
  8
DIMNSIONS
  6
Continuous
 62
     7
100
AcDbLine
 10
-225.0
 20
-290.05
 30
0.0
 11
-227.680159180601
 21
-280.047509765625
 31
0.0
  0
LINE
  5
A9
330
507
100
AcDbEntity
  8
DIMNSIONS
  6
Continuous
 62
     7
100
AcDbLine
 10
-225.0
 20
-290.05
 30
0.0
 11
-222.319840819399
 21
-280.047509765625
 31
0.0
  0
LINE
  5
AA
330
507
100
AcDbEntity
  8
DIMNSIONS
  6
Continuous
 62
     7
100
AcDbLine
 10
-225.0
 20
-222.05
 30
0.0
 11
-222.319840819399
 21
-232.052490234375
 31
0.0
  0
LINE
  5
AB
330
507
100
AcDbEntity
  8
DIMNSIONS
  6
Continuous
 62
     7
100
AcDbLine
 10
-225.0
 20
-222.05
 30
0.0
 11
-227.680159180601
 21
-232.052490234375
 31
0.0
  0
TEXT
  5
AC
330
507
100
AcDbEntity
  8
DIMNSIONS
 62
     7
100
AcDbText
 10
-228.9755555555554
 20
-270.1611111111111
 30
0.0
 40
10.85894097222222
  1
68.0
 50
90.0
 41
0.7
 11
-239.8344965277777
 21
-270.1611111111111
 31
0.0
100
AcDbText
 73
     3
  0
LINE
  5
AD
330
507
100
AcDbEntity
  8
DIMNSIONS
  6
Continuous
 62
     7
100
AcDbLine
 10
-213.544
 20
-350.0
 30
0.0
 11
-270.5
 21
-350.0
 31
0.0
  0
LINE
  5
AE
330
507
100
AcDbEntity
  8
DIMNSIONS
  6
Continuous
 62
     7
100
AcDbLine
 10
-217.35
 20
-345.05
 30
0.0
 11
-270.5
 21
-345.05
 31
0.0
  0
LINE
  5
AF
330
507
100
AcDbEntity
  8
DIMNSIONS
  6
Continuous
 62
     7
100
AcDbLine
 10
-262.5
 20
-345.05
 30
0.0
 11
-262.5
 21
-350.0
 31
0.0
  0
LINE
  5
B0
330
507
100
AcDbEntity
  8
DIMNSIONS
  6
Continuous
 62
     7
100
AcDbLine
 10
-262.5
 20
-350.0
 30
0.0
 11
-262.5
 21
-383.6666666666666
 31
0.0
  0
LINE
  5
B1
330
507
100
AcDbEntity
  8
DIMNSIONS
  6
Continuous
 62
     7
100
AcDbLine
 10
-262.5
 20
-350.0
 30
0.0
 11
-259.819840819399
 21
-360.0024902343749
 31
0.0
  0
LINE
  5
B2
330
507
100
AcDbEntity
  8
DIMNSIONS
  6
Continuous
 62
     7
100
AcDbLine
 10
-262.5
 20
-350.0
 30
0.0
 11
-265.180159180601
 21
-360.0024902343749
 31
0.0
  0
LINE
  5
B3
330
507
100
AcDbEntity
  8
DIMNSIONS
  6
Continuous
 62
     7
100
AcDbLine
 10
-262.5
 20
-345.05
 30
0.0
 11
-262.5
 21
-325.05
 31
0.0
  0
LINE
  5
B4
330
507
100
AcDbEntity
  8
DIMNSIONS
  6
Continuous
 62
     7
100
AcDbLine
 10
-262.5
 20
-345.05
 30
0.0
 11
-265.180159180601
 21
-335.0475097656251
 31
0.0
  0
LINE
  5
B5
330
507
100
AcDbEntity
  8
DIMNSIONS
  6
Continuous
 62
     7
100
AcDbLine
 10
-262.5
 20
-345.05
 30
0.0
 11
-259.819840819399
 21
-335.0475097656251
 31
0.0
  0
TEXT
  5
B6
330
507
100
AcDbEntity
  8
DIMNSIONS
 62
     7
100
AcDbText
 10
-266.4755555555554
 20
-383.6666666666666
 30
0.0
 40
10.85894097222222
  1
5.0
 50
90.0
 41
0.7
 11
-277.3344965277777
 21
-383.6666666666666
 31
0.0
100
AcDbText
 73
     3
  0
TEXT
  5
B7
330
507
100
AcDbEntity
  8
DATA
 62
     7
100
AcDbText
 10
200.7615
 20
-484.9859687999996
 30
0.0
 40
9.968507812499998
  1
CS521
 41
0.7
 11
200.7615
 21
-475.0174609874997
 31
0.0
100
AcDbText
 73
     3
  0
TEXT
  5
B8
330
507
100
AcDbEntity
  8
DATA
 62
     7
100
AcDbText
 10
202.1215
 20
-453.4634399999999
 30
0.0
 40
9.968507812499998
  1
AKG
 41
0.7
 11
202.1215
 21
-443.4949321875
 31
0.0
100
AcDbText
 73
     3
  0
TEXT
  5
B9
330
507
100
AcDbEntity
  8
DATA
 62
     7
100
AcDbText
 10
-356.9999999999998
 20
-498.2647866666665
 30
0.0
 40
7.753283854166665
  1
※仕様及び外観は予告なく変更されることがあります。
 41
0.7
 11
-356.9999999999998
 21
-490.5115028124998
 31
0.0
100
AcDbText
 73
     3
  0
TEXT
  5
BA
330
507
100
AcDbEntity
  8
DATA
 62
     7
100
AcDbText
 10
-356.9999999999998
 20
-508.3401199999999
 30
0.0
 40
7.753283854166665
  1
　また、同一商品でも若干の個体差があることがあります。ご了承ください。
 41
0.7
 11
-356.9999999999998
 21
-500.5868361458332
 31
0.0
100
AcDbText
 73
     3
  0
LINE
  5
BB
330
507
100
AcDbEntity
  8
DATA
  6
Continuous
 62
     7
100
AcDbLine
 10
-196.0
 20
-288.4949545454546
 30
0.0
 11
-204.0
 21
-289.4040454545455
 31
0.0
  0
LINE
  5
BC
330
507
100
AcDbEntity
  8
DATA
  6
Continuous
 62
     7
100
AcDbLine
 10
-196.0
 20
-287.9999545454546
 30
0.0
 11
-204.0
 21
-288.9090454545455
 31
0.0
  0
ARC
  5
BD
330
507
100
AcDbEntity
  8
DATA
  6
Continuous
 62
     7
100
AcDbCircle
 10
-200.0
 20
-400.0
 30
0.0
 40
9.350000000000012
100
AcDbArc
 50
98.30166907886507
 51
171.6983309211441
  0
ARC
  5
BE
330
507
100
AcDbEntity
  8
DATA
  6
Continuous
 62
     7
100
AcDbCircle
 10
-200.0
 20
-400.0
 30
0.0
 40
9.349999999999967
100
AcDbArc
 50
188.3016690788728
 51
261.6983309211351
  0
ARC
  5
BF
330
507
100
AcDbEntity
  8
DATA
  6
Continuous
 62
     7
100
AcDbCircle
 10
-200.0
 20
-400.0
 30
0.0
 40
9.349999999999951
100
AcDbArc
 50
278.301669078865
 51
351.6983309211272
  0
ARC
  5
C0
330
507
100
AcDbEntity
  8
DATA
  6
Continuous
 62
     7
100
AcDbCircle
 10
-200.0
 20
-400.0
 30
0.0
 40
9.349999999999994
100
AcDbArc
 50
8.301669078855898
 51
81.69833092113494
  0
ARC
  5
C1
330
507
100
AcDbEntity
  8
DATA
  6
Continuous
 62
     7
100
AcDbCircle
 10
-200.0
 20
-400.0000000000005
 30
0.0
 40
5.549999999999959
100
AcDbArc
 50
103.2865587324756
 51
76.59151904033939
  0
LWPOLYLINE
  5
C2
330
507
100
AcDbEntity
  8
DATA
  6
Continuous
 62
     7
100
AcDbPolyline
 90
        4
 70
     1
 43
0.0
 10
-203.75
 20
-397.0914243581294
 10
-196.25
 20
-397.0914243581294
 10
-196.25
 20
-404.0914243581294
 10
-203.75
 20
-404.0914243581294
  0
LINE
  5
C9
330
507
100
AcDbEntity
  8
DATA
  6
Continuous
 62
     7
100
AcDbLine
 10
-201.287
 20
-394.6012843193963
 30
0.0
 11
-201.287
 21
-395.9000000000015
 31
0.0
  0
LINE
  5
CA
330
507
100
AcDbEntity
  8
DATA
  6
Continuous
 62
     7
100
AcDbLine
 10
-198.713
 20
-394.6012843193963
 30
0.0
 11
-198.713
 21
-395.9000000000015
 31
0.0
  0
LINE
  5
CB
330
507
100
AcDbEntity
  8
DATA
  6
Continuous
 62
     7
100
AcDbLine
 10
-201.287
 20
-395.9000000000015
 30
0.0
 11
-198.713
 21
-395.9000000000015
 31
0.0
  0
CIRCLE
  5
CC
330
507
100
AcDbEntity
  8
DATA
  6
Continuous
 62
     7
100
AcDbCircle
 10
-200.0
 20
-400.0000000000012
 30
0.0
 40
8.5
  0
LINE
  5
CD
330
507
100
AcDbEntity
  8
DATA
  6
Continuous
 62
     7
100
AcDbLine
 10
-201.35
 20
-391.2087153659197
 30
0.0
 11
-198.65
 21
-391.2087153659197
 31
0.0
  0
LINE
  5
CE
330
507
100
AcDbEntity
  8
DATA
  6
Continuous
 62
     7
100
AcDbLine
 10
-203.465
 20
17.50000000000001
 30
0.0
 11
-203.465
 21
-192.5
 31
0.0
  0
LINE
  5
CF
330
507
100
AcDbEntity
  8
DATA
  6
Continuous
 62
     7
100
AcDbLine
 10
-196.535
 20
17.50000000000001
 30
0.0
 11
-196.535
 21
-192.5
 31
0.0
  0
LINE
  5
D0
330
507
100
AcDbEntity
  8
DATA
  6
Continuous
 62
     7
100
AcDbLine
 10
-209.35
 20
-345.05
 30
0.0
 11
-190.65
 21
-345.05
 31
0.0
  0
LINE
  5
D1
330
507
100
AcDbEntity
  8
DATA
  6
Continuous
 62
     7
100
AcDbLine
 10
-194.456
 20
-345.05
 30
0.0
 11
-194.456
 21
-350.0
 31
0.0
  0
LINE
  5
D2
330
507
100
AcDbEntity
  8
DATA
  6
Continuous
 62
     7
100
AcDbLine
 10
-205.544
 20
-345.05
 30
0.0
 11
-205.544
 21
-350.0
 31
0.0
  0
LINE
  5
D3
330
507
100
AcDbEntity
  8
DATA
  6
Continuous
 62
     7
100
AcDbLine
 10
-191.1
 20
-331.19
 30
0.0
 11
-190.65
 21
-345.05
 31
0.0
  0
LINE
  5
D4
330
507
100
AcDbEntity
  8
DATA
  6
Continuous
 62
     7
100
AcDbLine
 10
-208.9
 20
-331.19
 30
0.0
 11
-209.35
 21
-345.05
 31
0.0
  0
LINE
  5
D5
330
507
100
AcDbEntity
  8
DATA
  6
Continuous
 62
     7
100
AcDbLine
 10
-194.456
 20
-350.0
 30
0.0
 11
-205.544
 21
-350.0
 31
0.0
  0
LINE
  5
D6
330
507
100
AcDbEntity
  8
DATA
  6
Continuous
 62
     7
100
AcDbLine
 10
-208.9
 20
-331.19
 30
0.0
 11
-191.1
 21
-331.19
 31
0.0
  0
LINE
  5
D7
330
507
100
AcDbEntity
  8
DATA
  6
Continuous
 62
     7
100
AcDbLine
 10
-205.0
 20
-290.05
 30
0.0
 11
-195.0
 21
-290.05
 31
0.0
  0
LINE
  5
D8
330
507
100
AcDbEntity
  8
DATA
  6
Continuous
 62
     7
100
AcDbLine
 10
-195.0
 20
-290.05
 30
0.0
 11
-194.6
 21
-296.19
 31
0.0
  0
LINE
  5
D9
330
507
100
AcDbEntity
  8
DATA
  6
Continuous
 62
     7
100
AcDbLine
 10
-194.6
 20
-296.19
 30
0.0
 11
-194.1
 21
-301.19
 31
0.0
  0
LINE
  5
DA
330
507
100
AcDbEntity
  8
DATA
  6
Continuous
 62
     7
100
AcDbLine
 10
-194.1
 20
-301.19
 30
0.0
 11
-193.4
 21
-306.19
 31
0.0
  0
LINE
  5
DB
330
507
100
AcDbEntity
  8
DATA
  6
Continuous
 62
     7
100
AcDbLine
 10
-193.4
 20
-306.19
 30
0.0
 11
-192.4
 21
-311.19
 31
0.0
  0
LINE
  5
DC
330
507
100
AcDbEntity
  8
DATA
  6
Continuous
 62
     7
100
AcDbLine
 10
-192.4
 20
-311.19
 30
0.0
 11
-191.8
 21
-316.19
 31
0.0
  0
LINE
  5
DD
330
507
100
AcDbEntity
  8
DATA
  6
Continuous
 62
     7
100
AcDbLine
 10
-191.8
 20
-316.19
 30
0.0
 11
-191.4
 21
-321.19
 31
0.0
  0
LINE
  5
DE
330
507
100
AcDbEntity
  8
DATA
  6
Continuous
 62
     7
100
AcDbLine
 10
-191.4
 20
-321.19
 30
0.0
 11
-191.1
 21
-331.19
 31
0.0
  0
LINE
  5
DF
330
507
100
AcDbEntity
  8
DATA
  6
Continuous
 62
     7
100
AcDbLine
 10
-205.0
 20
-290.05
 30
0.0
 11
-205.4
 21
-296.19
 31
0.0
  0
LINE
  5
E0
330
507
100
AcDbEntity
  8
DATA
  6
Continuous
 62
     7
100
AcDbLine
 10
-205.4
 20
-296.19
 30
0.0
 11
-205.9
 21
-301.19
 31
0.0
  0
LINE
  5
E1
330
507
100
AcDbEntity
  8
DATA
  6
Continuous
 62
     7
100
AcDbLine
 10
-205.9
 20
-301.19
 30
0.0
 11
-206.6
 21
-306.19
 31
0.0
  0
LINE
  5
E2
330
507
100
AcDbEntity
  8
DATA
  6
Continuous
 62
     7
100
AcDbLine
 10
-206.6
 20
-306.19
 30
0.0
 11
-207.6
 21
-311.19
 31
0.0
  0
LINE
  5
E3
330
507
100
AcDbEntity
  8
DATA
  6
Continuous
 62
     7
100
AcDbLine
 10
-207.6
 20
-311.19
 30
0.0
 11
-208.2
 21
-316.19
 31
0.0
  0
LINE
  5
E4
330
507
100
AcDbEntity
  8
DATA
  6
Continuous
 62
     7
100
AcDbLine
 10
-208.2
 20
-316.19
 30
0.0
 11
-208.6
 21
-321.19
 31
0.0
  0
LINE
  5
E5
330
507
100
AcDbEntity
  8
DATA
  6
Continuous
 62
     7
100
AcDbLine
 10
-208.6
 20
-321.19
 30
0.0
 11
-208.9
 21
-331.19
 31
0.0
  0
LINE
  5
E6
330
507
100
AcDbEntity
  8
DATA
  6
Continuous
 62
     7
100
AcDbLine
 10
-200.85
 20
-345.05
 30
0.0
 11
-200.85
 21
-331.19
 31
0.0
  0
LINE
  5
E7
330
507
100
AcDbEntity
  8
DATA
  6
Continuous
 62
     7
100
AcDbLine
 10
-199.15
 20
-345.05
 30
0.0
 11
-199.15
 21
-331.19
 31
0.0
  0
LINE
  5
E8
330
507
100
AcDbEntity
  8
DATA
  6
Continuous
 62
     7
100
AcDbLine
 10
-201.35
 20
-350.0
 30
0.0
 11
-201.35
 21
-345.05
 31
0.0
  0
LINE
  5
E9
330
507
100
AcDbEntity
  8
DATA
  6
Continuous
 62
     7
100
AcDbLine
 10
-198.65
 20
-350.0
 30
0.0
 11
-198.65
 21
-345.05
 31
0.0
  0
LWPOLYLINE
  5
EA
330
507
100
AcDbEntity
  8
DATA
  6
Continuous
 62
     7
100
AcDbPolyline
 90
        4
 70
     1
 43
0.0
 10
-202.25
 20
-398.3414243581294
 10
-197.75
 20
-398.3414243581294
 10
-197.75
 20
-402.8414243581294
 10
-202.25
 20
-402.8414243581294
  0
LWPOLYLINE
  5
F1
330
507
100
AcDbEntity
  8
DATA
  6
Continuous
 62
     7
100
AcDbPolyline
 90
        4
 70
     1
 43
0.0
 10
-199.375
 20
-398.9664243581294
 10
-198.375
 20
-398.9664243581294
 10
-198.375
 20
-399.9664243581294
 10
-199.375
 20
-399.9664243581294
  0
LWPOLYLINE
  5
F8
330
507
100
AcDbEntity
  8
DATA
  6
Continuous
 62
     7
100
AcDbPolyline
 90
        4
 70
     1
 43
0.0
 10
-201.625
 20
-398.9664243581294
 10
-200.625
 20
-398.9664243581294
 10
-200.625
 20
-399.9664243581294
 10
-201.625
 20
-399.9664243581294
  0
LWPOLYLINE
  5
FF
330
507
100
AcDbEntity
  8
DATA
  6
Continuous
 62
     7
100
AcDbPolyline
 90
        4
 70
     1
 43
0.0
 10
-199.375
 20
-401.2164243581294
 10
-198.375
 20
-401.2164243581294
 10
-198.375
 20
-402.2164243581293
 10
-199.375
 20
-402.2164243581293
  0
LWPOLYLINE
  5
106
330
507
100
AcDbEntity
  8
DATA
  6
Continuous
 62
     7
100
AcDbPolyline
 90
        4
 70
     1
 43
0.0
 10
-201.625
 20
-401.2164243581294
 10
-200.625
 20
-401.2164243581294
 10
-200.625
 20
-402.2164243581293
 10
-201.625
 20
-402.2164243581293
  0
LINE
  5
10D
330
507
100
AcDbEntity
  8
DATA
  6
Continuous
 62
     7
100
AcDbLine
 10
-201.35
 20
-391.2087153659197
 30
0.0
 11
-201.35
 21
-390.7479731950238
 31
0.0
  0
LINE
  5
10E
330
507
100
AcDbEntity
  8
DATA
  6
Continuous
 62
     7
100
AcDbLine
 10
-198.65
 20
-391.2087153659197
 30
0.0
 11
-198.65
 21
-390.7479731950238
 31
0.0
  0
LINE
  5
10F
330
507
100
AcDbEntity
  8
DATA
  6
Continuous
 62
     7
100
AcDbLine
 10
-191.208715365919
 20
-398.6500000000014
 30
0.0
 11
-191.208715365919
 21
-401.3500000000012
 31
0.0
  0
LINE
  5
110
330
507
100
AcDbEntity
  8
DATA
  6
Continuous
 62
     7
100
AcDbLine
 10
-191.208715365919
 20
-398.6500000000014
 30
0.0
 11
-190.7479731950232
 21
-398.6500000000014
 31
0.0
  0
LINE
  5
111
330
507
100
AcDbEntity
  8
DATA
  6
Continuous
 62
     7
100
AcDbLine
 10
-191.208715365919
 20
-401.3500000000012
 30
0.0
 11
-190.7479731950232
 21
-401.3500000000012
 31
0.0
  0
LINE
  5
112
330
507
100
AcDbEntity
  8
DATA
  6
Continuous
 62
     7
100
AcDbLine
 10
-208.7912846340808
 20
-398.6500000000014
 30
0.0
 11
-208.7912846340808
 21
-401.3500000000012
 31
0.0
  0
LINE
  5
113
330
507
100
AcDbEntity
  8
DATA
  6
Continuous
 62
     7
100
AcDbLine
 10
-208.7912846340808
 20
-398.6500000000014
 30
0.0
 11
-209.2520268049768
 21
-398.6500000000014
 31
0.0
  0
LINE
  5
114
330
507
100
AcDbEntity
  8
DATA
  6
Continuous
 62
     7
100
AcDbLine
 10
-208.7912846340808
 20
-401.3500000000012
 30
0.0
 11
-209.2520268049768
 21
-401.3500000000012
 31
0.0
  0
LINE
  5
115
330
507
100
AcDbEntity
  8
DATA
  6
Continuous
 62
     7
100
AcDbLine
 10
-201.35
 20
-408.7912846340831
 30
0.0
 11
-198.65
 21
-408.7912846340831
 31
0.0
  0
LINE
  5
116
330
507
100
AcDbEntity
  8
DATA
  6
Continuous
 62
     7
100
AcDbLine
 10
-201.35
 20
-408.7912846340831
 30
0.0
 11
-201.35
 21
-409.2520268049788
 31
0.0
  0
LINE
  5
117
330
507
100
AcDbEntity
  8
DATA
  6
Continuous
 62
     7
100
AcDbLine
 10
-198.65
 20
-408.7912846340831
 30
0.0
 11
-198.65
 21
-409.2520268049788
 31
0.0
  0
LINE
  5
118
330
507
100
AcDbEntity
  8
DATA
  6
Continuous
 62
     7
100
AcDbLine
 10
-204.25
 20
-222.05
 30
0.0
 11
-195.75
 21
-222.05
 31
0.0
  0
LINE
  5
119
330
507
100
AcDbEntity
  8
DATA
  6
Continuous
 62
     7
100
AcDbLine
 10
-196.0
 20
-222.05
 30
0.0
 11
-196.0
 21
-290.05
 31
0.0
  0
LINE
  5
11A
330
507
100
AcDbEntity
  8
DATA
  6
Continuous
 62
     7
100
AcDbLine
 10
-204.0
 20
-222.05
 30
0.0
 11
-204.0
 21
-290.05
 31
0.0
  0
LINE
  5
11B
330
507
100
AcDbEntity
  8
DATA
  6
Continuous
 62
     7
100
AcDbLine
 10
-196.0
 20
-286.4949545454546
 30
0.0
 11
-204.0
 21
-287.4040454545455
 31
0.0
  0
LINE
  5
11C
330
507
100
AcDbEntity
  8
DATA
  6
Continuous
 62
     7
100
AcDbLine
 10
-196.0
 20
-285.9999545454546
 30
0.0
 11
-204.0
 21
-286.9090454545455
 31
0.0
  0
LINE
  5
11D
330
507
100
AcDbEntity
  8
DATA
  6
Continuous
 62
     7
100
AcDbLine
 10
-196.0
 20
-284.4949545454546
 30
0.0
 11
-204.0
 21
-285.4040454545455
 31
0.0
  0
LINE
  5
11E
330
507
100
AcDbEntity
  8
DATA
  6
Continuous
 62
     7
100
AcDbLine
 10
-196.0
 20
-283.9999545454546
 30
0.0
 11
-204.0
 21
-284.9090454545455
 31
0.0
  0
LINE
  5
11F
330
507
100
AcDbEntity
  8
DATA
  6
Continuous
 62
     7
100
AcDbLine
 10
-196.0
 20
-282.4949545454546
 30
0.0
 11
-204.0
 21
-283.4040454545455
 31
0.0
  0
LINE
  5
120
330
507
100
AcDbEntity
  8
DATA
  6
Continuous
 62
     7
100
AcDbLine
 10
-196.0
 20
-281.9999545454546
 30
0.0
 11
-204.0
 21
-282.9090454545455
 31
0.0
  0
LINE
  5
121
330
507
100
AcDbEntity
  8
DATA
  6
Continuous
 62
     7
100
AcDbLine
 10
-196.0
 20
-280.4949545454546
 30
0.0
 11
-204.0
 21
-281.4040454545455
 31
0.0
  0
LINE
  5
122
330
507
100
AcDbEntity
  8
DATA
  6
Continuous
 62
     7
100
AcDbLine
 10
-196.0
 20
-279.9999545454546
 30
0.0
 11
-204.0
 21
-280.9090454545455
 31
0.0
  0
LINE
  5
123
330
507
100
AcDbEntity
  8
DATA
  6
Continuous
 62
     7
100
AcDbLine
 10
-196.0
 20
-278.4949545454546
 30
0.0
 11
-204.0
 21
-279.4040454545455
 31
0.0
  0
LINE
  5
124
330
507
100
AcDbEntity
  8
DATA
  6
Continuous
 62
     7
100
AcDbLine
 10
-196.0
 20
-277.9999545454546
 30
0.0
 11
-204.0
 21
-278.9090454545455
 31
0.0
  0
LINE
  5
125
330
507
100
AcDbEntity
  8
DATA
  6
Continuous
 62
     7
100
AcDbLine
 10
-196.0
 20
-276.4949545454546
 30
0.0
 11
-204.0
 21
-277.4040454545455
 31
0.0
  0
LINE
  5
126
330
507
100
AcDbEntity
  8
DATA
  6
Continuous
 62
     7
100
AcDbLine
 10
-196.0
 20
-275.9999545454546
 30
0.0
 11
-204.0
 21
-276.9090454545455
 31
0.0
  0
LINE
  5
127
330
507
100
AcDbEntity
  8
DATA
  6
Continuous
 62
     7
100
AcDbLine
 10
-196.0
 20
-274.4949545454546
 30
0.0
 11
-204.0
 21
-275.4040454545455
 31
0.0
  0
LINE
  5
128
330
507
100
AcDbEntity
  8
DATA
  6
Continuous
 62
     7
100
AcDbLine
 10
-196.0
 20
-273.9999545454546
 30
0.0
 11
-204.0
 21
-274.9090454545455
 31
0.0
  0
LINE
  5
129
330
507
100
AcDbEntity
  8
DATA
  6
Continuous
 62
     7
100
AcDbLine
 10
-196.0
 20
-272.4949545454546
 30
0.0
 11
-204.0
 21
-273.4040454545455
 31
0.0
  0
LINE
  5
12A
330
507
100
AcDbEntity
  8
DATA
  6
Continuous
 62
     7
100
AcDbLine
 10
-196.0
 20
-271.9999545454546
 30
0.0
 11
-204.0
 21
-272.9090454545455
 31
0.0
  0
LINE
  5
12B
330
507
100
AcDbEntity
  8
DATA
  6
Continuous
 62
     7
100
AcDbLine
 10
-196.0
 20
-270.4949545454546
 30
0.0
 11
-204.0
 21
-271.4040454545455
 31
0.0
  0
LINE
  5
12C
330
507
100
AcDbEntity
  8
DATA
  6
Continuous
 62
     7
100
AcDbLine
 10
-196.0
 20
-269.9999545454546
 30
0.0
 11
-204.0
 21
-270.9090454545455
 31
0.0
  0
LINE
  5
12D
330
507
100
AcDbEntity
  8
DATA
  6
Continuous
 62
     7
100
AcDbLine
 10
-196.0
 20
-268.4949545454546
 30
0.0
 11
-204.0
 21
-269.4040454545455
 31
0.0
  0
LINE
  5
12E
330
507
100
AcDbEntity
  8
DATA
  6
Continuous
 62
     7
100
AcDbLine
 10
-196.0
 20
-267.9999545454546
 30
0.0
 11
-204.0
 21
-268.9090454545455
 31
0.0
  0
LINE
  5
12F
330
507
100
AcDbEntity
  8
DATA
  6
Continuous
 62
     7
100
AcDbLine
 10
-196.0
 20
-266.4949545454546
 30
0.0
 11
-204.0
 21
-267.4040454545455
 31
0.0
  0
LINE
  5
130
330
507
100
AcDbEntity
  8
DATA
  6
Continuous
 62
     7
100
AcDbLine
 10
-196.0
 20
-265.9999545454546
 30
0.0
 11
-204.0
 21
-266.9090454545455
 31
0.0
  0
LINE
  5
131
330
507
100
AcDbEntity
  8
DATA
  6
Continuous
 62
     7
100
AcDbLine
 10
-196.0
 20
-264.4949545454546
 30
0.0
 11
-204.0
 21
-265.4040454545455
 31
0.0
  0
LINE
  5
132
330
507
100
AcDbEntity
  8
DATA
  6
Continuous
 62
     7
100
AcDbLine
 10
-196.0
 20
-263.9999545454546
 30
0.0
 11
-204.0
 21
-264.9090454545455
 31
0.0
  0
LINE
  5
133
330
507
100
AcDbEntity
  8
DATA
  6
Continuous
 62
     7
100
AcDbLine
 10
-196.0
 20
-262.4949545454546
 30
0.0
 11
-204.0
 21
-263.4040454545455
 31
0.0
  0
LINE
  5
134
330
507
100
AcDbEntity
  8
DATA
  6
Continuous
 62
     7
100
AcDbLine
 10
-196.0
 20
-261.9999545454546
 30
0.0
 11
-204.0
 21
-262.9090454545455
 31
0.0
  0
LINE
  5
135
330
507
100
AcDbEntity
  8
DATA
  6
Continuous
 62
     7
100
AcDbLine
 10
-196.0
 20
-260.4949545454546
 30
0.0
 11
-204.0
 21
-261.4040454545455
 31
0.0
  0
LINE
  5
136
330
507
100
AcDbEntity
  8
DATA
  6
Continuous
 62
     7
100
AcDbLine
 10
-196.0
 20
-259.9999545454546
 30
0.0
 11
-204.0
 21
-260.9090454545455
 31
0.0
  0
LINE
  5
137
330
507
100
AcDbEntity
  8
DATA
  6
Continuous
 62
     7
100
AcDbLine
 10
-196.0
 20
-258.4949545454546
 30
0.0
 11
-204.0
 21
-259.4040454545455
 31
0.0
  0
LINE
  5
138
330
507
100
AcDbEntity
  8
DATA
  6
Continuous
 62
     7
100
AcDbLine
 10
-196.0
 20
-257.9999545454546
 30
0.0
 11
-204.0
 21
-258.9090454545455
 31
0.0
  0
LINE
  5
139
330
507
100
AcDbEntity
  8
DATA
  6
Continuous
 62
     7
100
AcDbLine
 10
-196.0
 20
-256.4949545454546
 30
0.0
 11
-204.0
 21
-257.4040454545455
 31
0.0
  0
LINE
  5
13A
330
507
100
AcDbEntity
  8
DATA
  6
Continuous
 62
     7
100
AcDbLine
 10
-196.0
 20
-255.9999545454546
 30
0.0
 11
-204.0
 21
-256.9090454545455
 31
0.0
  0
LINE
  5
13B
330
507
100
AcDbEntity
  8
DATA
  6
Continuous
 62
     7
100
AcDbLine
 10
-196.0
 20
-254.4949545454546
 30
0.0
 11
-204.0
 21
-255.4040454545455
 31
0.0
  0
LINE
  5
13C
330
507
100
AcDbEntity
  8
DATA
  6
Continuous
 62
     7
100
AcDbLine
 10
-196.0
 20
-253.9999545454545
 30
0.0
 11
-204.0
 21
-254.9090454545454
 31
0.0
  0
LINE
  5
13D
330
507
100
AcDbEntity
  8
DATA
  6
Continuous
 62
     7
100
AcDbLine
 10
-196.0
 20
-252.4949545454546
 30
0.0
 11
-204.0
 21
-253.4040454545455
 31
0.0
  0
LINE
  5
13E
330
507
100
AcDbEntity
  8
DATA
  6
Continuous
 62
     7
100
AcDbLine
 10
-196.0
 20
-251.9999545454545
 30
0.0
 11
-204.0
 21
-252.9090454545454
 31
0.0
  0
LINE
  5
13F
330
507
100
AcDbEntity
  8
DATA
  6
Continuous
 62
     7
100
AcDbLine
 10
-196.0
 20
-250.4949545454546
 30
0.0
 11
-204.0
 21
-251.4040454545455
 31
0.0
  0
LINE
  5
140
330
507
100
AcDbEntity
  8
DATA
  6
Continuous
 62
     7
100
AcDbLine
 10
-196.0
 20
-249.9999545454546
 30
0.0
 11
-204.0
 21
-250.9090454545454
 31
0.0
  0
LINE
  5
141
330
507
100
AcDbEntity
  8
DATA
  6
Continuous
 62
     7
100
AcDbLine
 10
-196.0
 20
-248.4949545454546
 30
0.0
 11
-204.0
 21
-249.4040454545455
 31
0.0
  0
LINE
  5
142
330
507
100
AcDbEntity
  8
DATA
  6
Continuous
 62
     7
100
AcDbLine
 10
-196.0
 20
-247.9999545454546
 30
0.0
 11
-204.0
 21
-248.9090454545454
 31
0.0
  0
LINE
  5
143
330
507
100
AcDbEntity
  8
DATA
  6
Continuous
 62
     7
100
AcDbLine
 10
-196.0
 20
-246.4949545454546
 30
0.0
 11
-204.0
 21
-247.4040454545455
 31
0.0
  0
LINE
  5
144
330
507
100
AcDbEntity
  8
DATA
  6
Continuous
 62
     7
100
AcDbLine
 10
-196.0
 20
-245.9999545454546
 30
0.0
 11
-204.0
 21
-246.9090454545455
 31
0.0
  0
LINE
  5
145
330
507
100
AcDbEntity
  8
DATA
  6
Continuous
 62
     7
100
AcDbLine
 10
-196.0
 20
-244.4949545454546
 30
0.0
 11
-204.0
 21
-245.4040454545455
 31
0.0
  0
LINE
  5
146
330
507
100
AcDbEntity
  8
DATA
  6
Continuous
 62
     7
100
AcDbLine
 10
-196.0
 20
-243.9999545454546
 30
0.0
 11
-204.0
 21
-244.9090454545455
 31
0.0
  0
LINE
  5
147
330
507
100
AcDbEntity
  8
DATA
  6
Continuous
 62
     7
100
AcDbLine
 10
-196.0
 20
-242.4949545454546
 30
0.0
 11
-204.0
 21
-243.4040454545455
 31
0.0
  0
LINE
  5
148
330
507
100
AcDbEntity
  8
DATA
  6
Continuous
 62
     7
100
AcDbLine
 10
-196.0
 20
-241.9999545454546
 30
0.0
 11
-204.0
 21
-242.9090454545455
 31
0.0
  0
LINE
  5
149
330
507
100
AcDbEntity
  8
DATA
  6
Continuous
 62
     7
100
AcDbLine
 10
-196.0
 20
-240.4949545454546
 30
0.0
 11
-204.0
 21
-241.4040454545455
 31
0.0
  0
LINE
  5
14A
330
507
100
AcDbEntity
  8
DATA
  6
Continuous
 62
     7
100
AcDbLine
 10
-196.0
 20
-239.9999545454546
 30
0.0
 11
-204.0
 21
-240.9090454545455
 31
0.0
  0
LINE
  5
14B
330
507
100
AcDbEntity
  8
DATA
  6
Continuous
 62
     7
100
AcDbLine
 10
-196.0
 20
-238.4949545454546
 30
0.0
 11
-204.0
 21
-239.4040454545454
 31
0.0
  0
LINE
  5
14C
330
507
100
AcDbEntity
  8
DATA
  6
Continuous
 62
     7
100
AcDbLine
 10
-196.0
 20
-237.9999545454546
 30
0.0
 11
-204.0
 21
-238.9090454545454
 31
0.0
  0
LINE
  5
14D
330
507
100
AcDbEntity
  8
DATA
  6
Continuous
 62
     7
100
AcDbLine
 10
-196.0
 20
-236.4949545454546
 30
0.0
 11
-204.0
 21
-237.4040454545454
 31
0.0
  0
LINE
  5
14E
330
507
100
AcDbEntity
  8
DATA
  6
Continuous
 62
     7
100
AcDbLine
 10
-196.0
 20
-235.9999545454546
 30
0.0
 11
-204.0
 21
-236.9090454545454
 31
0.0
  0
LINE
  5
14F
330
507
100
AcDbEntity
  8
DATA
  6
Continuous
 62
     7
100
AcDbLine
 10
-196.0
 20
-234.4949545454546
 30
0.0
 11
-204.0
 21
-235.4040454545454
 31
0.0
  0
LINE
  5
150
330
507
100
AcDbEntity
  8
DATA
  6
Continuous
 62
     7
100
AcDbLine
 10
-196.0
 20
-233.9999545454546
 30
0.0
 11
-204.0
 21
-234.9090454545454
 31
0.0
  0
LINE
  5
151
330
507
100
AcDbEntity
  8
DATA
  6
Continuous
 62
     7
100
AcDbLine
 10
-196.0
 20
-232.4949545454546
 30
0.0
 11
-204.0
 21
-233.4040454545455
 31
0.0
  0
LINE
  5
152
330
507
100
AcDbEntity
  8
DATA
  6
Continuous
 62
     7
100
AcDbLine
 10
-196.0
 20
-231.9999545454546
 30
0.0
 11
-204.0
 21
-232.9090454545454
 31
0.0
  0
LINE
  5
153
330
507
100
AcDbEntity
  8
DATA
  6
Continuous
 62
     7
100
AcDbLine
 10
-196.0
 20
-230.4949545454546
 30
0.0
 11
-204.0
 21
-231.4040454545455
 31
0.0
  0
LINE
  5
154
330
507
100
AcDbEntity
  8
DATA
  6
Continuous
 62
     7
100
AcDbLine
 10
-196.0
 20
-229.9999545454546
 30
0.0
 11
-204.0
 21
-230.9090454545454
 31
0.0
  0
LINE
  5
155
330
507
100
AcDbEntity
  8
DATA
  6
Continuous
 62
     7
100
AcDbLine
 10
-196.0
 20
-228.4949545454546
 30
0.0
 11
-204.0
 21
-229.4040454545455
 31
0.0
  0
LINE
  5
156
330
507
100
AcDbEntity
  8
DATA
  6
Continuous
 62
     7
100
AcDbLine
 10
-196.0
 20
-227.9999545454546
 30
0.0
 11
-204.0
 21
-228.9090454545454
 31
0.0
  0
LINE
  5
157
330
507
100
AcDbEntity
  8
DATA
  6
Continuous
 62
     7
100
AcDbLine
 10
-196.0
 20
-226.4949545454546
 30
0.0
 11
-204.0
 21
-227.4040454545455
 31
0.0
  0
LINE
  5
158
330
507
100
AcDbEntity
  8
DATA
  6
Continuous
 62
     7
100
AcDbLine
 10
-196.0
 20
-225.9999545454546
 30
0.0
 11
-204.0
 21
-226.9090454545454
 31
0.0
  0
LINE
  5
159
330
507
100
AcDbEntity
  8
DATA
  6
Continuous
 62
     7
100
AcDbLine
 10
-196.0
 20
-224.4949545454546
 30
0.0
 11
-204.0
 21
-225.4040454545455
 31
0.0
  0
LINE
  5
15A
330
507
100
AcDbEntity
  8
DATA
  6
Continuous
 62
     7
100
AcDbLine
 10
-196.0
 20
-223.9999545454546
 30
0.0
 11
-204.0
 21
-224.9090454545454
 31
0.0
  0
LINE
  5
15B
330
507
100
AcDbEntity
  8
DATA
  6
Continuous
 62
     7
100
AcDbLine
 10
-196.0
 20
-222.4949545454546
 30
0.0
 11
-204.0
 21
-223.4040454545455
 31
0.0
  0
LINE
  5
15C
330
507
100
AcDbEntity
  8
DATA
  6
Continuous
 62
     7
100
AcDbLine
 10
-196.4403999999992
 20
-222.05
 30
0.0
 11
-204.0
 21
-222.9090454545454
 31
0.0
  0
LINE
  5
15D
330
507
100
AcDbEntity
  8
DATA
  6
Continuous
 62
     7
100
AcDbLine
 10
-195.75
 20
-222.05
 30
0.0
 11
-195.75
 21
-197.0
 31
0.0
  0
LINE
  5
15E
330
507
100
AcDbEntity
  8
DATA
  6
Continuous
 62
     7
100
AcDbLine
 10
-204.25
 20
-222.05
 30
0.0
 11
-204.25
 21
-197.0
 31
0.0
  0
LINE
  5
15F
330
507
100
AcDbEntity
  8
DATA
  6
Continuous
 62
     7
100
AcDbLine
 10
-196.25
 20
-192.5
 30
0.0
 11
-195.75
 21
-197.0
 31
0.0
  0
LINE
  5
160
330
507
100
AcDbEntity
  8
DATA
  6
Continuous
 62
     7
100
AcDbLine
 10
-204.25
 20
-197.0
 30
0.0
 11
-203.75
 21
-192.5
 31
0.0
  0
LINE
  5
161
330
507
100
AcDbEntity
  8
DATA
  6
Continuous
 62
     7
100
AcDbLine
 10
-203.75
 20
-192.5
 30
0.0
 11
-196.25
 21
-192.5
 31
0.0
  0
LINE
  5
162
330
507
100
AcDbEntity
  8
DATA
  6
Continuous
 62
     7
100
AcDbLine
 10
-204.25
 20
47.94999999999999
 30
0.0
 11
-195.75
 21
47.94999999999999
 31
0.0
  0
LINE
  5
163
330
507
100
AcDbEntity
  8
DATA
  6
Continuous
 62
     7
100
AcDbLine
 10
-195.75
 20
47.94999999999999
 30
0.0
 11
-195.75
 21
22.00000000000001
 31
0.0
  0
LINE
  5
164
330
507
100
AcDbEntity
  8
DATA
  6
Continuous
 62
     7
100
AcDbLine
 10
-204.25
 20
47.94999999999999
 30
0.0
 11
-204.25
 21
22.00000000000001
 31
0.0
  0
LINE
  5
165
330
507
100
AcDbEntity
  8
DATA
  6
Continuous
 62
     7
100
AcDbLine
 10
-196.25
 20
17.50000000000001
 30
0.0
 11
-195.75
 21
22.00000000000001
 31
0.0
  0
LINE
  5
166
330
507
100
AcDbEntity
  8
DATA
  6
Continuous
 62
     7
100
AcDbLine
 10
-204.25
 20
22.00000000000001
 30
0.0
 11
-203.75
 21
17.50000000000001
 31
0.0
  0
LINE
  5
167
330
507
100
AcDbEntity
  8
DATA
  6
Continuous
 62
     7
100
AcDbLine
 10
-203.75
 20
17.50000000000001
 30
0.0
 11
-196.25
 21
17.50000000000001
 31
0.0
  0
LINE
  5
168
330
507
100
AcDbEntity
  8
DATA
  6
Continuous
 62
     7
100
AcDbLine
 10
-196.0
 20
49.35504545454548
 30
0.0
 11
-204.0
 21
48.44595454545459
 31
0.0
  0
LINE
  5
169
330
507
100
AcDbEntity
  8
DATA
  6
Continuous
 62
     7
100
AcDbLine
 10
-196.0
 20
49.85004545454548
 30
0.0
 11
-204.0
 21
48.9409545454546
 31
0.0
  0
LINE
  5
16A
330
507
100
AcDbEntity
  8
DATA
  6
Continuous
 62
     7
100
AcDbLine
 10
-196.0
 20
110.95
 30
0.0
 11
-196.0
 21
47.94999999999999
 31
0.0
  0
LINE
  5
16B
330
507
100
AcDbEntity
  8
DATA
  6
Continuous
 62
     7
100
AcDbLine
 10
-204.0
 20
110.95
 30
0.0
 11
-204.0
 21
47.94999999999999
 31
0.0
  0
LINE
  5
16C
330
507
100
AcDbEntity
  8
DATA
  6
Continuous
 62
     7
100
AcDbLine
 10
-196.0
 20
51.35504545454548
 30
0.0
 11
-204.0
 21
50.4459545454546
 31
0.0
  0
LINE
  5
16D
330
507
100
AcDbEntity
  8
DATA
  6
Continuous
 62
     7
100
AcDbLine
 10
-196.0
 20
51.85004545454548
 30
0.0
 11
-204.0
 21
50.9409545454546
 31
0.0
  0
LINE
  5
16E
330
507
100
AcDbEntity
  8
DATA
  6
Continuous
 62
     7
100
AcDbLine
 10
-196.0
 20
53.35504545454546
 30
0.0
 11
-204.0
 21
52.4459545454546
 31
0.0
  0
LINE
  5
16F
330
507
100
AcDbEntity
  8
DATA
  6
Continuous
 62
     7
100
AcDbLine
 10
-196.0
 20
53.85004545454548
 30
0.0
 11
-204.0
 21
52.94095454545458
 31
0.0
  0
LINE
  5
170
330
507
100
AcDbEntity
  8
DATA
  6
Continuous
 62
     7
100
AcDbLine
 10
-196.0
 20
55.35504545454546
 30
0.0
 11
-204.0
 21
54.4459545454546
 31
0.0
  0
LINE
  5
171
330
507
100
AcDbEntity
  8
DATA
  6
Continuous
 62
     7
100
AcDbLine
 10
-196.0
 20
55.85004545454548
 30
0.0
 11
-204.0
 21
54.94095454545458
 31
0.0
  0
LINE
  5
172
330
507
100
AcDbEntity
  8
DATA
  6
Continuous
 62
     7
100
AcDbLine
 10
-196.0
 20
57.35504545454546
 30
0.0
 11
-204.0
 21
56.44595454545459
 31
0.0
  0
LINE
  5
173
330
507
100
AcDbEntity
  8
DATA
  6
Continuous
 62
     7
100
AcDbLine
 10
-196.0
 20
57.85004545454548
 30
0.0
 11
-204.0
 21
56.94095454545458
 31
0.0
  0
LINE
  5
174
330
507
100
AcDbEntity
  8
DATA
  6
Continuous
 62
     7
100
AcDbLine
 10
-196.0
 20
59.35504545454546
 30
0.0
 11
-204.0
 21
58.44595454545459
 31
0.0
  0
LINE
  5
175
330
507
100
AcDbEntity
  8
DATA
  6
Continuous
 62
     7
100
AcDbLine
 10
-196.0
 20
59.85004545454546
 30
0.0
 11
-204.0
 21
58.94095454545458
 31
0.0
  0
LINE
  5
176
330
507
100
AcDbEntity
  8
DATA
  6
Continuous
 62
     7
100
AcDbLine
 10
-196.0
 20
61.35504545454546
 30
0.0
 11
-204.0
 21
60.44595454545458
 31
0.0
  0
LINE
  5
177
330
507
100
AcDbEntity
  8
DATA
  6
Continuous
 62
     7
100
AcDbLine
 10
-196.0
 20
61.85004545454546
 30
0.0
 11
-204.0
 21
60.94095454545458
 31
0.0
  0
LINE
  5
178
330
507
100
AcDbEntity
  8
DATA
  6
Continuous
 62
     7
100
AcDbLine
 10
-196.0
 20
63.35504545454546
 30
0.0
 11
-204.0
 21
62.44595454545457
 31
0.0
  0
LINE
  5
179
330
507
100
AcDbEntity
  8
DATA
  6
Continuous
 62
     7
100
AcDbLine
 10
-196.0
 20
63.85004545454545
 30
0.0
 11
-204.0
 21
62.94095454545458
 31
0.0
  0
LINE
  5
17A
330
507
100
AcDbEntity
  8
DATA
  6
Continuous
 62
     7
100
AcDbLine
 10
-196.0
 20
65.35504545454546
 30
0.0
 11
-204.0
 21
64.44595454545458
 31
0.0
  0
LINE
  5
17B
330
507
100
AcDbEntity
  8
DATA
  6
Continuous
 62
     7
100
AcDbLine
 10
-196.0
 20
65.85004545454546
 30
0.0
 11
-204.0
 21
64.94095454545457
 31
0.0
  0
LINE
  5
17C
330
507
100
AcDbEntity
  8
DATA
  6
Continuous
 62
     7
100
AcDbLine
 10
-196.0
 20
67.35504545454546
 30
0.0
 11
-204.0
 21
66.44595454545458
 31
0.0
  0
LINE
  5
17D
330
507
100
AcDbEntity
  8
DATA
  6
Continuous
 62
     7
100
AcDbLine
 10
-196.0
 20
67.85004545454547
 30
0.0
 11
-204.0
 21
66.94095454545458
 31
0.0
  0
LINE
  5
17E
330
507
100
AcDbEntity
  8
DATA
  6
Continuous
 62
     7
100
AcDbLine
 10
-196.0
 20
69.35504545454546
 30
0.0
 11
-204.0
 21
68.44595454545459
 31
0.0
  0
LINE
  5
17F
330
507
100
AcDbEntity
  8
DATA
  6
Continuous
 62
     7
100
AcDbLine
 10
-196.0
 20
69.85004545454547
 30
0.0
 11
-204.0
 21
68.94095454545457
 31
0.0
  0
LINE
  5
180
330
507
100
AcDbEntity
  8
DATA
  6
Continuous
 62
     7
100
AcDbLine
 10
-196.0
 20
71.35504545454544
 30
0.0
 11
-204.0
 21
70.44595454545458
 31
0.0
  0
LINE
  5
181
330
507
100
AcDbEntity
  8
DATA
  6
Continuous
 62
     7
100
AcDbLine
 10
-196.0
 20
71.85004545454545
 30
0.0
 11
-204.0
 21
70.94095454545457
 31
0.0
  0
LINE
  5
182
330
507
100
AcDbEntity
  8
DATA
  6
Continuous
 62
     7
100
AcDbLine
 10
-196.0
 20
73.35504545454542
 30
0.0
 11
-204.0
 21
72.44595454545458
 31
0.0
  0
LINE
  5
183
330
507
100
AcDbEntity
  8
DATA
  6
Continuous
 62
     7
100
AcDbLine
 10
-196.0
 20
73.85004545454545
 30
0.0
 11
-204.0
 21
72.9409545454546
 31
0.0
  0
LINE
  5
184
330
507
100
AcDbEntity
  8
DATA
  6
Continuous
 62
     7
100
AcDbLine
 10
-196.0
 20
75.35504545454545
 30
0.0
 11
-204.0
 21
74.44595454545458
 31
0.0
  0
LINE
  5
185
330
507
100
AcDbEntity
  8
DATA
  6
Continuous
 62
     7
100
AcDbLine
 10
-196.0
 20
75.85004545454545
 30
0.0
 11
-204.0
 21
74.9409545454546
 31
0.0
  0
LINE
  5
186
330
507
100
AcDbEntity
  8
DATA
  6
Continuous
 62
     7
100
AcDbLine
 10
-196.0
 20
77.35504545454545
 30
0.0
 11
-204.0
 21
76.44595454545458
 31
0.0
  0
LINE
  5
187
330
507
100
AcDbEntity
  8
DATA
  6
Continuous
 62
     7
100
AcDbLine
 10
-196.0
 20
77.85004545454545
 30
0.0
 11
-204.0
 21
76.9409545454546
 31
0.0
  0
LINE
  5
188
330
507
100
AcDbEntity
  8
DATA
  6
Continuous
 62
     7
100
AcDbLine
 10
-196.0
 20
79.35504545454545
 30
0.0
 11
-204.0
 21
78.44595454545459
 31
0.0
  0
LINE
  5
189
330
507
100
AcDbEntity
  8
DATA
  6
Continuous
 62
     7
100
AcDbLine
 10
-196.0
 20
79.85004545454545
 30
0.0
 11
-204.0
 21
78.9409545454546
 31
0.0
  0
LINE
  5
18A
330
507
100
AcDbEntity
  8
DATA
  6
Continuous
 62
     7
100
AcDbLine
 10
-196.0
 20
81.35504545454542
 30
0.0
 11
-204.0
 21
80.44595454545458
 31
0.0
  0
LINE
  5
18B
330
507
100
AcDbEntity
  8
DATA
  6
Continuous
 62
     7
100
AcDbLine
 10
-196.0
 20
81.85004545454543
 30
0.0
 11
-204.0
 21
80.9409545454546
 31
0.0
  0
LINE
  5
18C
330
507
100
AcDbEntity
  8
DATA
  6
Continuous
 62
     7
100
AcDbLine
 10
-196.0
 20
83.35504545454545
 30
0.0
 11
-204.0
 21
82.44595454545459
 31
0.0
  0
LINE
  5
18D
330
507
100
AcDbEntity
  8
DATA
  6
Continuous
 62
     7
100
AcDbLine
 10
-196.0
 20
83.85004545454545
 30
0.0
 11
-204.0
 21
82.94095454545461
 31
0.0
  0
LINE
  5
18E
330
507
100
AcDbEntity
  8
DATA
  6
Continuous
 62
     7
100
AcDbLine
 10
-196.0
 20
85.35504545454545
 30
0.0
 11
-204.0
 21
84.44595454545458
 31
0.0
  0
LINE
  5
18F
330
507
100
AcDbEntity
  8
DATA
  6
Continuous
 62
     7
100
AcDbLine
 10
-196.0
 20
85.85004545454545
 30
0.0
 11
-204.0
 21
84.9409545454546
 31
0.0
  0
LINE
  5
190
330
507
100
AcDbEntity
  8
DATA
  6
Continuous
 62
     7
100
AcDbLine
 10
-196.0
 20
87.35504545454546
 30
0.0
 11
-204.0
 21
86.44595454545457
 31
0.0
  0
LINE
  5
191
330
507
100
AcDbEntity
  8
DATA
  6
Continuous
 62
     7
100
AcDbLine
 10
-196.0
 20
87.85004545454546
 30
0.0
 11
-204.0
 21
86.94095454545459
 31
0.0
  0
LINE
  5
192
330
507
100
AcDbEntity
  8
DATA
  6
Continuous
 62
     7
100
AcDbLine
 10
-196.0
 20
89.35504545454547
 30
0.0
 11
-204.0
 21
88.44595454545459
 31
0.0
  0
LINE
  5
193
330
507
100
AcDbEntity
  8
DATA
  6
Continuous
 62
     7
100
AcDbLine
 10
-196.0
 20
89.85004545454547
 30
0.0
 11
-204.0
 21
88.9409545454546
 31
0.0
  0
LINE
  5
194
330
507
100
AcDbEntity
  8
DATA
  6
Continuous
 62
     7
100
AcDbLine
 10
-196.0
 20
91.35504545454546
 30
0.0
 11
-204.0
 21
90.44595454545458
 31
0.0
  0
LINE
  5
195
330
507
100
AcDbEntity
  8
DATA
  6
Continuous
 62
     7
100
AcDbLine
 10
-196.0
 20
91.85004545454546
 30
0.0
 11
-204.0
 21
90.9409545454546
 31
0.0
  0
LINE
  5
196
330
507
100
AcDbEntity
  8
DATA
  6
Continuous
 62
     7
100
AcDbLine
 10
-196.0
 20
93.35504545454545
 30
0.0
 11
-204.0
 21
92.44595454545459
 31
0.0
  0
LINE
  5
197
330
507
100
AcDbEntity
  8
DATA
  6
Continuous
 62
     7
100
AcDbLine
 10
-196.0
 20
93.85004545454547
 30
0.0
 11
-204.0
 21
92.94095454545461
 31
0.0
  0
LINE
  5
198
330
507
100
AcDbEntity
  8
DATA
  6
Continuous
 62
     7
100
AcDbLine
 10
-196.0
 20
95.35504545454546
 30
0.0
 11
-204.0
 21
94.44595454545458
 31
0.0
  0
LINE
  5
199
330
507
100
AcDbEntity
  8
DATA
  6
Continuous
 62
     7
100
AcDbLine
 10
-196.0
 20
95.85004545454546
 30
0.0
 11
-204.0
 21
94.9409545454546
 31
0.0
  0
LINE
  5
19A
330
507
100
AcDbEntity
  8
DATA
  6
Continuous
 62
     7
100
AcDbLine
 10
-196.0
 20
97.35504545454546
 30
0.0
 11
-204.0
 21
96.44595454545459
 31
0.0
  0
LINE
  5
19B
330
507
100
AcDbEntity
  8
DATA
  6
Continuous
 62
     7
100
AcDbLine
 10
-196.0
 20
97.85004545454548
 30
0.0
 11
-204.0
 21
96.94095454545461
 31
0.0
  0
LINE
  5
19C
330
507
100
AcDbEntity
  8
DATA
  6
Continuous
 62
     7
100
AcDbLine
 10
-196.0
 20
99.35504545454548
 30
0.0
 11
-204.0
 21
98.44595454545459
 31
0.0
  0
LINE
  5
19D
330
507
100
AcDbEntity
  8
DATA
  6
Continuous
 62
     7
100
AcDbLine
 10
-196.0
 20
99.85004545454547
 30
0.0
 11
-204.0
 21
98.9409545454546
 31
0.0
  0
LINE
  5
19E
330
507
100
AcDbEntity
  8
DATA
  6
Continuous
 62
     7
100
AcDbLine
 10
-196.0
 20
101.3550454545454
 30
0.0
 11
-204.0
 21
100.4459545454545
 31
0.0
  0
LINE
  5
19F
330
507
100
AcDbEntity
  8
DATA
  6
Continuous
 62
     7
100
AcDbLine
 10
-196.0
 20
101.8500454545455
 30
0.0
 11
-204.0
 21
100.9409545454546
 31
0.0
  0
LINE
  5
1A0
330
507
100
AcDbEntity
  8
DATA
  6
Continuous
 62
     7
100
AcDbLine
 10
-196.0
 20
103.3550454545454
 30
0.0
 11
-204.0
 21
102.4459545454545
 31
0.0
  0
LINE
  5
1A1
330
507
100
AcDbEntity
  8
DATA
  6
Continuous
 62
     7
100
AcDbLine
 10
-196.0
 20
103.8500454545455
 30
0.0
 11
-204.0
 21
102.9409545454546
 31
0.0
  0
LINE
  5
1A2
330
507
100
AcDbEntity
  8
DATA
  6
Continuous
 62
     7
100
AcDbLine
 10
-196.0
 20
105.3550454545454
 30
0.0
 11
-204.0
 21
104.4459545454546
 31
0.0
  0
LINE
  5
1A3
330
507
100
AcDbEntity
  8
DATA
  6
Continuous
 62
     7
100
AcDbLine
 10
-196.0
 20
105.8500454545455
 30
0.0
 11
-204.0
 21
104.9409545454546
 31
0.0
  0
LINE
  5
1A4
330
507
100
AcDbEntity
  8
DATA
  6
Continuous
 62
     7
100
AcDbLine
 10
-196.0
 20
107.3550454545454
 30
0.0
 11
-204.0
 21
106.4459545454546
 31
0.0
  0
LINE
  5
1A5
330
507
100
AcDbEntity
  8
DATA
  6
Continuous
 62
     7
100
AcDbLine
 10
-196.0
 20
107.8500454545455
 30
0.0
 11
-204.0
 21
106.9409545454546
 31
0.0
  0
LINE
  5
1A6
330
507
100
AcDbEntity
  8
DATA
  6
Continuous
 62
     7
100
AcDbLine
 10
-196.0
 20
109.3550454545454
 30
0.0
 11
-204.0
 21
108.4459545454546
 31
0.0
  0
LINE
  5
1A7
330
507
100
AcDbEntity
  8
DATA
  6
Continuous
 62
     7
100
AcDbLine
 10
-196.0
 20
109.8500454545455
 30
0.0
 11
-204.0
 21
108.9409545454546
 31
0.0
  0
LINE
  5
1A8
330
507
100
AcDbEntity
  8
DATA
  6
Continuous
 62
     7
100
AcDbLine
 10
-199.5644000000002
 20
110.95
 30
0.0
 11
-204.0
 21
110.4459545454546
 31
0.0
  0
LINE
  5
1A9
330
507
100
AcDbEntity
  8
DATA
  6
Continuous
 62
     7
100
AcDbLine
 10
-206.3500000000001
 20
144.8
 30
0.0
 11
-193.65
 21
144.8
 31
0.0
  0
LINE
  5
1AA
330
507
100
AcDbEntity
  8
DATA
  6
Continuous
 62
     7
100
AcDbLine
 10
-204.75
 20
123.95
 30
0.0
 11
-204.8
 21
128.3
 31
0.0
  0
LINE
  5
1AB
330
507
100
AcDbEntity
  8
DATA
  6
Continuous
 62
     7
100
AcDbLine
 10
-204.8
 20
128.3
 30
0.0
 11
-204.95
 21
132.8
 31
0.0
  0
LINE
  5
1AC
330
507
100
AcDbEntity
  8
DATA
  6
Continuous
 62
     7
100
AcDbLine
 10
-204.95
 20
132.8
 30
0.0
 11
-205.2
 21
137.3
 31
0.0
  0
LINE
  5
1AD
330
507
100
AcDbEntity
  8
DATA
  6
Continuous
 62
     7
100
AcDbLine
 10
-205.2
 20
137.3
 30
0.0
 11
-205.7
 21
141.8
 31
0.0
  0
LINE
  5
1AE
330
507
100
AcDbEntity
  8
DATA
  6
Continuous
 62
     7
100
AcDbLine
 10
-205.7
 20
141.8
 30
0.0
 11
-205.95
 21
144.8
 31
0.0
  0
LINE
  5
1AF
330
507
100
AcDbEntity
  8
DATA
  6
Continuous
 62
     7
100
AcDbLine
 10
-195.25
 20
123.95
 30
0.0
 11
-195.2
 21
128.3
 31
0.0
  0
LINE
  5
1B0
330
507
100
AcDbEntity
  8
DATA
  6
Continuous
 62
     7
100
AcDbLine
 10
-195.2
 20
128.3
 30
0.0
 11
-195.05
 21
132.8
 31
0.0
  0
LINE
  5
1B1
330
507
100
AcDbEntity
  8
DATA
  6
Continuous
 62
     7
100
AcDbLine
 10
-195.05
 20
132.8
 30
0.0
 11
-194.8
 21
137.3
 31
0.0
  0
LINE
  5
1B2
330
507
100
AcDbEntity
  8
DATA
  6
Continuous
 62
     7
100
AcDbLine
 10
-194.8
 20
137.3
 30
0.0
 11
-194.3
 21
141.8
 31
0.0
  0
LINE
  5
1B3
330
507
100
AcDbEntity
  8
DATA
  6
Continuous
 62
     7
100
AcDbLine
 10
-194.3
 20
141.8
 30
0.0
 11
-194.05
 21
144.8
 31
0.0
  0
LINE
  5
1B4
330
507
100
AcDbEntity
  8
DATA
  6
Continuous
 62
     7
100
AcDbLine
 10
-206.3500000000001
 20
150.0
 30
0.0
 11
-193.65
 21
150.0
 31
0.0
  0
ARC
  5
1B5
330
507
100
AcDbEntity
  8
DATA
  6
Continuous
 62
     7
100
AcDbCircle
 10
-206.3500000000001
 20
147.4
 30
0.0
 40
2.600000000000021
100
AcDbArc
 50
90.0
 51
270.0
  0
ARC
  5
1B6
330
507
100
AcDbEntity
  8
DATA
  6
Continuous
 62
     7
100
AcDbCircle
 10
-193.65
 20
147.4
 30
0.0
 40
2.600000000000021
100
AcDbArc
 50
270.0
 51
90.0
  0
LINE
  5
1B7
330
507
100
AcDbEntity
  8
DATA
  6
Continuous
 62
     7
100
AcDbLine
 10
-206.65
 20
158.0
 30
0.0
 11
-193.35
 21
158.0
 31
0.0
  0
LINE
  5
1B8
330
507
100
AcDbEntity
  8
DATA
  6
Continuous
 62
     7
100
AcDbLine
 10
-206.65
 20
158.0
 30
0.0
 11
-206.5
 21
149.995669470484
 31
0.0
  0
LINE
  5
1B9
330
507
100
AcDbEntity
  8
DATA
  6
Continuous
 62
     7
100
AcDbLine
 10
-193.35
 20
158.0
 30
0.0
 11
-193.5
 21
149.995669470484
 31
0.0
  0
LINE
  5
1BA
330
507
100
AcDbEntity
  8
DATA
  6
Continuous
 62
     7
100
AcDbLine
 10
-206.4
 20
165.5
 30
0.0
 11
-193.6
 21
165.5
 31
0.0
  0
LINE
  5
1BB
330
507
100
AcDbEntity
  8
DATA
  6
Continuous
 62
     7
100
AcDbLine
 10
-205.5
 20
176.9499999999998
 30
0.0
 11
-194.5
 21
176.9499999999998
 31
0.0
  0
LINE
  5
1BC
330
507
100
AcDbEntity
  8
DATA
  6
Continuous
 62
     7
100
AcDbLine
 10
-206.65
 20
158.0
 30
0.0
 11
-206.5656666666667
 21
160.53
 31
0.0
  0
LINE
  5
1BD
330
507
100
AcDbEntity
  8
DATA
  6
Continuous
 62
     7
100
AcDbLine
 10
-206.4
 20
165.5
 30
0.0
 11
-205.5
 21
176.9499999999998
 31
0.0
  0
LINE
  5
1BE
330
507
100
AcDbEntity
  8
DATA
  6
Continuous
 62
     7
100
AcDbLine
 10
-193.35
 20
158.0
 30
0.0
 11
-193.4343333333332
 21
160.53
 31
0.0
  0
LINE
  5
1BF
330
507
100
AcDbEntity
  8
DATA
  6
Continuous
 62
     7
100
AcDbLine
 10
-193.6
 20
165.5
 30
0.0
 11
-194.5
 21
176.9499999999998
 31
0.0
  0
ARC
  5
1C0
330
507
100
AcDbEntity
  8
DATA
  6
Continuous
 62
     7
100
AcDbCircle
 10
-200.0
 20
175.4395833333332
 30
0.0
 40
4.510416666666652
100
AcDbArc
 50
19.56481406361412
 51
160.4351859363824
  0
LINE
  5
1C1
330
507
100
AcDbEntity
  8
DATA
  6
Continuous
 62
     7
100
AcDbLine
 10
-206.5656666666667
 20
160.53
 30
0.0
 11
-193.4343333333332
 21
160.53
 31
0.0
  0
LINE
  5
1C2
330
507
100
AcDbEntity
  8
DATA
  6
Continuous
 62
     7
100
AcDbLine
 10
-199.5
 20
160.53
 30
0.0
 11
-199.5
 21
165.5
 31
0.0
  0
LINE
  5
1C3
330
507
100
AcDbEntity
  8
DATA
  6
Continuous
 62
     7
100
AcDbLine
 10
-200.5
 20
160.53
 30
0.0
 11
-200.5
 21
165.5
 31
0.0
  0
LINE
  5
1C4
330
507
100
AcDbEntity
  8
DATA
  6
Continuous
 62
     7
100
AcDbLine
 10
-201.4
 20
160.53
 30
0.0
 11
-201.4
 21
165.5
 31
0.0
  0
LINE
  5
1C5
330
507
100
AcDbEntity
  8
DATA
  6
Continuous
 62
     7
100
AcDbLine
 10
-198.6
 20
160.53
 30
0.0
 11
-198.6
 21
165.5
 31
0.0
  0
LINE
  5
1C6
330
507
100
AcDbEntity
  8
DATA
  6
Continuous
 62
     7
100
AcDbLine
 10
-195.6
 20
160.53
 30
0.0
 11
-195.6
 21
165.5
 31
0.0
  0
LINE
  5
1C7
330
507
100
AcDbEntity
  8
DATA
  6
Continuous
 62
     7
100
AcDbLine
 10
-204.4
 20
160.53
 30
0.0
 11
-204.4
 21
165.5
 31
0.0
  0
LINE
  5
1C8
330
507
100
AcDbEntity
  8
DATA
  6
Continuous
 62
     7
100
AcDbLine
 10
-206.4
 20
165.5
 30
0.0
 11
-206.4
 21
160.53
 31
0.0
  0
LINE
  5
1C9
330
507
100
AcDbEntity
  8
DATA
  6
Continuous
 62
     7
100
AcDbLine
 10
-193.6
 20
165.5
 30
0.0
 11
-193.6
 21
160.53
 31
0.0
  0
ARC
  5
1CA
330
507
100
AcDbEntity
  8
DATA
  6
Continuous
 62
     7
100
AcDbCircle
 10
-195.75
 20
176.9499999999998
 30
0.0
 40
0.9999999999999964
100
AcDbArc
 50
115.9293903448024
 51
180.0
  0
ARC
  5
1CB
330
507
100
AcDbEntity
  8
DATA
  6
Continuous
 62
     7
100
AcDbCircle
 10
-195.75
 20
176.9499999999998
 30
0.0
 40
2.000000000000007
100
AcDbArc
 50
122.3742451091623
 51
180.0
  0
ARC
  5
1CC
330
507
100
AcDbEntity
  8
DATA
  6
Continuous
 62
     7
100
AcDbCircle
 10
-195.75
 20
176.9499999999998
 30
0.0
 40
3.00000000000001
100
AcDbArc
 50
128.9892582633292
 51
180.0
  0
ARC
  5
1CD
330
507
100
AcDbEntity
  8
DATA
  6
Continuous
 62
     7
100
AcDbCircle
 10
-195.75
 20
176.9499999999998
 30
0.0
 40
4.00000000000002
100
AcDbArc
 50
135.8869821588974
 51
180.0
  0
ARC
  5
1CE
330
507
100
AcDbEntity
  8
DATA
  6
Continuous
 62
     7
100
AcDbCircle
 10
-195.75
 20
176.9499999999998
 30
0.0
 40
4.999999999999995
100
AcDbArc
 50
143.2254362538431
 51
180.0
  0
ARC
  5
1CF
330
507
100
AcDbEntity
  8
DATA
  6
Continuous
 62
     7
100
AcDbCircle
 10
-195.75
 20
176.9499999999998
 30
0.0
 40
6.000000000000006
100
AcDbArc
 50
151.2568848821769
 51
180.0
  0
ARC
  5
1D0
330
507
100
AcDbEntity
  8
DATA
  6
Continuous
 62
     7
100
AcDbCircle
 10
-195.75
 20
176.9499999999998
 30
0.0
 40
6.999999999999992
100
AcDbArc
 50
160.4589199476931
 51
180.0
  0
ARC
  5
1D1
330
507
100
AcDbEntity
  8
DATA
  6
Continuous
 62
     7
100
AcDbCircle
 10
-195.75
 20
176.9499999999998
 30
0.0
 40
8.0
100
AcDbArc
 50
172.0431313208422
 51
180.0
  0
ARC
  5
1D2
330
507
100
AcDbEntity
  8
DATA
  6
Continuous
 62
     7
100
AcDbCircle
 10
-204.2499999999999
 20
176.95
 30
0.0
 40
0.4999999999999147
100
AcDbArc
 50
359.9999999999708
 51
67.25781001181821
  0
ARC
  5
1D3
330
507
100
AcDbEntity
  8
DATA
  6
Continuous
 62
     7
100
AcDbCircle
 10
-204.2499999999999
 20
176.95
 30
0.0
 40
1.499999999999914
100
AcDbArc
 50
359.9999999999902
 51
60.86348361047032
  0
ARC
  5
1D4
330
507
100
AcDbEntity
  8
DATA
  6
Continuous
 62
     7
100
AcDbCircle
 10
-204.2499999999999
 20
176.95
 30
0.0
 40
2.499999999999913
100
AcDbArc
 50
359.9999999999941
 51
54.34582416287072
  0
ARC
  5
1D5
330
507
100
AcDbEntity
  8
DATA
  6
Continuous
 62
     7
100
AcDbCircle
 10
-204.2499999999999
 20
176.95
 30
0.0
 40
3.499999999999913
100
AcDbArc
 50
359.999999999996
 51
47.60564954377758
  0
ARC
  5
1D6
330
507
100
AcDbEntity
  8
DATA
  6
Continuous
 62
     7
100
AcDbCircle
 10
-204.2499999999999
 20
176.95
 30
0.0
 40
4.499999999999913
100
AcDbArc
 50
359.9999999999968
 51
40.51155318934815
  0
ARC
  5
1D7
330
507
100
AcDbEntity
  8
DATA
  6
Continuous
 62
     7
100
AcDbCircle
 10
-204.2499999999999
 20
176.95
 30
0.0
 40
5.499999999999913
100
AcDbArc
 50
359.9999999999973
 51
32.86738845856911
  0
ARC
  5
1D8
330
507
100
AcDbEntity
  8
DATA
  6
Continuous
 62
     7
100
AcDbCircle
 10
-204.2499999999999
 20
176.95
 30
0.0
 40
6.499999999999913
100
AcDbArc
 50
359.9999999999978
 51
24.33492475586569
  0
ARC
  5
1D9
330
507
100
AcDbEntity
  8
DATA
  6
Continuous
 62
     7
100
AcDbCircle
 10
-204.2499999999999
 20
176.95
 30
0.0
 40
7.499999999999912
100
AcDbArc
 50
359.999999999998
 51
14.1914594526072
  0
ARC
  5
1DA
330
507
100
AcDbEntity
  8
DATA
  6
Continuous
 62
     7
100
AcDbCircle
 10
-200.0000000000001
 20
-400.0000000000012
 30
0.0
 40
8.949999999999869
100
AcDbArc
 50
171.3245076515616
 51
188.6754923484387
  0
ARC
  5
1DB
330
507
100
AcDbEntity
  8
DATA
  6
Continuous
 62
     7
100
AcDbCircle
 10
-200.0000000000001
 20
-400.0000000000012
 30
0.0
 40
8.949999999999896
100
AcDbArc
 50
261.3245076515619
 51
278.6754923484387
  0
ARC
  5
1DC
330
507
100
AcDbEntity
  8
DATA
  6
Continuous
 62
     7
100
AcDbCircle
 10
-200.0000000000001
 20
-400.0000000000012
 30
0.0
 40
8.949999999999869
100
AcDbArc
 50
351.3245076515616
 51
8.675492348436931
  0
ARC
  5
1DD
330
507
100
AcDbEntity
  8
DATA
  6
Continuous
 62
     7
100
AcDbCircle
 10
-200.0000000000001
 20
-400.0000000000012
 30
0.0
 40
8.949999999999853
100
AcDbArc
 50
81.32450765156105
 51
98.67549234843835
  0
LINE
  5
1DE
330
507
100
AcDbEntity
  8
DATA
  6
Continuous
 62
     7
100
AcDbLine
 10
-121.0
 20
-288.4949545454546
 30
0.0
 11
-129.0
 21
-289.4040454545455
 31
0.0
  0
LINE
  5
1DF
330
507
100
AcDbEntity
  8
DATA
  6
Continuous
 62
     7
100
AcDbLine
 10
-121.0
 20
-287.9999545454546
 30
0.0
 11
-129.0
 21
-288.9090454545455
 31
0.0
  0
LINE
  5
1E0
330
507
100
AcDbEntity
  8
DATA
  6
Continuous
 62
     7
100
AcDbLine
 10
-128.465
 20
17.50000000000001
 30
0.0
 11
-128.465
 21
-192.5
 31
0.0
  0
LINE
  5
1E1
330
507
100
AcDbEntity
  8
DATA
  6
Continuous
 62
     7
100
AcDbLine
 10
-121.535
 20
17.50000000000001
 30
0.0
 11
-121.535
 21
-192.5
 31
0.0
  0
LINE
  5
1E2
330
507
100
AcDbEntity
  8
DATA
  6
Continuous
 62
     7
100
AcDbLine
 10
-134.35
 20
-345.05
 30
0.0
 11
-115.65
 21
-345.05
 31
0.0
  0
LINE
  5
1E3
330
507
100
AcDbEntity
  8
DATA
  6
Continuous
 62
     7
100
AcDbLine
 10
-119.456
 20
-345.05
 30
0.0
 11
-119.456
 21
-350.0
 31
0.0
  0
LINE
  5
1E4
330
507
100
AcDbEntity
  8
DATA
  6
Continuous
 62
     7
100
AcDbLine
 10
-130.544
 20
-345.05
 30
0.0
 11
-130.544
 21
-350.0
 31
0.0
  0
LINE
  5
1E5
330
507
100
AcDbEntity
  8
DATA
  6
Continuous
 62
     7
100
AcDbLine
 10
-116.1
 20
-331.19
 30
0.0
 11
-115.65
 21
-345.05
 31
0.0
  0
LINE
  5
1E6
330
507
100
AcDbEntity
  8
DATA
  6
Continuous
 62
     7
100
AcDbLine
 10
-133.9
 20
-331.19
 30
0.0
 11
-134.35
 21
-345.05
 31
0.0
  0
LINE
  5
1E7
330
507
100
AcDbEntity
  8
DATA
  6
Continuous
 62
     7
100
AcDbLine
 10
-119.456
 20
-350.0
 30
0.0
 11
-130.544
 21
-350.0
 31
0.0
  0
LINE
  5
1E8
330
507
100
AcDbEntity
  8
DATA
  6
Continuous
 62
     7
100
AcDbLine
 10
-133.9
 20
-331.19
 30
0.0
 11
-116.1
 21
-331.19
 31
0.0
  0
LINE
  5
1E9
330
507
100
AcDbEntity
  8
DATA
  6
Continuous
 62
     7
100
AcDbLine
 10
-130.0
 20
-290.05
 30
0.0
 11
-120.0
 21
-290.05
 31
0.0
  0
LINE
  5
1EA
330
507
100
AcDbEntity
  8
DATA
  6
Continuous
 62
     7
100
AcDbLine
 10
-120.0
 20
-290.05
 30
0.0
 11
-119.6
 21
-296.19
 31
0.0
  0
LINE
  5
1EB
330
507
100
AcDbEntity
  8
DATA
  6
Continuous
 62
     7
100
AcDbLine
 10
-119.6
 20
-296.19
 30
0.0
 11
-119.1
 21
-301.19
 31
0.0
  0
LINE
  5
1EC
330
507
100
AcDbEntity
  8
DATA
  6
Continuous
 62
     7
100
AcDbLine
 10
-119.1
 20
-301.19
 30
0.0
 11
-118.4
 21
-306.19
 31
0.0
  0
LINE
  5
1ED
330
507
100
AcDbEntity
  8
DATA
  6
Continuous
 62
     7
100
AcDbLine
 10
-118.4
 20
-306.19
 30
0.0
 11
-117.4
 21
-311.19
 31
0.0
  0
LINE
  5
1EE
330
507
100
AcDbEntity
  8
DATA
  6
Continuous
 62
     7
100
AcDbLine
 10
-117.4
 20
-311.19
 30
0.0
 11
-116.8
 21
-316.19
 31
0.0
  0
LINE
  5
1EF
330
507
100
AcDbEntity
  8
DATA
  6
Continuous
 62
     7
100
AcDbLine
 10
-116.8
 20
-316.19
 30
0.0
 11
-116.4
 21
-321.19
 31
0.0
  0
LINE
  5
1F0
330
507
100
AcDbEntity
  8
DATA
  6
Continuous
 62
     7
100
AcDbLine
 10
-116.4
 20
-321.19
 30
0.0
 11
-116.1
 21
-331.19
 31
0.0
  0
LINE
  5
1F1
330
507
100
AcDbEntity
  8
DATA
  6
Continuous
 62
     7
100
AcDbLine
 10
-130.0
 20
-290.05
 30
0.0
 11
-130.4
 21
-296.19
 31
0.0
  0
LINE
  5
1F2
330
507
100
AcDbEntity
  8
DATA
  6
Continuous
 62
     7
100
AcDbLine
 10
-130.4
 20
-296.19
 30
0.0
 11
-130.9
 21
-301.19
 31
0.0
  0
LINE
  5
1F3
330
507
100
AcDbEntity
  8
DATA
  6
Continuous
 62
     7
100
AcDbLine
 10
-130.9
 20
-301.19
 30
0.0
 11
-131.6
 21
-306.19
 31
0.0
  0
LINE
  5
1F4
330
507
100
AcDbEntity
  8
DATA
  6
Continuous
 62
     7
100
AcDbLine
 10
-131.6
 20
-306.19
 30
0.0
 11
-132.6
 21
-311.19
 31
0.0
  0
LINE
  5
1F5
330
507
100
AcDbEntity
  8
DATA
  6
Continuous
 62
     7
100
AcDbLine
 10
-132.6
 20
-311.19
 30
0.0
 11
-133.2
 21
-316.19
 31
0.0
  0
LINE
  5
1F6
330
507
100
AcDbEntity
  8
DATA
  6
Continuous
 62
     7
100
AcDbLine
 10
-133.2
 20
-316.19
 30
0.0
 11
-133.6
 21
-321.19
 31
0.0
  0
LINE
  5
1F7
330
507
100
AcDbEntity
  8
DATA
  6
Continuous
 62
     7
100
AcDbLine
 10
-133.6
 20
-321.19
 30
0.0
 11
-133.9
 21
-331.19
 31
0.0
  0
LINE
  5
1F8
330
507
100
AcDbEntity
  8
DATA
  6
Continuous
 62
     7
100
AcDbLine
 10
-125.85
 20
-345.05
 30
0.0
 11
-125.85
 21
-331.19
 31
0.0
  0
LINE
  5
1F9
330
507
100
AcDbEntity
  8
DATA
  6
Continuous
 62
     7
100
AcDbLine
 10
-124.15
 20
-345.05
 30
0.0
 11
-124.15
 21
-331.19
 31
0.0
  0
LINE
  5
1FA
330
507
100
AcDbEntity
  8
DATA
  6
Continuous
 62
     7
100
AcDbLine
 10
-126.35
 20
-350.0
 30
0.0
 11
-126.35
 21
-345.05
 31
0.0
  0
LINE
  5
1FB
330
507
100
AcDbEntity
  8
DATA
  6
Continuous
 62
     7
100
AcDbLine
 10
-123.65
 20
-350.0
 30
0.0
 11
-123.65
 21
-345.05
 31
0.0
  0
LINE
  5
1FC
330
507
100
AcDbEntity
  8
DATA
  6
Continuous
 62
     7
100
AcDbLine
 10
-129.25
 20
-222.05
 30
0.0
 11
-120.75
 21
-222.05
 31
0.0
  0
LINE
  5
1FD
330
507
100
AcDbEntity
  8
DATA
  6
Continuous
 62
     7
100
AcDbLine
 10
-121.0
 20
-222.05
 30
0.0
 11
-121.0
 21
-290.05
 31
0.0
  0
LINE
  5
1FE
330
507
100
AcDbEntity
  8
DATA
  6
Continuous
 62
     7
100
AcDbLine
 10
-129.0
 20
-222.05
 30
0.0
 11
-129.0
 21
-290.05
 31
0.0
  0
LINE
  5
1FF
330
507
100
AcDbEntity
  8
DATA
  6
Continuous
 62
     7
100
AcDbLine
 10
-121.0
 20
-286.4949545454546
 30
0.0
 11
-129.0
 21
-287.4040454545455
 31
0.0
  0
LINE
  5
200
330
507
100
AcDbEntity
  8
DATA
  6
Continuous
 62
     7
100
AcDbLine
 10
-121.0
 20
-285.9999545454546
 30
0.0
 11
-129.0
 21
-286.9090454545455
 31
0.0
  0
LINE
  5
201
330
507
100
AcDbEntity
  8
DATA
  6
Continuous
 62
     7
100
AcDbLine
 10
-121.0
 20
-284.4949545454546
 30
0.0
 11
-129.0
 21
-285.4040454545455
 31
0.0
  0
LINE
  5
202
330
507
100
AcDbEntity
  8
DATA
  6
Continuous
 62
     7
100
AcDbLine
 10
-121.0
 20
-283.9999545454546
 30
0.0
 11
-129.0
 21
-284.9090454545455
 31
0.0
  0
LINE
  5
203
330
507
100
AcDbEntity
  8
DATA
  6
Continuous
 62
     7
100
AcDbLine
 10
-121.0
 20
-282.4949545454546
 30
0.0
 11
-129.0
 21
-283.4040454545455
 31
0.0
  0
LINE
  5
204
330
507
100
AcDbEntity
  8
DATA
  6
Continuous
 62
     7
100
AcDbLine
 10
-121.0
 20
-281.9999545454546
 30
0.0
 11
-129.0
 21
-282.9090454545455
 31
0.0
  0
LINE
  5
205
330
507
100
AcDbEntity
  8
DATA
  6
Continuous
 62
     7
100
AcDbLine
 10
-121.0
 20
-280.4949545454546
 30
0.0
 11
-129.0
 21
-281.4040454545455
 31
0.0
  0
LINE
  5
206
330
507
100
AcDbEntity
  8
DATA
  6
Continuous
 62
     7
100
AcDbLine
 10
-121.0
 20
-279.9999545454546
 30
0.0
 11
-129.0
 21
-280.9090454545455
 31
0.0
  0
LINE
  5
207
330
507
100
AcDbEntity
  8
DATA
  6
Continuous
 62
     7
100
AcDbLine
 10
-121.0
 20
-278.4949545454546
 30
0.0
 11
-129.0
 21
-279.4040454545455
 31
0.0
  0
LINE
  5
208
330
507
100
AcDbEntity
  8
DATA
  6
Continuous
 62
     7
100
AcDbLine
 10
-121.0
 20
-277.9999545454546
 30
0.0
 11
-129.0
 21
-278.9090454545455
 31
0.0
  0
LINE
  5
209
330
507
100
AcDbEntity
  8
DATA
  6
Continuous
 62
     7
100
AcDbLine
 10
-121.0
 20
-276.4949545454546
 30
0.0
 11
-129.0
 21
-277.4040454545455
 31
0.0
  0
LINE
  5
20A
330
507
100
AcDbEntity
  8
DATA
  6
Continuous
 62
     7
100
AcDbLine
 10
-121.0
 20
-275.9999545454546
 30
0.0
 11
-129.0
 21
-276.9090454545455
 31
0.0
  0
LINE
  5
20B
330
507
100
AcDbEntity
  8
DATA
  6
Continuous
 62
     7
100
AcDbLine
 10
-121.0
 20
-274.4949545454546
 30
0.0
 11
-129.0
 21
-275.4040454545455
 31
0.0
  0
LINE
  5
20C
330
507
100
AcDbEntity
  8
DATA
  6
Continuous
 62
     7
100
AcDbLine
 10
-121.0
 20
-273.9999545454546
 30
0.0
 11
-129.0
 21
-274.9090454545455
 31
0.0
  0
LINE
  5
20D
330
507
100
AcDbEntity
  8
DATA
  6
Continuous
 62
     7
100
AcDbLine
 10
-121.0
 20
-272.4949545454546
 30
0.0
 11
-129.0
 21
-273.4040454545455
 31
0.0
  0
LINE
  5
20E
330
507
100
AcDbEntity
  8
DATA
  6
Continuous
 62
     7
100
AcDbLine
 10
-121.0
 20
-271.9999545454546
 30
0.0
 11
-129.0
 21
-272.9090454545455
 31
0.0
  0
LINE
  5
20F
330
507
100
AcDbEntity
  8
DATA
  6
Continuous
 62
     7
100
AcDbLine
 10
-121.0
 20
-270.4949545454546
 30
0.0
 11
-129.0
 21
-271.4040454545455
 31
0.0
  0
LINE
  5
210
330
507
100
AcDbEntity
  8
DATA
  6
Continuous
 62
     7
100
AcDbLine
 10
-121.0
 20
-269.9999545454546
 30
0.0
 11
-129.0
 21
-270.9090454545455
 31
0.0
  0
LINE
  5
211
330
507
100
AcDbEntity
  8
DATA
  6
Continuous
 62
     7
100
AcDbLine
 10
-121.0
 20
-268.4949545454546
 30
0.0
 11
-129.0
 21
-269.4040454545455
 31
0.0
  0
LINE
  5
212
330
507
100
AcDbEntity
  8
DATA
  6
Continuous
 62
     7
100
AcDbLine
 10
-121.0
 20
-267.9999545454546
 30
0.0
 11
-129.0
 21
-268.9090454545455
 31
0.0
  0
LINE
  5
213
330
507
100
AcDbEntity
  8
DATA
  6
Continuous
 62
     7
100
AcDbLine
 10
-121.0
 20
-266.4949545454546
 30
0.0
 11
-129.0
 21
-267.4040454545455
 31
0.0
  0
LINE
  5
214
330
507
100
AcDbEntity
  8
DATA
  6
Continuous
 62
     7
100
AcDbLine
 10
-121.0
 20
-265.9999545454546
 30
0.0
 11
-129.0
 21
-266.9090454545455
 31
0.0
  0
LINE
  5
215
330
507
100
AcDbEntity
  8
DATA
  6
Continuous
 62
     7
100
AcDbLine
 10
-121.0
 20
-264.4949545454546
 30
0.0
 11
-129.0
 21
-265.4040454545455
 31
0.0
  0
LINE
  5
216
330
507
100
AcDbEntity
  8
DATA
  6
Continuous
 62
     7
100
AcDbLine
 10
-121.0
 20
-263.9999545454546
 30
0.0
 11
-129.0
 21
-264.9090454545455
 31
0.0
  0
LINE
  5
217
330
507
100
AcDbEntity
  8
DATA
  6
Continuous
 62
     7
100
AcDbLine
 10
-121.0
 20
-262.4949545454546
 30
0.0
 11
-129.0
 21
-263.4040454545455
 31
0.0
  0
LINE
  5
218
330
507
100
AcDbEntity
  8
DATA
  6
Continuous
 62
     7
100
AcDbLine
 10
-121.0
 20
-261.9999545454546
 30
0.0
 11
-129.0
 21
-262.9090454545455
 31
0.0
  0
LINE
  5
219
330
507
100
AcDbEntity
  8
DATA
  6
Continuous
 62
     7
100
AcDbLine
 10
-121.0
 20
-260.4949545454546
 30
0.0
 11
-129.0
 21
-261.4040454545455
 31
0.0
  0
LINE
  5
21A
330
507
100
AcDbEntity
  8
DATA
  6
Continuous
 62
     7
100
AcDbLine
 10
-121.0
 20
-259.9999545454546
 30
0.0
 11
-129.0
 21
-260.9090454545455
 31
0.0
  0
LINE
  5
21B
330
507
100
AcDbEntity
  8
DATA
  6
Continuous
 62
     7
100
AcDbLine
 10
-121.0
 20
-258.4949545454546
 30
0.0
 11
-129.0
 21
-259.4040454545455
 31
0.0
  0
LINE
  5
21C
330
507
100
AcDbEntity
  8
DATA
  6
Continuous
 62
     7
100
AcDbLine
 10
-121.0
 20
-257.9999545454546
 30
0.0
 11
-129.0
 21
-258.9090454545455
 31
0.0
  0
LINE
  5
21D
330
507
100
AcDbEntity
  8
DATA
  6
Continuous
 62
     7
100
AcDbLine
 10
-121.0
 20
-256.4949545454546
 30
0.0
 11
-129.0
 21
-257.4040454545455
 31
0.0
  0
LINE
  5
21E
330
507
100
AcDbEntity
  8
DATA
  6
Continuous
 62
     7
100
AcDbLine
 10
-121.0
 20
-255.9999545454546
 30
0.0
 11
-129.0
 21
-256.9090454545455
 31
0.0
  0
LINE
  5
21F
330
507
100
AcDbEntity
  8
DATA
  6
Continuous
 62
     7
100
AcDbLine
 10
-121.0
 20
-254.4949545454546
 30
0.0
 11
-129.0
 21
-255.4040454545455
 31
0.0
  0
LINE
  5
220
330
507
100
AcDbEntity
  8
DATA
  6
Continuous
 62
     7
100
AcDbLine
 10
-121.0
 20
-253.9999545454545
 30
0.0
 11
-129.0
 21
-254.9090454545454
 31
0.0
  0
LINE
  5
221
330
507
100
AcDbEntity
  8
DATA
  6
Continuous
 62
     7
100
AcDbLine
 10
-121.0
 20
-252.4949545454546
 30
0.0
 11
-129.0
 21
-253.4040454545455
 31
0.0
  0
LINE
  5
222
330
507
100
AcDbEntity
  8
DATA
  6
Continuous
 62
     7
100
AcDbLine
 10
-121.0
 20
-251.9999545454545
 30
0.0
 11
-129.0
 21
-252.9090454545454
 31
0.0
  0
LINE
  5
223
330
507
100
AcDbEntity
  8
DATA
  6
Continuous
 62
     7
100
AcDbLine
 10
-121.0
 20
-250.4949545454546
 30
0.0
 11
-129.0
 21
-251.4040454545455
 31
0.0
  0
LINE
  5
224
330
507
100
AcDbEntity
  8
DATA
  6
Continuous
 62
     7
100
AcDbLine
 10
-121.0
 20
-249.9999545454546
 30
0.0
 11
-129.0
 21
-250.9090454545454
 31
0.0
  0
LINE
  5
225
330
507
100
AcDbEntity
  8
DATA
  6
Continuous
 62
     7
100
AcDbLine
 10
-121.0
 20
-248.4949545454546
 30
0.0
 11
-129.0
 21
-249.4040454545455
 31
0.0
  0
LINE
  5
226
330
507
100
AcDbEntity
  8
DATA
  6
Continuous
 62
     7
100
AcDbLine
 10
-121.0
 20
-247.9999545454546
 30
0.0
 11
-129.0
 21
-248.9090454545454
 31
0.0
  0
LINE
  5
227
330
507
100
AcDbEntity
  8
DATA
  6
Continuous
 62
     7
100
AcDbLine
 10
-121.0
 20
-246.4949545454546
 30
0.0
 11
-129.0
 21
-247.4040454545455
 31
0.0
  0
LINE
  5
228
330
507
100
AcDbEntity
  8
DATA
  6
Continuous
 62
     7
100
AcDbLine
 10
-121.0
 20
-245.9999545454546
 30
0.0
 11
-129.0
 21
-246.9090454545455
 31
0.0
  0
LINE
  5
229
330
507
100
AcDbEntity
  8
DATA
  6
Continuous
 62
     7
100
AcDbLine
 10
-121.0
 20
-244.4949545454546
 30
0.0
 11
-129.0
 21
-245.4040454545455
 31
0.0
  0
LINE
  5
22A
330
507
100
AcDbEntity
  8
DATA
  6
Continuous
 62
     7
100
AcDbLine
 10
-121.0
 20
-243.9999545454546
 30
0.0
 11
-129.0
 21
-244.9090454545455
 31
0.0
  0
LINE
  5
22B
330
507
100
AcDbEntity
  8
DATA
  6
Continuous
 62
     7
100
AcDbLine
 10
-121.0
 20
-242.4949545454546
 30
0.0
 11
-129.0
 21
-243.4040454545455
 31
0.0
  0
LINE
  5
22C
330
507
100
AcDbEntity
  8
DATA
  6
Continuous
 62
     7
100
AcDbLine
 10
-121.0
 20
-241.9999545454546
 30
0.0
 11
-129.0
 21
-242.9090454545455
 31
0.0
  0
LINE
  5
22D
330
507
100
AcDbEntity
  8
DATA
  6
Continuous
 62
     7
100
AcDbLine
 10
-121.0
 20
-240.4949545454546
 30
0.0
 11
-129.0
 21
-241.4040454545455
 31
0.0
  0
LINE
  5
22E
330
507
100
AcDbEntity
  8
DATA
  6
Continuous
 62
     7
100
AcDbLine
 10
-121.0
 20
-239.9999545454546
 30
0.0
 11
-129.0
 21
-240.9090454545455
 31
0.0
  0
LINE
  5
22F
330
507
100
AcDbEntity
  8
DATA
  6
Continuous
 62
     7
100
AcDbLine
 10
-121.0
 20
-238.4949545454546
 30
0.0
 11
-129.0
 21
-239.4040454545454
 31
0.0
  0
LINE
  5
230
330
507
100
AcDbEntity
  8
DATA
  6
Continuous
 62
     7
100
AcDbLine
 10
-121.0
 20
-237.9999545454546
 30
0.0
 11
-129.0
 21
-238.9090454545454
 31
0.0
  0
LINE
  5
231
330
507
100
AcDbEntity
  8
DATA
  6
Continuous
 62
     7
100
AcDbLine
 10
-121.0
 20
-236.4949545454546
 30
0.0
 11
-129.0
 21
-237.4040454545454
 31
0.0
  0
LINE
  5
232
330
507
100
AcDbEntity
  8
DATA
  6
Continuous
 62
     7
100
AcDbLine
 10
-121.0
 20
-235.9999545454546
 30
0.0
 11
-129.0
 21
-236.9090454545454
 31
0.0
  0
LINE
  5
233
330
507
100
AcDbEntity
  8
DATA
  6
Continuous
 62
     7
100
AcDbLine
 10
-121.0
 20
-234.4949545454546
 30
0.0
 11
-129.0
 21
-235.4040454545454
 31
0.0
  0
LINE
  5
234
330
507
100
AcDbEntity
  8
DATA
  6
Continuous
 62
     7
100
AcDbLine
 10
-121.0
 20
-233.9999545454546
 30
0.0
 11
-129.0
 21
-234.9090454545454
 31
0.0
  0
LINE
  5
235
330
507
100
AcDbEntity
  8
DATA
  6
Continuous
 62
     7
100
AcDbLine
 10
-121.0
 20
-232.4949545454546
 30
0.0
 11
-129.0
 21
-233.4040454545455
 31
0.0
  0
LINE
  5
236
330
507
100
AcDbEntity
  8
DATA
  6
Continuous
 62
     7
100
AcDbLine
 10
-121.0
 20
-231.9999545454546
 30
0.0
 11
-129.0
 21
-232.9090454545454
 31
0.0
  0
LINE
  5
237
330
507
100
AcDbEntity
  8
DATA
  6
Continuous
 62
     7
100
AcDbLine
 10
-121.0
 20
-230.4949545454546
 30
0.0
 11
-129.0
 21
-231.4040454545455
 31
0.0
  0
LINE
  5
238
330
507
100
AcDbEntity
  8
DATA
  6
Continuous
 62
     7
100
AcDbLine
 10
-121.0
 20
-229.9999545454546
 30
0.0
 11
-129.0
 21
-230.9090454545454
 31
0.0
  0
LINE
  5
239
330
507
100
AcDbEntity
  8
DATA
  6
Continuous
 62
     7
100
AcDbLine
 10
-121.0
 20
-228.4949545454546
 30
0.0
 11
-129.0
 21
-229.4040454545455
 31
0.0
  0
LINE
  5
23A
330
507
100
AcDbEntity
  8
DATA
  6
Continuous
 62
     7
100
AcDbLine
 10
-121.0
 20
-227.9999545454546
 30
0.0
 11
-129.0
 21
-228.9090454545454
 31
0.0
  0
LINE
  5
23B
330
507
100
AcDbEntity
  8
DATA
  6
Continuous
 62
     7
100
AcDbLine
 10
-121.0
 20
-226.4949545454546
 30
0.0
 11
-129.0
 21
-227.4040454545455
 31
0.0
  0
LINE
  5
23C
330
507
100
AcDbEntity
  8
DATA
  6
Continuous
 62
     7
100
AcDbLine
 10
-121.0
 20
-225.9999545454546
 30
0.0
 11
-129.0
 21
-226.9090454545454
 31
0.0
  0
LINE
  5
23D
330
507
100
AcDbEntity
  8
DATA
  6
Continuous
 62
     7
100
AcDbLine
 10
-121.0
 20
-224.4949545454546
 30
0.0
 11
-129.0
 21
-225.4040454545455
 31
0.0
  0
LINE
  5
23E
330
507
100
AcDbEntity
  8
DATA
  6
Continuous
 62
     7
100
AcDbLine
 10
-121.0
 20
-223.9999545454546
 30
0.0
 11
-129.0
 21
-224.9090454545454
 31
0.0
  0
LINE
  5
23F
330
507
100
AcDbEntity
  8
DATA
  6
Continuous
 62
     7
100
AcDbLine
 10
-121.0
 20
-222.4949545454546
 30
0.0
 11
-129.0
 21
-223.4040454545455
 31
0.0
  0
LINE
  5
240
330
507
100
AcDbEntity
  8
DATA
  6
Continuous
 62
     7
100
AcDbLine
 10
-121.4403999999992
 20
-222.05
 30
0.0
 11
-129.0
 21
-222.9090454545454
 31
0.0
  0
LINE
  5
241
330
507
100
AcDbEntity
  8
DATA
  6
Continuous
 62
     7
100
AcDbLine
 10
-120.75
 20
-222.05
 30
0.0
 11
-120.75
 21
-197.0
 31
0.0
  0
LINE
  5
242
330
507
100
AcDbEntity
  8
DATA
  6
Continuous
 62
     7
100
AcDbLine
 10
-129.25
 20
-222.05
 30
0.0
 11
-129.25
 21
-197.0
 31
0.0
  0
LINE
  5
243
330
507
100
AcDbEntity
  8
DATA
  6
Continuous
 62
     7
100
AcDbLine
 10
-121.25
 20
-192.5
 30
0.0
 11
-120.75
 21
-197.0
 31
0.0
  0
LINE
  5
244
330
507
100
AcDbEntity
  8
DATA
  6
Continuous
 62
     7
100
AcDbLine
 10
-129.25
 20
-197.0
 30
0.0
 11
-128.75
 21
-192.5
 31
0.0
  0
LINE
  5
245
330
507
100
AcDbEntity
  8
DATA
  6
Continuous
 62
     7
100
AcDbLine
 10
-128.75
 20
-192.5
 30
0.0
 11
-121.25
 21
-192.5
 31
0.0
  0
LINE
  5
246
330
507
100
AcDbEntity
  8
DATA
  6
Continuous
 62
     7
100
AcDbLine
 10
-129.25
 20
47.94999999999999
 30
0.0
 11
-120.75
 21
47.94999999999999
 31
0.0
  0
LINE
  5
247
330
507
100
AcDbEntity
  8
DATA
  6
Continuous
 62
     7
100
AcDbLine
 10
-120.75
 20
47.94999999999999
 30
0.0
 11
-120.75
 21
22.00000000000001
 31
0.0
  0
LINE
  5
248
330
507
100
AcDbEntity
  8
DATA
  6
Continuous
 62
     7
100
AcDbLine
 10
-129.25
 20
47.94999999999999
 30
0.0
 11
-129.25
 21
22.00000000000001
 31
0.0
  0
LINE
  5
249
330
507
100
AcDbEntity
  8
DATA
  6
Continuous
 62
     7
100
AcDbLine
 10
-121.25
 20
17.50000000000001
 30
0.0
 11
-120.75
 21
22.00000000000001
 31
0.0
  0
LINE
  5
24A
330
507
100
AcDbEntity
  8
DATA
  6
Continuous
 62
     7
100
AcDbLine
 10
-129.25
 20
22.00000000000001
 30
0.0
 11
-128.75
 21
17.50000000000001
 31
0.0
  0
LINE
  5
24B
330
507
100
AcDbEntity
  8
DATA
  6
Continuous
 62
     7
100
AcDbLine
 10
-128.75
 20
17.50000000000001
 30
0.0
 11
-121.25
 21
17.50000000000001
 31
0.0
  0
LINE
  5
24C
330
507
100
AcDbEntity
  8
DATA
  6
Continuous
 62
     7
100
AcDbLine
 10
-121.0
 20
49.35504545454548
 30
0.0
 11
-129.0
 21
48.44595454545459
 31
0.0
  0
LINE
  5
24D
330
507
100
AcDbEntity
  8
DATA
  6
Continuous
 62
     7
100
AcDbLine
 10
-121.0
 20
49.85004545454548
 30
0.0
 11
-129.0
 21
48.9409545454546
 31
0.0
  0
LINE
  5
24E
330
507
100
AcDbEntity
  8
DATA
  6
Continuous
 62
     7
100
AcDbLine
 10
-121.0
 20
110.95
 30
0.0
 11
-121.0
 21
47.94999999999999
 31
0.0
  0
LINE
  5
24F
330
507
100
AcDbEntity
  8
DATA
  6
Continuous
 62
     7
100
AcDbLine
 10
-129.0
 20
110.95
 30
0.0
 11
-129.0
 21
47.94999999999999
 31
0.0
  0
LINE
  5
250
330
507
100
AcDbEntity
  8
DATA
  6
Continuous
 62
     7
100
AcDbLine
 10
-121.0
 20
51.35504545454548
 30
0.0
 11
-129.0
 21
50.4459545454546
 31
0.0
  0
LINE
  5
251
330
507
100
AcDbEntity
  8
DATA
  6
Continuous
 62
     7
100
AcDbLine
 10
-121.0
 20
51.85004545454548
 30
0.0
 11
-129.0
 21
50.9409545454546
 31
0.0
  0
LINE
  5
252
330
507
100
AcDbEntity
  8
DATA
  6
Continuous
 62
     7
100
AcDbLine
 10
-121.0
 20
53.35504545454546
 30
0.0
 11
-129.0
 21
52.4459545454546
 31
0.0
  0
LINE
  5
253
330
507
100
AcDbEntity
  8
DATA
  6
Continuous
 62
     7
100
AcDbLine
 10
-121.0
 20
53.85004545454548
 30
0.0
 11
-129.0
 21
52.94095454545458
 31
0.0
  0
LINE
  5
254
330
507
100
AcDbEntity
  8
DATA
  6
Continuous
 62
     7
100
AcDbLine
 10
-121.0
 20
55.35504545454546
 30
0.0
 11
-129.0
 21
54.4459545454546
 31
0.0
  0
LINE
  5
255
330
507
100
AcDbEntity
  8
DATA
  6
Continuous
 62
     7
100
AcDbLine
 10
-121.0
 20
55.85004545454548
 30
0.0
 11
-129.0
 21
54.94095454545458
 31
0.0
  0
LINE
  5
256
330
507
100
AcDbEntity
  8
DATA
  6
Continuous
 62
     7
100
AcDbLine
 10
-121.0
 20
57.35504545454546
 30
0.0
 11
-129.0
 21
56.44595454545459
 31
0.0
  0
LINE
  5
257
330
507
100
AcDbEntity
  8
DATA
  6
Continuous
 62
     7
100
AcDbLine
 10
-121.0
 20
57.85004545454548
 30
0.0
 11
-129.0
 21
56.94095454545458
 31
0.0
  0
LINE
  5
258
330
507
100
AcDbEntity
  8
DATA
  6
Continuous
 62
     7
100
AcDbLine
 10
-121.0
 20
59.35504545454546
 30
0.0
 11
-129.0
 21
58.44595454545459
 31
0.0
  0
LINE
  5
259
330
507
100
AcDbEntity
  8
DATA
  6
Continuous
 62
     7
100
AcDbLine
 10
-121.0
 20
59.85004545454546
 30
0.0
 11
-129.0
 21
58.94095454545458
 31
0.0
  0
LINE
  5
25A
330
507
100
AcDbEntity
  8
DATA
  6
Continuous
 62
     7
100
AcDbLine
 10
-121.0
 20
61.35504545454546
 30
0.0
 11
-129.0
 21
60.44595454545458
 31
0.0
  0
LINE
  5
25B
330
507
100
AcDbEntity
  8
DATA
  6
Continuous
 62
     7
100
AcDbLine
 10
-121.0
 20
61.85004545454546
 30
0.0
 11
-129.0
 21
60.94095454545458
 31
0.0
  0
LINE
  5
25C
330
507
100
AcDbEntity
  8
DATA
  6
Continuous
 62
     7
100
AcDbLine
 10
-121.0
 20
63.35504545454546
 30
0.0
 11
-129.0
 21
62.44595454545457
 31
0.0
  0
LINE
  5
25D
330
507
100
AcDbEntity
  8
DATA
  6
Continuous
 62
     7
100
AcDbLine
 10
-121.0
 20
63.85004545454545
 30
0.0
 11
-129.0
 21
62.94095454545458
 31
0.0
  0
LINE
  5
25E
330
507
100
AcDbEntity
  8
DATA
  6
Continuous
 62
     7
100
AcDbLine
 10
-121.0
 20
65.35504545454546
 30
0.0
 11
-129.0
 21
64.44595454545458
 31
0.0
  0
LINE
  5
25F
330
507
100
AcDbEntity
  8
DATA
  6
Continuous
 62
     7
100
AcDbLine
 10
-121.0
 20
65.85004545454546
 30
0.0
 11
-129.0
 21
64.94095454545457
 31
0.0
  0
LINE
  5
260
330
507
100
AcDbEntity
  8
DATA
  6
Continuous
 62
     7
100
AcDbLine
 10
-121.0
 20
67.35504545454546
 30
0.0
 11
-129.0
 21
66.44595454545458
 31
0.0
  0
LINE
  5
261
330
507
100
AcDbEntity
  8
DATA
  6
Continuous
 62
     7
100
AcDbLine
 10
-121.0
 20
67.85004545454547
 30
0.0
 11
-129.0
 21
66.94095454545458
 31
0.0
  0
LINE
  5
262
330
507
100
AcDbEntity
  8
DATA
  6
Continuous
 62
     7
100
AcDbLine
 10
-121.0
 20
69.35504545454546
 30
0.0
 11
-129.0
 21
68.44595454545459
 31
0.0
  0
LINE
  5
263
330
507
100
AcDbEntity
  8
DATA
  6
Continuous
 62
     7
100
AcDbLine
 10
-121.0
 20
69.85004545454547
 30
0.0
 11
-129.0
 21
68.94095454545457
 31
0.0
  0
LINE
  5
264
330
507
100
AcDbEntity
  8
DATA
  6
Continuous
 62
     7
100
AcDbLine
 10
-121.0
 20
71.35504545454544
 30
0.0
 11
-129.0
 21
70.44595454545458
 31
0.0
  0
LINE
  5
265
330
507
100
AcDbEntity
  8
DATA
  6
Continuous
 62
     7
100
AcDbLine
 10
-121.0
 20
71.85004545454545
 30
0.0
 11
-129.0
 21
70.94095454545457
 31
0.0
  0
LINE
  5
266
330
507
100
AcDbEntity
  8
DATA
  6
Continuous
 62
     7
100
AcDbLine
 10
-121.0
 20
73.35504545454542
 30
0.0
 11
-129.0
 21
72.44595454545458
 31
0.0
  0
LINE
  5
267
330
507
100
AcDbEntity
  8
DATA
  6
Continuous
 62
     7
100
AcDbLine
 10
-121.0
 20
73.85004545454545
 30
0.0
 11
-129.0
 21
72.9409545454546
 31
0.0
  0
LINE
  5
268
330
507
100
AcDbEntity
  8
DATA
  6
Continuous
 62
     7
100
AcDbLine
 10
-121.0
 20
75.35504545454545
 30
0.0
 11
-129.0
 21
74.44595454545458
 31
0.0
  0
LINE
  5
269
330
507
100
AcDbEntity
  8
DATA
  6
Continuous
 62
     7
100
AcDbLine
 10
-121.0
 20
75.85004545454545
 30
0.0
 11
-129.0
 21
74.9409545454546
 31
0.0
  0
LINE
  5
26A
330
507
100
AcDbEntity
  8
DATA
  6
Continuous
 62
     7
100
AcDbLine
 10
-121.0
 20
77.35504545454545
 30
0.0
 11
-129.0
 21
76.44595454545458
 31
0.0
  0
LINE
  5
26B
330
507
100
AcDbEntity
  8
DATA
  6
Continuous
 62
     7
100
AcDbLine
 10
-121.0
 20
77.85004545454545
 30
0.0
 11
-129.0
 21
76.9409545454546
 31
0.0
  0
LINE
  5
26C
330
507
100
AcDbEntity
  8
DATA
  6
Continuous
 62
     7
100
AcDbLine
 10
-121.0
 20
79.35504545454545
 30
0.0
 11
-129.0
 21
78.44595454545459
 31
0.0
  0
LINE
  5
26D
330
507
100
AcDbEntity
  8
DATA
  6
Continuous
 62
     7
100
AcDbLine
 10
-121.0
 20
79.85004545454545
 30
0.0
 11
-129.0
 21
78.9409545454546
 31
0.0
  0
LINE
  5
26E
330
507
100
AcDbEntity
  8
DATA
  6
Continuous
 62
     7
100
AcDbLine
 10
-121.0
 20
81.35504545454542
 30
0.0
 11
-129.0
 21
80.44595454545458
 31
0.0
  0
LINE
  5
26F
330
507
100
AcDbEntity
  8
DATA
  6
Continuous
 62
     7
100
AcDbLine
 10
-121.0
 20
81.85004545454543
 30
0.0
 11
-129.0
 21
80.9409545454546
 31
0.0
  0
LINE
  5
270
330
507
100
AcDbEntity
  8
DATA
  6
Continuous
 62
     7
100
AcDbLine
 10
-121.0
 20
83.35504545454545
 30
0.0
 11
-129.0
 21
82.44595454545459
 31
0.0
  0
LINE
  5
271
330
507
100
AcDbEntity
  8
DATA
  6
Continuous
 62
     7
100
AcDbLine
 10
-121.0
 20
83.85004545454545
 30
0.0
 11
-129.0
 21
82.94095454545461
 31
0.0
  0
LINE
  5
272
330
507
100
AcDbEntity
  8
DATA
  6
Continuous
 62
     7
100
AcDbLine
 10
-121.0
 20
85.35504545454545
 30
0.0
 11
-129.0
 21
84.44595454545458
 31
0.0
  0
LINE
  5
273
330
507
100
AcDbEntity
  8
DATA
  6
Continuous
 62
     7
100
AcDbLine
 10
-121.0
 20
85.85004545454545
 30
0.0
 11
-129.0
 21
84.9409545454546
 31
0.0
  0
LINE
  5
274
330
507
100
AcDbEntity
  8
DATA
  6
Continuous
 62
     7
100
AcDbLine
 10
-121.0
 20
87.35504545454546
 30
0.0
 11
-129.0
 21
86.44595454545457
 31
0.0
  0
LINE
  5
275
330
507
100
AcDbEntity
  8
DATA
  6
Continuous
 62
     7
100
AcDbLine
 10
-121.0
 20
87.85004545454546
 30
0.0
 11
-129.0
 21
86.94095454545459
 31
0.0
  0
LINE
  5
276
330
507
100
AcDbEntity
  8
DATA
  6
Continuous
 62
     7
100
AcDbLine
 10
-121.0
 20
89.35504545454547
 30
0.0
 11
-129.0
 21
88.44595454545459
 31
0.0
  0
LINE
  5
277
330
507
100
AcDbEntity
  8
DATA
  6
Continuous
 62
     7
100
AcDbLine
 10
-121.0
 20
89.85004545454547
 30
0.0
 11
-129.0
 21
88.9409545454546
 31
0.0
  0
LINE
  5
278
330
507
100
AcDbEntity
  8
DATA
  6
Continuous
 62
     7
100
AcDbLine
 10
-121.0
 20
91.35504545454546
 30
0.0
 11
-129.0
 21
90.44595454545458
 31
0.0
  0
LINE
  5
279
330
507
100
AcDbEntity
  8
DATA
  6
Continuous
 62
     7
100
AcDbLine
 10
-121.0
 20
91.85004545454546
 30
0.0
 11
-129.0
 21
90.9409545454546
 31
0.0
  0
LINE
  5
27A
330
507
100
AcDbEntity
  8
DATA
  6
Continuous
 62
     7
100
AcDbLine
 10
-121.0
 20
93.35504545454545
 30
0.0
 11
-129.0
 21
92.44595454545459
 31
0.0
  0
LINE
  5
27B
330
507
100
AcDbEntity
  8
DATA
  6
Continuous
 62
     7
100
AcDbLine
 10
-121.0
 20
93.85004545454547
 30
0.0
 11
-129.0
 21
92.94095454545461
 31
0.0
  0
LINE
  5
27C
330
507
100
AcDbEntity
  8
DATA
  6
Continuous
 62
     7
100
AcDbLine
 10
-121.0
 20
95.35504545454546
 30
0.0
 11
-129.0
 21
94.44595454545458
 31
0.0
  0
LINE
  5
27D
330
507
100
AcDbEntity
  8
DATA
  6
Continuous
 62
     7
100
AcDbLine
 10
-121.0
 20
95.85004545454546
 30
0.0
 11
-129.0
 21
94.9409545454546
 31
0.0
  0
LINE
  5
27E
330
507
100
AcDbEntity
  8
DATA
  6
Continuous
 62
     7
100
AcDbLine
 10
-121.0
 20
97.35504545454546
 30
0.0
 11
-129.0
 21
96.44595454545459
 31
0.0
  0
LINE
  5
27F
330
507
100
AcDbEntity
  8
DATA
  6
Continuous
 62
     7
100
AcDbLine
 10
-121.0
 20
97.85004545454548
 30
0.0
 11
-129.0
 21
96.94095454545461
 31
0.0
  0
LINE
  5
280
330
507
100
AcDbEntity
  8
DATA
  6
Continuous
 62
     7
100
AcDbLine
 10
-121.0
 20
99.35504545454548
 30
0.0
 11
-129.0
 21
98.44595454545459
 31
0.0
  0
LINE
  5
281
330
507
100
AcDbEntity
  8
DATA
  6
Continuous
 62
     7
100
AcDbLine
 10
-121.0
 20
99.85004545454547
 30
0.0
 11
-129.0
 21
98.9409545454546
 31
0.0
  0
LINE
  5
282
330
507
100
AcDbEntity
  8
DATA
  6
Continuous
 62
     7
100
AcDbLine
 10
-121.0
 20
101.3550454545454
 30
0.0
 11
-129.0
 21
100.4459545454545
 31
0.0
  0
LINE
  5
283
330
507
100
AcDbEntity
  8
DATA
  6
Continuous
 62
     7
100
AcDbLine
 10
-121.0
 20
101.8500454545455
 30
0.0
 11
-129.0
 21
100.9409545454546
 31
0.0
  0
LINE
  5
284
330
507
100
AcDbEntity
  8
DATA
  6
Continuous
 62
     7
100
AcDbLine
 10
-121.0
 20
103.3550454545454
 30
0.0
 11
-129.0
 21
102.4459545454545
 31
0.0
  0
LINE
  5
285
330
507
100
AcDbEntity
  8
DATA
  6
Continuous
 62
     7
100
AcDbLine
 10
-121.0
 20
103.8500454545455
 30
0.0
 11
-129.0
 21
102.9409545454546
 31
0.0
  0
LINE
  5
286
330
507
100
AcDbEntity
  8
DATA
  6
Continuous
 62
     7
100
AcDbLine
 10
-121.0
 20
105.3550454545454
 30
0.0
 11
-129.0
 21
104.4459545454546
 31
0.0
  0
LINE
  5
287
330
507
100
AcDbEntity
  8
DATA
  6
Continuous
 62
     7
100
AcDbLine
 10
-121.0
 20
105.8500454545455
 30
0.0
 11
-129.0
 21
104.9409545454546
 31
0.0
  0
LINE
  5
288
330
507
100
AcDbEntity
  8
DATA
  6
Continuous
 62
     7
100
AcDbLine
 10
-121.0
 20
107.3550454545454
 30
0.0
 11
-129.0
 21
106.4459545454546
 31
0.0
  0
LINE
  5
289
330
507
100
AcDbEntity
  8
DATA
  6
Continuous
 62
     7
100
AcDbLine
 10
-121.0
 20
107.8500454545455
 30
0.0
 11
-129.0
 21
106.9409545454546
 31
0.0
  0
LINE
  5
28A
330
507
100
AcDbEntity
  8
DATA
  6
Continuous
 62
     7
100
AcDbLine
 10
-121.0
 20
109.3550454545454
 30
0.0
 11
-129.0
 21
108.4459545454546
 31
0.0
  0
LINE
  5
28B
330
507
100
AcDbEntity
  8
DATA
  6
Continuous
 62
     7
100
AcDbLine
 10
-121.0
 20
109.8500454545455
 30
0.0
 11
-129.0
 21
108.9409545454546
 31
0.0
  0
LINE
  5
28C
330
507
100
AcDbEntity
  8
DATA
  6
Continuous
 62
     7
100
AcDbLine
 10
-124.5644000000003
 20
110.95
 30
0.0
 11
-129.0
 21
110.4459545454546
 31
0.0
  0
LINE
  5
28D
330
507
100
AcDbEntity
  8
DATA
  6
Continuous
 62
     7
100
AcDbLine
 10
-131.3500000000001
 20
144.8
 30
0.0
 11
-118.65
 21
144.8
 31
0.0
  0
LINE
  5
28E
330
507
100
AcDbEntity
  8
DATA
  6
Continuous
 62
     7
100
AcDbLine
 10
-129.7499999999998
 20
123.95
 30
0.0
 11
-129.8
 21
128.3
 31
0.0
  0
LINE
  5
28F
330
507
100
AcDbEntity
  8
DATA
  6
Continuous
 62
     7
100
AcDbLine
 10
-129.8
 20
128.3
 30
0.0
 11
-129.95
 21
132.8
 31
0.0
  0
LINE
  5
290
330
507
100
AcDbEntity
  8
DATA
  6
Continuous
 62
     7
100
AcDbLine
 10
-129.95
 20
132.8
 30
0.0
 11
-130.2
 21
137.3
 31
0.0
  0
LINE
  5
291
330
507
100
AcDbEntity
  8
DATA
  6
Continuous
 62
     7
100
AcDbLine
 10
-130.2
 20
137.3
 30
0.0
 11
-130.7
 21
141.8
 31
0.0
  0
LINE
  5
292
330
507
100
AcDbEntity
  8
DATA
  6
Continuous
 62
     7
100
AcDbLine
 10
-130.7
 20
141.8
 30
0.0
 11
-130.95
 21
144.8
 31
0.0
  0
LINE
  5
293
330
507
100
AcDbEntity
  8
DATA
  6
Continuous
 62
     7
100
AcDbLine
 10
-120.25
 20
123.95
 30
0.0
 11
-120.2
 21
128.3
 31
0.0
  0
LINE
  5
294
330
507
100
AcDbEntity
  8
DATA
  6
Continuous
 62
     7
100
AcDbLine
 10
-120.2
 20
128.3
 30
0.0
 11
-120.05
 21
132.8
 31
0.0
  0
LINE
  5
295
330
507
100
AcDbEntity
  8
DATA
  6
Continuous
 62
     7
100
AcDbLine
 10
-120.05
 20
132.8
 30
0.0
 11
-119.8
 21
137.3
 31
0.0
  0
LINE
  5
296
330
507
100
AcDbEntity
  8
DATA
  6
Continuous
 62
     7
100
AcDbLine
 10
-119.8
 20
137.3
 30
0.0
 11
-119.3
 21
141.8
 31
0.0
  0
LINE
  5
297
330
507
100
AcDbEntity
  8
DATA
  6
Continuous
 62
     7
100
AcDbLine
 10
-119.3
 20
141.8
 30
0.0
 11
-119.05
 21
144.8
 31
0.0
  0
LINE
  5
298
330
507
100
AcDbEntity
  8
DATA
  6
Continuous
 62
     7
100
AcDbLine
 10
-131.3500000000001
 20
150.0
 30
0.0
 11
-118.65
 21
150.0
 31
0.0
  0
ARC
  5
299
330
507
100
AcDbEntity
  8
DATA
  6
Continuous
 62
     7
100
AcDbCircle
 10
-131.3500000000001
 20
147.4
 30
0.0
 40
2.600000000000021
100
AcDbArc
 50
90.0
 51
270.0
  0
ARC
  5
29A
330
507
100
AcDbEntity
  8
DATA
  6
Continuous
 62
     7
100
AcDbCircle
 10
-118.65
 20
147.4
 30
0.0
 40
2.600000000000021
100
AcDbArc
 50
270.0
 51
90.0
  0
LINE
  5
29B
330
507
100
AcDbEntity
  8
DATA
  6
Continuous
 62
     7
100
AcDbLine
 10
-131.65
 20
158.0
 30
0.0
 11
-118.35
 21
158.0
 31
0.0
  0
LINE
  5
29C
330
507
100
AcDbEntity
  8
DATA
  6
Continuous
 62
     7
100
AcDbLine
 10
-131.65
 20
158.0
 30
0.0
 11
-131.5
 21
149.995669470484
 31
0.0
  0
LINE
  5
29D
330
507
100
AcDbEntity
  8
DATA
  6
Continuous
 62
     7
100
AcDbLine
 10
-118.35
 20
158.0
 30
0.0
 11
-118.5
 21
149.995669470484
 31
0.0
  0
LINE
  5
29E
330
507
100
AcDbEntity
  8
DATA
  6
Continuous
 62
     7
100
AcDbLine
 10
-131.4
 20
165.5
 30
0.0
 11
-118.6
 21
165.5
 31
0.0
  0
LINE
  5
29F
330
507
100
AcDbEntity
  8
DATA
  6
Continuous
 62
     7
100
AcDbLine
 10
-130.5
 20
176.9499999999998
 30
0.0
 11
-119.5
 21
176.9499999999998
 31
0.0
  0
LINE
  5
2A0
330
507
100
AcDbEntity
  8
DATA
  6
Continuous
 62
     7
100
AcDbLine
 10
-131.65
 20
158.0
 30
0.0
 11
-131.5656666666667
 21
160.53
 31
0.0
  0
LINE
  5
2A1
330
507
100
AcDbEntity
  8
DATA
  6
Continuous
 62
     7
100
AcDbLine
 10
-131.4
 20
165.5
 30
0.0
 11
-130.5
 21
176.9499999999998
 31
0.0
  0
LINE
  5
2A2
330
507
100
AcDbEntity
  8
DATA
  6
Continuous
 62
     7
100
AcDbLine
 10
-118.35
 20
158.0
 30
0.0
 11
-118.4343333333333
 21
160.53
 31
0.0
  0
LINE
  5
2A3
330
507
100
AcDbEntity
  8
DATA
  6
Continuous
 62
     7
100
AcDbLine
 10
-118.6
 20
165.5
 30
0.0
 11
-119.5
 21
176.9499999999998
 31
0.0
  0
ARC
  5
2A4
330
507
100
AcDbEntity
  8
DATA
  6
Continuous
 62
     7
100
AcDbCircle
 10
-125.0
 20
175.4395833333332
 30
0.0
 40
4.510416666666652
100
AcDbArc
 50
19.56481406361412
 51
160.4351859363824
  0
LINE
  5
2A5
330
507
100
AcDbEntity
  8
DATA
  6
Continuous
 62
     7
100
AcDbLine
 10
-131.5656666666667
 20
160.53
 30
0.0
 11
-118.4343333333333
 21
160.53
 31
0.0
  0
LINE
  5
2A6
330
507
100
AcDbEntity
  8
DATA
  6
Continuous
 62
     7
100
AcDbLine
 10
-124.5
 20
160.53
 30
0.0
 11
-124.5
 21
165.5
 31
0.0
  0
LINE
  5
2A7
330
507
100
AcDbEntity
  8
DATA
  6
Continuous
 62
     7
100
AcDbLine
 10
-125.5
 20
160.53
 30
0.0
 11
-125.5
 21
165.5
 31
0.0
  0
LINE
  5
2A8
330
507
100
AcDbEntity
  8
DATA
  6
Continuous
 62
     7
100
AcDbLine
 10
-126.4
 20
160.53
 30
0.0
 11
-126.4
 21
165.5
 31
0.0
  0
LINE
  5
2A9
330
507
100
AcDbEntity
  8
DATA
  6
Continuous
 62
     7
100
AcDbLine
 10
-123.6
 20
160.53
 30
0.0
 11
-123.6
 21
165.5
 31
0.0
  0
LINE
  5
2AA
330
507
100
AcDbEntity
  8
DATA
  6
Continuous
 62
     7
100
AcDbLine
 10
-120.6
 20
160.53
 30
0.0
 11
-120.6
 21
165.5
 31
0.0
  0
LINE
  5
2AB
330
507
100
AcDbEntity
  8
DATA
  6
Continuous
 62
     7
100
AcDbLine
 10
-129.4
 20
160.53
 30
0.0
 11
-129.4
 21
165.5
 31
0.0
  0
LINE
  5
2AC
330
507
100
AcDbEntity
  8
DATA
  6
Continuous
 62
     7
100
AcDbLine
 10
-131.4
 20
165.5
 30
0.0
 11
-131.4
 21
160.53
 31
0.0
  0
LINE
  5
2AD
330
507
100
AcDbEntity
  8
DATA
  6
Continuous
 62
     7
100
AcDbLine
 10
-118.6
 20
165.5
 30
0.0
 11
-118.6
 21
160.53
 31
0.0
  0
ARC
  5
2AE
330
507
100
AcDbEntity
  8
DATA
  6
Continuous
 62
     7
100
AcDbCircle
 10
-120.75
 20
176.9499999999998
 30
0.0
 40
0.9999999999999964
100
AcDbArc
 50
115.9293903448024
 51
180.0
  0
ARC
  5
2AF
330
507
100
AcDbEntity
  8
DATA
  6
Continuous
 62
     7
100
AcDbCircle
 10
-120.75
 20
176.9499999999998
 30
0.0
 40
2.000000000000007
100
AcDbArc
 50
122.3742451091623
 51
180.0
  0
ARC
  5
2B0
330
507
100
AcDbEntity
  8
DATA
  6
Continuous
 62
     7
100
AcDbCircle
 10
-120.75
 20
176.9499999999998
 30
0.0
 40
3.00000000000001
100
AcDbArc
 50
128.9892582633292
 51
180.0
  0
ARC
  5
2B1
330
507
100
AcDbEntity
  8
DATA
  6
Continuous
 62
     7
100
AcDbCircle
 10
-120.75
 20
176.9499999999998
 30
0.0
 40
4.00000000000002
100
AcDbArc
 50
135.8869821588974
 51
180.0
  0
ARC
  5
2B2
330
507
100
AcDbEntity
  8
DATA
  6
Continuous
 62
     7
100
AcDbCircle
 10
-120.75
 20
176.9499999999998
 30
0.0
 40
4.999999999999995
100
AcDbArc
 50
143.2254362538431
 51
180.0
  0
ARC
  5
2B3
330
507
100
AcDbEntity
  8
DATA
  6
Continuous
 62
     7
100
AcDbCircle
 10
-120.75
 20
176.9499999999998
 30
0.0
 40
6.000000000000006
100
AcDbArc
 50
151.2568848821769
 51
180.0
  0
ARC
  5
2B4
330
507
100
AcDbEntity
  8
DATA
  6
Continuous
 62
     7
100
AcDbCircle
 10
-120.75
 20
176.9499999999998
 30
0.0
 40
6.999999999999992
100
AcDbArc
 50
160.4589199476931
 51
180.0
  0
ARC
  5
2B5
330
507
100
AcDbEntity
  8
DATA
  6
Continuous
 62
     7
100
AcDbCircle
 10
-120.75
 20
176.9499999999998
 30
0.0
 40
8.0
100
AcDbArc
 50
172.0431313208422
 51
180.0
  0
ARC
  5
2B6
330
507
100
AcDbEntity
  8
DATA
  6
Continuous
 62
     7
100
AcDbCircle
 10
-129.2499999999998
 20
176.95
 30
0.0
 40
0.4999999999999147
100
AcDbArc
 50
359.9999999999708
 51
67.25781001181821
  0
ARC
  5
2B7
330
507
100
AcDbEntity
  8
DATA
  6
Continuous
 62
     7
100
AcDbCircle
 10
-129.2499999999998
 20
176.95
 30
0.0
 40
1.499999999999914
100
AcDbArc
 50
359.9999999999902
 51
60.86348361047032
  0
ARC
  5
2B8
330
507
100
AcDbEntity
  8
DATA
  6
Continuous
 62
     7
100
AcDbCircle
 10
-129.2499999999998
 20
176.95
 30
0.0
 40
2.499999999999913
100
AcDbArc
 50
359.9999999999941
 51
54.34582416287072
  0
ARC
  5
2B9
330
507
100
AcDbEntity
  8
DATA
  6
Continuous
 62
     7
100
AcDbCircle
 10
-129.2499999999998
 20
176.95
 30
0.0
 40
3.499999999999913
100
AcDbArc
 50
359.999999999996
 51
47.60564954377758
  0
ARC
  5
2BA
330
507
100
AcDbEntity
  8
DATA
  6
Continuous
 62
     7
100
AcDbCircle
 10
-129.2499999999998
 20
176.95
 30
0.0
 40
4.499999999999913
100
AcDbArc
 50
359.9999999999968
 51
40.51155318934815
  0
ARC
  5
2BB
330
507
100
AcDbEntity
  8
DATA
  6
Continuous
 62
     7
100
AcDbCircle
 10
-129.2499999999998
 20
176.95
 30
0.0
 40
5.499999999999913
100
AcDbArc
 50
359.9999999999973
 51
32.86738845856911
  0
ARC
  5
2BC
330
507
100
AcDbEntity
  8
DATA
  6
Continuous
 62
     7
100
AcDbCircle
 10
-129.2499999999998
 20
176.95
 30
0.0
 40
6.499999999999913
100
AcDbArc
 50
359.9999999999978
 51
24.33492475586569
  0
ARC
  5
2BD
330
507
100
AcDbEntity
  8
DATA
  6
Continuous
 62
     7
100
AcDbCircle
 10
-129.2499999999998
 20
176.95
 30
0.0
 40
7.499999999999912
100
AcDbArc
 50
359.999999999998
 51
14.1914594526072
  0
LINE
  5
2BE
330
507
100
AcDbEntity
  8
DATA
  6
Continuous
 62
     7
100
AcDbLine
 10
150.9999955256771
 20
-250.5850044743228
 30
0.0
 11
-59.00000447432271
 21
-250.5850044743228
 31
0.0
  0
LINE
  5
2BF
330
507
100
AcDbEntity
  8
DATA
  6
Continuous
 62
     7
100
AcDbLine
 10
150.9999955256771
 20
-257.5150044743228
 30
0.0
 11
-59.00000447432271
 21
-257.5150044743228
 31
0.0
  0
LINE
  5
2C0
330
507
100
AcDbEntity
  8
DATA
  6
Continuous
 62
     7
100
AcDbLine
 10
-89.00000447432272
 20
-249.8000044743228
 30
0.0
 11
-89.00000447432272
 21
-258.3000044743227
 31
0.0
  0
LINE
  5
2C1
330
507
100
AcDbEntity
  8
DATA
  6
Continuous
 62
     7
100
AcDbLine
 10
-89.00000447432272
 20
-258.3000044743227
 30
0.0
 11
-63.50000447432271
 21
-258.3000044743227
 31
0.0
  0
LINE
  5
2C2
330
507
100
AcDbEntity
  8
DATA
  6
Continuous
 62
     7
100
AcDbLine
 10
-89.00000447432272
 20
-249.8000044743228
 30
0.0
 11
-63.50000447432271
 21
-249.8000044743228
 31
0.0
  0
LINE
  5
2C3
330
507
100
AcDbEntity
  8
DATA
  6
Continuous
 62
     7
100
AcDbLine
 10
-59.00000447432271
 20
-257.8000044743228
 30
0.0
 11
-63.50000447432271
 21
-258.3000044743227
 31
0.0
  0
LINE
  5
2C4
330
507
100
AcDbEntity
  8
DATA
  6
Continuous
 62
     7
100
AcDbLine
 10
-63.50000447432271
 20
-249.8000044743228
 30
0.0
 11
-59.00000447432271
 21
-250.3000044743227
 31
0.0
  0
LINE
  5
2C5
330
507
100
AcDbEntity
  8
DATA
  6
Continuous
 62
     7
100
AcDbLine
 10
-59.00000447432271
 20
-250.3000044743227
 30
0.0
 11
-59.00000447432271
 21
-257.8000044743228
 31
0.0
  0
LINE
  5
2C6
330
507
100
AcDbEntity
  8
DATA
  6
Continuous
 62
     7
100
AcDbLine
 10
180.9999955256773
 20
-249.8000044743228
 30
0.0
 11
180.9999955256773
 21
-258.3000044743227
 31
0.0
  0
LINE
  5
2C7
330
507
100
AcDbEntity
  8
DATA
  6
Continuous
 62
     7
100
AcDbLine
 10
180.9999955256773
 20
-258.3000044743227
 30
0.0
 11
155.4999955256772
 21
-258.3000044743227
 31
0.0
  0
LINE
  5
2C8
330
507
100
AcDbEntity
  8
DATA
  6
Continuous
 62
     7
100
AcDbLine
 10
180.9999955256773
 20
-249.8000044743228
 30
0.0
 11
155.4999955256772
 21
-249.8000044743228
 31
0.0
  0
LINE
  5
2C9
330
507
100
AcDbEntity
  8
DATA
  6
Continuous
 62
     7
100
AcDbLine
 10
150.9999955256771
 20
-257.8000044743228
 30
0.0
 11
155.4999955256772
 21
-258.3000044743227
 31
0.0
  0
LINE
  5
2CA
330
507
100
AcDbEntity
  8
DATA
  6
Continuous
 62
     7
100
AcDbLine
 10
155.4999955256772
 20
-249.8000044743228
 30
0.0
 11
150.9999955256771
 21
-250.3000044743228
 31
0.0
  0
LINE
  5
2CB
330
507
100
AcDbEntity
  8
DATA
  6
Continuous
 62
     7
100
AcDbLine
 10
150.9999955256771
 20
-250.3000044743228
 30
0.0
 11
150.9999955256771
 21
-257.8000044743228
 31
0.0
  0
LINE
  5
2CC
330
507
100
AcDbEntity
  8
DATA
  6
Continuous
 62
     7
100
AcDbLine
 10
182.8550409802227
 20
-258.0500044743228
 30
0.0
 11
181.9459500711317
 21
-250.0500044743228
 31
0.0
  0
LINE
  5
2CD
330
507
100
AcDbEntity
  8
DATA
  6
Continuous
 62
     7
100
AcDbLine
 10
183.3500409802227
 20
-258.0500044743228
 30
0.0
 11
182.4409500711317
 21
-250.0500044743228
 31
0.0
  0
LINE
  5
2CE
330
507
100
AcDbEntity
  8
DATA
  6
Continuous
 62
     7
100
AcDbLine
 10
244.2999955256773
 20
-258.0500044743228
 30
0.0
 11
180.9999955256773
 21
-258.0500044743228
 31
0.0
  0
LINE
  5
2CF
330
507
100
AcDbEntity
  8
DATA
  6
Continuous
 62
     7
100
AcDbLine
 10
244.2999955256773
 20
-250.0500044743228
 30
0.0
 11
180.9999955256773
 21
-250.0500044743228
 31
0.0
  0
LINE
  5
2D0
330
507
100
AcDbEntity
  8
DATA
  6
Continuous
 62
     7
100
AcDbLine
 10
184.8550409802227
 20
-258.0500044743228
 30
0.0
 11
183.9459500711317
 21
-250.0500044743228
 31
0.0
  0
LINE
  5
2D1
330
507
100
AcDbEntity
  8
DATA
  6
Continuous
 62
     7
100
AcDbLine
 10
185.3500409802227
 20
-258.0500044743228
 30
0.0
 11
184.4409500711317
 21
-250.0500044743228
 31
0.0
  0
LINE
  5
2D2
330
507
100
AcDbEntity
  8
DATA
  6
Continuous
 62
     7
100
AcDbLine
 10
186.8550409802227
 20
-258.0500044743228
 30
0.0
 11
185.9459500711317
 21
-250.0500044743228
 31
0.0
  0
LINE
  5
2D3
330
507
100
AcDbEntity
  8
DATA
  6
Continuous
 62
     7
100
AcDbLine
 10
187.3500409802227
 20
-258.0500044743228
 30
0.0
 11
186.4409500711317
 21
-250.0500044743228
 31
0.0
  0
LINE
  5
2D4
330
507
100
AcDbEntity
  8
DATA
  6
Continuous
 62
     7
100
AcDbLine
 10
188.8550409802227
 20
-258.0500044743228
 30
0.0
 11
187.9459500711317
 21
-250.0500044743228
 31
0.0
  0
LINE
  5
2D5
330
507
100
AcDbEntity
  8
DATA
  6
Continuous
 62
     7
100
AcDbLine
 10
189.3500409802227
 20
-258.0500044743228
 30
0.0
 11
188.4409500711317
 21
-250.0500044743228
 31
0.0
  0
LINE
  5
2D6
330
507
100
AcDbEntity
  8
DATA
  6
Continuous
 62
     7
100
AcDbLine
 10
190.8550409802227
 20
-258.0500044743228
 30
0.0
 11
189.9459500711317
 21
-250.0500044743228
 31
0.0
  0
LINE
  5
2D7
330
507
100
AcDbEntity
  8
DATA
  6
Continuous
 62
     7
100
AcDbLine
 10
191.3500409802227
 20
-258.0500044743228
 30
0.0
 11
190.4409500711317
 21
-250.0500044743228
 31
0.0
  0
LINE
  5
2D8
330
507
100
AcDbEntity
  8
DATA
  6
Continuous
 62
     7
100
AcDbLine
 10
192.8550409802227
 20
-258.0500044743228
 30
0.0
 11
191.9459500711319
 21
-250.0500044743228
 31
0.0
  0
LINE
  5
2D9
330
507
100
AcDbEntity
  8
DATA
  6
Continuous
 62
     7
100
AcDbLine
 10
193.3500409802227
 20
-258.0500044743228
 30
0.0
 11
192.4409500711317
 21
-250.0500044743228
 31
0.0
  0
LINE
  5
2DA
330
507
100
AcDbEntity
  8
DATA
  6
Continuous
 62
     7
100
AcDbLine
 10
194.8550409802227
 20
-258.0500044743228
 30
0.0
 11
193.9459500711317
 21
-250.0500044743228
 31
0.0
  0
LINE
  5
2DB
330
507
100
AcDbEntity
  8
DATA
  6
Continuous
 62
     7
100
AcDbLine
 10
195.3500409802227
 20
-258.0500044743228
 30
0.0
 11
194.4409500711317
 21
-250.0500044743228
 31
0.0
  0
LINE
  5
2DC
330
507
100
AcDbEntity
  8
DATA
  6
Continuous
 62
     7
100
AcDbLine
 10
196.8550409802227
 20
-258.0500044743228
 30
0.0
 11
195.9459500711317
 21
-250.0500044743228
 31
0.0
  0
LINE
  5
2DD
330
507
100
AcDbEntity
  8
DATA
  6
Continuous
 62
     7
100
AcDbLine
 10
197.3500409802227
 20
-258.0500044743228
 30
0.0
 11
196.4409500711317
 21
-250.0500044743228
 31
0.0
  0
LINE
  5
2DE
330
507
100
AcDbEntity
  8
DATA
  6
Continuous
 62
     7
100
AcDbLine
 10
198.8550409802227
 20
-258.0500044743228
 30
0.0
 11
197.9459500711317
 21
-250.0500044743228
 31
0.0
  0
LINE
  5
2DF
330
507
100
AcDbEntity
  8
DATA
  6
Continuous
 62
     7
100
AcDbLine
 10
199.3500409802227
 20
-258.0500044743228
 30
0.0
 11
198.4409500711317
 21
-250.0500044743228
 31
0.0
  0
LINE
  5
2E0
330
507
100
AcDbEntity
  8
DATA
  6
Continuous
 62
     7
100
AcDbLine
 10
200.8550409802228
 20
-258.0500044743228
 30
0.0
 11
199.9459500711317
 21
-250.0500044743228
 31
0.0
  0
LINE
  5
2E1
330
507
100
AcDbEntity
  8
DATA
  6
Continuous
 62
     7
100
AcDbLine
 10
201.3500409802227
 20
-258.0500044743228
 30
0.0
 11
200.4409500711318
 21
-250.0500044743228
 31
0.0
  0
LINE
  5
2E2
330
507
100
AcDbEntity
  8
DATA
  6
Continuous
 62
     7
100
AcDbLine
 10
202.8550409802228
 20
-258.0500044743228
 30
0.0
 11
201.9459500711317
 21
-250.0500044743228
 31
0.0
  0
LINE
  5
2E3
330
507
100
AcDbEntity
  8
DATA
  6
Continuous
 62
     7
100
AcDbLine
 10
203.3500409802227
 20
-258.0500044743228
 30
0.0
 11
202.4409500711317
 21
-250.0500044743228
 31
0.0
  0
LINE
  5
2E4
330
507
100
AcDbEntity
  8
DATA
  6
Continuous
 62
     7
100
AcDbLine
 10
204.8550409802227
 20
-258.0500044743228
 30
0.0
 11
203.9459500711317
 21
-250.0500044743228
 31
0.0
  0
LINE
  5
2E5
330
507
100
AcDbEntity
  8
DATA
  6
Continuous
 62
     7
100
AcDbLine
 10
205.3500409802227
 20
-258.0500044743228
 30
0.0
 11
204.4409500711317
 21
-250.0500044743228
 31
0.0
  0
LINE
  5
2E6
330
507
100
AcDbEntity
  8
DATA
  6
Continuous
 62
     7
100
AcDbLine
 10
206.8550409802227
 20
-258.0500044743228
 30
0.0
 11
205.9459500711319
 21
-250.0500044743228
 31
0.0
  0
LINE
  5
2E7
330
507
100
AcDbEntity
  8
DATA
  6
Continuous
 62
     7
100
AcDbLine
 10
207.3500409802227
 20
-258.0500044743228
 30
0.0
 11
206.4409500711319
 21
-250.0500044743228
 31
0.0
  0
LINE
  5
2E8
330
507
100
AcDbEntity
  8
DATA
  6
Continuous
 62
     7
100
AcDbLine
 10
208.8550409802227
 20
-258.0500044743228
 30
0.0
 11
207.9459500711319
 21
-250.0500044743228
 31
0.0
  0
LINE
  5
2E9
330
507
100
AcDbEntity
  8
DATA
  6
Continuous
 62
     7
100
AcDbLine
 10
209.3500409802227
 20
-258.0500044743228
 30
0.0
 11
208.4409500711319
 21
-250.0500044743228
 31
0.0
  0
LINE
  5
2EA
330
507
100
AcDbEntity
  8
DATA
  6
Continuous
 62
     7
100
AcDbLine
 10
210.8550409802227
 20
-258.0500044743228
 30
0.0
 11
209.9459500711319
 21
-250.0500044743228
 31
0.0
  0
LINE
  5
2EB
330
507
100
AcDbEntity
  8
DATA
  6
Continuous
 62
     7
100
AcDbLine
 10
211.3500409802227
 20
-258.0500044743228
 30
0.0
 11
210.4409500711319
 21
-250.0500044743228
 31
0.0
  0
LINE
  5
2EC
330
507
100
AcDbEntity
  8
DATA
  6
Continuous
 62
     7
100
AcDbLine
 10
212.8550409802227
 20
-258.0500044743228
 30
0.0
 11
211.9459500711319
 21
-250.0500044743228
 31
0.0
  0
LINE
  5
2ED
330
507
100
AcDbEntity
  8
DATA
  6
Continuous
 62
     7
100
AcDbLine
 10
213.3500409802227
 20
-258.0500044743228
 30
0.0
 11
212.4409500711319
 21
-250.0500044743228
 31
0.0
  0
LINE
  5
2EE
330
507
100
AcDbEntity
  8
DATA
  6
Continuous
 62
     7
100
AcDbLine
 10
214.8550409802227
 20
-258.0500044743228
 30
0.0
 11
213.9459500711319
 21
-250.0500044743228
 31
0.0
  0
LINE
  5
2EF
330
507
100
AcDbEntity
  8
DATA
  6
Continuous
 62
     7
100
AcDbLine
 10
215.3500409802227
 20
-258.0500044743228
 30
0.0
 11
214.4409500711319
 21
-250.0500044743228
 31
0.0
  0
LINE
  5
2F0
330
507
100
AcDbEntity
  8
DATA
  6
Continuous
 62
     7
100
AcDbLine
 10
216.8550409802227
 20
-258.0500044743228
 30
0.0
 11
215.9459500711319
 21
-250.0500044743228
 31
0.0
  0
LINE
  5
2F1
330
507
100
AcDbEntity
  8
DATA
  6
Continuous
 62
     7
100
AcDbLine
 10
217.3500409802227
 20
-258.0500044743228
 30
0.0
 11
216.4409500711319
 21
-250.0500044743228
 31
0.0
  0
LINE
  5
2F2
330
507
100
AcDbEntity
  8
DATA
  6
Continuous
 62
     7
100
AcDbLine
 10
218.8550409802227
 20
-258.0500044743228
 30
0.0
 11
217.9459500711319
 21
-250.0500044743228
 31
0.0
  0
LINE
  5
2F3
330
507
100
AcDbEntity
  8
DATA
  6
Continuous
 62
     7
100
AcDbLine
 10
219.3500409802227
 20
-258.0500044743228
 30
0.0
 11
218.4409500711319
 21
-250.0500044743228
 31
0.0
  0
LINE
  5
2F4
330
507
100
AcDbEntity
  8
DATA
  6
Continuous
 62
     7
100
AcDbLine
 10
220.8550409802227
 20
-258.0500044743228
 30
0.0
 11
219.9459500711319
 21
-250.0500044743228
 31
0.0
  0
LINE
  5
2F5
330
507
100
AcDbEntity
  8
DATA
  6
Continuous
 62
     7
100
AcDbLine
 10
221.3500409802227
 20
-258.0500044743228
 30
0.0
 11
220.4409500711319
 21
-250.0500044743228
 31
0.0
  0
LINE
  5
2F6
330
507
100
AcDbEntity
  8
DATA
  6
Continuous
 62
     7
100
AcDbLine
 10
222.8550409802227
 20
-258.0500044743228
 30
0.0
 11
221.9459500711319
 21
-250.0500044743228
 31
0.0
  0
LINE
  5
2F7
330
507
100
AcDbEntity
  8
DATA
  6
Continuous
 62
     7
100
AcDbLine
 10
223.3500409802227
 20
-258.0500044743228
 30
0.0
 11
222.4409500711319
 21
-250.0500044743228
 31
0.0
  0
LINE
  5
2F8
330
507
100
AcDbEntity
  8
DATA
  6
Continuous
 62
     7
100
AcDbLine
 10
224.8550409802227
 20
-258.0500044743228
 30
0.0
 11
223.9459500711319
 21
-250.0500044743228
 31
0.0
  0
LINE
  5
2F9
330
507
100
AcDbEntity
  8
DATA
  6
Continuous
 62
     7
100
AcDbLine
 10
225.3500409802227
 20
-258.0500044743228
 30
0.0
 11
224.4409500711319
 21
-250.0500044743228
 31
0.0
  0
LINE
  5
2FA
330
507
100
AcDbEntity
  8
DATA
  6
Continuous
 62
     7
100
AcDbLine
 10
226.8550409802227
 20
-258.0500044743228
 30
0.0
 11
225.9459500711319
 21
-250.0500044743228
 31
0.0
  0
LINE
  5
2FB
330
507
100
AcDbEntity
  8
DATA
  6
Continuous
 62
     7
100
AcDbLine
 10
227.3500409802228
 20
-258.0500044743228
 30
0.0
 11
226.4409500711319
 21
-250.0500044743228
 31
0.0
  0
LINE
  5
2FC
330
507
100
AcDbEntity
  8
DATA
  6
Continuous
 62
     7
100
AcDbLine
 10
228.8550409802228
 20
-258.0500044743228
 30
0.0
 11
227.9459500711317
 21
-250.0500044743228
 31
0.0
  0
LINE
  5
2FD
330
507
100
AcDbEntity
  8
DATA
  6
Continuous
 62
     7
100
AcDbLine
 10
229.3500409802227
 20
-258.0500044743228
 30
0.0
 11
228.4409500711319
 21
-250.0500044743228
 31
0.0
  0
LINE
  5
2FE
330
507
100
AcDbEntity
  8
DATA
  6
Continuous
 62
     7
100
AcDbLine
 10
230.8550409802228
 20
-258.0500044743228
 30
0.0
 11
229.9459500711317
 21
-250.0500044743228
 31
0.0
  0
LINE
  5
2FF
330
507
100
AcDbEntity
  8
DATA
  6
Continuous
 62
     7
100
AcDbLine
 10
231.3500409802227
 20
-258.0500044743228
 30
0.0
 11
230.4409500711319
 21
-250.0500044743228
 31
0.0
  0
LINE
  5
300
330
507
100
AcDbEntity
  8
DATA
  6
Continuous
 62
     7
100
AcDbLine
 10
232.8550409802228
 20
-258.0500044743228
 30
0.0
 11
231.9459500711317
 21
-250.0500044743228
 31
0.0
  0
LINE
  5
301
330
507
100
AcDbEntity
  8
DATA
  6
Continuous
 62
     7
100
AcDbLine
 10
233.3500409802227
 20
-258.0500044743228
 30
0.0
 11
232.4409500711317
 21
-250.0500044743228
 31
0.0
  0
LINE
  5
302
330
507
100
AcDbEntity
  8
DATA
  6
Continuous
 62
     7
100
AcDbLine
 10
234.8550409802228
 20
-258.0500044743228
 30
0.0
 11
233.9459500711317
 21
-250.0500044743228
 31
0.0
  0
LINE
  5
303
330
507
100
AcDbEntity
  8
DATA
  6
Continuous
 62
     7
100
AcDbLine
 10
235.3500409802227
 20
-258.0500044743228
 30
0.0
 11
234.4409500711317
 21
-250.0500044743228
 31
0.0
  0
LINE
  5
304
330
507
100
AcDbEntity
  8
DATA
  6
Continuous
 62
     7
100
AcDbLine
 10
236.8550409802228
 20
-258.0500044743228
 30
0.0
 11
235.9459500711317
 21
-250.0500044743228
 31
0.0
  0
LINE
  5
305
330
507
100
AcDbEntity
  8
DATA
  6
Continuous
 62
     7
100
AcDbLine
 10
237.3500409802227
 20
-258.0500044743228
 30
0.0
 11
236.4409500711317
 21
-250.0500044743228
 31
0.0
  0
LINE
  5
306
330
507
100
AcDbEntity
  8
DATA
  6
Continuous
 62
     7
100
AcDbLine
 10
238.8550409802228
 20
-258.0500044743228
 30
0.0
 11
237.9459500711317
 21
-250.0500044743228
 31
0.0
  0
LINE
  5
307
330
507
100
AcDbEntity
  8
DATA
  6
Continuous
 62
     7
100
AcDbLine
 10
239.3500409802227
 20
-258.0500044743228
 30
0.0
 11
238.4409500711317
 21
-250.0500044743228
 31
0.0
  0
LINE
  5
308
330
507
100
AcDbEntity
  8
DATA
  6
Continuous
 62
     7
100
AcDbLine
 10
240.8550409802228
 20
-258.0500044743228
 30
0.0
 11
239.9459500711317
 21
-250.0500044743228
 31
0.0
  0
LINE
  5
309
330
507
100
AcDbEntity
  8
DATA
  6
Continuous
 62
     7
100
AcDbLine
 10
241.3500409802228
 20
-258.0500044743228
 30
0.0
 11
240.4409500711319
 21
-250.0500044743228
 31
0.0
  0
LINE
  5
30A
330
507
100
AcDbEntity
  8
DATA
  6
Continuous
 62
     7
100
AcDbLine
 10
242.8550409802228
 20
-258.0500044743228
 30
0.0
 11
241.9459500711319
 21
-250.0500044743228
 31
0.0
  0
LINE
  5
30B
330
507
100
AcDbEntity
  8
DATA
  6
Continuous
 62
     7
100
AcDbLine
 10
243.3500409802228
 20
-258.0500044743228
 30
0.0
 11
242.4409500711319
 21
-250.0500044743228
 31
0.0
  0
LINE
  5
30C
330
507
100
AcDbEntity
  8
DATA
  6
Continuous
 62
     7
100
AcDbLine
 10
244.2999955256773
 20
-253.1656044743226
 30
0.0
 11
243.9459500711319
 21
-250.0500044743228
 31
0.0
  0
LINE
  5
30D
330
507
100
AcDbEntity
  8
DATA
  6
Continuous
 62
     7
100
AcDbLine
 10
244.2999955256773
 20
-249.3000044743228
 30
0.0
 11
244.2999955256773
 21
-258.8000044743227
 31
0.0
  0
LINE
  5
30E
330
507
100
AcDbEntity
  8
DATA
  6
Continuous
 62
     7
100
AcDbLine
 10
247.2999955256773
 20
-249.3000044743228
 30
0.0
 11
247.2999955256773
 21
-258.8000044743227
 31
0.0
  0
LINE
  5
30F
330
507
100
AcDbEntity
  8
DATA
  6
Continuous
 62
     7
100
AcDbLine
 10
248.7999955256773
 20
-249.3000044743228
 30
0.0
 11
248.7999955256773
 21
-258.8000044743227
 31
0.0
  0
LINE
  5
310
330
507
100
AcDbEntity
  8
DATA
  6
Continuous
 62
     7
100
AcDbLine
 10
251.2999955256773
 20
-249.3000044743228
 30
0.0
 11
251.2999955256773
 21
-258.8000044743227
 31
0.0
  0
LINE
  5
311
330
507
100
AcDbEntity
  8
DATA
  6
Continuous
 62
     7
100
AcDbLine
 10
252.7999955256773
 20
-249.3000044743228
 30
0.0
 11
252.7999955256773
 21
-258.8000044743227
 31
0.0
  0
LINE
  5
312
330
507
100
AcDbEntity
  8
DATA
  6
Continuous
 62
     7
100
AcDbLine
 10
244.2999955256773
 20
-249.3000044743228
 30
0.0
 11
247.2999955256773
 21
-249.3000044743228
 31
0.0
  0
LINE
  5
313
330
507
100
AcDbEntity
  8
DATA
  6
Continuous
 62
     7
100
AcDbLine
 10
248.7999955256773
 20
-249.3000044743228
 30
0.0
 11
251.2999955256773
 21
-249.3000044743228
 31
0.0
  0
LINE
  5
314
330
507
100
AcDbEntity
  8
DATA
  6
Continuous
 62
     7
100
AcDbLine
 10
244.2999955256773
 20
-258.8000044743227
 30
0.0
 11
247.2999955256773
 21
-258.8000044743227
 31
0.0
  0
LINE
  5
315
330
507
100
AcDbEntity
  8
DATA
  6
Continuous
 62
     7
100
AcDbLine
 10
248.7999955256773
 20
-258.8000044743227
 30
0.0
 11
251.2999955256773
 21
-258.8000044743227
 31
0.0
  0
ARC
  5
316
330
507
100
AcDbEntity
  8
DATA
  6
Continuous
 62
     7
100
AcDbCircle
 10
248.0499955256773
 20
-258.9500044743227
 30
0.0
 40
0.7499999999999667
100
AcDbArc
 50
11.53695903280537
 51
168.4630409671955
  0
ARC
  5
317
330
507
100
AcDbEntity
  8
DATA
  6
Continuous
 62
     7
100
AcDbCircle
 10
248.0499955256773
 20
-249.1500044743228
 30
0.0
 40
0.7500000000000338
100
AcDbArc
 50
191.5369590328088
 51
348.4630409671904
  0
ARC
  5
318
330
507
100
AcDbEntity
  8
DATA
  6
Continuous
 62
     7
100
AcDbCircle
 10
252.0499955256773
 20
-249.1500044743228
 30
0.0
 40
0.7500000000000338
100
AcDbArc
 50
191.5369590328088
 51
348.4630409671904
  0
ARC
  5
319
330
507
100
AcDbEntity
  8
DATA
  6
Continuous
 62
     7
100
AcDbCircle
 10
252.0499955256773
 20
-258.9500044743227
 30
0.0
 40
0.7499999999999667
100
AcDbArc
 50
11.53695903280537
 51
168.4630409671955
  0
LINE
  5
31A
330
507
100
AcDbEntity
  8
DATA
  6
Continuous
 62
     7
100
AcDbLine
 10
278.2999955256773
 20
-247.7000044743227
 30
0.0
 11
278.2999955256773
 21
-260.4000044743228
 31
0.0
  0
LINE
  5
31B
330
507
100
AcDbEntity
  8
DATA
  6
Continuous
 62
     7
100
AcDbLine
 10
252.7999955256773
 20
-249.3000044743228
 30
0.0
 11
257.2999955256773
 21
-249.3000044743228
 31
0.0
  0
LINE
  5
31C
330
507
100
AcDbEntity
  8
DATA
  6
Continuous
 62
     7
100
AcDbLine
 10
257.2999955256773
 20
-249.3000044743228
 30
0.0
 11
261.7999955256773
 21
-249.2500044743228
 31
0.0
  0
LINE
  5
31D
330
507
100
AcDbEntity
  8
DATA
  6
Continuous
 62
     7
100
AcDbLine
 10
261.7999955256773
 20
-249.2500044743228
 30
0.0
 11
266.2999955256773
 21
-249.1000044743228
 31
0.0
  0
LINE
  5
31E
330
507
100
AcDbEntity
  8
DATA
  6
Continuous
 62
     7
100
AcDbLine
 10
266.2999955256773
 20
-249.1000044743228
 30
0.0
 11
270.7999955256773
 21
-248.8500044743228
 31
0.0
  0
LINE
  5
31F
330
507
100
AcDbEntity
  8
DATA
  6
Continuous
 62
     7
100
AcDbLine
 10
270.7999955256773
 20
-248.8500044743228
 30
0.0
 11
275.2999955256773
 21
-248.3500044743228
 31
0.0
  0
LINE
  5
320
330
507
100
AcDbEntity
  8
DATA
  6
Continuous
 62
     7
100
AcDbLine
 10
275.2999955256773
 20
-248.3500044743228
 30
0.0
 11
278.2999955256773
 21
-248.1000044743228
 31
0.0
  0
LINE
  5
321
330
507
100
AcDbEntity
  8
DATA
  6
Continuous
 62
     7
100
AcDbLine
 10
252.7999955256773
 20
-258.8000044743227
 30
0.0
 11
257.2999955256773
 21
-258.8000044743227
 31
0.0
  0
LINE
  5
322
330
507
100
AcDbEntity
  8
DATA
  6
Continuous
 62
     7
100
AcDbLine
 10
257.2999955256773
 20
-258.8000044743227
 30
0.0
 11
261.7999955256773
 21
-258.8500044743227
 31
0.0
  0
LINE
  5
323
330
507
100
AcDbEntity
  8
DATA
  6
Continuous
 62
     7
100
AcDbLine
 10
261.7999955256773
 20
-258.8500044743227
 30
0.0
 11
266.2999955256773
 21
-259.0000044743228
 31
0.0
  0
LINE
  5
324
330
507
100
AcDbEntity
  8
DATA
  6
Continuous
 62
     7
100
AcDbLine
 10
266.2999955256773
 20
-259.0000044743228
 30
0.0
 11
270.7999955256773
 21
-259.2500044743228
 31
0.0
  0
LINE
  5
325
330
507
100
AcDbEntity
  8
DATA
  6
Continuous
 62
     7
100
AcDbLine
 10
270.7999955256773
 20
-259.2500044743228
 30
0.0
 11
275.2999955256773
 21
-259.7500044743228
 31
0.0
  0
LINE
  5
326
330
507
100
AcDbEntity
  8
DATA
  6
Continuous
 62
     7
100
AcDbLine
 10
275.2999955256773
 20
-259.7500044743228
 30
0.0
 11
278.2999955256773
 21
-260.0000044743228
 31
0.0
  0
LINE
  5
327
330
507
100
AcDbEntity
  8
DATA
  6
Continuous
 62
     7
100
AcDbLine
 10
283.4999955256774
 20
-247.7000044743227
 30
0.0
 11
283.4999955256774
 21
-260.4000044743228
 31
0.0
  0
ARC
  5
328
330
507
100
AcDbEntity
  8
DATA
  6
Continuous
 62
     7
100
AcDbCircle
 10
280.8999955256773
 20
-247.7000044743227
 30
0.0
 40
2.600000000000021
100
AcDbArc
 50
0.0
 51
180.0
  0
ARC
  5
329
330
507
100
AcDbEntity
  8
DATA
  6
Continuous
 62
     7
100
AcDbCircle
 10
280.8999955256773
 20
-260.4000044743228
 30
0.0
 40
2.600000000000021
100
AcDbArc
 50
180.0
 51
0.0
  0
LINE
  5
32A
330
507
100
AcDbEntity
  8
DATA
  6
Continuous
 62
     7
100
AcDbLine
 10
291.4999955256774
 20
-247.4000044743227
 30
0.0
 11
291.4999955256774
 21
-260.7000044743227
 31
0.0
  0
LINE
  5
32B
330
507
100
AcDbEntity
  8
DATA
  6
Continuous
 62
     7
100
AcDbLine
 10
291.4999955256774
 20
-247.4000044743227
 30
0.0
 11
283.4956649961614
 21
-247.5500044743228
 31
0.0
  0
LINE
  5
32C
330
507
100
AcDbEntity
  8
DATA
  6
Continuous
 62
     7
100
AcDbLine
 10
291.4999955256774
 20
-260.7000044743227
 30
0.0
 11
283.4956649961614
 21
-260.5500044743227
 31
0.0
  0
LINE
  5
32D
330
507
100
AcDbEntity
  8
DATA
  6
Continuous
 62
     7
100
AcDbLine
 10
298.9999955256774
 20
-247.6500044743227
 30
0.0
 11
298.9999955256774
 21
-260.4500044743227
 31
0.0
  0
LINE
  5
32E
330
507
100
AcDbEntity
  8
DATA
  6
Continuous
 62
     7
100
AcDbLine
 10
310.4999955256774
 20
-248.5500044743227
 30
0.0
 11
310.4999955256774
 21
-259.5500044743228
 31
0.0
  0
LINE
  5
32F
330
507
100
AcDbEntity
  8
DATA
  6
Continuous
 62
     7
100
AcDbLine
 10
291.4999955256774
 20
-247.4000044743227
 30
0.0
 11
294.0299955256772
 21
-247.4843378076561
 31
0.0
  0
LINE
  5
330
330
507
100
AcDbEntity
  8
DATA
  6
Continuous
 62
     7
100
AcDbLine
 10
298.9999955256774
 20
-247.6500044743227
 30
0.0
 11
310.4999955256774
 21
-248.5500044743227
 31
0.0
  0
LINE
  5
331
330
507
100
AcDbEntity
  8
DATA
  6
Continuous
 62
     7
100
AcDbLine
 10
291.4999955256774
 20
-260.7000044743227
 30
0.0
 11
294.0299955256772
 21
-260.6156711409894
 31
0.0
  0
LINE
  5
332
330
507
100
AcDbEntity
  8
DATA
  6
Continuous
 62
     7
100
AcDbLine
 10
298.9999955256774
 20
-260.4500044743227
 30
0.0
 11
310.4999955256774
 21
-259.5500044743228
 31
0.0
  0
ARC
  5
333
330
507
100
AcDbEntity
  8
DATA
  6
Continuous
 62
     7
100
AcDbCircle
 10
308.9895788590108
 20
-254.0500044743227
 30
0.0
 40
4.51041666666668
100
AcDbArc
 50
289.564814063614
 51
70.43518593638268
  0
LINE
  5
334
330
507
100
AcDbEntity
  8
DATA
  6
Continuous
 62
     7
100
AcDbLine
 10
294.0299955256772
 20
-247.4843378076561
 30
0.0
 11
294.0299955256772
 21
-260.6156711409894
 31
0.0
  0
LINE
  5
335
330
507
100
AcDbEntity
  8
DATA
  6
Continuous
 62
     7
100
AcDbLine
 10
294.0299955256772
 20
-254.5500044743227
 30
0.0
 11
298.9999955256774
 21
-254.5500044743227
 31
0.0
  0
LINE
  5
336
330
507
100
AcDbEntity
  8
DATA
  6
Continuous
 62
     7
100
AcDbLine
 10
294.0299955256772
 20
-253.5500044743228
 30
0.0
 11
298.9999955256774
 21
-253.5500044743228
 31
0.0
  0
LINE
  5
337
330
507
100
AcDbEntity
  8
DATA
  6
Continuous
 62
     7
100
AcDbLine
 10
294.0299955256772
 20
-252.6500044743227
 30
0.0
 11
298.9999955256774
 21
-252.6500044743227
 31
0.0
  0
LINE
  5
338
330
507
100
AcDbEntity
  8
DATA
  6
Continuous
 62
     7
100
AcDbLine
 10
294.0299955256772
 20
-255.4500044743227
 30
0.0
 11
298.9999955256774
 21
-255.4500044743227
 31
0.0
  0
LINE
  5
339
330
507
100
AcDbEntity
  8
DATA
  6
Continuous
 62
     7
100
AcDbLine
 10
294.0299955256772
 20
-258.4500044743227
 30
0.0
 11
298.9999955256774
 21
-258.4500044743227
 31
0.0
  0
LINE
  5
33A
330
507
100
AcDbEntity
  8
DATA
  6
Continuous
 62
     7
100
AcDbLine
 10
294.0299955256772
 20
-249.6500044743227
 30
0.0
 11
298.9999955256774
 21
-249.6500044743227
 31
0.0
  0
LINE
  5
33B
330
507
100
AcDbEntity
  8
DATA
  6
Continuous
 62
     7
100
AcDbLine
 10
298.9999955256774
 20
-247.6500044743227
 30
0.0
 11
294.0299955256772
 21
-247.6500044743227
 31
0.0
  0
LINE
  5
33C
330
507
100
AcDbEntity
  8
DATA
  6
Continuous
 62
     7
100
AcDbLine
 10
298.9999955256774
 20
-260.4500044743227
 30
0.0
 11
294.0299955256772
 21
-260.4500044743227
 31
0.0
  0
ARC
  5
33D
330
507
100
AcDbEntity
  8
DATA
  6
Continuous
 62
     7
100
AcDbCircle
 10
310.4999955256774
 20
-258.3000044743227
 30
0.0
 40
0.9999999999999964
100
AcDbArc
 50
25.92939034480249
 51
90.0
  0
ARC
  5
33E
330
507
100
AcDbEntity
  8
DATA
  6
Continuous
 62
     7
100
AcDbCircle
 10
310.4999955256774
 20
-258.3000044743227
 30
0.0
 40
1.999999999999936
100
AcDbArc
 50
32.37424510916365
 51
90.0
  0
ARC
  5
33F
330
507
100
AcDbEntity
  8
DATA
  6
Continuous
 62
     7
100
AcDbCircle
 10
310.4999955256774
 20
-258.3000044743227
 30
0.0
 40
2.999999999999984
100
AcDbArc
 50
38.98925826333027
 51
90.0
  0
ARC
  5
340
330
507
100
AcDbEntity
  8
DATA
  6
Continuous
 62
     7
100
AcDbCircle
 10
310.4999955256774
 20
-258.3000044743227
 30
0.0
 40
4.00000000000002
100
AcDbArc
 50
45.886982158898
 51
90.0
  0
ARC
  5
341
330
507
100
AcDbEntity
  8
DATA
  6
Continuous
 62
     7
100
AcDbCircle
 10
310.4999955256774
 20
-258.3000044743227
 30
0.0
 40
4.999999999999984
100
AcDbArc
 50
53.22543625384383
 51
90.0
  0
ARC
  5
342
330
507
100
AcDbEntity
  8
DATA
  6
Continuous
 62
     7
100
AcDbCircle
 10
310.4999955256774
 20
-258.3000044743227
 30
0.0
 40
6.000000000000006
100
AcDbArc
 50
61.25688488217686
 51
90.0
  0
ARC
  5
343
330
507
100
AcDbEntity
  8
DATA
  6
Continuous
 62
     7
100
AcDbCircle
 10
310.4999955256774
 20
-258.3000044743227
 30
0.0
 40
6.999999999999991
100
AcDbArc
 50
70.45891994769391
 51
90.0
  0
ARC
  5
344
330
507
100
AcDbEntity
  8
DATA
  6
Continuous
 62
     7
100
AcDbCircle
 10
310.4999955256774
 20
-258.3000044743227
 30
0.0
 40
8.000000000000028
100
AcDbArc
 50
82.04313132084227
 51
90.0
  0
ARC
  5
345
330
507
100
AcDbEntity
  8
DATA
  6
Continuous
 62
     7
100
AcDbCircle
 10
310.4999955256777
 20
-249.8000044743228
 30
0.0
 40
0.4999999999998864
100
AcDbArc
 50
269.9999999999739
 51
337.2578100118196
  0
ARC
  5
346
330
507
100
AcDbEntity
  8
DATA
  6
Continuous
 62
     7
100
AcDbCircle
 10
310.4999955256777
 20
-249.8000044743228
 30
0.0
 40
1.499999999999886
100
AcDbArc
 50
269.9999999999913
 51
330.8634836104713
  0
ARC
  5
347
330
507
100
AcDbEntity
  8
DATA
  6
Continuous
 62
     7
100
AcDbCircle
 10
310.4999955256777
 20
-249.8000044743228
 30
0.0
 40
2.499999999999885
100
AcDbArc
 50
269.9999999999948
 51
324.3458241628705
  0
ARC
  5
348
330
507
100
AcDbEntity
  8
DATA
  6
Continuous
 62
     7
100
AcDbCircle
 10
310.4999955256777
 20
-249.8000044743228
 30
0.0
 40
3.499999999999885
100
AcDbArc
 50
269.9999999999964
 51
317.6056495437779
  0
ARC
  5
349
330
507
100
AcDbEntity
  8
DATA
  6
Continuous
 62
     7
100
AcDbCircle
 10
310.4999955256777
 20
-249.8000044743228
 30
0.0
 40
4.499999999999886
100
AcDbArc
 50
269.9999999999971
 51
310.5115531893481
  0
ARC
  5
34A
330
507
100
AcDbEntity
  8
DATA
  6
Continuous
 62
     7
100
AcDbCircle
 10
310.4999955256777
 20
-249.8000044743228
 30
0.0
 40
5.499999999999886
100
AcDbArc
 50
269.9999999999977
 51
302.8673884585695
  0
ARC
  5
34B
330
507
100
AcDbEntity
  8
DATA
  6
Continuous
 62
     7
100
AcDbCircle
 10
310.4999955256777
 20
-249.8000044743228
 30
0.0
 40
6.499999999999913
100
AcDbArc
 50
269.999999999998
 51
294.3349247558658
  0
ARC
  5
34C
330
507
100
AcDbEntity
  8
DATA
  6
Continuous
 62
     7
100
AcDbCircle
 10
310.4999955256777
 20
-249.8000044743228
 30
0.0
 40
7.499999999999912
100
AcDbArc
 50
269.9999999999984
 51
284.1914594526068
  0
LINE
  5
34D
330
507
100
AcDbEntity
  8
DATA
  6
Continuous
 62
     7
100
AcDbLine
 10
-89.00000447432272
 20
-250.0500044743227
 30
0.0
 11
-89.00000447432272
 21
-258.0500044743228
 31
0.0
  0
ARC
  5
34E
330
507
100
AcDbEntity
  8
DATA
  6
STYLE_01
 62
     7
100
AcDbCircle
 10
-89.00000447432272
 20
-290.05
 30
0.0
 40
31.99999552567727
100
AcDbArc
 50
90.0
 51
180.0
  0
ARC
  5
34F
330
507
100
AcDbEntity
  8
DATA
  6
STYLE_01
 62
     7
100
AcDbCircle
 10
-89.00000447432272
 20
-290.05
 30
0.0
 40
39.99999552567729
100
AcDbArc
 50
90.0
 51
143.130100217824
  0
CIRCLE
  5
350
330
507
100
AcDbEntity
  8
DATA
  6
Continuous
 62
     7
100
AcDbCircle
 10
150.0
 20
170.0
 30
0.0
 40
13.5
  0
ARC
  5
351
330
507
100
AcDbEntity
  8
DATA
  6
Continuous
 62
     7
100
AcDbCircle
 10
208.417795027312
 20
220.0
 30
0.0
 40
71.91814472970321
100
AcDbArc
 50
172.6540227496132
 51
196.146477790097
  0
ARC
  5
352
330
507
100
AcDbEntity
  8
DATA
  6
Continuous
 62
     7
100
AcDbCircle
 10
150.0
 20
240.0
 30
0.0
 40
9.0
100
AcDbArc
 50
90.0
 51
150.2551187030579
  0
ARC
  5
353
330
507
100
AcDbEntity
  8
DATA
  6
Continuous
 62
     7
100
AcDbCircle
 10
139.458676056654
 20
236.5536449972609
 30
0.0
 40
0.9999999999890135
100
AcDbArc
 50
152.4708477772566
 51
166.5015513173577
  0
ARC
  5
354
330
507
100
AcDbEntity
  8
DATA
  6
Continuous
 62
     7
100
AcDbCircle
 10
250.0
 20
200.0
 30
0.0
 40
116.6235726233807
100
AcDbArc
 50
157.5875322713045
 51
165.5023948401372
  0
ARC
  5
355
330
507
100
AcDbEntity
  8
DATA
  6
Continuous
 62
     7
100
AcDbCircle
 10
91.58220497268793
 20
220.0
 30
0.0
 40
71.91814472970321
100
AcDbArc
 50
343.8535222099028
 51
7.345977250386797
  0
ARC
  5
356
330
507
100
AcDbEntity
  8
DATA
  6
Continuous
 62
     7
100
AcDbCircle
 10
150.0
 20
240.0
 30
0.0
 40
9.000000000000007
100
AcDbArc
 50
29.74488129694213
 51
90.0
  0
ARC
  5
357
330
507
100
AcDbEntity
  8
DATA
  6
Continuous
 62
     7
100
AcDbCircle
 10
160.5413239433459
 20
236.5536449972609
 30
0.0
 40
0.9999999999890199
100
AcDbArc
 50
13.49844868264232
 51
27.52915222274344
  0
ARC
  5
358
330
507
100
AcDbEntity
  8
DATA
  6
Continuous
 62
     7
100
AcDbCircle
 10
49.99999999999997
 20
200.0
 30
0.0
 40
116.6235726233807
100
AcDbArc
 50
14.49760515986272
 51
22.41246772869551
  0
LINE
  5
359
330
507
100
AcDbEntity
  8
DATA
  6
Continuous
 62
     7
100
AcDbLine
 10
139.3365418441035
 20
200.0
 30
0.0
 11
160.6634581558964
 21
200.0
 31
0.0
  0
ARC
  5
35A
330
507
100
AcDbEntity
  8
DATA
  6
STYLE_01
 62
     7
100
AcDbCircle
 10
-141.582204972688
 20
170.0
 30
0.0
 40
71.91814472970321
100
AcDbArc
 50
172.6540227496132
 51
196.146477790097
  0
ARC
  5
35B
330
507
100
AcDbEntity
  8
DATA
  6
STYLE_01
 62
     7
100
AcDbCircle
 10
-200.0000000000001
 20
190.0
 30
0.0
 40
9.0
100
AcDbArc
 50
90.0
 51
150.2551187030579
  0
ARC
  5
35C
330
507
100
AcDbEntity
  8
DATA
  6
STYLE_01
 62
     7
100
AcDbCircle
 10
-210.541323943346
 20
186.5536449972609
 30
0.0
 40
0.9999999999890135
100
AcDbArc
 50
152.4708477772566
 51
166.5015513173577
  0
ARC
  5
35D
330
507
100
AcDbEntity
  8
DATA
  6
STYLE_01
 62
     7
100
AcDbCircle
 10
-100.0
 20
150.0
 30
0.0
 40
116.6235726233807
100
AcDbArc
 50
157.5875322713045
 51
165.5023948401372
  0
ARC
  5
35E
330
507
100
AcDbEntity
  8
DATA
  6
STYLE_01
 62
     7
100
AcDbCircle
 10
-258.4177950273121
 20
170.0
 30
0.0
 40
71.91814472970321
100
AcDbArc
 50
343.8535222099028
 51
7.345977250386797
  0
ARC
  5
35F
330
507
100
AcDbEntity
  8
DATA
  6
STYLE_01
 62
     7
100
AcDbCircle
 10
-200.0000000000001
 20
190.0
 30
0.0
 40
9.000000000000007
100
AcDbArc
 50
29.74488129694213
 51
90.0
  0
ARC
  5
360
330
507
100
AcDbEntity
  8
DATA
  6
STYLE_01
 62
     7
100
AcDbCircle
 10
-189.4586760566541
 20
186.5536449972609
 30
0.0
 40
0.9999999999890199
100
AcDbArc
 50
13.49844868264232
 51
27.52915222274344
  0
ARC
  5
361
330
507
100
AcDbEntity
  8
DATA
  6
STYLE_01
 62
     7
100
AcDbCircle
 10
-300.0
 20
150.0
 30
0.0
 40
116.6235726233806
100
AcDbArc
 50
14.49760515986276
 51
22.41246772869552
  0
LINE
  5
362
330
507
100
AcDbEntity
  8
DATA
  6
STYLE_01
 62
     7
100
AcDbLine
 10
-210.6634581558964
 20
150.0
 30
0.0
 11
-189.3365418441035
 21
150.0
 31
0.0
  0
ARC
  5
363
330
507
100
AcDbEntity
  8
DATA
  6
STYLE_01
 62
     7
100
AcDbCircle
 10
-66.58220497268806
 20
170.0
 30
0.0
 40
71.91814472970321
100
AcDbArc
 50
172.6540227496132
 51
196.146477790097
  0
ARC
  5
364
330
507
100
AcDbEntity
  8
DATA
  6
STYLE_01
 62
     7
100
AcDbCircle
 10
-125.0
 20
190.0
 30
0.0
 40
9.0
100
AcDbArc
 50
90.0
 51
150.2551187030579
  0
ARC
  5
365
330
507
100
AcDbEntity
  8
DATA
  6
STYLE_01
 62
     7
100
AcDbCircle
 10
-135.541323943346
 20
186.5536449972609
 30
0.0
 40
0.9999999999890135
100
AcDbArc
 50
152.4708477772566
 51
166.5015513173577
  0
ARC
  5
366
330
507
100
AcDbEntity
  8
DATA
  6
STYLE_01
 62
     7
100
AcDbCircle
 10
-25.00000000000005
 20
150.0
 30
0.0
 40
116.6235726233807
100
AcDbArc
 50
157.5875322713045
 51
165.5023948401372
  0
ARC
  5
367
330
507
100
AcDbEntity
  8
DATA
  6
STYLE_01
 62
     7
100
AcDbCircle
 10
-183.417795027312
 20
170.0
 30
0.0
 40
71.91814472970321
100
AcDbArc
 50
343.8535222099028
 51
7.345977250386797
  0
ARC
  5
368
330
507
100
AcDbEntity
  8
DATA
  6
STYLE_01
 62
     7
100
AcDbCircle
 10
-125.0
 20
190.0
 30
0.0
 40
9.000000000000007
100
AcDbArc
 50
29.74488129694213
 51
90.0
  0
ARC
  5
369
330
507
100
AcDbEntity
  8
DATA
  6
STYLE_01
 62
     7
100
AcDbCircle
 10
-114.4586760566541
 20
186.5536449972609
 30
0.0
 40
0.9999999999890199
100
AcDbArc
 50
13.49844868264232
 51
27.52915222274344
  0
ARC
  5
36A
330
507
100
AcDbEntity
  8
DATA
  6
STYLE_01
 62
     7
100
AcDbCircle
 10
-225.0
 20
150.0
 30
0.0
 40
116.6235726233807
100
AcDbArc
 50
14.49760515986275
 51
22.41246772869551
  0
LINE
  5
36B
330
507
100
AcDbEntity
  8
DATA
  6
STYLE_01
 62
     7
100
AcDbLine
 10
-135.6634581558964
 20
150.0
 30
0.0
 11
-114.3365418441036
 21
150.0
 31
0.0
  0
ARC
  5
36C
330
507
100
AcDbEntity
  8
DATA
  6
STYLE_01
 62
     7
100
AcDbCircle
 10
303.4999955256774
 20
-312.4677995016349
 30
0.0
 40
71.91814472970321
100
AcDbArc
 50
82.65402274961317
 51
106.146477790097
  0
ARC
  5
36D
330
507
100
AcDbEntity
  8
DATA
  6
STYLE_01
 62
     7
100
AcDbCircle
 10
323.4999955256774
 20
-254.0500044743227
 30
0.0
 40
9.0
100
AcDbArc
 50
0.0
 51
60.2551187030578
  0
ARC
  5
36E
330
507
100
AcDbEntity
  8
DATA
  6
STYLE_01
 62
     7
100
AcDbCircle
 10
320.0536405229382
 20
-243.5086805309768
 30
0.0
 40
0.999999999988962
100
AcDbArc
 50
62.47084777725871
 51
76.50155131736045
  0
ARC
  5
36F
330
507
100
AcDbEntity
  8
DATA
  6
STYLE_01
 62
     7
100
AcDbCircle
 10
283.4999955256774
 20
-354.0500044743226
 30
0.0
 40
116.6235726233807
100
AcDbArc
 50
67.5875322713045
 51
75.50239484013726
  0
ARC
  5
370
330
507
100
AcDbEntity
  8
DATA
  6
STYLE_01
 62
     7
100
AcDbCircle
 10
303.4999955256774
 20
-195.6322094470107
 30
0.0
 40
71.91814472970321
100
AcDbArc
 50
253.8535222099028
 51
277.3459772503867
  0
ARC
  5
371
330
507
100
AcDbEntity
  8
DATA
  6
STYLE_01
 62
     7
100
AcDbCircle
 10
323.4999955256774
 20
-254.0500044743227
 30
0.0
 40
9.00000000000003
100
AcDbArc
 50
299.7448812969421
 51
0.0
  0
ARC
  5
372
330
507
100
AcDbEntity
  8
DATA
  6
STYLE_01
 62
     7
100
AcDbCircle
 10
320.0536405229382
 20
-264.5913284176687
 30
0.0
 40
0.9999999999889787
100
AcDbArc
 50
283.4984486826396
 51
297.5291522227412
  0
ARC
  5
373
330
507
100
AcDbEntity
  8
DATA
  6
STYLE_01
 62
     7
100
AcDbCircle
 10
283.4999955256774
 20
-154.0500044743227
 30
0.0
 40
116.6235726233807
100
AcDbArc
 50
284.4976051598628
 51
292.4124677286955
  0
LINE
  5
374
330
507
100
AcDbEntity
  8
DATA
  6
STYLE_01
 62
     7
100
AcDbLine
 10
283.4999955256774
 20
-243.3865463184264
 30
0.0
 11
283.4999955256774
 21
-264.7134626302193
 31
0.0
  0
TEXT
  5
375
330
507
100
AcDbEntity
  8
DATA
 62
     7
100
AcDbText
 10
189.7624966541528
 20
-467.5884564000002
 30
0.0
 40
6.515364583333331
  1
グースネック・マイクロホン
 41
0.7
 11
189.7624966541528
 21
-461.0730918166669
 31
0.0
100
AcDbText
 73
     3
  0
TEXT
  5
376
330
507
100
AcDbEntity
  8
DATA
 62
     7
100
AcDbText
 10
86.49999461703826
 20
119.9199999999999
 30
0.0
 40
10.85894097222222
  1
ウインドスクリーン
 41
0.7
 11
86.49999461703826
 21
130.7789409722222
 31
0.0
100
AcDbText
 73
     3
  0
LINE
  5
377
330
507
100
AcDbEntity
  8
DATA
  6
Continuous
 62
     7
100
AcDbLine
 10
75.0
 20
112.5
 30
0.0
 11
225.0
 21
112.5
 31
0.0
  0
TEXT
  5
378
330
507
100
AcDbEntity
  8
DATA
 62
     7
100
AcDbText
 10
-203.6685574707031
 20
-328.8477895507813
 30
0.0
 40
2.418829101562498
  1
CS521
 41
0.7
 72
     1
 11
-200.0
 21
-327.6383750000001
 31
0.0
100
AcDbText
 73
     2
  0
TEXT
  5
379
330
507
100
AcDbEntity
  8
DATA
 62
     7
100
AcDbText
 10
-128.6685574707031
 20
-328.8477895507813
 30
0.0
 40
2.418829101562498
  1
CS521
 41
0.7
 72
     1
 11
-125.0
 21
-327.6383750000001
 31
0.0
100
AcDbText
 73
     2
  0
LINE
  5
37A
330
507
100
AcDbEntity
  8
DATA
  6
Continuous
 62
     7
100
AcDbLine
 10
-204.75
 20
110.95
 30
0.0
 11
-195.25
 21
110.95
 31
0.0
  0
LINE
  5
37B
330
507
100
AcDbEntity
  8
DATA
  6
Continuous
 62
     7
100
AcDbLine
 10
-204.75
 20
113.95
 30
0.0
 11
-195.25
 21
113.95
 31
0.0
  0
LINE
  5
37C
330
507
100
AcDbEntity
  8
DATA
  6
Continuous
 62
     7
100
AcDbLine
 10
-204.75
 20
115.45
 30
0.0
 11
-195.25
 21
115.45
 31
0.0
  0
LINE
  5
37D
330
507
100
AcDbEntity
  8
DATA
  6
Continuous
 62
     7
100
AcDbLine
 10
-204.75
 20
117.95
 30
0.0
 11
-195.25
 21
117.95
 31
0.0
  0
LINE
  5
37E
330
507
100
AcDbEntity
  8
DATA
  6
Continuous
 62
     7
100
AcDbLine
 10
-204.75
 20
119.45
 30
0.0
 11
-195.25
 21
119.45
 31
0.0
  0
LINE
  5
37F
330
507
100
AcDbEntity
  8
DATA
  6
Continuous
 62
     7
100
AcDbLine
 10
-204.75
 20
110.95
 30
0.0
 11
-204.75
 21
113.95
 31
0.0
  0
LINE
  5
380
330
507
100
AcDbEntity
  8
DATA
  6
Continuous
 62
     7
100
AcDbLine
 10
-204.75
 20
115.45
 30
0.0
 11
-204.75
 21
117.95
 31
0.0
  0
LINE
  5
381
330
507
100
AcDbEntity
  8
DATA
  6
Continuous
 62
     7
100
AcDbLine
 10
-195.25
 20
110.95
 30
0.0
 11
-195.25
 21
113.95
 31
0.0
  0
LINE
  5
382
330
507
100
AcDbEntity
  8
DATA
  6
Continuous
 62
     7
100
AcDbLine
 10
-195.25
 20
115.45
 30
0.0
 11
-195.25
 21
117.95
 31
0.0
  0
ARC
  5
383
330
507
100
AcDbEntity
  8
DATA
  6
Continuous
 62
     7
100
AcDbCircle
 10
-195.1
 20
114.7
 30
0.0
 40
0.7500000000000001
100
AcDbArc
 50
101.5369590328071
 51
258.4630409671929
  0
ARC
  5
384
330
507
100
AcDbEntity
  8
DATA
  6
Continuous
 62
     7
100
AcDbCircle
 10
-204.9
 20
114.7
 30
0.0
 40
0.7500000000000001
100
AcDbArc
 50
281.5369590328069
 51
78.46304096719293
  0
ARC
  5
385
330
507
100
AcDbEntity
  8
DATA
  6
Continuous
 62
     7
100
AcDbCircle
 10
-204.9
 20
118.7
 30
0.0
 40
0.7500000000000001
100
AcDbArc
 50
281.5369590328069
 51
78.46304096719293
  0
ARC
  5
386
330
507
100
AcDbEntity
  8
DATA
  6
Continuous
 62
     7
100
AcDbCircle
 10
-195.1
 20
118.7
 30
0.0
 40
0.7500000000000001
100
AcDbArc
 50
101.5369590328071
 51
258.4630409671929
  0
LINE
  5
387
330
507
100
AcDbEntity
  8
DATA
  6
Continuous
 62
     7
100
AcDbLine
 10
-204.75
 20
119.45
 30
0.0
 11
-204.75
 21
123.95
 31
0.0
  0
LINE
  5
388
330
507
100
AcDbEntity
  8
DATA
  6
Continuous
 62
     7
100
AcDbLine
 10
-195.25
 20
119.45
 30
0.0
 11
-195.25
 21
123.95
 31
0.0
  0
LINE
  5
389
330
507
100
AcDbEntity
  8
DATA
  6
Continuous
 62
     7
100
AcDbLine
 10
-129.75
 20
110.95
 30
0.0
 11
-120.25
 21
110.95
 31
0.0
  0
LINE
  5
38A
330
507
100
AcDbEntity
  8
DATA
  6
Continuous
 62
     7
100
AcDbLine
 10
-129.75
 20
113.95
 30
0.0
 11
-120.25
 21
113.95
 31
0.0
  0
LINE
  5
38B
330
507
100
AcDbEntity
  8
DATA
  6
Continuous
 62
     7
100
AcDbLine
 10
-129.75
 20
115.45
 30
0.0
 11
-120.25
 21
115.45
 31
0.0
  0
LINE
  5
38C
330
507
100
AcDbEntity
  8
DATA
  6
Continuous
 62
     7
100
AcDbLine
 10
-129.75
 20
117.95
 30
0.0
 11
-120.25
 21
117.95
 31
0.0
  0
LINE
  5
38D
330
507
100
AcDbEntity
  8
DATA
  6
Continuous
 62
     7
100
AcDbLine
 10
-129.75
 20
119.45
 30
0.0
 11
-120.25
 21
119.45
 31
0.0
  0
LINE
  5
38E
330
507
100
AcDbEntity
  8
DATA
  6
Continuous
 62
     7
100
AcDbLine
 10
-129.75
 20
110.95
 30
0.0
 11
-129.75
 21
113.95
 31
0.0
  0
LINE
  5
38F
330
507
100
AcDbEntity
  8
DATA
  6
Continuous
 62
     7
100
AcDbLine
 10
-129.75
 20
115.45
 30
0.0
 11
-129.75
 21
117.95
 31
0.0
  0
LINE
  5
390
330
507
100
AcDbEntity
  8
DATA
  6
Continuous
 62
     7
100
AcDbLine
 10
-120.25
 20
110.95
 30
0.0
 11
-120.25
 21
113.95
 31
0.0
  0
LINE
  5
391
330
507
100
AcDbEntity
  8
DATA
  6
Continuous
 62
     7
100
AcDbLine
 10
-120.25
 20
115.45
 30
0.0
 11
-120.25
 21
117.95
 31
0.0
  0
ARC
  5
392
330
507
100
AcDbEntity
  8
DATA
  6
Continuous
 62
     7
100
AcDbCircle
 10
-120.1
 20
114.7
 30
0.0
 40
0.7500000000000001
100
AcDbArc
 50
101.5369590328071
 51
258.4630409671929
  0
ARC
  5
393
330
507
100
AcDbEntity
  8
DATA
  6
Continuous
 62
     7
100
AcDbCircle
 10
-129.9
 20
114.7
 30
0.0
 40
0.7500000000000001
100
AcDbArc
 50
281.5369590328069
 51
78.46304096719293
  0
ARC
  5
394
330
507
100
AcDbEntity
  8
DATA
  6
Continuous
 62
     7
100
AcDbCircle
 10
-129.9
 20
118.7
 30
0.0
 40
0.7500000000000001
100
AcDbArc
 50
281.5369590328069
 51
78.46304096719293
  0
ARC
  5
395
330
507
100
AcDbEntity
  8
DATA
  6
Continuous
 62
     7
100
AcDbCircle
 10
-120.1
 20
118.7
 30
0.0
 40
0.7500000000000001
100
AcDbArc
 50
101.5369590328071
 51
258.4630409671929
  0
LINE
  5
396
330
507
100
AcDbEntity
  8
DATA
  6
Continuous
 62
     7
100
AcDbLine
 10
-129.75
 20
119.45
 30
0.0
 11
-129.7499999999998
 21
123.95
 31
0.0
  0
LINE
  5
397
330
507
100
AcDbEntity
  8
DATA
  6
Continuous
 62
     7
100
AcDbLine
 10
-120.25
 20
119.45
 30
0.0
 11
-120.25
 21
123.95
 31
0.0
  0
ENDSEC
  0
SECTION
  2
OBJECTS
  0
DICTIONARY
  5
4A4
330
0
100
AcDbDictionary
281
     1
  3
ACAD_CIP_PREVIOUS_PRODUCT_INFO
350
51A
  3
ACAD_COLOR
350
4FA
  3
ACAD_DETAILVIEWSTYLE
350
501
  3
ACAD_GROUP
350
4A5
  3
ACAD_LAYOUT
350
4F9
  3
ACAD_MATERIAL
350
4A8
  3
ACAD_MLEADERSTYLE
350
4FD
  3
ACAD_MLINESTYLE
350
4F6
  3
ACAD_PLOTSETTINGS
350
4F8
  3
ACAD_PLOTSTYLENAME
350
4A6
  3
ACAD_SCALELIST
350
4DA
  3
ACAD_SECTIONVIEWSTYLE
350
4FF
  3
ACAD_TABLESTYLE
350
4FB
  3
ACAD_VISUALSTYLE
350
4C1
  3
ACDB_RECOMPOSE_DATA
350
531
  3
AcDbVariableDictionary
350
525
  3
DWGPROPS
350
532
  0
DICTIONARY
  5
51B
330
4EC
100
AcDbDictionary
280
     1
281
     1
  3
ADSK_XREC_LAYER_RECONCILED
360
51C
  0
DICTIONARY
  5
51D
330
50B
100
AcDbDictionary
280
     1
281
     1
  3
ADSK_XREC_LAYER_RECONCILED
360
51E
  0
DICTIONARY
  5
51F
330
50E
100
AcDbDictionary
280
     1
281
     1
  3
ADSK_XREC_LAYER_RECONCILED
360
520
  0
DICTIONARY
  5
521
330
50F
100
AcDbDictionary
280
     1
281
     1
  3
ADSK_XREC_LAYER_RECONCILED
360
522
  0
DICTIONARY
  5
523
330
510
100
AcDbDictionary
280
     1
281
     1
  3
ADSK_XREC_LAYER_RECONCILED
360
524
  0
XRECORD
  5
51A
102
{ACAD_REACTORS
330
4A4
102
}
330
4A4
100
AcDbXrecord
280
     1
300
ACDLT
300
2015
300
ACDLT_F_S
  0
DICTIONARY
  5
4FA
102
{ACAD_REACTORS
330
4A4
102
}
330
4A4
100
AcDbDictionary
281
     1
  0
DICTIONARY
  5
501
102
{ACAD_REACTORS
330
4A4
102
}
330
4A4
100
AcDbDictionary
281
     1
  3
Imperial24
350
502
  0
DICTIONARY
  5
4A5
102
{ACAD_REACTORS
330
4A4
102
}
330
4A4
100
AcDbDictionary
281
     1
  0
DICTIONARY
  5
4F9
102
{ACAD_REACTORS
330
4A4
102
}
330
4A4
100
AcDbDictionary
281
     1
  3
Model
350
50A
  3
レイアウト1
350
506
  0
DICTIONARY
  5
4A8
102
{ACAD_REACTORS
330
4A4
102
}
330
4A4
100
AcDbDictionary
281
     1
  3
ByBlock
350
4B1
  3
ByLayer
350
4A9
  3
Global
350
4B9
  0
DICTIONARY
  5
4FD
102
{ACAD_REACTORS
330
4A4
102
}
330
4A4
100
AcDbDictionary
281
     1
  3
Standard
350
4FE
  0
DICTIONARY
  5
4F6
102
{ACAD_REACTORS
330
4A4
102
}
330
4A4
100
AcDbDictionary
281
     1
  3
Standard
350
4F7
  0
DICTIONARY
  5
4F8
102
{ACAD_REACTORS
330
4A4
102
}
330
4A4
100
AcDbDictionary
281
     1
  0
ACDBDICTIONARYWDFLT
  5
4A6
102
{ACAD_REACTORS
330
4A4
102
}
330
4A4
100
AcDbDictionary
281
     1
  3
Normal
350
4A7
100
AcDbDictionaryWithDefault
340
4A7
  0
DICTIONARY
  5
4DA
102
{ACAD_REACTORS
330
4A4
102
}
330
4A4
100
AcDbDictionary
281
     1
  3
A0
350
4DB
  3
A1
350
4DC
  3
A2
350
4DD
  3
A3
350
4DE
  3
A4
350
4DF
  3
A5
350
4E0
  3
A6
350
4E1
  3
A7
350
4E2
  3
A8
350
4E3
  3
A9
350
4E4
  3
B0
350
4E5
  3
B1
350
4E6
  3
B2
350
4E7
  3
B3
350
4E8
  3
B4
350
4E9
  3
B5
350
4EA
  3
B6
350
4EB
  0
DICTIONARY
  5
4FF
102
{ACAD_REACTORS
330
4A4
102
}
330
4A4
100
AcDbDictionary
281
     1
  3
Imperial24
350
500
  0
DICTIONARY
  5
4FB
102
{ACAD_REACTORS
330
4A4
102
}
330
4A4
100
AcDbDictionary
281
     1
  3
Standard
350
4FC
  0
DICTIONARY
  5
4C1
102
{ACAD_REACTORS
330
4A4
102
}
330
4A4
100
AcDbDictionary
281
     1
  3
2dWireframe
350
4C7
  3
Basic
350
4C6
  3
Brighten
350
4CD
  3
ColorChange
350
4D1
  3
Conceptual
350
4CA
  3
Dim
350
4CC
  3
EdgeColorOff
350
4D9
  3
Facepattern
350
4D0
  3
Flat
350
4C2
  3
FlatWithEdges
350
4C3
  3
Gouraud
350
4C4
  3
GouraudWithEdges
350
4C5
  3
Hidden
350
4C9
  3
JitterOff
350
4D7
  3
Linepattern
350
4CF
  3
OverhangOff
350
4D8
  3
Realistic
350
4CB
  3
Shaded
350
4D6
  3
Shaded with edges
350
4D5
  3
Shades of Gray
350
4D2
  3
Sketchy
350
4D3
  3
Thicken
350
4CE
  3
Wireframe
350
4C8
  3
X-Ray
350
4D4
  0
XRECORD
  5
531
102
{ACAD_REACTORS
330
4A4
102
}
330
4A4
100
AcDbXrecord
280
     1
 90
        1
330
4FC
  0
DICTIONARY
  5
525
102
{ACAD_REACTORS
330
4A4
102
}
330
4A4
100
AcDbDictionary
281
     1
  3
CANNOSCALE
350
52A
  3
CMLEADERSTYLE
350
527
  3
CTABLESTYLE
350
526
  3
CVIEWDETAILSTYLE
350
528
  3
CVIEWSECTIONSTYLE
350
529
  3
DIMASSOC
350
52D
  3
INDEXCTL
350
52C
  3
SORTENTS
350
52B
  3
XCLIPFRAME
350
52E
  0
XRECORD
  5
532
102
{ACAD_REACTORS
330
4A4
102
}
330
4A4
100
AcDbXrecord
280
     1
  1
DWGPROPS COOKIE
  2

  3

  4

  6

  7

  8
sasaki_n
  9

300
=
301
=
302
=
303
=
304
=
305
=
306
=
307
=
308
=
309
=
 40
0.000482974537037
 41
2457016.769293982
 42
2457038.527909364
  1

 90
        0
  0
XRECORD
  5
51C
102
{ACAD_REACTORS
330
51B
102
}
330
51B
100
AcDbXrecord
280
     1
290
     1
  0
XRECORD
  5
51E
102
{ACAD_REACTORS
330
51D
102
}
330
51D
100
AcDbXrecord
280
     1
290
     1
  0
XRECORD
  5
520
102
{ACAD_REACTORS
330
51F
102
}
330
51F
100
AcDbXrecord
280
     1
290
     1
  0
XRECORD
  5
522
102
{ACAD_REACTORS
330
521
102
}
330
521
100
AcDbXrecord
280
     1
290
     1
  0
XRECORD
  5
524
102
{ACAD_REACTORS
330
523
102
}
330
523
100
AcDbXrecord
280
     1
290
     1
  0
ACDBDETAILVIEWSTYLE
  5
502
102
{ACAD_XDICTIONARY
360
569
102
}
102
{ACAD_REACTORS
330
501
102
}
330
501
100
AcDbModelDocViewStyle
 70
     0
  3
Imperial24
290
     0
100
AcDbDetailViewStyle
 70
     0
 71
     0
 90
        3
 71
     1
340
4ED
 40
0.24
340
0
 40
0.24
300

 40
0.36
280
     3
 71
     2
340
4F4
 90
       25
 71
     3
340
4ED
 40
0.24
 90
        1
 40
0.75
 90
        1
300
%<\AcVar ViewType \f "%tc1">% %<\AcVar ViewDetailId>%\PSCALE %<\AcVar ViewScale \f "%sn">%
 71
     4
340
4F4
 90
       25
340
4F4
 90
       25
280
     0
  0
LAYOUT
  5
50A
102
{ACAD_XDICTIONARY
360
56D
102
}
102
{ACAD_REACTORS
330
4F9
102
}
330
4F9
100
AcDbPlotSettings
  1

  2
Microsoft XPS Document Writer
  4

  6

 40
0.0
 41
0.0
 42
0.0
 43
0.0
 44
0.0
 45
0.0
 46
0.0
 47
0.0
 48
0.0
 49
0.0
140
0.0
141
0.0
142
1.0
143
1.0
 70
  1712
 72
     0
 73
     0
 74
     0
  7

 75
     0
147
1.0
148
0.0
149
0.0
100
AcDbLayout
  1
Model
 70
     1
 71
     0
 10
0.0
 20
0.0
 11
12.0
 21
9.0
 12
0.0
 22
0.0
 32
0.0
 14
0.0
 24
0.0
 34
0.0
 15
0.0
 25
0.0
 35
0.0
146
0.0
 13
0.0
 23
0.0
 33
0.0
 16
1.0
 26
0.0
 36
0.0
 17
0.0
 27
1.0
 37
0.0
 76
     0
330
507
331
50C
  0
LAYOUT
  5
506
102
{ACAD_XDICTIONARY
360
56B
102
}
102
{ACAD_REACTORS
330
4F9
102
}
330
4F9
100
AcDbPlotSettings
  1

  2
Microsoft XPS Document Writer
  4

  6

 40
0.0
 41
0.0
 42
0.0
 43
0.0
 44
0.0
 45
0.0
 46
0.0
 47
0.0
 48
0.0
 49
0.0
140
0.0
141
0.0
142
1.0
143
1.0
 70
   688
 72
     0
 73
     0
 74
     5
  7

 75
    16
147
1.0
148
0.0
149
0.0
100
AcDbLayout
  1
レイアウト1
 70
     0
 71
     1
 10
0.0
 20
0.0
 11
12.0
 21
9.0
 12
0.0
 22
0.0
 32
0.0
 14
1.000000000000000E+20
 24
1.000000000000000E+20
 34
1.000000000000000E+20
 15
-1.000000000000000E+20
 25
-1.000000000000000E+20
 35
-1.000000000000000E+20
146
0.0
 13
0.0
 23
0.0
 33
0.0
 16
1.0
 26
0.0
 36
0.0
 17
0.0
 27
1.0
 37
0.0
 76
     0
330
503
  0
MATERIAL
  5
4B1
102
{ACAD_XDICTIONARY
360
4B2
102
}
102
{ACAD_REACTORS
330
4A8
102
}
330
4A8
100
AcDbMaterial
  1
ByBlock
 72
     0
 43
0.0208333333333333
 43
0.0
 43
0.0
 43
0.0
 43
0.0
 43
0.0208333333333333
 43
0.0
 43
0.0
 43
0.0
 43
0.0
 43
1.0
 43
0.0
 43
0.0
 43
0.0
 43
0.0
 43
1.0
 77
     0
 47
0.0208333333333333
 47
0.0
 47
0.0
 47
0.0
 47
0.0
 47
0.0208333333333333
 47
0.0
 47
0.0
 47
0.0
 47
0.0
 47
1.0
 47
0.0
 47
0.0
 47
0.0
 47
0.0
 47
1.0
171
     0
 49
0.0208333333333333
 49
0.0
 49
0.0
 49
0.0
 49
0.0
 49
0.0208333333333333
 49
0.0
 49
0.0
 49
0.0
 49
0.0
 49
1.0
 49
0.0
 49
0.0
 49
0.0
 49
0.0
 49
1.0
175
     0
142
0.0208333333333333
142
0.0
142
0.0
142
0.0
142
0.0
142
0.0208333333333333
142
0.0
142
0.0
142
0.0
142
0.0
142
1.0
142
0.0
142
0.0
142
0.0
142
0.0
142
1.0
179
     0
144
0.0208333333333333
144
0.0
144
0.0
144
0.0
144
0.0
144
0.0208333333333333
144
0.0
144
0.0
144
0.0
144
0.0
144
1.0
144
0.0
144
0.0
144
0.0
144
0.0
144
1.0
147
0.0208333333333333
147
0.0
147
0.0
147
0.0
147
0.0
147
0.0208333333333333
147
0.0
147
0.0
147
0.0
147
0.0
147
1.0
147
0.0
147
0.0
147
0.0
147
0.0
147
1.0
  0
MATERIAL
  5
4A9
102
{ACAD_XDICTIONARY
360
4AA
102
}
102
{ACAD_REACTORS
330
4A8
102
}
330
4A8
100
AcDbMaterial
  1
ByLayer
 72
     0
 43
0.0208333333333333
 43
0.0
 43
0.0
 43
0.0
 43
0.0
 43
0.0208333333333333
 43
0.0
 43
0.0
 43
0.0
 43
0.0
 43
1.0
 43
0.0
 43
0.0
 43
0.0
 43
0.0
 43
1.0
 77
     0
 47
0.0208333333333333
 47
0.0
 47
0.0
 47
0.0
 47
0.0
 47
0.0208333333333333
 47
0.0
 47
0.0
 47
0.0
 47
0.0
 47
1.0
 47
0.0
 47
0.0
 47
0.0
 47
0.0
 47
1.0
171
     0
 49
0.0208333333333333
 49
0.0
 49
0.0
 49
0.0
 49
0.0
 49
0.0208333333333333
 49
0.0
 49
0.0
 49
0.0
 49
0.0
 49
1.0
 49
0.0
 49
0.0
 49
0.0
 49
0.0
 49
1.0
175
     0
142
0.0208333333333333
142
0.0
142
0.0
142
0.0
142
0.0
142
0.0208333333333333
142
0.0
142
0.0
142
0.0
142
0.0
142
1.0
142
0.0
142
0.0
142
0.0
142
0.0
142
1.0
179
     0
144
0.0208333333333333
144
0.0
144
0.0
144
0.0
144
0.0
144
0.0208333333333333
144
0.0
144
0.0
144
0.0
144
0.0
144
1.0
144
0.0
144
0.0
144
0.0
144
0.0
144
1.0
147
0.0208333333333333
147
0.0
147
0.0
147
0.0
147
0.0
147
0.0208333333333333
147
0.0
147
0.0
147
0.0
147
0.0
147
1.0
147
0.0
147
0.0
147
0.0
147
0.0
147
1.0
  0
MATERIAL
  5
4B9
102
{ACAD_XDICTIONARY
360
4BA
102
}
102
{ACAD_REACTORS
330
4A8
102
}
330
4A8
100
AcDbMaterial
  1
Global
 72
     0
 43
0.0208333333333333
 43
0.0
 43
0.0
 43
0.0
 43
0.0
 43
0.0208333333333333
 43
0.0
 43
0.0
 43
0.0
 43
0.0
 43
1.0
 43
0.0
 43
0.0
 43
0.0
 43
0.0
 43
1.0
 77
     0
 47
0.0208333333333333
 47
0.0
 47
0.0
 47
0.0
 47
0.0
 47
0.0208333333333333
 47
0.0
 47
0.0
 47
0.0
 47
0.0
 47
1.0
 47
0.0
 47
0.0
 47
0.0
 47
0.0
 47
1.0
171
     0
 49
0.0208333333333333
 49
0.0
 49
0.0
 49
0.0
 49
0.0
 49
0.0208333333333333
 49
0.0
 49
0.0
 49
0.0
 49
0.0
 49
1.0
 49
0.0
 49
0.0
 49
0.0
 49
0.0
 49
1.0
175
     0
142
0.0208333333333333
142
0.0
142
0.0
142
0.0
142
0.0
142
0.0208333333333333
142
0.0
142
0.0
142
0.0
142
0.0
142
1.0
142
0.0
142
0.0
142
0.0
142
0.0
142
1.0
179
     0
144
0.0208333333333333
144
0.0
144
0.0
144
0.0
144
0.0
144
0.0208333333333333
144
0.0
144
0.0
144
0.0
144
0.0
144
1.0
144
0.0
144
0.0
144
0.0
144
0.0
144
1.0
147
0.0208333333333333
147
0.0
147
0.0
147
0.0
147
0.0
147
0.0208333333333333
147
0.0
147
0.0
147
0.0
147
0.0
147
1.0
147
0.0
147
0.0
147
0.0
147
0.0
147
1.0
  0
MLEADERSTYLE
  5
4FE
102
{ACAD_REACTORS
330
4FD
102
}
330
4FD
100
AcDbMLeaderStyle
170
     2
171
     1
172
     0
 90
        2
 40
0.0
 41
0.0
173
     1
 91
-1056964608
340
4F2
 92
       -2
290
     1
 42
0.09
291
     1
 43
0.36
  3
Standard
 44
0.18
300

342
4ED
174
     1
178
     6
175
     1
176
     0
 93
-1056964608
 45
0.18
292
     0
297
     0
 46
0.18
 94
-1056964608
 47
1.0
 49
1.0
140
1.0
293
     1
141
0.0
294
     1
177
     0
142
1.0
295
     0
296
     0
143
0.125
1001
ACAD_MLEADERVER
1070
     2
  0
MLINESTYLE
  5
4F7
102
{ACAD_REACTORS
330
4F6
102
}
330
4F6
100
AcDbMlineStyle
  2
STANDARD
 70
     0
  3

 62
   256
 51
90.0
 52
90.0
 71
     2
 49
0.5
 62
   256
  6
BYLAYER
 49
-0.5
 62
   256
  6
BYLAYER
  0
ACDBPLACEHOLDER
  5
4A7
102
{ACAD_REACTORS
330
4A6
102
}
330
4A6
  0
SCALE
  5
4DB
102
{ACAD_REACTORS
330
4DA
102
}
330
4DA
100
AcDbScale
 70
     0
300
1:1
140
1.0
141
1.0
290
     1
  0
SCALE
  5
4DC
102
{ACAD_REACTORS
330
4DA
102
}
330
4DA
100
AcDbScale
 70
     0
300
1/128" = 1'-0"
140
0.0078125
141
12.0
290
     0
  0
SCALE
  5
4DD
102
{ACAD_REACTORS
330
4DA
102
}
330
4DA
100
AcDbScale
 70
     0
300
1/64" = 1'-0"
140
0.015625
141
12.0
290
     0
  0
SCALE
  5
4DE
102
{ACAD_REACTORS
330
4DA
102
}
330
4DA
100
AcDbScale
 70
     0
300
1/32" = 1'-0"
140
0.03125
141
12.0
290
     0
  0
SCALE
  5
4DF
102
{ACAD_REACTORS
330
4DA
102
}
330
4DA
100
AcDbScale
 70
     0
300
1/16" = 1'-0"
140
0.0625
141
12.0
290
     0
  0
SCALE
  5
4E0
102
{ACAD_REACTORS
330
4DA
102
}
330
4DA
100
AcDbScale
 70
     0
300
3/32" = 1'-0"
140
0.09375
141
12.0
290
     0
  0
SCALE
  5
4E1
102
{ACAD_REACTORS
330
4DA
102
}
330
4DA
100
AcDbScale
 70
     0
300
1/8" = 1'-0"
140
0.125
141
12.0
290
     0
  0
SCALE
  5
4E2
102
{ACAD_REACTORS
330
4DA
102
}
330
4DA
100
AcDbScale
 70
     0
300
3/16" = 1'-0"
140
0.1875
141
12.0
290
     0
  0
SCALE
  5
4E3
102
{ACAD_REACTORS
330
4DA
102
}
330
4DA
100
AcDbScale
 70
     0
300
1/4" = 1'-0"
140
0.25
141
12.0
290
     0
  0
SCALE
  5
4E4
102
{ACAD_REACTORS
330
4DA
102
}
330
4DA
100
AcDbScale
 70
     0
300
3/8" = 1'-0"
140
0.375
141
12.0
290
     0
  0
SCALE
  5
4E5
102
{ACAD_REACTORS
330
4DA
102
}
330
4DA
100
AcDbScale
 70
     0
300
1/2" = 1'-0"
140
0.5
141
12.0
290
     0
  0
SCALE
  5
4E6
102
{ACAD_REACTORS
330
4DA
102
}
330
4DA
100
AcDbScale
 70
     0
300
3/4" = 1'-0"
140
0.75
141
12.0
290
     0
  0
SCALE
  5
4E7
102
{ACAD_REACTORS
330
4DA
102
}
330
4DA
100
AcDbScale
 70
     0
300
1" = 1'-0"
140
1.0
141
12.0
290
     0
  0
SCALE
  5
4E8
102
{ACAD_REACTORS
330
4DA
102
}
330
4DA
100
AcDbScale
 70
     0
300
1-1/2" = 1'-0"
140
1.5
141
12.0
290
     0
  0
SCALE
  5
4E9
102
{ACAD_REACTORS
330
4DA
102
}
330
4DA
100
AcDbScale
 70
     0
300
3" = 1'-0"
140
3.0
141
12.0
290
     0
  0
SCALE
  5
4EA
102
{ACAD_REACTORS
330
4DA
102
}
330
4DA
100
AcDbScale
 70
     0
300
6" = 1'-0"
140
6.0
141
12.0
290
     0
  0
SCALE
  5
4EB
102
{ACAD_REACTORS
330
4DA
102
}
330
4DA
100
AcDbScale
 70
     0
300
1'-0" = 1'-0"
140
12.0
141
12.0
290
     0
  0
ACDBSECTIONVIEWSTYLE
  5
500
102
{ACAD_XDICTIONARY
360
567
102
}
102
{ACAD_REACTORS
330
4FF
102
}
330
4FF
100
AcDbModelDocViewStyle
 70
     0
  3
Imperial24
290
     0
100
AcDbSectionViewStyle
 70
     0
 71
     0
 90
       78
 71
     1
340
4ED
 40
0.24
340
0
340
0
 40
0.24
300
I, O, Q, S, X, Z
 40
0.48
 90
        3
 40
0.18
 90
        1
 71
     2
340
4F4
 90
       25
340
4F4
 90
       50
 40
0.24
 40
0.0
 40
0.24
 71
     3
340
4ED
 40
0.24
 90
        1
 40
0.75
 90
        1
300
%<\AcVar ViewType \f "%tc1">% %<\AcVar ViewSectionStartId>%-%<\AcVar ViewSectionEndId>%\PSCALE %<\AcVar ViewScale \f "%sn">%
 71
     4
300
ANSI31
 40
1.0
 90
        0
290
     0
290
     0
 90
        6
 40
0.0
 40
1.570796326794896
 40
0.2617993877991494
 40
1.308996938995747
 40
-0.2617993877991494
 40
1.832595714594046
  0
TABLESTYLE
  5
4FC
102
{ACAD_XDICTIONARY
360
52F
102
}
102
{ACAD_REACTORS
330
4FB
102
}
330
4FB
100
AcDbTableStyle
  3
Standard
 70
     0
 71
     0
 40
0.06
 41
0.06
280
     0
281
     0
  7
STANDARD
140
0.18
170
     2
 62
     0
 63
     7
283
     0
274
    -2
284
     1
 64
     0
275
    -2
285
     1
 65
     0
276
    -2
286
     1
 66
     0
277
    -2
287
     1
 67
     0
278
    -2
288
     1
 68
     0
279
    -2
289
     1
 69
     0
  7
STANDARD
140
0.25
170
     5
 62
     0
 63
     7
283
     0
274
    -2
284
     1
 64
     0
275
    -2
285
     1
 65
     0
276
    -2
286
     1
 66
     0
277
    -2
287
     1
 67
     0
278
    -2
288
     1
 68
     0
279
    -2
289
     1
 69
     0
  7
STANDARD
140
0.18
170
     5
 62
     0
 63
     7
283
     0
274
    -2
284
     1
 64
     0
275
    -2
285
     1
 65
     0
276
    -2
286
     1
 66
     0
277
    -2
287
     1
 67
     0
278
    -2
288
     1
 68
     0
279
    -2
289
     1
 69
     0
  0
VISUALSTYLE
  5
4C7
102
{ACAD_XDICTIONARY
360
540
102
}
102
{ACAD_REACTORS
330
4C1
102
}
330
4C1
100
AcDbVisualStyle
  2
2dWireframe
 70
     4
 71
     0
 72
     2
 73
     0
 90
        0
 40
-0.6
 41
-30.0
 62
     5
 63
     7
 74
     1
 91
        4
 64
     7
 65
   257
 75
     1
175
     1
 42
1.0
 92
        0
 66
   257
 43
1.0
 76
     1
 77
     6
 78
     2
 67
     7
 79
     5
170
     0
171
     0
290
     0
174
     0
 93
        1
 44
0.0
173
     0
291
     0
 45
0.0
1001
ACAD
1000
AcDbSavedByObjectVersion
1070
     0
  0
VISUALSTYLE
  5
4C6
102
{ACAD_XDICTIONARY
360
53E
102
}
102
{ACAD_REACTORS
330
4C1
102
}
330
4C1
100
AcDbVisualStyle
  2
Basic
 70
     7
 71
     1
 72
     0
 73
     1
 90
        0
 40
-0.6
 41
-30.0
 62
     5
 63
     7
 74
     0
 91
        4
 64
     7
 65
   257
 75
     1
175
     1
 42
1.0
 92
        8
 66
     7
 43
1.0
 76
     1
 77
     6
 78
     2
 67
     7
 79
     5
170
     0
171
     0
290
     0
174
     0
 93
        1
 44
0.0
173
     0
291
     1
 45
0.0
1001
ACAD
1000
AcDbSavedByObjectVersion
1070
     0
  0
VISUALSTYLE
  5
4CD
102
{ACAD_XDICTIONARY
360
54C
102
}
102
{ACAD_REACTORS
330
4C1
102
}
330
4C1
100
AcDbVisualStyle
  2
Brighten
 70
    12
 71
     2
 72
     2
 73
     0
 90
        0
 40
-0.6
 41
-30.0
 62
     5
 63
     7
 74
     1
 91
        4
 64
     7
 65
   257
 75
     1
175
     1
 42
1.0
 92
        8
 66
     7
 43
1.0
 76
     1
 77
     6
 78
     2
 67
     7
 79
     5
170
     0
171
     0
290
     0
174
     0
 93
        1
 44
50.0
173
     0
291
     1
 45
0.0
1001
ACAD
1000
AcDbSavedByObjectVersion
1070
     0
  0
VISUALSTYLE
  5
4D1
102
{ACAD_XDICTIONARY
360
554
102
}
102
{ACAD_REACTORS
330
4C1
102
}
330
4C1
100
AcDbVisualStyle
  2
ColorChange
 70
    16
 71
     2
 72
     2
 73
     3
 90
        0
 40
-0.6
 41
-30.0
 62
     5
 63
     8
 74
     1
 91
        4
 64
     7
 65
   257
 75
     1
175
     1
 42
1.0
 92
        8
 66
     8
 43
1.0
 76
     1
 77
     6
 78
     2
 67
     7
 79
     5
170
     0
171
     0
290
     0
174
     0
 93
        1
 44
0.0
173
     0
291
     1
 45
0.0
1001
ACAD
1000
AcDbSavedByObjectVersion
1070
     0
  0
VISUALSTYLE
  5
4CA
102
{ACAD_XDICTIONARY
360
546
102
}
102
{ACAD_REACTORS
330
4C1
102
}
330
4C1
100
AcDbVisualStyle
  2
Conceptual
 70
     9
 71
     3
 72
     2
 73
     0
 90
        0
 40
-0.6
 41
-30.0
 62
     5
 63
     7
 74
     2
 91
        2
 64
     7
 65
   257
 75
     1
175
     1
 42
179.0
 92
        8
 66
     7
 43
1.0
 76
     1
 77
     6
 78
     2
 67
     7
 79
     3
170
     0
171
     0
290
     0
174
     0
 93
        1
 44
0.0
173
     0
291
     0
 45
0.0
1001
ACAD
1000
AcDbSavedByObjectVersion
1070
     0
  0
VISUALSTYLE
  5
4CC
102
{ACAD_XDICTIONARY
360
54A
102
}
102
{ACAD_REACTORS
330
4C1
102
}
330
4C1
100
AcDbVisualStyle
  2
Dim
 70
    11
 71
     2
 72
     2
 73
     0
 90
        0
 40
-0.6
 41
-30.0
 62
     5
 63
     7
 74
     1
 91
        4
 64
     7
 65
   257
 75
     1
175
     1
 42
1.0
 92
        8
 66
     7
 43
1.0
 76
     1
 77
     6
 78
     2
 67
     7
 79
     5
170
     0
171
     0
290
     0
174
     0
 93
        1
 44
-50.0
173
     0
291
     1
 45
0.0
1001
ACAD
1000
AcDbSavedByObjectVersion
1070
     0
  0
VISUALSTYLE
  5
4D9
102
{ACAD_XDICTIONARY
360
564
102
}
102
{ACAD_REACTORS
330
4C1
102
}
330
4C1
100
AcDbVisualStyle
  2
EdgeColorOff
 70
    22
 71
     2
 72
     2
 73
     0
 90
        0
 40
-0.6
 41
-30.0
 62
     5
 63
     7
 74
     1
 91
        4
 64
     7
 65
   257
 75
     1
175
     1
 42
1.0
 92
        8
 66
     7
 43
1.0
 76
     1
 77
     6
 78
     2
 67
     7
 79
     5
170
     0
171
     0
290
     0
174
     0
 93
        1
 44
0.0
173
     0
291
     1
 45
0.0
1001
ACAD
1000
AcDbSavedByObjectVersion
1070
     0
  0
VISUALSTYLE
  5
4D0
102
{ACAD_XDICTIONARY
360
552
102
}
102
{ACAD_REACTORS
330
4C1
102
}
330
4C1
100
AcDbVisualStyle
  2
Facepattern
 70
    15
 71
     2
 72
     2
 73
     0
 90
        0
 40
-0.6
 41
-30.0
 62
     5
 63
     7
 74
     1
 91
        4
 64
     7
 65
   257
 75
     1
175
     1
 42
1.0
 92
        8
 66
     7
 43
1.0
 76
     1
 77
     6
 78
     2
 67
     7
 79
     5
170
     0
171
     0
290
     0
174
     0
 93
        1
 44
0.0
173
     0
291
     1
 45
0.0
1001
ACAD
1000
AcDbSavedByObjectVersion
1070
     0
  0
VISUALSTYLE
  5
4C2
102
{ACAD_XDICTIONARY
360
536
102
}
102
{ACAD_REACTORS
330
4C1
102
}
330
4C1
100
AcDbVisualStyle
  2
Flat
 70
     0
 71
     2
 72
     1
 73
     1
 90
        2
 40
-0.6
 41
30.0
 62
     5
 63
     7
 74
     0
 91
        0
 64
     7
 65
   257
 75
     1
175
     1
 42
1.0
 92
        8
 66
     7
 43
1.0
 76
     1
 77
     6
 78
     2
 67
     7
 79
     5
170
     0
171
     0
290
     0
174
     0
 93
       13
 44
0.0
173
     0
291
     1
 45
0.0
1001
ACAD
1000
AcDbSavedByObjectVersion
1070
     0
  0
VISUALSTYLE
  5
4C3
102
{ACAD_XDICTIONARY
360
538
102
}
102
{ACAD_REACTORS
330
4C1
102
}
330
4C1
100
AcDbVisualStyle
  2
FlatWithEdges
 70
     1
 71
     2
 72
     1
 73
     1
 90
        2
 40
-0.6
 41
30.0
 62
     5
 63
     7
 74
     1
 91
        0
 64
     7
 65
   257
 75
     1
175
     1
 42
1.0
 92
        0
 66
   257
 43
1.0
 76
     1
 77
     6
 78
     2
 67
     7
 79
     5
170
     0
171
     0
290
     0
174
     0
 93
       13
 44
0.0
173
     0
291
     1
 45
0.0
1001
ACAD
1000
AcDbSavedByObjectVersion
1070
     0
  0
VISUALSTYLE
  5
4C4
102
{ACAD_XDICTIONARY
360
53A
102
}
102
{ACAD_REACTORS
330
4C1
102
}
330
4C1
100
AcDbVisualStyle
  2
Gouraud
 70
     2
 71
     2
 72
     2
 73
     1
 90
        2
 40
-0.6
 41
30.0
 62
     5
 63
     7
 74
     0
 91
        0
 64
     7
 65
   257
 75
     1
175
     1
 42
1.0
 92
        0
 66
     7
 43
1.0
 76
     1
 77
     6
 78
     2
 67
     7
 79
     5
170
     0
171
     0
290
     0
174
     0
 93
       13
 44
0.0
173
     0
291
     1
 45
0.0
1001
ACAD
1000
AcDbSavedByObjectVersion
1070
     0
  0
VISUALSTYLE
  5
4C5
102
{ACAD_XDICTIONARY
360
53C
102
}
102
{ACAD_REACTORS
330
4C1
102
}
330
4C1
100
AcDbVisualStyle
  2
GouraudWithEdges
 70
     3
 71
     2
 72
     2
 73
     1
 90
        2
 40
-0.6
 41
30.0
 62
     5
 63
     7
 74
     1
 91
        0
 64
     7
 65
   257
 75
     1
175
     1
 42
1.0
 92
        0
 66
   257
 43
1.0
 76
     1
 77
     6
 78
     2
 67
     7
 79
     5
170
     0
171
     0
290
     0
174
     0
 93
       13
 44
0.0
173
     0
291
     1
 45
0.0
1001
ACAD
1000
AcDbSavedByObjectVersion
1070
     0
  0
VISUALSTYLE
  5
4C9
102
{ACAD_XDICTIONARY
360
544
102
}
102
{ACAD_REACTORS
330
4C1
102
}
330
4C1
100
AcDbVisualStyle
  2
Hidden
 70
     6
 71
     1
 72
     2
 73
     2
 90
        0
 40
-0.6
 41
-30.0
 62
     5
 63
     7
 74
     2
 91
        2
 64
     7
 65
   257
 75
     2
175
     1
 42
40.0
 92
        0
 66
   257
 43
1.0
 76
     1
 77
     6
 78
     2
 67
     7
 79
     3
170
     0
171
     0
290
     0
174
     0
 93
        1
 44
0.0
173
     0
291
     0
 45
0.0
1001
ACAD
1000
AcDbSavedByObjectVersion
1070
     0
  0
VISUALSTYLE
  5
4D7
102
{ACAD_XDICTIONARY
360
560
102
}
102
{ACAD_REACTORS
330
4C1
102
}
330
4C1
100
AcDbVisualStyle
  2
JitterOff
 70
    20
 71
     2
 72
     2
 73
     0
 90
        0
 40
-0.6
 41
-30.0
 62
     5
 63
     7
 74
     1
 91
        4
 64
     7
 65
   257
 75
     1
175
     1
 42
1.0
 92
       10
 66
     7
 43
1.0
 76
     1
 77
     6
 78
     2
 67
     7
 79
     5
170
     0
171
     0
290
     0
174
     0
 93
        1
 44
0.0
173
     0
291
     1
 45
0.0
1001
ACAD
1000
AcDbSavedByObjectVersion
1070
     0
  0
VISUALSTYLE
  5
4CF
102
{ACAD_XDICTIONARY
360
550
102
}
102
{ACAD_REACTORS
330
4C1
102
}
330
4C1
100
AcDbVisualStyle
  2
Linepattern
 70
    14
 71
     2
 72
     2
 73
     0
 90
        0
 40
-0.6
 41
-30.0
 62
     5
 63
     7
 74
     1
 91
        4
 64
     7
 65
   257
 75
     7
175
     7
 42
1.0
 92
        8
 66
     7
 43
1.0
 76
     1
 77
     6
 78
     2
 67
     7
 79
     5
170
     0
171
     0
290
     0
174
     0
 93
        1
 44
0.0
173
     0
291
     1
 45
0.0
1001
ACAD
1000
AcDbSavedByObjectVersion
1070
     0
  0
VISUALSTYLE
  5
4D8
102
{ACAD_XDICTIONARY
360
562
102
}
102
{ACAD_REACTORS
330
4C1
102
}
330
4C1
100
AcDbVisualStyle
  2
OverhangOff
 70
    21
 71
     2
 72
     2
 73
     0
 90
        0
 40
-0.6
 41
-30.0
 62
     5
 63
     7
 74
     1
 91
        4
 64
     7
 65
   257
 75
     1
175
     1
 42
1.0
 92
        9
 66
     7
 43
1.0
 76
     1
 77
     6
 78
     2
 67
     7
 79
     5
170
     0
171
     0
290
     0
174
     0
 93
        1
 44
0.0
173
     0
291
     1
 45
0.0
1001
ACAD
1000
AcDbSavedByObjectVersion
1070
     0
  0
VISUALSTYLE
  5
4CB
102
{ACAD_XDICTIONARY
360
548
102
}
102
{ACAD_REACTORS
330
4C1
102
}
330
4C1
100
AcDbVisualStyle
  2
Realistic
 70
     8
 71
     2
 72
     3
 73
     0
 90
        2
 40
-0.6
 41
30.0
 62
     5
 63
     7
 74
     0
 91
        0
 64
     7
 65
   257
 75
     1
175
     1
 42
1.0
 92
        8
 66
   257
 43
1.0
 76
     1
 77
     6
 78
     2
 67
     7
 79
     3
170
     0
171
     0
290
     0
174
     0
 93
       13
 44
0.0
173
     0
291
     0
 45
0.0
1001
ACAD
1000
AcDbSavedByObjectVersion
1070
     0
  0
VISUALSTYLE
  5
4D6
102
{ACAD_XDICTIONARY
360
55E
102
}
102
{ACAD_REACTORS
330
4C1
102
}
330
4C1
100
AcDbVisualStyle
  2
Shaded
 70
    27
 71
     2
 72
     2
 73
     1
 90
        2
 40
-0.6
 41
30.0
 62
     5
 63
     7
 74
     0
 91
        4
 64
     7
 65
   257
 75
     1
175
     1
 42
1.0
 92
        8
 66
   257
 43
1.0
 76
     1
 77
     6
 78
     2
 67
     8
 79
     3
170
     0
171
     0
290
     0
174
     0
 93
        5
 44
0.0
173
     0
291
     0
 45
0.0
1001
ACAD
1000
AcDbSavedByObjectVersion
1070
     0
  0
VISUALSTYLE
  5
4D5
102
{ACAD_XDICTIONARY
360
55C
102
}
102
{ACAD_REACTORS
330
4C1
102
}
330
4C1
100
AcDbVisualStyle
  2
Shaded with edges
 70
    26
 71
     2
 72
     2
 73
     1
 90
        2
 40
-0.6
 41
30.0
 62
     5
 63
     7
 74
     1
 91
       10
 64
     7
 65
   257
 75
     2
175
     1
 42
1.0
 92
        8
 66
   257
 43
1.0
 76
     1
 77
     6
 78
     2
 67
     7
 79
     3
170
     0
171
     0
290
     0
174
     0
 93
        5
 44
0.0
173
     0
291
     0
 45
0.0
1001
ACAD
1000
AcDbSavedByObjectVersion
1070
     0
  0
VISUALSTYLE
  5
4D2
102
{ACAD_XDICTIONARY
360
556
102
}
102
{ACAD_REACTORS
330
4C1
102
}
330
4C1
100
AcDbVisualStyle
  2
Shades of Gray
 70
    23
 71
     2
 72
     2
 73
     3
 90
        0
 40
-0.6
 41
-30.0
 62
     5
 63
     7
 74
     2
 91
        2
 64
     7
 65
     7
 75
     1
175
     1
 42
40.0
 92
        8
 66
     7
 43
1.0
 76
     1
 77
     6
 78
     2
 67
     7
 79
     3
170
     0
171
     0
290
     0
174
     0
 93
        1
 44
0.0
173
     0
291
     0
 45
0.0
1001
ACAD
1000
AcDbSavedByObjectVersion
1070
     0
  0
VISUALSTYLE
  5
4D3
102
{ACAD_XDICTIONARY
360
558
102
}
102
{ACAD_REACTORS
330
4C1
102
}
330
4C1
100
AcDbVisualStyle
  2
Sketchy
 70
    24
 71
     1
 72
     2
 73
     2
 90
        0
 40
-0.6
 41
-30.0
 62
     5
 63
     7
 74
     2
 91
        2
 64
     7
 65
     7
 75
     1
175
     1
 42
40.0
 92
       11
 66
     7
 43
1.0
 76
     1
 77
     6
 78
     2
 67
     7
 79
     6
170
     0
171
     0
290
     0
174
     0
 93
        1
 44
0.0
173
     0
291
     0
 45
0.0
1001
ACAD
1000
AcDbSavedByObjectVersion
1070
     0
  0
VISUALSTYLE
  5
4CE
102
{ACAD_XDICTIONARY
360
54E
102
}
102
{ACAD_REACTORS
330
4C1
102
}
330
4C1
100
AcDbVisualStyle
  2
Thicken
 70
    13
 71
     2
 72
     2
 73
     0
 90
        0
 40
-0.6
 41
-30.0
 62
     5
 63
     7
 74
     1
 91
        4
 64
     7
 65
   257
 75
     1
175
     1
 42
1.0
 92
       12
 66
     7
 43
1.0
 76
     1
 77
     6
 78
     2
 67
     7
 79
     5
170
     0
171
     0
290
     0
174
     0
 93
        1
 44
0.0
173
     0
291
     1
 45
0.0
1001
ACAD
1000
AcDbSavedByObjectVersion
1070
     0
  0
VISUALSTYLE
  5
4C8
102
{ACAD_XDICTIONARY
360
542
102
}
102
{ACAD_REACTORS
330
4C1
102
}
330
4C1
100
AcDbVisualStyle
  2
Wireframe
 70
     5
 71
     0
 72
     2
 73
     0
 90
        0
 40
-0.6
 41
-30.0
 62
     5
 63
     7
 74
     1
 91
        4
 64
     7
 65
   257
 75
     1
175
     1
 42
1.0
 92
        0
 66
   257
 43
1.0
 76
     1
 77
     6
 78
     2
 67
     7
 79
     3
170
     0
171
     0
290
     0
174
     0
 93
        1
 44
0.0
173
     0
291
     0
 45
0.0
1001
ACAD
1000
AcDbSavedByObjectVersion
1070
     0
  0
VISUALSTYLE
  5
4D4
102
{ACAD_XDICTIONARY
360
55A
102
}
102
{ACAD_REACTORS
330
4C1
102
}
330
4C1
100
AcDbVisualStyle
  2
X-Ray
 70
    25
 71
     2
 72
     2
 73
     1
 90
        1
 40
0.5
 41
-30.0
 62
     5
 63
     7
 74
     1
 91
        0
 64
     7
 65
   257
 75
     1
175
     1
 42
1.0
 92
        8
 66
     7
 43
1.0
 76
     1
 77
     6
 78
     2
 67
     7
 79
     3
170
     0
171
     0
290
     0
174
     0
 93
       13
 44
0.0
173
     0
291
     0
 45
0.0
1001
ACAD
1000
AcDbSavedByObjectVersion
1070
     0
  0
DICTIONARYVAR
  5
52A
102
{ACAD_REACTORS
330
525
102
}
330
525
100
DictionaryVariables
280
     0
  1
1:1
  0
DICTIONARYVAR
  5
527
102
{ACAD_REACTORS
330
525
102
}
330
525
100
DictionaryVariables
280
     0
  1
STANDARD
  0
DICTIONARYVAR
  5
526
102
{ACAD_REACTORS
330
525
102
}
330
525
100
DictionaryVariables
280
     0
  1
STANDARD
  0
DICTIONARYVAR
  5
528
102
{ACAD_REACTORS
330
525
102
}
330
525
100
DictionaryVariables
280
     0
  1
Imperial24
  0
DICTIONARYVAR
  5
529
102
{ACAD_REACTORS
330
525
102
}
330
525
100
DictionaryVariables
280
     0
  1
Imperial24
  0
DICTIONARYVAR
  5
52D
102
{ACAD_REACTORS
330
525
102
}
330
525
100
DictionaryVariables
280
     0
  1
1
  0
DICTIONARYVAR
  5
52C
102
{ACAD_REACTORS
330
525
102
}
330
525
100
DictionaryVariables
280
     0
  1
0
  0
DICTIONARYVAR
  5
52B
102
{ACAD_REACTORS
330
525
102
}
330
525
100
DictionaryVariables
280
     0
  1
127
  0
DICTIONARYVAR
  5
52E
102
{ACAD_REACTORS
330
525
102
}
330
525
100
DictionaryVariables
280
     0
  1
2
  0
DICTIONARY
  5
569
330
502
100
AcDbDictionary
280
     1
281
     1
  3
ACAD_XREC_ROUNDTRIP
360
56A
  0
DICTIONARY
  5
56D
330
50A
100
AcDbDictionary
280
     1
281
     1
  3
ACAD_XREC_ROUNDTRIP
360
56E
  0
DICTIONARY
  5
56B
330
506
100
AcDbDictionary
280
     1
281
     1
  3
ACAD_XREC_ROUNDTRIP
360
56C
  0
DICTIONARY
  5
4B2
330
4B1
100
AcDbDictionary
280
     1
281
     1
  3
ACAD_XREC_ROUNDTRIP
360
534
  3
BUMPTILE
360
4B4
  3
DIFFUSETILE
360
4B3
  3
OPACITYTILE
360
4B7
  3
REFLECTIONTILE
360
4B6
  3
REFRACTIONTILE
360
4B8
  3
SPECULARTILE
360
4B5
  0
DICTIONARY
  5
4AA
330
4A9
100
AcDbDictionary
280
     1
281
     1
  3
ACAD_XREC_ROUNDTRIP
360
533
  3
BUMPTILE
360
4AC
  3
DIFFUSETILE
360
4AB
  3
OPACITYTILE
360
4AF
  3
REFLECTIONTILE
360
4AE
  3
REFRACTIONTILE
360
4B0
  3
SPECULARTILE
360
4AD
  0
DICTIONARY
  5
4BA
330
4B9
100
AcDbDictionary
280
     1
281
     1
  3
ACAD_XREC_ROUNDTRIP
360
535
  3
BUMPTILE
360
4BC
  3
DIFFUSETILE
360
4BB
  3
OPACITYTILE
360
4BF
  3
REFLECTIONTILE
360
4BE
  3
REFRACTIONTILE
360
4C0
  3
SPECULARTILE
360
4BD
  0
DICTIONARY
  5
567
330
500
100
AcDbDictionary
280
     1
281
     1
  3
ACAD_XREC_ROUNDTRIP
360
568
  0
DICTIONARY
  5
52F
330
4FC
100
AcDbDictionary
280
     1
281
     1
  3
ACAD_ROUNDTRIP_2008_TABLESTYLE_CELLSTYLEMAP
360
530
  3
ACAD_XREC_ROUNDTRIP
360
566
  0
DICTIONARY
  5
540
330
4C7
100
AcDbDictionary
280
     1
281
     1
  3
ACAD_XREC_ROUNDTRIP
360
541
  0
DICTIONARY
  5
53E
330
4C6
100
AcDbDictionary
280
     1
281
     1
  3
ACAD_XREC_ROUNDTRIP
360
53F
  0
DICTIONARY
  5
54C
330
4CD
100
AcDbDictionary
280
     1
281
     1
  3
ACAD_XREC_ROUNDTRIP
360
54D
  0
DICTIONARY
  5
554
330
4D1
100
AcDbDictionary
280
     1
281
     1
  3
ACAD_XREC_ROUNDTRIP
360
555
  0
DICTIONARY
  5
546
330
4CA
100
AcDbDictionary
280
     1
281
     1
  3
ACAD_XREC_ROUNDTRIP
360
547
  0
DICTIONARY
  5
54A
330
4CC
100
AcDbDictionary
280
     1
281
     1
  3
ACAD_XREC_ROUNDTRIP
360
54B
  0
DICTIONARY
  5
564
330
4D9
100
AcDbDictionary
280
     1
281
     1
  3
ACAD_XREC_ROUNDTRIP
360
565
  0
DICTIONARY
  5
552
330
4D0
100
AcDbDictionary
280
     1
281
     1
  3
ACAD_XREC_ROUNDTRIP
360
553
  0
DICTIONARY
  5
536
330
4C2
100
AcDbDictionary
280
     1
281
     1
  3
ACAD_XREC_ROUNDTRIP
360
537
  0
DICTIONARY
  5
538
330
4C3
100
AcDbDictionary
280
     1
281
     1
  3
ACAD_XREC_ROUNDTRIP
360
539
  0
DICTIONARY
  5
53A
330
4C4
100
AcDbDictionary
280
     1
281
     1
  3
ACAD_XREC_ROUNDTRIP
360
53B
  0
DICTIONARY
  5
53C
330
4C5
100
AcDbDictionary
280
     1
281
     1
  3
ACAD_XREC_ROUNDTRIP
360
53D
  0
DICTIONARY
  5
544
330
4C9
100
AcDbDictionary
280
     1
281
     1
  3
ACAD_XREC_ROUNDTRIP
360
545
  0
DICTIONARY
  5
560
330
4D7
100
AcDbDictionary
280
     1
281
     1
  3
ACAD_XREC_ROUNDTRIP
360
561
  0
DICTIONARY
  5
550
330
4CF
100
AcDbDictionary
280
     1
281
     1
  3
ACAD_XREC_ROUNDTRIP
360
551
  0
DICTIONARY
  5
562
330
4D8
100
AcDbDictionary
280
     1
281
     1
  3
ACAD_XREC_ROUNDTRIP
360
563
  0
DICTIONARY
  5
548
330
4CB
100
AcDbDictionary
280
     1
281
     1
  3
ACAD_XREC_ROUNDTRIP
360
549
  0
DICTIONARY
  5
55E
330
4D6
100
AcDbDictionary
280
     1
281
     1
  3
ACAD_XREC_ROUNDTRIP
360
55F
  0
DICTIONARY
  5
55C
330
4D5
100
AcDbDictionary
280
     1
281
     1
  3
ACAD_XREC_ROUNDTRIP
360
55D
  0
DICTIONARY
  5
556
330
4D2
100
AcDbDictionary
280
     1
281
     1
  3
ACAD_XREC_ROUNDTRIP
360
557
  0
DICTIONARY
  5
558
330
4D3
100
AcDbDictionary
280
     1
281
     1
  3
ACAD_XREC_ROUNDTRIP
360
559
  0
DICTIONARY
  5
54E
330
4CE
100
AcDbDictionary
280
     1
281
     1
  3
ACAD_XREC_ROUNDTRIP
360
54F
  0
DICTIONARY
  5
542
330
4C8
100
AcDbDictionary
280
     1
281
     1
  3
ACAD_XREC_ROUNDTRIP
360
543
  0
DICTIONARY
  5
55A
330
4D4
100
AcDbDictionary
280
     1
281
     1
  3
ACAD_XREC_ROUNDTRIP
360
55B
  0
XRECORD
  5
56A
102
{ACAD_REACTORS
330
569
102
}
330
569
100
AcDbXrecord
280
     1
102
DISPLAYNAME
  1
Imperial24
102
FLAGS
 90
        0
  0
XRECORD
  5
56E
102
{ACAD_REACTORS
330
56D
102
}
330
56D
100
AcDbXrecord
280
     1
102
SHADEPLOT
 70
     0
102
SHADEPLOTRESLEVEL
 70
     2
102
SHADEPLOTCUSTOMDPI
 70
   300
  0
XRECORD
  5
56C
102
{ACAD_REACTORS
330
56B
102
}
330
56B
100
AcDbXrecord
280
     1
102
SHADEPLOT
 70
     0
102
SHADEPLOTRESLEVEL
 70
     2
102
SHADEPLOTCUSTOMDPI
 70
   300
  0
XRECORD
  5
534
102
{ACAD_REACTORS
330
4B2
102
}
330
4B2
100
AcDbXrecord
280
     1
102
MATERIAL
148
0.0
149
0.0
149
0.0
 93
        0
 94
      127
282
     0
 72
     0
 77
     0
171
     0
175
     0
179
     0
273
     0
  0
XRECORD
  5
4B4
102
{ACAD_REACTORS
330
4B2
102
}
330
4B2
100
AcDbXrecord
280
     1
270
     1
271
     1
  0
XRECORD
  5
4B3
102
{ACAD_REACTORS
330
4B2
102
}
330
4B2
100
AcDbXrecord
280
     1
270
     1
271
     1
  0
XRECORD
  5
4B7
102
{ACAD_REACTORS
330
4B2
102
}
330
4B2
100
AcDbXrecord
280
     1
270
     1
271
     1
  0
XRECORD
  5
4B6
102
{ACAD_REACTORS
330
4B2
102
}
330
4B2
100
AcDbXrecord
280
     1
270
     1
271
     1
  0
XRECORD
  5
4B8
102
{ACAD_REACTORS
330
4B2
102
}
330
4B2
100
AcDbXrecord
280
     1
270
     1
271
     1
  0
XRECORD
  5
4B5
102
{ACAD_REACTORS
330
4B2
102
}
330
4B2
100
AcDbXrecord
280
     1
270
     1
271
     1
  0
XRECORD
  5
533
102
{ACAD_REACTORS
330
4AA
102
}
330
4AA
100
AcDbXrecord
280
     1
102
MATERIAL
148
0.0
149
0.0
149
0.0
 93
        0
 94
      127
282
     0
 72
     0
 77
     0
171
     0
175
     0
179
     0
273
     0
  0
XRECORD
  5
4AC
102
{ACAD_REACTORS
330
4AA
102
}
330
4AA
100
AcDbXrecord
280
     1
270
     1
271
     1
  0
XRECORD
  5
4AB
102
{ACAD_REACTORS
330
4AA
102
}
330
4AA
100
AcDbXrecord
280
     1
270
     1
271
     1
  0
XRECORD
  5
4AF
102
{ACAD_REACTORS
330
4AA
102
}
330
4AA
100
AcDbXrecord
280
     1
270
     1
271
     1
  0
XRECORD
  5
4AE
102
{ACAD_REACTORS
330
4AA
102
}
330
4AA
100
AcDbXrecord
280
     1
270
     1
271
     1
  0
XRECORD
  5
4B0
102
{ACAD_REACTORS
330
4AA
102
}
330
4AA
100
AcDbXrecord
280
     1
270
     1
271
     1
  0
XRECORD
  5
4AD
102
{ACAD_REACTORS
330
4AA
102
}
330
4AA
100
AcDbXrecord
280
     1
270
     1
271
     1
  0
XRECORD
  5
535
102
{ACAD_REACTORS
330
4BA
102
}
330
4BA
100
AcDbXrecord
280
     1
102
MATERIAL
148
0.0
149
0.0
149
0.0
 93
        0
 94
      127
282
     0
 72
     0
 77
     0
171
     0
175
     0
179
     0
273
     0
  0
XRECORD
  5
4BC
102
{ACAD_REACTORS
330
4BA
102
}
330
4BA
100
AcDbXrecord
280
     1
270
     1
271
     1
  0
XRECORD
  5
4BB
102
{ACAD_REACTORS
330
4BA
102
}
330
4BA
100
AcDbXrecord
280
     1
270
     1
271
     1
  0
XRECORD
  5
4BF
102
{ACAD_REACTORS
330
4BA
102
}
330
4BA
100
AcDbXrecord
280
     1
270
     1
271
     1
  0
XRECORD
  5
4BE
102
{ACAD_REACTORS
330
4BA
102
}
330
4BA
100
AcDbXrecord
280
     1
270
     1
271
     1
  0
XRECORD
  5
4C0
102
{ACAD_REACTORS
330
4BA
102
}
330
4BA
100
AcDbXrecord
280
     1
270
     1
271
     1
  0
XRECORD
  5
4BD
102
{ACAD_REACTORS
330
4BA
102
}
330
4BA
100
AcDbXrecord
280
     1
270
     1
271
     1
  0
XRECORD
  5
568
102
{ACAD_REACTORS
330
567
102
}
330
567
100
AcDbXrecord
280
     1
102
DISPLAYNAME
  1
Imperial24
102
FLAGS
 90
        0
  0
CELLSTYLEMAP
  5
530
102
{ACAD_REACTORS
330
52F
102
}
330
52F
100
AcDbCellStyleMap
 90
        3
300
CELLSTYLE
  1
TABLEFORMAT_BEGIN
 90
        5
170
     1
 91
        0
 92
    32768
 62
   257
 93
        1
300
CONTENTFORMAT
  1
CONTENTFORMAT_BEGIN
 90
        0
 91
        0
 92
      512
 93
        0
300

 40
0.0
140
1.0
 94
        5
 62
     0
340
4ED
144
0.25
309
CONTENTFORMAT_END
171
     0
 94
        0
309
TABLEFORMAT_END
  1
CELLSTYLE_BEGIN
 90
        1
 91
        1
300
_TITLE
309
CELLSTYLE_END
300
CELLSTYLE
  1
TABLEFORMAT_BEGIN
 90
        5
170
     1
 91
        0
 92
        0
 62
   257
 93
        1
300
CONTENTFORMAT
  1
CONTENTFORMAT_BEGIN
 90
        0
 91
        0
 92
      512
 93
        0
300

 40
0.0
140
1.0
 94
        5
 62
     0
340
4ED
144
0.18
309
CONTENTFORMAT_END
171
     0
 94
        0
309
TABLEFORMAT_END
  1
CELLSTYLE_BEGIN
 90
        2
 91
        1
300
_HEADER
309
CELLSTYLE_END
300
CELLSTYLE
  1
TABLEFORMAT_BEGIN
 90
        5
170
     1
 91
        0
 92
        0
 62
   257
 93
        1
300
CONTENTFORMAT
  1
CONTENTFORMAT_BEGIN
 90
        0
 91
        0
 92
      512
 93
        0
300

 40
0.0
140
1.0
 94
        2
 62
     0
340
4ED
144
0.18
309
CONTENTFORMAT_END
171
     0
 94
        0
309
TABLEFORMAT_END
  1
CELLSTYLE_BEGIN
 90
        3
 91
        2
300
_DATA
309
CELLSTYLE_END
  0
XRECORD
  5
566
102
{ACAD_REACTORS
330
52F
102
}
330
52F
100
AcDbXrecord
280
     1
102
ACAD_ROUNDTRIP_PRE2007_TABLESTYLE
 90
      512
 91
        0
  1

 92
      512
 93
        0
  2

 94
      512
 95
        0
  3

  0
XRECORD
  5
541
102
{ACAD_REACTORS
330
540
102
}
330
540
100
AcDbXrecord
280
     1
102
RTVSPost2010Prop28
280
     1
102
RTVSPost2010PropOp28
 70
     1
102
RTVSPost2010Prop29
280
     1
102
RTVSPost2010PropOp29
 70
     1
102
RTVSPost2010Prop30
280
     0
102
RTVSPost2010PropOp30
 70
     1
102
RTVSPost2010Prop31
280
     0
102
RTVSPost2010PropOp31
 70
     1
102
RTVSPost2010Prop32
280
     0
102
RTVSPost2010PropOp32
 70
     1
102
RTVSPost2010Prop33
280
     0
102
RTVSPost2010PropOp33
 70
     1
102
RTVSPost2010Prop34
280
     0
102
RTVSPost2010PropOp34
 70
     1
102
RTVSPost2010Prop35
280
     0
102
RTVSPost2010PropOp35
 70
     1
102
RTVSPost2010Prop36
280
     0
102
RTVSPost2010PropOp36
 70
     1
102
RTVSPost2010Prop37
 90
       50
102
RTVSPost2010PropOp37
 70
     1
102
RTVSPost2010Prop38
140
0.0
102
RTVSPost2010PropOp38
 70
     1
102
RTVSPost2010Prop39
140
1.0
102
RTVSPost2010PropOp39
 70
     1
102
RTVSPost2010Prop40
 90
        0
102
RTVSPost2010PropOp40
 70
     1
102
RTVSPost2010Prop41ColorIndex
 90
       18
102
RTVSPost2010Prop41ColorRGB
 90
        0
102
RTVSPost2010PropOp41
 70
     1
102
RTVSPost2010Prop42
 90
       50
102
RTVSPost2010PropOp42
 70
     1
102
RTVSPost2010Prop43
 90
        3
102
RTVSPost2010PropOp43
 70
     1
102
RTVSPost2010Prop44ColorIndex
 90
        5
102
RTVSPost2010Prop44ColorRGB
 90
      255
102
RTVSPost2010PropOp44
 70
     1
102
RTVSPost2010Prop45
280
     0
102
RTVSPost2010PropOp45
 70
     1
102
RTVSPost2010Prop46
 90
       50
102
RTVSPost2010PropOp46
 70
     1
102
RTVSPost2010Prop47
 90
       50
102
RTVSPost2010PropOp47
 70
     1
102
RTVSPost2010Prop48
 90
       50
102
RTVSPost2010PropOp48
 70
     1
102
RTVSPost2010Prop49
280
     0
102
RTVSPost2010PropOp49
 70
     1
102
RTVSPost2010Prop50
 90
       50
102
RTVSPost2010PropOp50
 70
     1
102
RTVSPost2010Prop51ColorIndex
 90
      256
102
RTVSPost2010Prop51ColorRGB
 90
-16777216
102
RTVSPost2010PropOp51
 70
     0
102
RTVSPost2010Prop52
140
1.0
102
RTVSPost2010PropOp52
 70
     0
102
RTVSPost2010Prop53
 90
        2
102
RTVSPost2010PropOp53
 70
     1
102
RTVSPost2010Prop54
  1
strokes_ogs.tif
102
RTVSPost2010PropOp54
 70
     1
102
RTVSPost2010Prop55
280
     0
102
RTVSPost2010PropOp55
 70
     1
102
RTVSPost2010Prop56
140
1.0
102
RTVSPost2010PropOp56
 70
     1
102
RTVSPost2010Prop57
140
1.0
102
RTVSPost2010PropOp57
 70
     1
102
RTVSPropertyOp0
 70
     1
102
RTVSPropertyOp1
 70
     1
102
RTVSPropertyOp2
 70
     1
102
RTVSPropertyOp3
 70
     1
102
RTVSPropertyOp4
 70
     1
102
RTVSPropertyOp5
 70
     1
102
RTVSPropertyOp6
 70
     1
102
RTVSPropertyOp7
 70
     1
102
RTVSPropertyOp8
 70
     1
102
RTVSPropertyOp9
 70
     1
102
RTVSPropertyOp10
 70
     1
102
RTVSPropertyOp11
 70
     1
102
RTVSPropertyOp12
 70
     1
102
RTVSPropertyOp13
 70
     1
102
RTVSPropertyOp14
 70
     1
102
RTVSPropertyOp15
 70
     1
102
RTVSPropertyOp16
 70
     1
102
RTVSPropertyOp17
 70
     1
102
RTVSPropertyOp18
 70
     1
102
RTVSPropertyOp19
 70
     1
102
RTVSPropertyOp20
 70
     1
102
RTVSPropertyOp21
 70
     1
102
RTVSPropertyOp22
 70
     1
102
RTVSPropertyOp23
 70
     1
102
RTVSPropertyOp24
 70
     1
102
RTVSPropertyOp25
 70
     1
102
RTVSPropertyOp26
 70
     1
102
RTVSPropertyOp27
 70
     1
102
RTVSPropertyOp28
 70
     1
102
RTVSPropertyOp29
 70
     1
102
RTVSPropertyOp30
 70
     1
102
RTVSPropertyOp31
 70
     1
102
RTVSPropertyOp32
 70
     1
102
RTVSPropertyOp33
 70
     1
102
RTVSPropertyOp34
 70
     1
102
RTVSPropertyOp35
 70
     1
102
RTVSPropertyOp36
 70
     1
102
RTVSPropertyOp37
 70
     1
102
RTVSPropertyOp38
 70
     1
102
RTVSPropertyOp39
 70
     1
102
RTVSPropertyOp40
 70
     1
102
RTVSPropertyOp41
 70
     1
102
RTVSPropertyOp42
 70
     1
102
RTVSPropertyOp43
 70
     1
102
RTVSPropertyOp44
 70
     1
102
RTVSPropertyOp45
 70
     1
102
RTVSPropertyOp46
 70
     1
102
RTVSPropertyOp47
 70
     1
102
RTVSPropertyOp48
 70
     1
102
RTVSPropertyOp49
 70
     1
102
RTVSPropertyOp50
 70
     1
102
RTVSPropertyOp51
 70
     0
102
RTVSPropertyOp52
 70
     0
102
RTVSPropertyOp53
 70
     1
102
RTVSPropertyOp54
 70
     1
102
RTVSPropertyOp55
 70
     1
102
RTVSPropertyOp56
 70
     1
102
RTVSPropertyOp57
 70
     1
102
RTVSPropertyOp58
 70
     1
102
RTVSPropertyOp59
 70
     1
102
RTVSPropertyOp60
 70
     1
102
RTVSPropertyOp61
 70
     1
102
RTVSPropertyOp62
 70
     1
  0
XRECORD
  5
53F
102
{ACAD_REACTORS
330
53E
102
}
330
53E
100
AcDbXrecord
280
     1
102
RTVSPost2010Prop28
280
     0
102
RTVSPost2010PropOp28
 70
     1
102
RTVSPost2010Prop29
280
     1
102
RTVSPost2010PropOp29
 70
     1
102
RTVSPost2010Prop30
280
     1
102
RTVSPost2010PropOp30
 70
     1
102
RTVSPost2010Prop31
280
     0
102
RTVSPost2010PropOp31
 70
     1
102
RTVSPost2010Prop32
280
     0
102
RTVSPost2010PropOp32
 70
     1
102
RTVSPost2010Prop33
280
     0
102
RTVSPost2010PropOp33
 70
     1
102
RTVSPost2010Prop34
280
     0
102
RTVSPost2010PropOp34
 70
     1
102
RTVSPost2010Prop35
280
     0
102
RTVSPost2010PropOp35
 70
     1
102
RTVSPost2010Prop36
280
     0
102
RTVSPost2010PropOp36
 70
     1
102
RTVSPost2010Prop37
 90
       50
102
RTVSPost2010PropOp37
 70
     1
102
RTVSPost2010Prop38
140
0.0
102
RTVSPost2010PropOp38
 70
     1
102
RTVSPost2010Prop39
140
1.0
102
RTVSPost2010PropOp39
 70
     1
102
RTVSPost2010Prop40
 90
        0
102
RTVSPost2010PropOp40
 70
     1
102
RTVSPost2010Prop41ColorIndex
 90
       18
102
RTVSPost2010Prop41ColorRGB
 90
        0
102
RTVSPost2010PropOp41
 70
     1
102
RTVSPost2010Prop42
 90
       50
102
RTVSPost2010PropOp42
 70
     1
102
RTVSPost2010Prop43
 90
        3
102
RTVSPost2010PropOp43
 70
     1
102
RTVSPost2010Prop44ColorIndex
 90
        5
102
RTVSPost2010Prop44ColorRGB
 90
      255
102
RTVSPost2010PropOp44
 70
     1
102
RTVSPost2010Prop45
280
     0
102
RTVSPost2010PropOp45
 70
     1
102
RTVSPost2010Prop46
 90
       50
102
RTVSPost2010PropOp46
 70
     1
102
RTVSPost2010Prop47
 90
       50
102
RTVSPost2010PropOp47
 70
     1
102
RTVSPost2010Prop48
 90
       50
102
RTVSPost2010PropOp48
 70
     1
102
RTVSPost2010Prop49
280
     0
102
RTVSPost2010PropOp49
 70
     1
102
RTVSPost2010Prop50
 90
       50
102
RTVSPost2010PropOp50
 70
     1
102
RTVSPost2010Prop51ColorIndex
 90
      256
102
RTVSPost2010Prop51ColorRGB
 90
-16777216
102
RTVSPost2010PropOp51
 70
     0
102
RTVSPost2010Prop52
140
1.0
102
RTVSPost2010PropOp52
 70
     0
102
RTVSPost2010Prop53
 90
        2
102
RTVSPost2010PropOp53
 70
     1
102
RTVSPost2010Prop54
  1
strokes_ogs.tif
102
RTVSPost2010PropOp54
 70
     1
102
RTVSPost2010Prop55
280
     0
102
RTVSPost2010PropOp55
 70
     1
102
RTVSPost2010Prop56
140
1.0
102
RTVSPost2010PropOp56
 70
     1
102
RTVSPost2010Prop57
140
1.0
102
RTVSPost2010PropOp57
 70
     1
102
RTVSPropertyOp0
 70
     1
102
RTVSPropertyOp1
 70
     1
102
RTVSPropertyOp2
 70
     1
102
RTVSPropertyOp3
 70
     1
102
RTVSPropertyOp4
 70
     1
102
RTVSPropertyOp5
 70
     1
102
RTVSPropertyOp6
 70
     1
102
RTVSPropertyOp7
 70
     1
102
RTVSPropertyOp8
 70
     1
102
RTVSPropertyOp9
 70
     1
102
RTVSPropertyOp10
 70
     1
102
RTVSPropertyOp11
 70
     1
102
RTVSPropertyOp12
 70
     1
102
RTVSPropertyOp13
 70
     1
102
RTVSPropertyOp14
 70
     1
102
RTVSPropertyOp15
 70
     1
102
RTVSPropertyOp16
 70
     1
102
RTVSPropertyOp17
 70
     1
102
RTVSPropertyOp18
 70
     1
102
RTVSPropertyOp19
 70
     1
102
RTVSPropertyOp20
 70
     1
102
RTVSPropertyOp21
 70
     1
102
RTVSPropertyOp22
 70
     1
102
RTVSPropertyOp23
 70
     1
102
RTVSPropertyOp24
 70
     1
102
RTVSPropertyOp25
 70
     1
102
RTVSPropertyOp26
 70
     1
102
RTVSPropertyOp27
 70
     1
102
RTVSPropertyOp28
 70
     1
102
RTVSPropertyOp29
 70
     1
102
RTVSPropertyOp30
 70
     1
102
RTVSPropertyOp31
 70
     1
102
RTVSPropertyOp32
 70
     1
102
RTVSPropertyOp33
 70
     1
102
RTVSPropertyOp34
 70
     1
102
RTVSPropertyOp35
 70
     1
102
RTVSPropertyOp36
 70
     1
102
RTVSPropertyOp37
 70
     1
102
RTVSPropertyOp38
 70
     1
102
RTVSPropertyOp39
 70
     1
102
RTVSPropertyOp40
 70
     1
102
RTVSPropertyOp41
 70
     1
102
RTVSPropertyOp42
 70
     1
102
RTVSPropertyOp43
 70
     1
102
RTVSPropertyOp44
 70
     1
102
RTVSPropertyOp45
 70
     1
102
RTVSPropertyOp46
 70
     1
102
RTVSPropertyOp47
 70
     1
102
RTVSPropertyOp48
 70
     1
102
RTVSPropertyOp49
 70
     1
102
RTVSPropertyOp50
 70
     1
102
RTVSPropertyOp51
 70
     0
102
RTVSPropertyOp52
 70
     0
102
RTVSPropertyOp53
 70
     1
102
RTVSPropertyOp54
 70
     1
102
RTVSPropertyOp55
 70
     1
102
RTVSPropertyOp56
 70
     1
102
RTVSPropertyOp57
 70
     1
102
RTVSPropertyOp58
 70
     1
102
RTVSPropertyOp59
 70
     1
102
RTVSPropertyOp60
 70
     1
102
RTVSPropertyOp61
 70
     1
102
RTVSPropertyOp62
 70
     1
  0
XRECORD
  5
54D
102
{ACAD_REACTORS
330
54C
102
}
330
54C
100
AcDbXrecord
280
     1
102
RTVSPost2010Prop28
280
     0
102
RTVSPost2010PropOp28
 70
     1
102
RTVSPost2010Prop29
280
     1
102
RTVSPost2010PropOp29
 70
     1
102
RTVSPost2010Prop30
280
     1
102
RTVSPost2010PropOp30
 70
     1
102
RTVSPost2010Prop31
280
     0
102
RTVSPost2010PropOp31
 70
     1
102
RTVSPost2010Prop32
280
     0
102
RTVSPost2010PropOp32
 70
     1
102
RTVSPost2010Prop33
280
     0
102
RTVSPost2010PropOp33
 70
     1
102
RTVSPost2010Prop34
280
     0
102
RTVSPost2010PropOp34
 70
     1
102
RTVSPost2010Prop35
280
     0
102
RTVSPost2010PropOp35
 70
     1
102
RTVSPost2010Prop36
280
     0
102
RTVSPost2010PropOp36
 70
     1
102
RTVSPost2010Prop37
 90
       50
102
RTVSPost2010PropOp37
 70
     1
102
RTVSPost2010Prop38
140
0.0
102
RTVSPost2010PropOp38
 70
     1
102
RTVSPost2010Prop39
140
1.0
102
RTVSPost2010PropOp39
 70
     1
102
RTVSPost2010Prop40
 90
        0
102
RTVSPost2010PropOp40
 70
     1
102
RTVSPost2010Prop41ColorIndex
 90
       18
102
RTVSPost2010Prop41ColorRGB
 90
        0
102
RTVSPost2010PropOp41
 70
     1
102
RTVSPost2010Prop42
 90
       50
102
RTVSPost2010PropOp42
 70
     1
102
RTVSPost2010Prop43
 90
        3
102
RTVSPost2010PropOp43
 70
     1
102
RTVSPost2010Prop44ColorIndex
 90
        5
102
RTVSPost2010Prop44ColorRGB
 90
      255
102
RTVSPost2010PropOp44
 70
     1
102
RTVSPost2010Prop45
280
     0
102
RTVSPost2010PropOp45
 70
     1
102
RTVSPost2010Prop46
 90
       50
102
RTVSPost2010PropOp46
 70
     1
102
RTVSPost2010Prop47
 90
       50
102
RTVSPost2010PropOp47
 70
     1
102
RTVSPost2010Prop48
 90
       50
102
RTVSPost2010PropOp48
 70
     1
102
RTVSPost2010Prop49
280
     0
102
RTVSPost2010PropOp49
 70
     1
102
RTVSPost2010Prop50
 90
       50
102
RTVSPost2010PropOp50
 70
     1
102
RTVSPost2010Prop51ColorIndex
 90
      256
102
RTVSPost2010Prop51ColorRGB
 90
-16777216
102
RTVSPost2010PropOp51
 70
     0
102
RTVSPost2010Prop52
140
1.0
102
RTVSPost2010PropOp52
 70
     0
102
RTVSPost2010Prop53
 90
        2
102
RTVSPost2010PropOp53
 70
     1
102
RTVSPost2010Prop54
  1
strokes_ogs.tif
102
RTVSPost2010PropOp54
 70
     1
102
RTVSPost2010Prop55
280
     0
102
RTVSPost2010PropOp55
 70
     1
102
RTVSPost2010Prop56
140
1.0
102
RTVSPost2010PropOp56
 70
     1
102
RTVSPost2010Prop57
140
1.0
102
RTVSPost2010PropOp57
 70
     1
102
RTVSPropertyOp0
 70
     1
102
RTVSPropertyOp1
 70
     1
102
RTVSPropertyOp2
 70
     1
102
RTVSPropertyOp3
 70
     1
102
RTVSPropertyOp4
 70
     1
102
RTVSPropertyOp5
 70
     1
102
RTVSPropertyOp6
 70
     1
102
RTVSPropertyOp7
 70
     1
102
RTVSPropertyOp8
 70
     1
102
RTVSPropertyOp9
 70
     1
102
RTVSPropertyOp10
 70
     1
102
RTVSPropertyOp11
 70
     1
102
RTVSPropertyOp12
 70
     1
102
RTVSPropertyOp13
 70
     1
102
RTVSPropertyOp14
 70
     1
102
RTVSPropertyOp15
 70
     1
102
RTVSPropertyOp16
 70
     1
102
RTVSPropertyOp17
 70
     1
102
RTVSPropertyOp18
 70
     1
102
RTVSPropertyOp19
 70
     1
102
RTVSPropertyOp20
 70
     1
102
RTVSPropertyOp21
 70
     1
102
RTVSPropertyOp22
 70
     1
102
RTVSPropertyOp23
 70
     1
102
RTVSPropertyOp24
 70
     1
102
RTVSPropertyOp25
 70
     1
102
RTVSPropertyOp26
 70
     1
102
RTVSPropertyOp27
 70
     1
102
RTVSPropertyOp28
 70
     1
102
RTVSPropertyOp29
 70
     1
102
RTVSPropertyOp30
 70
     1
102
RTVSPropertyOp31
 70
     1
102
RTVSPropertyOp32
 70
     1
102
RTVSPropertyOp33
 70
     1
102
RTVSPropertyOp34
 70
     1
102
RTVSPropertyOp35
 70
     1
102
RTVSPropertyOp36
 70
     1
102
RTVSPropertyOp37
 70
     1
102
RTVSPropertyOp38
 70
     1
102
RTVSPropertyOp39
 70
     1
102
RTVSPropertyOp40
 70
     1
102
RTVSPropertyOp41
 70
     1
102
RTVSPropertyOp42
 70
     1
102
RTVSPropertyOp43
 70
     1
102
RTVSPropertyOp44
 70
     1
102
RTVSPropertyOp45
 70
     1
102
RTVSPropertyOp46
 70
     1
102
RTVSPropertyOp47
 70
     1
102
RTVSPropertyOp48
 70
     1
102
RTVSPropertyOp49
 70
     1
102
RTVSPropertyOp50
 70
     1
102
RTVSPropertyOp51
 70
     0
102
RTVSPropertyOp52
 70
     0
102
RTVSPropertyOp53
 70
     1
102
RTVSPropertyOp54
 70
     1
102
RTVSPropertyOp55
 70
     1
102
RTVSPropertyOp56
 70
     1
102
RTVSPropertyOp57
 70
     1
102
RTVSPropertyOp58
 70
     1
102
RTVSPropertyOp59
 70
     1
102
RTVSPropertyOp60
 70
     1
102
RTVSPropertyOp61
 70
     1
102
RTVSPropertyOp62
 70
     1
  0
XRECORD
  5
555
102
{ACAD_REACTORS
330
554
102
}
330
554
100
AcDbXrecord
280
     1
102
RTVSPost2010Prop28
280
     0
102
RTVSPost2010PropOp28
 70
     1
102
RTVSPost2010Prop29
280
     1
102
RTVSPost2010PropOp29
 70
     1
102
RTVSPost2010Prop30
280
     1
102
RTVSPost2010PropOp30
 70
     1
102
RTVSPost2010Prop31
280
     0
102
RTVSPost2010PropOp31
 70
     1
102
RTVSPost2010Prop32
280
     0
102
RTVSPost2010PropOp32
 70
     1
102
RTVSPost2010Prop33
280
     0
102
RTVSPost2010PropOp33
 70
     1
102
RTVSPost2010Prop34
280
     0
102
RTVSPost2010PropOp34
 70
     1
102
RTVSPost2010Prop35
280
     0
102
RTVSPost2010PropOp35
 70
     1
102
RTVSPost2010Prop36
280
     0
102
RTVSPost2010PropOp36
 70
     1
102
RTVSPost2010Prop37
 90
       50
102
RTVSPost2010PropOp37
 70
     1
102
RTVSPost2010Prop38
140
0.0
102
RTVSPost2010PropOp38
 70
     1
102
RTVSPost2010Prop39
140
1.0
102
RTVSPost2010PropOp39
 70
     1
102
RTVSPost2010Prop40
 90
        0
102
RTVSPost2010PropOp40
 70
     1
102
RTVSPost2010Prop41ColorIndex
 90
       18
102
RTVSPost2010Prop41ColorRGB
 90
        0
102
RTVSPost2010PropOp41
 70
     1
102
RTVSPost2010Prop42
 90
       50
102
RTVSPost2010PropOp42
 70
     1
102
RTVSPost2010Prop43
 90
        3
102
RTVSPost2010PropOp43
 70
     1
102
RTVSPost2010Prop44ColorIndex
 90
        5
102
RTVSPost2010Prop44ColorRGB
 90
      255
102
RTVSPost2010PropOp44
 70
     1
102
RTVSPost2010Prop45
280
     0
102
RTVSPost2010PropOp45
 70
     1
102
RTVSPost2010Prop46
 90
       50
102
RTVSPost2010PropOp46
 70
     1
102
RTVSPost2010Prop47
 90
       50
102
RTVSPost2010PropOp47
 70
     1
102
RTVSPost2010Prop48
 90
       50
102
RTVSPost2010PropOp48
 70
     1
102
RTVSPost2010Prop49
280
     0
102
RTVSPost2010PropOp49
 70
     1
102
RTVSPost2010Prop50
 90
       50
102
RTVSPost2010PropOp50
 70
     1
102
RTVSPost2010Prop51ColorIndex
 90
      256
102
RTVSPost2010Prop51ColorRGB
 90
-16777216
102
RTVSPost2010PropOp51
 70
     0
102
RTVSPost2010Prop52
140
1.0
102
RTVSPost2010PropOp52
 70
     0
102
RTVSPost2010Prop53
 90
        2
102
RTVSPost2010PropOp53
 70
     1
102
RTVSPost2010Prop54
  1
strokes_ogs.tif
102
RTVSPost2010PropOp54
 70
     1
102
RTVSPost2010Prop55
280
     0
102
RTVSPost2010PropOp55
 70
     1
102
RTVSPost2010Prop56
140
1.0
102
RTVSPost2010PropOp56
 70
     1
102
RTVSPost2010Prop57
140
1.0
102
RTVSPost2010PropOp57
 70
     1
102
RTVSPropertyOp0
 70
     1
102
RTVSPropertyOp1
 70
     1
102
RTVSPropertyOp2
 70
     1
102
RTVSPropertyOp3
 70
     1
102
RTVSPropertyOp4
 70
     1
102
RTVSPropertyOp5
 70
     1
102
RTVSPropertyOp6
 70
     1
102
RTVSPropertyOp7
 70
     1
102
RTVSPropertyOp8
 70
     1
102
RTVSPropertyOp9
 70
     1
102
RTVSPropertyOp10
 70
     1
102
RTVSPropertyOp11
 70
     1
102
RTVSPropertyOp12
 70
     1
102
RTVSPropertyOp13
 70
     1
102
RTVSPropertyOp14
 70
     1
102
RTVSPropertyOp15
 70
     1
102
RTVSPropertyOp16
 70
     1
102
RTVSPropertyOp17
 70
     1
102
RTVSPropertyOp18
 70
     1
102
RTVSPropertyOp19
 70
     1
102
RTVSPropertyOp20
 70
     1
102
RTVSPropertyOp21
 70
     1
102
RTVSPropertyOp22
 70
     1
102
RTVSPropertyOp23
 70
     1
102
RTVSPropertyOp24
 70
     1
102
RTVSPropertyOp25
 70
     1
102
RTVSPropertyOp26
 70
     1
102
RTVSPropertyOp27
 70
     1
102
RTVSPropertyOp28
 70
     1
102
RTVSPropertyOp29
 70
     1
102
RTVSPropertyOp30
 70
     1
102
RTVSPropertyOp31
 70
     1
102
RTVSPropertyOp32
 70
     1
102
RTVSPropertyOp33
 70
     1
102
RTVSPropertyOp34
 70
     1
102
RTVSPropertyOp35
 70
     1
102
RTVSPropertyOp36
 70
     1
102
RTVSPropertyOp37
 70
     1
102
RTVSPropertyOp38
 70
     1
102
RTVSPropertyOp39
 70
     1
102
RTVSPropertyOp40
 70
     1
102
RTVSPropertyOp41
 70
     1
102
RTVSPropertyOp42
 70
     1
102
RTVSPropertyOp43
 70
     1
102
RTVSPropertyOp44
 70
     1
102
RTVSPropertyOp45
 70
     1
102
RTVSPropertyOp46
 70
     1
102
RTVSPropertyOp47
 70
     1
102
RTVSPropertyOp48
 70
     1
102
RTVSPropertyOp49
 70
     1
102
RTVSPropertyOp50
 70
     1
102
RTVSPropertyOp51
 70
     0
102
RTVSPropertyOp52
 70
     0
102
RTVSPropertyOp53
 70
     1
102
RTVSPropertyOp54
 70
     1
102
RTVSPropertyOp55
 70
     1
102
RTVSPropertyOp56
 70
     1
102
RTVSPropertyOp57
 70
     1
102
RTVSPropertyOp58
 70
     1
102
RTVSPropertyOp59
 70
     1
102
RTVSPropertyOp60
 70
     1
102
RTVSPropertyOp61
 70
     1
102
RTVSPropertyOp62
 70
     1
  0
XRECORD
  5
547
102
{ACAD_REACTORS
330
546
102
}
330
546
100
AcDbXrecord
280
     1
102
RTVSPost2010Prop28
280
     0
102
RTVSPost2010PropOp28
 70
     1
102
RTVSPost2010Prop29
280
     1
102
RTVSPost2010PropOp29
 70
     1
102
RTVSPost2010Prop30
280
     1
102
RTVSPost2010PropOp30
 70
     1
102
RTVSPost2010Prop31
280
     0
102
RTVSPost2010PropOp31
 70
     1
102
RTVSPost2010Prop32
280
     0
102
RTVSPost2010PropOp32
 70
     1
102
RTVSPost2010Prop33
280
     0
102
RTVSPost2010PropOp33
 70
     1
102
RTVSPost2010Prop34
280
     0
102
RTVSPost2010PropOp34
 70
     1
102
RTVSPost2010Prop35
280
     0
102
RTVSPost2010PropOp35
 70
     1
102
RTVSPost2010Prop36
280
     0
102
RTVSPost2010PropOp36
 70
     1
102
RTVSPost2010Prop37
 90
       50
102
RTVSPost2010PropOp37
 70
     1
102
RTVSPost2010Prop38
140
0.0
102
RTVSPost2010PropOp38
 70
     1
102
RTVSPost2010Prop39
140
1.0
102
RTVSPost2010PropOp39
 70
     1
102
RTVSPost2010Prop40
 90
        0
102
RTVSPost2010PropOp40
 70
     1
102
RTVSPost2010Prop41ColorIndex
 90
       18
102
RTVSPost2010Prop41ColorRGB
 90
        0
102
RTVSPost2010PropOp41
 70
     1
102
RTVSPost2010Prop42
 90
       50
102
RTVSPost2010PropOp42
 70
     1
102
RTVSPost2010Prop43
 90
        3
102
RTVSPost2010PropOp43
 70
     1
102
RTVSPost2010Prop44ColorIndex
 90
        5
102
RTVSPost2010Prop44ColorRGB
 90
      255
102
RTVSPost2010PropOp44
 70
     1
102
RTVSPost2010Prop45
280
     0
102
RTVSPost2010PropOp45
 70
     1
102
RTVSPost2010Prop46
 90
       50
102
RTVSPost2010PropOp46
 70
     1
102
RTVSPost2010Prop47
 90
       50
102
RTVSPost2010PropOp47
 70
     1
102
RTVSPost2010Prop48
 90
       50
102
RTVSPost2010PropOp48
 70
     1
102
RTVSPost2010Prop49
280
     0
102
RTVSPost2010PropOp49
 70
     1
102
RTVSPost2010Prop50
 90
       50
102
RTVSPost2010PropOp50
 70
     1
102
RTVSPost2010Prop51ColorIndex
 90
      256
102
RTVSPost2010Prop51ColorRGB
 90
-16777216
102
RTVSPost2010PropOp51
 70
     0
102
RTVSPost2010Prop52
140
1.0
102
RTVSPost2010PropOp52
 70
     0
102
RTVSPost2010Prop53
 90
        2
102
RTVSPost2010PropOp53
 70
     1
102
RTVSPost2010Prop54
  1
strokes_ogs.tif
102
RTVSPost2010PropOp54
 70
     1
102
RTVSPost2010Prop55
280
     0
102
RTVSPost2010PropOp55
 70
     1
102
RTVSPost2010Prop56
140
1.0
102
RTVSPost2010PropOp56
 70
     1
102
RTVSPost2010Prop57
140
1.0
102
RTVSPost2010PropOp57
 70
     1
102
RTVSPropertyOp0
 70
     1
102
RTVSPropertyOp1
 70
     1
102
RTVSPropertyOp2
 70
     1
102
RTVSPropertyOp3
 70
     1
102
RTVSPropertyOp4
 70
     1
102
RTVSPropertyOp5
 70
     1
102
RTVSPropertyOp6
 70
     1
102
RTVSPropertyOp7
 70
     1
102
RTVSPropertyOp8
 70
     1
102
RTVSPropertyOp9
 70
     1
102
RTVSPropertyOp10
 70
     1
102
RTVSPropertyOp11
 70
     1
102
RTVSPropertyOp12
 70
     1
102
RTVSPropertyOp13
 70
     1
102
RTVSPropertyOp14
 70
     1
102
RTVSPropertyOp15
 70
     1
102
RTVSPropertyOp16
 70
     1
102
RTVSPropertyOp17
 70
     1
102
RTVSPropertyOp18
 70
     1
102
RTVSPropertyOp19
 70
     1
102
RTVSPropertyOp20
 70
     1
102
RTVSPropertyOp21
 70
     1
102
RTVSPropertyOp22
 70
     1
102
RTVSPropertyOp23
 70
     1
102
RTVSPropertyOp24
 70
     1
102
RTVSPropertyOp25
 70
     1
102
RTVSPropertyOp26
 70
     1
102
RTVSPropertyOp27
 70
     1
102
RTVSPropertyOp28
 70
     1
102
RTVSPropertyOp29
 70
     1
102
RTVSPropertyOp30
 70
     1
102
RTVSPropertyOp31
 70
     1
102
RTVSPropertyOp32
 70
     1
102
RTVSPropertyOp33
 70
     1
102
RTVSPropertyOp34
 70
     1
102
RTVSPropertyOp35
 70
     1
102
RTVSPropertyOp36
 70
     1
102
RTVSPropertyOp37
 70
     1
102
RTVSPropertyOp38
 70
     1
102
RTVSPropertyOp39
 70
     1
102
RTVSPropertyOp40
 70
     1
102
RTVSPropertyOp41
 70
     1
102
RTVSPropertyOp42
 70
     1
102
RTVSPropertyOp43
 70
     1
102
RTVSPropertyOp44
 70
     1
102
RTVSPropertyOp45
 70
     1
102
RTVSPropertyOp46
 70
     1
102
RTVSPropertyOp47
 70
     1
102
RTVSPropertyOp48
 70
     1
102
RTVSPropertyOp49
 70
     1
102
RTVSPropertyOp50
 70
     1
102
RTVSPropertyOp51
 70
     0
102
RTVSPropertyOp52
 70
     0
102
RTVSPropertyOp53
 70
     1
102
RTVSPropertyOp54
 70
     1
102
RTVSPropertyOp55
 70
     1
102
RTVSPropertyOp56
 70
     1
102
RTVSPropertyOp57
 70
     1
102
RTVSPropertyOp58
 70
     1
102
RTVSPropertyOp59
 70
     1
102
RTVSPropertyOp60
 70
     1
102
RTVSPropertyOp61
 70
     1
102
RTVSPropertyOp62
 70
     1
  0
XRECORD
  5
54B
102
{ACAD_REACTORS
330
54A
102
}
330
54A
100
AcDbXrecord
280
     1
102
RTVSPost2010Prop28
280
     0
102
RTVSPost2010PropOp28
 70
     1
102
RTVSPost2010Prop29
280
     1
102
RTVSPost2010PropOp29
 70
     1
102
RTVSPost2010Prop30
280
     1
102
RTVSPost2010PropOp30
 70
     1
102
RTVSPost2010Prop31
280
     0
102
RTVSPost2010PropOp31
 70
     1
102
RTVSPost2010Prop32
280
     0
102
RTVSPost2010PropOp32
 70
     1
102
RTVSPost2010Prop33
280
     0
102
RTVSPost2010PropOp33
 70
     1
102
RTVSPost2010Prop34
280
     0
102
RTVSPost2010PropOp34
 70
     1
102
RTVSPost2010Prop35
280
     0
102
RTVSPost2010PropOp35
 70
     1
102
RTVSPost2010Prop36
280
     0
102
RTVSPost2010PropOp36
 70
     1
102
RTVSPost2010Prop37
 90
       50
102
RTVSPost2010PropOp37
 70
     1
102
RTVSPost2010Prop38
140
0.0
102
RTVSPost2010PropOp38
 70
     1
102
RTVSPost2010Prop39
140
1.0
102
RTVSPost2010PropOp39
 70
     1
102
RTVSPost2010Prop40
 90
        0
102
RTVSPost2010PropOp40
 70
     1
102
RTVSPost2010Prop41ColorIndex
 90
       18
102
RTVSPost2010Prop41ColorRGB
 90
        0
102
RTVSPost2010PropOp41
 70
     1
102
RTVSPost2010Prop42
 90
       50
102
RTVSPost2010PropOp42
 70
     1
102
RTVSPost2010Prop43
 90
        3
102
RTVSPost2010PropOp43
 70
     1
102
RTVSPost2010Prop44ColorIndex
 90
        5
102
RTVSPost2010Prop44ColorRGB
 90
      255
102
RTVSPost2010PropOp44
 70
     1
102
RTVSPost2010Prop45
280
     0
102
RTVSPost2010PropOp45
 70
     1
102
RTVSPost2010Prop46
 90
       50
102
RTVSPost2010PropOp46
 70
     1
102
RTVSPost2010Prop47
 90
       50
102
RTVSPost2010PropOp47
 70
     1
102
RTVSPost2010Prop48
 90
       50
102
RTVSPost2010PropOp48
 70
     1
102
RTVSPost2010Prop49
280
     0
102
RTVSPost2010PropOp49
 70
     1
102
RTVSPost2010Prop50
 90
       50
102
RTVSPost2010PropOp50
 70
     1
102
RTVSPost2010Prop51ColorIndex
 90
      256
102
RTVSPost2010Prop51ColorRGB
 90
-16777216
102
RTVSPost2010PropOp51
 70
     0
102
RTVSPost2010Prop52
140
1.0
102
RTVSPost2010PropOp52
 70
     0
102
RTVSPost2010Prop53
 90
        2
102
RTVSPost2010PropOp53
 70
     1
102
RTVSPost2010Prop54
  1
strokes_ogs.tif
102
RTVSPost2010PropOp54
 70
     1
102
RTVSPost2010Prop55
280
     0
102
RTVSPost2010PropOp55
 70
     1
102
RTVSPost2010Prop56
140
1.0
102
RTVSPost2010PropOp56
 70
     1
102
RTVSPost2010Prop57
140
1.0
102
RTVSPost2010PropOp57
 70
     1
102
RTVSPropertyOp0
 70
     1
102
RTVSPropertyOp1
 70
     1
102
RTVSPropertyOp2
 70
     1
102
RTVSPropertyOp3
 70
     1
102
RTVSPropertyOp4
 70
     1
102
RTVSPropertyOp5
 70
     1
102
RTVSPropertyOp6
 70
     1
102
RTVSPropertyOp7
 70
     1
102
RTVSPropertyOp8
 70
     1
102
RTVSPropertyOp9
 70
     1
102
RTVSPropertyOp10
 70
     1
102
RTVSPropertyOp11
 70
     1
102
RTVSPropertyOp12
 70
     1
102
RTVSPropertyOp13
 70
     1
102
RTVSPropertyOp14
 70
     1
102
RTVSPropertyOp15
 70
     1
102
RTVSPropertyOp16
 70
     1
102
RTVSPropertyOp17
 70
     1
102
RTVSPropertyOp18
 70
     1
102
RTVSPropertyOp19
 70
     1
102
RTVSPropertyOp20
 70
     1
102
RTVSPropertyOp21
 70
     1
102
RTVSPropertyOp22
 70
     1
102
RTVSPropertyOp23
 70
     1
102
RTVSPropertyOp24
 70
     1
102
RTVSPropertyOp25
 70
     1
102
RTVSPropertyOp26
 70
     1
102
RTVSPropertyOp27
 70
     1
102
RTVSPropertyOp28
 70
     1
102
RTVSPropertyOp29
 70
     1
102
RTVSPropertyOp30
 70
     1
102
RTVSPropertyOp31
 70
     1
102
RTVSPropertyOp32
 70
     1
102
RTVSPropertyOp33
 70
     1
102
RTVSPropertyOp34
 70
     1
102
RTVSPropertyOp35
 70
     1
102
RTVSPropertyOp36
 70
     1
102
RTVSPropertyOp37
 70
     1
102
RTVSPropertyOp38
 70
     1
102
RTVSPropertyOp39
 70
     1
102
RTVSPropertyOp40
 70
     1
102
RTVSPropertyOp41
 70
     1
102
RTVSPropertyOp42
 70
     1
102
RTVSPropertyOp43
 70
     1
102
RTVSPropertyOp44
 70
     1
102
RTVSPropertyOp45
 70
     1
102
RTVSPropertyOp46
 70
     1
102
RTVSPropertyOp47
 70
     1
102
RTVSPropertyOp48
 70
     1
102
RTVSPropertyOp49
 70
     1
102
RTVSPropertyOp50
 70
     1
102
RTVSPropertyOp51
 70
     0
102
RTVSPropertyOp52
 70
     0
102
RTVSPropertyOp53
 70
     1
102
RTVSPropertyOp54
 70
     1
102
RTVSPropertyOp55
 70
     1
102
RTVSPropertyOp56
 70
     1
102
RTVSPropertyOp57
 70
     1
102
RTVSPropertyOp58
 70
     1
102
RTVSPropertyOp59
 70
     1
102
RTVSPropertyOp60
 70
     1
102
RTVSPropertyOp61
 70
     1
102
RTVSPropertyOp62
 70
     1
  0
XRECORD
  5
565
102
{ACAD_REACTORS
330
564
102
}
330
564
100
AcDbXrecord
280
     1
102
RTVSPost2010Prop28
280
     0
102
RTVSPost2010PropOp28
 70
     1
102
RTVSPost2010Prop29
280
     1
102
RTVSPost2010PropOp29
 70
     1
102
RTVSPost2010Prop30
280
     1
102
RTVSPost2010PropOp30
 70
     1
102
RTVSPost2010Prop31
280
     0
102
RTVSPost2010PropOp31
 70
     1
102
RTVSPost2010Prop32
280
     0
102
RTVSPost2010PropOp32
 70
     1
102
RTVSPost2010Prop33
280
     0
102
RTVSPost2010PropOp33
 70
     1
102
RTVSPost2010Prop34
280
     0
102
RTVSPost2010PropOp34
 70
     1
102
RTVSPost2010Prop35
280
     0
102
RTVSPost2010PropOp35
 70
     1
102
RTVSPost2010Prop36
280
     0
102
RTVSPost2010PropOp36
 70
     1
102
RTVSPost2010Prop37
 90
       50
102
RTVSPost2010PropOp37
 70
     0
102
RTVSPost2010Prop38
140
0.0
102
RTVSPost2010PropOp38
 70
     0
102
RTVSPost2010Prop39
140
1.0
102
RTVSPost2010PropOp39
 70
     0
102
RTVSPost2010Prop40
 90
        0
102
RTVSPost2010PropOp40
 70
     0
102
RTVSPost2010Prop41ColorIndex
 90
       18
102
RTVSPost2010Prop41ColorRGB
 90
        0
102
RTVSPost2010PropOp41
 70
     0
102
RTVSPost2010Prop42
 90
       50
102
RTVSPost2010PropOp42
 70
     0
102
RTVSPost2010Prop43
 90
        3
102
RTVSPost2010PropOp43
 70
     0
102
RTVSPost2010Prop44ColorIndex
 90
        5
102
RTVSPost2010Prop44ColorRGB
 90
      255
102
RTVSPost2010PropOp44
 70
     0
102
RTVSPost2010Prop45
280
     0
102
RTVSPost2010PropOp45
 70
     1
102
RTVSPost2010Prop46
 90
       50
102
RTVSPost2010PropOp46
 70
     0
102
RTVSPost2010Prop47
 90
       50
102
RTVSPost2010PropOp47
 70
     0
102
RTVSPost2010Prop48
 90
       50
102
RTVSPost2010PropOp48
 70
     0
102
RTVSPost2010Prop49
280
     0
102
RTVSPost2010PropOp49
 70
     1
102
RTVSPost2010Prop50
 90
       50
102
RTVSPost2010PropOp50
 70
     0
102
RTVSPost2010Prop51ColorIndex
 90
      256
102
RTVSPost2010Prop51ColorRGB
 90
-16777216
102
RTVSPost2010PropOp51
 70
     0
102
RTVSPost2010Prop52
140
1.0
102
RTVSPost2010PropOp52
 70
     0
102
RTVSPost2010Prop53
 90
        2
102
RTVSPost2010PropOp53
 70
     0
102
RTVSPost2010Prop54
  1
strokes_ogs.tif
102
RTVSPost2010PropOp54
 70
     0
102
RTVSPost2010Prop55
280
     0
102
RTVSPost2010PropOp55
 70
     1
102
RTVSPost2010Prop56
140
1.0
102
RTVSPost2010PropOp56
 70
     0
102
RTVSPost2010Prop57
140
1.0
102
RTVSPost2010PropOp57
 70
     0
102
RTVSPropertyOp0
 70
     0
102
RTVSPropertyOp1
 70
     0
102
RTVSPropertyOp2
 70
     0
102
RTVSPropertyOp3
 70
     0
102
RTVSPropertyOp4
 70
     0
102
RTVSPropertyOp5
 70
     0
102
RTVSPropertyOp6
 70
     0
102
RTVSPropertyOp7
 70
     0
102
RTVSPropertyOp8
 70
     0
102
RTVSPropertyOp9
 70
     0
102
RTVSPropertyOp10
 70
     0
102
RTVSPropertyOp11
 70
     0
102
RTVSPropertyOp12
 70
     0
102
RTVSPropertyOp13
 70
     0
102
RTVSPropertyOp14
 70
     2
102
RTVSPropertyOp15
 70
     0
102
RTVSPropertyOp16
 70
     0
102
RTVSPropertyOp17
 70
     0
102
RTVSPropertyOp18
 70
     0
102
RTVSPropertyOp19
 70
     0
102
RTVSPropertyOp20
 70
     0
102
RTVSPropertyOp21
 70
     0
102
RTVSPropertyOp22
 70
     0
102
RTVSPropertyOp23
 70
     0
102
RTVSPropertyOp24
 70
     0
102
RTVSPropertyOp25
 70
     0
102
RTVSPropertyOp26
 70
     0
102
RTVSPropertyOp27
 70
     0
102
RTVSPropertyOp28
 70
     1
102
RTVSPropertyOp29
 70
     1
102
RTVSPropertyOp30
 70
     1
102
RTVSPropertyOp31
 70
     1
102
RTVSPropertyOp32
 70
     1
102
RTVSPropertyOp33
 70
     1
102
RTVSPropertyOp34
 70
     1
102
RTVSPropertyOp35
 70
     1
102
RTVSPropertyOp36
 70
     1
102
RTVSPropertyOp37
 70
     0
102
RTVSPropertyOp38
 70
     0
102
RTVSPropertyOp39
 70
     0
102
RTVSPropertyOp40
 70
     0
102
RTVSPropertyOp41
 70
     0
102
RTVSPropertyOp42
 70
     0
102
RTVSPropertyOp43
 70
     0
102
RTVSPropertyOp44
 70
     0
102
RTVSPropertyOp45
 70
     1
102
RTVSPropertyOp46
 70
     0
102
RTVSPropertyOp47
 70
     0
102
RTVSPropertyOp48
 70
     0
102
RTVSPropertyOp49
 70
     1
102
RTVSPropertyOp50
 70
     0
102
RTVSPropertyOp51
 70
     0
102
RTVSPropertyOp52
 70
     0
102
RTVSPropertyOp53
 70
     0
102
RTVSPropertyOp54
 70
     0
102
RTVSPropertyOp55
 70
     1
102
RTVSPropertyOp56
 70
     0
102
RTVSPropertyOp57
 70
     0
102
RTVSPropertyOp58
 70
     0
102
RTVSPropertyOp59
 70
     0
102
RTVSPropertyOp60
 70
     0
102
RTVSPropertyOp61
 70
     0
102
RTVSPropertyOp62
 70
     0
  0
XRECORD
  5
553
102
{ACAD_REACTORS
330
552
102
}
330
552
100
AcDbXrecord
280
     1
102
RTVSPost2010Prop28
280
     0
102
RTVSPost2010PropOp28
 70
     1
102
RTVSPost2010Prop29
280
     1
102
RTVSPost2010PropOp29
 70
     1
102
RTVSPost2010Prop30
280
     1
102
RTVSPost2010PropOp30
 70
     1
102
RTVSPost2010Prop31
280
     0
102
RTVSPost2010PropOp31
 70
     1
102
RTVSPost2010Prop32
280
     0
102
RTVSPost2010PropOp32
 70
     1
102
RTVSPost2010Prop33
280
     0
102
RTVSPost2010PropOp33
 70
     1
102
RTVSPost2010Prop34
280
     0
102
RTVSPost2010PropOp34
 70
     1
102
RTVSPost2010Prop35
280
     0
102
RTVSPost2010PropOp35
 70
     1
102
RTVSPost2010Prop36
280
     0
102
RTVSPost2010PropOp36
 70
     1
102
RTVSPost2010Prop37
 90
       50
102
RTVSPost2010PropOp37
 70
     1
102
RTVSPost2010Prop38
140
0.0
102
RTVSPost2010PropOp38
 70
     1
102
RTVSPost2010Prop39
140
1.0
102
RTVSPost2010PropOp39
 70
     1
102
RTVSPost2010Prop40
 90
        0
102
RTVSPost2010PropOp40
 70
     1
102
RTVSPost2010Prop41ColorIndex
 90
       18
102
RTVSPost2010Prop41ColorRGB
 90
        0
102
RTVSPost2010PropOp41
 70
     1
102
RTVSPost2010Prop42
 90
       50
102
RTVSPost2010PropOp42
 70
     1
102
RTVSPost2010Prop43
 90
        3
102
RTVSPost2010PropOp43
 70
     1
102
RTVSPost2010Prop44ColorIndex
 90
        5
102
RTVSPost2010Prop44ColorRGB
 90
      255
102
RTVSPost2010PropOp44
 70
     1
102
RTVSPost2010Prop45
280
     0
102
RTVSPost2010PropOp45
 70
     1
102
RTVSPost2010Prop46
 90
       50
102
RTVSPost2010PropOp46
 70
     1
102
RTVSPost2010Prop47
 90
       50
102
RTVSPost2010PropOp47
 70
     1
102
RTVSPost2010Prop48
 90
       50
102
RTVSPost2010PropOp48
 70
     1
102
RTVSPost2010Prop49
280
     0
102
RTVSPost2010PropOp49
 70
     1
102
RTVSPost2010Prop50
 90
       50
102
RTVSPost2010PropOp50
 70
     1
102
RTVSPost2010Prop51ColorIndex
 90
      256
102
RTVSPost2010Prop51ColorRGB
 90
-16777216
102
RTVSPost2010PropOp51
 70
     0
102
RTVSPost2010Prop52
140
1.0
102
RTVSPost2010PropOp52
 70
     0
102
RTVSPost2010Prop53
 90
        2
102
RTVSPost2010PropOp53
 70
     1
102
RTVSPost2010Prop54
  1
strokes_ogs.tif
102
RTVSPost2010PropOp54
 70
     1
102
RTVSPost2010Prop55
280
     0
102
RTVSPost2010PropOp55
 70
     1
102
RTVSPost2010Prop56
140
1.0
102
RTVSPost2010PropOp56
 70
     1
102
RTVSPost2010Prop57
140
1.0
102
RTVSPost2010PropOp57
 70
     1
102
RTVSPropertyOp0
 70
     1
102
RTVSPropertyOp1
 70
     1
102
RTVSPropertyOp2
 70
     1
102
RTVSPropertyOp3
 70
     1
102
RTVSPropertyOp4
 70
     1
102
RTVSPropertyOp5
 70
     1
102
RTVSPropertyOp6
 70
     1
102
RTVSPropertyOp7
 70
     1
102
RTVSPropertyOp8
 70
     1
102
RTVSPropertyOp9
 70
     1
102
RTVSPropertyOp10
 70
     1
102
RTVSPropertyOp11
 70
     1
102
RTVSPropertyOp12
 70
     1
102
RTVSPropertyOp13
 70
     1
102
RTVSPropertyOp14
 70
     1
102
RTVSPropertyOp15
 70
     1
102
RTVSPropertyOp16
 70
     1
102
RTVSPropertyOp17
 70
     1
102
RTVSPropertyOp18
 70
     1
102
RTVSPropertyOp19
 70
     1
102
RTVSPropertyOp20
 70
     1
102
RTVSPropertyOp21
 70
     1
102
RTVSPropertyOp22
 70
     1
102
RTVSPropertyOp23
 70
     1
102
RTVSPropertyOp24
 70
     1
102
RTVSPropertyOp25
 70
     1
102
RTVSPropertyOp26
 70
     1
102
RTVSPropertyOp27
 70
     1
102
RTVSPropertyOp28
 70
     1
102
RTVSPropertyOp29
 70
     1
102
RTVSPropertyOp30
 70
     1
102
RTVSPropertyOp31
 70
     1
102
RTVSPropertyOp32
 70
     1
102
RTVSPropertyOp33
 70
     1
102
RTVSPropertyOp34
 70
     1
102
RTVSPropertyOp35
 70
     1
102
RTVSPropertyOp36
 70
     1
102
RTVSPropertyOp37
 70
     1
102
RTVSPropertyOp38
 70
     1
102
RTVSPropertyOp39
 70
     1
102
RTVSPropertyOp40
 70
     1
102
RTVSPropertyOp41
 70
     1
102
RTVSPropertyOp42
 70
     1
102
RTVSPropertyOp43
 70
     1
102
RTVSPropertyOp44
 70
     1
102
RTVSPropertyOp45
 70
     1
102
RTVSPropertyOp46
 70
     1
102
RTVSPropertyOp47
 70
     1
102
RTVSPropertyOp48
 70
     1
102
RTVSPropertyOp49
 70
     1
102
RTVSPropertyOp50
 70
     1
102
RTVSPropertyOp51
 70
     0
102
RTVSPropertyOp52
 70
     0
102
RTVSPropertyOp53
 70
     1
102
RTVSPropertyOp54
 70
     1
102
RTVSPropertyOp55
 70
     1
102
RTVSPropertyOp56
 70
     1
102
RTVSPropertyOp57
 70
     1
102
RTVSPropertyOp58
 70
     1
102
RTVSPropertyOp59
 70
     1
102
RTVSPropertyOp60
 70
     1
102
RTVSPropertyOp61
 70
     1
102
RTVSPropertyOp62
 70
     1
  0
XRECORD
  5
537
102
{ACAD_REACTORS
330
536
102
}
330
536
100
AcDbXrecord
280
     1
102
RTVSPost2010Prop28
280
     0
102
RTVSPost2010PropOp28
 70
     1
102
RTVSPost2010Prop29
280
     1
102
RTVSPost2010PropOp29
 70
     1
102
RTVSPost2010Prop30
280
     1
102
RTVSPost2010PropOp30
 70
     1
102
RTVSPost2010Prop31
280
     0
102
RTVSPost2010PropOp31
 70
     1
102
RTVSPost2010Prop32
280
     0
102
RTVSPost2010PropOp32
 70
     1
102
RTVSPost2010Prop33
280
     0
102
RTVSPost2010PropOp33
 70
     1
102
RTVSPost2010Prop34
280
     0
102
RTVSPost2010PropOp34
 70
     1
102
RTVSPost2010Prop35
280
     0
102
RTVSPost2010PropOp35
 70
     1
102
RTVSPost2010Prop36
280
     0
102
RTVSPost2010PropOp36
 70
     1
102
RTVSPost2010Prop37
 90
       50
102
RTVSPost2010PropOp37
 70
     1
102
RTVSPost2010Prop38
140
0.0
102
RTVSPost2010PropOp38
 70
     1
102
RTVSPost2010Prop39
140
1.0
102
RTVSPost2010PropOp39
 70
     1
102
RTVSPost2010Prop40
 90
        0
102
RTVSPost2010PropOp40
 70
     1
102
RTVSPost2010Prop41ColorIndex
 90
       18
102
RTVSPost2010Prop41ColorRGB
 90
        0
102
RTVSPost2010PropOp41
 70
     1
102
RTVSPost2010Prop42
 90
       50
102
RTVSPost2010PropOp42
 70
     1
102
RTVSPost2010Prop43
 90
        3
102
RTVSPost2010PropOp43
 70
     1
102
RTVSPost2010Prop44ColorIndex
 90
        5
102
RTVSPost2010Prop44ColorRGB
 90
      255
102
RTVSPost2010PropOp44
 70
     1
102
RTVSPost2010Prop45
280
     0
102
RTVSPost2010PropOp45
 70
     1
102
RTVSPost2010Prop46
 90
       50
102
RTVSPost2010PropOp46
 70
     1
102
RTVSPost2010Prop47
 90
       50
102
RTVSPost2010PropOp47
 70
     1
102
RTVSPost2010Prop48
 90
       50
102
RTVSPost2010PropOp48
 70
     1
102
RTVSPost2010Prop49
280
     0
102
RTVSPost2010PropOp49
 70
     1
102
RTVSPost2010Prop50
 90
       50
102
RTVSPost2010PropOp50
 70
     1
102
RTVSPost2010Prop51ColorIndex
 90
      256
102
RTVSPost2010Prop51ColorRGB
 90
-16777216
102
RTVSPost2010PropOp51
 70
     0
102
RTVSPost2010Prop52
140
1.0
102
RTVSPost2010PropOp52
 70
     0
102
RTVSPost2010Prop53
 90
        2
102
RTVSPost2010PropOp53
 70
     1
102
RTVSPost2010Prop54
  1
strokes_ogs.tif
102
RTVSPost2010PropOp54
 70
     1
102
RTVSPost2010Prop55
280
     0
102
RTVSPost2010PropOp55
 70
     1
102
RTVSPost2010Prop56
140
1.0
102
RTVSPost2010PropOp56
 70
     1
102
RTVSPost2010Prop57
140
1.0
102
RTVSPost2010PropOp57
 70
     1
102
RTVSPropertyOp0
 70
     1
102
RTVSPropertyOp1
 70
     1
102
RTVSPropertyOp2
 70
     1
102
RTVSPropertyOp3
 70
     1
102
RTVSPropertyOp4
 70
     1
102
RTVSPropertyOp5
 70
     1
102
RTVSPropertyOp6
 70
     1
102
RTVSPropertyOp7
 70
     1
102
RTVSPropertyOp8
 70
     1
102
RTVSPropertyOp9
 70
     1
102
RTVSPropertyOp10
 70
     1
102
RTVSPropertyOp11
 70
     1
102
RTVSPropertyOp12
 70
     1
102
RTVSPropertyOp13
 70
     1
102
RTVSPropertyOp14
 70
     1
102
RTVSPropertyOp15
 70
     1
102
RTVSPropertyOp16
 70
     1
102
RTVSPropertyOp17
 70
     1
102
RTVSPropertyOp18
 70
     1
102
RTVSPropertyOp19
 70
     1
102
RTVSPropertyOp20
 70
     1
102
RTVSPropertyOp21
 70
     1
102
RTVSPropertyOp22
 70
     1
102
RTVSPropertyOp23
 70
     1
102
RTVSPropertyOp24
 70
     1
102
RTVSPropertyOp25
 70
     1
102
RTVSPropertyOp26
 70
     1
102
RTVSPropertyOp27
 70
     1
102
RTVSPropertyOp28
 70
     1
102
RTVSPropertyOp29
 70
     1
102
RTVSPropertyOp30
 70
     1
102
RTVSPropertyOp31
 70
     1
102
RTVSPropertyOp32
 70
     1
102
RTVSPropertyOp33
 70
     1
102
RTVSPropertyOp34
 70
     1
102
RTVSPropertyOp35
 70
     1
102
RTVSPropertyOp36
 70
     1
102
RTVSPropertyOp37
 70
     1
102
RTVSPropertyOp38
 70
     1
102
RTVSPropertyOp39
 70
     1
102
RTVSPropertyOp40
 70
     1
102
RTVSPropertyOp41
 70
     1
102
RTVSPropertyOp42
 70
     1
102
RTVSPropertyOp43
 70
     1
102
RTVSPropertyOp44
 70
     1
102
RTVSPropertyOp45
 70
     1
102
RTVSPropertyOp46
 70
     1
102
RTVSPropertyOp47
 70
     1
102
RTVSPropertyOp48
 70
     1
102
RTVSPropertyOp49
 70
     1
102
RTVSPropertyOp50
 70
     1
102
RTVSPropertyOp51
 70
     0
102
RTVSPropertyOp52
 70
     0
102
RTVSPropertyOp53
 70
     1
102
RTVSPropertyOp54
 70
     1
102
RTVSPropertyOp55
 70
     1
102
RTVSPropertyOp56
 70
     1
102
RTVSPropertyOp57
 70
     1
102
RTVSPropertyOp58
 70
     1
102
RTVSPropertyOp59
 70
     1
102
RTVSPropertyOp60
 70
     1
102
RTVSPropertyOp61
 70
     1
102
RTVSPropertyOp62
 70
     1
  0
XRECORD
  5
539
102
{ACAD_REACTORS
330
538
102
}
330
538
100
AcDbXrecord
280
     1
102
RTVSPost2010Prop28
280
     0
102
RTVSPost2010PropOp28
 70
     1
102
RTVSPost2010Prop29
280
     1
102
RTVSPost2010PropOp29
 70
     1
102
RTVSPost2010Prop30
280
     1
102
RTVSPost2010PropOp30
 70
     1
102
RTVSPost2010Prop31
280
     0
102
RTVSPost2010PropOp31
 70
     1
102
RTVSPost2010Prop32
280
     0
102
RTVSPost2010PropOp32
 70
     1
102
RTVSPost2010Prop33
280
     0
102
RTVSPost2010PropOp33
 70
     1
102
RTVSPost2010Prop34
280
     0
102
RTVSPost2010PropOp34
 70
     1
102
RTVSPost2010Prop35
280
     0
102
RTVSPost2010PropOp35
 70
     1
102
RTVSPost2010Prop36
280
     0
102
RTVSPost2010PropOp36
 70
     1
102
RTVSPost2010Prop37
 90
       50
102
RTVSPost2010PropOp37
 70
     1
102
RTVSPost2010Prop38
140
0.0
102
RTVSPost2010PropOp38
 70
     1
102
RTVSPost2010Prop39
140
1.0
102
RTVSPost2010PropOp39
 70
     1
102
RTVSPost2010Prop40
 90
        0
102
RTVSPost2010PropOp40
 70
     1
102
RTVSPost2010Prop41ColorIndex
 90
       18
102
RTVSPost2010Prop41ColorRGB
 90
        0
102
RTVSPost2010PropOp41
 70
     1
102
RTVSPost2010Prop42
 90
       50
102
RTVSPost2010PropOp42
 70
     1
102
RTVSPost2010Prop43
 90
        3
102
RTVSPost2010PropOp43
 70
     1
102
RTVSPost2010Prop44ColorIndex
 90
        5
102
RTVSPost2010Prop44ColorRGB
 90
      255
102
RTVSPost2010PropOp44
 70
     1
102
RTVSPost2010Prop45
280
     0
102
RTVSPost2010PropOp45
 70
     1
102
RTVSPost2010Prop46
 90
       50
102
RTVSPost2010PropOp46
 70
     1
102
RTVSPost2010Prop47
 90
       50
102
RTVSPost2010PropOp47
 70
     1
102
RTVSPost2010Prop48
 90
       50
102
RTVSPost2010PropOp48
 70
     1
102
RTVSPost2010Prop49
280
     0
102
RTVSPost2010PropOp49
 70
     1
102
RTVSPost2010Prop50
 90
       50
102
RTVSPost2010PropOp50
 70
     1
102
RTVSPost2010Prop51ColorIndex
 90
      256
102
RTVSPost2010Prop51ColorRGB
 90
-16777216
102
RTVSPost2010PropOp51
 70
     0
102
RTVSPost2010Prop52
140
1.0
102
RTVSPost2010PropOp52
 70
     0
102
RTVSPost2010Prop53
 90
        2
102
RTVSPost2010PropOp53
 70
     1
102
RTVSPost2010Prop54
  1
strokes_ogs.tif
102
RTVSPost2010PropOp54
 70
     1
102
RTVSPost2010Prop55
280
     0
102
RTVSPost2010PropOp55
 70
     1
102
RTVSPost2010Prop56
140
1.0
102
RTVSPost2010PropOp56
 70
     1
102
RTVSPost2010Prop57
140
1.0
102
RTVSPost2010PropOp57
 70
     1
102
RTVSPropertyOp0
 70
     1
102
RTVSPropertyOp1
 70
     1
102
RTVSPropertyOp2
 70
     1
102
RTVSPropertyOp3
 70
     1
102
RTVSPropertyOp4
 70
     1
102
RTVSPropertyOp5
 70
     1
102
RTVSPropertyOp6
 70
     1
102
RTVSPropertyOp7
 70
     1
102
RTVSPropertyOp8
 70
     1
102
RTVSPropertyOp9
 70
     1
102
RTVSPropertyOp10
 70
     1
102
RTVSPropertyOp11
 70
     1
102
RTVSPropertyOp12
 70
     1
102
RTVSPropertyOp13
 70
     1
102
RTVSPropertyOp14
 70
     1
102
RTVSPropertyOp15
 70
     1
102
RTVSPropertyOp16
 70
     1
102
RTVSPropertyOp17
 70
     1
102
RTVSPropertyOp18
 70
     1
102
RTVSPropertyOp19
 70
     1
102
RTVSPropertyOp20
 70
     1
102
RTVSPropertyOp21
 70
     1
102
RTVSPropertyOp22
 70
     1
102
RTVSPropertyOp23
 70
     1
102
RTVSPropertyOp24
 70
     1
102
RTVSPropertyOp25
 70
     1
102
RTVSPropertyOp26
 70
     1
102
RTVSPropertyOp27
 70
     1
102
RTVSPropertyOp28
 70
     1
102
RTVSPropertyOp29
 70
     1
102
RTVSPropertyOp30
 70
     1
102
RTVSPropertyOp31
 70
     1
102
RTVSPropertyOp32
 70
     1
102
RTVSPropertyOp33
 70
     1
102
RTVSPropertyOp34
 70
     1
102
RTVSPropertyOp35
 70
     1
102
RTVSPropertyOp36
 70
     1
102
RTVSPropertyOp37
 70
     1
102
RTVSPropertyOp38
 70
     1
102
RTVSPropertyOp39
 70
     1
102
RTVSPropertyOp40
 70
     1
102
RTVSPropertyOp41
 70
     1
102
RTVSPropertyOp42
 70
     1
102
RTVSPropertyOp43
 70
     1
102
RTVSPropertyOp44
 70
     1
102
RTVSPropertyOp45
 70
     1
102
RTVSPropertyOp46
 70
     1
102
RTVSPropertyOp47
 70
     1
102
RTVSPropertyOp48
 70
     1
102
RTVSPropertyOp49
 70
     1
102
RTVSPropertyOp50
 70
     1
102
RTVSPropertyOp51
 70
     0
102
RTVSPropertyOp52
 70
     0
102
RTVSPropertyOp53
 70
     1
102
RTVSPropertyOp54
 70
     1
102
RTVSPropertyOp55
 70
     1
102
RTVSPropertyOp56
 70
     1
102
RTVSPropertyOp57
 70
     1
102
RTVSPropertyOp58
 70
     1
102
RTVSPropertyOp59
 70
     1
102
RTVSPropertyOp60
 70
     1
102
RTVSPropertyOp61
 70
     1
102
RTVSPropertyOp62
 70
     1
  0
XRECORD
  5
53B
102
{ACAD_REACTORS
330
53A
102
}
330
53A
100
AcDbXrecord
280
     1
102
RTVSPost2010Prop28
280
     0
102
RTVSPost2010PropOp28
 70
     1
102
RTVSPost2010Prop29
280
     1
102
RTVSPost2010PropOp29
 70
     1
102
RTVSPost2010Prop30
280
     1
102
RTVSPost2010PropOp30
 70
     1
102
RTVSPost2010Prop31
280
     0
102
RTVSPost2010PropOp31
 70
     1
102
RTVSPost2010Prop32
280
     0
102
RTVSPost2010PropOp32
 70
     1
102
RTVSPost2010Prop33
280
     0
102
RTVSPost2010PropOp33
 70
     1
102
RTVSPost2010Prop34
280
     0
102
RTVSPost2010PropOp34
 70
     1
102
RTVSPost2010Prop35
280
     0
102
RTVSPost2010PropOp35
 70
     1
102
RTVSPost2010Prop36
280
     0
102
RTVSPost2010PropOp36
 70
     1
102
RTVSPost2010Prop37
 90
       50
102
RTVSPost2010PropOp37
 70
     1
102
RTVSPost2010Prop38
140
0.0
102
RTVSPost2010PropOp38
 70
     1
102
RTVSPost2010Prop39
140
1.0
102
RTVSPost2010PropOp39
 70
     1
102
RTVSPost2010Prop40
 90
        0
102
RTVSPost2010PropOp40
 70
     1
102
RTVSPost2010Prop41ColorIndex
 90
       18
102
RTVSPost2010Prop41ColorRGB
 90
        0
102
RTVSPost2010PropOp41
 70
     1
102
RTVSPost2010Prop42
 90
       50
102
RTVSPost2010PropOp42
 70
     1
102
RTVSPost2010Prop43
 90
        3
102
RTVSPost2010PropOp43
 70
     1
102
RTVSPost2010Prop44ColorIndex
 90
        5
102
RTVSPost2010Prop44ColorRGB
 90
      255
102
RTVSPost2010PropOp44
 70
     1
102
RTVSPost2010Prop45
280
     0
102
RTVSPost2010PropOp45
 70
     1
102
RTVSPost2010Prop46
 90
       50
102
RTVSPost2010PropOp46
 70
     1
102
RTVSPost2010Prop47
 90
       50
102
RTVSPost2010PropOp47
 70
     1
102
RTVSPost2010Prop48
 90
       50
102
RTVSPost2010PropOp48
 70
     1
102
RTVSPost2010Prop49
280
     0
102
RTVSPost2010PropOp49
 70
     1
102
RTVSPost2010Prop50
 90
       50
102
RTVSPost2010PropOp50
 70
     1
102
RTVSPost2010Prop51ColorIndex
 90
      256
102
RTVSPost2010Prop51ColorRGB
 90
-16777216
102
RTVSPost2010PropOp51
 70
     0
102
RTVSPost2010Prop52
140
1.0
102
RTVSPost2010PropOp52
 70
     0
102
RTVSPost2010Prop53
 90
        2
102
RTVSPost2010PropOp53
 70
     1
102
RTVSPost2010Prop54
  1
strokes_ogs.tif
102
RTVSPost2010PropOp54
 70
     1
102
RTVSPost2010Prop55
280
     0
102
RTVSPost2010PropOp55
 70
     1
102
RTVSPost2010Prop56
140
1.0
102
RTVSPost2010PropOp56
 70
     1
102
RTVSPost2010Prop57
140
1.0
102
RTVSPost2010PropOp57
 70
     1
102
RTVSPropertyOp0
 70
     1
102
RTVSPropertyOp1
 70
     1
102
RTVSPropertyOp2
 70
     1
102
RTVSPropertyOp3
 70
     1
102
RTVSPropertyOp4
 70
     1
102
RTVSPropertyOp5
 70
     1
102
RTVSPropertyOp6
 70
     1
102
RTVSPropertyOp7
 70
     1
102
RTVSPropertyOp8
 70
     1
102
RTVSPropertyOp9
 70
     1
102
RTVSPropertyOp10
 70
     1
102
RTVSPropertyOp11
 70
     1
102
RTVSPropertyOp12
 70
     1
102
RTVSPropertyOp13
 70
     1
102
RTVSPropertyOp14
 70
     1
102
RTVSPropertyOp15
 70
     1
102
RTVSPropertyOp16
 70
     1
102
RTVSPropertyOp17
 70
     1
102
RTVSPropertyOp18
 70
     1
102
RTVSPropertyOp19
 70
     1
102
RTVSPropertyOp20
 70
     1
102
RTVSPropertyOp21
 70
     1
102
RTVSPropertyOp22
 70
     1
102
RTVSPropertyOp23
 70
     1
102
RTVSPropertyOp24
 70
     1
102
RTVSPropertyOp25
 70
     1
102
RTVSPropertyOp26
 70
     1
102
RTVSPropertyOp27
 70
     1
102
RTVSPropertyOp28
 70
     1
102
RTVSPropertyOp29
 70
     1
102
RTVSPropertyOp30
 70
     1
102
RTVSPropertyOp31
 70
     1
102
RTVSPropertyOp32
 70
     1
102
RTVSPropertyOp33
 70
     1
102
RTVSPropertyOp34
 70
     1
102
RTVSPropertyOp35
 70
     1
102
RTVSPropertyOp36
 70
     1
102
RTVSPropertyOp37
 70
     1
102
RTVSPropertyOp38
 70
     1
102
RTVSPropertyOp39
 70
     1
102
RTVSPropertyOp40
 70
     1
102
RTVSPropertyOp41
 70
     1
102
RTVSPropertyOp42
 70
     1
102
RTVSPropertyOp43
 70
     1
102
RTVSPropertyOp44
 70
     1
102
RTVSPropertyOp45
 70
     1
102
RTVSPropertyOp46
 70
     1
102
RTVSPropertyOp47
 70
     1
102
RTVSPropertyOp48
 70
     1
102
RTVSPropertyOp49
 70
     1
102
RTVSPropertyOp50
 70
     1
102
RTVSPropertyOp51
 70
     0
102
RTVSPropertyOp52
 70
     0
102
RTVSPropertyOp53
 70
     1
102
RTVSPropertyOp54
 70
     1
102
RTVSPropertyOp55
 70
     1
102
RTVSPropertyOp56
 70
     1
102
RTVSPropertyOp57
 70
     1
102
RTVSPropertyOp58
 70
     1
102
RTVSPropertyOp59
 70
     1
102
RTVSPropertyOp60
 70
     1
102
RTVSPropertyOp61
 70
     1
102
RTVSPropertyOp62
 70
     1
  0
XRECORD
  5
53D
102
{ACAD_REACTORS
330
53C
102
}
330
53C
100
AcDbXrecord
280
     1
102
RTVSPost2010Prop28
280
     0
102
RTVSPost2010PropOp28
 70
     1
102
RTVSPost2010Prop29
280
     1
102
RTVSPost2010PropOp29
 70
     1
102
RTVSPost2010Prop30
280
     1
102
RTVSPost2010PropOp30
 70
     1
102
RTVSPost2010Prop31
280
     0
102
RTVSPost2010PropOp31
 70
     1
102
RTVSPost2010Prop32
280
     0
102
RTVSPost2010PropOp32
 70
     1
102
RTVSPost2010Prop33
280
     0
102
RTVSPost2010PropOp33
 70
     1
102
RTVSPost2010Prop34
280
     0
102
RTVSPost2010PropOp34
 70
     1
102
RTVSPost2010Prop35
280
     0
102
RTVSPost2010PropOp35
 70
     1
102
RTVSPost2010Prop36
280
     0
102
RTVSPost2010PropOp36
 70
     1
102
RTVSPost2010Prop37
 90
       50
102
RTVSPost2010PropOp37
 70
     1
102
RTVSPost2010Prop38
140
0.0
102
RTVSPost2010PropOp38
 70
     1
102
RTVSPost2010Prop39
140
1.0
102
RTVSPost2010PropOp39
 70
     1
102
RTVSPost2010Prop40
 90
        0
102
RTVSPost2010PropOp40
 70
     1
102
RTVSPost2010Prop41ColorIndex
 90
       18
102
RTVSPost2010Prop41ColorRGB
 90
        0
102
RTVSPost2010PropOp41
 70
     1
102
RTVSPost2010Prop42
 90
       50
102
RTVSPost2010PropOp42
 70
     1
102
RTVSPost2010Prop43
 90
        3
102
RTVSPost2010PropOp43
 70
     1
102
RTVSPost2010Prop44ColorIndex
 90
        5
102
RTVSPost2010Prop44ColorRGB
 90
      255
102
RTVSPost2010PropOp44
 70
     1
102
RTVSPost2010Prop45
280
     0
102
RTVSPost2010PropOp45
 70
     1
102
RTVSPost2010Prop46
 90
       50
102
RTVSPost2010PropOp46
 70
     1
102
RTVSPost2010Prop47
 90
       50
102
RTVSPost2010PropOp47
 70
     1
102
RTVSPost2010Prop48
 90
       50
102
RTVSPost2010PropOp48
 70
     1
102
RTVSPost2010Prop49
280
     0
102
RTVSPost2010PropOp49
 70
     1
102
RTVSPost2010Prop50
 90
       50
102
RTVSPost2010PropOp50
 70
     1
102
RTVSPost2010Prop51ColorIndex
 90
      256
102
RTVSPost2010Prop51ColorRGB
 90
-16777216
102
RTVSPost2010PropOp51
 70
     0
102
RTVSPost2010Prop52
140
1.0
102
RTVSPost2010PropOp52
 70
     0
102
RTVSPost2010Prop53
 90
        2
102
RTVSPost2010PropOp53
 70
     1
102
RTVSPost2010Prop54
  1
strokes_ogs.tif
102
RTVSPost2010PropOp54
 70
     1
102
RTVSPost2010Prop55
280
     0
102
RTVSPost2010PropOp55
 70
     1
102
RTVSPost2010Prop56
140
1.0
102
RTVSPost2010PropOp56
 70
     1
102
RTVSPost2010Prop57
140
1.0
102
RTVSPost2010PropOp57
 70
     1
102
RTVSPropertyOp0
 70
     1
102
RTVSPropertyOp1
 70
     1
102
RTVSPropertyOp2
 70
     1
102
RTVSPropertyOp3
 70
     1
102
RTVSPropertyOp4
 70
     1
102
RTVSPropertyOp5
 70
     1
102
RTVSPropertyOp6
 70
     1
102
RTVSPropertyOp7
 70
     1
102
RTVSPropertyOp8
 70
     1
102
RTVSPropertyOp9
 70
     1
102
RTVSPropertyOp10
 70
     1
102
RTVSPropertyOp11
 70
     1
102
RTVSPropertyOp12
 70
     1
102
RTVSPropertyOp13
 70
     1
102
RTVSPropertyOp14
 70
     1
102
RTVSPropertyOp15
 70
     1
102
RTVSPropertyOp16
 70
     1
102
RTVSPropertyOp17
 70
     1
102
RTVSPropertyOp18
 70
     1
102
RTVSPropertyOp19
 70
     1
102
RTVSPropertyOp20
 70
     1
102
RTVSPropertyOp21
 70
     1
102
RTVSPropertyOp22
 70
     1
102
RTVSPropertyOp23
 70
     1
102
RTVSPropertyOp24
 70
     1
102
RTVSPropertyOp25
 70
     1
102
RTVSPropertyOp26
 70
     1
102
RTVSPropertyOp27
 70
     1
102
RTVSPropertyOp28
 70
     1
102
RTVSPropertyOp29
 70
     1
102
RTVSPropertyOp30
 70
     1
102
RTVSPropertyOp31
 70
     1
102
RTVSPropertyOp32
 70
     1
102
RTVSPropertyOp33
 70
     1
102
RTVSPropertyOp34
 70
     1
102
RTVSPropertyOp35
 70
     1
102
RTVSPropertyOp36
 70
     1
102
RTVSPropertyOp37
 70
     1
102
RTVSPropertyOp38
 70
     1
102
RTVSPropertyOp39
 70
     1
102
RTVSPropertyOp40
 70
     1
102
RTVSPropertyOp41
 70
     1
102
RTVSPropertyOp42
 70
     1
102
RTVSPropertyOp43
 70
     1
102
RTVSPropertyOp44
 70
     1
102
RTVSPropertyOp45
 70
     1
102
RTVSPropertyOp46
 70
     1
102
RTVSPropertyOp47
 70
     1
102
RTVSPropertyOp48
 70
     1
102
RTVSPropertyOp49
 70
     1
102
RTVSPropertyOp50
 70
     1
102
RTVSPropertyOp51
 70
     0
102
RTVSPropertyOp52
 70
     0
102
RTVSPropertyOp53
 70
     1
102
RTVSPropertyOp54
 70
     1
102
RTVSPropertyOp55
 70
     1
102
RTVSPropertyOp56
 70
     1
102
RTVSPropertyOp57
 70
     1
102
RTVSPropertyOp58
 70
     1
102
RTVSPropertyOp59
 70
     1
102
RTVSPropertyOp60
 70
     1
102
RTVSPropertyOp61
 70
     1
102
RTVSPropertyOp62
 70
     1
  0
XRECORD
  5
545
102
{ACAD_REACTORS
330
544
102
}
330
544
100
AcDbXrecord
280
     1
102
RTVSPost2010Prop28
280
     0
102
RTVSPost2010PropOp28
 70
     1
102
RTVSPost2010Prop29
280
     1
102
RTVSPost2010PropOp29
 70
     1
102
RTVSPost2010Prop30
280
     1
102
RTVSPost2010PropOp30
 70
     1
102
RTVSPost2010Prop31
280
     0
102
RTVSPost2010PropOp31
 70
     1
102
RTVSPost2010Prop32
280
     0
102
RTVSPost2010PropOp32
 70
     1
102
RTVSPost2010Prop33
280
     0
102
RTVSPost2010PropOp33
 70
     1
102
RTVSPost2010Prop34
280
     0
102
RTVSPost2010PropOp34
 70
     1
102
RTVSPost2010Prop35
280
     0
102
RTVSPost2010PropOp35
 70
     1
102
RTVSPost2010Prop36
280
     0
102
RTVSPost2010PropOp36
 70
     1
102
RTVSPost2010Prop37
 90
       50
102
RTVSPost2010PropOp37
 70
     1
102
RTVSPost2010Prop38
140
0.0
102
RTVSPost2010PropOp38
 70
     1
102
RTVSPost2010Prop39
140
1.0
102
RTVSPost2010PropOp39
 70
     1
102
RTVSPost2010Prop40
 90
        0
102
RTVSPost2010PropOp40
 70
     1
102
RTVSPost2010Prop41ColorIndex
 90
       18
102
RTVSPost2010Prop41ColorRGB
 90
        0
102
RTVSPost2010PropOp41
 70
     1
102
RTVSPost2010Prop42
 90
       50
102
RTVSPost2010PropOp42
 70
     1
102
RTVSPost2010Prop43
 90
        3
102
RTVSPost2010PropOp43
 70
     1
102
RTVSPost2010Prop44ColorIndex
 90
        5
102
RTVSPost2010Prop44ColorRGB
 90
      255
102
RTVSPost2010PropOp44
 70
     1
102
RTVSPost2010Prop45
280
     0
102
RTVSPost2010PropOp45
 70
     1
102
RTVSPost2010Prop46
 90
       50
102
RTVSPost2010PropOp46
 70
     1
102
RTVSPost2010Prop47
 90
       50
102
RTVSPost2010PropOp47
 70
     1
102
RTVSPost2010Prop48
 90
       50
102
RTVSPost2010PropOp48
 70
     1
102
RTVSPost2010Prop49
280
     0
102
RTVSPost2010PropOp49
 70
     1
102
RTVSPost2010Prop50
 90
       50
102
RTVSPost2010PropOp50
 70
     1
102
RTVSPost2010Prop51ColorIndex
 90
      256
102
RTVSPost2010Prop51ColorRGB
 90
-16777216
102
RTVSPost2010PropOp51
 70
     0
102
RTVSPost2010Prop52
140
1.0
102
RTVSPost2010PropOp52
 70
     0
102
RTVSPost2010Prop53
 90
        2
102
RTVSPost2010PropOp53
 70
     1
102
RTVSPost2010Prop54
  1
strokes_ogs.tif
102
RTVSPost2010PropOp54
 70
     1
102
RTVSPost2010Prop55
280
     0
102
RTVSPost2010PropOp55
 70
     1
102
RTVSPost2010Prop56
140
1.0
102
RTVSPost2010PropOp56
 70
     1
102
RTVSPost2010Prop57
140
1.0
102
RTVSPost2010PropOp57
 70
     1
102
RTVSPropertyOp0
 70
     1
102
RTVSPropertyOp1
 70
     1
102
RTVSPropertyOp2
 70
     1
102
RTVSPropertyOp3
 70
     1
102
RTVSPropertyOp4
 70
     1
102
RTVSPropertyOp5
 70
     1
102
RTVSPropertyOp6
 70
     1
102
RTVSPropertyOp7
 70
     1
102
RTVSPropertyOp8
 70
     1
102
RTVSPropertyOp9
 70
     1
102
RTVSPropertyOp10
 70
     1
102
RTVSPropertyOp11
 70
     1
102
RTVSPropertyOp12
 70
     1
102
RTVSPropertyOp13
 70
     1
102
RTVSPropertyOp14
 70
     1
102
RTVSPropertyOp15
 70
     1
102
RTVSPropertyOp16
 70
     1
102
RTVSPropertyOp17
 70
     1
102
RTVSPropertyOp18
 70
     1
102
RTVSPropertyOp19
 70
     1
102
RTVSPropertyOp20
 70
     1
102
RTVSPropertyOp21
 70
     1
102
RTVSPropertyOp22
 70
     1
102
RTVSPropertyOp23
 70
     1
102
RTVSPropertyOp24
 70
     1
102
RTVSPropertyOp25
 70
     1
102
RTVSPropertyOp26
 70
     1
102
RTVSPropertyOp27
 70
     1
102
RTVSPropertyOp28
 70
     1
102
RTVSPropertyOp29
 70
     1
102
RTVSPropertyOp30
 70
     1
102
RTVSPropertyOp31
 70
     1
102
RTVSPropertyOp32
 70
     1
102
RTVSPropertyOp33
 70
     1
102
RTVSPropertyOp34
 70
     1
102
RTVSPropertyOp35
 70
     1
102
RTVSPropertyOp36
 70
     1
102
RTVSPropertyOp37
 70
     1
102
RTVSPropertyOp38
 70
     1
102
RTVSPropertyOp39
 70
     1
102
RTVSPropertyOp40
 70
     1
102
RTVSPropertyOp41
 70
     1
102
RTVSPropertyOp42
 70
     1
102
RTVSPropertyOp43
 70
     1
102
RTVSPropertyOp44
 70
     1
102
RTVSPropertyOp45
 70
     1
102
RTVSPropertyOp46
 70
     1
102
RTVSPropertyOp47
 70
     1
102
RTVSPropertyOp48
 70
     1
102
RTVSPropertyOp49
 70
     1
102
RTVSPropertyOp50
 70
     1
102
RTVSPropertyOp51
 70
     0
102
RTVSPropertyOp52
 70
     0
102
RTVSPropertyOp53
 70
     1
102
RTVSPropertyOp54
 70
     1
102
RTVSPropertyOp55
 70
     1
102
RTVSPropertyOp56
 70
     1
102
RTVSPropertyOp57
 70
     1
102
RTVSPropertyOp58
 70
     1
102
RTVSPropertyOp59
 70
     1
102
RTVSPropertyOp60
 70
     1
102
RTVSPropertyOp61
 70
     1
102
RTVSPropertyOp62
 70
     1
  0
XRECORD
  5
561
102
{ACAD_REACTORS
330
560
102
}
330
560
100
AcDbXrecord
280
     1
102
RTVSPost2010Prop28
280
     0
102
RTVSPost2010PropOp28
 70
     1
102
RTVSPost2010Prop29
280
     1
102
RTVSPost2010PropOp29
 70
     1
102
RTVSPost2010Prop30
280
     1
102
RTVSPost2010PropOp30
 70
     1
102
RTVSPost2010Prop31
280
     0
102
RTVSPost2010PropOp31
 70
     1
102
RTVSPost2010Prop32
280
     0
102
RTVSPost2010PropOp32
 70
     1
102
RTVSPost2010Prop33
280
     0
102
RTVSPost2010PropOp33
 70
     1
102
RTVSPost2010Prop34
280
     0
102
RTVSPost2010PropOp34
 70
     1
102
RTVSPost2010Prop35
280
     0
102
RTVSPost2010PropOp35
 70
     1
102
RTVSPost2010Prop36
280
     0
102
RTVSPost2010PropOp36
 70
     1
102
RTVSPost2010Prop37
 90
       50
102
RTVSPost2010PropOp37
 70
     0
102
RTVSPost2010Prop38
140
0.0
102
RTVSPost2010PropOp38
 70
     0
102
RTVSPost2010Prop39
140
1.0
102
RTVSPost2010PropOp39
 70
     0
102
RTVSPost2010Prop40
 90
        0
102
RTVSPost2010PropOp40
 70
     0
102
RTVSPost2010Prop41ColorIndex
 90
       18
102
RTVSPost2010Prop41ColorRGB
 90
        0
102
RTVSPost2010PropOp41
 70
     0
102
RTVSPost2010Prop42
 90
       50
102
RTVSPost2010PropOp42
 70
     0
102
RTVSPost2010Prop43
 90
        3
102
RTVSPost2010PropOp43
 70
     0
102
RTVSPost2010Prop44ColorIndex
 90
        5
102
RTVSPost2010Prop44ColorRGB
 90
      255
102
RTVSPost2010PropOp44
 70
     0
102
RTVSPost2010Prop45
280
     0
102
RTVSPost2010PropOp45
 70
     1
102
RTVSPost2010Prop46
 90
       50
102
RTVSPost2010PropOp46
 70
     0
102
RTVSPost2010Prop47
 90
       50
102
RTVSPost2010PropOp47
 70
     0
102
RTVSPost2010Prop48
 90
       50
102
RTVSPost2010PropOp48
 70
     0
102
RTVSPost2010Prop49
280
     0
102
RTVSPost2010PropOp49
 70
     1
102
RTVSPost2010Prop50
 90
       50
102
RTVSPost2010PropOp50
 70
     0
102
RTVSPost2010Prop51ColorIndex
 90
      256
102
RTVSPost2010Prop51ColorRGB
 90
-16777216
102
RTVSPost2010PropOp51
 70
     0
102
RTVSPost2010Prop52
140
1.0
102
RTVSPost2010PropOp52
 70
     0
102
RTVSPost2010Prop53
 90
        2
102
RTVSPost2010PropOp53
 70
     0
102
RTVSPost2010Prop54
  1
strokes_ogs.tif
102
RTVSPost2010PropOp54
 70
     0
102
RTVSPost2010Prop55
280
     0
102
RTVSPost2010PropOp55
 70
     1
102
RTVSPost2010Prop56
140
1.0
102
RTVSPost2010PropOp56
 70
     0
102
RTVSPost2010Prop57
140
1.0
102
RTVSPost2010PropOp57
 70
     0
102
RTVSPropertyOp0
 70
     0
102
RTVSPropertyOp1
 70
     0
102
RTVSPropertyOp2
 70
     0
102
RTVSPropertyOp3
 70
     0
102
RTVSPropertyOp4
 70
     0
102
RTVSPropertyOp5
 70
     0
102
RTVSPropertyOp6
 70
     0
102
RTVSPropertyOp7
 70
     0
102
RTVSPropertyOp8
 70
     0
102
RTVSPropertyOp9
 70
     0
102
RTVSPropertyOp10
 70
     0
102
RTVSPropertyOp11
 70
     0
102
RTVSPropertyOp12
 70
     0
102
RTVSPropertyOp13
 70
     0
102
RTVSPropertyOp14
 70
     2
102
RTVSPropertyOp15
 70
     0
102
RTVSPropertyOp16
 70
     0
102
RTVSPropertyOp17
 70
     0
102
RTVSPropertyOp18
 70
     0
102
RTVSPropertyOp19
 70
     0
102
RTVSPropertyOp20
 70
     0
102
RTVSPropertyOp21
 70
     0
102
RTVSPropertyOp22
 70
     0
102
RTVSPropertyOp23
 70
     0
102
RTVSPropertyOp24
 70
     0
102
RTVSPropertyOp25
 70
     0
102
RTVSPropertyOp26
 70
     0
102
RTVSPropertyOp27
 70
     0
102
RTVSPropertyOp28
 70
     1
102
RTVSPropertyOp29
 70
     1
102
RTVSPropertyOp30
 70
     1
102
RTVSPropertyOp31
 70
     1
102
RTVSPropertyOp32
 70
     1
102
RTVSPropertyOp33
 70
     1
102
RTVSPropertyOp34
 70
     1
102
RTVSPropertyOp35
 70
     1
102
RTVSPropertyOp36
 70
     1
102
RTVSPropertyOp37
 70
     0
102
RTVSPropertyOp38
 70
     0
102
RTVSPropertyOp39
 70
     0
102
RTVSPropertyOp40
 70
     0
102
RTVSPropertyOp41
 70
     0
102
RTVSPropertyOp42
 70
     0
102
RTVSPropertyOp43
 70
     0
102
RTVSPropertyOp44
 70
     0
102
RTVSPropertyOp45
 70
     1
102
RTVSPropertyOp46
 70
     0
102
RTVSPropertyOp47
 70
     0
102
RTVSPropertyOp48
 70
     0
102
RTVSPropertyOp49
 70
     1
102
RTVSPropertyOp50
 70
     0
102
RTVSPropertyOp51
 70
     0
102
RTVSPropertyOp52
 70
     0
102
RTVSPropertyOp53
 70
     0
102
RTVSPropertyOp54
 70
     0
102
RTVSPropertyOp55
 70
     1
102
RTVSPropertyOp56
 70
     0
102
RTVSPropertyOp57
 70
     0
102
RTVSPropertyOp58
 70
     0
102
RTVSPropertyOp59
 70
     0
102
RTVSPropertyOp60
 70
     0
102
RTVSPropertyOp61
 70
     0
102
RTVSPropertyOp62
 70
     0
  0
XRECORD
  5
551
102
{ACAD_REACTORS
330
550
102
}
330
550
100
AcDbXrecord
280
     1
102
RTVSPost2010Prop28
280
     0
102
RTVSPost2010PropOp28
 70
     1
102
RTVSPost2010Prop29
280
     1
102
RTVSPost2010PropOp29
 70
     1
102
RTVSPost2010Prop30
280
     1
102
RTVSPost2010PropOp30
 70
     1
102
RTVSPost2010Prop31
280
     0
102
RTVSPost2010PropOp31
 70
     1
102
RTVSPost2010Prop32
280
     0
102
RTVSPost2010PropOp32
 70
     1
102
RTVSPost2010Prop33
280
     0
102
RTVSPost2010PropOp33
 70
     1
102
RTVSPost2010Prop34
280
     0
102
RTVSPost2010PropOp34
 70
     1
102
RTVSPost2010Prop35
280
     0
102
RTVSPost2010PropOp35
 70
     1
102
RTVSPost2010Prop36
280
     0
102
RTVSPost2010PropOp36
 70
     1
102
RTVSPost2010Prop37
 90
       50
102
RTVSPost2010PropOp37
 70
     1
102
RTVSPost2010Prop38
140
0.0
102
RTVSPost2010PropOp38
 70
     1
102
RTVSPost2010Prop39
140
1.0
102
RTVSPost2010PropOp39
 70
     1
102
RTVSPost2010Prop40
 90
        0
102
RTVSPost2010PropOp40
 70
     1
102
RTVSPost2010Prop41ColorIndex
 90
       18
102
RTVSPost2010Prop41ColorRGB
 90
        0
102
RTVSPost2010PropOp41
 70
     1
102
RTVSPost2010Prop42
 90
       50
102
RTVSPost2010PropOp42
 70
     1
102
RTVSPost2010Prop43
 90
        3
102
RTVSPost2010PropOp43
 70
     1
102
RTVSPost2010Prop44ColorIndex
 90
        5
102
RTVSPost2010Prop44ColorRGB
 90
      255
102
RTVSPost2010PropOp44
 70
     1
102
RTVSPost2010Prop45
280
     0
102
RTVSPost2010PropOp45
 70
     1
102
RTVSPost2010Prop46
 90
       50
102
RTVSPost2010PropOp46
 70
     1
102
RTVSPost2010Prop47
 90
       50
102
RTVSPost2010PropOp47
 70
     1
102
RTVSPost2010Prop48
 90
       50
102
RTVSPost2010PropOp48
 70
     1
102
RTVSPost2010Prop49
280
     0
102
RTVSPost2010PropOp49
 70
     1
102
RTVSPost2010Prop50
 90
       50
102
RTVSPost2010PropOp50
 70
     1
102
RTVSPost2010Prop51ColorIndex
 90
      256
102
RTVSPost2010Prop51ColorRGB
 90
-16777216
102
RTVSPost2010PropOp51
 70
     0
102
RTVSPost2010Prop52
140
1.0
102
RTVSPost2010PropOp52
 70
     0
102
RTVSPost2010Prop53
 90
        2
102
RTVSPost2010PropOp53
 70
     1
102
RTVSPost2010Prop54
  1
strokes_ogs.tif
102
RTVSPost2010PropOp54
 70
     1
102
RTVSPost2010Prop55
280
     0
102
RTVSPost2010PropOp55
 70
     1
102
RTVSPost2010Prop56
140
1.0
102
RTVSPost2010PropOp56
 70
     1
102
RTVSPost2010Prop57
140
1.0
102
RTVSPost2010PropOp57
 70
     1
102
RTVSPropertyOp0
 70
     1
102
RTVSPropertyOp1
 70
     1
102
RTVSPropertyOp2
 70
     1
102
RTVSPropertyOp3
 70
     1
102
RTVSPropertyOp4
 70
     1
102
RTVSPropertyOp5
 70
     1
102
RTVSPropertyOp6
 70
     1
102
RTVSPropertyOp7
 70
     1
102
RTVSPropertyOp8
 70
     1
102
RTVSPropertyOp9
 70
     1
102
RTVSPropertyOp10
 70
     1
102
RTVSPropertyOp11
 70
     1
102
RTVSPropertyOp12
 70
     1
102
RTVSPropertyOp13
 70
     1
102
RTVSPropertyOp14
 70
     1
102
RTVSPropertyOp15
 70
     1
102
RTVSPropertyOp16
 70
     1
102
RTVSPropertyOp17
 70
     1
102
RTVSPropertyOp18
 70
     1
102
RTVSPropertyOp19
 70
     1
102
RTVSPropertyOp20
 70
     1
102
RTVSPropertyOp21
 70
     1
102
RTVSPropertyOp22
 70
     1
102
RTVSPropertyOp23
 70
     1
102
RTVSPropertyOp24
 70
     1
102
RTVSPropertyOp25
 70
     1
102
RTVSPropertyOp26
 70
     1
102
RTVSPropertyOp27
 70
     1
102
RTVSPropertyOp28
 70
     1
102
RTVSPropertyOp29
 70
     1
102
RTVSPropertyOp30
 70
     1
102
RTVSPropertyOp31
 70
     1
102
RTVSPropertyOp32
 70
     1
102
RTVSPropertyOp33
 70
     1
102
RTVSPropertyOp34
 70
     1
102
RTVSPropertyOp35
 70
     1
102
RTVSPropertyOp36
 70
     1
102
RTVSPropertyOp37
 70
     1
102
RTVSPropertyOp38
 70
     1
102
RTVSPropertyOp39
 70
     1
102
RTVSPropertyOp40
 70
     1
102
RTVSPropertyOp41
 70
     1
102
RTVSPropertyOp42
 70
     1
102
RTVSPropertyOp43
 70
     1
102
RTVSPropertyOp44
 70
     1
102
RTVSPropertyOp45
 70
     1
102
RTVSPropertyOp46
 70
     1
102
RTVSPropertyOp47
 70
     1
102
RTVSPropertyOp48
 70
     1
102
RTVSPropertyOp49
 70
     1
102
RTVSPropertyOp50
 70
     1
102
RTVSPropertyOp51
 70
     0
102
RTVSPropertyOp52
 70
     0
102
RTVSPropertyOp53
 70
     1
102
RTVSPropertyOp54
 70
     1
102
RTVSPropertyOp55
 70
     1
102
RTVSPropertyOp56
 70
     1
102
RTVSPropertyOp57
 70
     1
102
RTVSPropertyOp58
 70
     1
102
RTVSPropertyOp59
 70
     1
102
RTVSPropertyOp60
 70
     1
102
RTVSPropertyOp61
 70
     1
102
RTVSPropertyOp62
 70
     1
  0
XRECORD
  5
563
102
{ACAD_REACTORS
330
562
102
}
330
562
100
AcDbXrecord
280
     1
102
RTVSPost2010Prop28
280
     0
102
RTVSPost2010PropOp28
 70
     1
102
RTVSPost2010Prop29
280
     1
102
RTVSPost2010PropOp29
 70
     1
102
RTVSPost2010Prop30
280
     1
102
RTVSPost2010PropOp30
 70
     1
102
RTVSPost2010Prop31
280
     0
102
RTVSPost2010PropOp31
 70
     1
102
RTVSPost2010Prop32
280
     0
102
RTVSPost2010PropOp32
 70
     1
102
RTVSPost2010Prop33
280
     0
102
RTVSPost2010PropOp33
 70
     1
102
RTVSPost2010Prop34
280
     0
102
RTVSPost2010PropOp34
 70
     1
102
RTVSPost2010Prop35
280
     0
102
RTVSPost2010PropOp35
 70
     1
102
RTVSPost2010Prop36
280
     0
102
RTVSPost2010PropOp36
 70
     1
102
RTVSPost2010Prop37
 90
       50
102
RTVSPost2010PropOp37
 70
     0
102
RTVSPost2010Prop38
140
0.0
102
RTVSPost2010PropOp38
 70
     0
102
RTVSPost2010Prop39
140
1.0
102
RTVSPost2010PropOp39
 70
     0
102
RTVSPost2010Prop40
 90
        0
102
RTVSPost2010PropOp40
 70
     0
102
RTVSPost2010Prop41ColorIndex
 90
       18
102
RTVSPost2010Prop41ColorRGB
 90
        0
102
RTVSPost2010PropOp41
 70
     0
102
RTVSPost2010Prop42
 90
       50
102
RTVSPost2010PropOp42
 70
     0
102
RTVSPost2010Prop43
 90
        3
102
RTVSPost2010PropOp43
 70
     0
102
RTVSPost2010Prop44ColorIndex
 90
        5
102
RTVSPost2010Prop44ColorRGB
 90
      255
102
RTVSPost2010PropOp44
 70
     0
102
RTVSPost2010Prop45
280
     0
102
RTVSPost2010PropOp45
 70
     1
102
RTVSPost2010Prop46
 90
       50
102
RTVSPost2010PropOp46
 70
     0
102
RTVSPost2010Prop47
 90
       50
102
RTVSPost2010PropOp47
 70
     0
102
RTVSPost2010Prop48
 90
       50
102
RTVSPost2010PropOp48
 70
     0
102
RTVSPost2010Prop49
280
     0
102
RTVSPost2010PropOp49
 70
     1
102
RTVSPost2010Prop50
 90
       50
102
RTVSPost2010PropOp50
 70
     0
102
RTVSPost2010Prop51ColorIndex
 90
      256
102
RTVSPost2010Prop51ColorRGB
 90
-16777216
102
RTVSPost2010PropOp51
 70
     0
102
RTVSPost2010Prop52
140
1.0
102
RTVSPost2010PropOp52
 70
     0
102
RTVSPost2010Prop53
 90
        2
102
RTVSPost2010PropOp53
 70
     0
102
RTVSPost2010Prop54
  1
strokes_ogs.tif
102
RTVSPost2010PropOp54
 70
     0
102
RTVSPost2010Prop55
280
     0
102
RTVSPost2010PropOp55
 70
     1
102
RTVSPost2010Prop56
140
1.0
102
RTVSPost2010PropOp56
 70
     0
102
RTVSPost2010Prop57
140
1.0
102
RTVSPost2010PropOp57
 70
     0
102
RTVSPropertyOp0
 70
     0
102
RTVSPropertyOp1
 70
     0
102
RTVSPropertyOp2
 70
     0
102
RTVSPropertyOp3
 70
     0
102
RTVSPropertyOp4
 70
     0
102
RTVSPropertyOp5
 70
     0
102
RTVSPropertyOp6
 70
     0
102
RTVSPropertyOp7
 70
     0
102
RTVSPropertyOp8
 70
     0
102
RTVSPropertyOp9
 70
     0
102
RTVSPropertyOp10
 70
     0
102
RTVSPropertyOp11
 70
     0
102
RTVSPropertyOp12
 70
     0
102
RTVSPropertyOp13
 70
     0
102
RTVSPropertyOp14
 70
     2
102
RTVSPropertyOp15
 70
     0
102
RTVSPropertyOp16
 70
     0
102
RTVSPropertyOp17
 70
     0
102
RTVSPropertyOp18
 70
     0
102
RTVSPropertyOp19
 70
     0
102
RTVSPropertyOp20
 70
     0
102
RTVSPropertyOp21
 70
     0
102
RTVSPropertyOp22
 70
     0
102
RTVSPropertyOp23
 70
     0
102
RTVSPropertyOp24
 70
     0
102
RTVSPropertyOp25
 70
     0
102
RTVSPropertyOp26
 70
     0
102
RTVSPropertyOp27
 70
     0
102
RTVSPropertyOp28
 70
     1
102
RTVSPropertyOp29
 70
     1
102
RTVSPropertyOp30
 70
     1
102
RTVSPropertyOp31
 70
     1
102
RTVSPropertyOp32
 70
     1
102
RTVSPropertyOp33
 70
     1
102
RTVSPropertyOp34
 70
     1
102
RTVSPropertyOp35
 70
     1
102
RTVSPropertyOp36
 70
     1
102
RTVSPropertyOp37
 70
     0
102
RTVSPropertyOp38
 70
     0
102
RTVSPropertyOp39
 70
     0
102
RTVSPropertyOp40
 70
     0
102
RTVSPropertyOp41
 70
     0
102
RTVSPropertyOp42
 70
     0
102
RTVSPropertyOp43
 70
     0
102
RTVSPropertyOp44
 70
     0
102
RTVSPropertyOp45
 70
     1
102
RTVSPropertyOp46
 70
     0
102
RTVSPropertyOp47
 70
     0
102
RTVSPropertyOp48
 70
     0
102
RTVSPropertyOp49
 70
     1
102
RTVSPropertyOp50
 70
     0
102
RTVSPropertyOp51
 70
     0
102
RTVSPropertyOp52
 70
     0
102
RTVSPropertyOp53
 70
     0
102
RTVSPropertyOp54
 70
     0
102
RTVSPropertyOp55
 70
     1
102
RTVSPropertyOp56
 70
     0
102
RTVSPropertyOp57
 70
     0
102
RTVSPropertyOp58
 70
     0
102
RTVSPropertyOp59
 70
     0
102
RTVSPropertyOp60
 70
     0
102
RTVSPropertyOp61
 70
     0
102
RTVSPropertyOp62
 70
     0
  0
XRECORD
  5
549
102
{ACAD_REACTORS
330
548
102
}
330
548
100
AcDbXrecord
280
     1
102
RTVSPost2010Prop28
280
     0
102
RTVSPost2010PropOp28
 70
     1
102
RTVSPost2010Prop29
280
     1
102
RTVSPost2010PropOp29
 70
     1
102
RTVSPost2010Prop30
280
     1
102
RTVSPost2010PropOp30
 70
     1
102
RTVSPost2010Prop31
280
     0
102
RTVSPost2010PropOp31
 70
     1
102
RTVSPost2010Prop32
280
     0
102
RTVSPost2010PropOp32
 70
     1
102
RTVSPost2010Prop33
280
     0
102
RTVSPost2010PropOp33
 70
     1
102
RTVSPost2010Prop34
280
     0
102
RTVSPost2010PropOp34
 70
     1
102
RTVSPost2010Prop35
280
     0
102
RTVSPost2010PropOp35
 70
     1
102
RTVSPost2010Prop36
280
     0
102
RTVSPost2010PropOp36
 70
     1
102
RTVSPost2010Prop37
 90
       50
102
RTVSPost2010PropOp37
 70
     1
102
RTVSPost2010Prop38
140
0.0
102
RTVSPost2010PropOp38
 70
     1
102
RTVSPost2010Prop39
140
1.0
102
RTVSPost2010PropOp39
 70
     1
102
RTVSPost2010Prop40
 90
        0
102
RTVSPost2010PropOp40
 70
     1
102
RTVSPost2010Prop41ColorIndex
 90
       18
102
RTVSPost2010Prop41ColorRGB
 90
        0
102
RTVSPost2010PropOp41
 70
     1
102
RTVSPost2010Prop42
 90
       50
102
RTVSPost2010PropOp42
 70
     1
102
RTVSPost2010Prop43
 90
        3
102
RTVSPost2010PropOp43
 70
     1
102
RTVSPost2010Prop44ColorIndex
 90
        5
102
RTVSPost2010Prop44ColorRGB
 90
      255
102
RTVSPost2010PropOp44
 70
     1
102
RTVSPost2010Prop45
280
     0
102
RTVSPost2010PropOp45
 70
     1
102
RTVSPost2010Prop46
 90
       50
102
RTVSPost2010PropOp46
 70
     1
102
RTVSPost2010Prop47
 90
       50
102
RTVSPost2010PropOp47
 70
     1
102
RTVSPost2010Prop48
 90
       50
102
RTVSPost2010PropOp48
 70
     1
102
RTVSPost2010Prop49
280
     0
102
RTVSPost2010PropOp49
 70
     1
102
RTVSPost2010Prop50
 90
       50
102
RTVSPost2010PropOp50
 70
     1
102
RTVSPost2010Prop51ColorIndex
 90
      256
102
RTVSPost2010Prop51ColorRGB
 90
-16777216
102
RTVSPost2010PropOp51
 70
     0
102
RTVSPost2010Prop52
140
1.0
102
RTVSPost2010PropOp52
 70
     0
102
RTVSPost2010Prop53
 90
        2
102
RTVSPost2010PropOp53
 70
     1
102
RTVSPost2010Prop54
  1
strokes_ogs.tif
102
RTVSPost2010PropOp54
 70
     1
102
RTVSPost2010Prop55
280
     0
102
RTVSPost2010PropOp55
 70
     1
102
RTVSPost2010Prop56
140
1.0
102
RTVSPost2010PropOp56
 70
     1
102
RTVSPost2010Prop57
140
1.0
102
RTVSPost2010PropOp57
 70
     1
102
RTVSPropertyOp0
 70
     1
102
RTVSPropertyOp1
 70
     1
102
RTVSPropertyOp2
 70
     1
102
RTVSPropertyOp3
 70
     1
102
RTVSPropertyOp4
 70
     1
102
RTVSPropertyOp5
 70
     1
102
RTVSPropertyOp6
 70
     1
102
RTVSPropertyOp7
 70
     1
102
RTVSPropertyOp8
 70
     1
102
RTVSPropertyOp9
 70
     1
102
RTVSPropertyOp10
 70
     1
102
RTVSPropertyOp11
 70
     1
102
RTVSPropertyOp12
 70
     1
102
RTVSPropertyOp13
 70
     1
102
RTVSPropertyOp14
 70
     1
102
RTVSPropertyOp15
 70
     1
102
RTVSPropertyOp16
 70
     1
102
RTVSPropertyOp17
 70
     1
102
RTVSPropertyOp18
 70
     1
102
RTVSPropertyOp19
 70
     1
102
RTVSPropertyOp20
 70
     1
102
RTVSPropertyOp21
 70
     1
102
RTVSPropertyOp22
 70
     1
102
RTVSPropertyOp23
 70
     1
102
RTVSPropertyOp24
 70
     1
102
RTVSPropertyOp25
 70
     1
102
RTVSPropertyOp26
 70
     1
102
RTVSPropertyOp27
 70
     1
102
RTVSPropertyOp28
 70
     1
102
RTVSPropertyOp29
 70
     1
102
RTVSPropertyOp30
 70
     1
102
RTVSPropertyOp31
 70
     1
102
RTVSPropertyOp32
 70
     1
102
RTVSPropertyOp33
 70
     1
102
RTVSPropertyOp34
 70
     1
102
RTVSPropertyOp35
 70
     1
102
RTVSPropertyOp36
 70
     1
102
RTVSPropertyOp37
 70
     1
102
RTVSPropertyOp38
 70
     1
102
RTVSPropertyOp39
 70
     1
102
RTVSPropertyOp40
 70
     1
102
RTVSPropertyOp41
 70
     1
102
RTVSPropertyOp42
 70
     1
102
RTVSPropertyOp43
 70
     1
102
RTVSPropertyOp44
 70
     1
102
RTVSPropertyOp45
 70
     1
102
RTVSPropertyOp46
 70
     1
102
RTVSPropertyOp47
 70
     1
102
RTVSPropertyOp48
 70
     1
102
RTVSPropertyOp49
 70
     1
102
RTVSPropertyOp50
 70
     1
102
RTVSPropertyOp51
 70
     0
102
RTVSPropertyOp52
 70
     0
102
RTVSPropertyOp53
 70
     1
102
RTVSPropertyOp54
 70
     1
102
RTVSPropertyOp55
 70
     1
102
RTVSPropertyOp56
 70
     1
102
RTVSPropertyOp57
 70
     1
102
RTVSPropertyOp58
 70
     1
102
RTVSPropertyOp59
 70
     1
102
RTVSPropertyOp60
 70
     1
102
RTVSPropertyOp61
 70
     1
102
RTVSPropertyOp62
 70
     1
  0
XRECORD
  5
55F
102
{ACAD_REACTORS
330
55E
102
}
330
55E
100
AcDbXrecord
280
     1
102
RTVSPost2010Prop28
280
     0
102
RTVSPost2010PropOp28
 70
     1
102
RTVSPost2010Prop29
280
     1
102
RTVSPost2010PropOp29
 70
     1
102
RTVSPost2010Prop30
280
     1
102
RTVSPost2010PropOp30
 70
     1
102
RTVSPost2010Prop31
280
     0
102
RTVSPost2010PropOp31
 70
     1
102
RTVSPost2010Prop32
280
     0
102
RTVSPost2010PropOp32
 70
     1
102
RTVSPost2010Prop33
280
     0
102
RTVSPost2010PropOp33
 70
     1
102
RTVSPost2010Prop34
280
     0
102
RTVSPost2010PropOp34
 70
     1
102
RTVSPost2010Prop35
280
     0
102
RTVSPost2010PropOp35
 70
     1
102
RTVSPost2010Prop36
280
     0
102
RTVSPost2010PropOp36
 70
     1
102
RTVSPost2010Prop37
 90
       50
102
RTVSPost2010PropOp37
 70
     1
102
RTVSPost2010Prop38
140
0.0
102
RTVSPost2010PropOp38
 70
     1
102
RTVSPost2010Prop39
140
1.0
102
RTVSPost2010PropOp39
 70
     1
102
RTVSPost2010Prop40
 90
        0
102
RTVSPost2010PropOp40
 70
     1
102
RTVSPost2010Prop41ColorIndex
 90
       18
102
RTVSPost2010Prop41ColorRGB
 90
        0
102
RTVSPost2010PropOp41
 70
     1
102
RTVSPost2010Prop42
 90
       50
102
RTVSPost2010PropOp42
 70
     1
102
RTVSPost2010Prop43
 90
        3
102
RTVSPost2010PropOp43
 70
     1
102
RTVSPost2010Prop44ColorIndex
 90
        5
102
RTVSPost2010Prop44ColorRGB
 90
      255
102
RTVSPost2010PropOp44
 70
     1
102
RTVSPost2010Prop45
280
     0
102
RTVSPost2010PropOp45
 70
     1
102
RTVSPost2010Prop46
 90
       50
102
RTVSPost2010PropOp46
 70
     1
102
RTVSPost2010Prop47
 90
       50
102
RTVSPost2010PropOp47
 70
     1
102
RTVSPost2010Prop48
 90
       50
102
RTVSPost2010PropOp48
 70
     1
102
RTVSPost2010Prop49
280
     0
102
RTVSPost2010PropOp49
 70
     1
102
RTVSPost2010Prop50
 90
       50
102
RTVSPost2010PropOp50
 70
     1
102
RTVSPost2010Prop51ColorIndex
 90
      256
102
RTVSPost2010Prop51ColorRGB
 90
-16777216
102
RTVSPost2010PropOp51
 70
     0
102
RTVSPost2010Prop52
140
1.0
102
RTVSPost2010PropOp52
 70
     0
102
RTVSPost2010Prop53
 90
        2
102
RTVSPost2010PropOp53
 70
     1
102
RTVSPost2010Prop54
  1
strokes_ogs.tif
102
RTVSPost2010PropOp54
 70
     1
102
RTVSPost2010Prop55
280
     0
102
RTVSPost2010PropOp55
 70
     1
102
RTVSPost2010Prop56
140
1.0
102
RTVSPost2010PropOp56
 70
     1
102
RTVSPost2010Prop57
140
1.0
102
RTVSPost2010PropOp57
 70
     1
102
RTVSPropertyOp0
 70
     1
102
RTVSPropertyOp1
 70
     1
102
RTVSPropertyOp2
 70
     1
102
RTVSPropertyOp3
 70
     1
102
RTVSPropertyOp4
 70
     1
102
RTVSPropertyOp5
 70
     1
102
RTVSPropertyOp6
 70
     1
102
RTVSPropertyOp7
 70
     1
102
RTVSPropertyOp8
 70
     1
102
RTVSPropertyOp9
 70
     1
102
RTVSPropertyOp10
 70
     1
102
RTVSPropertyOp11
 70
     1
102
RTVSPropertyOp12
 70
     1
102
RTVSPropertyOp13
 70
     1
102
RTVSPropertyOp14
 70
     1
102
RTVSPropertyOp15
 70
     1
102
RTVSPropertyOp16
 70
     1
102
RTVSPropertyOp17
 70
     1
102
RTVSPropertyOp18
 70
     1
102
RTVSPropertyOp19
 70
     1
102
RTVSPropertyOp20
 70
     1
102
RTVSPropertyOp21
 70
     1
102
RTVSPropertyOp22
 70
     1
102
RTVSPropertyOp23
 70
     1
102
RTVSPropertyOp24
 70
     1
102
RTVSPropertyOp25
 70
     1
102
RTVSPropertyOp26
 70
     1
102
RTVSPropertyOp27
 70
     1
102
RTVSPropertyOp28
 70
     1
102
RTVSPropertyOp29
 70
     1
102
RTVSPropertyOp30
 70
     1
102
RTVSPropertyOp31
 70
     1
102
RTVSPropertyOp32
 70
     1
102
RTVSPropertyOp33
 70
     1
102
RTVSPropertyOp34
 70
     1
102
RTVSPropertyOp35
 70
     1
102
RTVSPropertyOp36
 70
     1
102
RTVSPropertyOp37
 70
     1
102
RTVSPropertyOp38
 70
     1
102
RTVSPropertyOp39
 70
     1
102
RTVSPropertyOp40
 70
     1
102
RTVSPropertyOp41
 70
     1
102
RTVSPropertyOp42
 70
     1
102
RTVSPropertyOp43
 70
     1
102
RTVSPropertyOp44
 70
     1
102
RTVSPropertyOp45
 70
     1
102
RTVSPropertyOp46
 70
     1
102
RTVSPropertyOp47
 70
     1
102
RTVSPropertyOp48
 70
     1
102
RTVSPropertyOp49
 70
     1
102
RTVSPropertyOp50
 70
     1
102
RTVSPropertyOp51
 70
     0
102
RTVSPropertyOp52
 70
     0
102
RTVSPropertyOp53
 70
     1
102
RTVSPropertyOp54
 70
     1
102
RTVSPropertyOp55
 70
     1
102
RTVSPropertyOp56
 70
     1
102
RTVSPropertyOp57
 70
     1
102
RTVSPropertyOp58
 70
     1
102
RTVSPropertyOp59
 70
     1
102
RTVSPropertyOp60
 70
     1
102
RTVSPropertyOp61
 70
     1
102
RTVSPropertyOp62
 70
     1
  0
XRECORD
  5
55D
102
{ACAD_REACTORS
330
55C
102
}
330
55C
100
AcDbXrecord
280
     1
102
RTVSPost2010Prop28
280
     0
102
RTVSPost2010PropOp28
 70
     1
102
RTVSPost2010Prop29
280
     1
102
RTVSPost2010PropOp29
 70
     1
102
RTVSPost2010Prop30
280
     1
102
RTVSPost2010PropOp30
 70
     1
102
RTVSPost2010Prop31
280
     0
102
RTVSPost2010PropOp31
 70
     1
102
RTVSPost2010Prop32
280
     0
102
RTVSPost2010PropOp32
 70
     1
102
RTVSPost2010Prop33
280
     0
102
RTVSPost2010PropOp33
 70
     1
102
RTVSPost2010Prop34
280
     0
102
RTVSPost2010PropOp34
 70
     1
102
RTVSPost2010Prop35
280
     0
102
RTVSPost2010PropOp35
 70
     1
102
RTVSPost2010Prop36
280
     0
102
RTVSPost2010PropOp36
 70
     1
102
RTVSPost2010Prop37
 90
       50
102
RTVSPost2010PropOp37
 70
     1
102
RTVSPost2010Prop38
140
0.0
102
RTVSPost2010PropOp38
 70
     1
102
RTVSPost2010Prop39
140
1.0
102
RTVSPost2010PropOp39
 70
     1
102
RTVSPost2010Prop40
 90
        0
102
RTVSPost2010PropOp40
 70
     1
102
RTVSPost2010Prop41ColorIndex
 90
       18
102
RTVSPost2010Prop41ColorRGB
 90
        0
102
RTVSPost2010PropOp41
 70
     1
102
RTVSPost2010Prop42
 90
       50
102
RTVSPost2010PropOp42
 70
     1
102
RTVSPost2010Prop43
 90
        3
102
RTVSPost2010PropOp43
 70
     1
102
RTVSPost2010Prop44ColorIndex
 90
        5
102
RTVSPost2010Prop44ColorRGB
 90
      255
102
RTVSPost2010PropOp44
 70
     1
102
RTVSPost2010Prop45
280
     0
102
RTVSPost2010PropOp45
 70
     1
102
RTVSPost2010Prop46
 90
       50
102
RTVSPost2010PropOp46
 70
     1
102
RTVSPost2010Prop47
 90
       50
102
RTVSPost2010PropOp47
 70
     1
102
RTVSPost2010Prop48
 90
       50
102
RTVSPost2010PropOp48
 70
     1
102
RTVSPost2010Prop49
280
     0
102
RTVSPost2010PropOp49
 70
     1
102
RTVSPost2010Prop50
 90
       50
102
RTVSPost2010PropOp50
 70
     1
102
RTVSPost2010Prop51ColorIndex
 90
      256
102
RTVSPost2010Prop51ColorRGB
 90
-16777216
102
RTVSPost2010PropOp51
 70
     0
102
RTVSPost2010Prop52
140
1.0
102
RTVSPost2010PropOp52
 70
     0
102
RTVSPost2010Prop53
 90
        2
102
RTVSPost2010PropOp53
 70
     1
102
RTVSPost2010Prop54
  1
strokes_ogs.tif
102
RTVSPost2010PropOp54
 70
     1
102
RTVSPost2010Prop55
280
     0
102
RTVSPost2010PropOp55
 70
     1
102
RTVSPost2010Prop56
140
1.0
102
RTVSPost2010PropOp56
 70
     1
102
RTVSPost2010Prop57
140
1.0
102
RTVSPost2010PropOp57
 70
     1
102
RTVSPropertyOp0
 70
     1
102
RTVSPropertyOp1
 70
     1
102
RTVSPropertyOp2
 70
     1
102
RTVSPropertyOp3
 70
     1
102
RTVSPropertyOp4
 70
     1
102
RTVSPropertyOp5
 70
     1
102
RTVSPropertyOp6
 70
     1
102
RTVSPropertyOp7
 70
     1
102
RTVSPropertyOp8
 70
     1
102
RTVSPropertyOp9
 70
     1
102
RTVSPropertyOp10
 70
     1
102
RTVSPropertyOp11
 70
     1
102
RTVSPropertyOp12
 70
     1
102
RTVSPropertyOp13
 70
     1
102
RTVSPropertyOp14
 70
     1
102
RTVSPropertyOp15
 70
     1
102
RTVSPropertyOp16
 70
     1
102
RTVSPropertyOp17
 70
     1
102
RTVSPropertyOp18
 70
     1
102
RTVSPropertyOp19
 70
     1
102
RTVSPropertyOp20
 70
     1
102
RTVSPropertyOp21
 70
     1
102
RTVSPropertyOp22
 70
     1
102
RTVSPropertyOp23
 70
     1
102
RTVSPropertyOp24
 70
     1
102
RTVSPropertyOp25
 70
     1
102
RTVSPropertyOp26
 70
     1
102
RTVSPropertyOp27
 70
     1
102
RTVSPropertyOp28
 70
     1
102
RTVSPropertyOp29
 70
     1
102
RTVSPropertyOp30
 70
     1
102
RTVSPropertyOp31
 70
     1
102
RTVSPropertyOp32
 70
     1
102
RTVSPropertyOp33
 70
     1
102
RTVSPropertyOp34
 70
     1
102
RTVSPropertyOp35
 70
     1
102
RTVSPropertyOp36
 70
     1
102
RTVSPropertyOp37
 70
     1
102
RTVSPropertyOp38
 70
     1
102
RTVSPropertyOp39
 70
     1
102
RTVSPropertyOp40
 70
     1
102
RTVSPropertyOp41
 70
     1
102
RTVSPropertyOp42
 70
     1
102
RTVSPropertyOp43
 70
     1
102
RTVSPropertyOp44
 70
     1
102
RTVSPropertyOp45
 70
     1
102
RTVSPropertyOp46
 70
     1
102
RTVSPropertyOp47
 70
     1
102
RTVSPropertyOp48
 70
     1
102
RTVSPropertyOp49
 70
     1
102
RTVSPropertyOp50
 70
     1
102
RTVSPropertyOp51
 70
     0
102
RTVSPropertyOp52
 70
     0
102
RTVSPropertyOp53
 70
     1
102
RTVSPropertyOp54
 70
     1
102
RTVSPropertyOp55
 70
     1
102
RTVSPropertyOp56
 70
     1
102
RTVSPropertyOp57
 70
     1
102
RTVSPropertyOp58
 70
     1
102
RTVSPropertyOp59
 70
     1
102
RTVSPropertyOp60
 70
     1
102
RTVSPropertyOp61
 70
     1
102
RTVSPropertyOp62
 70
     1
  0
XRECORD
  5
557
102
{ACAD_REACTORS
330
556
102
}
330
556
100
AcDbXrecord
280
     1
102
RTVSPost2010Prop28
280
     0
102
RTVSPost2010PropOp28
 70
     1
102
RTVSPost2010Prop29
280
     1
102
RTVSPost2010PropOp29
 70
     1
102
RTVSPost2010Prop30
280
     1
102
RTVSPost2010PropOp30
 70
     1
102
RTVSPost2010Prop31
280
     0
102
RTVSPost2010PropOp31
 70
     1
102
RTVSPost2010Prop32
280
     0
102
RTVSPost2010PropOp32
 70
     1
102
RTVSPost2010Prop33
280
     0
102
RTVSPost2010PropOp33
 70
     1
102
RTVSPost2010Prop34
280
     0
102
RTVSPost2010PropOp34
 70
     1
102
RTVSPost2010Prop35
280
     0
102
RTVSPost2010PropOp35
 70
     1
102
RTVSPost2010Prop36
280
     0
102
RTVSPost2010PropOp36
 70
     1
102
RTVSPost2010Prop37
 90
       50
102
RTVSPost2010PropOp37
 70
     1
102
RTVSPost2010Prop38
140
0.0
102
RTVSPost2010PropOp38
 70
     1
102
RTVSPost2010Prop39
140
1.0
102
RTVSPost2010PropOp39
 70
     1
102
RTVSPost2010Prop40
 90
        0
102
RTVSPost2010PropOp40
 70
     1
102
RTVSPost2010Prop41ColorIndex
 90
       18
102
RTVSPost2010Prop41ColorRGB
 90
        0
102
RTVSPost2010PropOp41
 70
     1
102
RTVSPost2010Prop42
 90
       50
102
RTVSPost2010PropOp42
 70
     1
102
RTVSPost2010Prop43
 90
        3
102
RTVSPost2010PropOp43
 70
     1
102
RTVSPost2010Prop44ColorIndex
 90
        5
102
RTVSPost2010Prop44ColorRGB
 90
      255
102
RTVSPost2010PropOp44
 70
     1
102
RTVSPost2010Prop45
280
     0
102
RTVSPost2010PropOp45
 70
     1
102
RTVSPost2010Prop46
 90
       50
102
RTVSPost2010PropOp46
 70
     1
102
RTVSPost2010Prop47
 90
       50
102
RTVSPost2010PropOp47
 70
     1
102
RTVSPost2010Prop48
 90
       50
102
RTVSPost2010PropOp48
 70
     1
102
RTVSPost2010Prop49
280
     0
102
RTVSPost2010PropOp49
 70
     1
102
RTVSPost2010Prop50
 90
       50
102
RTVSPost2010PropOp50
 70
     1
102
RTVSPost2010Prop51ColorIndex
 90
      256
102
RTVSPost2010Prop51ColorRGB
 90
-16777216
102
RTVSPost2010PropOp51
 70
     0
102
RTVSPost2010Prop52
140
1.0
102
RTVSPost2010PropOp52
 70
     0
102
RTVSPost2010Prop53
 90
        2
102
RTVSPost2010PropOp53
 70
     1
102
RTVSPost2010Prop54
  1
strokes_ogs.tif
102
RTVSPost2010PropOp54
 70
     1
102
RTVSPost2010Prop55
280
     0
102
RTVSPost2010PropOp55
 70
     1
102
RTVSPost2010Prop56
140
1.0
102
RTVSPost2010PropOp56
 70
     1
102
RTVSPost2010Prop57
140
1.0
102
RTVSPost2010PropOp57
 70
     1
102
RTVSPropertyOp0
 70
     1
102
RTVSPropertyOp1
 70
     1
102
RTVSPropertyOp2
 70
     1
102
RTVSPropertyOp3
 70
     1
102
RTVSPropertyOp4
 70
     1
102
RTVSPropertyOp5
 70
     1
102
RTVSPropertyOp6
 70
     1
102
RTVSPropertyOp7
 70
     1
102
RTVSPropertyOp8
 70
     1
102
RTVSPropertyOp9
 70
     1
102
RTVSPropertyOp10
 70
     1
102
RTVSPropertyOp11
 70
     1
102
RTVSPropertyOp12
 70
     1
102
RTVSPropertyOp13
 70
     1
102
RTVSPropertyOp14
 70
     1
102
RTVSPropertyOp15
 70
     1
102
RTVSPropertyOp16
 70
     1
102
RTVSPropertyOp17
 70
     1
102
RTVSPropertyOp18
 70
     1
102
RTVSPropertyOp19
 70
     1
102
RTVSPropertyOp20
 70
     1
102
RTVSPropertyOp21
 70
     1
102
RTVSPropertyOp22
 70
     1
102
RTVSPropertyOp23
 70
     1
102
RTVSPropertyOp24
 70
     1
102
RTVSPropertyOp25
 70
     1
102
RTVSPropertyOp26
 70
     1
102
RTVSPropertyOp27
 70
     1
102
RTVSPropertyOp28
 70
     1
102
RTVSPropertyOp29
 70
     1
102
RTVSPropertyOp30
 70
     1
102
RTVSPropertyOp31
 70
     1
102
RTVSPropertyOp32
 70
     1
102
RTVSPropertyOp33
 70
     1
102
RTVSPropertyOp34
 70
     1
102
RTVSPropertyOp35
 70
     1
102
RTVSPropertyOp36
 70
     1
102
RTVSPropertyOp37
 70
     1
102
RTVSPropertyOp38
 70
     1
102
RTVSPropertyOp39
 70
     1
102
RTVSPropertyOp40
 70
     1
102
RTVSPropertyOp41
 70
     1
102
RTVSPropertyOp42
 70
     1
102
RTVSPropertyOp43
 70
     1
102
RTVSPropertyOp44
 70
     1
102
RTVSPropertyOp45
 70
     1
102
RTVSPropertyOp46
 70
     1
102
RTVSPropertyOp47
 70
     1
102
RTVSPropertyOp48
 70
     1
102
RTVSPropertyOp49
 70
     1
102
RTVSPropertyOp50
 70
     1
102
RTVSPropertyOp51
 70
     0
102
RTVSPropertyOp52
 70
     0
102
RTVSPropertyOp53
 70
     1
102
RTVSPropertyOp54
 70
     1
102
RTVSPropertyOp55
 70
     1
102
RTVSPropertyOp56
 70
     1
102
RTVSPropertyOp57
 70
     1
102
RTVSPropertyOp58
 70
     1
102
RTVSPropertyOp59
 70
     1
102
RTVSPropertyOp60
 70
     1
102
RTVSPropertyOp61
 70
     1
102
RTVSPropertyOp62
 70
     1
  0
XRECORD
  5
559
102
{ACAD_REACTORS
330
558
102
}
330
558
100
AcDbXrecord
280
     1
102
RTVSPost2010Prop28
280
     0
102
RTVSPost2010PropOp28
 70
     1
102
RTVSPost2010Prop29
280
     1
102
RTVSPost2010PropOp29
 70
     1
102
RTVSPost2010Prop30
280
     1
102
RTVSPost2010PropOp30
 70
     1
102
RTVSPost2010Prop31
280
     0
102
RTVSPost2010PropOp31
 70
     1
102
RTVSPost2010Prop32
280
     0
102
RTVSPost2010PropOp32
 70
     1
102
RTVSPost2010Prop33
280
     0
102
RTVSPost2010PropOp33
 70
     1
102
RTVSPost2010Prop34
280
     0
102
RTVSPost2010PropOp34
 70
     1
102
RTVSPost2010Prop35
280
     0
102
RTVSPost2010PropOp35
 70
     1
102
RTVSPost2010Prop36
280
     0
102
RTVSPost2010PropOp36
 70
     1
102
RTVSPost2010Prop37
 90
       50
102
RTVSPost2010PropOp37
 70
     1
102
RTVSPost2010Prop38
140
0.0
102
RTVSPost2010PropOp38
 70
     1
102
RTVSPost2010Prop39
140
1.0
102
RTVSPost2010PropOp39
 70
     1
102
RTVSPost2010Prop40
 90
        0
102
RTVSPost2010PropOp40
 70
     1
102
RTVSPost2010Prop41ColorIndex
 90
       18
102
RTVSPost2010Prop41ColorRGB
 90
        0
102
RTVSPost2010PropOp41
 70
     1
102
RTVSPost2010Prop42
 90
       50
102
RTVSPost2010PropOp42
 70
     1
102
RTVSPost2010Prop43
 90
        3
102
RTVSPost2010PropOp43
 70
     1
102
RTVSPost2010Prop44ColorIndex
 90
        5
102
RTVSPost2010Prop44ColorRGB
 90
      255
102
RTVSPost2010PropOp44
 70
     1
102
RTVSPost2010Prop45
280
     0
102
RTVSPost2010PropOp45
 70
     1
102
RTVSPost2010Prop46
 90
       50
102
RTVSPost2010PropOp46
 70
     1
102
RTVSPost2010Prop47
 90
       50
102
RTVSPost2010PropOp47
 70
     1
102
RTVSPost2010Prop48
 90
       50
102
RTVSPost2010PropOp48
 70
     1
102
RTVSPost2010Prop49
280
     0
102
RTVSPost2010PropOp49
 70
     1
102
RTVSPost2010Prop50
 90
       50
102
RTVSPost2010PropOp50
 70
     1
102
RTVSPost2010Prop51ColorIndex
 90
      256
102
RTVSPost2010Prop51ColorRGB
 90
-16777216
102
RTVSPost2010PropOp51
 70
     0
102
RTVSPost2010Prop52
140
1.0
102
RTVSPost2010PropOp52
 70
     0
102
RTVSPost2010Prop53
 90
        2
102
RTVSPost2010PropOp53
 70
     1
102
RTVSPost2010Prop54
  1
strokes_ogs.tif
102
RTVSPost2010PropOp54
 70
     1
102
RTVSPost2010Prop55
280
     0
102
RTVSPost2010PropOp55
 70
     1
102
RTVSPost2010Prop56
140
1.0
102
RTVSPost2010PropOp56
 70
     1
102
RTVSPost2010Prop57
140
1.0
102
RTVSPost2010PropOp57
 70
     1
102
RTVSPropertyOp0
 70
     1
102
RTVSPropertyOp1
 70
     1
102
RTVSPropertyOp2
 70
     1
102
RTVSPropertyOp3
 70
     1
102
RTVSPropertyOp4
 70
     1
102
RTVSPropertyOp5
 70
     1
102
RTVSPropertyOp6
 70
     1
102
RTVSPropertyOp7
 70
     1
102
RTVSPropertyOp8
 70
     1
102
RTVSPropertyOp9
 70
     1
102
RTVSPropertyOp10
 70
     1
102
RTVSPropertyOp11
 70
     1
102
RTVSPropertyOp12
 70
     1
102
RTVSPropertyOp13
 70
     1
102
RTVSPropertyOp14
 70
     1
102
RTVSPropertyOp15
 70
     1
102
RTVSPropertyOp16
 70
     1
102
RTVSPropertyOp17
 70
     1
102
RTVSPropertyOp18
 70
     1
102
RTVSPropertyOp19
 70
     1
102
RTVSPropertyOp20
 70
     1
102
RTVSPropertyOp21
 70
     1
102
RTVSPropertyOp22
 70
     1
102
RTVSPropertyOp23
 70
     1
102
RTVSPropertyOp24
 70
     1
102
RTVSPropertyOp25
 70
     1
102
RTVSPropertyOp26
 70
     1
102
RTVSPropertyOp27
 70
     1
102
RTVSPropertyOp28
 70
     1
102
RTVSPropertyOp29
 70
     1
102
RTVSPropertyOp30
 70
     1
102
RTVSPropertyOp31
 70
     1
102
RTVSPropertyOp32
 70
     1
102
RTVSPropertyOp33
 70
     1
102
RTVSPropertyOp34
 70
     1
102
RTVSPropertyOp35
 70
     1
102
RTVSPropertyOp36
 70
     1
102
RTVSPropertyOp37
 70
     1
102
RTVSPropertyOp38
 70
     1
102
RTVSPropertyOp39
 70
     1
102
RTVSPropertyOp40
 70
     1
102
RTVSPropertyOp41
 70
     1
102
RTVSPropertyOp42
 70
     1
102
RTVSPropertyOp43
 70
     1
102
RTVSPropertyOp44
 70
     1
102
RTVSPropertyOp45
 70
     1
102
RTVSPropertyOp46
 70
     1
102
RTVSPropertyOp47
 70
     1
102
RTVSPropertyOp48
 70
     1
102
RTVSPropertyOp49
 70
     1
102
RTVSPropertyOp50
 70
     1
102
RTVSPropertyOp51
 70
     0
102
RTVSPropertyOp52
 70
     0
102
RTVSPropertyOp53
 70
     1
102
RTVSPropertyOp54
 70
     1
102
RTVSPropertyOp55
 70
     1
102
RTVSPropertyOp56
 70
     1
102
RTVSPropertyOp57
 70
     1
102
RTVSPropertyOp58
 70
     1
102
RTVSPropertyOp59
 70
     1
102
RTVSPropertyOp60
 70
     1
102
RTVSPropertyOp61
 70
     1
102
RTVSPropertyOp62
 70
     1
  0
XRECORD
  5
54F
102
{ACAD_REACTORS
330
54E
102
}
330
54E
100
AcDbXrecord
280
     1
102
RTVSPost2010Prop28
280
     0
102
RTVSPost2010PropOp28
 70
     1
102
RTVSPost2010Prop29
280
     1
102
RTVSPost2010PropOp29
 70
     1
102
RTVSPost2010Prop30
280
     1
102
RTVSPost2010PropOp30
 70
     1
102
RTVSPost2010Prop31
280
     0
102
RTVSPost2010PropOp31
 70
     1
102
RTVSPost2010Prop32
280
     0
102
RTVSPost2010PropOp32
 70
     1
102
RTVSPost2010Prop33
280
     0
102
RTVSPost2010PropOp33
 70
     1
102
RTVSPost2010Prop34
280
     0
102
RTVSPost2010PropOp34
 70
     1
102
RTVSPost2010Prop35
280
     0
102
RTVSPost2010PropOp35
 70
     1
102
RTVSPost2010Prop36
280
     0
102
RTVSPost2010PropOp36
 70
     1
102
RTVSPost2010Prop37
 90
       50
102
RTVSPost2010PropOp37
 70
     1
102
RTVSPost2010Prop38
140
0.0
102
RTVSPost2010PropOp38
 70
     1
102
RTVSPost2010Prop39
140
1.0
102
RTVSPost2010PropOp39
 70
     1
102
RTVSPost2010Prop40
 90
        0
102
RTVSPost2010PropOp40
 70
     1
102
RTVSPost2010Prop41ColorIndex
 90
       18
102
RTVSPost2010Prop41ColorRGB
 90
        0
102
RTVSPost2010PropOp41
 70
     1
102
RTVSPost2010Prop42
 90
       50
102
RTVSPost2010PropOp42
 70
     1
102
RTVSPost2010Prop43
 90
        3
102
RTVSPost2010PropOp43
 70
     1
102
RTVSPost2010Prop44ColorIndex
 90
        5
102
RTVSPost2010Prop44ColorRGB
 90
      255
102
RTVSPost2010PropOp44
 70
     1
102
RTVSPost2010Prop45
280
     0
102
RTVSPost2010PropOp45
 70
     1
102
RTVSPost2010Prop46
 90
       50
102
RTVSPost2010PropOp46
 70
     1
102
RTVSPost2010Prop47
 90
       50
102
RTVSPost2010PropOp47
 70
     1
102
RTVSPost2010Prop48
 90
       50
102
RTVSPost2010PropOp48
 70
     1
102
RTVSPost2010Prop49
280
     0
102
RTVSPost2010PropOp49
 70
     1
102
RTVSPost2010Prop50
 90
       50
102
RTVSPost2010PropOp50
 70
     1
102
RTVSPost2010Prop51ColorIndex
 90
      256
102
RTVSPost2010Prop51ColorRGB
 90
-16777216
102
RTVSPost2010PropOp51
 70
     0
102
RTVSPost2010Prop52
140
1.0
102
RTVSPost2010PropOp52
 70
     0
102
RTVSPost2010Prop53
 90
        2
102
RTVSPost2010PropOp53
 70
     1
102
RTVSPost2010Prop54
  1
strokes_ogs.tif
102
RTVSPost2010PropOp54
 70
     1
102
RTVSPost2010Prop55
280
     0
102
RTVSPost2010PropOp55
 70
     1
102
RTVSPost2010Prop56
140
1.0
102
RTVSPost2010PropOp56
 70
     1
102
RTVSPost2010Prop57
140
1.0
102
RTVSPost2010PropOp57
 70
     1
102
RTVSPropertyOp0
 70
     1
102
RTVSPropertyOp1
 70
     1
102
RTVSPropertyOp2
 70
     1
102
RTVSPropertyOp3
 70
     1
102
RTVSPropertyOp4
 70
     1
102
RTVSPropertyOp5
 70
     1
102
RTVSPropertyOp6
 70
     1
102
RTVSPropertyOp7
 70
     1
102
RTVSPropertyOp8
 70
     1
102
RTVSPropertyOp9
 70
     1
102
RTVSPropertyOp10
 70
     1
102
RTVSPropertyOp11
 70
     1
102
RTVSPropertyOp12
 70
     1
102
RTVSPropertyOp13
 70
     1
102
RTVSPropertyOp14
 70
     1
102
RTVSPropertyOp15
 70
     1
102
RTVSPropertyOp16
 70
     1
102
RTVSPropertyOp17
 70
     1
102
RTVSPropertyOp18
 70
     1
102
RTVSPropertyOp19
 70
     1
102
RTVSPropertyOp20
 70
     1
102
RTVSPropertyOp21
 70
     1
102
RTVSPropertyOp22
 70
     1
102
RTVSPropertyOp23
 70
     1
102
RTVSPropertyOp24
 70
     1
102
RTVSPropertyOp25
 70
     1
102
RTVSPropertyOp26
 70
     1
102
RTVSPropertyOp27
 70
     1
102
RTVSPropertyOp28
 70
     1
102
RTVSPropertyOp29
 70
     1
102
RTVSPropertyOp30
 70
     1
102
RTVSPropertyOp31
 70
     1
102
RTVSPropertyOp32
 70
     1
102
RTVSPropertyOp33
 70
     1
102
RTVSPropertyOp34
 70
     1
102
RTVSPropertyOp35
 70
     1
102
RTVSPropertyOp36
 70
     1
102
RTVSPropertyOp37
 70
     1
102
RTVSPropertyOp38
 70
     1
102
RTVSPropertyOp39
 70
     1
102
RTVSPropertyOp40
 70
     1
102
RTVSPropertyOp41
 70
     1
102
RTVSPropertyOp42
 70
     1
102
RTVSPropertyOp43
 70
     1
102
RTVSPropertyOp44
 70
     1
102
RTVSPropertyOp45
 70
     1
102
RTVSPropertyOp46
 70
     1
102
RTVSPropertyOp47
 70
     1
102
RTVSPropertyOp48
 70
     1
102
RTVSPropertyOp49
 70
     1
102
RTVSPropertyOp50
 70
     1
102
RTVSPropertyOp51
 70
     0
102
RTVSPropertyOp52
 70
     0
102
RTVSPropertyOp53
 70
     1
102
RTVSPropertyOp54
 70
     1
102
RTVSPropertyOp55
 70
     1
102
RTVSPropertyOp56
 70
     1
102
RTVSPropertyOp57
 70
     1
102
RTVSPropertyOp58
 70
     1
102
RTVSPropertyOp59
 70
     1
102
RTVSPropertyOp60
 70
     1
102
RTVSPropertyOp61
 70
     1
102
RTVSPropertyOp62
 70
     1
  0
XRECORD
  5
543
102
{ACAD_REACTORS
330
542
102
}
330
542
100
AcDbXrecord
280
     1
102
RTVSPost2010Prop28
280
     0
102
RTVSPost2010PropOp28
 70
     1
102
RTVSPost2010Prop29
280
     1
102
RTVSPost2010PropOp29
 70
     1
102
RTVSPost2010Prop30
280
     1
102
RTVSPost2010PropOp30
 70
     1
102
RTVSPost2010Prop31
280
     0
102
RTVSPost2010PropOp31
 70
     1
102
RTVSPost2010Prop32
280
     0
102
RTVSPost2010PropOp32
 70
     1
102
RTVSPost2010Prop33
280
     0
102
RTVSPost2010PropOp33
 70
     1
102
RTVSPost2010Prop34
280
     0
102
RTVSPost2010PropOp34
 70
     1
102
RTVSPost2010Prop35
280
     0
102
RTVSPost2010PropOp35
 70
     1
102
RTVSPost2010Prop36
280
     0
102
RTVSPost2010PropOp36
 70
     1
102
RTVSPost2010Prop37
 90
       50
102
RTVSPost2010PropOp37
 70
     1
102
RTVSPost2010Prop38
140
0.0
102
RTVSPost2010PropOp38
 70
     1
102
RTVSPost2010Prop39
140
1.0
102
RTVSPost2010PropOp39
 70
     1
102
RTVSPost2010Prop40
 90
        0
102
RTVSPost2010PropOp40
 70
     1
102
RTVSPost2010Prop41ColorIndex
 90
       18
102
RTVSPost2010Prop41ColorRGB
 90
        0
102
RTVSPost2010PropOp41
 70
     1
102
RTVSPost2010Prop42
 90
       50
102
RTVSPost2010PropOp42
 70
     1
102
RTVSPost2010Prop43
 90
        3
102
RTVSPost2010PropOp43
 70
     1
102
RTVSPost2010Prop44ColorIndex
 90
        5
102
RTVSPost2010Prop44ColorRGB
 90
      255
102
RTVSPost2010PropOp44
 70
     1
102
RTVSPost2010Prop45
280
     0
102
RTVSPost2010PropOp45
 70
     1
102
RTVSPost2010Prop46
 90
       50
102
RTVSPost2010PropOp46
 70
     1
102
RTVSPost2010Prop47
 90
       50
102
RTVSPost2010PropOp47
 70
     1
102
RTVSPost2010Prop48
 90
       50
102
RTVSPost2010PropOp48
 70
     1
102
RTVSPost2010Prop49
280
     0
102
RTVSPost2010PropOp49
 70
     1
102
RTVSPost2010Prop50
 90
       50
102
RTVSPost2010PropOp50
 70
     1
102
RTVSPost2010Prop51ColorIndex
 90
      256
102
RTVSPost2010Prop51ColorRGB
 90
-16777216
102
RTVSPost2010PropOp51
 70
     0
102
RTVSPost2010Prop52
140
1.0
102
RTVSPost2010PropOp52
 70
     0
102
RTVSPost2010Prop53
 90
        2
102
RTVSPost2010PropOp53
 70
     1
102
RTVSPost2010Prop54
  1
strokes_ogs.tif
102
RTVSPost2010PropOp54
 70
     1
102
RTVSPost2010Prop55
280
     0
102
RTVSPost2010PropOp55
 70
     1
102
RTVSPost2010Prop56
140
1.0
102
RTVSPost2010PropOp56
 70
     1
102
RTVSPost2010Prop57
140
1.0
102
RTVSPost2010PropOp57
 70
     1
102
RTVSPropertyOp0
 70
     1
102
RTVSPropertyOp1
 70
     1
102
RTVSPropertyOp2
 70
     1
102
RTVSPropertyOp3
 70
     1
102
RTVSPropertyOp4
 70
     1
102
RTVSPropertyOp5
 70
     1
102
RTVSPropertyOp6
 70
     1
102
RTVSPropertyOp7
 70
     1
102
RTVSPropertyOp8
 70
     1
102
RTVSPropertyOp9
 70
     1
102
RTVSPropertyOp10
 70
     1
102
RTVSPropertyOp11
 70
     1
102
RTVSPropertyOp12
 70
     1
102
RTVSPropertyOp13
 70
     1
102
RTVSPropertyOp14
 70
     1
102
RTVSPropertyOp15
 70
     1
102
RTVSPropertyOp16
 70
     1
102
RTVSPropertyOp17
 70
     1
102
RTVSPropertyOp18
 70
     1
102
RTVSPropertyOp19
 70
     1
102
RTVSPropertyOp20
 70
     1
102
RTVSPropertyOp21
 70
     1
102
RTVSPropertyOp22
 70
     1
102
RTVSPropertyOp23
 70
     1
102
RTVSPropertyOp24
 70
     1
102
RTVSPropertyOp25
 70
     1
102
RTVSPropertyOp26
 70
     1
102
RTVSPropertyOp27
 70
     1
102
RTVSPropertyOp28
 70
     1
102
RTVSPropertyOp29
 70
     1
102
RTVSPropertyOp30
 70
     1
102
RTVSPropertyOp31
 70
     1
102
RTVSPropertyOp32
 70
     1
102
RTVSPropertyOp33
 70
     1
102
RTVSPropertyOp34
 70
     1
102
RTVSPropertyOp35
 70
     1
102
RTVSPropertyOp36
 70
     1
102
RTVSPropertyOp37
 70
     1
102
RTVSPropertyOp38
 70
     1
102
RTVSPropertyOp39
 70
     1
102
RTVSPropertyOp40
 70
     1
102
RTVSPropertyOp41
 70
     1
102
RTVSPropertyOp42
 70
     1
102
RTVSPropertyOp43
 70
     1
102
RTVSPropertyOp44
 70
     1
102
RTVSPropertyOp45
 70
     1
102
RTVSPropertyOp46
 70
     1
102
RTVSPropertyOp47
 70
     1
102
RTVSPropertyOp48
 70
     1
102
RTVSPropertyOp49
 70
     1
102
RTVSPropertyOp50
 70
     1
102
RTVSPropertyOp51
 70
     0
102
RTVSPropertyOp52
 70
     0
102
RTVSPropertyOp53
 70
     1
102
RTVSPropertyOp54
 70
     1
102
RTVSPropertyOp55
 70
     1
102
RTVSPropertyOp56
 70
     1
102
RTVSPropertyOp57
 70
     1
102
RTVSPropertyOp58
 70
     1
102
RTVSPropertyOp59
 70
     1
102
RTVSPropertyOp60
 70
     1
102
RTVSPropertyOp61
 70
     1
102
RTVSPropertyOp62
 70
     1
  0
XRECORD
  5
55B
102
{ACAD_REACTORS
330
55A
102
}
330
55A
100
AcDbXrecord
280
     1
102
RTVSPost2010Prop28
280
     0
102
RTVSPost2010PropOp28
 70
     1
102
RTVSPost2010Prop29
280
     1
102
RTVSPost2010PropOp29
 70
     1
102
RTVSPost2010Prop30
280
     1
102
RTVSPost2010PropOp30
 70
     1
102
RTVSPost2010Prop31
280
     0
102
RTVSPost2010PropOp31
 70
     1
102
RTVSPost2010Prop32
280
     0
102
RTVSPost2010PropOp32
 70
     1
102
RTVSPost2010Prop33
280
     0
102
RTVSPost2010PropOp33
 70
     1
102
RTVSPost2010Prop34
280
     0
102
RTVSPost2010PropOp34
 70
     1
102
RTVSPost2010Prop35
280
     0
102
RTVSPost2010PropOp35
 70
     1
102
RTVSPost2010Prop36
280
     0
102
RTVSPost2010PropOp36
 70
     1
102
RTVSPost2010Prop37
 90
       50
102
RTVSPost2010PropOp37
 70
     1
102
RTVSPost2010Prop38
140
0.0
102
RTVSPost2010PropOp38
 70
     1
102
RTVSPost2010Prop39
140
1.0
102
RTVSPost2010PropOp39
 70
     1
102
RTVSPost2010Prop40
 90
        0
102
RTVSPost2010PropOp40
 70
     1
102
RTVSPost2010Prop41ColorIndex
 90
       18
102
RTVSPost2010Prop41ColorRGB
 90
        0
102
RTVSPost2010PropOp41
 70
     1
102
RTVSPost2010Prop42
 90
       50
102
RTVSPost2010PropOp42
 70
     1
102
RTVSPost2010Prop43
 90
        3
102
RTVSPost2010PropOp43
 70
     1
102
RTVSPost2010Prop44ColorIndex
 90
        5
102
RTVSPost2010Prop44ColorRGB
 90
      255
102
RTVSPost2010PropOp44
 70
     1
102
RTVSPost2010Prop45
280
     0
102
RTVSPost2010PropOp45
 70
     1
102
RTVSPost2010Prop46
 90
       50
102
RTVSPost2010PropOp46
 70
     1
102
RTVSPost2010Prop47
 90
       50
102
RTVSPost2010PropOp47
 70
     1
102
RTVSPost2010Prop48
 90
       50
102
RTVSPost2010PropOp48
 70
     1
102
RTVSPost2010Prop49
280
     0
102
RTVSPost2010PropOp49
 70
     1
102
RTVSPost2010Prop50
 90
       50
102
RTVSPost2010PropOp50
 70
     1
102
RTVSPost2010Prop51ColorIndex
 90
      256
102
RTVSPost2010Prop51ColorRGB
 90
-16777216
102
RTVSPost2010PropOp51
 70
     0
102
RTVSPost2010Prop52
140
1.0
102
RTVSPost2010PropOp52
 70
     0
102
RTVSPost2010Prop53
 90
        2
102
RTVSPost2010PropOp53
 70
     1
102
RTVSPost2010Prop54
  1
strokes_ogs.tif
102
RTVSPost2010PropOp54
 70
     1
102
RTVSPost2010Prop55
280
     0
102
RTVSPost2010PropOp55
 70
     1
102
RTVSPost2010Prop56
140
1.0
102
RTVSPost2010PropOp56
 70
     1
102
RTVSPost2010Prop57
140
1.0
102
RTVSPost2010PropOp57
 70
     1
102
RTVSPropertyOp0
 70
     1
102
RTVSPropertyOp1
 70
     1
102
RTVSPropertyOp2
 70
     1
102
RTVSPropertyOp3
 70
     1
102
RTVSPropertyOp4
 70
     1
102
RTVSPropertyOp5
 70
     1
102
RTVSPropertyOp6
 70
     1
102
RTVSPropertyOp7
 70
     1
102
RTVSPropertyOp8
 70
     1
102
RTVSPropertyOp9
 70
     1
102
RTVSPropertyOp10
 70
     1
102
RTVSPropertyOp11
 70
     1
102
RTVSPropertyOp12
 70
     1
102
RTVSPropertyOp13
 70
     1
102
RTVSPropertyOp14
 70
     1
102
RTVSPropertyOp15
 70
     1
102
RTVSPropertyOp16
 70
     1
102
RTVSPropertyOp17
 70
     1
102
RTVSPropertyOp18
 70
     1
102
RTVSPropertyOp19
 70
     1
102
RTVSPropertyOp20
 70
     1
102
RTVSPropertyOp21
 70
     1
102
RTVSPropertyOp22
 70
     1
102
RTVSPropertyOp23
 70
     1
102
RTVSPropertyOp24
 70
     1
102
RTVSPropertyOp25
 70
     1
102
RTVSPropertyOp26
 70
     1
102
RTVSPropertyOp27
 70
     1
102
RTVSPropertyOp28
 70
     1
102
RTVSPropertyOp29
 70
     1
102
RTVSPropertyOp30
 70
     1
102
RTVSPropertyOp31
 70
     1
102
RTVSPropertyOp32
 70
     1
102
RTVSPropertyOp33
 70
     1
102
RTVSPropertyOp34
 70
     1
102
RTVSPropertyOp35
 70
     1
102
RTVSPropertyOp36
 70
     1
102
RTVSPropertyOp37
 70
     1
102
RTVSPropertyOp38
 70
     1
102
RTVSPropertyOp39
 70
     1
102
RTVSPropertyOp40
 70
     1
102
RTVSPropertyOp41
 70
     1
102
RTVSPropertyOp42
 70
     1
102
RTVSPropertyOp43
 70
     1
102
RTVSPropertyOp44
 70
     1
102
RTVSPropertyOp45
 70
     1
102
RTVSPropertyOp46
 70
     1
102
RTVSPropertyOp47
 70
     1
102
RTVSPropertyOp48
 70
     1
102
RTVSPropertyOp49
 70
     1
102
RTVSPropertyOp50
 70
     1
102
RTVSPropertyOp51
 70
     0
102
RTVSPropertyOp52
 70
     0
102
RTVSPropertyOp53
 70
     1
102
RTVSPropertyOp54
 70
     1
102
RTVSPropertyOp55
 70
     1
102
RTVSPropertyOp56
 70
     1
102
RTVSPropertyOp57
 70
     1
102
RTVSPropertyOp58
 70
     1
102
RTVSPropertyOp59
 70
     1
102
RTVSPropertyOp60
 70
     1
102
RTVSPropertyOp61
 70
     1
102
RTVSPropertyOp62
 70
     1
  0
ENDSEC
  0
EOF
