  0
SECTION
  2
HEADER
  9
$ACADVER
  1
AC1009
  9
$INSBASE
 10
0.0
 20
0.0
 30
0.0
  9
$EXTMIN
 10
-180.0
 20
-271.68557005312482
 30
0.0
  9
$EXTMAX
 10
180.0
 20
263.53181500000011
 30
0.0
  9
$LIMMIN
 10
0.0
 20
0.0
  9
$LIMMAX
 10
0.0
 20
0.0
  9
$ORTHOMODE
 70
     0
  9
$REGENMODE
 70
     1
  9
$FILLMODE
 70
     1
  9
$QTEXTMODE
 70
     0
  9
$MIRRTEXT
 70
     1
  9
$DRAGMODE
 70
     2
  9
$LTSCALE
 40
10.16
  9
$OSMODE
 70
   231
  9
$ATTMODE
 70
     1
  9
$TEXTSIZE
 40
0.0
  9
$TRACEWID
 40
1.0
  9
$TEXTSTYLE
  7
STANDARD
  9
$CLAYER
  8
DATA
  9
$CELTYPE
  6
CONTINUOUS
  9
$CECOLOR
 62
   256
  9
$DIMSCALE
 40
1.0
  9
$DIMASZ
 40
0.18
  9
$DIMEXO
 40
0.0625
  9
$DIMDLI
 40
0.38
  9
$DIMRND
 40
0.0
  9
$DIMDLE
 40
0.0
  9
$DIMEXE
 40
0.18
  9
$DIMTP
 40
0.0
  9
$DIMTM
 40
0.0
  9
$DIMTXT
 40
0.18
  9
$DIMCEN
 40
0.09
  9
$DIMTSZ
 40
0.0
  9
$DIMTOL
 70
     0
  9
$DIMLIM
 70
     0
  9
$DIMTIH
 70
     1
  9
$DIMTOH
 70
     1
  9
$DIMSE1
 70
     0
  9
$DIMSE2
 70
     0
  9
$DIMTAD
 70
     0
  9
$DIMZIN
 70
     0
  9
$DIMBLK
  1

  9
$DIMASO
 70
     1
  9
$DIMSHO
 70
     1
  9
$DIMPOST
  1

  9
$DIMAPOST
  1

  9
$DIMALT
 70
     0
  9
$DIMALTD
 70
     2
  9
$DIMALTF
 40
25.399999999999999
  9
$DIMLFAC
 40
1.0
  9
$DIMTOFL
 70
     0
  9
$DIMTVP
 40
0.0
  9
$DIMTIX
 70
     0
  9
$DIMSOXD
 70
     0
  9
$DIMSAH
 70
     0
  9
$DIMBLK1
  1

  9
$DIMBLK2
  1

  9
$DIMSTYLE
  2
STANDARD
  9
$DIMCLRD
 70
     0
  9
$DIMCLRE
 70
     0
  9
$DIMCLRT
 70
     0
  9
$DIMTFAC
 40
1.0
  9
$DIMGAP
 40
0.09
  9
$LUNITS
 70
     2
  9
$LUPREC
 70
     4
  9
$SKETCHINC
 40
0.1
  9
$FILLETRAD
 40
0.0
  9
$AUNITS
 70
     0
  9
$AUPREC
 70
     0
  9
$MENU
  1
acad
  9
$ELEVATION
 40
0.0
  9
$PELEVATION
 40
0.0
  9
$THICKNESS
 40
0.0
  9
$LIMCHECK
 70
     0
  9
$BLIPMODE
 70
     0
  9
$CHAMFERA
 40
0.0
  9
$CHAMFERB
 40
0.0
  9
$SKPOLY
 70
     0
  9
$TDCREATE
 40
2456967.7987384261
  9
$TDUPDATE
 40
2456969.4273924418
  9
$TDINDWG
 40
0.0023007407
  9
$TDUSRTIMER
 40
0.0022997454
  9
$USRTIMER
 70
     1
  9
$ANGBASE
 50
0.0
  9
$ANGDIR
 70
     0
  9
$PDMODE
 70
     1
  9
$PDSIZE
 40
-2.0
  9
$PLINEWID
 40
0.0
  9
$COORDS
 70
     2
  9
$SPLFRAME
 70
     0
  9
$SPLINETYPE
 70
     6
  9
$SPLINESEGS
 70
     8
  9
$ATTDIA
 70
     0
  9
$ATTREQ
 70
     1
  9
$HANDLING
 70
     1
  9
$HANDSEED
  5
459
  9
$SURFTAB1
 70
     6
  9
$SURFTAB2
 70
     6
  9
$SURFTYPE
 70
     6
  9
$SURFU
 70
     6
  9
$SURFV
 70
     6
  9
$UCSNAME
  2

  9
$UCSORG
 10
0.0
 20
0.0
 30
0.0
  9
$UCSXDIR
 10
1.0
 20
0.0
 30
0.0
  9
$UCSYDIR
 10
0.0
 20
1.0
 30
0.0
  9
$PUCSNAME
  2

  9
$PUCSORG
 10
0.0
 20
0.0
 30
0.0
  9
$PUCSXDIR
 10
1.0
 20
0.0
 30
0.0
  9
$PUCSYDIR
 10
0.0
 20
1.0
 30
0.0
  9
$USERI1
 70
     0
  9
$USERI2
 70
     0
  9
$USERI3
 70
     0
  9
$USERI4
 70
     0
  9
$USERI5
 70
     0
  9
$USERR1
 40
0.0
  9
$USERR2
 40
0.0
  9
$USERR3
 40
0.0
  9
$USERR4
 40
0.0
  9
$USERR5
 40
0.0
  9
$WORLDVIEW
 70
     1
  9
$SHADEDGE
 70
     3
  9
$SHADEDIF
 70
    70
  9
$TILEMODE
 70
     1
  9
$MAXACTVP
 70
    64
  9
$PLIMCHECK
 70
     0
  9
$PEXTMIN
 10
1.0000000000000000E+020
 20
1.0000000000000000E+020
 30
1.0000000000000000E+020
  9
$PEXTMAX
 10
-1.0000000000000000E+020
 20
-1.0000000000000000E+020
 30
-1.0000000000000000E+020
  9
$PLIMMIN
 10
0.0
 20
0.0
  9
$PLIMMAX
 10
12.0
 20
9.0
  9
$UNITMODE
 70
     0
  9
$VISRETAIN
 70
     0
  9
$PLINEGEN
 70
     1
  9
$PSLTSCALE
 70
     0
  0
ENDSEC
  0
SECTION
  2
TABLES
  0
TABLE
  2
VPORT
 70
     1
  0
VPORT
  2
*ACTIVE
 70
     0
 10
0.0
 20
0.0
 11
1.0
 21
1.0
 12
0.0
 22
-4.0768775265623836
 13
0.0
 23
0.0
 14
1.0
 24
1.0
 15
0.0
 25
0.0
 16
0.0
 26
0.0
 36
1.0
 17
0.0
 27
0.0
 37
0.0
 40
539.21651868988545
 41
2.3715710723192021
 42
50.0
 43
0.0
 44
0.0
 50
0.0
 51
0.0
 71
     0
 72
  2000
 73
     1
 74
     1
 75
     0
 76
     0
 77
     0
 78
     0
  0
ENDTAB
  0
TABLE
  2
LTYPE
 70
     2
  0
LTYPE
  2
CONTINUOUS
 70
     0
  3
Solid line
 72
    65
 73
     0
 40
0.0
  0
ENDTAB
  0
TABLE
  2
LAYER
 70
     6
  0
LAYER
  2
0
 70
     0
 62
     7
  6
CONTINUOUS
  0
LAYER
  2
DATA
 70
     0
 62
     7
  6
CONTINUOUS
  0
LAYER
  2
HIBINO-BASE
 70
     0
 62
     7
  6
CONTINUOUS
  0
LAYER
  2
PATTERN_FILL
 70
     0
 62
     7
  6
CONTINUOUS
  0
LAYER
  2
SPEC
 70
     0
 62
     7
  6
CONTINUOUS
  0
LAYER
  2
DIMNSIONS
 70
     0
 62
     7
  6
CONTINUOUS
  0
ENDTAB
  0
TABLE
  2
STYLE
 70
     2
  0
STYLE
  2
STANDARD
 70
     0
 40
0.0
 41
1.0
 50
0.0
 71
     0
 42
0.0
  3
txt
  4
BIGFONT.SHX
  0
STYLE
  2
ANNOTATIVE
 70
     0
 40
0.0
 41
1.0
 50
0.0
 71
     0
 42
0.2
  3
txt
  4

  0
ENDTAB
  0
TABLE
  2
VIEW
 70
     0
  0
ENDTAB
  0
TABLE
  2
UCS
 70
     0
  0
ENDTAB
  0
TABLE
  2
APPID
 70
     5
  0
APPID
  2
ACAD
 70
     0
  0
APPID
  2
ACADANNOTATIVE
 70
     0
  0
APPID
  2
ACAD_NAV_VCDISPLAY
 70
     0
  0
APPID
  2
ACAD_MLEADERVER
 70
     0
  0
APPID
  2
ACAD_EXEMPT_FROM_CAD_STANDARDS
 70
     0
  0
ENDTAB
  0
TABLE
  2
DIMSTYLE
 70
     2
  0
DIMSTYLE
  2
STANDARD
 70
     0
  3

  4

  5

  6

  7

 40
1.0
 41
0.18
 42
0.0625
 43
0.38
 44
0.18
 45
0.0
 46
0.0
 47
0.0
 48
0.0
140
0.18
141
0.09
142
0.0
143
25.399999999999999
144
1.0
145
0.0
146
1.0
147
0.09
 71
     0
 72
     0
 73
     1
 74
     1
 75
     0
 76
     0
 77
     0
 78
     0
170
     0
171
     2
172
     0
173
     0
174
     0
175
     0
176
     0
177
     0
178
     0
  0
DIMSTYLE
  2
ANNOTATIVE
 70
     0
  3

  4

  5

  6

  7

 40
1.0
 41
0.18
 42
0.0625
 43
0.38
 44
0.18
 45
0.0
 46
0.0
 47
0.0
 48
0.0
140
0.18
141
0.09
142
0.0
143
25.399999999999999
144
1.0
145
0.0
146
1.0
147
0.09
 71
     0
 72
     0
 73
     1
 74
     1
 75
     0
 76
     0
 77
     0
 78
     0
170
     0
171
     2
172
     0
173
     0
174
     0
175
     0
176
     0
177
     0
178
     0
  0
ENDTAB
  0
ENDSEC
  0
SECTION
  2
BLOCKS
  0
BLOCK
  8
0
  2
$MODEL_SPACE
 70
     0
 10
0.0
 20
0.0
 30
0.0
  3
$MODEL_SPACE
  1

  0
ENDBLK
  5
3DD
  8
0
  0
BLOCK
 67
     1
  8
0
  2
$PAPER_SPACE
 70
     0
 10
0.0
 20
0.0
 30
0.0
  3
$PAPER_SPACE
  1

  0
ENDBLK
  5
3D9
 67
     1
  8
0
  0
ENDSEC
  0
SECTION
  2
ENTITIES
  0
LINE
  5
2D
  8
HIBINO-BASE
  6
CONTINUOUS
 62
     7
 10
-180.0
 20
263.53181500000011
 30
0.0
 11
180.0
 21
263.53181500000011
 31
0.0
  0
LINE
  5
2E
  8
HIBINO-BASE
  6
CONTINUOUS
 62
     7
 10
180.0
 20
-256.46818500000001
 30
0.0
 11
-180.0
 21
-256.46818500000001
 31
0.0
  0
LINE
  5
2F
  8
HIBINO-BASE
  6
CONTINUOUS
 62
     7
 10
-180.0
 20
-256.46818500000012
 30
0.0
 11
-180.0
 21
263.53181500000011
 31
0.0
  0
LINE
  5
30
  8
HIBINO-BASE
  6
CONTINUOUS
 62
     7
 10
180.0
 20
263.53181500000011
 30
0.0
 11
180.0
 21
-256.46818500000001
 31
0.0
  0
LINE
  5
31
  8
HIBINO-BASE
  6
CONTINUOUS
 62
     7
 10
0.0000000000000142
 20
-211.46818500000001
 30
0.0
 11
180.0
 21
-211.46818500000001
 31
0.0
  0
LINE
  5
32
  8
HIBINO-BASE
  6
CONTINUOUS
 62
     7
 10
0.0000000000000142
 20
-256.46818500000001
 30
0.0
 11
0.0000000000000142
 21
-211.46818500000001
 31
0.0
  0
TEXT
  5
33
  8
HIBINO-BASE
 62
     7
 10
1.800000000000024
 20
-216.48557166666669
 30
0.0
 40
3.257682291666665
  1
NOTE
 41
0.7
 11
1.800000000000024
 21
-213.22788937499999
 31
0.0
 73
     3
  0
LINE
  5
34
  8
HIBINO-BASE
  6
CONTINUOUS
 62
     7
 10
70.000000000000043
 20
-256.46818500000001
 30
0.0
 11
70.000000000000043
 21
-211.46818500000001
 31
0.0
  0
TEXT
  5
35
  8
HIBINO-BASE
 62
     7
 10
71.799999999999983
 20
-216.48557166666669
 30
0.0
 40
3.257682291666665
  1
TITLE
 41
0.7
 11
71.799999999999983
 21
-213.22788937499999
 31
0.0
 73
     3
  0
LINE
  5
36
  8
HIBINO-BASE
  6
CONTINUOUS
 62
     7
 10
0.0000000000000142
 20
-236.46818500000001
 30
0.0
 11
180.0
 21
-236.46818500000001
 31
0.0
  0
TEXT
  5
37
  8
HIBINO-BASE
 62
     7
 10
96.799999999999983
 20
-241.37293166666669
 30
0.0
 40
3.257682291666665
  1
DRAWN
 41
0.7
 11
96.799999999999983
 21
-238.11524937499999
 31
0.0
 73
     3
  0
TEXT
  5
38
  8
HIBINO-BASE
 62
     7
 10
46.799999999999983
 20
-241.37293166666669
 30
0.0
 40
3.257682291666665
  1
DATE
 41
0.7
 11
46.799999999999983
 21
-238.11524937499999
 31
0.0
 73
     3
  0
TEXT
  5
39
  8
HIBINO-BASE
 62
     7
 10
26.800000000000001
 20
-241.37293166666669
 30
0.0
 40
3.257682291666665
  1
SCALE
 41
0.7
 11
26.800000000000001
 21
-238.11524937499999
 31
0.0
 73
     3
  0
TEXT
  5
3A
  8
HIBINO-BASE
 62
     7
 10
71.799999999999983
 20
-241.37293166666669
 30
0.0
 40
3.257682291666665
  1
DESIGN
 41
0.7
 11
71.799999999999983
 21
-238.11524937499999
 31
0.0
 73
     3
  0
TEXT
  5
3B
  8
HIBINO-BASE
 62
     7
 10
146.7999999999999
 20
-241.37293166666669
 30
0.0
 40
3.257682291666665
  1
DRAWING NO.
 41
0.7
 11
146.7999999999999
 21
-238.11524937499999
 31
0.0
 73
     3
  0
TEXT
  5
3C
  8
HIBINO-BASE
 62
     7
 10
121.7999999999999
 20
-241.37293166666669
 30
0.0
 40
3.257682291666665
  1
CHECK
 41
0.7
 11
121.7999999999999
 21
-238.11524937499999
 31
0.0
 73
     3
  0
LINE
  5
3D
  8
HIBINO-BASE
  6
CONTINUOUS
 62
     7
 10
28.750000000000011
 20
-253.96818500000001
 30
0.0
 11
36.250000000000021
 21
-246.46818500000001
 31
0.0
  0
TEXT
  5
3E
  8
HIBINO-BASE
 62
     7
 10
27.500000000000011
 20
-248.68607166666661
 30
0.0
 40
3.257682291666665
  1
1
 41
0.7
 11
27.500000000000011
 21
-245.42838937499999
 31
0.0
 73
     3
  0
LINE
  5
3F
  8
HIBINO-BASE
  6
CONTINUOUS
 62
     7
 10
25.000000000000011
 20
-256.46818500000001
 30
0.0
 11
25.000000000000011
 21
-236.46818500000001
 31
0.0
  0
LINE
  5
40
  8
HIBINO-BASE
  6
CONTINUOUS
 62
     7
 10
44.999999999999993
 20
-256.46818500000001
 30
0.0
 11
44.999999999999993
 21
-236.46818500000001
 31
0.0
  0
LINE
  5
41
  8
HIBINO-BASE
  6
CONTINUOUS
 62
     7
 10
94.999999999999957
 20
-236.46818500000001
 30
0.0
 11
94.999999999999957
 21
-256.46818500000001
 31
0.0
  0
LINE
  5
42
  8
HIBINO-BASE
  6
CONTINUOUS
 62
     7
 10
145.0
 20
-236.46818500000001
 30
0.0
 11
145.0
 21
-256.46818500000001
 31
0.0
  0
LINE
  5
43
  8
HIBINO-BASE
  6
CONTINUOUS
 62
     7
 10
119.9999999999999
 20
-256.46818500000001
 30
0.0
 11
119.9999999999999
 21
-236.46818500000001
 31
0.0
  0
TEXT
  5
44
  8
HIBINO-BASE
 62
     7
 10
46.713080000000019
 20
-250.7408916666667
 30
0.0
 40
3.257682291666665
  1
'14.11.
 41
0.7
 11
46.713080000000019
 21
-247.483209375
 31
0.0
 73
     3
  0
TEXT
  5
45
  8
HIBINO-BASE
 62
     7
 10
35.000000000000007
 20
-252.43607166666669
 30
0.0
 40
3.257682291666665
  1
2
 41
0.7
 11
35.000000000000007
 21
-249.17838937499999
 31
0.0
 73
     3
  0
TEXT
  5
46
  8
HIBINO-BASE
 62
     7
 10
7.766666666666719
 20
-252.51618499999989
 30
0.0
 40
6.5153645833333309
  1
A4
 41
0.7
 11
7.766666666666719
 21
-246.00082041666661
 31
0.0
 73
     3
  0
TEXT
  5
47
  8
HIBINO-BASE
 62
     7
 10
1.9166666666666701
 20
-241.7070949999999
 30
0.0
 40
3.257682291666665
  1
PAPER SIZE
 41
0.7
 11
1.916666666666671
 21
-238.44941270833331
 31
0.0
 73
     3
  0
TEXT
  5
48
  8
HIBINO-BASE
 62
     7
 10
-165.63199999999981
 20
-269.28554059999988
 30
0.0
 40
7.2000883593749991
  1
Hibino Corporation
 41
0.7
 11
-165.63199999999981
 21
-262.08545224062487
 31
0.0
 73
     3
  0
TEXT
  5
49
  8
HIBINO-BASE
 62
     7
 10
100.13678
 20
-269.28554059999988
 30
0.0
 40
7.2000883593749991
  1
ヒビノ株式会社
 41
0.7
 11
100.13678
 21
-262.08545224062487
 31
0.0
 73
     3
  0
TEXT
  5
4A
  8
HIBINO-BASE
 62
     7
 10
98.011620022069224
 20
-250.7408916666667
 30
0.0
 40
3.257682291666665
  1
T.Ootake
 41
0.7
 11
98.011620022069224
 21
-247.483209375
 31
0.0
 73
     3
  0
LINE
  5
4B
  8
PATTERN_FILL
  6
CONTINUOUS
 62
     7
 10
-81.250000000000014
 20
-6.3537622156637372
 30
0.0
 11
-80.395285880306034
 21
-5.4990480959697532
 31
0.0
  0
LINE
  5
4C
  8
PATTERN_FILL
  6
CONTINUOUS
 62
     7
 10
-81.096237784336296
 20
-7.7000000000000179
 30
0.0
 11
-78.895285880306034
 21
-5.4990480959697638
 31
0.0
  0
LINE
  5
4D
  8
PATTERN_FILL
  6
CONTINUOUS
 62
     7
 10
-81.25
 20
-9.3537622156637195
 30
0.0
 11
-81.046237784336299
 21
-9.1500000000000181
 31
0.0
  0
LINE
  5
4E
  8
PATTERN_FILL
  6
CONTINUOUS
 62
     7
 10
-79.596237784336296
 20
-7.7000000000000179
 30
0.0
 11
-77.395285880306034
 21
-5.4990480959697532
 31
0.0
  0
LINE
  5
4F
  8
PATTERN_FILL
  6
CONTINUOUS
 62
     7
 10
-81.250000000000014
 20
-10.853762215663719
 30
0.0
 11
-79.546237784336299
 21
-9.1500000000000234
 31
0.0
  0
LINE
  5
50
  8
PATTERN_FILL
  6
CONTINUOUS
 62
     7
 10
-78.096237784336296
 20
-7.7000000000000171
 30
0.0
 11
-75.895285880306034
 21
-5.4990480959697612
 31
0.0
  0
LINE
  5
51
  8
PATTERN_FILL
  6
CONTINUOUS
 62
     7
 10
-80.246237784336302
 20
-11.350000000000019
 30
0.0
 11
-78.046237784336284
 21
-9.1500000000000181
 31
0.0
  0
LINE
  5
52
  8
PATTERN_FILL
  6
CONTINUOUS
 62
     7
 10
-76.596237784336296
 20
-7.7000000000000179
 30
0.0
 11
-74.395285880306034
 21
-5.4990480959697612
 31
0.0
  0
LINE
  5
53
  8
PATTERN_FILL
  6
CONTINUOUS
 62
     7
 10
-81.250000000000014
 20
-13.8537622156637
 30
0.0
 11
-80.196237784336304
 21
-12.80000000000002
 31
0.0
  0
LINE
  5
54
  8
PATTERN_FILL
  6
CONTINUOUS
 62
     7
 10
-78.746237784336302
 20
-11.350000000000019
 30
0.0
 11
-76.546237784336299
 21
-9.150000000000027
 31
0.0
  0
LINE
  5
55
  8
PATTERN_FILL
  6
CONTINUOUS
 62
     7
 10
-75.096237784336296
 20
-7.7000000000000242
 30
0.0
 11
-72.895285880306034
 21
-5.4990480959697612
 31
0.0
  0
LINE
  5
56
  8
PATTERN_FILL
  6
CONTINUOUS
 62
     7
 10
-80.89623778433635
 20
-15.000000000000011
 30
0.0
 11
-78.696237784336304
 21
-12.80000000000001
 31
0.0
  0
LINE
  5
57
  8
PATTERN_FILL
  6
CONTINUOUS
 62
     7
 10
-77.246237784336302
 20
-11.350000000000019
 30
0.0
 11
-75.046237784336299
 21
-9.1500000000000181
 31
0.0
  0
LINE
  5
58
  8
PATTERN_FILL
  6
CONTINUOUS
 62
     7
 10
-79.396237784336336
 20
-15.00000000000002
 30
0.0
 11
-77.196237784336304
 21
-12.80000000000002
 31
0.0
  0
LINE
  5
59
  8
PATTERN_FILL
  6
CONTINUOUS
 62
     7
 10
-75.746237784336302
 20
-11.350000000000019
 30
0.0
 11
-73.546237784336299
 21
-9.1500000000000181
 31
0.0
  0
LINE
  5
5A
  8
PATTERN_FILL
  6
CONTINUOUS
 62
     7
 10
-72.096237784336296
 20
-7.7000000000000179
 30
0.0
 11
-69.895285880306034
 21
-5.4990480959697692
 31
0.0
  0
LINE
  5
5B
  8
PATTERN_FILL
  6
CONTINUOUS
 62
     7
 10
-77.89623778433635
 20
-15.000000000000011
 30
0.0
 11
-75.696237784336304
 21
-12.80000000000001
 31
0.0
  0
LINE
  5
5C
  8
PATTERN_FILL
  6
CONTINUOUS
 62
     7
 10
-74.246237784336302
 20
-11.350000000000019
 30
0.0
 11
-72.046237784336313
 21
-9.1500000000000181
 31
0.0
  0
LINE
  5
5D
  8
PATTERN_FILL
  6
CONTINUOUS
 62
     7
 10
-70.596237784336296
 20
-7.7000000000000171
 30
0.0
 11
-68.850000000000009
 21
-5.9537622156637324
 31
0.0
  0
LINE
  5
5E
  8
PATTERN_FILL
  6
CONTINUOUS
 62
     7
 10
-76.39623778433635
 20
-15.000000000000011
 30
0.0
 11
-74.196237784336304
 21
-12.80000000000002
 31
0.0
  0
LINE
  5
5F
  8
PATTERN_FILL
  6
CONTINUOUS
 62
     7
 10
-72.746237784336302
 20
-11.350000000000019
 30
0.0
 11
-70.546237784336313
 21
-9.1500000000000181
 31
0.0
  0
LINE
  5
60
  8
PATTERN_FILL
  6
CONTINUOUS
 62
     7
 10
-69.096237784336296
 20
-7.7000000000000171
 30
0.0
 11
-68.850000000000009
 21
-7.4537622156637289
 31
0.0
  0
LINE
  5
61
  8
PATTERN_FILL
  6
CONTINUOUS
 62
     7
 10
-74.89623778433635
 20
-15.00000000000002
 30
0.0
 11
-72.696237784336304
 21
-12.80000000000002
 31
0.0
  0
LINE
  5
62
  8
PATTERN_FILL
  6
CONTINUOUS
 62
     7
 10
-71.246237784336302
 20
-11.350000000000019
 30
0.0
 11
-69.046237784336313
 21
-9.1500000000000181
 31
0.0
  0
LINE
  5
63
  8
PATTERN_FILL
  6
CONTINUOUS
 62
     7
 10
-73.396237784336293
 20
-15.000000000000011
 30
0.0
 11
-71.196237784336304
 21
-12.80000000000002
 31
0.0
  0
LINE
  5
64
  8
PATTERN_FILL
  6
CONTINUOUS
 62
     7
 10
-69.746237784336316
 20
-11.350000000000019
 30
0.0
 11
-68.850000000000009
 21
-10.45376221566371
 31
0.0
  0
LINE
  5
65
  8
PATTERN_FILL
  6
CONTINUOUS
 62
     7
 10
-71.896237784336307
 20
-15.000000000000011
 30
0.0
 11
-69.696237784336319
 21
-12.80000000000002
 31
0.0
  0
LINE
  5
66
  8
PATTERN_FILL
  6
CONTINUOUS
 62
     7
 10
-70.396237784336307
 20
-15.000000000000011
 30
0.0
 11
-68.850000000000009
 21
-13.4537622156637
 31
0.0
  0
LINE
  5
67
  8
PATTERN_FILL
  6
CONTINUOUS
 62
     7
 10
-68.850000000000009
 20
-6.5443339762758139
 30
0.0
 11
-69.895285880306034
 21
-5.4990480959697612
 31
0.0
  0
LINE
  5
68
  8
PATTERN_FILL
  6
CONTINUOUS
 62
     7
 10
-69.194333976275814
 20
-7.7000000000000179
 30
0.0
 11
-71.395285880306034
 21
-5.4990480959697612
 31
0.0
  0
LINE
  5
69
  8
PATTERN_FILL
  6
CONTINUOUS
 62
     7
 10
-68.850000000000009
 20
-9.5443339762758637
 30
0.0
 11
-69.24433397627584
 21
-9.1500000000000181
 31
0.0
  0
LINE
  5
6A
  8
PATTERN_FILL
  6
CONTINUOUS
 62
     7
 10
-70.694333976275828
 20
-7.7000000000000171
 30
0.0
 11
-72.895285880306034
 21
-5.4990480959697612
 31
0.0
  0
LINE
  5
6B
  8
PATTERN_FILL
  6
CONTINUOUS
 62
     7
 10
-68.850000000000009
 20
-11.04433397627589
 30
0.0
 11
-70.74433397627584
 21
-9.1500000000000181
 31
0.0
  0
LINE
  5
6C
  8
PATTERN_FILL
  6
CONTINUOUS
 62
     7
 10
-72.194333976275814
 20
-7.7000000000000179
 30
0.0
 11
-74.395285880306034
 21
-5.4990480959697612
 31
0.0
  0
LINE
  5
6D
  8
PATTERN_FILL
  6
CONTINUOUS
 62
     7
 10
-70.04433397627588
 20
-11.350000000000019
 30
0.0
 11
-72.24433397627584
 21
-9.1500000000000181
 31
0.0
  0
LINE
  5
6E
  8
PATTERN_FILL
  6
CONTINUOUS
 62
     7
 10
-73.694333976275843
 20
-7.7000000000000179
 30
0.0
 11
-75.895285880306034
 21
-5.4990480959697692
 31
0.0
  0
LINE
  5
6F
  8
PATTERN_FILL
  6
CONTINUOUS
 62
     7
 10
-68.850000000000009
 20
-14.044333976275951
 30
0.0
 11
-70.094333976275919
 21
-12.80000000000002
 31
0.0
  0
LINE
  5
70
  8
PATTERN_FILL
  6
CONTINUOUS
 62
     7
 10
-71.544333976275894
 20
-11.350000000000019
 30
0.0
 11
-73.744333976275811
 21
-9.1500000000000181
 31
0.0
  0
LINE
  5
71
  8
PATTERN_FILL
  6
CONTINUOUS
 62
     7
 10
-75.194333976275843
 20
-7.7000000000000179
 30
0.0
 11
-77.395285880306034
 21
-5.499048095969771
 31
0.0
  0
LINE
  5
72
  8
PATTERN_FILL
  6
CONTINUOUS
 62
     7
 10
-69.394333976275945
 20
-15.00000000000002
 30
0.0
 11
-71.594333976275919
 21
-12.80000000000002
 31
0.0
  0
LINE
  5
73
  8
PATTERN_FILL
  6
CONTINUOUS
 62
     7
 10
-73.04433397627588
 20
-11.350000000000019
 30
0.0
 11
-75.24433397627584
 21
-9.1500000000000181
 31
0.0
  0
LINE
  5
74
  8
PATTERN_FILL
  6
CONTINUOUS
 62
     7
 10
-76.694333976275814
 20
-7.7000000000000242
 30
0.0
 11
-78.895285880306034
 21
-5.4990480959697692
 31
0.0
  0
LINE
  5
75
  8
PATTERN_FILL
  6
CONTINUOUS
 62
     7
 10
-70.894333976275945
 20
-15.00000000000002
 30
0.0
 11
-73.094333976275905
 21
-12.80000000000002
 31
0.0
  0
LINE
  5
76
  8
PATTERN_FILL
  6
CONTINUOUS
 62
     7
 10
-74.54433397627588
 20
-11.350000000000019
 30
0.0
 11
-76.74433397627584
 21
-9.1500000000000181
 31
0.0
  0
LINE
  5
77
  8
PATTERN_FILL
  6
CONTINUOUS
 62
     7
 10
-78.194333976275814
 20
-7.7000000000000179
 30
0.0
 11
-80.395285880306034
 21
-5.4990480959697638
 31
0.0
  0
LINE
  5
78
  8
PATTERN_FILL
  6
CONTINUOUS
 62
     7
 10
-72.394333976275945
 20
-15.00000000000002
 30
0.0
 11
-74.594333976275905
 21
-12.80000000000002
 31
0.0
  0
LINE
  5
79
  8
PATTERN_FILL
  6
CONTINUOUS
 62
     7
 10
-76.044333976275865
 20
-11.350000000000019
 30
0.0
 11
-78.24433397627584
 21
-9.1500000000000181
 31
0.0
  0
LINE
  5
7A
  8
PATTERN_FILL
  6
CONTINUOUS
 62
     7
 10
-79.694333976275843
 20
-7.7000000000000179
 30
0.0
 11
-81.250000000000014
 21
-6.1443339762758002
 31
0.0
  0
LINE
  5
7B
  8
PATTERN_FILL
  6
CONTINUOUS
 62
     7
 10
-73.894333976275945
 20
-15.00000000000002
 30
0.0
 11
-76.094333976275905
 21
-12.80000000000002
 31
0.0
  0
LINE
  5
7C
  8
PATTERN_FILL
  6
CONTINUOUS
 62
     7
 10
-77.54433397627588
 20
-11.350000000000019
 30
0.0
 11
-79.74433397627584
 21
-9.1500000000000181
 31
0.0
  0
LINE
  5
7D
  8
PATTERN_FILL
  6
CONTINUOUS
 62
     7
 10
-75.394333976275945
 20
-15.00000000000002
 30
0.0
 11
-77.594333976275905
 21
-12.80000000000002
 31
0.0
  0
LINE
  5
7E
  8
PATTERN_FILL
  6
CONTINUOUS
 62
     7
 10
-79.04433397627588
 20
-11.350000000000019
 30
0.0
 11
-81.244333976275826
 21
-9.150000000000027
 31
0.0
  0
LINE
  5
7F
  8
PATTERN_FILL
  6
CONTINUOUS
 62
     7
 10
-76.894333976275945
 20
-15.00000000000002
 30
0.0
 11
-79.094333976275919
 21
-12.80000000000002
 31
0.0
  0
LINE
  5
80
  8
PATTERN_FILL
  6
CONTINUOUS
 62
     7
 10
-80.544333976275894
 20
-11.350000000000019
 30
0.0
 11
-81.250000000000014
 21
-10.64433397627587
 31
0.0
  0
LINE
  5
81
  8
PATTERN_FILL
  6
CONTINUOUS
 62
     7
 10
-78.394333976275945
 20
-15.00000000000002
 30
0.0
 11
-80.594333976275905
 21
-12.80000000000002
 31
0.0
  0
LINE
  5
82
  8
PATTERN_FILL
  6
CONTINUOUS
 62
     7
 10
-79.894333976275973
 20
-15.000000000000011
 30
0.0
 11
-81.250000000000014
 21
-13.644333976275931
 31
0.0
  0
LINE
  5
83
  8
PATTERN_FILL
  6
CONTINUOUS
 62
     7
 10
-73.596237784336296
 20
-7.7000000000000242
 30
0.0
 11
-71.395285880306034
 21
-5.4990480959697612
 31
0.0
  0
LINE
  5
84
  8
PATTERN_FILL
  6
CONTINUOUS
 62
     7
 10
-31.250000000000011
 20
-6.3537622156637372
 30
0.0
 11
-30.39528588030603
 21
-5.4990480959697532
 31
0.0
  0
LINE
  5
85
  8
PATTERN_FILL
  6
CONTINUOUS
 62
     7
 10
-31.096237784336299
 20
-7.7000000000000179
 30
0.0
 11
-28.895285880306041
 21
-5.4990480959697638
 31
0.0
  0
LINE
  5
86
  8
PATTERN_FILL
  6
CONTINUOUS
 62
     7
 10
-31.250000000000011
 20
-9.3537622156637195
 30
0.0
 11
-31.046237784336309
 21
-9.1500000000000181
 31
0.0
  0
LINE
  5
87
  8
PATTERN_FILL
  6
CONTINUOUS
 62
     7
 10
-29.59623778433631
 20
-7.7000000000000179
 30
0.0
 11
-27.39528588030603
 21
-5.4990480959697532
 31
0.0
  0
LINE
  5
88
  8
PATTERN_FILL
  6
CONTINUOUS
 62
     7
 10
-31.250000000000011
 20
-10.853762215663719
 30
0.0
 11
-29.546237784336309
 21
-9.1500000000000234
 31
0.0
  0
LINE
  5
89
  8
PATTERN_FILL
  6
CONTINUOUS
 62
     7
 10
-28.096237784336299
 20
-7.7000000000000171
 30
0.0
 11
-25.89528588030603
 21
-5.4990480959697612
 31
0.0
  0
LINE
  5
8A
  8
PATTERN_FILL
  6
CONTINUOUS
 62
     7
 10
-30.246237784336309
 20
-11.350000000000019
 30
0.0
 11
-28.046237784336309
 21
-9.1500000000000181
 31
0.0
  0
LINE
  5
8B
  8
PATTERN_FILL
  6
CONTINUOUS
 62
     7
 10
-26.596237784336299
 20
-7.7000000000000179
 30
0.0
 11
-24.39528588030603
 21
-5.4990480959697612
 31
0.0
  0
LINE
  5
8C
  8
PATTERN_FILL
  6
CONTINUOUS
 62
     7
 10
-31.250000000000011
 20
-13.8537622156637
 30
0.0
 11
-30.196237784336319
 21
-12.80000000000002
 31
0.0
  0
LINE
  5
8D
  8
PATTERN_FILL
  6
CONTINUOUS
 62
     7
 10
-28.746237784336309
 20
-11.350000000000019
 30
0.0
 11
-26.546237784336309
 21
-9.150000000000027
 31
0.0
  0
LINE
  5
8E
  8
PATTERN_FILL
  6
CONTINUOUS
 62
     7
 10
-25.096237784336299
 20
-7.7000000000000242
 30
0.0
 11
-22.89528588030603
 21
-5.4990480959697612
 31
0.0
  0
LINE
  5
8F
  8
PATTERN_FILL
  6
CONTINUOUS
 62
     7
 10
-30.896237784336329
 20
-15.000000000000011
 30
0.0
 11
-28.696237784336319
 21
-12.80000000000001
 31
0.0
  0
LINE
  5
90
  8
PATTERN_FILL
  6
CONTINUOUS
 62
     7
 10
-27.246237784336319
 20
-11.350000000000019
 30
0.0
 11
-25.046237784336309
 21
-9.1500000000000181
 31
0.0
  0
LINE
  5
91
  8
PATTERN_FILL
  6
CONTINUOUS
 62
     7
 10
-29.396237784336329
 20
-15.00000000000002
 30
0.0
 11
-27.196237784336311
 21
-12.80000000000002
 31
0.0
  0
LINE
  5
92
  8
PATTERN_FILL
  6
CONTINUOUS
 62
     7
 10
-25.746237784336319
 20
-11.350000000000019
 30
0.0
 11
-23.546237784336309
 21
-9.1500000000000181
 31
0.0
  0
LINE
  5
93
  8
PATTERN_FILL
  6
CONTINUOUS
 62
     7
 10
-22.09623778433631
 20
-7.7000000000000179
 30
0.0
 11
-19.89528588030603
 21
-5.4990480959697692
 31
0.0
  0
LINE
  5
94
  8
PATTERN_FILL
  6
CONTINUOUS
 62
     7
 10
-27.896237784336329
 20
-15.000000000000011
 30
0.0
 11
-25.696237784336319
 21
-12.80000000000001
 31
0.0
  0
LINE
  5
95
  8
PATTERN_FILL
  6
CONTINUOUS
 62
     7
 10
-24.246237784336319
 20
-11.350000000000019
 30
0.0
 11
-22.046237784336309
 21
-9.1500000000000181
 31
0.0
  0
LINE
  5
96
  8
PATTERN_FILL
  6
CONTINUOUS
 62
     7
 10
-20.596237784336299
 20
-7.7000000000000171
 30
0.0
 11
-18.850000000000009
 21
-5.9537622156637324
 31
0.0
  0
LINE
  5
97
  8
PATTERN_FILL
  6
CONTINUOUS
 62
     7
 10
-26.396237784336329
 20
-15.000000000000011
 30
0.0
 11
-24.196237784336319
 21
-12.80000000000002
 31
0.0
  0
LINE
  5
98
  8
PATTERN_FILL
  6
CONTINUOUS
 62
     7
 10
-22.746237784336319
 20
-11.350000000000019
 30
0.0
 11
-20.546237784336309
 21
-9.1500000000000181
 31
0.0
  0
LINE
  5
99
  8
PATTERN_FILL
  6
CONTINUOUS
 62
     7
 10
-19.096237784336289
 20
-7.7000000000000171
 30
0.0
 11
-18.850000000000009
 21
-7.4537622156637289
 31
0.0
  0
LINE
  5
9A
  8
PATTERN_FILL
  6
CONTINUOUS
 62
     7
 10
-24.896237784336329
 20
-15.00000000000002
 30
0.0
 11
-22.696237784336319
 21
-12.80000000000002
 31
0.0
  0
LINE
  5
9B
  8
PATTERN_FILL
  6
CONTINUOUS
 62
     7
 10
-21.246237784336309
 20
-11.350000000000019
 30
0.0
 11
-19.046237784336299
 21
-9.1500000000000181
 31
0.0
  0
LINE
  5
9C
  8
PATTERN_FILL
  6
CONTINUOUS
 62
     7
 10
-23.396237784336321
 20
-15.000000000000011
 30
0.0
 11
-21.196237784336319
 21
-12.80000000000002
 31
0.0
  0
LINE
  5
9D
  8
PATTERN_FILL
  6
CONTINUOUS
 62
     7
 10
-19.746237784336319
 20
-11.350000000000019
 30
0.0
 11
-18.850000000000009
 21
-10.45376221566371
 31
0.0
  0
LINE
  5
9E
  8
PATTERN_FILL
  6
CONTINUOUS
 62
     7
 10
-21.896237784336321
 20
-15.000000000000011
 30
0.0
 11
-19.696237784336319
 21
-12.80000000000002
 31
0.0
  0
LINE
  5
9F
  8
PATTERN_FILL
  6
CONTINUOUS
 62
     7
 10
-20.396237784336321
 20
-15.000000000000011
 30
0.0
 11
-18.850000000000009
 21
-13.4537622156637
 31
0.0
  0
LINE
  5
A0
  8
PATTERN_FILL
  6
CONTINUOUS
 62
     7
 10
-18.850000000000009
 20
-6.5443339762758139
 30
0.0
 11
-19.89528588030603
 21
-5.4990480959697612
 31
0.0
  0
LINE
  5
A1
  8
PATTERN_FILL
  6
CONTINUOUS
 62
     7
 10
-19.194333976275811
 20
-7.7000000000000179
 30
0.0
 11
-21.395285880306041
 21
-5.4990480959697612
 31
0.0
  0
LINE
  5
A2
  8
PATTERN_FILL
  6
CONTINUOUS
 62
     7
 10
-18.850000000000009
 20
-9.5443339762758637
 30
0.0
 11
-19.24433397627584
 21
-9.1500000000000181
 31
0.0
  0
LINE
  5
A3
  8
PATTERN_FILL
  6
CONTINUOUS
 62
     7
 10
-20.694333976275821
 20
-7.7000000000000171
 30
0.0
 11
-22.89528588030603
 21
-5.4990480959697612
 31
0.0
  0
LINE
  5
A4
  8
PATTERN_FILL
  6
CONTINUOUS
 62
     7
 10
-18.850000000000009
 20
-11.04433397627589
 30
0.0
 11
-20.744333976275851
 21
-9.1500000000000181
 31
0.0
  0
LINE
  5
A5
  8
PATTERN_FILL
  6
CONTINUOUS
 62
     7
 10
-22.194333976275811
 20
-7.7000000000000179
 30
0.0
 11
-24.39528588030603
 21
-5.4990480959697612
 31
0.0
  0
LINE
  5
A6
  8
PATTERN_FILL
  6
CONTINUOUS
 62
     7
 10
-20.04433397627589
 20
-11.350000000000019
 30
0.0
 11
-22.244333976275851
 21
-9.1500000000000181
 31
0.0
  0
LINE
  5
A7
  8
PATTERN_FILL
  6
CONTINUOUS
 62
     7
 10
-23.694333976275821
 20
-7.7000000000000179
 30
0.0
 11
-25.89528588030603
 21
-5.4990480959697692
 31
0.0
  0
LINE
  5
A8
  8
PATTERN_FILL
  6
CONTINUOUS
 62
     7
 10
-18.850000000000009
 20
-14.044333976275951
 30
0.0
 11
-20.094333976275902
 21
-12.80000000000002
 31
0.0
  0
LINE
  5
A9
  8
PATTERN_FILL
  6
CONTINUOUS
 62
     7
 10
-21.544333976275901
 20
-11.350000000000019
 30
0.0
 11
-23.744333976275851
 21
-9.1500000000000181
 31
0.0
  0
LINE
  5
AA
  8
PATTERN_FILL
  6
CONTINUOUS
 62
     7
 10
-25.194333976275821
 20
-7.7000000000000179
 30
0.0
 11
-27.39528588030603
 21
-5.499048095969771
 31
0.0
  0
LINE
  5
AB
  8
PATTERN_FILL
  6
CONTINUOUS
 62
     7
 10
-19.394333976275949
 20
-15.00000000000002
 30
0.0
 11
-21.594333976275919
 21
-12.80000000000002
 31
0.0
  0
LINE
  5
AC
  8
PATTERN_FILL
  6
CONTINUOUS
 62
     7
 10
-23.04433397627589
 20
-11.350000000000019
 30
0.0
 11
-25.244333976275851
 21
-9.1500000000000181
 31
0.0
  0
LINE
  5
AD
  8
PATTERN_FILL
  6
CONTINUOUS
 62
     7
 10
-26.694333976275811
 20
-7.7000000000000242
 30
0.0
 11
-28.895285880306041
 21
-5.4990480959697692
 31
0.0
  0
LINE
  5
AE
  8
PATTERN_FILL
  6
CONTINUOUS
 62
     7
 10
-20.894333976275941
 20
-15.00000000000002
 30
0.0
 11
-23.094333976275909
 21
-12.80000000000002
 31
0.0
  0
LINE
  5
AF
  8
PATTERN_FILL
  6
CONTINUOUS
 62
     7
 10
-24.54433397627588
 20
-11.350000000000019
 30
0.0
 11
-26.74433397627584
 21
-9.1500000000000181
 31
0.0
  0
LINE
  5
B0
  8
PATTERN_FILL
  6
CONTINUOUS
 62
     7
 10
-28.194333976275811
 20
-7.7000000000000179
 30
0.0
 11
-30.39528588030603
 21
-5.4990480959697638
 31
0.0
  0
LINE
  5
B1
  8
PATTERN_FILL
  6
CONTINUOUS
 62
     7
 10
-22.394333976275941
 20
-15.00000000000002
 30
0.0
 11
-24.594333976275909
 21
-12.80000000000002
 31
0.0
  0
LINE
  5
B2
  8
PATTERN_FILL
  6
CONTINUOUS
 62
     7
 10
-26.04433397627588
 20
-11.350000000000019
 30
0.0
 11
-28.24433397627584
 21
-9.1500000000000181
 31
0.0
  0
LINE
  5
B3
  8
PATTERN_FILL
  6
CONTINUOUS
 62
     7
 10
-29.694333976275821
 20
-7.7000000000000179
 30
0.0
 11
-31.250000000000011
 21
-6.1443339762758002
 31
0.0
  0
LINE
  5
B4
  8
PATTERN_FILL
  6
CONTINUOUS
 62
     7
 10
-23.894333976275949
 20
-15.00000000000002
 30
0.0
 11
-26.094333976275902
 21
-12.80000000000002
 31
0.0
  0
LINE
  5
B5
  8
PATTERN_FILL
  6
CONTINUOUS
 62
     7
 10
-27.54433397627588
 20
-11.350000000000019
 30
0.0
 11
-29.74433397627584
 21
-9.1500000000000181
 31
0.0
  0
LINE
  5
B6
  8
PATTERN_FILL
  6
CONTINUOUS
 62
     7
 10
-25.394333976275949
 20
-15.00000000000002
 30
0.0
 11
-27.594333976275909
 21
-12.80000000000002
 31
0.0
  0
LINE
  5
B7
  8
PATTERN_FILL
  6
CONTINUOUS
 62
     7
 10
-29.04433397627588
 20
-11.350000000000019
 30
0.0
 11
-31.24433397627584
 21
-9.150000000000027
 31
0.0
  0
LINE
  5
B8
  8
PATTERN_FILL
  6
CONTINUOUS
 62
     7
 10
-26.894333976275949
 20
-15.00000000000002
 30
0.0
 11
-29.094333976275909
 21
-12.80000000000002
 31
0.0
  0
LINE
  5
B9
  8
PATTERN_FILL
  6
CONTINUOUS
 62
     7
 10
-30.54433397627588
 20
-11.350000000000019
 30
0.0
 11
-31.250000000000011
 21
-10.64433397627587
 31
0.0
  0
LINE
  5
BA
  8
PATTERN_FILL
  6
CONTINUOUS
 62
     7
 10
-28.394333976275941
 20
-15.00000000000002
 30
0.0
 11
-30.594333976275919
 21
-12.80000000000002
 31
0.0
  0
LINE
  5
BB
  8
PATTERN_FILL
  6
CONTINUOUS
 62
     7
 10
-29.894333976275959
 20
-15.000000000000011
 30
0.0
 11
-31.250000000000011
 21
-13.644333976275931
 31
0.0
  0
LINE
  5
BC
  8
PATTERN_FILL
  6
CONTINUOUS
 62
     7
 10
-23.596237784336299
 20
-7.7000000000000242
 30
0.0
 11
-21.395285880306041
 21
-5.4990480959697612
 31
0.0
  0
LINE
  5
BD
  8
PATTERN_FILL
  6
CONTINUOUS
 62
     7
 10
18.749999999999972
 20
-6.3537622156637372
 30
0.0
 11
19.60471411969397
 21
-5.4990480959697532
 31
0.0
  0
LINE
  5
BE
  8
PATTERN_FILL
  6
CONTINUOUS
 62
     7
 10
18.903762215663701
 20
-7.7000000000000179
 30
0.0
 11
21.104714119693959
 21
-5.4990480959697638
 31
0.0
  0
LINE
  5
BF
  8
PATTERN_FILL
  6
CONTINUOUS
 62
     7
 10
18.75
 20
-9.3537622156637195
 30
0.0
 11
18.953762215663691
 21
-9.1500000000000181
 31
0.0
  0
LINE
  5
C0
  8
PATTERN_FILL
  6
CONTINUOUS
 62
     7
 10
20.403762215663701
 20
-7.7000000000000179
 30
0.0
 11
22.60471411969397
 21
-5.4990480959697532
 31
0.0
  0
LINE
  5
C1
  8
PATTERN_FILL
  6
CONTINUOUS
 62
     7
 10
18.749999999999972
 20
-10.853762215663719
 30
0.0
 11
20.453762215663691
 21
-9.1500000000000234
 31
0.0
  0
LINE
  5
C2
  8
PATTERN_FILL
  6
CONTINUOUS
 62
     7
 10
21.903762215663711
 20
-7.7000000000000171
 30
0.0
 11
24.10471411969397
 21
-5.4990480959697612
 31
0.0
  0
LINE
  5
C3
  8
PATTERN_FILL
  6
CONTINUOUS
 62
     7
 10
19.753762215663691
 20
-11.350000000000019
 30
0.0
 11
21.953762215663691
 21
-9.1500000000000181
 31
0.0
  0
LINE
  5
C4
  8
PATTERN_FILL
  6
CONTINUOUS
 62
     7
 10
23.403762215663701
 20
-7.7000000000000179
 30
0.0
 11
25.60471411969397
 21
-5.4990480959697612
 31
0.0
  0
LINE
  5
C5
  8
PATTERN_FILL
  6
CONTINUOUS
 62
     7
 10
18.749999999999972
 20
-13.8537622156637
 30
0.0
 11
19.803762215663681
 21
-12.80000000000002
 31
0.0
  0
LINE
  5
C6
  8
PATTERN_FILL
  6
CONTINUOUS
 62
     7
 10
21.253762215663691
 20
-11.350000000000019
 30
0.0
 11
23.453762215663691
 21
-9.150000000000027
 31
0.0
  0
LINE
  5
C7
  8
PATTERN_FILL
  6
CONTINUOUS
 62
     7
 10
24.903762215663701
 20
-7.7000000000000242
 30
0.0
 11
27.10471411969397
 21
-5.4990480959697612
 31
0.0
  0
LINE
  5
C8
  8
PATTERN_FILL
  6
CONTINUOUS
 62
     7
 10
19.103762215663671
 20
-15.000000000000011
 30
0.0
 11
21.303762215663681
 21
-12.80000000000001
 31
0.0
  0
LINE
  5
C9
  8
PATTERN_FILL
  6
CONTINUOUS
 62
     7
 10
22.753762215663681
 20
-11.350000000000019
 30
0.0
 11
24.953762215663691
 21
-9.1500000000000181
 31
0.0
  0
LINE
  5
CA
  8
PATTERN_FILL
  6
CONTINUOUS
 62
     7
 10
20.603762215663671
 20
-15.00000000000002
 30
0.0
 11
22.803762215663689
 21
-12.80000000000002
 31
0.0
  0
LINE
  5
CB
  8
PATTERN_FILL
  6
CONTINUOUS
 62
     7
 10
24.253762215663691
 20
-11.350000000000019
 30
0.0
 11
26.453762215663691
 21
-9.1500000000000181
 31
0.0
  0
LINE
  5
CC
  8
PATTERN_FILL
  6
CONTINUOUS
 62
     7
 10
27.903762215663701
 20
-7.7000000000000179
 30
0.0
 11
30.104714119693949
 21
-5.4990480959697692
 31
0.0
  0
LINE
  5
CD
  8
PATTERN_FILL
  6
CONTINUOUS
 62
     7
 10
22.103762215663671
 20
-15.000000000000011
 30
0.0
 11
24.303762215663681
 21
-12.80000000000001
 31
0.0
  0
LINE
  5
CE
  8
PATTERN_FILL
  6
CONTINUOUS
 62
     7
 10
25.753762215663691
 20
-11.350000000000019
 30
0.0
 11
27.953762215663691
 21
-9.1500000000000181
 31
0.0
  0
LINE
  5
CF
  8
PATTERN_FILL
  6
CONTINUOUS
 62
     7
 10
29.403762215663711
 20
-7.7000000000000171
 30
0.0
 11
31.149999999999991
 21
-5.9537622156637324
 31
0.0
  0
LINE
  5
D0
  8
PATTERN_FILL
  6
CONTINUOUS
 62
     7
 10
23.603762215663671
 20
-15.000000000000011
 30
0.0
 11
25.803762215663681
 21
-12.80000000000002
 31
0.0
  0
LINE
  5
D1
  8
PATTERN_FILL
  6
CONTINUOUS
 62
     7
 10
27.253762215663691
 20
-11.350000000000019
 30
0.0
 11
29.453762215663701
 21
-9.1500000000000181
 31
0.0
  0
LINE
  5
D2
  8
PATTERN_FILL
  6
CONTINUOUS
 62
     7
 10
30.903762215663711
 20
-7.7000000000000171
 30
0.0
 11
31.149999999999991
 21
-7.4537622156637289
 31
0.0
  0
LINE
  5
D3
  8
PATTERN_FILL
  6
CONTINUOUS
 62
     7
 10
25.103762215663671
 20
-15.00000000000002
 30
0.0
 11
27.303762215663681
 21
-12.80000000000002
 31
0.0
  0
LINE
  5
D4
  8
PATTERN_FILL
  6
CONTINUOUS
 62
     7
 10
28.753762215663681
 20
-11.350000000000019
 30
0.0
 11
30.953762215663701
 21
-9.1500000000000181
 31
0.0
  0
LINE
  5
D5
  8
PATTERN_FILL
  6
CONTINUOUS
 62
     7
 10
26.603762215663679
 20
-15.000000000000011
 30
0.0
 11
28.803762215663681
 21
-12.80000000000002
 31
0.0
  0
LINE
  5
D6
  8
PATTERN_FILL
  6
CONTINUOUS
 62
     7
 10
30.253762215663681
 20
-11.350000000000019
 30
0.0
 11
31.149999999999991
 21
-10.45376221566371
 31
0.0
  0
LINE
  5
D7
  8
PATTERN_FILL
  6
CONTINUOUS
 62
     7
 10
28.103762215663679
 20
-15.000000000000011
 30
0.0
 11
30.303762215663681
 21
-12.80000000000002
 31
0.0
  0
LINE
  5
D8
  8
PATTERN_FILL
  6
CONTINUOUS
 62
     7
 10
29.603762215663679
 20
-15.000000000000011
 30
0.0
 11
31.149999999999991
 21
-13.4537622156637
 31
0.0
  0
LINE
  5
D9
  8
PATTERN_FILL
  6
CONTINUOUS
 62
     7
 10
31.149999999999991
 20
-6.5443339762758139
 30
0.0
 11
30.104714119693949
 21
-5.4990480959697612
 31
0.0
  0
LINE
  5
DA
  8
PATTERN_FILL
  6
CONTINUOUS
 62
     7
 10
30.8056660237242
 20
-7.7000000000000179
 30
0.0
 11
28.60471411969397
 21
-5.4990480959697612
 31
0.0
  0
LINE
  5
DB
  8
PATTERN_FILL
  6
CONTINUOUS
 62
     7
 10
31.149999999999991
 20
-9.5443339762758637
 30
0.0
 11
30.755666023724149
 21
-9.1500000000000181
 31
0.0
  0
LINE
  5
DC
  8
PATTERN_FILL
  6
CONTINUOUS
 62
     7
 10
29.305666023724189
 20
-7.7000000000000171
 30
0.0
 11
27.10471411969397
 21
-5.4990480959697612
 31
0.0
  0
LINE
  5
DD
  8
PATTERN_FILL
  6
CONTINUOUS
 62
     7
 10
31.149999999999991
 20
-11.04433397627589
 30
0.0
 11
29.255666023724149
 21
-9.1500000000000181
 31
0.0
  0
LINE
  5
DE
  8
PATTERN_FILL
  6
CONTINUOUS
 62
     7
 10
27.805666023724189
 20
-7.7000000000000179
 30
0.0
 11
25.60471411969397
 21
-5.4990480959697612
 31
0.0
  0
LINE
  5
DF
  8
PATTERN_FILL
  6
CONTINUOUS
 62
     7
 10
29.95566602372411
 20
-11.350000000000019
 30
0.0
 11
27.75566602372416
 21
-9.1500000000000181
 31
0.0
  0
LINE
  5
E0
  8
PATTERN_FILL
  6
CONTINUOUS
 62
     7
 10
26.305666023724179
 20
-7.7000000000000179
 30
0.0
 11
24.10471411969397
 21
-5.4990480959697692
 31
0.0
  0
LINE
  5
E1
  8
PATTERN_FILL
  6
CONTINUOUS
 62
     7
 10
31.149999999999991
 20
-14.044333976275951
 30
0.0
 11
29.905666023724091
 21
-12.80000000000002
 31
0.0
  0
LINE
  5
E2
  8
PATTERN_FILL
  6
CONTINUOUS
 62
     7
 10
28.45566602372411
 20
-11.350000000000019
 30
0.0
 11
26.25566602372416
 21
-9.1500000000000181
 31
0.0
  0
LINE
  5
E3
  8
PATTERN_FILL
  6
CONTINUOUS
 62
     7
 10
24.805666023724179
 20
-7.7000000000000179
 30
0.0
 11
22.60471411969397
 21
-5.499048095969771
 31
0.0
  0
LINE
  5
E4
  8
PATTERN_FILL
  6
CONTINUOUS
 62
     7
 10
30.605666023724051
 20
-15.00000000000002
 30
0.0
 11
28.405666023724091
 21
-12.80000000000002
 31
0.0
  0
LINE
  5
E5
  8
PATTERN_FILL
  6
CONTINUOUS
 62
     7
 10
26.95566602372411
 20
-11.350000000000019
 30
0.0
 11
24.75566602372416
 21
-9.1500000000000181
 31
0.0
  0
LINE
  5
E6
  8
PATTERN_FILL
  6
CONTINUOUS
 62
     7
 10
23.305666023724189
 20
-7.7000000000000242
 30
0.0
 11
21.10471411969397
 21
-5.4990480959697692
 31
0.0
  0
LINE
  5
E7
  8
PATTERN_FILL
  6
CONTINUOUS
 62
     7
 10
29.105666023724051
 20
-15.00000000000002
 30
0.0
 11
26.905666023724091
 21
-12.80000000000002
 31
0.0
  0
LINE
  5
E8
  8
PATTERN_FILL
  6
CONTINUOUS
 62
     7
 10
25.45566602372412
 20
-11.350000000000019
 30
0.0
 11
23.25566602372416
 21
-9.1500000000000181
 31
0.0
  0
LINE
  5
E9
  8
PATTERN_FILL
  6
CONTINUOUS
 62
     7
 10
21.805666023724189
 20
-7.7000000000000179
 30
0.0
 11
19.60471411969397
 21
-5.4990480959697638
 31
0.0
  0
LINE
  5
EA
  8
PATTERN_FILL
  6
CONTINUOUS
 62
     7
 10
27.605666023724051
 20
-15.00000000000002
 30
0.0
 11
25.405666023724091
 21
-12.80000000000002
 31
0.0
  0
LINE
  5
EB
  8
PATTERN_FILL
  6
CONTINUOUS
 62
     7
 10
23.95566602372412
 20
-11.350000000000019
 30
0.0
 11
21.75566602372416
 21
-9.1500000000000181
 31
0.0
  0
LINE
  5
EC
  8
PATTERN_FILL
  6
CONTINUOUS
 62
     7
 10
20.305666023724179
 20
-7.7000000000000179
 30
0.0
 11
18.749999999999972
 21
-6.1443339762758002
 31
0.0
  0
LINE
  5
ED
  8
PATTERN_FILL
  6
CONTINUOUS
 62
     7
 10
26.105666023724051
 20
-15.00000000000002
 30
0.0
 11
23.905666023724091
 21
-12.80000000000002
 31
0.0
  0
LINE
  5
EE
  8
PATTERN_FILL
  6
CONTINUOUS
 62
     7
 10
22.45566602372412
 20
-11.350000000000019
 30
0.0
 11
20.25566602372416
 21
-9.1500000000000181
 31
0.0
  0
LINE
  5
EF
  8
PATTERN_FILL
  6
CONTINUOUS
 62
     7
 10
24.605666023724051
 20
-15.00000000000002
 30
0.0
 11
22.405666023724098
 21
-12.80000000000002
 31
0.0
  0
LINE
  5
F0
  8
PATTERN_FILL
  6
CONTINUOUS
 62
     7
 10
20.95566602372412
 20
-11.350000000000019
 30
0.0
 11
18.755666023724171
 21
-9.150000000000027
 31
0.0
  0
LINE
  5
F1
  8
PATTERN_FILL
  6
CONTINUOUS
 62
     7
 10
23.105666023724051
 20
-15.00000000000002
 30
0.0
 11
20.905666023724091
 21
-12.80000000000002
 31
0.0
  0
LINE
  5
F2
  8
PATTERN_FILL
  6
CONTINUOUS
 62
     7
 10
19.45566602372412
 20
-11.350000000000019
 30
0.0
 11
18.749999999999972
 21
-10.64433397627587
 31
0.0
  0
LINE
  5
F3
  8
PATTERN_FILL
  6
CONTINUOUS
 62
     7
 10
21.605666023724051
 20
-15.00000000000002
 30
0.0
 11
19.405666023724091
 21
-12.80000000000002
 31
0.0
  0
LINE
  5
F4
  8
PATTERN_FILL
  6
CONTINUOUS
 62
     7
 10
20.105666023724041
 20
-15.000000000000011
 30
0.0
 11
18.749999999999972
 21
-13.644333976275931
 31
0.0
  0
LINE
  5
F5
  8
PATTERN_FILL
  6
CONTINUOUS
 62
     7
 10
26.403762215663701
 20
-7.7000000000000242
 30
0.0
 11
28.60471411969397
 21
-5.4990480959697612
 31
0.0
  0
ARC
  5
F6
  8
PATTERN_FILL
  6
CONTINUOUS
 62
     7
 10
-75.000000000000028
 20
37.455449743847467
 30
0.0
 40
8.4556485383685605
 50
289.33795862977269
 51
301.35655127817557
  0
ARC
  5
F7
  8
PATTERN_FILL
  6
CONTINUOUS
 62
     7
 10
-75.000000000000028
 20
37.455449743847467
 30
0.0
 40
8.4556485383685587
 50
319.19083227350683
 51
341.10491069558958
  0
ARC
  5
F8
  8
PATTERN_FILL
  6
CONTINUOUS
 62
     7
 10
-75.000000000000028
 20
37.455449743847467
 30
0.0
 40
8.4556485383685693
 50
18.895089304410401
 51
40.809167726493172
  0
ARC
  5
F9
  8
PATTERN_FILL
  6
CONTINUOUS
 62
     7
 10
-75.000000000000028
 20
37.455449743847467
 30
0.0
 40
8.4556485383685587
 50
58.643448721824377
 51
70.662041370227286
  0
ARC
  5
FA
  8
PATTERN_FILL
  6
CONTINUOUS
 62
     7
 10
-75.000000000000028
 20
37.455449743847467
 30
0.0
 40
8.4556485383685551
 50
84.571051146678769
 51
95.428948853320719
  0
ARC
  5
FB
  8
PATTERN_FILL
  6
CONTINUOUS
 62
     7
 10
-75.000000000000028
 20
37.455449743847467
 30
0.0
 40
8.4556485383685551
 50
109.3379586297722
 51
121.3565512781752
  0
ARC
  5
FC
  8
PATTERN_FILL
  6
CONTINUOUS
 62
     7
 10
-75.000000000000028
 20
37.455449743847467
 30
0.0
 40
8.4556485383685498
 50
139.19083227350629
 51
161.1049106955883
  0
ARC
  5
FD
  8
PATTERN_FILL
  6
CONTINUOUS
 62
     7
 10
-75.000000000000028
 20
37.455449743847467
 30
0.0
 40
8.4556485383685587
 50
198.89508930441161
 51
220.80916772649371
  0
ARC
  5
FE
  8
PATTERN_FILL
  6
CONTINUOUS
 62
     7
 10
-75.000000000000028
 20
37.455449743847467
 30
0.0
 40
8.4556485383685498
 50
238.6434487218248
 51
250.66204137022771
  0
ARC
  5
FF
  8
PATTERN_FILL
  6
CONTINUOUS
 62
     7
 10
-75.000000000000028
 20
37.455449743847467
 30
0.0
 40
8.4556485383685498
 50
264.571051146679
 51
275.42894885332129
  0
LINE
  5
100
  8
PATTERN_FILL
  6
CONTINUOUS
 62
     7
 10
-70.808264215778621
 20
30.111925840455299
 30
0.0
 11
-70.599999999999994
 21
30.32019005623393
 31
0.0
  0
LINE
  5
101
  8
PATTERN_FILL
  6
CONTINUOUS
 62
     7
 10
-68.599999999999994
 20
32.320190056233912
 30
0.0
 11
-67.656476096607861
 21
33.263713959626052
 31
0.0
  0
LINE
  5
102
  8
PATTERN_FILL
  6
CONTINUOUS
 62
     7
 10
-72.200000000000003
 20
30.220190056233921
 30
0.0
 11
-70.599999999999994
 21
31.82019005623393
 31
0.0
  0
LINE
  5
103
  8
PATTERN_FILL
  6
CONTINUOUS
 62
     7
 10
-68.599999999999994
 20
33.820190056233933
 30
0.0
 11
-66.999999999999986
 21
35.42019005623392
 31
0.0
  0
LINE
  5
104
  8
PATTERN_FILL
  6
CONTINUOUS
 62
     7
 10
-74.920010496343863
 20
29.000179559890061
 30
0.0
 11
-74.200000000000003
 21
29.720190056233921
 31
0.0
  0
LINE
  5
105
  8
PATTERN_FILL
  6
CONTINUOUS
 62
     7
 10
-72.200000000000003
 20
31.720190056233928
 30
0.0
 11
-70.599999999999994
 21
33.32019005623394
 31
0.0
  0
LINE
  5
106
  8
PATTERN_FILL
  6
CONTINUOUS
 62
     7
 10
-68.599999999999994
 20
35.320190056233933
 30
0.0
 11
-66.999999999999986
 21
36.920190056233928
 31
0.0
  0
LINE
  5
107
  8
PATTERN_FILL
  6
CONTINUOUS
 62
     7
 10
-75.800000000000026
 20
29.620190056233891
 30
0.0
 11
-74.200000000000003
 21
31.220190056233921
 31
0.0
  0
LINE
  5
108
  8
PATTERN_FILL
  6
CONTINUOUS
 62
     7
 10
-72.200000000000003
 20
33.220190056233918
 30
0.0
 11
-70.599999999999994
 21
34.820190056233912
 31
0.0
  0
LINE
  5
109
  8
PATTERN_FILL
  6
CONTINUOUS
 62
     7
 10
-68.599999999999994
 20
36.82019005623394
 30
0.0
 11
-66.999999999999986
 21
38.420190056233942
 31
0.0
  0
LINE
  5
10A
  8
PATTERN_FILL
  6
CONTINUOUS
 62
     7
 10
-75.800000000000026
 20
31.12019005623392
 30
0.0
 11
-74.200000000000003
 21
32.720190056233918
 31
0.0
  0
LINE
  5
10B
  8
PATTERN_FILL
  6
CONTINUOUS
 62
     7
 10
-72.200000000000003
 20
34.720190056233918
 30
0.0
 11
-70.599999999999994
 21
36.320190056233933
 31
0.0
  0
LINE
  5
10C
  8
PATTERN_FILL
  6
CONTINUOUS
 62
     7
 10
-68.599999999999994
 20
38.32019005623394
 30
0.0
 11
-66.999999999999986
 21
39.920190056233942
 31
0.0
  0
LINE
  5
10D
  8
PATTERN_FILL
  6
CONTINUOUS
 62
     7
 10
-78.610706137243696
 20
29.809483918990189
 30
0.0
 11
-77.800000000000026
 21
30.620190056233909
 31
0.0
  0
LINE
  5
10E
  8
PATTERN_FILL
  6
CONTINUOUS
 62
     7
 10
-75.800000000000026
 20
32.620190056233909
 30
0.0
 11
-74.200000000000003
 21
34.220190056233918
 31
0.0
  0
LINE
  5
10F
  8
PATTERN_FILL
  6
CONTINUOUS
 62
     7
 10
-72.200000000000003
 20
36.220190056233918
 30
0.0
 11
-70.599999999999994
 21
37.820190056233933
 31
0.0
  0
LINE
  5
110
  8
PATTERN_FILL
  6
CONTINUOUS
 62
     7
 10
-68.599999999999994
 20
39.82019005623394
 30
0.0
 11
-67.354034175142772
 21
41.066155881091142
 31
0.0
  0
LINE
  5
111
  8
PATTERN_FILL
  6
CONTINUOUS
 62
     7
 10
-79.400000000000006
 20
30.520190056233901
 30
0.0
 11
-77.800000000000026
 21
32.120190056233909
 31
0.0
  0
LINE
  5
112
  8
PATTERN_FILL
  6
CONTINUOUS
 62
     7
 10
-75.800000000000026
 20
34.120190056233909
 30
0.0
 11
-74.200000000000003
 21
35.720190056233932
 31
0.0
  0
LINE
  5
113
  8
PATTERN_FILL
  6
CONTINUOUS
 62
     7
 10
-72.200000000000003
 20
37.720190056233918
 30
0.0
 11
-70.599999999999994
 21
39.32019005623394
 31
0.0
  0
LINE
  5
114
  8
PATTERN_FILL
  6
CONTINUOUS
 62
     7
 10
-68.599999999999994
 20
41.320190056233933
 30
0.0
 11
-67.889245077838524
 21
42.030944978395361
 31
0.0
  0
LINE
  5
115
  8
PATTERN_FILL
  6
CONTINUOUS
 62
     7
 10
-79.400000000000006
 20
32.020190056233929
 30
0.0
 11
-77.800000000000026
 21
33.620190056233923
 31
0.0
  0
LINE
  5
116
  8
PATTERN_FILL
  6
CONTINUOUS
 62
     7
 10
-75.800000000000026
 20
35.62019005623393
 30
0.0
 11
-74.200000000000003
 21
37.220190056233953
 31
0.0
  0
LINE
  5
117
  8
PATTERN_FILL
  6
CONTINUOUS
 62
     7
 10
-72.200000000000003
 20
39.220190056233932
 30
0.0
 11
-70.599999999999994
 21
40.820190056233933
 31
0.0
  0
LINE
  5
118
  8
PATTERN_FILL
  6
CONTINUOUS
 62
     7
 10
-68.599999999999994
 20
42.820190056233933
 30
0.0
 11
-68.525772516012424
 21
42.894417540221511
 31
0.0
  0
LINE
  5
119
  8
PATTERN_FILL
  6
CONTINUOUS
 62
     7
 10
-79.400000000000006
 20
33.520190056233922
 30
0.0
 11
-77.799999999999983
 21
35.120190056233923
 31
0.0
  0
LINE
  5
11A
  8
PATTERN_FILL
  6
CONTINUOUS
 62
     7
 10
-75.799999999999983
 20
37.12019005623393
 30
0.0
 11
-74.200000000000003
 21
38.720190056233918
 31
0.0
  0
LINE
  5
11B
  8
PATTERN_FILL
  6
CONTINUOUS
 62
     7
 10
-72.200000000000003
 20
40.720190056233903
 30
0.0
 11
-70.59999999999998
 21
42.320190056233933
 31
0.0
  0
LINE
  5
11C
  8
PATTERN_FILL
  6
CONTINUOUS
 62
     7
 10
-81.880161690185275
 20
32.540028366048631
 30
0.0
 11
-81.400000000000006
 21
33.020190056233922
 31
0.0
  0
LINE
  5
11D
  8
PATTERN_FILL
  6
CONTINUOUS
 62
     7
 10
-79.400000000000006
 20
35.020190056233922
 30
0.0
 11
-77.799999999999983
 21
36.620190056233923
 31
0.0
  0
LINE
  5
11E
  8
PATTERN_FILL
  6
CONTINUOUS
 62
     7
 10
-75.800000000000026
 20
38.62019005623393
 30
0.0
 11
-74.200000000000003
 21
40.220190056233932
 31
0.0
  0
LINE
  5
11F
  8
PATTERN_FILL
  6
CONTINUOUS
 62
     7
 10
-72.200000000000003
 20
42.220190056233932
 30
0.0
 11
-70.599999999999994
 21
43.820190056233933
 31
0.0
  0
LINE
  5
120
  8
PATTERN_FILL
  6
CONTINUOUS
 62
     7
 10
-82.454947350442197
 20
33.465242705791717
 30
0.0
 11
-81.400000000000006
 21
34.520190056233908
 31
0.0
  0
LINE
  5
121
  8
PATTERN_FILL
  6
CONTINUOUS
 62
     7
 10
-79.400000000000006
 20
36.520190056233908
 30
0.0
 11
-77.800000000000026
 21
38.120190056233909
 31
0.0
  0
LINE
  5
122
  8
PATTERN_FILL
  6
CONTINUOUS
 62
     7
 10
-75.800000000000026
 20
40.120190056233923
 30
0.0
 11
-74.200000000000003
 21
41.720190056233932
 31
0.0
  0
LINE
  5
123
  8
PATTERN_FILL
  6
CONTINUOUS
 62
     7
 10
-72.200000000000003
 20
43.720190056233932
 30
0.0
 11
-71.009792961944299
 21
44.910397094289628
 31
0.0
  0
LINE
  5
124
  8
PATTERN_FILL
  6
CONTINUOUS
 62
     7
 10
-83.0
 20
34.42019005623392
 30
0.0
 11
-81.400000000000006
 21
36.020190056233922
 31
0.0
  0
LINE
  5
125
  8
PATTERN_FILL
  6
CONTINUOUS
 62
     7
 10
-79.400000000000006
 20
38.020190056233922
 30
0.0
 11
-77.799999999999983
 21
39.62019005623393
 31
0.0
  0
LINE
  5
126
  8
PATTERN_FILL
  6
CONTINUOUS
 62
     7
 10
-75.800000000000026
 20
41.620190056233938
 30
0.0
 11
-74.200000000000003
 21
43.220190056233953
 31
0.0
  0
LINE
  5
127
  8
PATTERN_FILL
  6
CONTINUOUS
 62
     7
 10
-72.200000000000003
 20
45.220190056233932
 30
0.0
 11
-72.042992019875783
 21
45.377198036358131
 31
0.0
  0
LINE
  5
128
  8
PATTERN_FILL
  6
CONTINUOUS
 62
     7
 10
-83.0
 20
35.92019005623392
 30
0.0
 11
-81.400000000000006
 21
37.520190056233922
 31
0.0
  0
LINE
  5
129
  8
PATTERN_FILL
  6
CONTINUOUS
 62
     7
 10
-79.400000000000006
 20
39.520190056233922
 30
0.0
 11
-77.799999999999983
 21
41.120190056233923
 31
0.0
  0
LINE
  5
12A
  8
PATTERN_FILL
  6
CONTINUOUS
 62
     7
 10
-75.800000000000026
 20
43.120190056233923
 30
0.0
 11
-74.200000000000003
 21
44.720190056233953
 31
0.0
  0
LINE
  5
12B
  8
PATTERN_FILL
  6
CONTINUOUS
 62
     7
 10
-83.0
 20
37.42019005623392
 30
0.0
 11
-81.400000000000006
 21
39.020190056233929
 31
0.0
  0
LINE
  5
12C
  8
PATTERN_FILL
  6
CONTINUOUS
 62
     7
 10
-79.400000000000006
 20
41.020190056233922
 30
0.0
 11
-77.800000000000026
 21
42.620190056233923
 31
0.0
  0
LINE
  5
12D
  8
PATTERN_FILL
  6
CONTINUOUS
 62
     7
 10
-75.800000000000026
 20
44.620190056233923
 30
0.0
 11
-74.522580470426803
 21
45.897609585807132
 31
0.0
  0
LINE
  5
12E
  8
PATTERN_FILL
  6
CONTINUOUS
 62
     7
 10
-83.0
 20
38.920190056233942
 30
0.0
 11
-81.400000000000006
 21
40.520190056233922
 31
0.0
  0
LINE
  5
12F
  8
PATTERN_FILL
  6
CONTINUOUS
 62
     7
 10
-79.399999999999963
 20
42.520190056233929
 30
0.0
 11
-77.800000000000026
 21
44.120190056233923
 31
0.0
  0
LINE
  5
130
  8
PATTERN_FILL
  6
CONTINUOUS
 62
     7
 10
-82.868290015008512
 20
40.55190004122538
 30
0.0
 11
-81.400000000000006
 21
42.020190056233922
 31
0.0
  0
LINE
  5
131
  8
PATTERN_FILL
  6
CONTINUOUS
 62
     7
 10
-79.400000000000006
 20
44.020190056233929
 30
0.0
 11
-78.09645029737797
 21
45.323739758855957
 31
0.0
  0
LINE
  5
132
  8
PATTERN_FILL
  6
CONTINUOUS
 62
     7
 10
-67.371979555385067
 20
41.103914667750452
 30
0.0
 11
-68.599999999999994
 21
42.331935112365407
 31
0.0
  0
LINE
  5
133
  8
PATTERN_FILL
  6
CONTINUOUS
 62
     7
 10
-70.599999999999994
 20
44.331935112365429
 30
0.0
 11
-71.351535076096937
 21
45.083470188462393
 31
0.0
  0
LINE
  5
134
  8
PATTERN_FILL
  6
CONTINUOUS
 62
     7
 10
-66.999999999999986
 20
39.231935112365349
 30
0.0
 11
-68.599999999999994
 21
40.831935112365358
 31
0.0
  0
LINE
  5
135
  8
PATTERN_FILL
  6
CONTINUOUS
 62
     7
 10
-70.599999999999994
 20
42.8319351123654
 30
0.0
 11
-72.200000000000003
 21
44.431935112365409
 31
0.0
  0
LINE
  5
136
  8
PATTERN_FILL
  6
CONTINUOUS
 62
     7
 10
-66.999999999999986
 20
37.731935112365349
 30
0.0
 11
-68.599999999999994
 21
39.331935112365372
 31
0.0
  0
LINE
  5
137
  8
PATTERN_FILL
  6
CONTINUOUS
 62
     7
 10
-70.599999999999994
 20
41.331935112365358
 30
0.0
 11
-72.200000000000003
 21
42.931935112365402
 31
0.0
  0
LINE
  5
138
  8
PATTERN_FILL
  6
CONTINUOUS
 62
     7
 10
-74.200000000000003
 20
44.93193511236543
 30
0.0
 11
-75.177304046849812
 21
45.909239159215282
 31
0.0
  0
LINE
  5
139
  8
PATTERN_FILL
  6
CONTINUOUS
 62
     7
 10
-66.999999999999986
 20
36.231935112365321
 30
0.0
 11
-68.599999999999994
 21
37.83193511236535
 31
0.0
  0
LINE
  5
13A
  8
PATTERN_FILL
  6
CONTINUOUS
 62
     7
 10
-70.599999999999994
 20
39.831935112365393
 30
0.0
 11
-72.200000000000003
 21
41.431935112365409
 31
0.0
  0
LINE
  5
13B
  8
PATTERN_FILL
  6
CONTINUOUS
 62
     7
 10
-74.200000000000003
 20
43.431935112365409
 30
0.0
 11
-75.799999999999983
 21
45.031935112365453
 31
0.0
  0
LINE
  5
13C
  8
PATTERN_FILL
  6
CONTINUOUS
 62
     7
 10
-66.999999999999986
 20
34.731935112365321
 30
0.0
 11
-68.599999999999994
 21
36.331935112365358
 31
0.0
  0
LINE
  5
13D
  8
PATTERN_FILL
  6
CONTINUOUS
 62
     7
 10
-70.59999999999998
 20
38.331935112365358
 30
0.0
 11
-72.200000000000003
 21
39.931935112365409
 31
0.0
  0
LINE
  5
13E
  8
PATTERN_FILL
  6
CONTINUOUS
 62
     7
 10
-74.200000000000003
 20
41.931935112365409
 30
0.0
 11
-75.799999999999983
 21
43.531935112365417
 31
0.0
  0
LINE
  5
13F
  8
PATTERN_FILL
  6
CONTINUOUS
 62
     7
 10
-67.438703846263692
 20
33.67063895862897
 30
0.0
 11
-68.599999999999994
 21
34.831935112365286
 31
0.0
  0
LINE
  5
140
  8
PATTERN_FILL
  6
CONTINUOUS
 62
     7
 10
-70.599999999999994
 20
36.831935112365329
 30
0.0
 11
-72.200000000000003
 21
38.431935112365352
 31
0.0
  0
LINE
  5
141
  8
PATTERN_FILL
  6
CONTINUOUS
 62
     7
 10
-74.200000000000003
 20
40.43193511236538
 30
0.0
 11
-75.800000000000026
 21
42.031935112365389
 31
0.0
  0
LINE
  5
142
  8
PATTERN_FILL
  6
CONTINUOUS
 62
     7
 10
-77.800000000000026
 20
44.031935112365453
 30
0.0
 11
-78.784810785218426
 21
45.01674589758386
 31
0.0
  0
LINE
  5
143
  8
PATTERN_FILL
  6
CONTINUOUS
 62
     7
 10
-67.992055475448169
 20
32.723990587813482
 30
0.0
 11
-68.599999999999994
 21
33.331935112365301
 31
0.0
  0
LINE
  5
144
  8
PATTERN_FILL
  6
CONTINUOUS
 62
     7
 10
-70.599999999999994
 20
35.331935112365322
 30
0.0
 11
-72.200000000000003
 21
36.931935112365338
 31
0.0
  0
LINE
  5
145
  8
PATTERN_FILL
  6
CONTINUOUS
 62
     7
 10
-74.200000000000003
 20
38.931935112365352
 30
0.0
 11
-75.800000000000026
 21
40.531935112365368
 31
0.0
  0
LINE
  5
146
  8
PATTERN_FILL
  6
CONTINUOUS
 62
     7
 10
-77.800000000000026
 20
42.53193511236541
 30
0.0
 11
-79.400000000000006
 21
44.131935112365412
 31
0.0
  0
LINE
  5
147
  8
PATTERN_FILL
  6
CONTINUOUS
 62
     7
 10
-70.599999999999994
 20
33.831935112365286
 30
0.0
 11
-72.200000000000003
 21
35.431935112365309
 31
0.0
  0
LINE
  5
148
  8
PATTERN_FILL
  6
CONTINUOUS
 62
     7
 10
-74.200000000000003
 20
37.431935112365323
 30
0.0
 11
-75.800000000000026
 21
39.03193511236536
 31
0.0
  0
LINE
  5
149
  8
PATTERN_FILL
  6
CONTINUOUS
 62
     7
 10
-77.800000000000026
 20
41.031935112365368
 30
0.0
 11
-79.399999999999963
 21
42.63193511236539
 31
0.0
  0
LINE
  5
14A
  8
PATTERN_FILL
  6
CONTINUOUS
 62
     7
 10
-70.599999999999994
 20
32.331935112365272
 30
0.0
 11
-72.200000000000003
 21
33.931935112365288
 31
0.0
  0
LINE
  5
14B
  8
PATTERN_FILL
  6
CONTINUOUS
 62
     7
 10
-74.200000000000003
 20
35.931935112365323
 30
0.0
 11
-75.799999999999983
 21
37.531935112365332
 31
0.0
  0
LINE
  5
14C
  8
PATTERN_FILL
  6
CONTINUOUS
 62
     7
 10
-77.800000000000026
 20
39.531935112365382
 30
0.0
 11
-79.400000000000006
 21
41.131935112365397
 31
0.0
  0
LINE
  5
14D
  8
PATTERN_FILL
  6
CONTINUOUS
 62
     7
 10
-70.599999999999994
 20
30.831935112365262
 30
0.0
 11
-72.200000000000003
 21
32.431935112365281
 31
0.0
  0
LINE
  5
14E
  8
PATTERN_FILL
  6
CONTINUOUS
 62
     7
 10
-74.200000000000003
 20
34.431935112365309
 30
0.0
 11
-75.800000000000026
 21
36.031935112365332
 31
0.0
  0
LINE
  5
14F
  8
PATTERN_FILL
  6
CONTINUOUS
 62
     7
 10
-77.800000000000026
 20
38.03193511236536
 30
0.0
 11
-79.399999999999963
 21
39.631935112365362
 31
0.0
  0
LINE
  5
150
  8
PATTERN_FILL
  6
CONTINUOUS
 62
     7
 10
-81.399999999999977
 20
41.63193511236539
 30
0.0
 11
-81.986533207049888
 21
42.218468319415301
 31
0.0
  0
LINE
  5
151
  8
PATTERN_FILL
  6
CONTINUOUS
 62
     7
 10
-71.179956914504572
 20
29.911892026869829
 30
0.0
 11
-72.200000000000003
 21
30.931935112365249
 31
0.0
  0
LINE
  5
152
  8
PATTERN_FILL
  6
CONTINUOUS
 62
     7
 10
-74.200000000000003
 20
32.931935112365281
 30
0.0
 11
-75.800000000000026
 21
34.531935112365332
 31
0.0
  0
LINE
  5
153
  8
PATTERN_FILL
  6
CONTINUOUS
 62
     7
 10
-77.800000000000026
 20
36.53193511236536
 30
0.0
 11
-79.400000000000006
 21
38.131935112365362
 31
0.0
  0
LINE
  5
154
  8
PATTERN_FILL
  6
CONTINUOUS
 62
     7
 10
-81.400000000000006
 20
40.131935112365362
 30
0.0
 11
-82.543557716977602
 21
41.275492829342987
 31
0.0
  0
LINE
  5
155
  8
PATTERN_FILL
  6
CONTINUOUS
 62
     7
 10
-74.200000000000003
 20
31.43193511236527
 30
0.0
 11
-75.800000000000026
 21
33.031935112365289
 31
0.0
  0
LINE
  5
156
  8
PATTERN_FILL
  6
CONTINUOUS
 62
     7
 10
-77.800000000000026
 20
35.031935112365296
 30
0.0
 11
-79.400000000000006
 21
36.631935112365333
 31
0.0
  0
LINE
  5
157
  8
PATTERN_FILL
  6
CONTINUOUS
 62
     7
 10
-81.400000000000006
 20
38.631935112365362
 30
0.0
 11
-83.0
 21
40.231935112365363
 31
0.0
  0
LINE
  5
158
  8
PATTERN_FILL
  6
CONTINUOUS
 62
     7
 10
-74.200000000000003
 20
29.931935112365249
 30
0.0
 11
-75.800000000000026
 21
31.531935112365279
 31
0.0
  0
LINE
  5
159
  8
PATTERN_FILL
  6
CONTINUOUS
 62
     7
 10
-77.800000000000026
 20
33.531935112365296
 30
0.0
 11
-79.400000000000006
 21
35.131935112365333
 31
0.0
  0
LINE
  5
15A
  8
PATTERN_FILL
  6
CONTINUOUS
 62
     7
 10
-81.400000000000006
 20
37.131935112365348
 30
0.0
 11
-83.0
 21
38.731935112365377
 31
0.0
  0
LINE
  5
15B
  8
PATTERN_FILL
  6
CONTINUOUS
 62
     7
 10
-74.770968461321161
 20
29.002903573686389
 30
0.0
 11
-75.799999999999983
 21
30.031935112365229
 31
0.0
  0
LINE
  5
15C
  8
PATTERN_FILL
  6
CONTINUOUS
 62
     7
 10
-77.800000000000026
 20
32.031935112365289
 30
0.0
 11
-79.399999999999963
 21
33.631935112365277
 31
0.0
  0
LINE
  5
15D
  8
PATTERN_FILL
  6
CONTINUOUS
 62
     7
 10
-81.400000000000006
 20
35.631935112365333
 30
0.0
 11
-83.0
 21
37.231935112365363
 31
0.0
  0
LINE
  5
15E
  8
PATTERN_FILL
  6
CONTINUOUS
 62
     7
 10
-77.800000000000026
 20
30.53193511236525
 30
0.0
 11
-79.400000000000006
 21
32.131935112365291
 31
0.0
  0
LINE
  5
15F
  8
PATTERN_FILL
  6
CONTINUOUS
 62
     7
 10
-81.400000000000006
 20
34.131935112365298
 30
0.0
 11
-83.0
 21
35.731935112365321
 31
0.0
  0
LINE
  5
160
  8
PATTERN_FILL
  6
CONTINUOUS
 62
     7
 10
-78.548464817951839
 20
29.780399930317088
 30
0.0
 11
-79.400000000000006
 21
30.631935112365252
 31
0.0
  0
LINE
  5
161
  8
PATTERN_FILL
  6
CONTINUOUS
 62
     7
 10
-81.400000000000006
 20
32.631935112365277
 30
0.0
 11
-82.67504981353045
 21
33.90698492589577
 31
0.0
  0
LINE
  5
162
  8
SPEC
  6
CONTINUOUS
 62
     7
 10
-164.9999999999998
 20
243.53181499999999
 30
0.0
 11
130.0
 21
243.53181499999999
 31
0.0
  0
LINE
  5
163
  8
SPEC
  6
CONTINUOUS
 62
     7
 10
-164.9999999999998
 20
236.03181499999999
 30
0.0
 11
130.0
 21
236.03181499999999
 31
0.0
  0
LINE
  5
164
  8
SPEC
  6
CONTINUOUS
 62
     7
 10
-164.9999999999998
 20
243.53181499999999
 30
0.0
 11
-164.9999999999998
 21
146.03181499999999
 31
0.0
  0
TEXT
  5
165
  8
SPEC
 62
     7
 10
-162.4999999999998
 20
246.318355
 30
0.0
 40
4.8865234375000002
  1
仕様
 41
0.7
 11
-162.4999999999998
 21
251.20487843750001
 31
0.0
 73
     3
  0
LINE
  5
166
  8
SPEC
  6
CONTINUOUS
 62
     7
 10
-99.999999999999957
 20
243.53181499999999
 30
0.0
 11
-99.999999999999957
 21
146.03181499999999
 31
0.0
  0
LINE
  5
167
  8
SPEC
  6
CONTINUOUS
 62
     7
 10
130.0
 20
243.53181499999999
 30
0.0
 11
130.0
 21
146.03181499999999
 31
0.0
  0
LINE
  5
168
  8
SPEC
  6
CONTINUOUS
 62
     7
 10
-164.9999999999998
 20
228.53181499999999
 30
0.0
 11
130.0
 21
228.53181499999999
 31
0.0
  0
LINE
  5
169
  8
SPEC
  6
CONTINUOUS
 62
     7
 10
-164.9999999999998
 20
221.03181499999999
 30
0.0
 11
130.0
 21
221.03181499999999
 31
0.0
  0
LINE
  5
16A
  8
SPEC
  6
CONTINUOUS
 62
     7
 10
-164.9999999999998
 20
213.53181499999999
 30
0.0
 11
130.0
 21
213.53181499999999
 31
0.0
  0
LINE
  5
16B
  8
SPEC
  6
CONTINUOUS
 62
     7
 10
-164.9999999999998
 20
206.03181499999999
 30
0.0
 11
130.0
 21
206.03181499999999
 31
0.0
  0
LINE
  5
16C
  8
SPEC
  6
CONTINUOUS
 62
     7
 10
-164.9999999999998
 20
198.53181499999999
 30
0.0
 11
130.0
 21
198.53181499999999
 31
0.0
  0
LINE
  5
16D
  8
SPEC
  6
CONTINUOUS
 62
     7
 10
-164.9999999999998
 20
191.03181499999999
 30
0.0
 11
130.0
 21
191.03181499999999
 31
0.0
  0
LINE
  5
16E
  8
SPEC
  6
CONTINUOUS
 62
     7
 10
-164.9999999999998
 20
183.53181499999999
 30
0.0
 11
130.0
 21
183.53181499999999
 31
0.0
  0
LINE
  5
16F
  8
SPEC
  6
CONTINUOUS
 62
     7
 10
-164.9999999999998
 20
176.03181499999999
 30
0.0
 11
130.0
 21
176.03181499999999
 31
0.0
  0
LINE
  5
170
  8
SPEC
  6
CONTINUOUS
 62
     7
 10
-164.9999999999998
 20
168.53181499999999
 30
0.0
 11
130.0
 21
168.53181499999999
 31
0.0
  0
LINE
  5
171
  8
SPEC
  6
CONTINUOUS
 62
     7
 10
-164.9999999999998
 20
161.03181499999999
 30
0.0
 11
130.0
 21
161.03181499999999
 31
0.0
  0
LINE
  5
172
  8
SPEC
  6
CONTINUOUS
 62
     7
 10
-164.9999999999998
 20
153.53181499999999
 30
0.0
 11
130.0
 21
153.53181499999999
 31
0.0
  0
LINE
  5
173
  8
SPEC
  6
CONTINUOUS
 62
     7
 10
-164.9999999999998
 20
146.03181499999999
 30
0.0
 11
130.0
 21
146.03181499999999
 31
0.0
  0
TEXT
  5
174
  8
SPEC
 62
     7
 10
-163.19999999999999
 20
237.60765055555549
 30
0.0
 40
3.800629340277776
  1
形式
 41
0.7
 11
-163.19999999999999
 21
241.40827989583329
 31
0.0
 73
     3
  0
TEXT
  5
175
  8
SPEC
 62
     7
 10
-163.19999999999999
 20
147.60765055555549
 30
0.0
 40
3.800629340277776
  1
付属品
 41
0.7
 11
-163.19999999999999
 21
151.40827989583329
 31
0.0
 73
     3
  0
TEXT
  5
176
  8
SPEC
 62
     7
 10
-163.19999999999999
 20
230.10765055555549
 30
0.0
 40
3.800629340277776
  1
指向特性
 41
0.7
 11
-163.19999999999999
 21
233.90827989583329
 31
0.0
 73
     3
  0
TEXT
  5
177
  8
SPEC
 62
     7
 10
-163.19999999999999
 20
222.60765055555549
 30
0.0
 40
3.800629340277776
  1
周波数特性
 41
0.7
 11
-163.19999999999999
 21
226.40827989583329
 31
0.0
 73
     3
  0
TEXT
  5
178
  8
SPEC
 62
     7
 10
-163.19999999999999
 20
215.10765055555549
 30
0.0
 40
3.800629340277776
  1
開回路感度^I
 41
0.7
 11
-163.19999999999999
 21
218.90827989583329
 31
0.0
 73
     3
  0
TEXT
  5
179
  8
SPEC
 62
     7
 10
-163.19999999999999
 20
207.60765055555549
 30
0.0
 40
3.800629340277776
  1
最大音圧レベル
 41
0.7
 11
-163.19999999999999
 21
211.40827989583329
 31
0.0
 73
     3
  0
TEXT
  5
17A
  8
SPEC
 62
     7
 10
-163.19999999999999
 20
200.10765055555549
 30
0.0
 40
3.800629340277776
  1
等価雑音レベル
 41
0.7
 11
-163.19999999999999
 21
203.90827989583329
 31
0.0
 73
     3
  0
TEXT
  5
17B
  8
SPEC
 62
     7
 10
-163.19999999999999
 20
192.60765055555549
 30
0.0
 40
3.800629340277776
  1
パッド
 41
0.7
 11
-163.19999999999999
 21
196.40827989583329
 31
0.0
 73
     3
  0
TEXT
  5
17C
  8
SPEC
 62
     7
 10
-163.19999999999999
 20
185.10765055555549
 30
0.0
 40
3.800629340277776
  1
インピーダンス
 41
0.7
 11
-163.19999999999999
 21
188.90827989583329
 31
0.0
 73
     3
  0
TEXT
  5
17D
  8
SPEC
 62
     7
 10
-163.19999999999999
 20
177.60765055555549
 30
0.0
 40
3.800629340277776
  1
電源
 41
0.7
 11
-163.19999999999999
 21
181.40827989583329
 31
0.0
 73
     3
  0
TEXT
  5
17E
  8
SPEC
 62
     7
 10
-163.19999999999999
 20
170.10765055555549
 30
0.0
 40
3.800629340277776
  1
コネクター^I
 41
0.7
 11
-163.19999999999999
 21
173.90827989583329
 31
0.0
 73
     3
  0
TEXT
  5
17F
  8
SPEC
 62
     7
 10
-163.19999999999999
 20
162.60765055555549
 30
0.0
 40
3.800629340277776
  1
寸法(\U+03C6\U+00D7全長)
 41
0.7
 11
-163.19999999999999
 21
166.40827989583329
 31
0.0
 73
     3
  0
TEXT
  5
180
  8
SPEC
 62
     7
 10
-163.19999999999999
 20
155.10765055555549
 30
0.0
 40
3.800629340277776
  1
質量
 41
0.7
 11
-163.19999999999999
 21
158.90827989583329
 31
0.0
 73
     3
  0
TEXT
  5
181
  8
SPEC
 62
     7
 10
-98.200000000000003
 20
237.60765055555549
 30
0.0
 40
3.800629340277776
  1
コンデンサー型 
 41
0.7
 11
-98.200000000000003
 21
241.40827989583329
 31
0.0
 73
     3
  0
TEXT
  5
182
  8
SPEC
 62
     7
 10
-98.200000000000003
 20
147.60765055555549
 30
0.0
 40
3.800629340277776
  1
マイクホルダー
 41
0.7
 11
-98.200000000000003
 21
151.40827989583329
 31
0.0
 73
     3
  0
TEXT
  5
183
  8
SPEC
 62
     7
 10
-98.200000000000003
 20
230.10765055555549
 30
0.0
 40
3.800629340277776
  1
カーディオイド
 41
0.7
 11
-98.200000000000003
 21
233.90827989583329
 31
0.0
 73
     3
  0
TEXT
  5
184
  8
SPEC
 62
     7
 10
-98.200000000000003
 20
222.60765055555549
 30
0.0
 40
3.800629340277776
  1
20Hz～20kHz
 41
0.7
 11
-98.200000000000003
 21
226.40827989583329
 31
0.0
 73
     3
  0
TEXT
  5
185
  8
SPEC
 62
     7
 10
-98.200000000000003
 20
215.10765055555549
 30
0.0
 40
3.800629340277776
  1
-36.5dB re 1V/Pa
 41
0.7
 11
-98.200000000000003
 21
218.90827989583329
 31
0.0
 73
     3
  0
TEXT
  5
186
  8
SPEC
 62
     7
 10
-98.200000000000003
 20
207.60765055555549
 30
0.0
 40
3.800629340277776
  1
135dB SPL(パッドOFF、THD 0.5%%%)
 41
0.7
 11
-98.200000000000003
 21
211.40827989583329
 31
0.0
 73
     3
  0
TEXT
  5
187
  8
SPEC
 62
     7
 10
-98.200000000000003
 20
200.10765055555549
 30
0.0
 40
3.800629340277776
  1
19dB SPL(Aウェイト)
 41
0.7
 11
-98.200000000000003
 21
203.90827989583329
 31
0.0
 73
     3
  0
TEXT
  5
188
  8
SPEC
 62
     7
 10
-98.200000000000003
 20
192.60765055555549
 30
0.0
 40
3.800629340277776
  1
0/20dB
 41
0.7
 11
-98.200000000000003
 21
196.40827989583329
 31
0.0
 73
     3
  0
TEXT
  5
189
  8
SPEC
 62
     7
 10
-98.200000000000003
 20
185.10765055555549
 30
0.0
 40
3.800629340277776
  1
200\U+03A9以下
 41
0.7
 11
-98.200000000000003
 21
188.90827989583329
 31
0.0
 73
     3
  0
TEXT
  5
18A
  8
SPEC
 62
     7
 10
-98.200000000000003
 20
177.60765055555549
 30
0.0
 40
3.800629340277776
  1
ファンタムDC48V/3mA以下
 41
0.7
 11
-98.200000000000003
 21
181.40827989583329
 31
0.0
 73
     3
  0
TEXT
  5
18B
  8
SPEC
 62
     7
 10
-98.200000000000003
 20
170.10765055555549
 30
0.0
 40
3.800629340277776
  1
XLR3ピン
 41
0.7
 11
-98.200000000000003
 21
173.90827989583329
 31
0.0
 73
     3
  0
TEXT
  5
18C
  8
SPEC
 62
     7
 10
-98.200000000000003
 20
162.60765055555549
 30
0.0
 40
3.800629340277776
  1
22\U+00D7161mm
 41
0.7
 11
-98.200000000000003
 21
166.40827989583329
 31
0.0
 73
     3
  0
TEXT
  5
18D
  8
SPEC
 62
     7
 10
-98.200000000000003
 20
155.10765055555549
 30
0.0
 40
3.800629340277776
  1
122g
 41
0.7
 11
-98.200000000000003
 21
158.90827989583329
 31
0.0
 73
     3
  0
TEXT
  5
18E
  8
DIMNSIONS
 62
     7
 10
-40.0
 20
-231.929205
 30
0.0
 40
4.8865234375000002
  1
(単位：mm)
 41
0.7
 11
-40.0
 21
-227.04268156250001
 31
0.0
 73
     3
  0
LINE
  5
18F
  8
DIMNSIONS
  6
CONTINUOUS
 62
     7
 10
-90.0
 20
-150.0
 30
0.0
 11
-116.5
 21
-150.0
 31
0.0
  0
LINE
  5
190
  8
DIMNSIONS
  6
CONTINUOUS
 62
     7
 10
-79.0
 20
10.99999999999998
 30
0.0
 11
-116.5
 21
10.99999999999998
 31
0.0
  0
LINE
  5
191
  8
DIMNSIONS
  6
CONTINUOUS
 62
     7
 10
-112.5
 20
-150.0
 30
0.0
 11
-112.5
 21
10.99999999999998
 31
0.0
  0
LINE
  5
192
  8
DIMNSIONS
  6
CONTINUOUS
 62
     7
 10
-112.5
 20
-150.0
 30
0.0
 11
-113.8400795903005
 21
-144.99875488281251
 31
0.0
  0
LINE
  5
193
  8
DIMNSIONS
  6
CONTINUOUS
 62
     7
 10
-112.5
 20
-150.0
 30
0.0
 11
-111.1599204096995
 21
-144.99875488281251
 31
0.0
  0
LINE
  5
194
  8
DIMNSIONS
  6
CONTINUOUS
 62
     7
 10
-112.5
 20
10.99999999999998
 30
0.0
 11
-111.1599204096995
 21
5.9987548828124861
 31
0.0
  0
LINE
  5
195
  8
DIMNSIONS
  6
CONTINUOUS
 62
     7
 10
-112.5
 20
10.99999999999998
 30
0.0
 11
-113.8400795903005
 21
5.9987548828124861
 31
0.0
  0
TEXT
  5
196
  8
DIMNSIONS
 62
     7
 10
-114.48777780721581
 20
-74.791666666666657
 30
0.0
 40
5.4294706479219572
  1
161
 50
90.0
 41
0.7
 11
-119.91724845513779
 21
-74.791666666666657
 31
0.0
 73
     3
  0
LINE
  5
197
  8
DIMNSIONS
  6
CONTINUOUS
 62
     7
 10
-84.838699100999094
 20
32.58065044950046
 30
0.0
 11
-100.0
 21
25.0
 31
0.0
  0
LINE
  5
198
  8
DIMNSIONS
  6
CONTINUOUS
 62
     7
 10
-84.838699100999094
 20
32.58065044950046
 30
0.0
 11
-88.686457726587065
 21
29.116113021539132
 31
0.0
  0
LINE
  5
199
  8
DIMNSIONS
  6
CONTINUOUS
 62
     7
 10
-84.838699100999094
 20
32.58065044950046
 30
0.0
 11
-89.903224532369649
 21
31.504152337317951
 31
0.0
  0
LINE
  5
19A
  8
DIMNSIONS
  6
CONTINUOUS
 62
     7
 10
-100.0
 20
25.0
 30
0.0
 11
-104.0
 21
25.0
 31
0.0
  0
TEXT
  5
19B
  8
DIMNSIONS
 62
     7
 10
-125.1666666666666
 20
22.459999924302089
 30
0.0
 40
5.4294706479219572
  1
\U+03C622.0
 41
0.7
 11
-125.1666666666666
 21
27.889470572224049
 31
0.0
 73
     3
  0
TEXT
  5
19C
  8
DATA
 62
     7
 10
99.999999999999957
 20
-234.54249576171159
 30
0.0
 40
4.8865234375000002
  1
P170
 41
0.7
 11
99.999999999999957
 21
-229.6559723242116
 31
0.0
 73
     3
  0
TEXT
  5
19D
  8
DATA
 62
     7
 10
99.999999999999957
 20
-219.03422347657661
 30
0.0
 40
4.8865234375000002
  1
AKG
 41
0.7
 11
99.999999999999957
 21
-214.1477000390766
 31
0.0
 73
     3
  0
TEXT
  5
19E
  8
DATA
 62
     7
 10
96.344363086911784
 20
-226.0628227013834
 30
0.0
 40
3.257687421875
  1
スティック型マイクロホン
 41
0.7
 11
96.344363086911784
 21
-222.80513527950839
 31
0.0
 73
     3
  0
TEXT
  5
19F
  8
DATA
 62
     7
 10
-175.0
 20
-240.7156294444444
 30
0.0
 40
3.800629340277776
  1
※仕様及び外観は予告なく変更されることがあります。
 41
0.7
 11
-175.0
 21
-236.91500010416669
 31
0.0
 73
     3
  0
TEXT
  5
1A0
  8
DATA
 62
     7
 10
-175.0
 20
-245.65451833333341
 30
0.0
 40
3.800629340277776
  1
　また、同一商品でも若干の個体差があることがあります。ご了承ください。
 41
0.7
 11
-175.0
 21
-241.85388899305559
 31
0.0
 73
     3
  0
LINE
  5
1A1
  8
DATA
  6
CONTINUOUS
 62
     7
 10
-86.0
 20
-12.80000000000002
 30
0.0
 11
-86.0
 21
-11.350000000000019
 31
0.0
  0
LINE
  5
1A2
  8
DATA
  6
CONTINUOUS
 62
     7
 10
-86.0
 20
-9.1500000000000181
 30
0.0
 11
-86.0
 21
-7.7000000000000171
 31
0.0
  0
LINE
  5
1A3
  8
DATA
  6
CONTINUOUS
 62
     7
 10
-86.0
 20
-5.5000000000000204
 30
0.0
 11
-86.0
 21
7.9999999999999849
 31
0.0
  0
LINE
  5
1A4
  8
DATA
  6
CONTINUOUS
 62
     7
 10
-64.0
 20
7.9999999999999849
 30
0.0
 11
-64.0
 21
-5.5000000000000204
 31
0.0
  0
LINE
  5
1A5
  8
DATA
  6
CONTINUOUS
 62
     7
 10
-86.0
 20
-150.0
 30
0.0
 11
-86.0
 21
-24.500000000000011
 31
0.0
  0
LINE
  5
1A6
  8
DATA
  6
CONTINUOUS
 62
     7
 10
-64.0
 20
-150.0
 30
0.0
 11
-86.0
 21
-150.0
 31
0.0
  0
LINE
  5
1A7
  8
DATA
  6
CONTINUOUS
 62
     7
 10
-64.0
 20
-24.500000000000028
 30
0.0
 11
-64.0
 21
-150.0
 31
0.0
  0
LINE
  5
1A8
  8
DATA
  6
CONTINUOUS
 62
     7
 10
-86.0
 20
-23.500000000000011
 30
0.0
 11
-86.0
 21
-15.000000000000011
 31
0.0
  0
CIRCLE
  5
1A9
  8
DATA
  6
CONTINUOUS
 62
     7
 10
-75.050000000000026
 20
-175.0
 30
0.0
 40
11.0
  0
ARC
  5
1AA
  8
DATA
  6
CONTINUOUS
 62
     7
 10
-75.050000000000296
 20
-175.00000000000031
 30
0.0
 40
8.0000000000004654
 50
56.738771955344831
 51
37.378428362345268
  0
CIRCLE
  5
1AB
  8
DATA
  6
CONTINUOUS
 62
     7
 10
-78.950000000000017
 20
-175.0
 30
0.0
 40
1.2000000000000011
  0
CIRCLE
  5
1AC
  8
DATA
  6
CONTINUOUS
 62
     7
 10
-71.150000000000006
 20
-175.0
 30
0.0
 40
1.2000000000000011
  0
CIRCLE
  5
1AD
  8
DATA
  6
CONTINUOUS
 62
     7
 10
-75.050000000000026
 20
-178.89999999999989
 30
0.0
 40
1.2000000000000011
  0
ARC
  5
1AE
  8
DATA
  6
CONTINUOUS
 62
     7
 10
-69.600000000000051
 20
-169.14359325183091
 30
0.0
 40
1.3499999999999941
 50
312.21851426059447
 51
141.89868605709759
  0
LINE
  5
1AF
  8
DATA
  6
CONTINUOUS
 62
     7
 10
-86.0
 20
-136.0
 30
0.0
 11
-64.0
 21
-136.0
 31
0.0
  0
LINE
  5
1B0
  8
DATA
  6
CONTINUOUS
 62
     7
 10
-86.0
 20
-135.79999999701971
 30
0.0
 11
-64.0
 21
-135.79999999701971
 31
0.0
  0
TEXT
  5
1B1
  8
DATA
 62
     7
 10
-80.671873378920424
 20
-126.0471682706625
 30
0.0
 40
5.9724175347222221
  1
AKG
 41
0.7
 11
-80.671873378920424
 21
-120.0747507359403
 31
0.0
 73
     3
  0
TEXT
  5
1B2
  8
DATA
 62
     7
 10
-79.255077842962592
 20
-130.88467759321091
 30
0.0
 40
3.257682291666665
  1
P170
 41
0.7
 11
-79.255077842962592
 21
-127.6269953015443
 31
0.0
 73
     3
  0
CIRCLE
  5
1B3
  8
DATA
  6
CONTINUOUS
 62
     7
 10
-75.050000000000026
 20
-73.000000000000028
 30
0.0
 40
9.0
  0
LINE
  5
1B4
  8
DATA
  6
CONTINUOUS
 62
     7
 10
-86.0
 20
-24.500000000000011
 30
0.0
 11
-64.0
 21
-24.500000000000011
 31
0.0
  0
LINE
  5
1B5
  8
DATA
  6
CONTINUOUS
 62
     7
 10
-86.0
 20
-23.500000000000011
 30
0.0
 11
-64.0
 21
-23.500000000000011
 31
0.0
  0
LINE
  5
1B6
  8
DATA
  6
CONTINUOUS
 62
     7
 10
-86.0
 20
-3.4000000000000181
 30
0.0
 11
-64.0
 21
-3.4000000000000181
 31
0.0
  0
LINE
  5
1B7
  8
DATA
  6
CONTINUOUS
 62
     7
 10
-86.0
 20
-15.000000000000011
 30
0.0
 11
-64.0
 21
-15.000000000000011
 31
0.0
  0
LINE
  5
1B8
  8
DATA
  6
CONTINUOUS
 62
     7
 10
-86.0
 20
-12.80000000000002
 30
0.0
 11
-85.050000000000026
 21
-12.80000000000002
 31
0.0
  0
LINE
  5
1B9
  8
DATA
  6
CONTINUOUS
 62
     7
 10
-81.250000000000028
 20
-12.80000000000002
 30
0.0
 11
-68.850000000000009
 21
-12.80000000000002
 31
0.0
  0
LINE
  5
1BA
  8
DATA
  6
CONTINUOUS
 62
     7
 10
-65.049999999999983
 20
-12.80000000000002
 30
0.0
 11
-64.0
 21
-12.80000000000002
 31
0.0
  0
LINE
  5
1BB
  8
DATA
  6
CONTINUOUS
 62
     7
 10
-86.0
 20
-11.350000000000019
 30
0.0
 11
-85.050000000000026
 21
-11.350000000000019
 31
0.0
  0
LINE
  5
1BC
  8
DATA
  6
CONTINUOUS
 62
     7
 10
-81.250000000000028
 20
-11.350000000000019
 30
0.0
 11
-68.850000000000009
 21
-11.350000000000019
 31
0.0
  0
LINE
  5
1BD
  8
DATA
  6
CONTINUOUS
 62
     7
 10
-65.049999999999983
 20
-11.350000000000019
 30
0.0
 11
-64.0
 21
-11.350000000000019
 31
0.0
  0
LINE
  5
1BE
  8
DATA
  6
CONTINUOUS
 62
     7
 10
-86.0
 20
-9.1500000000000181
 30
0.0
 11
-85.050000000000026
 21
-9.1500000000000181
 31
0.0
  0
LINE
  5
1BF
  8
DATA
  6
CONTINUOUS
 62
     7
 10
-81.250000000000028
 20
-9.1500000000000181
 30
0.0
 11
-68.850000000000009
 21
-9.1500000000000181
 31
0.0
  0
LINE
  5
1C0
  8
DATA
  6
CONTINUOUS
 62
     7
 10
-65.049999999999983
 20
-9.1500000000000181
 30
0.0
 11
-64.0
 21
-9.1500000000000181
 31
0.0
  0
LINE
  5
1C1
  8
DATA
  6
CONTINUOUS
 62
     7
 10
-86.0
 20
-7.7000000000000179
 30
0.0
 11
-85.050000000000026
 21
-7.7000000000000179
 31
0.0
  0
LINE
  5
1C2
  8
DATA
  6
CONTINUOUS
 62
     7
 10
-81.250000000000028
 20
-7.7000000000000179
 30
0.0
 11
-68.850000000000009
 21
-7.7000000000000179
 31
0.0
  0
LINE
  5
1C3
  8
DATA
  6
CONTINUOUS
 62
     7
 10
-65.049999999999983
 20
-7.7000000000000179
 30
0.0
 11
-64.0
 21
-7.7000000000000179
 31
0.0
  0
LINE
  5
1C4
  8
DATA
  6
CONTINUOUS
 62
     7
 10
-86.0
 20
-5.5000000000000204
 30
0.0
 11
-64.0
 21
-5.5000000000000204
 31
0.0
  0
LINE
  5
1C5
  8
DATA
  6
CONTINUOUS
 62
     7
 10
-81.250000000000014
 20
-15.000000000000011
 30
0.0
 11
-81.250000000000014
 21
-12.80000000000002
 31
0.0
  0
LINE
  5
1C6
  8
DATA
  6
CONTINUOUS
 62
     7
 10
-81.250000000000014
 20
-11.350000000000019
 30
0.0
 11
-81.250000000000014
 21
-9.1500000000000181
 31
0.0
  0
LINE
  5
1C7
  8
DATA
  6
CONTINUOUS
 62
     7
 10
-81.250000000000014
 20
-7.7000000000000171
 30
0.0
 11
-81.250000000000014
 21
-5.5000000000000204
 31
0.0
  0
LINE
  5
1C8
  8
DATA
  6
CONTINUOUS
 62
     7
 10
-68.850000000000009
 20
-5.5000000000000142
 30
0.0
 11
-68.850000000000009
 21
-7.7000000000000171
 31
0.0
  0
LINE
  5
1C9
  8
DATA
  6
CONTINUOUS
 62
     7
 10
-68.850000000000009
 20
-9.1500000000000181
 30
0.0
 11
-68.850000000000009
 21
-11.350000000000019
 31
0.0
  0
LINE
  5
1CA
  8
DATA
  6
CONTINUOUS
 62
     7
 10
-68.850000000000009
 20
-12.80000000000001
 30
0.0
 11
-68.850000000000009
 21
-15.000000000000011
 31
0.0
  0
LINE
  5
1CB
  8
DATA
  6
CONTINUOUS
 62
     7
 10
-86.0
 20
-3.50000000000002
 30
0.0
 11
-64.0
 21
-3.50000000000002
 31
0.0
  0
LINE
  5
1CC
  8
DATA
  6
CONTINUOUS
 62
     7
 10
-85.050000000000026
 20
-15.000000000000011
 30
0.0
 11
-85.050000000000026
 21
-12.80000000000002
 31
0.0
  0
LINE
  5
1CD
  8
DATA
  6
CONTINUOUS
 62
     7
 10
-85.050000000000026
 20
-11.350000000000019
 30
0.0
 11
-85.050000000000026
 21
-9.1500000000000181
 31
0.0
  0
LINE
  5
1CE
  8
DATA
  6
CONTINUOUS
 62
     7
 10
-85.050000000000026
 20
-7.7000000000000171
 30
0.0
 11
-85.050000000000026
 21
-5.5000000000000204
 31
0.0
  0
LINE
  5
1CF
  8
DATA
  6
CONTINUOUS
 62
     7
 10
-65.049999999999983
 20
-15.000000000000011
 30
0.0
 11
-65.049999999999983
 21
-12.80000000000002
 31
0.0
  0
LINE
  5
1D0
  8
DATA
  6
CONTINUOUS
 62
     7
 10
-65.049999999999983
 20
-11.350000000000019
 30
0.0
 11
-65.049999999999983
 21
-9.1500000000000181
 31
0.0
  0
LINE
  5
1D1
  8
DATA
  6
CONTINUOUS
 62
     7
 10
-65.049999999999983
 20
-7.7000000000000171
 30
0.0
 11
-65.049999999999983
 21
-5.5000000000000204
 31
0.0
  0
LINE
  5
1D2
  8
DATA
  6
CONTINUOUS
 62
     7
 10
-85.900000000000006
 20
-24.500000000000011
 30
0.0
 11
-85.900000000000006
 21
-23.500000000000011
 31
0.0
  0
LINE
  5
1D3
  8
DATA
  6
CONTINUOUS
 62
     7
 10
-64.200000000000003
 20
-24.500000000000028
 30
0.0
 11
-64.200000000000003
 21
-23.500000000000028
 31
0.0
  0
CIRCLE
  5
1D4
  8
DATA
  6
CONTINUOUS
 62
     7
 10
-75.0
 20
37.5
 30
0.0
 40
11.0
  0
LINE
  5
1D5
  8
DATA
  6
CONTINUOUS
 62
     7
 10
-64.0
 20
-23.500000000000011
 30
0.0
 11
-64.0
 21
-15.000000000000011
 31
0.0
  0
LINE
  5
1D6
  8
DATA
  6
CONTINUOUS
 62
     7
 10
-64.0
 20
-12.80000000000002
 30
0.0
 11
-64.0
 21
-11.350000000000019
 31
0.0
  0
LINE
  5
1D7
  8
DATA
  6
CONTINUOUS
 62
     7
 10
-64.0
 20
-9.1500000000000181
 30
0.0
 11
-64.0
 21
-7.7000000000000171
 31
0.0
  0
LINE
  5
1D8
  8
DATA
  6
CONTINUOUS
 62
     7
 10
-64.0
 20
-5.5000000000000204
 30
0.0
 11
-64.0
 21
-5.1287878176288917
 31
0.0
  0
LINE
  5
1D9
  8
DATA
  6
CONTINUOUS
 62
     7
 10
-86.0
 20
7.9999999999999849
 30
0.0
 11
-64.0
 21
7.9999999999999849
 31
0.0
  0
ARC
  5
1DA
  8
DATA
  6
CONTINUOUS
 62
     7
 10
-75.0
 20
-10.66666666666668
 30
0.0
 40
21.666666666666661
 50
59.489762593884443
 51
68.33181534423079
  0
ARC
  5
1DB
  8
DATA
  6
CONTINUOUS
 62
     7
 10
-75.0
 20
-10.66666666666668
 30
0.0
 40
21.666666666666661
 50
72.819397979701847
 51
78.283052933079915
  0
ARC
  5
1DC
  8
DATA
  6
CONTINUOUS
 62
     7
 10
-75.0
 20
-10.66666666666668
 30
0.0
 40
21.666666666666661
 50
82.574856314569402
 51
87.883982540587809
  0
ARC
  5
1DD
  8
DATA
  6
CONTINUOUS
 62
     7
 10
-75.0
 20
-10.66666666666668
 30
0.0
 40
21.666666666666661
 50
92.116017459412205
 51
97.425143685430584
  0
ARC
  5
1DE
  8
DATA
  6
CONTINUOUS
 62
     7
 10
-75.0
 20
-10.66666666666668
 30
0.0
 40
21.666666666666671
 50
101.71694706692
 51
107.1806020202981
  0
ARC
  5
1DF
  8
DATA
  6
CONTINUOUS
 62
     7
 10
-75.0
 20
-10.66666666666668
 30
0.0
 40
21.666666666666671
 50
111.6681846557691
 51
120.51023740611549
  0
LINE
  5
1E0
  8
DATA
  6
CONTINUOUS
 62
     7
 10
-74.200000000000003
 20
7.9999999999999849
 30
0.0
 11
-74.200000000000003
 21
10.98522573202318
 31
0.0
  0
LINE
  5
1E1
  8
DATA
  6
CONTINUOUS
 62
     7
 10
-72.200000000000003
 20
7.9999999999999849
 30
0.0
 11
-72.200000000000003
 21
10.8183151681975
 31
0.0
  0
LINE
  5
1E2
  8
DATA
  6
CONTINUOUS
 62
     7
 10
-70.599999999999994
 20
7.9999999999999849
 30
0.0
 11
-70.599999999999994
 21
10.548527050206239
 31
0.0
  0
LINE
  5
1E3
  8
DATA
  6
CONTINUOUS
 62
     7
 10
-68.599999999999994
 20
7.9999999999999849
 30
0.0
 11
-68.599999999999994
 21
10.033199140735171
 31
0.0
  0
LINE
  5
1E4
  8
DATA
  6
CONTINUOUS
 62
     7
 10
-67.0
 20
7.9999999999999849
 30
0.0
 11
-67.0
 21
9.4689844140519224
 31
0.0
  0
LINE
  5
1E5
  8
DATA
  6
CONTINUOUS
 62
     7
 10
-75.799999999999983
 20
10.98522573202319
 30
0.0
 11
-75.799999999999983
 21
7.9999999999999849
 31
0.0
  0
LINE
  5
1E6
  8
DATA
  6
CONTINUOUS
 62
     7
 10
-75.800000000000026
 20
7.9999999999999849
 30
0.0
 11
-75.800000000000026
 21
10.98522573202318
 31
0.0
  0
LINE
  5
1E7
  8
DATA
  6
CONTINUOUS
 62
     7
 10
-77.800000000000026
 20
7.9999999999999849
 30
0.0
 11
-77.800000000000026
 21
10.8183151681975
 31
0.0
  0
LINE
  5
1E8
  8
DATA
  6
CONTINUOUS
 62
     7
 10
-79.400000000000006
 20
7.9999999999999849
 30
0.0
 11
-79.400000000000006
 21
10.548527050206239
 31
0.0
  0
LINE
  5
1E9
  8
DATA
  6
CONTINUOUS
 62
     7
 10
-81.400000000000006
 20
7.9999999999999849
 30
0.0
 11
-81.400000000000006
 21
10.033199140735171
 31
0.0
  0
LINE
  5
1EA
  8
DATA
  6
CONTINUOUS
 62
     7
 10
-83.0
 20
7.9999999999999849
 30
0.0
 11
-83.0
 21
9.4689844140519224
 31
0.0
  0
LINE
  5
1EB
  8
DATA
  6
CONTINUOUS
 62
     7
 10
-75.800000000000026
 20
26.529129478478009
 30
0.0
 11
-75.800000000000026
 21
48.470870521521988
 31
0.0
  0
LINE
  5
1EC
  8
DATA
  6
CONTINUOUS
 62
     7
 10
-77.800000000000026
 20
26.862331082422251
 30
0.0
 11
-77.800000000000026
 21
48.137668917577741
 31
0.0
  0
LINE
  5
1ED
  8
DATA
  6
CONTINUOUS
 62
     7
 10
-79.400000000000006
 20
27.41833347109716
 30
0.0
 11
-79.400000000000006
 21
47.581666528902808
 31
0.0
  0
LINE
  5
1EE
  8
DATA
  6
CONTINUOUS
 62
     7
 10
-81.400000000000006
 20
28.553492301461979
 30
0.0
 11
-81.400000000000006
 21
46.446507698538028
 31
0.0
  0
LINE
  5
1EF
  8
DATA
  6
CONTINUOUS
 62
     7
 10
-83.0
 20
29.95016556472925
 30
0.0
 11
-83.0
 21
45.049834435270732
 31
0.0
  0
LINE
  5
1F0
  8
DATA
  6
CONTINUOUS
 62
     7
 10
-74.200000000000003
 20
26.529129478478009
 30
0.0
 11
-74.200000000000003
 21
48.470870521521988
 31
0.0
  0
LINE
  5
1F1
  8
DATA
  6
CONTINUOUS
 62
     7
 10
-72.200000000000003
 20
26.862331082422241
 30
0.0
 11
-72.200000000000003
 21
48.137668917577741
 31
0.0
  0
LINE
  5
1F2
  8
DATA
  6
CONTINUOUS
 62
     7
 10
-70.599999999999994
 20
27.41833347109716
 30
0.0
 11
-70.599999999999994
 21
47.581666528902808
 31
0.0
  0
LINE
  5
1F3
  8
DATA
  6
CONTINUOUS
 62
     7
 10
-68.599999999999994
 20
28.553492301461979
 30
0.0
 11
-68.599999999999994
 21
46.446507698538028
 31
0.0
  0
LINE
  5
1F4
  8
DATA
  6
CONTINUOUS
 62
     7
 10
-66.999999999999986
 20
29.950165564729261
 30
0.0
 11
-66.999999999999986
 21
45.049834435270732
 31
0.0
  0
LINE
  5
1F5
  8
DATA
  6
CONTINUOUS
 62
     7
 10
-36.0
 20
-12.80000000000002
 30
0.0
 11
-36.0
 21
-11.350000000000019
 31
0.0
  0
LINE
  5
1F6
  8
DATA
  6
CONTINUOUS
 62
     7
 10
-36.0
 20
-9.1500000000000181
 30
0.0
 11
-36.0
 21
-7.7000000000000171
 31
0.0
  0
LINE
  5
1F7
  8
DATA
  6
CONTINUOUS
 62
     7
 10
-36.0
 20
-5.5000000000000204
 30
0.0
 11
-36.0
 21
7.9999999999999849
 31
0.0
  0
LINE
  5
1F8
  8
DATA
  6
CONTINUOUS
 62
     7
 10
-14.0
 20
7.9999999999999849
 30
0.0
 11
-14.0
 21
-5.5000000000000204
 31
0.0
  0
LINE
  5
1F9
  8
DATA
  6
CONTINUOUS
 62
     7
 10
-36.0
 20
-150.0
 30
0.0
 11
-36.0
 21
-24.500000000000011
 31
0.0
  0
LINE
  5
1FA
  8
DATA
  6
CONTINUOUS
 62
     7
 10
-14.0
 20
-150.0
 30
0.0
 11
-36.0
 21
-150.0
 31
0.0
  0
LINE
  5
1FB
  8
DATA
  6
CONTINUOUS
 62
     7
 10
-14.0
 20
-24.500000000000028
 30
0.0
 11
-14.0
 21
-150.0
 31
0.0
  0
LINE
  5
1FC
  8
DATA
  6
CONTINUOUS
 62
     7
 10
-36.0
 20
-23.500000000000011
 30
0.0
 11
-36.0
 21
-15.000000000000011
 31
0.0
  0
LINE
  5
1FD
  8
DATA
  6
CONTINUOUS
 62
     7
 10
-36.0
 20
-136.0
 30
0.0
 11
-14.0
 21
-136.0
 31
0.0
  0
LINE
  5
1FE
  8
DATA
  6
CONTINUOUS
 62
     7
 10
-36.0
 20
-135.79999999701971
 30
0.0
 11
-14.0
 21
-135.79999999701971
 31
0.0
  0
LINE
  5
1FF
  8
DATA
  6
CONTINUOUS
 62
     7
 10
-36.0
 20
-24.500000000000011
 30
0.0
 11
-14.0
 21
-24.500000000000011
 31
0.0
  0
LINE
  5
200
  8
DATA
  6
CONTINUOUS
 62
     7
 10
-36.0
 20
-23.500000000000011
 30
0.0
 11
-14.0
 21
-23.500000000000011
 31
0.0
  0
LINE
  5
201
  8
DATA
  6
CONTINUOUS
 62
     7
 10
-36.0
 20
-3.4000000000000181
 30
0.0
 11
-14.0
 21
-3.4000000000000181
 31
0.0
  0
LINE
  5
202
  8
DATA
  6
CONTINUOUS
 62
     7
 10
-36.0
 20
-15.000000000000011
 30
0.0
 11
-14.0
 21
-15.000000000000011
 31
0.0
  0
LINE
  5
203
  8
DATA
  6
CONTINUOUS
 62
     7
 10
-36.0
 20
-12.80000000000002
 30
0.0
 11
-35.050000000000011
 21
-12.80000000000002
 31
0.0
  0
LINE
  5
204
  8
DATA
  6
CONTINUOUS
 62
     7
 10
-31.250000000000011
 20
-12.80000000000002
 30
0.0
 11
-18.850000000000009
 21
-12.80000000000002
 31
0.0
  0
LINE
  5
205
  8
DATA
  6
CONTINUOUS
 62
     7
 10
-15.04999999999999
 20
-12.80000000000002
 30
0.0
 11
-14.0
 21
-12.80000000000002
 31
0.0
  0
LINE
  5
206
  8
DATA
  6
CONTINUOUS
 62
     7
 10
-36.0
 20
-11.350000000000019
 30
0.0
 11
-35.050000000000011
 21
-11.350000000000019
 31
0.0
  0
LINE
  5
207
  8
DATA
  6
CONTINUOUS
 62
     7
 10
-31.250000000000011
 20
-11.350000000000019
 30
0.0
 11
-18.850000000000009
 21
-11.350000000000019
 31
0.0
  0
LINE
  5
208
  8
DATA
  6
CONTINUOUS
 62
     7
 10
-15.04999999999999
 20
-11.350000000000019
 30
0.0
 11
-14.0
 21
-11.350000000000019
 31
0.0
  0
LINE
  5
209
  8
DATA
  6
CONTINUOUS
 62
     7
 10
-36.0
 20
-9.1500000000000181
 30
0.0
 11
-35.050000000000011
 21
-9.1500000000000181
 31
0.0
  0
LINE
  5
20A
  8
DATA
  6
CONTINUOUS
 62
     7
 10
-31.250000000000011
 20
-9.1500000000000181
 30
0.0
 11
-18.850000000000009
 21
-9.1500000000000181
 31
0.0
  0
LINE
  5
20B
  8
DATA
  6
CONTINUOUS
 62
     7
 10
-15.04999999999999
 20
-9.1500000000000181
 30
0.0
 11
-14.0
 21
-9.1500000000000181
 31
0.0
  0
LINE
  5
20C
  8
DATA
  6
CONTINUOUS
 62
     7
 10
-36.0
 20
-7.7000000000000179
 30
0.0
 11
-35.050000000000011
 21
-7.7000000000000179
 31
0.0
  0
LINE
  5
20D
  8
DATA
  6
CONTINUOUS
 62
     7
 10
-31.250000000000011
 20
-7.7000000000000179
 30
0.0
 11
-18.850000000000009
 21
-7.7000000000000179
 31
0.0
  0
LINE
  5
20E
  8
DATA
  6
CONTINUOUS
 62
     7
 10
-15.04999999999999
 20
-7.7000000000000179
 30
0.0
 11
-14.0
 21
-7.7000000000000179
 31
0.0
  0
LINE
  5
20F
  8
DATA
  6
CONTINUOUS
 62
     7
 10
-36.0
 20
-5.5000000000000204
 30
0.0
 11
-14.0
 21
-5.5000000000000204
 31
0.0
  0
LINE
  5
210
  8
DATA
  6
CONTINUOUS
 62
     7
 10
-31.250000000000011
 20
-15.000000000000011
 30
0.0
 11
-31.250000000000011
 21
-12.80000000000002
 31
0.0
  0
LINE
  5
211
  8
DATA
  6
CONTINUOUS
 62
     7
 10
-31.250000000000011
 20
-11.350000000000019
 30
0.0
 11
-31.250000000000011
 21
-9.1500000000000181
 31
0.0
  0
LINE
  5
212
  8
DATA
  6
CONTINUOUS
 62
     7
 10
-31.250000000000011
 20
-7.7000000000000171
 30
0.0
 11
-31.250000000000011
 21
-5.5000000000000204
 31
0.0
  0
LINE
  5
213
  8
DATA
  6
CONTINUOUS
 62
     7
 10
-18.850000000000009
 20
-5.5000000000000142
 30
0.0
 11
-18.850000000000009
 21
-7.7000000000000171
 31
0.0
  0
LINE
  5
214
  8
DATA
  6
CONTINUOUS
 62
     7
 10
-18.850000000000009
 20
-9.1500000000000181
 30
0.0
 11
-18.850000000000009
 21
-11.350000000000019
 31
0.0
  0
LINE
  5
215
  8
DATA
  6
CONTINUOUS
 62
     7
 10
-18.850000000000009
 20
-12.80000000000001
 30
0.0
 11
-18.850000000000009
 21
-15.000000000000011
 31
0.0
  0
LINE
  5
216
  8
DATA
  6
CONTINUOUS
 62
     7
 10
-36.0
 20
-3.50000000000002
 30
0.0
 11
-14.0
 21
-3.50000000000002
 31
0.0
  0
LINE
  5
217
  8
DATA
  6
CONTINUOUS
 62
     7
 10
-35.050000000000011
 20
-15.000000000000011
 30
0.0
 11
-35.050000000000011
 21
-12.80000000000002
 31
0.0
  0
LINE
  5
218
  8
DATA
  6
CONTINUOUS
 62
     7
 10
-35.050000000000011
 20
-11.350000000000019
 30
0.0
 11
-35.050000000000011
 21
-9.1500000000000181
 31
0.0
  0
LINE
  5
219
  8
DATA
  6
CONTINUOUS
 62
     7
 10
-35.050000000000011
 20
-7.7000000000000171
 30
0.0
 11
-35.050000000000011
 21
-5.5000000000000204
 31
0.0
  0
LINE
  5
21A
  8
DATA
  6
CONTINUOUS
 62
     7
 10
-15.04999999999999
 20
-15.000000000000011
 30
0.0
 11
-15.04999999999999
 21
-12.80000000000002
 31
0.0
  0
LINE
  5
21B
  8
DATA
  6
CONTINUOUS
 62
     7
 10
-15.04999999999999
 20
-11.350000000000019
 30
0.0
 11
-15.04999999999999
 21
-9.1500000000000181
 31
0.0
  0
LINE
  5
21C
  8
DATA
  6
CONTINUOUS
 62
     7
 10
-15.04999999999999
 20
-7.7000000000000171
 30
0.0
 11
-15.04999999999999
 21
-5.5000000000000204
 31
0.0
  0
LINE
  5
21D
  8
DATA
  6
CONTINUOUS
 62
     7
 10
-35.899999999999999
 20
-24.500000000000011
 30
0.0
 11
-35.899999999999999
 21
-23.500000000000011
 31
0.0
  0
LINE
  5
21E
  8
DATA
  6
CONTINUOUS
 62
     7
 10
-14.199999999999999
 20
-24.500000000000028
 30
0.0
 11
-14.199999999999999
 21
-23.500000000000028
 31
0.0
  0
LINE
  5
21F
  8
DATA
  6
CONTINUOUS
 62
     7
 10
-14.0
 20
-23.500000000000011
 30
0.0
 11
-14.0
 21
-15.000000000000011
 31
0.0
  0
LINE
  5
220
  8
DATA
  6
CONTINUOUS
 62
     7
 10
-14.0
 20
-12.80000000000002
 30
0.0
 11
-14.0
 21
-11.350000000000019
 31
0.0
  0
LINE
  5
221
  8
DATA
  6
CONTINUOUS
 62
     7
 10
-14.0
 20
-9.1500000000000181
 30
0.0
 11
-14.0
 21
-7.7000000000000171
 31
0.0
  0
LINE
  5
222
  8
DATA
  6
CONTINUOUS
 62
     7
 10
-14.0
 20
-5.5000000000000204
 30
0.0
 11
-14.0
 21
-5.1287878176288917
 31
0.0
  0
LINE
  5
223
  8
DATA
  6
CONTINUOUS
 62
     7
 10
-36.0
 20
7.9999999999999849
 30
0.0
 11
-14.0
 21
7.9999999999999849
 31
0.0
  0
LINE
  5
224
  8
DATA
  6
CONTINUOUS
 62
     7
 10
14.0
 20
-12.80000000000002
 30
0.0
 11
14.0
 21
-11.350000000000019
 31
0.0
  0
LINE
  5
225
  8
DATA
  6
CONTINUOUS
 62
     7
 10
14.0
 20
-9.1500000000000181
 30
0.0
 11
14.0
 21
-7.7000000000000171
 31
0.0
  0
LINE
  5
226
  8
DATA
  6
CONTINUOUS
 62
     7
 10
14.0
 20
-5.5000000000000204
 30
0.0
 11
14.0
 21
7.9999999999999849
 31
0.0
  0
LINE
  5
227
  8
DATA
  6
CONTINUOUS
 62
     7
 10
36.0
 20
7.9999999999999849
 30
0.0
 11
36.0
 21
-5.5000000000000204
 31
0.0
  0
LINE
  5
228
  8
DATA
  6
CONTINUOUS
 62
     7
 10
14.0
 20
-150.0
 30
0.0
 11
14.0
 21
-24.500000000000011
 31
0.0
  0
LINE
  5
229
  8
DATA
  6
CONTINUOUS
 62
     7
 10
36.0
 20
-150.0
 30
0.0
 11
14.0
 21
-150.0
 31
0.0
  0
LINE
  5
22A
  8
DATA
  6
CONTINUOUS
 62
     7
 10
36.0
 20
-24.500000000000028
 30
0.0
 11
36.0
 21
-150.0
 31
0.0
  0
LINE
  5
22B
  8
DATA
  6
CONTINUOUS
 62
     7
 10
14.0
 20
-23.500000000000011
 30
0.0
 11
14.0
 21
-15.000000000000011
 31
0.0
  0
LINE
  5
22C
  8
DATA
  6
CONTINUOUS
 62
     7
 10
14.0
 20
-136.0
 30
0.0
 11
36.0
 21
-136.0
 31
0.0
  0
LINE
  5
22D
  8
DATA
  6
CONTINUOUS
 62
     7
 10
14.0
 20
-135.79999999701971
 30
0.0
 11
36.0
 21
-135.79999999701971
 31
0.0
  0
LINE
  5
22E
  8
DATA
  6
CONTINUOUS
 62
     7
 10
14.0
 20
-24.500000000000011
 30
0.0
 11
36.0
 21
-24.500000000000011
 31
0.0
  0
LINE
  5
22F
  8
DATA
  6
CONTINUOUS
 62
     7
 10
14.0
 20
-23.500000000000011
 30
0.0
 11
36.0
 21
-23.500000000000011
 31
0.0
  0
LINE
  5
230
  8
DATA
  6
CONTINUOUS
 62
     7
 10
14.0
 20
-3.4000000000000181
 30
0.0
 11
36.0
 21
-3.4000000000000181
 31
0.0
  0
LINE
  5
231
  8
DATA
  6
CONTINUOUS
 62
     7
 10
14.0
 20
-15.000000000000011
 30
0.0
 11
36.0
 21
-15.000000000000011
 31
0.0
  0
LINE
  5
232
  8
DATA
  6
CONTINUOUS
 62
     7
 10
14.0
 20
-12.80000000000002
 30
0.0
 11
14.94999999999999
 21
-12.80000000000002
 31
0.0
  0
LINE
  5
233
  8
DATA
  6
CONTINUOUS
 62
     7
 10
18.749999999999972
 20
-12.80000000000002
 30
0.0
 11
31.149999999999991
 21
-12.80000000000002
 31
0.0
  0
LINE
  5
234
  8
DATA
  6
CONTINUOUS
 62
     7
 10
34.950000000000003
 20
-12.80000000000002
 30
0.0
 11
36.0
 21
-12.80000000000002
 31
0.0
  0
LINE
  5
235
  8
DATA
  6
CONTINUOUS
 62
     7
 10
14.0
 20
-11.350000000000019
 30
0.0
 11
14.94999999999999
 21
-11.350000000000019
 31
0.0
  0
LINE
  5
236
  8
DATA
  6
CONTINUOUS
 62
     7
 10
18.749999999999972
 20
-11.350000000000019
 30
0.0
 11
31.149999999999991
 21
-11.350000000000019
 31
0.0
  0
LINE
  5
237
  8
DATA
  6
CONTINUOUS
 62
     7
 10
34.950000000000003
 20
-11.350000000000019
 30
0.0
 11
36.0
 21
-11.350000000000019
 31
0.0
  0
LINE
  5
238
  8
DATA
  6
CONTINUOUS
 62
     7
 10
14.0
 20
-9.1500000000000181
 30
0.0
 11
14.94999999999999
 21
-9.1500000000000181
 31
0.0
  0
LINE
  5
239
  8
DATA
  6
CONTINUOUS
 62
     7
 10
18.749999999999972
 20
-9.1500000000000181
 30
0.0
 11
31.149999999999991
 21
-9.1500000000000181
 31
0.0
  0
LINE
  5
23A
  8
DATA
  6
CONTINUOUS
 62
     7
 10
34.950000000000003
 20
-9.1500000000000181
 30
0.0
 11
36.0
 21
-9.1500000000000181
 31
0.0
  0
LINE
  5
23B
  8
DATA
  6
CONTINUOUS
 62
     7
 10
14.0
 20
-7.7000000000000179
 30
0.0
 11
14.94999999999999
 21
-7.7000000000000179
 31
0.0
  0
LINE
  5
23C
  8
DATA
  6
CONTINUOUS
 62
     7
 10
18.749999999999972
 20
-7.7000000000000179
 30
0.0
 11
31.149999999999991
 21
-7.7000000000000179
 31
0.0
  0
LINE
  5
23D
  8
DATA
  6
CONTINUOUS
 62
     7
 10
34.950000000000003
 20
-7.7000000000000179
 30
0.0
 11
36.0
 21
-7.7000000000000179
 31
0.0
  0
LINE
  5
23E
  8
DATA
  6
CONTINUOUS
 62
     7
 10
14.0
 20
-5.5000000000000204
 30
0.0
 11
36.0
 21
-5.5000000000000204
 31
0.0
  0
LINE
  5
23F
  8
DATA
  6
CONTINUOUS
 62
     7
 10
18.749999999999972
 20
-15.000000000000011
 30
0.0
 11
18.749999999999972
 21
-12.80000000000002
 31
0.0
  0
LINE
  5
240
  8
DATA
  6
CONTINUOUS
 62
     7
 10
18.749999999999972
 20
-11.350000000000019
 30
0.0
 11
18.749999999999972
 21
-9.1500000000000181
 31
0.0
  0
LINE
  5
241
  8
DATA
  6
CONTINUOUS
 62
     7
 10
18.749999999999972
 20
-7.7000000000000171
 30
0.0
 11
18.749999999999972
 21
-5.5000000000000204
 31
0.0
  0
LINE
  5
242
  8
DATA
  6
CONTINUOUS
 62
     7
 10
31.149999999999991
 20
-5.5000000000000142
 30
0.0
 11
31.149999999999991
 21
-7.7000000000000171
 31
0.0
  0
LINE
  5
243
  8
DATA
  6
CONTINUOUS
 62
     7
 10
31.149999999999991
 20
-9.1500000000000181
 30
0.0
 11
31.149999999999991
 21
-11.350000000000019
 31
0.0
  0
LINE
  5
244
  8
DATA
  6
CONTINUOUS
 62
     7
 10
31.149999999999991
 20
-12.80000000000001
 30
0.0
 11
31.149999999999991
 21
-15.000000000000011
 31
0.0
  0
LINE
  5
245
  8
DATA
  6
CONTINUOUS
 62
     7
 10
14.0
 20
-3.50000000000002
 30
0.0
 11
36.0
 21
-3.50000000000002
 31
0.0
  0
LINE
  5
246
  8
DATA
  6
CONTINUOUS
 62
     7
 10
14.94999999999999
 20
-15.000000000000011
 30
0.0
 11
14.94999999999999
 21
-12.80000000000002
 31
0.0
  0
LINE
  5
247
  8
DATA
  6
CONTINUOUS
 62
     7
 10
14.94999999999999
 20
-11.350000000000019
 30
0.0
 11
14.94999999999999
 21
-9.1500000000000181
 31
0.0
  0
LINE
  5
248
  8
DATA
  6
CONTINUOUS
 62
     7
 10
14.94999999999999
 20
-7.7000000000000171
 30
0.0
 11
14.94999999999999
 21
-5.5000000000000204
 31
0.0
  0
LINE
  5
249
  8
DATA
  6
CONTINUOUS
 62
     7
 10
34.950000000000003
 20
-15.000000000000011
 30
0.0
 11
34.950000000000003
 21
-12.80000000000002
 31
0.0
  0
LINE
  5
24A
  8
DATA
  6
CONTINUOUS
 62
     7
 10
34.950000000000003
 20
-11.350000000000019
 30
0.0
 11
34.950000000000003
 21
-9.1500000000000181
 31
0.0
  0
LINE
  5
24B
  8
DATA
  6
CONTINUOUS
 62
     7
 10
34.950000000000003
 20
-7.7000000000000171
 30
0.0
 11
34.950000000000003
 21
-5.5000000000000204
 31
0.0
  0
LINE
  5
24C
  8
DATA
  6
CONTINUOUS
 62
     7
 10
14.1
 20
-24.500000000000011
 30
0.0
 11
14.1
 21
-23.500000000000011
 31
0.0
  0
LINE
  5
24D
  8
DATA
  6
CONTINUOUS
 62
     7
 10
35.799999999999997
 20
-24.500000000000028
 30
0.0
 11
35.799999999999997
 21
-23.500000000000028
 31
0.0
  0
LINE
  5
24E
  8
DATA
  6
CONTINUOUS
 62
     7
 10
36.0
 20
-23.500000000000011
 30
0.0
 11
36.0
 21
-15.000000000000011
 31
0.0
  0
LINE
  5
24F
  8
DATA
  6
CONTINUOUS
 62
     7
 10
36.0
 20
-12.80000000000002
 30
0.0
 11
36.0
 21
-11.350000000000019
 31
0.0
  0
LINE
  5
250
  8
DATA
  6
CONTINUOUS
 62
     7
 10
36.0
 20
-9.1500000000000181
 30
0.0
 11
36.0
 21
-7.7000000000000171
 31
0.0
  0
LINE
  5
251
  8
DATA
  6
CONTINUOUS
 62
     7
 10
36.0
 20
-5.5000000000000204
 30
0.0
 11
36.0
 21
-5.1287878176288917
 31
0.0
  0
LINE
  5
252
  8
DATA
  6
CONTINUOUS
 62
     7
 10
14.0
 20
7.9999999999999849
 30
0.0
 11
36.0
 21
7.9999999999999849
 31
0.0
  0
ARC
  5
253
  8
DATA
  6
CONTINUOUS
 62
     7
 10
25.0
 20
-10.66666666666668
 30
0.0
 40
21.666666666666661
 50
59.489762593884443
 51
68.33181534423079
  0
ARC
  5
254
  8
DATA
  6
CONTINUOUS
 62
     7
 10
25.0
 20
-10.66666666666668
 30
0.0
 40
21.666666666666661
 50
72.819397979701847
 51
78.283052933079915
  0
ARC
  5
255
  8
DATA
  6
CONTINUOUS
 62
     7
 10
25.0
 20
-10.66666666666668
 30
0.0
 40
21.666666666666661
 50
82.574856314569402
 51
87.883982540587809
  0
ARC
  5
256
  8
DATA
  6
CONTINUOUS
 62
     7
 10
25.0
 20
-10.66666666666668
 30
0.0
 40
21.666666666666661
 50
92.116017459412205
 51
97.425143685430584
  0
ARC
  5
257
  8
DATA
  6
CONTINUOUS
 62
     7
 10
25.0
 20
-10.66666666666668
 30
0.0
 40
21.666666666666671
 50
101.71694706692
 51
107.1806020202981
  0
ARC
  5
258
  8
DATA
  6
CONTINUOUS
 62
     7
 10
25.0
 20
-10.66666666666668
 30
0.0
 40
21.666666666666671
 50
111.6681846557691
 51
120.51023740611549
  0
LINE
  5
259
  8
DATA
  6
CONTINUOUS
 62
     7
 10
25.800000000000001
 20
7.9999999999999849
 30
0.0
 11
25.800000000000001
 21
10.98522573202318
 31
0.0
  0
LINE
  5
25A
  8
DATA
  6
CONTINUOUS
 62
     7
 10
27.800000000000011
 20
7.9999999999999849
 30
0.0
 11
27.800000000000011
 21
10.8183151681975
 31
0.0
  0
LINE
  5
25B
  8
DATA
  6
CONTINUOUS
 62
     7
 10
29.400000000000009
 20
7.9999999999999849
 30
0.0
 11
29.400000000000009
 21
10.548527050206239
 31
0.0
  0
LINE
  5
25C
  8
DATA
  6
CONTINUOUS
 62
     7
 10
31.400000000000009
 20
7.9999999999999849
 30
0.0
 11
31.400000000000009
 21
10.033199140735171
 31
0.0
  0
LINE
  5
25D
  8
DATA
  6
CONTINUOUS
 62
     7
 10
33.000000000000007
 20
7.9999999999999849
 30
0.0
 11
33.000000000000007
 21
9.4689844140519224
 31
0.0
  0
LINE
  5
25E
  8
DATA
  6
CONTINUOUS
 62
     7
 10
24.20000000000001
 20
10.98522573202319
 30
0.0
 11
24.20000000000001
 21
7.9999999999999849
 31
0.0
  0
LINE
  5
25F
  8
DATA
  6
CONTINUOUS
 62
     7
 10
24.199999999999999
 20
7.9999999999999849
 30
0.0
 11
24.199999999999999
 21
10.98522573202318
 31
0.0
  0
LINE
  5
260
  8
DATA
  6
CONTINUOUS
 62
     7
 10
22.199999999999999
 20
7.9999999999999849
 30
0.0
 11
22.199999999999999
 21
10.8183151681975
 31
0.0
  0
LINE
  5
261
  8
DATA
  6
CONTINUOUS
 62
     7
 10
20.600000000000001
 20
7.9999999999999849
 30
0.0
 11
20.600000000000001
 21
10.548527050206239
 31
0.0
  0
LINE
  5
262
  8
DATA
  6
CONTINUOUS
 62
     7
 10
18.599999999999991
 20
7.9999999999999849
 30
0.0
 11
18.599999999999991
 21
10.033199140735171
 31
0.0
  0
LINE
  5
263
  8
DATA
  6
CONTINUOUS
 62
     7
 10
16.999999999999989
 20
7.9999999999999849
 30
0.0
 11
16.999999999999989
 21
9.4689844140519224
 31
0.0
  0
POLYLINE
  5
264
  8
DATA
  6
CONTINUOUS
 62
     7
 66
     1
 10
0.0
 20
0.0
 30
0.0
 70
   129
  0
VERTEX
  5
40B
  8
DATA
  6
CONTINUOUS
 62
     7
 10
24.774999999999999
 20
-35.000000000000007
 30
0.0
  0
VERTEX
  5
40C
  8
DATA
  6
CONTINUOUS
 62
     7
 10
25.225000000000001
 20
-35.000000000000007
 30
0.0
  0
VERTEX
  5
40D
  8
DATA
  6
CONTINUOUS
 62
     7
 10
25.225000000000001
 20
-35.000000000000007
 30
0.0
 42
-0.414213562373093
  0
VERTEX
  5
40E
  8
DATA
  6
CONTINUOUS
 62
     7
 10
26.225000000000001
 20
-36.000000000000007
 30
0.0
  0
VERTEX
  5
40F
  8
DATA
  6
CONTINUOUS
 62
     7
 10
26.225000000000001
 20
-40.0
 30
0.0
  0
VERTEX
  5
410
  8
DATA
  6
CONTINUOUS
 62
     7
 10
26.225000000000001
 20
-40.0
 30
0.0
 42
-0.4142135623730951
  0
VERTEX
  5
411
  8
DATA
  6
CONTINUOUS
 62
     7
 10
25.224999999999991
 20
-41.0
 30
0.0
  0
VERTEX
  5
412
  8
DATA
  6
CONTINUOUS
 62
     7
 10
24.774999999999991
 20
-41.0
 30
0.0
  0
VERTEX
  5
413
  8
DATA
  6
CONTINUOUS
 62
     7
 10
24.774999999999991
 20
-41.0
 30
0.0
 42
-0.4142135623730971
  0
VERTEX
  5
414
  8
DATA
  6
CONTINUOUS
 62
     7
 10
23.774999999999991
 20
-40.0
 30
0.0
  0
VERTEX
  5
415
  8
DATA
  6
CONTINUOUS
 62
     7
 10
23.774999999999991
 20
-36.000000000000007
 30
0.0
  0
VERTEX
  5
416
  8
DATA
  6
CONTINUOUS
 62
     7
 10
23.774999999999991
 20
-36.000000000000007
 30
0.0
 42
-0.4142135623730911
  0
VERTEX
  5
417
  8
DATA
  6
CONTINUOUS
 62
     7
 10
24.774999999999999
 20
-35.000000000000007
 30
0.0
  0
SEQEND
  5
418
  8
DATA
  6
CONTINUOUS
 62
     7
  0
LINE
  5
273
  8
DATA
  6
CONTINUOUS
 62
     7
 10
26.191369163528201
 20
-35.742841216790573
 30
0.0
 11
23.808630836471771
 21
-35.742841216790573
 31
0.0
  0
LINE
  5
274
  8
DATA
  6
CONTINUOUS
 62
     7
 10
26.224999999999991
 20
-36.369406235807283
 30
0.0
 11
23.774999999999991
 21
-36.369406235807283
 31
0.0
  0
TEXT
  5
275
  8
DATA
 62
     7
 10
24.588153259936249
 20
-34.834456490701001
 30
0.0
 40
1.303072955501269
  1
0
 41
0.7
 11
24.588153259936249
 21
-33.53138353519973
 31
0.0
 73
     3
  0
TEXT
  5
276
  8
DATA
 62
     7
 10
22.88418352654563
 20
-42.84695283251768
 30
0.0
 40
1.303072955501269
  1
-20dB
 41
0.7
 11
22.88418352654563
 21
-41.543879877016423
 31
0.0
 73
     3
  0
ARC
  5
277
  8
DATA
  6
CONTINUOUS
 62
     7
 10
-25.0
 20
-10.66666666666668
 30
0.0
 40
21.666666666666661
 50
59.489762593884443
 51
120.51023740611549
  0
LINE
  5
278
  8
DATA
  6
CONTINUOUS
 62
     7
 10
-81.194333976275843
 20
-7.7000000000000171
 30
0.0
 11
-81.250000000000028
 21
-7.6443339762758171
 31
0.0
  0
ENDSEC
  0
EOF
