  0
SECTION
  2
HEADER
  9
$ACADVER
  1
AC1009
  9
$INSBASE
 10
0.0
 20
0.0
 30
0.0
  9
$EXTMIN
 10
-180.01098548994739
 20
-271.68557005312488
 30
-0.0015258207003583
  9
$EXTMAX
 10
180.01098716632811
 20
263.54811651401701
 30
0.0000000349246037
  9
$LIMMIN
 10
0.0
 20
0.0
  9
$LIMMAX
 10
0.0
 20
0.0
  9
$ORTHOMODE
 70
     0
  9
$REGENMODE
 70
     1
  9
$FILLMODE
 70
     1
  9
$QTEXTMODE
 70
     0
  9
$MIRRTEXT
 70
     1
  9
$DRAGMODE
 70
     2
  9
$LTSCALE
 40
10.16
  9
$OSMODE
 70
   231
  9
$ATTMODE
 70
     1
  9
$TEXTSIZE
 40
0.0
  9
$TRACEWID
 40
1.0
  9
$TEXTSTYLE
  7
STANDARD
  9
$CLAYER
  8
DATA
  9
$CELTYPE
  6
BYLAYER
  9
$CECOLOR
 62
   256
  9
$DIMSCALE
 40
1.0
  9
$DIMASZ
 40
0.18
  9
$DIMEXO
 40
0.0625
  9
$DIMDLI
 40
0.38
  9
$DIMRND
 40
0.0
  9
$DIMDLE
 40
0.0
  9
$DIMEXE
 40
0.18
  9
$DIMTP
 40
0.0
  9
$DIMTM
 40
0.0
  9
$DIMTXT
 40
0.18
  9
$DIMCEN
 40
0.09
  9
$DIMTSZ
 40
0.0
  9
$DIMTOL
 70
     0
  9
$DIMLIM
 70
     0
  9
$DIMTIH
 70
     1
  9
$DIMTOH
 70
     1
  9
$DIMSE1
 70
     0
  9
$DIMSE2
 70
     0
  9
$DIMTAD
 70
     0
  9
$DIMZIN
 70
     0
  9
$DIMBLK
  1

  9
$DIMASO
 70
     1
  9
$DIMSHO
 70
     1
  9
$DIMPOST
  1

  9
$DIMAPOST
  1

  9
$DIMALT
 70
     0
  9
$DIMALTD
 70
     2
  9
$DIMALTF
 40
25.399999999999999
  9
$DIMLFAC
 40
1.0
  9
$DIMTOFL
 70
     0
  9
$DIMTVP
 40
0.0
  9
$DIMTIX
 70
     0
  9
$DIMSOXD
 70
     0
  9
$DIMSAH
 70
     0
  9
$DIMBLK1
  1

  9
$DIMBLK2
  1

  9
$DIMSTYLE
  2
STANDARD
  9
$DIMCLRD
 70
     0
  9
$DIMCLRE
 70
     0
  9
$DIMCLRT
 70
     0
  9
$DIMTFAC
 40
1.0
  9
$DIMGAP
 40
0.09
  9
$LUNITS
 70
     2
  9
$LUPREC
 70
     4
  9
$SKETCHINC
 40
0.1
  9
$FILLETRAD
 40
0.0
  9
$AUNITS
 70
     0
  9
$AUPREC
 70
     0
  9
$MENU
  1
acad
  9
$ELEVATION
 40
0.0
  9
$PELEVATION
 40
0.0
  9
$THICKNESS
 40
0.0
  9
$LIMCHECK
 70
     0
  9
$BLIPMODE
 70
     0
  9
$CHAMFERA
 40
0.0
  9
$CHAMFERB
 40
0.0
  9
$SKPOLY
 70
     0
  9
$TDCREATE
 40
2456360.6320717591
  9
$TDUPDATE
 40
2456360.6364385649
  9
$TDINDWG
 40
0.000382963
  9
$TDUSRTIMER
 40
0.0003827778
  9
$USRTIMER
 70
     1
  9
$ANGBASE
 50
0.0
  9
$ANGDIR
 70
     0
  9
$PDMODE
 70
     1
  9
$PDSIZE
 40
-2.0
  9
$PLINEWID
 40
0.0
  9
$COORDS
 70
     2
  9
$SPLFRAME
 70
     0
  9
$SPLINETYPE
 70
     6
  9
$SPLINESEGS
 70
     8
  9
$ATTDIA
 70
     0
  9
$ATTREQ
 70
     1
  9
$HANDLING
 70
     1
  9
$HANDSEED
  5
3F8
  9
$SURFTAB1
 70
     6
  9
$SURFTAB2
 70
     6
  9
$SURFTYPE
 70
     6
  9
$SURFU
 70
     6
  9
$SURFV
 70
     6
  9
$UCSNAME
  2

  9
$UCSORG
 10
0.0
 20
0.0
 30
0.0
  9
$UCSXDIR
 10
1.0
 20
0.0
 30
0.0
  9
$UCSYDIR
 10
0.0
 20
1.0
 30
0.0
  9
$PUCSNAME
  2

  9
$PUCSORG
 10
0.0
 20
0.0
 30
0.0
  9
$PUCSXDIR
 10
1.0
 20
0.0
 30
0.0
  9
$PUCSYDIR
 10
0.0
 20
1.0
 30
0.0
  9
$USERI1
 70
     0
  9
$USERI2
 70
     0
  9
$USERI3
 70
     0
  9
$USERI4
 70
     0
  9
$USERI5
 70
     0
  9
$USERR1
 40
0.0
  9
$USERR2
 40
0.0
  9
$USERR3
 40
0.0
  9
$USERR4
 40
0.0
  9
$USERR5
 40
0.0
  9
$WORLDVIEW
 70
     1
  9
$SHADEDGE
 70
     3
  9
$SHADEDIF
 70
    70
  9
$TILEMODE
 70
     1
  9
$MAXACTVP
 70
    64
  9
$PLIMCHECK
 70
     0
  9
$PEXTMIN
 10
1.0000000000000000E+020
 20
1.0000000000000000E+020
 30
1.0000000000000000E+020
  9
$PEXTMAX
 10
-1.0000000000000000E+020
 20
-1.0000000000000000E+020
 30
-1.0000000000000000E+020
  9
$PLIMMIN
 10
0.0
 20
0.0
  9
$PLIMMAX
 10
12.0
 20
9.0
  9
$UNITMODE
 70
     0
  9
$VISRETAIN
 70
     0
  9
$PLINEGEN
 70
     1
  9
$PSLTSCALE
 70
     0
  0
ENDSEC
  0
SECTION
  2
TABLES
  0
TABLE
  2
VPORT
 70
     1
  0
VPORT
  2
*ACTIVE
 70
     0
 10
0.0
 20
0.0
 11
1.0
 21
1.0
 12
0.000000838190374
 22
-3.5318137563878049
 13
0.0
 23
0.0
 14
1.0
 24
1.0
 15
0.0
 25
0.0
 16
0.0
 26
0.0
 36
1.0
 17
0.0
 27
0.0
 37
0.0
 40
538.34388033616835
 41
2.1503267973856199
 42
50.0
 43
0.0
 44
0.0
 50
0.0
 51
0.0
 71
     0
 72
  2000
 73
     1
 74
     1
 75
     0
 76
     0
 77
     0
 78
     0
  0
ENDTAB
  0
TABLE
  2
LTYPE
 70
    12
  0
LTYPE
  2
CONTINUOUS
 70
     0
  3
Solid line
 72
    65
 73
     0
 40
0.0
  0
LTYPE
  2
PHANTOM2
 70
     0
  3
___ _ _ ___ _ _ ___ _ _ ___ _ _
 72
    65
 73
     6
 40
1.25
 49
0.625
 49
-0.125
 49
0.125
 49
-0.125
 49
0.125
 49
-0.125
  0
LTYPE
  2
STYLE_05
 70
     0
  3

 72
    65
 73
     2
 40
0.208282470703125
 49
0.069427490234375
 49
-0.13885498046875
  0
ENDTAB
  0
TABLE
  2
LAYER
 70
     5
  0
LAYER
  2
0
 70
     0
 62
     7
  6
CONTINUOUS
  0
LAYER
  2
DATA
 70
     0
 62
     7
  6
CONTINUOUS
  0
LAYER
  2
HIBINO-BASE
 70
     0
 62
     7
  6
CONTINUOUS
  0
LAYER
  2
SPEC
 70
     0
 62
     7
  6
CONTINUOUS
  0
LAYER
  2
DIMNSIONS
 70
     0
 62
     7
  6
CONTINUOUS
  0
ENDTAB
  0
TABLE
  2
STYLE
 70
     3
  0
STYLE
  2
STANDARD
 70
     0
 40
0.0
 41
1.0
 50
0.0
 71
     0
 42
0.0
  3
txt
  4
BIGFONT.SHX
  0
ENDTAB
  0
TABLE
  2
VIEW
 70
     0
  0
ENDTAB
  0
TABLE
  2
UCS
 70
     0
  0
ENDTAB
  0
TABLE
  2
APPID
 70
     4
  0
APPID
  2
ACAD
 70
     0
  0
APPID
  2
ACADANNOTATIVE
 70
     0
  0
APPID
  2
ACAD_NAV_VCDISPLAY
 70
     0
  0
APPID
  2
ACAD_MLEADERVER
 70
     0
  0
ENDTAB
  0
TABLE
  2
DIMSTYLE
 70
     2
  0
DIMSTYLE
  2
STANDARD
 70
     0
  3

  4

  5

  6

  7

 40
1.0
 41
0.18
 42
0.0625
 43
0.38
 44
0.18
 45
0.0
 46
0.0
 47
0.0
 48
0.0
140
0.18
141
0.09
142
0.0
143
25.399999999999999
144
1.0
145
0.0
146
1.0
147
0.09
 71
     0
 72
     0
 73
     1
 74
     1
 75
     0
 76
     0
 77
     0
 78
     0
170
     0
171
     2
172
     0
173
     0
174
     0
175
     0
176
     0
177
     0
178
     0
  0
ENDTAB
  0
ENDSEC
  0
SECTION
  2
BLOCKS
  0
BLOCK
  8
0
  2
$MODEL_SPACE
 70
     0
 10
0.0
 20
0.0
 30
0.0
  3
$MODEL_SPACE
  1

  0
ENDBLK
  5
325
  8
0
  0
BLOCK
 67
     1
  8
0
  2
$PAPER_SPACE
 70
     0
 10
0.0
 20
0.0
 30
0.0
  3
$PAPER_SPACE
  1

  0
ENDBLK
  5
321
 67
     1
  8
0
  0
ENDSEC
  0
SECTION
  2
ENTITIES
  0
LINE
  5
2C
  8
HIBINO-BASE
  6
CONTINUOUS
 62
     7
 10
-180.0
 20
263.53181499999999
 30
0.0
 11
180.0
 21
263.53181499999999
 31
0.0
  0
LINE
  5
2D
  8
HIBINO-BASE
  6
CONTINUOUS
 62
     7
 10
180.0
 20
-256.46818500000001
 30
0.0
 11
-180.0
 21
-256.46818500000001
 31
0.0
  0
LINE
  5
2E
  8
HIBINO-BASE
  6
CONTINUOUS
 62
     7
 10
-180.0
 20
-256.46818500000001
 30
0.0
 11
-180.0
 21
263.53181499999999
 31
0.0
  0
TEXT
  5
2F
  8
HIBINO-BASE
 62
     7
 10
-165.63199999999989
 20
-269.28554059999988
 30
0.0
 40
7.2000883593749991
  1
Hibino Corporation
 41
0.7
 11
-165.63199999999989
 21
-262.08545224062487
 31
0.0
 73
     3
  0
LINE
  5
30
  8
HIBINO-BASE
  6
CONTINUOUS
 62
     7
 10
180.0
 20
263.53181499999999
 30
0.0
 11
180.0
 21
-256.46818500000001
 31
0.0
  0
LINE
  5
31
  8
HIBINO-BASE
  6
CONTINUOUS
 62
     7
 10
0.0
 20
-211.46818500000001
 30
0.0
 11
180.0
 21
-211.46818500000001
 31
0.0
  0
LINE
  5
32
  8
HIBINO-BASE
  6
CONTINUOUS
 62
     7
 10
0.0
 20
-256.46818500000001
 30
0.0
 11
0.0
 21
-211.46818500000001
 31
0.0
  0
TEXT
  5
33
  8
HIBINO-BASE
 62
     7
 10
1.7999999999999989
 20
-216.48557166666669
 30
0.0
 40
3.2576822916666659
  1
NOTE
 41
0.7
 11
1.7999999999999989
 21
-213.22788937499999
 31
0.0
 73
     3
  0
LINE
  5
34
  8
HIBINO-BASE
  6
CONTINUOUS
 62
     7
 10
70.0
 20
-256.46818500000001
 30
0.0
 11
70.0
 21
-211.46818500000001
 31
0.0
  0
TEXT
  5
35
  8
HIBINO-BASE
 62
     7
 10
71.799999999999983
 20
-216.48557166666669
 30
0.0
 40
3.2576822916666659
  1
TITLE
 41
0.7
 11
71.799999999999983
 21
-213.22788937499999
 31
0.0
 73
     3
  0
TEXT
  5
36
  8
HIBINO-BASE
 62
     7
 10
100.13678
 20
-269.28554059999988
 30
0.0
 40
7.2000883593749991
  1
ヒビノ株式会社
 41
0.7
 11
100.13678
 21
-262.08545224062487
 31
0.0
 73
     3
  0
LINE
  5
37
  8
HIBINO-BASE
  6
CONTINUOUS
 62
     7
 10
0.0
 20
-236.46818500000001
 30
0.0
 11
180.0
 21
-236.46818500000001
 31
0.0
  0
TEXT
  5
38
  8
HIBINO-BASE
 62
     7
 10
96.799999999999983
 20
-241.37293166666669
 30
0.0
 40
3.2576822916666659
  1
DRAWN
 41
0.7
 11
96.799999999999983
 21
-238.11524937499999
 31
0.0
 73
     3
  0
TEXT
  5
39
  8
HIBINO-BASE
 62
     7
 10
46.79999999999999
 20
-241.37293166666669
 30
0.0
 40
3.2576822916666659
  1
DATE
 41
0.7
 11
46.79999999999999
 21
-238.11524937499999
 31
0.0
 73
     3
  0
TEXT
  5
3A
  8
HIBINO-BASE
 62
     7
 10
26.800000000000001
 20
-241.37293166666669
 30
0.0
 40
3.2576822916666659
  1
SCALE
 41
0.7
 11
26.800000000000001
 21
-238.11524937499999
 31
0.0
 73
     3
  0
TEXT
  5
3B
  8
HIBINO-BASE
 62
     7
 10
71.799999999999983
 20
-241.37293166666669
 30
0.0
 40
3.2576822916666659
  1
DESIGN
 41
0.7
 11
71.799999999999983
 21
-238.11524937499999
 31
0.0
 73
     3
  0
TEXT
  5
3C
  8
HIBINO-BASE
 62
     7
 10
146.7999999999999
 20
-241.37293166666669
 30
0.0
 40
3.2576822916666659
  1
DRAWING NO.
 41
0.7
 11
146.7999999999999
 21
-238.11524937499999
 31
0.0
 73
     3
  0
TEXT
  5
3D
  8
HIBINO-BASE
 62
     7
 10
121.7999999999999
 20
-241.37293166666669
 30
0.0
 40
3.2576822916666659
  1
CHECK
 41
0.7
 11
121.7999999999999
 21
-238.11524937499999
 31
0.0
 73
     3
  0
LINE
  5
3E
  8
HIBINO-BASE
  6
CONTINUOUS
 62
     7
 10
28.75
 20
-253.96818500000001
 30
0.0
 11
36.25
 21
-246.46818500000001
 31
0.0
  0
TEXT
  5
3F
  8
HIBINO-BASE
 62
     7
 10
27.5
 20
-248.68607166666661
 30
0.0
 40
3.2576822916666659
  1
1
 41
0.7
 11
27.5
 21
-245.42838937499999
 31
0.0
 73
     3
  0
LINE
  5
40
  8
HIBINO-BASE
  6
CONTINUOUS
 62
     7
 10
25.0
 20
-256.46818500000001
 30
0.0
 11
25.0
 21
-236.46818500000001
 31
0.0
  0
LINE
  5
41
  8
HIBINO-BASE
  6
CONTINUOUS
 62
     7
 10
44.999999999999993
 20
-256.46818500000001
 30
0.0
 11
44.999999999999993
 21
-236.46818500000001
 31
0.0
  0
LINE
  5
42
  8
HIBINO-BASE
  6
CONTINUOUS
 62
     7
 10
94.999999999999986
 20
-236.46818500000001
 30
0.0
 11
94.999999999999986
 21
-256.46818500000001
 31
0.0
  0
LINE
  5
43
  8
HIBINO-BASE
  6
CONTINUOUS
 62
     7
 10
145.0
 20
-236.46818500000001
 30
0.0
 11
145.0
 21
-256.46818500000001
 31
0.0
  0
LINE
  5
44
  8
HIBINO-BASE
  6
CONTINUOUS
 62
     7
 10
120.0
 20
-256.46818500000001
 30
0.0
 11
120.0
 21
-236.46818500000001
 31
0.0
  0
TEXT
  5
45
  8
HIBINO-BASE
 62
     7
 10
46.713079999999991
 20
-250.7408916666667
 30
0.0
 40
3.2576822916666659
  1
'13.02.
 41
0.7
 11
46.713079999999991
 21
-247.483209375
 31
0.0
 73
     3
  0
TEXT
  5
46
  8
HIBINO-BASE
 62
     7
 10
35.0
 20
-252.43607166666669
 30
0.0
 40
3.2576822916666659
  1
2
 41
0.7
 11
35.0
 21
-249.17838937499999
 31
0.0
 73
     3
  0
TEXT
  5
47
  8
HIBINO-BASE
 62
     7
 10
98.011620022069224
 20
-250.7408916666667
 30
0.0
 40
3.2576822916666659
  1
N.Sasaki
 41
0.7
 11
98.011620022069224
 21
-247.483209375
 31
0.0
 73
     3
  0
TEXT
  5
48
  8
HIBINO-BASE
 62
     7
 10
7.7666666666666968
 20
-252.51618500000001
 30
0.0
 40
6.5153645833333318
  1
A4
 41
0.7
 11
7.7666666666666968
 21
-246.00082041666661
 31
0.0
 73
     3
  0
TEXT
  5
49
  8
HIBINO-BASE
 62
     7
 10
1.9166666666666641
 20
-241.7070949999999
 30
0.0
 40
3.2576822916666659
  1
PAPER SIZE
 41
0.7
 11
1.9166666666666641
 21
-238.44941270833331
 31
0.0
 73
     3
  0
LINE
  5
4A
  8
SPEC
  6
CONTINUOUS
 62
     7
 10
-164.99999999999989
 20
243.53181499999999
 30
0.0
 11
130.0
 21
243.53181499999999
 31
0.0
  0
LINE
  5
4B
  8
SPEC
  6
CONTINUOUS
 62
     7
 10
-164.99999999999989
 20
236.03181499999999
 30
0.0
 11
130.0
 21
236.03181499999999
 31
0.0
  0
LINE
  5
4C
  8
SPEC
  6
CONTINUOUS
 62
     7
 10
-164.99999999999989
 20
228.53181499999999
 30
0.0
 11
130.0
 21
228.53181499999999
 31
0.0
  0
TEXT
  5
4D
  8
SPEC
 62
     7
 10
-162.5
 20
246.318355
 30
0.0
 40
4.8865234375000002
  1
仕様
 41
0.7
 11
-162.5
 21
251.20487843750001
 31
0.0
 73
     3
  0
LINE
  5
4E
  8
SPEC
  6
CONTINUOUS
 62
     7
 10
-164.99999999999989
 20
221.03181499999999
 30
0.0
 11
130.0
 21
221.03181499999999
 31
0.0
  0
LINE
  5
4F
  8
SPEC
  6
CONTINUOUS
 62
     7
 10
-164.99999999999989
 20
213.53181499999999
 30
0.0
 11
130.0
 21
213.53181499999999
 31
0.0
  0
LINE
  5
50
  8
SPEC
  6
CONTINUOUS
 62
     7
 10
-164.99999999999989
 20
206.03181499999999
 30
0.0
 11
130.0
 21
206.03181499999999
 31
0.0
  0
LINE
  5
51
  8
SPEC
  6
CONTINUOUS
 62
     7
 10
-164.99999999999989
 20
198.53181499999999
 30
0.0
 11
130.0
 21
198.53181499999999
 31
0.0
  0
LINE
  5
52
  8
SPEC
  6
CONTINUOUS
 62
     7
 10
-164.99999999999989
 20
191.03181499999999
 30
0.0
 11
130.0
 21
191.03181499999999
 31
0.0
  0
LINE
  5
53
  8
SPEC
  6
CONTINUOUS
 62
     7
 10
-164.99999999999989
 20
183.53181499999999
 30
0.0
 11
130.0
 21
183.53181499999999
 31
0.0
  0
LINE
  5
54
  8
SPEC
  6
CONTINUOUS
 62
     7
 10
-164.99999999999989
 20
176.03181499999991
 30
0.0
 11
130.0
 21
176.03181499999991
 31
0.0
  0
LINE
  5
55
  8
SPEC
  6
CONTINUOUS
 62
     7
 10
-164.99999999999989
 20
168.53181499999991
 30
0.0
 11
130.0
 21
168.53181499999991
 31
0.0
  0
LINE
  5
56
  8
SPEC
  6
CONTINUOUS
 62
     7
 10
-164.99999999999989
 20
161.03181499999991
 30
0.0
 11
130.0
 21
161.03181499999991
 31
0.0
  0
LINE
  5
57
  8
SPEC
  6
CONTINUOUS
 62
     7
 10
-164.99999999999989
 20
146.03181499999991
 30
0.0
 11
130.0
 21
146.03181499999991
 31
0.0
  0
LINE
  5
58
  8
SPEC
  6
CONTINUOUS
 62
     7
 10
-164.99999999999989
 20
243.53181499999999
 30
0.0
 11
-164.99999999999989
 21
131.03181499999991
 31
0.0
  0
LINE
  5
59
  8
SPEC
  6
CONTINUOUS
 62
     7
 10
130.0
 20
243.53181499999999
 30
0.0
 11
130.0
 21
131.03181499999991
 31
0.0
  0
LINE
  5
5A
  8
SPEC
  6
CONTINUOUS
 62
     7
 10
-100.0
 20
243.53181499999999
 30
0.0
 11
-100.0
 21
131.03181499999991
 31
0.0
  0
TEXT
  5
5B
  8
SPEC
 62
     7
 10
-163.41234268520191
 20
140.7795500298316
 30
0.0
 40
3.8006293402777769
  1
寸法(W\U+00D7H\U+00D7D)
 41
0.7
 11
-163.41234268520191
 21
144.58017937010931
 31
0.0
 73
     3
  0
TEXT
  5
5C
  8
SPEC
 62
     7
 10
-98.153213502617987
 20
140.30161709914779
 30
0.0
 40
3.8006293402777769
  1
60\U+00D772\U+00D722mm(除突起部)
 41
0.7
 11
-98.153213502617987
 21
144.10224643942561
 31
0.0
 73
     3
  0
TEXT
  5
5D
  8
SPEC
 62
     7
 10
-98.178131120693322
 20
132.97537162613239
 30
0.0
 40
3.8006293402777769
  1
70g(除電池)
 41
0.7
 11
-98.178131120693322
 21
136.77600096641009
 31
0.0
 73
     3
  0
TEXT
  5
5E
  8
SPEC
 62
     7
 10
-163.3915255723503
 20
133.07185819446801
 30
0.0
 40
3.8006293402777769
  1
質量
 41
0.7
 11
-163.3915255723503
 21
136.87248753474569
 31
0.0
 73
     3
  0
TEXT
  5
5F
  8
SPEC
 62
     7
 10
-163.49915296979549
 20
192.89774390635441
 30
0.0
 40
3.8006293402777769
  1
アンテナ形式
 41
0.7
 11
-163.49915296979549
 21
196.69837324663209
 31
0.0
 73
     3
  0
TEXT
  5
60
  8
SPEC
 62
     7
 10
-98.449482276986274
 20
192.93101634430869
 30
0.0
 40
3.8006293402777769
  1
1/4波長ホイップアンテナ
 41
0.7
 11
-98.449482276986274
 21
196.7316456845864
 31
0.0
 73
     3
  0
TEXT
  5
61
  8
SPEC
 62
     7
 10
-163.30667542644341
 20
185.6442755585349
 30
0.0
 40
3.8006293402777769
  1
入力端子
 41
0.7
 11
-163.30667542644341
 21
189.44490489881261
 31
0.0
 73
     3
  0
TEXT
  5
62
  8
SPEC
 62
     7
 10
-99.051252687857058
 20
185.55463473818051
 30
0.0
 40
3.8006293402777769
  1
ミニXLR 3ピン(オス)
 41
0.7
 11
-99.051252687857058
 21
189.3552640784583
 31
0.0
 73
     3
  0
TEXT
  5
63
  8
SPEC
 62
     7
 10
-163.19565289709399
 20
178.0963231564622
 30
0.0
 40
3.8006293402777769
  1
最大入力レベル
 41
0.7
 11
-163.19565289709399
 21
181.89695249674
 31
0.0
 73
     3
  0
TEXT
  5
64
  8
SPEC
 62
     7
 10
-98.396630105968129
 20
178.03253500971979
 30
0.0
 40
3.8006293402777769
  1
12dBu
 41
0.7
 11
-98.396630105968129
 21
181.83316434999759
 31
0.0
 73
     3
  0
TEXT
  5
65
  8
SPEC
 62
     7
 10
-163.42399391389651
 20
170.34673994308289
 30
0.0
 40
3.8006293402777769
  1
ゲイン調整範囲
 41
0.7
 11
-163.42399391389651
 21
174.1473692833606
 31
0.0
 73
     3
  0
TEXT
  5
66
  8
SPEC
 62
     7
 10
-98.140159947801706
 20
170.49975475761511
 30
0.0
 40
3.8006293402777769
  1
0～37dB
 41
0.7
 11
-98.140159947801706
 21
174.3003840978929
 31
0.0
 73
     3
  0
TEXT
  5
67
  8
SPEC
 62
     7
 10
-163.39367647462461
 20
162.97536716475119
 30
0.0
 40
3.8006293402777769
  1
電源
 41
0.7
 11
-163.39367647462461
 21
166.77599650502901
 31
0.0
 73
     3
  0
TEXT
  5
68
  8
SPEC
 62
     7
 10
-163.37484618330589
 20
155.4876387091858
 30
0.0
 40
3.8006293402777769
  1
電池寿命
 41
0.7
 11
-163.37484618330589
 21
159.2882680494636
 31
0.0
 73
     3
  0
LINE
  5
69
  8
SPEC
  6
CONTINUOUS
 62
     7
 10
-164.99999999999989
 20
131.03181499999991
 30
0.0
 11
130.0
 21
131.03181499999991
 31
0.0
  0
TEXT
  5
6A
  8
SPEC
 62
     7
 10
-98.213990675080964
 20
237.71725653614979
 30
0.0
 40
3.8006293402777769
  1
F3E
 41
0.7
 11
-98.213990675080964
 21
241.51788587642761
 31
0.0
 73
     3
  0
TEXT
  5
6B
  8
SPEC
 62
     7
 10
-163.3125081488908
 20
237.98709177769689
 30
0.0
 40
3.8006293402777769
  1
電波形式
 41
0.7
 11
-163.3125081488908
 21
241.7877211179746
 31
0.0
 73
     3
  0
TEXT
  5
6C
  8
SPEC
 62
     7
 10
-98.217033785664199
 20
230.28524789003771
 30
0.0
 40
3.8006293402777769
  1
806.125～809.750MHz
 41
0.7
 11
-98.217033785664199
 21
234.0858772303155
 31
0.0
 73
     3
  0
TEXT
  5
6D
  8
SPEC
 62
     7
 10
-163.22874452966559
 20
230.34859850894159
 30
0.0
 40
3.8006293402777769
  1
搬送波周波数
 41
0.7
 11
-163.22874452966559
 21
234.1492278492193
 31
0.0
 73
     3
  0
TEXT
  5
6E
  8
SPEC
 62
     7
 10
-98.468628403125393
 20
215.53697785345369
 30
0.0
 40
3.8006293402777769
  1
10mW
 41
0.7
 11
-98.468628403125393
 21
219.3376071937314
 31
0.0
 73
     3
  0
TEXT
  5
6F
  8
SPEC
 62
     7
 10
-163.23517057006521
 20
215.61766285848009
 30
0.0
 40
3.8006293402777769
  1
空中線電力
 41
0.7
 11
-163.23517057006521
 21
219.41829219875791
 31
0.0
 73
     3
  0
TEXT
  5
70
  8
SPEC
 62
     7
 10
-98.104194310547925
 20
208.10957168337339
 30
0.0
 40
3.8006293402777769
  1
0.3%%%以下
 41
0.7
 11
-98.104194310547925
 21
211.9102010236511
 31
0.0
 73
     3
  0
TEXT
  5
71
  8
SPEC
 62
     7
 10
-163.1875064585621
 20
207.8625943356092
 30
0.0
 40
3.8006293402777769
  1
THD
 41
0.7
 11
-163.1875064585621
 21
211.663223675887
 31
0.0
 73
     3
  0
TEXT
  5
72
  8
SPEC
 62
     7
 10
-163.2553533051904
 20
222.9322876132789
 30
0.0
 40
3.8006293402777769
  1
到達距離
 41
0.7
 11
-163.2553533051904
 21
226.7329169535567
 31
0.0
 73
     3
  0
TEXT
  5
73
  8
SPEC
 62
     7
 10
-98.275544713314929
 20
222.93960972197971
 30
0.0
 40
3.8006293402777769
  1
約70m ※見通しのよい屋外で使用した場合、※使用環境により異なる
 41
0.7
 11
-98.275544713314929
 21
226.74023906225739
 31
0.0
 73
     3
  0
TEXT
  5
74
  8
SPEC
 62
     7
 10
-98.191170773368583
 20
200.32042256673759
 30
0.0
 40
3.8006293402777769
  1
35Hz～20kHz(\U+00B13dB） ※システム全体の帯域幅はマイクロホンにより変動　   
 41
0.7
 11
-98.191170773368583
 21
204.12105190701541
 31
0.0
 73
     3
  0
TEXT
  5
75
  8
SPEC
 62
     7
 10
-163.1761678015439
 20
200.28613905698069
 30
0.0
 40
3.8006293402777769
  1
周波数特性
 41
0.7
 11
-163.1761678015439
 21
204.08676839725851
 31
0.0
 73
     3
  0
LINE
  5
76
  8
SPEC
  6
CONTINUOUS
 62
     7
 10
-164.99999999999989
 20
138.53181499999991
 30
0.0
 11
130.0
 21
138.53181499999991
 31
0.0
  0
TEXT
  5
77
  8
SPEC
 62
     7
 10
-98.215258314869402
 20
162.90326895197009
 30
0.0
 40
3.8006293402777769
  1
単3アルカリ乾電池\U+00D71または単3形ニッケル水素充電池\U+00D71または単3形リチウム乾電池\U+00D71
 41
0.7
 11
-98.215258314869402
 21
166.70389829224791
 31
0.0
 73
     3
  0
TEXT
  5
78
  8
SPEC
 62
     7
 10
-98.488768922992989
 20
155.6611898200776
 30
0.0
 40
3.8006293402777769
  1
アルカリ乾電池：約7時間、ニッケル水素充電池：約8時間、リチウム乾電池：約14時間
 41
0.7
 11
-98.488768922992989
 21
159.46181916035539
 31
0.0
 73
     3
  0
TEXT
  5
79
  8
SPEC
 62
     7
 10
-98.488768922992989
 20
148.22200000000001
 30
0.0
 40
3.8006293402777769
  1
※使用環境により異なる
 41
0.7
 11
-98.488768922992989
 21
152.02262934027769
 31
0.0
 73
     3
  0
TEXT
  5
7A
  8
DIMNSIONS
 62
     7
 10
-40.0
 20
-231.929205
 30
0.0
 40
4.8865234375000002
  1
(単位：mm)
 41
0.7
 11
-40.0
 21
-227.04268156250001
 31
0.0
 73
     3
  0
LINE
  5
7B
  8
DIMNSIONS
  6
CONTINUOUS
 62
     7
 10
-73.999999999647045
 20
30.000000000252442
 30
0.0
 11
-124.0
 21
30.000000000252442
 31
0.0
  0
LINE
  5
7C
  8
DIMNSIONS
  6
CONTINUOUS
 62
     7
 10
-102.7499999996471
 20
52.000000000252697
 30
0.0
 11
-124.0
 21
52.000000000252697
 31
0.0
  0
LINE
  5
7D
  8
DIMNSIONS
  6
CONTINUOUS
 62
     7
 10
-120.0
 20
30.000000000252442
 30
0.0
 11
-120.0
 21
52.000000000252697
 31
0.0
  0
LINE
  5
7E
  8
DIMNSIONS
  6
CONTINUOUS
 62
     7
 10
-120.0
 20
30.000000000252442
 30
0.0
 11
-121.3400795903005
 21
35.00124511743995
 31
0.0
  0
LINE
  5
7F
  8
DIMNSIONS
  6
CONTINUOUS
 62
     7
 10
-120.0
 20
30.000000000252442
 30
0.0
 11
-118.6599204096995
 21
35.00124511743995
 31
0.0
  0
LINE
  5
80
  8
DIMNSIONS
  6
CONTINUOUS
 62
     7
 10
-120.0
 20
52.000000000252697
 30
0.0
 11
-118.6599204096995
 21
46.998754883065203
 31
0.0
  0
LINE
  5
81
  8
DIMNSIONS
  6
CONTINUOUS
 62
     7
 10
-120.0
 20
52.000000000252697
 30
0.0
 11
-121.3400795903005
 21
46.998754883065203
 31
0.0
  0
TEXT
  5
82
  8
DIMNSIONS
 62
     7
 10
-121.98777777777769
 20
33.944444444697012
 30
0.0
 40
5.4294704861111107
  1
22.0
 50
90.0
 41
0.7
 11
-127.41724826388879
 21
33.944444444697012
 31
0.0
 73
     3
  0
LINE
  5
83
  8
DIMNSIONS
  6
CONTINUOUS
 62
     7
 10
-101.9999999996471
 20
-129.9999999997477
 30
0.0
 11
-124.0
 21
-129.9999999997477
 31
0.0
  0
LINE
  5
84
  8
DIMNSIONS
  6
CONTINUOUS
 62
     7
 10
-101.9999999996471
 20
-57.999999999747708
 30
0.0
 11
-124.0
 21
-57.999999999747708
 31
0.0
  0
LINE
  5
85
  8
DIMNSIONS
  6
CONTINUOUS
 62
     7
 10
-120.0
 20
-129.9999999997477
 30
0.0
 11
-120.0
 21
-57.999999999747708
 31
0.0
  0
LINE
  5
86
  8
DIMNSIONS
  6
CONTINUOUS
 62
     7
 10
-120.0
 20
-129.9999999997477
 30
0.0
 11
-121.3400795903005
 21
-124.99875488256021
 31
0.0
  0
LINE
  5
87
  8
DIMNSIONS
  6
CONTINUOUS
 62
     7
 10
-120.0
 20
-129.9999999997477
 30
0.0
 11
-118.6599204096995
 21
-124.99875488256021
 31
0.0
  0
LINE
  5
88
  8
DIMNSIONS
  6
CONTINUOUS
 62
     7
 10
-120.0
 20
-57.999999999747708
 30
0.0
 11
-118.6599204096995
 21
-63.001245116935209
 31
0.0
  0
LINE
  5
89
  8
DIMNSIONS
  6
CONTINUOUS
 62
     7
 10
-120.0
 20
-57.999999999747708
 30
0.0
 11
-121.3400795903005
 21
-63.001245116935209
 31
0.0
  0
TEXT
  5
8A
  8
DIMNSIONS
 62
     7
 10
-121.98777777777769
 20
-101.0555555553032
 30
0.0
 40
5.4294704861111107
  1
72.0
 50
90.0
 41
0.7
 11
-127.41724826388879
 21
-101.0555555553032
 31
0.0
 73
     3
  0
LINE
  5
8B
  8
DIMNSIONS
  6
CONTINUOUS
 62
     7
 10
-99.999999999647088
 20
-131.9999999997477
 30
0.0
 11
-99.999999999647088
 21
-154.0
 31
0.0
  0
LINE
  5
8C
  8
DIMNSIONS
  6
CONTINUOUS
 62
     7
 10
-39.999999999647102
 20
-131.9999999997477
 30
0.0
 11
-39.999999999647102
 21
-154.0
 31
0.0
  0
LINE
  5
8D
  8
DIMNSIONS
  6
CONTINUOUS
 62
     7
 10
-99.999999999647088
 20
-150.0
 30
0.0
 11
-39.999999999647102
 21
-150.0
 31
0.0
  0
LINE
  5
8E
  8
DIMNSIONS
  6
CONTINUOUS
 62
     7
 10
-99.999999999647088
 20
-150.0
 30
0.0
 11
-94.998754882459593
 21
-148.65992040969951
 31
0.0
  0
LINE
  5
8F
  8
DIMNSIONS
  6
CONTINUOUS
 62
     7
 10
-99.999999999647088
 20
-150.0
 30
0.0
 11
-94.998754882459593
 21
-151.34007959030041
 31
0.0
  0
LINE
  5
90
  8
DIMNSIONS
  6
CONTINUOUS
 62
     7
 10
-39.999999999647102
 20
-150.0
 30
0.0
 11
-45.001245116834582
 21
-151.34007959030041
 31
0.0
  0
LINE
  5
91
  8
DIMNSIONS
  6
CONTINUOUS
 62
     7
 10
-39.999999999647102
 20
-150.0
 30
0.0
 11
-45.001245116834582
 21
-148.65992040969951
 31
0.0
  0
TEXT
  5
92
  8
DIMNSIONS
 62
     7
 10
-77.055555555202631
 20
-148.01222222222219
 30
0.0
 40
5.4294704861111107
  1
60.0
 41
0.7
 11
-77.055555555202631
 21
-142.58275173611111
 31
0.0
 73
     3
  0
LINE
  5
93
  8
DIMNSIONS
  6
CONTINUOUS
 62
     7
 10
-105.9999999996471
 20
-57.999999999747708
 30
0.0
 11
-124.0
 21
-57.999999999747708
 31
0.0
  0
LINE
  5
94
  8
DIMNSIONS
  6
CONTINUOUS
 62
     7
 10
-53.349999999647068
 20
14.00000000025212
 30
0.0
 11
-124.0
 21
14.00000000025212
 31
0.0
  0
LINE
  5
95
  8
DIMNSIONS
  6
CONTINUOUS
 62
     7
 10
-120.0
 20
-57.999999999747708
 30
0.0
 11
-120.0
 21
14.00000000025212
 31
0.0
  0
LINE
  5
96
  8
DIMNSIONS
  6
CONTINUOUS
 62
     7
 10
-120.0
 20
-57.999999999747708
 30
0.0
 11
-121.3400795903005
 21
-52.998754882560199
 31
0.0
  0
LINE
  5
97
  8
DIMNSIONS
  6
CONTINUOUS
 62
     7
 10
-120.0
 20
-57.999999999747708
 30
0.0
 11
-118.6599204096995
 21
-52.998754882560199
 31
0.0
  0
LINE
  5
98
  8
DIMNSIONS
  6
CONTINUOUS
 62
     7
 10
-120.0
 20
14.00000000025212
 30
0.0
 11
-118.6599204096995
 21
8.9987548830646205
 31
0.0
  0
LINE
  5
99
  8
DIMNSIONS
  6
CONTINUOUS
 62
     7
 10
-120.0
 20
14.00000000025212
 30
0.0
 11
-121.3400795903005
 21
8.9987548830646205
 31
0.0
  0
TEXT
  5
9A
  8
DIMNSIONS
 62
     7
 10
-121.9877784990108
 20
-29.055560938265039
 30
0.0
 40
5.4294744504779251
  1
72.0
 50
90.0
 41
0.7
 11
-127.4172529494888
 21
-29.055560938265039
 31
0.0
 73
     3
  0
TEXT
  5
9B
  8
DATA
 62
     7
 10
100.0
 20
-234.20640499999999
 30
0.0
 40
4.8865234375000002
  1
PT470
 41
0.7
 11
100.0
 21
-229.3198815625
 31
0.0
 73
     3
  0
TEXT
  5
9C
  8
DATA
 62
     7
 10
100.0
 20
-219.70640499999999
 30
0.0
 40
4.8865234375000002
  1
AKG
 41
0.7
 11
100.0
 21
-214.8198815625
 31
0.0
 73
     3
  0
TEXT
  5
9D
  8
DATA
 62
     7
 10
99.501176041328776
 20
-226.2895357513635
 30
0.0
 40
3.257687421875
  1
ボディーパック型送信機
 41
0.7
 11
99.501176041328776
 21
-223.0318483294885
 31
0.0
 73
     3
  0
LINE
  5
9E
  8
DATA
  6
CONTINUOUS
 62
     7
 10
-99.999999999647088
 20
-127.9999999997477
 30
0.0
 11
-99.999999999647088
 21
-59.999999999747708
 31
0.0
  0
ARC
  5
9F
  8
DATA
  6
CONTINUOUS
 62
     7
 10
-97.999999999647088
 20
-127.9999999997477
 30
0.0
 40
2.0
 50
180.0
 51
270.0
  0
LINE
  5
A0
  8
DATA
  6
CONTINUOUS
 62
     7
 10
-41.999999999647088
 20
-129.9999999997477
 30
0.0
 11
-97.999999999647088
 21
-129.9999999997477
 31
0.0
  0
ARC
  5
A1
  8
DATA
  6
CONTINUOUS
 62
     7
 10
-41.999999999647088
 20
-127.9999999997477
 30
0.0
 40
2.0
 50
270.0
 51
0.0
  0
LINE
  5
A2
  8
DATA
  6
CONTINUOUS
 62
     7
 10
-39.999999999647102
 20
-59.999999999747708
 30
0.0
 11
-39.999999999647102
 21
-127.9999999997477
 31
0.0
  0
ARC
  5
A3
  8
DATA
  6
CONTINUOUS
 62
     7
 10
-41.999999999647088
 20
-59.999999999747708
 30
0.0
 40
2.0
 50
0.0
 51
90.0
  0
LINE
  5
A4
  8
DATA
  6
CONTINUOUS
 62
     7
 10
-97.999999999647088
 20
-57.999999999747708
 30
0.0
 11
-41.999999999647088
 21
-57.999999999747708
 31
0.0
  0
ARC
  5
A5
  8
DATA
  6
CONTINUOUS
 62
     7
 10
-97.999999999647088
 20
-59.999999999747708
 30
0.0
 40
2.0
 50
90.0
 51
180.0
  0
LINE
  5
A6
  8
DATA
  6
CONTINUOUS
 62
     7
 10
-99.999999999647088
 20
-102.9999999997477
 30
0.0
 11
-39.999999999647102
 21
-102.9999999997477
 31
0.0
  0
LINE
  5
A7
  8
DATA
  6
CONTINUOUS
 62
     7
 10
-99.999999999647088
 20
-102.31999999974769
 30
0.0
 11
-39.999999999647102
 21
-102.31999999974769
 31
0.0
  0
LINE
  5
A8
  8
DATA
  6
CONTINUOUS
 62
     7
 10
-99.699999999647076
 20
-102.9999999997477
 30
0.0
 11
-99.699999999647076
 21
-102.31999999974769
 31
0.0
  0
LINE
  5
A9
  8
DATA
  6
CONTINUOUS
 62
     7
 10
-40.299999999647092
 20
-102.9999999997477
 30
0.0
 11
-40.299999999647092
 21
-102.31999999974769
 31
0.0
  0
TEXT
  5
AA
  8
DATA
 62
     7
 10
-90.938683363928874
 20
-116.08061563524269
 30
0.0
 40
2.0360514322916661
  1
PT 470
 41
0.7
 11
-90.938683363928874
 21
-114.04456420295099
 31
0.0
 73
     3
  0
TEXT
  5
AB
  8
DATA
 62
     7
 10
-88.230471725551183
 20
-118.1506368706596
 30
0.0
 40
1.3851562500000001
  1
POCKET TRANSMITTER
 41
0.7
 11
-88.230471725551183
 21
-116.7654806206596
 31
0.0
 73
     3
  0
POLYLINE
  5
AC
  8
DATA
  6
CONTINUOUS
 62
     7
 66
     1
 10
0.0
 20
0.0
 30
0.0
 70
     1
  0
VERTEX
  5
357
  8
DATA
  6
CONTINUOUS
 62
     7
 10
-79.999999999647017
 20
-103.9499999997477
 30
0.0
  0
VERTEX
  5
358
  8
DATA
  6
CONTINUOUS
 62
     7
 10
-59.999999999647031
 20
-103.9499999997477
 30
0.0
  0
VERTEX
  5
359
  8
DATA
  6
CONTINUOUS
 62
     7
 10
-59.999999999647031
 20
-104.6699999997477
 30
0.0
  0
VERTEX
  5
35A
  8
DATA
  6
CONTINUOUS
 62
     7
 10
-79.999999999647017
 20
-104.6699999997477
 30
0.0
  0
SEQEND
  5
35B
  8
DATA
  6
CONTINUOUS
 62
     7
  0
POLYLINE
  5
B3
  8
DATA
  6
CONTINUOUS
 62
     7
 66
     1
 10
0.0
 20
0.0
 30
0.0
 70
     1
  0
VERTEX
  5
35C
  8
DATA
  6
CONTINUOUS
 62
     7
 10
-79.999999999647017
 20
-105.5499999997477
 30
0.0
  0
VERTEX
  5
35D
  8
DATA
  6
CONTINUOUS
 62
     7
 10
-59.999999999647031
 20
-105.5499999997477
 30
0.0
  0
VERTEX
  5
35E
  8
DATA
  6
CONTINUOUS
 62
     7
 10
-59.999999999647031
 20
-106.2699999997477
 30
0.0
  0
VERTEX
  5
35F
  8
DATA
  6
CONTINUOUS
 62
     7
 10
-79.999999999647017
 20
-106.2699999997477
 30
0.0
  0
SEQEND
  5
360
  8
DATA
  6
CONTINUOUS
 62
     7
  0
POLYLINE
  5
BA
  8
DATA
  6
CONTINUOUS
 62
     7
 66
     1
 10
0.0
 20
0.0
 30
0.0
 70
     1
  0
VERTEX
  5
361
  8
DATA
  6
CONTINUOUS
 62
     7
 10
-79.999999999647017
 20
-107.14999999974771
 30
0.0
  0
VERTEX
  5
362
  8
DATA
  6
CONTINUOUS
 62
     7
 10
-59.999999999647031
 20
-107.14999999974771
 30
0.0
  0
VERTEX
  5
363
  8
DATA
  6
CONTINUOUS
 62
     7
 10
-59.999999999647031
 20
-107.86999999974771
 30
0.0
  0
VERTEX
  5
364
  8
DATA
  6
CONTINUOUS
 62
     7
 10
-79.999999999647017
 20
-107.86999999974771
 30
0.0
  0
SEQEND
  5
365
  8
DATA
  6
CONTINUOUS
 62
     7
  0
LINE
  5
C1
  8
DATA
  6
CONTINUOUS
 62
     7
 10
-99.999999999647088
 20
-72.999999999747715
 30
0.0
 11
-39.999999999647102
 21
-72.999999999747715
 31
0.0
  0
ARC
  5
C2
  8
DATA
  6
CONTINUOUS
 62
     7
 10
-68.636108974385223
 20
-70.756702951886382
 30
0.0
 40
24.780858490526391
 50
235.98156113220381
 51
266.84495570812902
  0
ARC
  5
C3
  8
DATA
  6
CONTINUOUS
 62
     7
 10
-111.0023619360192
 20
-138.75767629295689
 30
0.0
 40
55.361967133742723
 50
59.013472297411617
 51
78.537003500398015
  0
ARC
  5
C4
  8
DATA
  6
CONTINUOUS
 62
     7
 10
-71.363891024908781
 20
-70.756702951886382
 30
0.0
 40
24.780858490526381
 50
273.15504429187098
 51
304.01843886779602
  0
ARC
  5
C5
  8
DATA
  6
CONTINUOUS
 62
     7
 10
-28.997638063274959
 20
-138.75767629295689
 30
0.0
 40
55.361967133742702
 50
101.462996499602
 51
120.9865277025883
  0
LINE
  5
C6
  8
DATA
  6
CONTINUOUS
 62
     7
 10
-76.039999999646994
 20
-55.799999999747698
 30
0.0
 11
-63.959999999647067
 21
-55.799999999747698
 31
0.0
  0
LINE
  5
C7
  8
DATA
  6
CONTINUOUS
 62
     7
 10
-75.499999999646988
 20
-54.499999999747679
 30
0.0
 11
-64.499999999647031
 21
-54.499999999747679
 31
0.0
  0
LINE
  5
C8
  8
DATA
  6
CONTINUOUS
 62
     7
 10
-76.399999999647022
 20
-57.999999999747708
 30
0.0
 11
-76.039999999646994
 21
-55.799999999747698
 31
0.0
  0
LINE
  5
C9
  8
DATA
  6
CONTINUOUS
 62
     7
 10
-75.499999999646988
 20
-54.499999999747679
 30
0.0
 11
-75.889999999647017
 21
-55.799999999747698
 31
0.0
  0
LINE
  5
CA
  8
DATA
  6
CONTINUOUS
 62
     7
 10
-63.599999999647039
 20
-57.999999999747708
 30
0.0
 11
-63.959999999647067
 21
-55.799999999747698
 31
0.0
  0
LINE
  5
CB
  8
DATA
  6
CONTINUOUS
 62
     7
 10
-64.499999999647031
 20
-54.499999999747679
 30
0.0
 11
-64.10999999964703
 21
-55.799999999747698
 31
0.0
  0
LINE
  5
CC
  8
DATA
  6
CONTINUOUS
 62
     7
 10
-46.999999999647088
 20
-57.999999999747708
 30
0.0
 11
-46.999999999647088
 21
-55.499999999747708
 31
0.0
  0
LINE
  5
CD
  8
DATA
  6
CONTINUOUS
 62
     7
 10
-51.699999999647083
 20
-57.999999999747708
 30
0.0
 11
-51.699999999647083
 21
-55.499999999747708
 31
0.0
  0
LINE
  5
CE
  8
DATA
  6
CONTINUOUS
 62
     7
 10
-50.639409860544859
 20
-48.199999999747682
 30
0.0
 11
-48.060590138749291
 21
-48.199999999747682
 31
0.0
  0
LINE
  5
CF
  8
DATA
  6
CONTINUOUS
 62
     7
 10
-51.699999999647083
 20
-55.499999999747708
 30
0.0
 11
-51.13772949731576
 21
-48.659042221382947
 31
0.0
  0
LINE
  5
D0
  8
DATA
  6
CONTINUOUS
 62
     7
 10
-46.999999999647088
 20
-55.499999999747708
 30
0.0
 11
-47.562270501978418
 21
-48.659042221382947
 31
0.0
  0
ARC
  5
D1
  8
DATA
  6
CONTINUOUS
 62
     7
 10
-50.639409860544859
 20
-48.699999999747668
 30
0.0
 40
0.5
 50
90.0
 51
175.30131948270071
  0
ARC
  5
D2
  8
DATA
  6
CONTINUOUS
 62
     7
 10
-48.060590138749291
 20
-48.699999999747668
 30
0.0
 40
0.5000000000000289
 50
4.6986805172992829
 51
89.999999999999986
  0
LINE
  5
D3
  8
DATA
  6
CONTINUOUS
 62
     7
 10
-50.349999999647068
 20
-48.199999999747682
 30
0.0
 11
-50.349999999647068
 21
1.7000000002521529
 31
0.0
  0
LINE
  5
D4
  8
DATA
  6
CONTINUOUS
 62
     7
 10
-48.349999999647068
 20
1.700000000252146
 30
0.0
 11
-48.349999999647068
 21
-48.199999999747682
 31
0.0
  0
LINE
  5
D5
  8
DATA
  6
CONTINUOUS
 62
     7
 10
-50.919999999647104
 20
1.700000000252146
 30
0.0
 11
-47.77999999964706
 21
1.700000000252146
 31
0.0
  0
LINE
  5
D6
  8
DATA
  6
CONTINUOUS
 62
     7
 10
-50.919999999647104
 20
1.700000000252146
 30
0.0
 11
-50.919999999647104
 21
12.45000000025304
 31
0.0
  0
LINE
  5
D7
  8
DATA
  6
CONTINUOUS
 62
     7
 10
-47.77999999964706
 20
12.45000000025304
 30
0.0
 11
-47.77999999964706
 21
1.700000000252146
 31
0.0
  0
ARC
  5
D8
  8
DATA
  6
CONTINUOUS
 62
     7
 10
-49.349999999647061
 20
12.429870967994059
 30
0.0
 40
1.5701290322580581
 50
0.7345512146763538
 51
179.2654487853236
  0
LINE
  5
D9
  8
DATA
  6
CONTINUOUS
 62
     7
 10
-97.5799999996471
 20
-57.999999999747708
 30
0.0
 11
-97.5799999996471
 21
-55.9999999997477
 31
0.0
  0
LINE
  5
DA
  8
DATA
  6
CONTINUOUS
 62
     7
 10
-86.369999999647106
 20
-55.9999999997477
 30
0.0
 11
-86.819999999647067
 21
-55.9999999997477
 31
0.0
  0
LINE
  5
DB
  8
DATA
  6
CONTINUOUS
 62
     7
 10
-87.769999999647055
 20
-55.9999999997477
 30
0.0
 11
-88.219999999647101
 21
-55.9999999997477
 31
0.0
  0
LINE
  5
DC
  8
DATA
  6
CONTINUOUS
 62
     7
 10
-89.169999999647047
 20
-55.9999999997477
 30
0.0
 11
-89.619999999647106
 21
-55.9999999997477
 31
0.0
  0
LINE
  5
DD
  8
DATA
  6
CONTINUOUS
 62
     7
 10
-90.569999999647067
 20
-55.9999999997477
 30
0.0
 11
-91.019999999647084
 21
-55.9999999997477
 31
0.0
  0
LINE
  5
DE
  8
DATA
  6
CONTINUOUS
 62
     7
 10
-91.969999999647044
 20
-55.9999999997477
 30
0.0
 11
-92.469999999647044
 21
-55.9999999997477
 31
0.0
  0
LINE
  5
DF
  8
DATA
  6
CONTINUOUS
 62
     7
 10
-93.369999999647078
 20
-55.9999999997477
 30
0.0
 11
-93.819999999647081
 21
-55.9999999997477
 31
0.0
  0
LINE
  5
E0
  8
DATA
  6
CONTINUOUS
 62
     7
 10
-94.679999999647094
 20
-55.9999999997477
 30
0.0
 11
-97.599999999647125
 21
-55.9999999997477
 31
0.0
  0
LINE
  5
E1
  8
DATA
  6
CONTINUOUS
 62
     7
 10
-94.679999999647094
 20
-57.999999999747708
 30
0.0
 11
-94.679999999647094
 21
-55.9999999997477
 31
0.0
  0
LINE
  5
E2
  8
DATA
  6
CONTINUOUS
 62
     7
 10
-93.819999999647081
 20
-57.999999999747708
 30
0.0
 11
-93.819999999647081
 21
-55.9999999997477
 31
0.0
  0
LINE
  5
E3
  8
DATA
  6
CONTINUOUS
 62
     7
 10
-93.369999999647078
 20
-57.999999999747708
 30
0.0
 11
-93.369999999647078
 21
-55.9999999997477
 31
0.0
  0
LINE
  5
E4
  8
DATA
  6
CONTINUOUS
 62
     7
 10
-91.969999999647044
 20
-55.9999999997477
 30
0.0
 11
-92.419999999647047
 21
-55.9999999997477
 31
0.0
  0
LINE
  5
E5
  8
DATA
  6
CONTINUOUS
 62
     7
 10
-92.419999999647047
 20
-57.999999999747708
 30
0.0
 11
-92.419999999647047
 21
-55.9999999997477
 31
0.0
  0
LINE
  5
E6
  8
DATA
  6
CONTINUOUS
 62
     7
 10
-91.969999999647044
 20
-57.999999999747708
 30
0.0
 11
-91.969999999647044
 21
-55.9999999997477
 31
0.0
  0
LINE
  5
E7
  8
DATA
  6
CONTINUOUS
 62
     7
 10
-90.569999999647067
 20
-55.9999999997477
 30
0.0
 11
-91.019999999647084
 21
-55.9999999997477
 31
0.0
  0
LINE
  5
E8
  8
DATA
  6
CONTINUOUS
 62
     7
 10
-91.019999999647084
 20
-57.999999999747708
 30
0.0
 11
-91.019999999647084
 21
-55.9999999997477
 31
0.0
  0
LINE
  5
E9
  8
DATA
  6
CONTINUOUS
 62
     7
 10
-90.569999999647067
 20
-57.999999999747708
 30
0.0
 11
-90.569999999647067
 21
-55.9999999997477
 31
0.0
  0
LINE
  5
EA
  8
DATA
  6
CONTINUOUS
 62
     7
 10
-89.169999999647047
 20
-55.9999999997477
 30
0.0
 11
-89.619999999647106
 21
-55.9999999997477
 31
0.0
  0
LINE
  5
EB
  8
DATA
  6
CONTINUOUS
 62
     7
 10
-89.619999999647106
 20
-57.999999999747708
 30
0.0
 11
-89.619999999647106
 21
-55.9999999997477
 31
0.0
  0
LINE
  5
EC
  8
DATA
  6
CONTINUOUS
 62
     7
 10
-89.169999999647047
 20
-57.999999999747708
 30
0.0
 11
-89.169999999647047
 21
-55.9999999997477
 31
0.0
  0
LINE
  5
ED
  8
DATA
  6
CONTINUOUS
 62
     7
 10
-87.769999999647055
 20
-55.9999999997477
 30
0.0
 11
-88.219999999647101
 21
-55.9999999997477
 31
0.0
  0
LINE
  5
EE
  8
DATA
  6
CONTINUOUS
 62
     7
 10
-88.219999999647101
 20
-57.999999999747708
 30
0.0
 11
-88.219999999647101
 21
-55.9999999997477
 31
0.0
  0
LINE
  5
EF
  8
DATA
  6
CONTINUOUS
 62
     7
 10
-87.769999999647055
 20
-57.999999999747708
 30
0.0
 11
-87.769999999647055
 21
-55.9999999997477
 31
0.0
  0
LINE
  5
F0
  8
DATA
  6
CONTINUOUS
 62
     7
 10
-86.369999999647106
 20
-55.9999999997477
 30
0.0
 11
-86.819999999647067
 21
-55.9999999997477
 31
0.0
  0
LINE
  5
F1
  8
DATA
  6
CONTINUOUS
 62
     7
 10
-86.819999999647067
 20
-57.999999999747708
 30
0.0
 11
-86.819999999647067
 21
-55.9999999997477
 31
0.0
  0
LINE
  5
F2
  8
DATA
  6
CONTINUOUS
 62
     7
 10
-86.369999999647106
 20
-57.999999999747708
 30
0.0
 11
-86.369999999647106
 21
-55.9999999997477
 31
0.0
  0
LINE
  5
F3
  8
DATA
  6
CONTINUOUS
 62
     7
 10
-85.369999999647092
 20
-57.999999999747708
 30
0.0
 11
-85.369999999647092
 21
-55.9999999997477
 31
0.0
  0
LINE
  5
F4
  8
DATA
  6
CONTINUOUS
 62
     7
 10
-82.469999999647044
 20
-57.999999999747708
 30
0.0
 11
-82.469999999647044
 21
-55.9999999997477
 31
0.0
  0
LINE
  5
F5
  8
DATA
  6
CONTINUOUS
 62
     7
 10
-85.369999999647092
 20
-55.9999999997477
 30
0.0
 11
-82.469999999647044
 21
-55.9999999997477
 31
0.0
  0
LINE
  5
F6
  8
DATA
  6
CONTINUOUS
 62
     7
 10
-98.999999999647088
 20
52.000000000252697
 30
0.0
 11
-40.999999999647088
 21
52.000000000252697
 31
0.0
  0
ARC
  5
F7
  8
DATA
  6
CONTINUOUS
 62
     7
 10
-69.202012072081615
 20
63.143125419434433
 30
0.0
 40
33.152730615805439
 50
241.5415409068307
 51
268.62075444276331
  0
ARC
  5
F8
  8
DATA
  6
CONTINUOUS
 62
     7
 10
-108.1091342172693
 20
-2.0016964855166459
 30
0.0
 40
42.777337054123393
 50
57.30144531008618
 51
77.99021333369457
  0
ARC
  5
F9
  8
DATA
  6
CONTINUOUS
 62
     7
 10
-70.797987927212404
 20
63.143125419434433
 30
0.0
 40
33.152730615805503
 50
271.37924555723669
 51
298.4584590931691
  0
ARC
  5
FA
  8
DATA
  6
CONTINUOUS
 62
     7
 10
-31.890865782024829
 20
-2.0016964855166459
 30
0.0
 40
42.777337054123521
 50
102.0097866663055
 51
122.69855468991381
  0
ARC
  5
FB
  8
DATA
  6
CONTINUOUS
 62
     7
 10
-69.999999999646974
 20
42.962873108371952
 30
0.0
 40
4.1500000000000012
 50
286.08770253816073
 51
253.91229746183859
  0
CIRCLE
  5
FC
  8
DATA
  6
CONTINUOUS
 62
     7
 10
-69.999999999646974
 20
42.962873108372001
 30
0.0
 40
6.3999999999999408
  0
CIRCLE
  5
FD
  8
DATA
  6
CONTINUOUS
 62
     7
 10
-69.999999999646974
 20
42.962873108372001
 30
0.0
 40
5.8999999999999346
  0
CIRCLE
  5
FE
  8
DATA
  6
CONTINUOUS
 62
     7
 10
-69.999999999646974
 20
44.840000000252637
 30
0.0
 40
0.3499999999999659
  0
CIRCLE
  5
FF
  8
DATA
  6
CONTINUOUS
 62
     7
 10
-71.87221315142402
 20
42.620000000252617
 30
0.0
 40
0.3500000000000227
  0
CIRCLE
  5
100
  8
DATA
  6
CONTINUOUS
 62
     7
 10
-68.127786847870013
 20
42.620000000252617
 30
0.0
 40
0.3500000000000227
  0
POLYLINE
  5
101
  8
DATA
  6
CONTINUOUS
 62
     7
 66
     1
 10
0.0
 20
0.0
 30
0.0
  0
VERTEX
  5
366
  8
DATA
  6
CONTINUOUS
 62
     7
 10
-68.849999999647011
 20
38.975392700896371
 30
0.0
  0
VERTEX
  5
367
  8
DATA
  6
CONTINUOUS
 62
     7
 10
-68.849999999647011
 20
38.546930015924353
 30
0.0
  0
VERTEX
  5
368
  8
DATA
  6
CONTINUOUS
 62
     7
 10
-71.149999999647022
 20
38.546930015924353
 30
0.0
  0
VERTEX
  5
369
  8
DATA
  6
CONTINUOUS
 62
     7
 10
-71.149999999647022
 20
38.975392700896371
 30
0.0
  0
SEQEND
  5
36A
  8
DATA
  6
CONTINUOUS
 62
     7
  0
ARC
  5
108
  8
DATA
  6
CONTINUOUS
 62
     7
 10
-69.999999999646974
 20
42.962873108372001
 30
0.0
 40
7.4399999999999178
 50
341.56756265240989
 51
198.4324373475898
  0
LINE
  5
109
  8
DATA
  6
CONTINUOUS
 62
     7
 10
-99.999999999647088
 20
47.600000000252649
 30
0.0
 11
-77.36587992126006
 21
44.010447917336613
 31
0.0
  0
LINE
  5
10A
  8
DATA
  6
CONTINUOUS
 62
     7
 10
-62.632641734289138
 20
44.000000000252612
 30
0.0
 11
-51.463944017964486
 21
45.776518722644063
 31
0.0
  0
LINE
  5
10B
  8
DATA
  6
CONTINUOUS
 62
     7
 10
-47.658887855268709
 20
46.381759699208338
 30
0.0
 11
-39.999999999647102
 21
47.600000000252649
 31
0.0
  0
LINE
  5
10C
  8
DATA
  6
CONTINUOUS
 62
     7
 10
-99.999999999647088
 20
45.000000000252641
 30
0.0
 11
-75.85566106457847
 21
40.380000000252551
 31
0.0
  0
LINE
  5
10D
  8
DATA
  6
CONTINUOUS
 62
     7
 10
-39.999999999647102
 20
45.000000000252641
 30
0.0
 11
-47.298642376876067
 21
43.603513234738301
 31
0.0
  0
LINE
  5
10E
  8
DATA
  6
CONTINUOUS
 62
     7
 10
-50.833232904014807
 20
42.927221859226961
 30
0.0
 11
-64.144175389579146
 21
40.380370807090543
 31
0.0
  0
ARC
  5
10F
  8
DATA
  6
CONTINUOUS
 62
     7
 10
-98.999999999647088
 20
51.000000000252697
 30
0.0
 40
1.0
 50
90.0
 51
180.0
  0
ARC
  5
110
  8
DATA
  6
CONTINUOUS
 62
     7
 10
-40.999999999647088
 20
51.000000000252697
 30
0.0
 40
1.0
 50
0.0
 51
90.0
  0
CIRCLE
  5
111
  8
DATA
  6
CONTINUOUS
 62
     7
 10
-49.349999999647061
 20
44.750000000252612
 30
0.0
 40
2.349999999999965
  0
CIRCLE
  5
112
  8
DATA
  6
CONTINUOUS
 62
     7
 10
-49.349999999647061
 20
44.750000000252612
 30
0.0
 40
1.5499999999999541
  0
ARC
  5
113
  8
DATA
  6
CONTINUOUS
 62
     7
 10
-40.999999999647088
 20
40.817445418025528
 30
0.0
 40
1.000000000000018
 50
282.00978666630402
 51
0.0
  0
ARC
  5
114
  8
DATA
  6
CONTINUOUS
 62
     7
 10
-98.999999999647088
 20
40.817445418025528
 30
0.0
 40
1.0
 50
180.0
 51
257.99021333369291
  0
ARC
  5
115
  8
DATA
  6
CONTINUOUS
 62
     7
 10
-101.18582607695539
 20
-285.29188360749379
 30
0.0
 40
316.79410301208168
 50
85.058929043548886
 51
89.605909627367708
  0
ARC
  5
116
  8
DATA
  6
CONTINUOUS
 62
     7
 10
-38.81417392233876
 20
-285.29188360749379
 30
0.0
 40
316.79410301208168
 50
90.394090372632277
 51
94.941070956451085
  0
ARC
  5
117
  8
DATA
  6
CONTINUOUS
 62
     7
 10
-98.999999999647088
 20
32.494702128300588
 30
0.0
 40
1.0
 50
180.0
 51
269.60590962736939
  0
ARC
  5
118
  8
DATA
  6
CONTINUOUS
 62
     7
 10
-40.999999999647088
 20
32.494702128300588
 30
0.0
 40
1.000000000000008
 50
270.39409037263061
 51
0.0
  0
LINE
  5
119
  8
DATA
  6
CONTINUOUS
 62
     7
 10
-97.684132882377654
 20
44.556860674278177
 30
0.0
 11
-97.239479942687325
 21
47.078612807183781
 31
0.0
  0
LINE
  5
11A
  8
DATA
  6
CONTINUOUS
 62
     7
 10
-94.835022720885931
 20
44.014532934117902
 30
0.0
 11
-94.383537458951906
 21
46.575033091949642
 31
0.0
  0
LINE
  5
11B
  8
DATA
  6
CONTINUOUS
 62
     7
 10
-93.9880880532954
 20
43.86519550132433
 30
0.0
 11
-93.536602791361403
 21
46.425695659156098
 31
0.0
  0
LINE
  5
11C
  8
DATA
  6
CONTINUOUS
 62
     7
 10
-93.544924564439924
 20
43.787053821374222
 30
0.0
 11
-93.093439302505843
 21
46.347553979205941
 31
0.0
  0
LINE
  5
11D
  8
DATA
  6
CONTINUOUS
 62
     7
 10
-85.666462540342224
 20
42.397868400038732
 30
0.0
 11
-85.214977278408199
 21
44.958368557870557
 31
0.0
  0
LINE
  5
11E
  8
DATA
  6
CONTINUOUS
 62
     7
 10
-82.810520056606805
 20
41.894288684804678
 30
0.0
 11
-82.35903479467278
 21
44.45478884263639
 31
0.0
  0
LINE
  5
11F
  8
DATA
  6
CONTINUOUS
 62
     7
 10
-91.714708448288789
 20
46.104446530472273
 30
0.0
 11
-92.166193710222814
 21
43.543946372640498
 31
0.0
  0
LINE
  5
120
  8
DATA
  6
CONTINUOUS
 62
     7
 10
-92.207112324794906
 20
46.191270619305719
 30
0.0
 11
-92.658597586728916
 21
43.630770461473979
 31
0.0
  0
LINE
  5
121
  8
DATA
  6
CONTINUOUS
 62
     7
 10
-90.779141082927225
 20
45.939480761688692
 30
0.0
 11
-91.230626344861236
 21
43.378980603856952
 31
0.0
  0
LINE
  5
122
  8
DATA
  6
CONTINUOUS
 62
     7
 10
-90.335977594071764
 20
45.861339081738549
 30
0.0
 11
-90.787462856005703
 21
43.300838923906809
 31
0.0
  0
LINE
  5
123
  8
DATA
  6
CONTINUOUS
 62
     7
 10
-89.400410228710115
 20
45.696373312954982
 30
0.0
 11
-89.851895490644125
 21
43.135873155123207
 31
0.0
  0
LINE
  5
124
  8
DATA
  6
CONTINUOUS
 62
     7
 10
-88.957246739854639
 20
45.618231633004847
 30
0.0
 11
-89.40873200178865
 21
43.057731475173121
 31
0.0
  0
LINE
  5
125
  8
DATA
  6
CONTINUOUS
 62
     7
 10
-88.02167937449299
 20
45.453265864221272
 30
0.0
 11
-88.473164636427043
 21
42.892765706389532
 31
0.0
  0
LINE
  5
126
  8
DATA
  6
CONTINUOUS
 62
     7
 10
-87.578515885637557
 20
45.375124184271151
 30
0.0
 11
-88.030001147571525
 21
42.814624026439411
 31
0.0
  0
LINE
  5
127
  8
DATA
  6
CONTINUOUS
 62
     7
 10
-86.642948520275951
 20
45.210158415487598
 30
0.0
 11
-87.094433782209947
 21
42.64965825765583
 31
0.0
  0
LINE
  5
128
  8
DATA
  6
CONTINUOUS
 62
     7
 10
-86.199785031420447
 20
45.132016735537427
 30
0.0
 11
-86.651270293354415
 21
42.571516577705687
 31
0.0
  0
LINE
  5
129
  8
DATA
  6
CONTINUOUS
 62
     7
 10
-95.024556406556229
 20
44.047952836654638
 30
0.0
 11
-82.810520056606805
 21
41.894288684804678
 31
0.0
  0
LINE
  5
12A
  8
DATA
  6
CONTINUOUS
 62
     7
 10
-97.239479942687325
 20
47.078612807183781
 30
0.0
 11
-82.35903479467278
 21
44.45478884263639
 31
0.0
  0
TEXT
  5
12B
  8
DATA
 62
     7
 10
-98.637969263968941
 20
42.58832242627107
 30
0.0
 40
1.6288411458333329
  1
OFF
 50
350.5
 41
0.7
 11
-98.369132932521765
 21
44.194824995597898
 31
0.0
 73
     3
  0
TEXT
  5
12C
  8
DATA
 62
     7
 10
-83.855517880939715
 20
39.718837284874027
 30
0.0
 40
1.6288411458333329
  1
ON
 50
350.5
 41
0.7
 11
-83.586681549492539
 21
41.325339854200841
 31
0.0
 73
     3
  0
TEXT
  5
12D
  8
DATA
 62
     7
 10
-94.038071029372574
 20
41.598131616692037
 30
0.0
 40
1.6288411458333329
  1
MUTE PRG
 50
350.5
 41
0.7
 11
-93.769234697925427
 21
43.204634186018858
 31
0.0
 73
     3
  0
LINE
  5
12E
  8
DATA
  6
CONTINUOUS
 62
     7
 10
-99.999999999647088
 20
32.494702128300588
 30
0.0
 11
-99.999999999647088
 21
51.000000000252697
 31
0.0
  0
LINE
  5
12F
  8
DATA
  6
CONTINUOUS
 62
     7
 10
-39.999999999647102
 20
32.494702128300588
 30
0.0
 11
-39.999999999647102
 21
51.000000000252697
 31
0.0
  0
LINE
  5
130
  8
DATA
  6
CONTINUOUS
 62
     7
 10
-53.999999999647088
 20
47.162573942946338
 30
0.0
 11
-53.999999999647088
 21
49.562573942946351
 31
0.0
  0
LINE
  5
131
  8
DATA
  6
CONTINUOUS
 62
     7
 10
-62.299999999647042
 20
47.162573942946338
 30
0.0
 11
-62.299999999647042
 21
49.562573942946351
 31
0.0
  0
LINE
  5
132
  8
DATA
  6
CONTINUOUS
 62
     7
 10
-61.499999999647038
 20
50.362573942946362
 30
0.0
 11
-54.799999999647042
 21
50.362573942946362
 31
0.0
  0
LINE
  5
133
  8
DATA
  6
CONTINUOUS
 62
     7
 10
-61.499999999647038
 20
46.362573942946312
 30
0.0
 11
-54.799999999647042
 21
46.362573942946312
 31
0.0
  0
ARC
  5
134
  8
DATA
  6
CONTINUOUS
 62
     7
 10
-61.499999999647038
 20
49.562573942946351
 30
0.0
 40
0.8000000000000113
 50
90.0
 51
180.0
  0
ARC
  5
135
  8
DATA
  6
CONTINUOUS
 62
     7
 10
-61.499999999647038
 20
47.162573942946338
 30
0.0
 40
0.8000000000000113
 50
180.0
 51
270.0
  0
ARC
  5
136
  8
DATA
  6
CONTINUOUS
 62
     7
 10
-54.799999999647042
 20
49.562573942946351
 30
0.0
 40
0.7999999999999546
 50
0.0
 51
90.0
  0
ARC
  5
137
  8
DATA
  6
CONTINUOUS
 62
     7
 10
-54.799999999647042
 20
47.162573942946338
 30
0.0
 40
0.8000000000000397
 50
270.0
 51
0.0
  0
LINE
  5
138
  8
DATA
  6
CONTINUOUS
 62
     7
 10
-99.999999999647088
 20
-189.58645935026519
 30
0.0
 11
-99.999999999647088
 21
-195.24999999974759
 31
0.0
  0
LINE
  5
139
  8
DATA
  6
STYLE_05
 62
     7
 10
-39.999999999647102
 20
-189.58645935026519
 30
0.0
 11
-39.999999999647102
 21
-195.24999999974759
 31
0.0
  0
LINE
  5
13A
  8
DATA
  6
CONTINUOUS
 62
     7
 10
-40.999999999647088
 20
-196.24999999974759
 30
0.0
 11
-98.999999999647088
 21
-196.24999999974759
 31
0.0
  0
ARC
  5
13B
  8
DATA
  6
CONTINUOUS
 62
     7
 10
-69.999999999646974
 20
-638.14999999974862
 30
0.0
 40
450.5000000000008
 50
86.300928936834978
 51
93.699071063165064
  0
ARC
  5
13C
  8
DATA
  6
CONTINUOUS
 62
     7
 10
-69.999999999646974
 20
-634.64999999974862
 30
0.0
 40
450.5000000000008
 50
86.317337285872284
 51
93.682662714127758
  0
LINE
  5
13D
  8
DATA
  6
CONTINUOUS
 62
     7
 10
-98.999999999647088
 20
-188.58437631395029
 30
0.0
 11
-98.999999999647088
 21
-185.0843763139504
 31
0.0
  0
LINE
  5
13E
  8
DATA
  6
CONTINUOUS
 62
     7
 10
-40.999999999647088
 20
-188.58437631395029
 30
0.0
 11
-40.999999999647088
 21
-185.0843763139504
 31
0.0
  0
ARC
  5
13F
  8
DATA
  6
CONTINUOUS
 62
     7
 10
-69.999999999646974
 20
-626.14999999974862
 30
0.0
 40
450.5000000000008
 50
86.300928936834978
 51
93.699071063165064
  0
LINE
  5
140
  8
DATA
  6
CONTINUOUS
 62
     7
 10
-99.999999999647088
 20
-184.08230253354009
 30
0.0
 11
-99.999999999647088
 21
-177.5864593502653
 31
0.0
  0
LINE
  5
141
  8
DATA
  6
CONTINUOUS
 62
     7
 10
-39.999999999647102
 20
-184.08230253354009
 30
0.0
 11
-39.999999999647102
 21
-177.5864593502653
 31
0.0
  0
ARC
  5
142
  8
DATA
  6
CONTINUOUS
 62
     7
 10
-98.999999999647088
 20
-195.24999999974759
 30
0.0
 40
1.0
 50
180.0
 51
270.0
  0
ARC
  5
143
  8
DATA
  6
CONTINUOUS
 62
     7
 10
-40.999999999647088
 20
-195.24999999974759
 30
0.0
 40
1.0
 50
270.0
 51
0.0
  0
ARC
  5
144
  8
DATA
  6
STYLE_05
 62
     7
 10
-40.999999999647201
 20
-189.58645935026519
 30
0.0
 40
1.000000000000113
 50
0.0
 51
86.300928936828782
  0
ARC
  5
145
  8
DATA
  6
CONTINUOUS
 62
     7
 10
-98.999999999646946
 20
-189.58645935026519
 30
0.0
 40
1.000000000000052
 50
93.699071063171274
 51
180.0
  0
ARC
  5
146
  8
DATA
  6
CONTINUOUS
 62
     7
 10
-98.999999999647088
 20
-184.08230253354009
 30
0.0
 40
1.0
 50
180.0
 51
273.68266271412688
  0
ARC
  5
147
  8
DATA
  6
CONTINUOUS
 62
     7
 10
-98.999999999646946
 20
-177.5864593502653
 30
0.0
 40
1.0000000000000799
 50
93.699071063171161
 51
180.0
  0
ARC
  5
148
  8
DATA
  6
CONTINUOUS
 62
     7
 10
-40.999999999647201
 20
-177.5864593502653
 30
0.0
 40
1.000000000000113
 50
0.0
 51
86.300928936828811
  0
ARC
  5
149
  8
DATA
  6
CONTINUOUS
 62
     7
 10
-40.999999999647088
 20
-184.08230253354009
 30
0.0
 40
0.9999999999999955
 50
266.31733728586983
 51
0.0
  0
POLYLINE
  5
14A
  8
DATA
  6
CONTINUOUS
 62
     7
 66
     1
 10
0.0
 20
0.0
 30
0.0
 70
     1
  0
VERTEX
  5
36B
  8
DATA
  6
CONTINUOUS
 62
     7
 10
-71.749999999646988
 20
-189.19999999974769
 30
0.0
  0
VERTEX
  5
36C
  8
DATA
  6
CONTINUOUS
 62
     7
 10
-68.249999999646974
 20
-189.19999999974769
 30
0.0
  0
VERTEX
  5
36D
  8
DATA
  6
CONTINUOUS
 62
     7
 10
-68.249999999646974
 20
-193.84999999974769
 30
0.0
  0
VERTEX
  5
36E
  8
DATA
  6
CONTINUOUS
 62
     7
 10
-71.749999999646988
 20
-193.84999999974769
 30
0.0
  0
SEQEND
  5
36F
  8
DATA
  6
CONTINUOUS
 62
     7
  0
POLYLINE
  5
151
  8
DATA
  6
CONTINUOUS
 62
     7
 66
     1
 10
0.0
 20
0.0
 30
0.0
 70
     1
  0
VERTEX
  5
370
  8
DATA
  6
CONTINUOUS
 62
     7
 10
-81.249999999647017
 20
-189.19999999974769
 30
0.0
  0
VERTEX
  5
371
  8
DATA
  6
CONTINUOUS
 62
     7
 10
-77.749999999647017
 20
-189.19999999974769
 30
0.0
  0
VERTEX
  5
372
  8
DATA
  6
CONTINUOUS
 62
     7
 10
-77.749999999647017
 20
-193.84999999974769
 30
0.0
  0
VERTEX
  5
373
  8
DATA
  6
CONTINUOUS
 62
     7
 10
-81.249999999647017
 20
-193.84999999974769
 30
0.0
  0
SEQEND
  5
374
  8
DATA
  6
CONTINUOUS
 62
     7
  0
POLYLINE
  5
158
  8
DATA
  6
CONTINUOUS
 62
     7
 66
     1
 10
0.0
 20
0.0
 30
0.0
 70
     1
  0
VERTEX
  5
375
  8
DATA
  6
CONTINUOUS
 62
     7
 10
-62.249999999647038
 20
-189.19999999974769
 30
0.0
  0
VERTEX
  5
376
  8
DATA
  6
CONTINUOUS
 62
     7
 10
-58.749999999647031
 20
-189.19999999974769
 30
0.0
  0
VERTEX
  5
377
  8
DATA
  6
CONTINUOUS
 62
     7
 10
-58.749999999647031
 20
-193.84999999974769
 30
0.0
  0
VERTEX
  5
378
  8
DATA
  6
CONTINUOUS
 62
     7
 10
-62.249999999647038
 20
-193.84999999974769
 30
0.0
  0
SEQEND
  5
379
  8
DATA
  6
CONTINUOUS
 62
     7
  0
POLYLINE
  5
15F
  8
DATA
  6
CONTINUOUS
 62
     7
 66
     1
 10
0.0
 20
0.0
 30
0.0
 70
     1
  0
VERTEX
  5
37A
  8
DATA
  6
CONTINUOUS
 62
     7
 10
-94.499999999647073
 20
-189.94999999974769
 30
0.0
  0
VERTEX
  5
37B
  8
DATA
  6
CONTINUOUS
 62
     7
 10
-88.999999999647045
 20
-189.94999999974769
 30
0.0
  0
VERTEX
  5
37C
  8
DATA
  6
CONTINUOUS
 62
     7
 10
-88.999999999647045
 20
-192.44999999974769
 30
0.0
  0
VERTEX
  5
37D
  8
DATA
  6
CONTINUOUS
 62
     7
 10
-94.499999999647073
 20
-192.44999999974769
 30
0.0
  0
SEQEND
  5
37E
  8
DATA
  6
CONTINUOUS
 62
     7
  0
POLYLINE
  5
166
  8
DATA
  6
CONTINUOUS
 62
     7
 66
     1
 10
0.0
 20
0.0
 30
0.0
 70
     1
  0
VERTEX
  5
37F
  8
DATA
  6
CONTINUOUS
 62
     7
 10
-50.999999999647038
 20
-189.94999999974769
 30
0.0
  0
VERTEX
  5
380
  8
DATA
  6
CONTINUOUS
 62
     7
 10
-45.499999999647088
 20
-189.94999999974769
 30
0.0
  0
VERTEX
  5
381
  8
DATA
  6
CONTINUOUS
 62
     7
 10
-45.499999999647088
 20
-192.44999999974769
 30
0.0
  0
VERTEX
  5
382
  8
DATA
  6
CONTINUOUS
 62
     7
 10
-50.999999999647038
 20
-192.44999999974769
 30
0.0
  0
SEQEND
  5
383
  8
DATA
  6
CONTINUOUS
 62
     7
  0
ARC
  5
16D
  8
DATA
  6
CONTINUOUS
 62
     7
 10
-68.078451882492274
 20
-294.4654811712947
 30
0.0
 40
120.2308373940441
 50
90.915749130198677
 51
99.955853903707009
  0
ARC
  5
16E
  8
DATA
  6
CONTINUOUS
 62
     7
 10
-71.921548116801745
 20
-294.4654811712947
 30
0.0
 40
120.2308373940441
 50
80.044146096293048
 51
89.084250869801366
  0
LINE
  5
16F
  8
DATA
  6
CONTINUOUS
 62
     7
 10
50.000000000210029
 20
-59.999999999747708
 30
0.0
 11
50.000000000210029
 21
-96.709699231760595
 31
0.0
  0
ARC
  5
170
  8
DATA
  6
CONTINUOUS
 62
     7
 10
52.000000000210029
 20
-59.999999999747722
 30
0.0
 40
2.0000000000000142
 50
90.0
 51
179.9999999999996
  0
POLYLINE
  5
171
  8
DATA
  6
CONTINUOUS
 62
     7
 66
     1
 10
0.0
 20
0.0
 30
0.0
  0
VERTEX
  5
384
  8
DATA
  6
CONTINUOUS
 62
     7
 10
108.00000000021051
 20
-57.999999999747708
 30
0.0
  0
VERTEX
  5
385
  8
DATA
  6
CONTINUOUS
 62
     7
 10
52.000000000210029
 20
-57.999999999747708
 30
0.0
  0
VERTEX
  5
386
  8
DATA
  6
CONTINUOUS
 62
     7
 10
52.000000000210029
 20
-57.999999999747708
 30
0.0
  0
SEQEND
  5
387
  8
DATA
  6
CONTINUOUS
 62
     7
  0
ARC
  5
177
  8
DATA
  6
CONTINUOUS
 62
     7
 10
108.00000000021051
 20
-59.999999999747708
 30
0.0
 40
2.0
 50
0.0
 51
90.0
  0
LINE
  5
178
  8
DATA
  6
CONTINUOUS
 62
     7
 10
110.00000000021051
 20
-127.9999999997476
 30
0.0
 11
110.00000000021051
 21
-98.509699231760592
 31
0.0
  0
POLYLINE
  5
179
  8
DATA
  6
CONTINUOUS
 62
     7
 66
     1
 10
0.0
 20
0.0
 30
0.0
  0
VERTEX
  5
388
  8
DATA
  6
CONTINUOUS
 62
     7
 10
110.00000000021051
 20
-96.709699231760595
 30
0.0
  0
VERTEX
  5
389
  8
DATA
  6
CONTINUOUS
 62
     7
 10
110.00000000021051
 20
-59.999999999747708
 30
0.0
  0
VERTEX
  5
38A
  8
DATA
  6
CONTINUOUS
 62
     7
 10
110.00000000021051
 20
-59.999999999747708
 30
0.0
  0
SEQEND
  5
38B
  8
DATA
  6
CONTINUOUS
 62
     7
  0
ARC
  5
17F
  8
DATA
  6
CONTINUOUS
 62
     7
 10
108.00000000021051
 20
-127.9999999997477
 30
0.0
 40
1.9999999999999849
 50
270.0
 51
0.0000000000007958
  0
POLYLINE
  5
180
  8
DATA
  6
CONTINUOUS
 62
     7
 66
     1
 10
0.0
 20
0.0
 30
0.0
  0
VERTEX
  5
38C
  8
DATA
  6
CONTINUOUS
 62
     7
 10
52.000000000210029
 20
-129.9999999997477
 30
0.0
  0
VERTEX
  5
38D
  8
DATA
  6
CONTINUOUS
 62
     7
 10
108.00000000021051
 20
-129.9999999997477
 30
0.0
  0
VERTEX
  5
38E
  8
DATA
  6
CONTINUOUS
 62
     7
 10
108.00000000021051
 20
-129.9999999997477
 30
0.0
  0
SEQEND
  5
38F
  8
DATA
  6
CONTINUOUS
 62
     7
  0
ARC
  5
186
  8
DATA
  6
CONTINUOUS
 62
     7
 10
52.000000000210044
 20
-127.9999999997476
 30
0.0
 40
2.000000000000028
 50
180.0
 51
269.9999999999996
  0
POLYLINE
  5
187
  8
DATA
  6
CONTINUOUS
 62
     7
 66
     1
 10
0.0
 20
0.0
 30
0.0
  0
VERTEX
  5
390
  8
DATA
  6
CONTINUOUS
 62
     7
 10
50.000000000210029
 20
-98.509699231760592
 30
0.0
  0
VERTEX
  5
391
  8
DATA
  6
CONTINUOUS
 62
     7
 10
50.000000000210029
 20
-127.9999999997476
 30
0.0
  0
VERTEX
  5
392
  8
DATA
  6
CONTINUOUS
 62
     7
 10
50.000000000210029
 20
-127.9999999997476
 30
0.0
  0
SEQEND
  5
393
  8
DATA
  6
CONTINUOUS
 62
     7
  0
LINE
  5
18D
  8
DATA
  6
CONTINUOUS
 62
     7
 10
86.040000000209943
 20
-55.799999999747698
 30
0.0
 11
73.960000000210044
 21
-55.799999999747698
 31
0.0
  0
LINE
  5
18E
  8
DATA
  6
CONTINUOUS
 62
     7
 10
85.500000000210022
 20
-54.499999999747679
 30
0.0
 11
74.500000000210022
 21
-54.499999999747679
 31
0.0
  0
LINE
  5
18F
  8
DATA
  6
CONTINUOUS
 62
     7
 10
86.400000000209985
 20
-57.999999999747708
 30
0.0
 11
86.040000000209943
 21
-55.799999999747698
 31
0.0
  0
LINE
  5
190
  8
DATA
  6
CONTINUOUS
 62
     7
 10
85.500000000210022
 20
-54.499999999747679
 30
0.0
 11
85.89000000020998
 21
-55.799999999747698
 31
0.0
  0
LINE
  5
191
  8
DATA
  6
CONTINUOUS
 62
     7
 10
73.600000000210031
 20
-57.999999999747708
 30
0.0
 11
73.960000000210044
 21
-55.799999999747698
 31
0.0
  0
LINE
  5
192
  8
DATA
  6
CONTINUOUS
 62
     7
 10
74.500000000210022
 20
-54.499999999747679
 30
0.0
 11
74.110000000210022
 21
-55.799999999747698
 31
0.0
  0
LINE
  5
193
  8
DATA
  6
CONTINUOUS
 62
     7
 10
57.000000000210008
 20
-57.999999999747708
 30
0.0
 11
57.000000000210008
 21
-55.499999999747708
 31
0.0
  0
LINE
  5
194
  8
DATA
  6
CONTINUOUS
 62
     7
 10
61.700000000209997
 20
-57.999999999747708
 30
0.0
 11
61.700000000209997
 21
-55.499999999747708
 31
0.0
  0
LINE
  5
195
  8
DATA
  6
CONTINUOUS
 62
     7
 10
60.639409861107787
 20
-48.199999999747682
 30
0.0
 11
58.060590139312147
 21
-48.199999999747682
 31
0.0
  0
LINE
  5
196
  8
DATA
  6
CONTINUOUS
 62
     7
 10
61.700000000209997
 20
-55.499999999747708
 30
0.0
 11
61.137729497878659
 21
-48.659042221382947
 31
0.0
  0
LINE
  5
197
  8
DATA
  6
CONTINUOUS
 62
     7
 10
57.000000000210008
 20
-55.499999999747708
 30
0.0
 11
57.562270502541352
 21
-48.659042221382947
 31
0.0
  0
ARC
  5
198
  8
DATA
  6
CONTINUOUS
 62
     7
 10
60.639409861107787
 20
-48.699999999747668
 30
0.0
 40
0.5000000000000289
 50
4.6986805172992829
 51
89.999999999999986
  0
ARC
  5
199
  8
DATA
  6
CONTINUOUS
 62
     7
 10
58.060590139312147
 20
-48.699999999747668
 30
0.0
 40
0.5
 50
90.0
 51
175.30131948270019
  0
LINE
  5
19A
  8
DATA
  6
CONTINUOUS
 62
     7
 10
60.350000000209967
 20
-48.199999999747682
 30
0.0
 11
60.350000000209967
 21
1.7000000002521529
 31
0.0
  0
LINE
  5
19B
  8
DATA
  6
CONTINUOUS
 62
     7
 10
58.350000000209967
 20
1.700000000252146
 30
0.0
 11
58.350000000209967
 21
-48.199999999747682
 31
0.0
  0
LINE
  5
19C
  8
DATA
  6
CONTINUOUS
 62
     7
 10
60.920000000209967
 20
1.700000000252146
 30
0.0
 11
57.780000000209981
 21
1.700000000252146
 31
0.0
  0
LINE
  5
19D
  8
DATA
  6
CONTINUOUS
 62
     7
 10
60.920000000209967
 20
1.700000000252146
 30
0.0
 11
60.920000000209967
 21
12.45000000025304
 31
0.0
  0
LINE
  5
19E
  8
DATA
  6
CONTINUOUS
 62
     7
 10
57.780000000209981
 20
12.45000000025304
 30
0.0
 11
57.780000000209981
 21
1.700000000252146
 31
0.0
  0
ARC
  5
19F
  8
DATA
  6
CONTINUOUS
 62
     7
 10
59.350000000209967
 20
12.429870967994059
 30
0.0
 40
1.5701290322580581
 50
0.7345512146763538
 51
179.2654487853236
  0
LINE
  5
1A0
  8
DATA
  6
CONTINUOUS
 62
     7
 10
107.5800000002105
 20
-57.999999999747708
 30
0.0
 11
107.5800000002105
 21
-55.9999999997477
 31
0.0
  0
LINE
  5
1A1
  8
DATA
  6
CONTINUOUS
 62
     7
 10
96.370000000210126
 20
-55.9999999997477
 30
0.0
 11
96.820000000210044
 21
-55.9999999997477
 31
0.0
  0
LINE
  5
1A2
  8
DATA
  6
CONTINUOUS
 62
     7
 10
97.770000000210089
 20
-55.9999999997477
 30
0.0
 11
98.220000000210149
 21
-55.9999999997477
 31
0.0
  0
LINE
  5
1A3
  8
DATA
  6
CONTINUOUS
 62
     7
 10
99.170000000210209
 20
-55.9999999997477
 30
0.0
 11
99.62000000021014
 21
-55.9999999997477
 31
0.0
  0
LINE
  5
1A4
  8
DATA
  6
CONTINUOUS
 62
     7
 10
100.5700000002103
 20
-55.9999999997477
 30
0.0
 11
101.0200000002102
 21
-55.9999999997477
 31
0.0
  0
LINE
  5
1A5
  8
DATA
  6
CONTINUOUS
 62
     7
 10
101.97000000021021
 20
-55.9999999997477
 30
0.0
 11
102.47000000021021
 21
-55.9999999997477
 31
0.0
  0
LINE
  5
1A6
  8
DATA
  6
CONTINUOUS
 62
     7
 10
103.3700000002103
 20
-55.9999999997477
 30
0.0
 11
103.8200000002104
 21
-55.9999999997477
 31
0.0
  0
LINE
  5
1A7
  8
DATA
  6
CONTINUOUS
 62
     7
 10
104.6800000002104
 20
-55.9999999997477
 30
0.0
 11
107.6000000002106
 21
-55.9999999997477
 31
0.0
  0
LINE
  5
1A8
  8
DATA
  6
CONTINUOUS
 62
     7
 10
104.6800000002104
 20
-57.999999999747708
 30
0.0
 11
104.6800000002104
 21
-55.9999999997477
 31
0.0
  0
LINE
  5
1A9
  8
DATA
  6
CONTINUOUS
 62
     7
 10
103.8200000002104
 20
-57.999999999747708
 30
0.0
 11
103.8200000002104
 21
-55.9999999997477
 31
0.0
  0
LINE
  5
1AA
  8
DATA
  6
CONTINUOUS
 62
     7
 10
103.3700000002103
 20
-57.999999999747708
 30
0.0
 11
103.3700000002103
 21
-55.9999999997477
 31
0.0
  0
LINE
  5
1AB
  8
DATA
  6
CONTINUOUS
 62
     7
 10
101.97000000021021
 20
-55.9999999997477
 30
0.0
 11
102.42000000021029
 21
-55.9999999997477
 31
0.0
  0
LINE
  5
1AC
  8
DATA
  6
CONTINUOUS
 62
     7
 10
102.42000000021029
 20
-57.999999999747708
 30
0.0
 11
102.42000000021029
 21
-55.9999999997477
 31
0.0
  0
LINE
  5
1AD
  8
DATA
  6
CONTINUOUS
 62
     7
 10
101.97000000021021
 20
-57.999999999747708
 30
0.0
 11
101.97000000021021
 21
-55.9999999997477
 31
0.0
  0
LINE
  5
1AE
  8
DATA
  6
CONTINUOUS
 62
     7
 10
100.5700000002103
 20
-55.9999999997477
 30
0.0
 11
101.0200000002102
 21
-55.9999999997477
 31
0.0
  0
LINE
  5
1AF
  8
DATA
  6
CONTINUOUS
 62
     7
 10
101.0200000002102
 20
-57.999999999747708
 30
0.0
 11
101.0200000002102
 21
-55.9999999997477
 31
0.0
  0
LINE
  5
1B0
  8
DATA
  6
CONTINUOUS
 62
     7
 10
100.5700000002103
 20
-57.999999999747708
 30
0.0
 11
100.5700000002103
 21
-55.9999999997477
 31
0.0
  0
LINE
  5
1B1
  8
DATA
  6
CONTINUOUS
 62
     7
 10
99.170000000210209
 20
-55.9999999997477
 30
0.0
 11
99.62000000021014
 21
-55.9999999997477
 31
0.0
  0
LINE
  5
1B2
  8
DATA
  6
CONTINUOUS
 62
     7
 10
99.62000000021014
 20
-57.999999999747708
 30
0.0
 11
99.62000000021014
 21
-55.9999999997477
 31
0.0
  0
LINE
  5
1B3
  8
DATA
  6
CONTINUOUS
 62
     7
 10
99.170000000210209
 20
-57.999999999747708
 30
0.0
 11
99.170000000210209
 21
-55.9999999997477
 31
0.0
  0
LINE
  5
1B4
  8
DATA
  6
CONTINUOUS
 62
     7
 10
97.770000000210089
 20
-55.9999999997477
 30
0.0
 11
98.220000000210149
 21
-55.9999999997477
 31
0.0
  0
LINE
  5
1B5
  8
DATA
  6
CONTINUOUS
 62
     7
 10
98.220000000210149
 20
-57.999999999747708
 30
0.0
 11
98.220000000210149
 21
-55.9999999997477
 31
0.0
  0
LINE
  5
1B6
  8
DATA
  6
CONTINUOUS
 62
     7
 10
97.770000000210089
 20
-57.999999999747708
 30
0.0
 11
97.770000000210089
 21
-55.9999999997477
 31
0.0
  0
LINE
  5
1B7
  8
DATA
  6
CONTINUOUS
 62
     7
 10
96.370000000210126
 20
-55.9999999997477
 30
0.0
 11
96.820000000210044
 21
-55.9999999997477
 31
0.0
  0
LINE
  5
1B8
  8
DATA
  6
CONTINUOUS
 62
     7
 10
96.820000000210044
 20
-57.999999999747708
 30
0.0
 11
96.820000000210044
 21
-55.9999999997477
 31
0.0
  0
LINE
  5
1B9
  8
DATA
  6
CONTINUOUS
 62
     7
 10
96.370000000210126
 20
-57.999999999747708
 30
0.0
 11
96.370000000210126
 21
-55.9999999997477
 31
0.0
  0
LINE
  5
1BA
  8
DATA
  6
CONTINUOUS
 62
     7
 10
95.370000000209998
 20
-57.999999999747708
 30
0.0
 11
95.370000000209998
 21
-55.9999999997477
 31
0.0
  0
LINE
  5
1BB
  8
DATA
  6
CONTINUOUS
 62
     7
 10
92.47000000021005
 20
-57.999999999747708
 30
0.0
 11
92.47000000021005
 21
-55.9999999997477
 31
0.0
  0
LINE
  5
1BC
  8
DATA
  6
CONTINUOUS
 62
     7
 10
95.370000000209998
 20
-55.9999999997477
 30
0.0
 11
92.47000000021005
 21
-55.9999999997477
 31
0.0
  0
CIRCLE
  5
1BD
  8
DATA
  6
CONTINUOUS
 62
     7
 10
55.000000000210072
 20
-63.39999999974772
 30
0.0
 40
1.9000000000000341
  0
POLYLINE
  5
1BE
  8
DATA
  6
CONTINUOUS
 62
     7
 66
     1
 10
0.0
 20
0.0
 30
0.0
 70
     1
  0
VERTEX
  5
394
  8
DATA
  6
CONTINUOUS
 62
     7
 10
55.40414518864285
 20
-62.69999999974771
 30
0.0
  0
VERTEX
  5
395
  8
DATA
  6
CONTINUOUS
 62
     7
 10
54.595854811777343
 20
-62.69999999974771
 30
0.0
  0
VERTEX
  5
396
  8
DATA
  6
CONTINUOUS
 62
     7
 10
54.191709623344551
 20
-63.39999999974772
 30
0.0
  0
VERTEX
  5
397
  8
DATA
  6
CONTINUOUS
 62
     7
 10
54.595854811777343
 20
-64.099999999747709
 30
0.0
  0
VERTEX
  5
398
  8
DATA
  6
CONTINUOUS
 62
     7
 10
55.40414518864285
 20
-64.099999999747709
 30
0.0
  0
VERTEX
  5
399
  8
DATA
  6
CONTINUOUS
 62
     7
 10
55.808290377075558
 20
-63.39999999974772
 30
0.0
  0
SEQEND
  5
39A
  8
DATA
  6
CONTINUOUS
 62
     7
  0
ARC
  5
1C7
  8
DATA
  6
CONTINUOUS
 62
     7
 10
103.2952849647538
 20
-69.21475360771629
 30
0.0
 40
1.8999999999999859
 50
231.49687926946129
 51
143.0735763863793
  0
POLYLINE
  5
1C8
  8
DATA
  6
CONTINUOUS
 62
     7
 66
     1
 10
0.0
 20
0.0
 30
0.0
 70
     1
  0
VERTEX
  5
39B
  8
DATA
  6
CONTINUOUS
 62
     7
 10
103.6994301531865
 20
-68.514753607716287
 30
0.0
  0
VERTEX
  5
39C
  8
DATA
  6
CONTINUOUS
 62
     7
 10
102.8911397763211
 20
-68.514753607716287
 30
0.0
  0
VERTEX
  5
39D
  8
DATA
  6
CONTINUOUS
 62
     7
 10
102.4869945878883
 20
-69.21475360771629
 30
0.0
  0
VERTEX
  5
39E
  8
DATA
  6
CONTINUOUS
 62
     7
 10
102.8911397763211
 20
-69.914753607716307
 30
0.0
  0
VERTEX
  5
39F
  8
DATA
  6
CONTINUOUS
 62
     7
 10
103.6994301531865
 20
-69.914753607716307
 30
0.0
  0
VERTEX
  5
3A0
  8
DATA
  6
CONTINUOUS
 62
     7
 10
104.1035753416193
 20
-69.21475360771629
 30
0.0
  0
SEQEND
  5
3A1
  8
DATA
  6
CONTINUOUS
 62
     7
  0
POLYLINE
  5
1D1
  8
DATA
  6
CONTINUOUS
 62
     7
 66
     1
 10
0.0
 20
0.0
 30
0.0
  0
VERTEX
  5
3A2
  8
DATA
  6
CONTINUOUS
 62
     7
 10
96.674365376822834
 20
-80.999999999747729
 30
0.0
  0
VERTEX
  5
3A3
  8
DATA
  6
CONTINUOUS
 62
     7
 10
98.00000000021015
 20
-80.999999999747729
 30
0.0
  0
VERTEX
  5
3A4
  8
DATA
  6
CONTINUOUS
 62
     7
 10
98.00000000021015
 20
-92.583636363382638
 30
0.0
  0
SEQEND
  5
3A5
  8
DATA
  6
CONTINUOUS
 62
     7
  0
LINE
  5
1D7
  8
DATA
  6
CONTINUOUS
 62
     7
 10
96.934290470455764
 20
-98.999999999747715
 30
0.0
 11
63.065709529964707
 21
-98.999999999747715
 31
0.0
  0
POLYLINE
  5
1D8
  8
DATA
  6
CONTINUOUS
 62
     7
 66
     1
 10
0.0
 20
0.0
 30
0.0
  0
VERTEX
  5
3A6
  8
DATA
  6
CONTINUOUS
 62
     7
 10
62.000000000210058
 20
-92.583636363385367
 30
0.0
  0
VERTEX
  5
3A7
  8
DATA
  6
CONTINUOUS
 62
     7
 10
62.000000000210058
 20
-80.999999999747729
 30
0.0
  0
VERTEX
  5
3A8
  8
DATA
  6
CONTINUOUS
 62
     7
 10
63.325634623597672
 20
-80.999999999747729
 30
0.0
  0
SEQEND
  5
3A9
  8
DATA
  6
CONTINUOUS
 62
     7
  0
LINE
  5
1DE
  8
DATA
  6
CONTINUOUS
 62
     7
 10
65.125634623597676
 20
-80.999999999747729
 30
0.0
 11
94.874365376822794
 21
-80.999999999747729
 31
0.0
  0
LINE
  5
1DF
  8
DATA
  6
CONTINUOUS
 62
     7
 10
9.6192086282891047
 20
-128.9999999997477
 30
0.0
 11
9.6192086282891047
 21
-98.999999999747715
 31
0.0
  0
LINE
  5
1E0
  8
DATA
  6
CONTINUOUS
 62
     7
 10
9.6192086282891047
 20
-96.663324957818759
 30
0.0
 11
9.6192086282891047
 21
-58.9999999997477
 31
0.0
  0
LINE
  5
1E1
  8
DATA
  6
CONTINUOUS
 62
     7
 10
-9.3981045680084421
 20
-129.9999999997477
 30
0.0
 11
-5.0993398099942873
 21
-129.9999999997477
 31
0.0
  0
LINE
  5
1E2
  8
DATA
  6
CONTINUOUS
 62
     7
 10
-1.5993398099942919
 20
-129.9999999997477
 30
0.0
 11
8.6192086282891047
 21
-129.9999999997477
 31
0.0
  0
ARC
  5
1E3
  8
DATA
  6
CONTINUOUS
 62
     7
 10
350.89851897311951
 20
-128.5896551721616
 30
0.0
 40
359.28207847649412
 50
175.91568352227611
 51
180.22491245360919
  0
ARC
  5
1E4
  8
DATA
  6
CONTINUOUS
 62
     7
 10
350.89851897311951
 20
-128.5896551721616
 30
0.0
 40
359.28207847649412
 50
168.80016822225221
 51
175.80695836380849
  0
ARC
  5
1E5
  8
DATA
  6
CONTINUOUS
 62
     7
 10
-1099.773648514544
 20
-148.5357142854611
 30
0.0
 40
1089.5505357246659
 50
1.0264300594884761
 51
3.6064425064946368
  0
ARC
  5
1E6
  8
DATA
  6
CONTINUOUS
 62
     7
 10
62.829922914003212
 20
-75.746428571176295
 30
0.0
 40
75.330899458756505
 50
166.97973574257489
 51
183.23693708087359
  0
ARC
  5
1E7
  8
DATA
  6
CONTINUOUS
 62
     7
 10
8.6192086282891047
 20
-128.9999999997477
 30
0.0
 40
1.0
 50
270.0
 51
0.0
  0
ARC
  5
1E8
  8
DATA
  6
CONTINUOUS
 62
     7
 10
8.6192086282891047
 20
-58.9999999997477
 30
0.0
 40
1.0
 50
0.0
 51
90.0
  0
ARC
  5
1E9
  8
DATA
  6
CONTINUOUS
 62
     7
 10
-9.5899620931535523
 20
-58.999999999747672
 30
0.0
 40
0.9999999999999715
 50
90.0
 51
166.97973574257659
  0
ARC
  5
1EA
  8
DATA
  6
CONTINUOUS
 62
     7
 10
-9.3981045680084421
 20
-128.9999999997477
 30
0.0
 40
0.9999999999999708
 50
181.02643005948599
 51
270.0
  0
ARC
  5
1EB
  8
DATA
  6
CONTINUOUS
 62
     7
 10
-0.5603372966026275
 20
-58.999999999747651
 30
0.0
 40
0.9999999999999431
 50
90.0
 51
168.80016822225571
  0
LINE
  5
1EC
  8
DATA
  6
CONTINUOUS
 62
     7
 10
-9.5899620931535523
 20
-57.999999999747708
 30
0.0
 11
8.6192086282891047
 21
-57.999999999747708
 31
0.0
  0
LINE
  5
1ED
  8
DATA
  6
CONTINUOUS
 62
     7
 10
3.550769968751152
 20
-48.199999999747682
 30
0.0
 11
0.9719502469555683
 21
-48.199999999747682
 31
0.0
  0
LINE
  5
1EE
  8
DATA
  6
CONTINUOUS
 62
     7
 10
4.8168395599081437
 20
-57.999999999747708
 30
0.0
 11
4.0490896055220249
 21
-48.659042221382947
 31
0.0
  0
LINE
  5
1EF
  8
DATA
  6
CONTINUOUS
 62
     7
 10
-0.2941193442014214
 20
-57.999999999747708
 30
0.0
 11
0.4736306101846958
 21
-48.659042221382947
 31
0.0
  0
ARC
  5
1F0
  8
DATA
  6
CONTINUOUS
 62
     7
 10
3.550769968751152
 20
-48.699999999747668
 30
0.0
 40
0.5000000000000289
 50
4.6986805172992829
 51
89.999999999999986
  0
ARC
  5
1F1
  8
DATA
  6
CONTINUOUS
 62
     7
 10
0.9719502469555683
 20
-48.699999999747668
 30
0.0
 40
0.5
 50
90.0
 51
175.30131948270071
  0
LINE
  5
1F2
  8
DATA
  6
CONTINUOUS
 62
     7
 10
3.2613601078533319
 20
-48.199999999747682
 30
0.0
 11
3.2613601078533319
 21
1.7000000002521529
 31
0.0
  0
LINE
  5
1F3
  8
DATA
  6
CONTINUOUS
 62
     7
 10
1.261360107853331
 20
1.700000000252146
 30
0.0
 11
1.261360107853331
 21
-48.199999999747682
 31
0.0
  0
LINE
  5
1F4
  8
DATA
  6
CONTINUOUS
 62
     7
 10
3.8313601078533832
 20
1.700000000252146
 30
0.0
 11
0.6913601078533384
 21
1.700000000252146
 31
0.0
  0
LINE
  5
1F5
  8
DATA
  6
CONTINUOUS
 62
     7
 10
3.8313601078533832
 20
1.700000000252146
 30
0.0
 11
3.8313601078533832
 21
12.45000000025304
 31
0.0
  0
LINE
  5
1F6
  8
DATA
  6
CONTINUOUS
 62
     7
 10
0.6913601078533384
 20
12.45000000025304
 30
0.0
 11
0.6913601078533384
 21
1.700000000252146
 31
0.0
  0
ARC
  5
1F7
  8
DATA
  6
CONTINUOUS
 62
     7
 10
2.261360107853331
 20
12.429870967994059
 30
0.0
 40
1.5701290322581161
 50
0.7345512146763265
 51
179.2654487853236
  0
LINE
  5
1F8
  8
DATA
  6
CONTINUOUS
 62
     7
 10
7.2899351834388151
 20
-55.799999999747698
 30
0.0
 11
4.6360176420999313
 21
-55.799999999747698
 31
0.0
  0
LINE
  5
1F9
  8
DATA
  6
CONTINUOUS
 62
     7
 10
-0.1132974263932081
 20
-55.799999999747698
 30
0.0
 11
-4.7900648165613928
 21
-55.799999999747698
 31
0.0
  0
LINE
  5
1FA
  8
DATA
  6
CONTINUOUS
 62
     7
 10
6.7499351834388479
 20
-54.499999999747679
 30
0.0
 11
4.5291683270314396
 21
-54.499999999747679
 31
0.0
  0
LINE
  5
1FB
  8
DATA
  6
CONTINUOUS
 62
     7
 10
-0.0064481113247172
 20
-54.499999999747679
 30
0.0
 11
-4.2500648165614301
 21
-54.499999999747679
 31
0.0
  0
LINE
  5
1FC
  8
DATA
  6
CONTINUOUS
 62
     7
 10
7.6499351834388278
 20
-57.999999999747708
 30
0.0
 11
7.2899351834388151
 21
-55.799999999747698
 31
0.0
  0
LINE
  5
1FD
  8
DATA
  6
CONTINUOUS
 62
     7
 10
6.7499351834388479
 20
-54.499999999747679
 30
0.0
 11
7.1399351834388352
 21
-55.799999999747698
 31
0.0
  0
LINE
  5
1FE
  8
DATA
  6
CONTINUOUS
 62
     7
 10
-5.1500648165614082
 20
-57.999999999747708
 30
0.0
 11
-4.7900648165613928
 21
-55.799999999747698
 31
0.0
  0
LINE
  5
1FF
  8
DATA
  6
CONTINUOUS
 62
     7
 10
-4.2500648165614301
 20
-54.499999999747679
 30
0.0
 11
-4.6400648165614147
 21
-55.799999999747698
 31
0.0
  0
ARC
  5
200
  8
DATA
  6
CONTINUOUS
 62
     7
 10
357.67997053483651
 20
-128.5896551721616
 30
0.0
 40
359.28207847649452
 50
175.27589912469381
 51
180.22491245360919
  0
ARC
  5
201
  8
DATA
  6
CONTINUOUS
 62
     7
 10
357.67997053483651
 20
-128.5896551721616
 30
0.0
 40
359.28207847649429
 50
173.88381490385299
 51
174.9878082288711
  0
ARC
  5
202
  8
DATA
  6
CONTINUOUS
 62
     7
 10
357.67997053483651
 20
-128.5896551721616
 30
0.0
 40
359.28207847649452
 50
168.80016822225221
 51
173.5653004182256
  0
ARC
  5
203
  8
DATA
  6
CONTINUOUS
 62
     7
 10
6.2211142651137532
 20
-58.999999999747651
 30
0.0
 40
0.9999999999999431
 50
90.0
 51
168.80016822225511
  0
ARC
  5
204
  8
DATA
  6
CONTINUOUS
 62
     7
 10
354.17997053483651
 20
-128.5896551721616
 30
0.0
 40
359.28207847649429
 50
173.81878929941431
 51
180.22491245360919
  0
ARC
  5
205
  8
DATA
  6
CONTINUOUS
 62
     7
 10
354.17997053483651
 20
-128.5896551721616
 30
0.0
 40
359.28207847649452
 50
168.80016822225221
 51
173.5077076330416
  0
ARC
  5
206
  8
DATA
  6
CONTINUOUS
 62
     7
 10
2.721114265113751
 20
-58.999999999747651
 30
0.0
 40
0.9999999999999431
 50
90.0
 51
168.80016822225511
  0
LINE
  5
207
  8
DATA
  6
CONTINUOUS
 62
     7
 10
-12.45089498383399
 20
-72.999999999747715
 30
0.0
 11
-4.0569742259599906
 21
-72.999999999747715
 31
0.0
  0
ARC
  5
208
  8
DATA
  6
CONTINUOUS
 62
     7
 10
10.37634941292302
 20
-100.0815720011926
 30
0.0
 40
22.365329499144831
 50
135.83842030910631
 51
168.1791920129952
  0
LINE
  5
209
  8
DATA
  6
CONTINUOUS
 62
     7
 10
-1.6018736091619721
 20
-128.9999999997477
 30
0.0
 11
-5.1018736091619674
 21
-128.9999999997477
 31
0.0
  0
LINE
  5
20A
  8
DATA
  6
CONTINUOUS
 62
     7
 10
-11.175068402298811
 20
-102.9999999997477
 30
0.0
 11
-4.1896451729504882
 21
-102.9999999997477
 31
0.0
  0
LINE
  5
20B
  8
DATA
  6
CONTINUOUS
 62
     7
 10
-11.20372533506926
 20
-102.31999999974769
 30
0.0
 11
-4.1404407335035911
 21
-102.31999999974769
 31
0.0
  0
LINE
  5
20C
  8
DATA
  6
STYLE_05
 62
     7
 10
9.8192086282890916
 20
-95.999999999747715
 30
0.0
 11
9.8192086282890916
 21
-62.999999999747722
 31
0.0
  0
LINE
  5
20D
  8
DATA
  6
STYLE_05
 62
     7
 10
11.619208628289099
 20
-97.799999999747712
 30
0.0
 11
11.619208628289099
 21
-65.385628612477461
 31
0.0
  0
LINE
  5
20E
  8
DATA
  6
STYLE_05
 62
     7
 10
10.81920862828909
 20
-61.999999999747708
 30
0.0
 11
11.041371965321471
 21
-61.999999999747708
 31
0.0
  0
ARC
  5
20F
  8
DATA
  6
STYLE_05
 62
     7
 10
-29.43848367940322
 20
-85.999999999747729
 30
0.0
 40
47.557692307692271
 50
330.1515962620831
 51
29.604538506500148
  0
LINE
  5
210
  8
DATA
  6
STYLE_05
 62
     7
 10
11.70000000512178
 20
-110.3770264249669
 30
0.0
 11
14.350633327910851
 21
-122.7466485979825
 31
0.0
  0
ARC
  5
211
  8
DATA
  6
STYLE_05
 62
     7
 10
-31.238483679403242
 20
-85.999999999747729
 30
0.0
 40
47.557692307692307
 50
330.15159626208208
 51
25.687360526002362
  0
LINE
  5
212
  8
DATA
  6
STYLE_05
 62
     7
 10
9.9000000051219974
 20
-110.37702642496799
 30
0.0
 11
12.63101925491585
 21
-123.1217829240058
 31
0.0
  0
ARC
  5
213
  8
DATA
  6
STYLE_05
 62
     7
 10
-1.623721682374283
 20
-98.099999999747695
 30
0.0
 40
0.8999999999999914
 50
90.0
 51
270.0
  0
ARC
  5
214
  8
DATA
  6
CONTINUOUS
 62
     7
 10
10.419208628289111
 20
-97.799999999747712
 30
0.0
 40
1.200000000000002
 50
270.0
 51
0.0
  0
ARC
  5
215
  8
DATA
  6
CONTINUOUS
 62
     7
 10
8.6192086282891047
 20
-95.999999999747715
 30
0.0
 40
1.199999999999988
 50
270.0
 51
0.0
  0
ARC
  5
216
  8
DATA
  6
STYLE_05
 62
     7
 10
11.041371965321471
 20
-62.999999999747743
 30
0.0
 40
1.000000000000052
 50
29.604538506500411
 51
90.0
  0
ARC
  5
217
  8
DATA
  6
STYLE_05
 62
     7
 10
10.81920862828909
 20
-62.999999999747722
 30
0.0
 40
1.0
 50
90.0
 51
180.0
  0
ARC
  5
218
  8
DATA
  6
STYLE_05
 62
     7
 10
12.67780241919856
 20
-110.1674973362362
 30
0.0
 40
0.9999999999993644
 50
150.15159626205869
 51
192.09475707701159
  0
ARC
  5
219
  8
DATA
  6
STYLE_05
 62
     7
 10
10.87780241920168
 20
-110.16749733623671
 30
0.0
 40
1.0000000000023099
 50
150.15159626217061
 51
192.09475707701179
  0
ARC
  5
21A
  8
DATA
  6
STYLE_05
 62
     7
 10
13.450639567789461
 20
-122.7499999997477
 30
0.0
 40
0.9000000000000487
 50
204.3992266639861
 51
0.2133573664374069
  0
LINE
  5
21B
  8
DATA
  6
STYLE_05
 62
     7
 10
-1.623721682374283
 20
-97.199999999747718
 30
0.0
 11
8.6192086282891047
 21
-97.199999999747718
 31
0.0
  0
LINE
  5
21C
  8
DATA
  6
STYLE_05
 62
     7
 10
-1.623721682374283
 20
-98.999999999747715
 30
0.0
 11
10.419208628289111
 21
-98.999999999747715
 31
0.0
  0
ARC
  5
21D
  8
DATA
  6
CONTINUOUS
 62
     7
 10
-1.364772094787527
 20
-98.099999999747695
 30
0.0
 40
1.5297058540778321
 50
36.039893430300921
 51
323.96010656969742
  0
ARC
  5
21E
  8
DATA
  6
CONTINUOUS
 62
     7
 10
354.17997053483651
 20
-128.5896551721616
 30
0.0
 40
359.28207847649452
 50
168.80016822225221
 51
173.5077076330416
  0
LINE
  5
21F
  8
DATA
  6
CONTINUOUS
 62
     7
 10
-3.0133595301244021
 20
-89.904556342071473
 30
0.0
 11
-2.798058985847006
 21
-87.965790832097511
 31
0.0
  0
LINE
  5
220
  8
DATA
  6
CONTINUOUS
 62
     7
 10
0.4429663756839908
 20
-90.309963770798916
 30
0.0
 11
0.6545129474690407
 21
-88.335750793158738
 31
0.0
  0
ARC
  5
221
  8
DATA
  6
STYLE_05
 62
     7
 10
77.089060482689703
 20
-106.0004841043187
 30
0.0
 40
17.564613786789611
 50
200.84257432612279
 51
270.03568471494629
  0
ARC
  5
222
  8
DATA
  6
STYLE_05
 62
     7
 10
82.910939517730782
 20
-106.0004841043187
 30
0.0
 40
17.564613786789611
 50
269.96431528505371
 51
339.1574256738802
  0
LINE
  5
223
  8
DATA
  6
STYLE_05
 62
     7
 10
77.100000000352935
 20
-123.5650944844562
 30
0.0
 11
82.900000000004908
 21
-123.5650944844562
 31
0.0
  0
LINE
  5
224
  8
DATA
  6
STYLE_05
 62
     7
 10
60.2929384258385
 20
-107.5002507750759
 30
0.0
 11
65.057579815278842
 21
-65.865948015711837
 31
0.0
  0
ARC
  5
225
  8
DATA
  6
STYLE_05
 62
     7
 10
89.166279522898705
 20
-107.5750524844514
 30
0.0
 40
28.873409942765932
 50
179.8510672807077
 51
189.3178848777257
  0
LINE
  5
226
  8
DATA
  6
STYLE_05
 62
     7
 10
54.75812395527899
 20
-95.180897062319588
 30
0.0
 11
58.812282327458242
 21
-63.468369351052573
 31
0.0
  0
LINE
  5
227
  8
DATA
  6
STYLE_05
 62
     7
 10
56.311964630699521
 20
-97.106410001252442
 30
0.0
 11
60.379673057136571
 21
-65.287890754457365
 31
0.0
  0
LINE
  5
228
  8
DATA
  6
STYLE_05
 62
     7
 10
54.167082891774847
 20
-98.846299263392183
 30
0.0
 11
48.995000000302973
 21
-98.428519413513314
 31
0.0
  0
LINE
  5
229
  8
DATA
  6
STYLE_05
 62
     7
 10
52.613242216354323
 20
-96.920786324459357
 30
0.0
 11
49.182940303617528
 21
-96.643700467907195
 31
0.0
  0
ARC
  5
22A
  8
DATA
  6
STYLE_05
 62
     7
 10
49.106708161640981
 20
-97.537977741881605
 30
0.0
 40
0.8975205748160883
 50
85.127633931059577
 51
267.91356188725717
  0
ARC
  5
22B
  8
DATA
  6
STYLE_05
 62
     7
 10
52.774269615666142
 20
-94.927279320039574
 30
0.0
 40
1.999999999999994
 50
265.38190619047879
 51
352.71477217207882
  0
ARC
  5
22C
  8
DATA
  6
STYLE_05
 62
     7
 10
54.328110291086666
 20
-96.852792258972386
 30
0.0
 40
1.99999999999998
 50
265.38190619047879
 51
352.71477217207882
  0
LINE
  5
22D
  8
DATA
  6
STYLE_05
 62
     7
 10
77.100000000352935
 20
-121.7650944844562
 30
0.0
 11
82.900000000004908
 21
-121.7650944844562
 31
0.0
  0
LINE
  5
22E
  8
DATA
  6
CONTINUOUS
 62
     7
 10
62.092938425838533
 20
-107.5002507750759
 30
0.0
 11
62.093355780505782
 21
-107.4966038541105
 31
0.0
  0
LINE
  5
22F
  8
DATA
  6
STYLE_05
 62
     7
 10
62.161631294388393
 20
-106.9000000000746
 30
0.0
 11
67.022156350812693
 21
-64.427848325210533
 31
0.0
  0
LINE
  5
230
  8
DATA
  6
STYLE_05
 62
     7
 10
60.470720346621292
 20
-62.168309652374859
 30
0.0
 11
65.702430609878334
 21
-62.767028055369323
 31
0.0
  0
LINE
  5
231
  8
DATA
  6
STYLE_05
 62
     7
 10
62.057777118556281
 20
-63.990213306457761
 30
0.0
 11
63.757520116601107
 21
-64.207509996548737
 31
0.0
  0
ARC
  5
232
  8
DATA
  6
STYLE_05
 62
     7
 10
60.300173082167852
 20
-63.658582657762608
 30
0.0
 40
1.500000000000008
 50
83.471456447652429
 51
172.7147721720784
  0
ARC
  5
233
  8
DATA
  6
STYLE_05
 62
     7
 10
61.867563811846217
 20
-65.4781040611674
 30
0.0
 40
1.500000000000012
 50
82.714772172078042
 51
172.71477217207871
  0
ARC
  5
234
  8
DATA
  6
STYLE_05
 62
     7
 10
63.567306809891107
 20
-65.69540075125839
 30
0.0
 40
1.4999999999999809
 50
353.4714564476518
 51
82.714772172080231
  0
ARC
  5
235
  8
DATA
  6
STYLE_05
 62
     7
 10
65.531883345424973
 20
-64.257301060757086
 30
0.0
 40
1.4999999999999809
 50
353.4714564476518
 51
83.471456447654589
  0
ARC
  5
236
  8
DATA
  6
STYLE_05
 62
     7
 10
77.089060482689703
 20
-104.2004841043187
 30
0.0
 40
17.564613786789611
 50
237.3002019539924
 51
270.03568471494629
  0
ARC
  5
237
  8
DATA
  6
STYLE_05
 62
     7
 10
74.493636133497873
 20
-108.6134867851506
 30
0.0
 40
12.450477111928169
 50
172.0896086039981
 51
236.37984620783359
  0
LINE
  5
238
  8
DATA
  6
STYLE_05
 62
     7
 10
99.707061574581999
 20
-107.5002507750759
 30
0.0
 11
94.942420185141643
 21
-65.865948015711837
 31
0.0
  0
LINE
  5
239
  8
DATA
  6
STYLE_05
 62
     7
 10
105.24187604514159
 20
-95.180897062319588
 30
0.0
 11
101.18771767296229
 21
-63.468369351052573
 31
0.0
  0
LINE
  5
23A
  8
DATA
  6
STYLE_05
 62
     7
 10
103.68803536972101
 20
-97.106410001252442
 30
0.0
 11
99.620326943283914
 21
-65.287890754457365
 31
0.0
  0
LINE
  5
23B
  8
DATA
  6
STYLE_05
 62
     7
 10
105.8329171086457
 20
-98.846299263392183
 30
0.0
 11
111.00500000011751
 21
-98.428519413513314
 31
0.0
  0
LINE
  5
23C
  8
DATA
  6
STYLE_05
 62
     7
 10
107.3867577840663
 20
-96.920786324459357
 30
0.0
 11
110.817059696803
 21
-96.643700467907195
 31
0.0
  0
ARC
  5
23D
  8
DATA
  6
STYLE_05
 62
     7
 10
110.8932918387796
 20
-97.537977741881605
 30
0.0
 40
0.8975205748161013
 50
272.08643811273907
 51
94.872366068943975
  0
ARC
  5
23E
  8
DATA
  6
STYLE_05
 62
     7
 10
107.2257303847545
 20
-94.927279320039574
 30
0.0
 40
2.0000000000000311
 50
187.28522782792101
 51
274.6180938095211
  0
ARC
  5
23F
  8
DATA
  6
STYLE_05
 62
     7
 10
105.6718897093339
 20
-96.852792258972386
 30
0.0
 40
2.0000000000000311
 50
187.28522782792101
 51
274.61809380952121
  0
LINE
  5
240
  8
DATA
  6
STYLE_05
 62
     7
 10
97.907061574581945
 20
-107.5002507750759
 30
0.0
 11
92.977843649607777
 21
-64.427848325210533
 31
0.0
  0
LINE
  5
241
  8
DATA
  6
STYLE_05
 62
     7
 10
99.529279653799222
 20
-62.168309652374859
 30
0.0
 11
94.297569390541994
 21
-62.767028055369323
 31
0.0
  0
LINE
  5
242
  8
DATA
  6
STYLE_05
 62
     7
 10
97.942222881864282
 20
-63.990213306457761
 30
0.0
 11
96.242479883819357
 21
-64.207509996548737
 31
0.0
  0
ARC
  5
243
  8
DATA
  6
STYLE_05
 62
     7
 10
99.699826918252626
 20
-63.658582657762608
 30
0.0
 40
1.500000000000081
 50
7.2852278279210658
 51
96.528543552345411
  0
ARC
  5
244
  8
DATA
  6
STYLE_05
 62
     7
 10
98.132436188574289
 20
-65.4781040611674
 30
0.0
 40
1.499999999999968
 50
7.2852278279216138
 51
97.285227827919755
  0
ARC
  5
245
  8
DATA
  6
STYLE_05
 62
     7
 10
96.432693190529363
 20
-65.69540075125839
 30
0.0
 40
1.5000000000000051
 50
97.285227827919755
 51
186.5285435523482
  0
ARC
  5
246
  8
DATA
  6
STYLE_05
 62
     7
 10
94.468116654995484
 20
-64.257301060757086
 30
0.0
 40
1.500000000000014
 50
96.528543552349731
 51
186.5285435523482
  0
ARC
  5
247
  8
DATA
  6
STYLE_05
 62
     7
 10
82.910939517730782
 20
-104.2004841043187
 30
0.0
 40
17.564613786789611
 50
269.96431528505371
 51
302.69979804600752
  0
ARC
  5
248
  8
DATA
  6
STYLE_05
 62
     7
 10
85.506363866922527
 20
-108.6134867851506
 30
0.0
 40
12.450477111928199
 50
303.62015379216678
 51
5.1466957102080073
  0
ARC
  5
249
  8
DATA
  6
STYLE_05
 62
     7
 10
70.833720477521766
 20
-107.5750524844514
 30
0.0
 40
28.873409942765971
 50
350.68211512227441
 51
0.1489327192923611
  0
LINE
  5
24A
  8
DATA
  6
STYLE_05
 62
     7
 10
-101.9999999996471
 20
43.000000000252612
 30
0.0
 11
-100.1999999996471
 21
43.000000000252612
 31
0.0
  0
LINE
  5
24B
  8
DATA
  6
STYLE_05
 62
     7
 10
-101.9999999996471
 20
43.000000000252612
 30
0.0
 11
-101.9999999996471
 21
52.500000000252697
 31
0.0
  0
LINE
  5
24C
  8
DATA
  6
STYLE_05
 62
     7
 10
-100.1999999996471
 20
43.000000000252612
 30
0.0
 11
-100.1999999996471
 21
50.700000000252679
 31
0.0
  0
LINE
  5
24D
  8
DATA
  6
STYLE_05
 62
     7
 10
-98.699999999647076
 20
52.200000000252693
 30
0.0
 11
-94.999999999647088
 21
52.200000000252693
 31
0.0
  0
LINE
  5
24E
  8
DATA
  6
STYLE_05
 62
     7
 10
-100.4999999996471
 20
54.000000000252697
 30
0.0
 11
-96.799999999647085
 21
54.000000000252697
 31
0.0
  0
LINE
  5
24F
  8
DATA
  6
STYLE_05
 62
     7
 10
-93.499999999647073
 20
53.700000000252679
 30
0.0
 11
-93.499999999647073
 21
59.580000000247651
 31
0.0
  0
LINE
  5
250
  8
DATA
  6
STYLE_05
 62
     7
 10
-95.299999999647085
 20
55.500000000252712
 30
0.0
 11
-95.299999999647085
 21
59.580000000247651
 31
0.0
  0
ARC
  5
251
  8
DATA
  6
STYLE_05
 62
     7
 10
-94.399999999647065
 20
59.5000000002577
 30
0.0
 40
0.9035485598456254
 50
5.0796078590664271
 51
174.92039214062081
  0
ARC
  5
252
  8
DATA
  6
STYLE_05
 62
     7
 10
-100.4999999996471
 20
52.500000000252697
 30
0.0
 40
1.5
 50
90.0
 51
180.0
  0
ARC
  5
253
  8
DATA
  6
STYLE_05
 62
     7
 10
-98.699999999647076
 20
50.700000000252679
 30
0.0
 40
1.5
 50
90.0
 51
180.0
  0
ARC
  5
254
  8
DATA
  6
STYLE_05
 62
     7
 10
-96.799999999647085
 20
55.500000000252712
 30
0.0
 40
1.5
 50
270.0
 51
0.0
  0
ARC
  5
255
  8
DATA
  6
STYLE_05
 62
     7
 10
-94.999999999647088
 20
53.700000000252679
 30
0.0
 40
1.5
 50
270.0
 51
0.0
  0
ARC
  5
256
  8
DATA
  6
CONTINUOUS
 62
     7
 10
-40.999999999647088
 20
51.000000000252697
 30
0.0
 40
1.0
 50
0.0
 51
90.0
  0
LINE
  5
257
  8
DATA
  6
STYLE_05
 62
     7
 10
-37.999999999647081
 20
43.000000000252612
 30
0.0
 11
-39.799999999647092
 21
43.000000000252612
 31
0.0
  0
LINE
  5
258
  8
DATA
  6
STYLE_05
 62
     7
 10
-37.999999999647081
 20
43.000000000252612
 30
0.0
 11
-37.999999999647081
 21
52.500000000252697
 31
0.0
  0
LINE
  5
259
  8
DATA
  6
STYLE_05
 62
     7
 10
-39.799999999647092
 20
43.000000000252612
 30
0.0
 11
-39.799999999647092
 21
50.700000000252679
 31
0.0
  0
LINE
  5
25A
  8
DATA
  6
STYLE_05
 62
     7
 10
-41.299999999647092
 20
52.200000000252693
 30
0.0
 11
-44.999999999647102
 21
52.200000000252693
 31
0.0
  0
LINE
  5
25B
  8
DATA
  6
STYLE_05
 62
     7
 10
-39.499999999647102
 20
54.000000000252697
 30
0.0
 11
-43.199999999647069
 21
54.000000000252697
 31
0.0
  0
LINE
  5
25C
  8
DATA
  6
STYLE_05
 62
     7
 10
-46.499999999647088
 20
53.700000000252679
 30
0.0
 11
-46.499999999647088
 21
59.580000000247651
 31
0.0
  0
LINE
  5
25D
  8
DATA
  6
STYLE_05
 62
     7
 10
-44.699999999647069
 20
55.500000000252712
 30
0.0
 11
-44.699999999647069
 21
59.580000000247651
 31
0.0
  0
ARC
  5
25E
  8
DATA
  6
STYLE_05
 62
     7
 10
-45.59999999964711
 20
59.5000000002577
 30
0.0
 40
0.9035485598456643
 50
5.0796078593792284
 51
174.92039214093359
  0
ARC
  5
25F
  8
DATA
  6
STYLE_05
 62
     7
 10
-39.499999999647102
 20
52.500000000252697
 30
0.0
 40
1.5000000000000071
 50
0.0
 51
90.0
  0
ARC
  5
260
  8
DATA
  6
STYLE_05
 62
     7
 10
-41.299999999647092
 20
50.700000000252679
 30
0.0
 40
1.5
 50
0.0
 51
90.0
  0
ARC
  5
261
  8
DATA
  6
STYLE_05
 62
     7
 10
-43.199999999647069
 20
55.500000000252712
 30
0.0
 40
1.5
 50
180.0
 51
270.0
  0
ARC
  5
262
  8
DATA
  6
STYLE_05
 62
     7
 10
-44.999999999647102
 20
53.700000000252679
 30
0.0
 40
1.5
 50
180.0
 51
270.0
  0
ARC
  5
263
  8
DATA
  6
STYLE_05
 62
     7
 10
-69.89671965107641
 20
-5.8217786519684722
 30
0.0
 40
62.301251103757657
 50
68.140519666177553
 51
111.8594803338226
  0
ARC
  5
264
  8
DATA
  6
STYLE_05
 62
     7
 10
-69.89671965107641
 20
-4.02177865196846
 30
0.0
 40
62.301251103757657
 50
67.935511762542177
 51
112.23261021966781
  0
LINE
  5
265
  8
DATA
  6
STYLE_05
 62
     7
 10
-100.4999999996471
 20
-198.24999999980619
 30
0.0
 11
-96.799999999647085
 21
-198.24999999980619
 31
0.0
  0
LINE
  5
266
  8
DATA
  6
STYLE_05
 62
     7
 10
-93.499999999647073
 20
-197.9499999998061
 30
0.0
 11
-93.499999999647073
 21
-203.829999999801
 31
0.0
  0
LINE
  5
267
  8
DATA
  6
STYLE_05
 62
     7
 10
-95.299999999647085
 20
-199.74999999980611
 30
0.0
 11
-95.299999999647085
 21
-203.829999999801
 31
0.0
  0
ARC
  5
268
  8
DATA
  6
STYLE_05
 62
     7
 10
-94.399999999647065
 20
-203.74999999981111
 30
0.0
 40
0.9035485598456643
 50
185.07960785937919
 51
354.92039214093529
  0
ARC
  5
269
  8
DATA
  6
STYLE_05
 62
     7
 10
-100.4999999996471
 20
-196.74999999980619
 30
0.0
 40
1.5
 50
180.0
 51
270.0
  0
ARC
  5
26A
  8
DATA
  6
STYLE_05
 62
     7
 10
-96.799999999647085
 20
-199.74999999980611
 30
0.0
 40
1.5
 50
0.0
 51
90.0
  0
ARC
  5
26B
  8
DATA
  6
STYLE_05
 62
     7
 10
-94.999999999647088
 20
-197.9499999998061
 30
0.0
 40
1.5
 50
0.0
 51
90.0
  0
LINE
  5
26C
  8
DATA
  6
STYLE_05
 62
     7
 10
-39.499999999647102
 20
-198.24999999980619
 30
0.0
 11
-43.199999999647069
 21
-198.24999999980619
 31
0.0
  0
LINE
  5
26D
  8
DATA
  6
STYLE_05
 62
     7
 10
-46.499999999647088
 20
-197.9499999998061
 30
0.0
 11
-46.499999999647088
 21
-203.829999999801
 31
0.0
  0
LINE
  5
26E
  8
DATA
  6
STYLE_05
 62
     7
 10
-44.699999999647069
 20
-199.74999999980611
 30
0.0
 11
-44.699999999647069
 21
-203.829999999801
 31
0.0
  0
ARC
  5
26F
  8
DATA
  6
STYLE_05
 62
     7
 10
-45.59999999964711
 20
-203.74999999981111
 30
0.0
 40
0.9035485598456228
 50
185.07960785906459
 51
354.92039214062072
  0
ARC
  5
270
  8
DATA
  6
STYLE_05
 62
     7
 10
-39.499999999647102
 20
-196.74999999980619
 30
0.0
 40
1.4999999999999709
 50
270.0
 51
0.0
  0
ARC
  5
271
  8
DATA
  6
STYLE_05
 62
     7
 10
-43.199999999647069
 20
-199.74999999980611
 30
0.0
 40
1.4999999999998861
 50
90.0
 51
180.0
  0
ARC
  5
272
  8
DATA
  6
STYLE_05
 62
     7
 10
-44.999999999647102
 20
-197.9499999998061
 30
0.0
 40
1.4999999999999709
 50
90.0
 51
180.0
  0
ARC
  5
273
  8
DATA
  6
STYLE_05
 62
     7
 10
-69.89671965107641
 20
-138.4282213475858
 30
0.0
 40
62.301251103757053
 50
248.1405196661772
 51
291.85948033382277
  0
ARC
  5
274
  8
DATA
  6
STYLE_05
 62
     7
 10
-69.89671965107641
 20
-140.22822134758579
 30
0.0
 40
62.301251103757032
 50
247.76738978033191
 51
292.06448823745808
  0
LINE
  5
275
  8
DATA
  6
STYLE_05
 62
     7
 10
-44.999999999647102
 20
-196.44999999980621
 30
0.0
 11
-40.799999999647092
 21
-196.44999999980621
 31
0.0
  0
LINE
  5
276
  8
DATA
  6
STYLE_05
 62
     7
 10
-100.1999999996471
 20
-189.35907301615771
 30
0.0
 11
-100.1999999996471
 21
-195.44999999980621
 31
0.0
  0
LINE
  5
277
  8
DATA
  6
STYLE_05
 62
     7
 10
-94.999999999647088
 20
-196.44999999980621
 30
0.0
 11
-99.19999999964709
 21
-196.44999999980621
 31
0.0
  0
ARC
  5
278
  8
DATA
  6
CONTINUOUS
 62
     7
 10
-99.19999999964709
 20
-195.44999999980621
 30
0.0
 40
1.0
 50
180.0
 51
270.0
  0
ARC
  5
279
  8
DATA
  6
CONTINUOUS
 62
     7
 10
-40.799999999647092
 20
-195.44999999980621
 30
0.0
 40
1.0
 50
270.0
 51
0.0
  0
LINE
  5
27A
  8
DATA
  6
STYLE_05
 62
     7
 10
-101.9999999996471
 20
-196.74999999980619
 30
0.0
 11
-101.9999999996471
 21
-187.5590730161577
 31
0.0
  0
LINE
  5
27B
  8
DATA
  6
STYLE_05
 62
     7
 10
-37.999999999647081
 20
-196.74999999980619
 30
0.0
 11
-37.999999999647081
 21
-187.5590730161577
 31
0.0
  0
LINE
  5
27C
  8
DATA
  6
STYLE_05
 62
     7
 10
-40.999999999647088
 20
-188.35907301615771
 30
0.0
 11
-40.799999999647092
 21
-188.35907301615771
 31
0.0
  0
LINE
  5
27D
  8
DATA
  6
STYLE_05
 62
     7
 10
-40.999999999647088
 20
-186.5590730161577
 30
0.0
 11
-38.999999999647081
 21
-186.5590730161577
 31
0.0
  0
LINE
  5
27E
  8
DATA
  6
STYLE_05
 62
     7
 10
-39.799999999647092
 20
-195.44999999980621
 30
0.0
 11
-39.799999999647092
 21
-189.35907301615771
 31
0.0
  0
LINE
  5
27F
  8
DATA
  6
CONTINUOUS
 62
     7
 10
-98.999999999647088
 20
-188.35907301615771
 30
0.0
 11
-99.19999999964709
 21
-188.35907301615771
 31
0.0
  0
LINE
  5
280
  8
DATA
  6
STYLE_05
 62
     7
 10
-98.999999999647088
 20
-186.5590730161577
 30
0.0
 11
-100.9999999996471
 21
-186.5590730161577
 31
0.0
  0
ARC
  5
281
  8
DATA
  6
STYLE_05
 62
     7
 10
-100.9999999996471
 20
-187.5590730161577
 30
0.0
 40
0.9999999999999715
 50
90.0
 51
180.0
  0
ARC
  5
282
  8
DATA
  6
STYLE_05
 62
     7
 10
-99.19999999964709
 20
-189.35907301615771
 30
0.0
 40
1.0
 50
90.0
 51
180.0
  0
ARC
  5
283
  8
DATA
  6
STYLE_05
 62
     7
 10
-38.999999999647081
 20
-187.5590730161577
 30
0.0
 40
1.0
 50
0.0
 51
90.0
  0
ARC
  5
284
  8
DATA
  6
STYLE_05
 62
     7
 10
-40.799999999647092
 20
-189.35907301615771
 30
0.0
 40
1.0
 50
0.0
 51
90.0
  0
POLYLINE
  5
285
  8
DATA
  6
CONTINUOUS
 62
     7
 66
     1
 10
0.0
 20
0.0
 30
0.0
 70
   129
  0
VERTEX
  5
3AA
  8
DATA
  6
CONTINUOUS
 62
     7
 10
-78.999999999647045
 20
-80.049891956260126
 30
0.0
 42
-0.4142135623730951
  0
VERTEX
  5
3AB
  8
DATA
  6
CONTINUOUS
 62
     7
 10
-77.999999999647059
 20
-79.049891956260126
 30
0.0
  0
VERTEX
  5
3AC
  8
DATA
  6
CONTINUOUS
 62
     7
 10
-61.999999999647102
 20
-79.049891956260126
 30
0.0
 42
-0.4142135623730951
  0
VERTEX
  5
3AD
  8
DATA
  6
CONTINUOUS
 62
     7
 10
-60.999999999647088
 20
-80.049891956260126
 30
0.0
  0
VERTEX
  5
3AE
  8
DATA
  6
CONTINUOUS
 62
     7
 10
-60.999999999647088
 20
-86.049891956260126
 30
0.0
 42
-0.4142135623730951
  0
VERTEX
  5
3AF
  8
DATA
  6
CONTINUOUS
 62
     7
 10
-61.999999999647102
 20
-87.049891956260126
 30
0.0
  0
VERTEX
  5
3B0
  8
DATA
  6
CONTINUOUS
 62
     7
 10
-77.999999999647059
 20
-87.049891956260126
 30
0.0
 42
-0.4142135623730951
  0
VERTEX
  5
3B1
  8
DATA
  6
CONTINUOUS
 62
     7
 10
-78.999999999647045
 20
-86.049891956260126
 30
0.0
  0
SEQEND
  5
3B2
  8
DATA
  6
CONTINUOUS
 62
     7
  0
CIRCLE
  5
28F
  8
DATA
  6
CONTINUOUS
 62
     7
 10
-81.999999999999986
 20
-83.049891956260126
 30
0.0
 40
0.5
  0
TEXT
  5
290
  8
DATA
 62
     7
 10
-74.925347477325928
 20
-78.455702191829673
 30
0.0
 40
1.411662326388889
  1
GRP
 41
0.7
 11
-74.925347477325928
 21
-77.04403986544078
 31
0.0
 73
     3
  0
TEXT
  5
291
  8
DATA
 62
     7
 10
-67.494243359817119
 20
-78.455702191829673
 30
0.0
 40
1.411662326388889
  1
CH
 41
0.7
 11
-67.494243359817119
 21
-77.04403986544078
 31
0.0
 73
     3
  0
LINE
  5
292
  8
DATA
  6
CONTINUOUS
 62
     7
 10
60.000000000210321
 20
-121.9999999997477
 30
0.0
 11
69.841222971335085
 21
-121.9999999997477
 31
0.0
  0
POLYLINE
  5
293
  8
DATA
  6
CONTINUOUS
 62
     7
 66
     1
 10
0.0
 20
0.0
 30
0.0
  0
VERTEX
  5
3B3
  8
DATA
  6
CONTINUOUS
 62
     7
 10
90.158777029085314
 20
-121.9999999997477
 30
0.0
  0
VERTEX
  5
3B4
  8
DATA
  6
CONTINUOUS
 62
     7
 10
100.00000000021031
 20
-121.9999999997477
 30
0.0
  0
VERTEX
  5
3B5
  8
DATA
  6
CONTINUOUS
 62
     7
 10
100.00000000021031
 20
-121.9999999997477
 30
0.0
  0
SEQEND
  5
3B6
  8
DATA
  6
CONTINUOUS
 62
     7
  0
LINE
  5
299
  8
DATA
  6
CONTINUOUS
 62
     7
 10
60.000000000210321
 20
-112.9999999997477
 30
0.0
 11
60.979360463486422
 21
-112.9999999997477
 31
0.0
  0
LINE
  5
29A
  8
DATA
  6
CONTINUOUS
 62
     7
 10
62.841474010835313
 20
-112.9999999997477
 30
0.0
 11
97.158525989585115
 21
-112.9999999997477
 31
0.0
  0
POLYLINE
  5
29B
  8
DATA
  6
CONTINUOUS
 62
     7
 66
     1
 10
0.0
 20
0.0
 30
0.0
  0
VERTEX
  5
3B7
  8
DATA
  6
CONTINUOUS
 62
     7
 10
99.020639536934141
 20
-112.9999999997477
 30
0.0
  0
VERTEX
  5
3B8
  8
DATA
  6
CONTINUOUS
 62
     7
 10
100.00000000021031
 20
-112.9999999997477
 30
0.0
  0
VERTEX
  5
3B9
  8
DATA
  6
CONTINUOUS
 62
     7
 10
100.00000000021031
 20
-112.9999999997477
 30
0.0
  0
SEQEND
  5
3BA
  8
DATA
  6
CONTINUOUS
 62
     7
  0
LINE
  5
2A1
  8
DATA
  6
CONTINUOUS
 62
     7
 10
60.000000000210321
 20
-121.9999999997477
 30
0.0
 11
60.000000000210321
 21
-112.9999999997477
 31
0.0
  0
LINE
  5
2A2
  8
DATA
  6
CONTINUOUS
 62
     7
 10
100.00000000021031
 20
-121.9999999997477
 30
0.0
 11
100.00000000021031
 21
-112.9999999997477
 31
0.0
  0
LINE
  5
2A3
  8
DATA
  6
CONTINUOUS
 62
     7
 10
-88.559999999999988
 20
42.479999999999997
 30
0.0
 11
-89.839999999999989
 21
40.719999999999999
 31
0.0
  0
TEXT
  5
2A4
  8
DATA
 62
     7
 10
-60.117777777777761
 20
36.14897777777778
 30
0.0
 40
3.9092187499999991
  1
iR
 41
0.7
 11
-60.117777777777761
 21
40.058196527777781
 31
0.0
 73
     3
  0
LINE
  5
2A5
  8
DATA
  6
CONTINUOUS
 62
     7
 10
-12.10651322276466
 20
-84.499999999747729
 30
0.0
 11
-5.6680445478692318
 21
-84.499999999747729
 31
0.0
  0
LINE
  5
2A6
  8
DATA
  6
STYLE_05
 62
     7
 10
-38.799999999647078
 20
-97.199999999747718
 30
0.0
 11
-39.999999999647102
 21
-97.199999999747718
 31
0.0
  0
LINE
  5
2A7
  8
DATA
  6
STYLE_05
 62
     7
 10
-99.999999999647088
 20
-97.199999999747718
 30
0.0
 11
-101.1999999996471
 21
-97.199999999747718
 31
0.0
  0
LINE
  5
2A8
  8
DATA
  6
STYLE_05
 62
     7
 10
-99.999999999647088
 20
-98.999999999747715
 30
0.0
 11
-101.1999999996471
 21
-98.999999999747715
 31
0.0
  0
LINE
  5
2A9
  8
DATA
  6
STYLE_05
 62
     7
 10
-39.999999999647102
 20
-98.999999999747715
 30
0.0
 11
-38.799999999647078
 21
-98.999999999747715
 31
0.0
  0
LINE
  5
2AA
  8
DATA
  6
STYLE_05
 62
     7
 10
-101.9999999996471
 20
-98.199999999747718
 30
0.0
 11
-101.9999999996471
 21
-97.999999999747715
 31
0.0
  0
LINE
  5
2AB
  8
DATA
  6
STYLE_05
 62
     7
 10
-37.999999999647081
 20
-98.199999999747718
 30
0.0
 11
-37.999999999647081
 21
-97.999999999747715
 31
0.0
  0
ARC
  5
2AC
  8
DATA
  6
STYLE_05
 62
     7
 10
-101.1999999996471
 20
-97.999999999747715
 30
0.0
 40
0.8000000000000113
 50
90.0
 51
179.99999999999901
  0
ARC
  5
2AD
  8
DATA
  6
STYLE_05
 62
     7
 10
-101.1999999996471
 20
-98.199999999747718
 30
0.0
 40
0.8000000000000113
 50
180.0
 51
269.99999999999898
  0
ARC
  5
2AE
  8
DATA
  6
STYLE_05
 62
     7
 10
-38.799999999647078
 20
-97.999999999747715
 30
0.0
 40
0.7999999999999972
 50
0.0
 51
90.0
  0
ARC
  5
2AF
  8
DATA
  6
STYLE_05
 62
     7
 10
-38.799999999647078
 20
-98.199999999747718
 30
0.0
 40
0.799999999999983
 50
270.0
 51
0.0000000000010232
  0
TEXT
  5
2B0
  8
DATA
 62
     7
 10
-175.55361514055539
 20
-246.10395126681789
 30
0.0
 40
3.8006293402777769
  1
※仕様及び外観は予告なく変更されることがあります。
 41
0.7
 11
-175.55361514055539
 21
-242.30332192654021
 31
0.0
 73
     3
  0
TEXT
  5
2B1
  8
DATA
 62
     7
 10
-175.55361514055539
 20
-251.0428401557069
 30
0.0
 40
3.8006293402777769
  1
　また、同一製品でも若干の個体差があることがあります。ご了承ください。
 41
0.7
 11
-175.55361514055539
 21
-247.2422108154291
 31
0.0
 73
     3
  0
ENDSEC
  0
EOF
