  0
SECTION
  2
HEADER
  9
$ACADVER
  1
AC1009
  9
$INSBASE
 10
0.0
 20
0.0
 30
0.0
  9
$EXTMIN
 10
-80.027463724868767
 20
-276.8870479174243
 30
-0.0015258207003583
  9
$EXTMAX
 10
820.02746791582013
 20
1060.040753785041
 30
0.0000000349246037
  9
$LIMMIN
 10
0.0
 20
0.0
  9
$LIMMAX
 10
0.0
 20
0.0
  9
$ORTHOMODE
 70
     0
  9
$REGENMODE
 70
     1
  9
$FILLMODE
 70
     1
  9
$QTEXTMODE
 70
     0
  9
$MIRRTEXT
 70
     1
  9
$DRAGMODE
 70
     2
  9
$LTSCALE
 40
25.399999999999999
  9
$OSMODE
 70
   167
  9
$ATTMODE
 70
     1
  9
$TEXTSIZE
 40
0.0
  9
$TRACEWID
 40
1.0
  9
$TEXTSTYLE
  7
STANDARD
  9
$CLAYER
  8
DATA
  9
$CELTYPE
  6
CONTINUOUS
  9
$CECOLOR
 62
   256
  9
$DIMSCALE
 40
1.0
  9
$DIMASZ
 40
0.18
  9
$DIMEXO
 40
0.0625
  9
$DIMDLI
 40
0.38
  9
$DIMRND
 40
0.0
  9
$DIMDLE
 40
0.0
  9
$DIMEXE
 40
0.18
  9
$DIMTP
 40
0.0
  9
$DIMTM
 40
0.0
  9
$DIMTXT
 40
0.18
  9
$DIMCEN
 40
0.09
  9
$DIMTSZ
 40
0.0
  9
$DIMTOL
 70
     0
  9
$DIMLIM
 70
     0
  9
$DIMTIH
 70
     1
  9
$DIMTOH
 70
     1
  9
$DIMSE1
 70
     0
  9
$DIMSE2
 70
     0
  9
$DIMTAD
 70
     0
  9
$DIMZIN
 70
     0
  9
$DIMBLK
  1

  9
$DIMASO
 70
     1
  9
$DIMSHO
 70
     1
  9
$DIMPOST
  1

  9
$DIMAPOST
  1

  9
$DIMALT
 70
     0
  9
$DIMALTD
 70
     2
  9
$DIMALTF
 40
25.399999999999999
  9
$DIMLFAC
 40
1.0
  9
$DIMTOFL
 70
     0
  9
$DIMTVP
 40
0.0
  9
$DIMTIX
 70
     0
  9
$DIMSOXD
 70
     0
  9
$DIMSAH
 70
     0
  9
$DIMBLK1
  1

  9
$DIMBLK2
  1

  9
$DIMSTYLE
  2
STANDARD
  9
$DIMCLRD
 70
     0
  9
$DIMCLRE
 70
     0
  9
$DIMCLRT
 70
     0
  9
$DIMTFAC
 40
1.0
  9
$DIMGAP
 40
0.09
  9
$LUNITS
 70
     2
  9
$LUPREC
 70
     4
  9
$SKETCHINC
 40
0.1
  9
$FILLETRAD
 40
0.0
  9
$AUNITS
 70
     0
  9
$AUPREC
 70
     0
  9
$MENU
  1
acad
  9
$ELEVATION
 40
0.0
  9
$PELEVATION
 40
0.0
  9
$THICKNESS
 40
0.0
  9
$LIMCHECK
 70
     0
  9
$BLIPMODE
 70
     0
  9
$CHAMFERA
 40
0.0
  9
$CHAMFERB
 40
0.0
  9
$SKPOLY
 70
     0
  9
$TDCREATE
 40
2452979.7522685179
  9
$TDUPDATE
 40
2452979.801541701
  9
$TDINDWG
 40
0.0002515509
  9
$TDUSRTIMER
 40
0.0002515509
  9
$USRTIMER
 70
     1
  9
$ANGBASE
 50
0.0
  9
$ANGDIR
 70
     0
  9
$PDMODE
 70
     1
  9
$PDSIZE
 40
-2.0
  9
$PLINEWID
 40
0.0
  9
$COORDS
 70
     2
  9
$SPLFRAME
 70
     0
  9
$SPLINETYPE
 70
     6
  9
$SPLINESEGS
 70
     8
  9
$ATTDIA
 70
     0
  9
$ATTREQ
 70
     1
  9
$HANDLING
 70
     1
  9
$HANDSEED
  5
B90
  9
$SURFTAB1
 70
     6
  9
$SURFTAB2
 70
     6
  9
$SURFTYPE
 70
     6
  9
$SURFU
 70
     6
  9
$SURFV
 70
     6
  9
$UCSNAME
  2

  9
$UCSORG
 10
0.0
 20
0.0
 30
0.0
  9
$UCSXDIR
 10
1.0
 20
0.0
 30
0.0
  9
$UCSYDIR
 10
0.0
 20
1.0
 30
0.0
  9
$PUCSNAME
  2

  9
$PUCSORG
 10
0.0
 20
0.0
 30
0.0
  9
$PUCSXDIR
 10
1.0
 20
0.0
 30
0.0
  9
$PUCSYDIR
 10
0.0
 20
1.0
 30
0.0
  9
$USERI1
 70
     0
  9
$USERI2
 70
     0
  9
$USERI3
 70
     0
  9
$USERI4
 70
     0
  9
$USERI5
 70
     0
  9
$USERR1
 40
0.0
  9
$USERR2
 40
0.0
  9
$USERR3
 40
0.0
  9
$USERR4
 40
0.0
  9
$USERR5
 40
0.0
  9
$WORLDVIEW
 70
     1
  9
$SHADEDGE
 70
     3
  9
$SHADEDIF
 70
    70
  9
$TILEMODE
 70
     1
  9
$MAXACTVP
 70
    16
  9
$PLIMCHECK
 70
     0
  9
$PEXTMIN
 10
1.0000000000000000E+020
 20
1.0000000000000000E+020
 30
1.0000000000000000E+020
  9
$PEXTMAX
 10
-1.0000000000000000E+020
 20
-1.0000000000000000E+020
 30
-1.0000000000000000E+020
  9
$PLIMMIN
 10
0.0
 20
0.0
  9
$PLIMMAX
 10
12.0
 20
9.0
  9
$UNITMODE
 70
     0
  9
$VISRETAIN
 70
     0
  9
$PLINEGEN
 70
     1
  9
$PSLTSCALE
 70
     0
  0
ENDSEC
  0
SECTION
  2
TABLES
  0
TABLE
  2
VPORT
 70
     2
  0
VPORT
  2
*ACTIVE
 70
     0
 10
0.0
 20
0.0
 11
1.0
 21
1.0
 12
370.00000209547579
 22
391.57685293380871
 13
0.0
 23
0.0
 14
1.0
 24
1.0
 15
0.0
 25
0.0
 16
0.0
 26
0.0
 36
1.0
 17
0.0
 27
0.0
 37
0.0
 40
1347.58061287141
 41
1.603723404255319
 42
50.0
 43
0.0
 44
0.0
 50
0.0
 51
0.0
 71
     0
 72
   100
 73
     1
 74
     1
 75
     0
 76
     0
 77
     0
 78
     0
  0
ENDTAB
  0
TABLE
  2
LTYPE
 70
    11
  0
LTYPE
  2
CONTINUOUS
 70
     0
  3
Solid line
 72
    65
 73
     0
 40
0.0
  0
LTYPE
  2
STYLE_01
 70
     0
  3

 72
    65
 73
     2
 40
0.4166412353515625
 49
0.208282470703125
 49
-0.2083587646484375
  0
LTYPE
  2
STYLE_02
 70
     0
  3

 72
    65
 73
     2
 40
0.694427490234375
 49
0.4860687255859375
 49
-0.2083587646484375
  0
LTYPE
  2
STYLE_03
 70
     0
  3

 72
    65
 73
     2
 40
1.25
 49
1.0416412353515621
 49
-0.2083587646484375
  0
LTYPE
  2
STYLE_04
 70
     0
  3

 72
    65
 73
     2
 40
1.5277099609375
 49
1.319427490234375
 49
-0.208282470703125
  0
LTYPE
  2
STYLE_05
 70
     0
  3

 72
    65
 73
     2
 40
0.208282470703125
 49
0.069427490234375
 49
-0.13885498046875
  0
LTYPE
  2
STYLE_06
 70
     0
  3

 72
    65
 73
     4
 40
1.0416412353515621
 49
0.625
 49
-0.208282470703125
 49
0.069427490234375
 49
-0.1389312744140625
  0
LTYPE
  2
STYLE_07
 70
     0
  3

 72
    65
 73
     6
 40
1.875
 49
0.625
 49
-0.208282470703125
 49
0.625
 49
-0.2083587646484375
 49
0.069427490234375
 49
-0.1389312744140625
  0
LTYPE
  2
STYLE_08
 70
     0
  3

 72
    65
 73
     6
 40
1.25
 49
0.625
 49
-0.208282470703125
 49
0.069427490234375
 49
-0.1389312744140625
 49
0.069427490234375
 49
-0.1389312744140625
  0
LTYPE
  2
STYLE_09
 70
     0
  3

 72
    65
 73
     4
 40
5.0
 49
3.75
 49
-0.2777862548828125
 49
0.694427490234375
 49
-0.2777862548828125
  0
LTYPE
  2
STYLE_10
 70
     0
  3

 72
    65
 73
     6
 40
5.9375
 49
3.75
 49
-0.2777862548828125
 49
0.694427490234375
 49
-0.2777862548828125
 49
0.625
 49
-0.3125
  0
ENDTAB
  0
TABLE
  2
LAYER
 70
     6
  0
LAYER
  2
0
 70
     0
 62
     7
  6
CONTINUOUS
  0
LAYER
  2
DATA
 70
     0
 62
     7
  6
CONTINUOUS
  0
LAYER
  2
DEFPOINTS
 70
     0
 62
     7
  6
CONTINUOUS
  0
LAYER
  2
HIBINO-BASE
 70
     0
 62
     7
  6
CONTINUOUS
  0
LAYER
  2
SPEC
 70
     0
 62
     7
  6
CONTINUOUS
  0
LAYER
  2
DIMNSIONS
 70
     0
 62
     7
  6
CONTINUOUS
  0
ENDTAB
  0
TABLE
  2
STYLE
 70
     2
  0
STYLE
  2
STANDARD
 70
     0
 40
0.0
 41
1.0
 50
0.0
 71
     0
 42
0.0
  3
txt
  4
BIGFONT.SHX
  0
ENDTAB
  0
TABLE
  2
VIEW
 70
     0
  0
ENDTAB
  0
TABLE
  2
UCS
 70
     0
  0
ENDTAB
  0
TABLE
  2
APPID
 70
     1
  0
APPID
  2
ACAD
 70
     0
  0
ENDTAB
  0
TABLE
  2
DIMSTYLE
 70
     1
  0
DIMSTYLE
  2
STANDARD
 70
     0
  3

  4

  5

  6

  7

 40
1.0
 41
0.18
 42
0.0625
 43
0.38
 44
0.18
 45
0.0
 46
0.0
 47
0.0
 48
0.0
140
0.18
141
0.09
142
0.0
143
25.399999999999999
144
1.0
145
0.0
146
1.0
147
0.09
 71
     0
 72
     0
 73
     1
 74
     1
 75
     0
 76
     0
 77
     0
 78
     0
170
     0
171
     2
172
     0
173
     0
174
     0
175
     0
176
     0
177
     0
178
     0
  0
ENDTAB
  0
ENDSEC
  0
SECTION
  2
BLOCKS
  0
BLOCK
  8
0
  2
$MODEL_SPACE
 70
     0
 10
0.0
 20
0.0
 30
0.0
  3
$MODEL_SPACE
  1

  0
ENDBLK
  5
8E2
  8
0
  0
BLOCK
 67
     1
  8
0
  2
$PAPER_SPACE
 70
     0
 10
0.0
 20
0.0
 30
0.0
  3
$PAPER_SPACE
  1

  0
ENDBLK
  5
8DE
 67
     1
  8
0
  0
ENDSEC
  0
SECTION
  2
ENTITIES
  0
LINE
  5
2D
  8
HIBINO-BASE
 62
     7
 10
-80.0
 20
1060.0
 30
0.0
 11
820.0
 21
1060.0
 31
0.0
  0
LINE
  5
2E
  8
HIBINO-BASE
 62
     7
 10
820.0
 20
-240.0
 30
0.0
 11
-80.0
 21
-240.0
 31
0.0
  0
LINE
  5
2F
  8
HIBINO-BASE
 62
     7
 10
-80.0
 20
-240.0
 30
0.0
 11
-80.0
 21
1060.0
 31
0.0
  0
TEXT
  5
30
  8
HIBINO-BASE
 62
     7
 10
-44.079999999999977
 20
-270.6399199999999
 30
0.0
 40
18.71292
  1
Hibino Corporation
 41
0.8
 11
-44.079999999999977
 21
-251.92699999999991
 31
0.0
 73
     3
  0
LINE
  5
31
  8
HIBINO-BASE
 62
     7
 10
820.0
 20
1060.0
 30
0.0
 11
820.0
 21
-240.0
 31
0.0
  0
LINE
  5
32
  8
HIBINO-BASE
 62
     7
 10
370.0
 20
-127.4999999999999
 30
0.0
 11
820.0
 21
-127.4999999999999
 31
0.0
  0
LINE
  5
33
  8
HIBINO-BASE
 62
     7
 10
370.0
 20
-240.0
 30
0.0
 11
370.0
 21
-127.4999999999999
 31
0.0
  0
TEXT
  5
34
  8
HIBINO-BASE
 62
     7
 10
374.5
 20
-139.40846666666661
 30
0.0
 40
8.466666666666665
  1
NOTE
 41
0.8
 11
374.5
 21
-130.94179999999989
 31
0.0
 73
     3
  0
LINE
  5
35
  8
HIBINO-BASE
 62
     7
 10
545.0
 20
-240.0
 30
0.0
 11
545.0
 21
-127.4999999999999
 31
0.0
  0
TEXT
  5
36
  8
HIBINO-BASE
 62
     7
 10
549.5
 20
-139.40846666666661
 30
0.0
 40
8.466666666666665
  1
TITLE
 41
0.8
 11
549.5
 21
-130.94179999999989
 31
0.0
 73
     3
  0
TEXT
  5
37
  8
HIBINO-BASE
 62
     7
 10
620.34194999999977
 20
-270.6399199999999
 30
0.0
 40
18.71292
  1
ヒビノ株式会社
 41
0.8
 11
620.34194999999977
 21
-251.92699999999991
 31
0.0
 73
     3
  0
LINE
  5
38
  8
HIBINO-BASE
 62
     7
 10
370.0
 20
-189.9999999999998
 30
0.0
 11
820.0
 21
-189.9999999999998
 31
0.0
  0
TEXT
  5
39
  8
HIBINO-BASE
 62
     7
 10
612.0
 20
-201.62686666666659
 30
0.0
 40
8.466666666666665
  1
DRAWN
 41
0.8
 11
612.0
 21
-193.16019999999989
 31
0.0
 73
     3
  0
TEXT
  5
3A
  8
HIBINO-BASE
 62
     7
 10
487.0
 20
-201.62686666666659
 30
0.0
 40
8.466666666666665
  1
DATE
 41
0.8
 11
487.0
 21
-193.16019999999989
 31
0.0
 73
     3
  0
TEXT
  5
3B
  8
HIBINO-BASE
 62
     7
 10
375.5
 20
-202.46227999999999
 30
0.0
 40
8.4666799999999984
  1
図面サイズ
 41
0.8
 11
375.5
 21
-193.9956
 31
0.0
 73
     3
  0
TEXT
  5
3C
  8
HIBINO-BASE
 62
     7
 10
437.0
 20
-201.62686666666659
 30
0.0
 40
8.466666666666665
  1
SCALE
 41
0.8
 11
437.0
 21
-193.16019999999989
 31
0.0
 73
     3
  0
TEXT
  5
3D
  8
HIBINO-BASE
 62
     7
 10
549.5
 20
-201.62686666666659
 30
0.0
 40
8.466666666666665
  1
DESIGN
 41
0.8
 11
549.5
 21
-193.16019999999989
 31
0.0
 73
     3
  0
TEXT
  5
3E
  8
HIBINO-BASE
 62
     7
 10
737.0
 20
-201.62686666666659
 30
0.0
 40
8.466666666666665
  1
DRAWING NO.
 41
0.8
 11
737.0
 21
-193.16019999999989
 31
0.0
 73
     3
  0
TEXT
  5
3F
  8
HIBINO-BASE
 62
     7
 10
674.49999999999989
 20
-201.62686666666659
 30
0.0
 40
8.466666666666665
  1
CHECK
 41
0.8
 11
674.49999999999989
 21
-193.16019999999989
 31
0.0
 73
     3
  0
LINE
  5
40
  8
HIBINO-BASE
 62
     7
 10
441.875
 20
-233.75
 30
0.0
 11
460.625
 21
-214.99999999999989
 31
0.0
  0
TEXT
  5
41
  8
HIBINO-BASE
 62
     7
 10
438.75
 20
-219.9097166666667
 30
0.0
 40
8.466666666666665
  1
1
 41
0.8
 11
438.75
 21
-211.44305
 31
0.0
 73
     3
  0
LINE
  5
42
  8
HIBINO-BASE
 62
     7
 10
432.5
 20
-240.0
 30
0.0
 11
432.5
 21
-189.9999999999998
 31
0.0
  0
LINE
  5
43
  8
HIBINO-BASE
 62
     7
 10
482.5
 20
-240.0
 30
0.0
 11
482.5
 21
-189.9999999999998
 31
0.0
  0
LINE
  5
44
  8
HIBINO-BASE
 62
     7
 10
607.49999999999989
 20
-189.9999999999998
 30
0.0
 11
607.49999999999989
 21
-240.0
 31
0.0
  0
LINE
  5
45
  8
HIBINO-BASE
 62
     7
 10
732.5
 20
-189.9999999999998
 30
0.0
 11
732.5
 21
-240.0
 31
0.0
  0
LINE
  5
46
  8
HIBINO-BASE
 62
     7
 10
669.99999999999989
 20
-240.0
 30
0.0
 11
669.99999999999989
 21
-189.9999999999998
 31
0.0
  0
TEXT
  5
47
  8
HIBINO-BASE
 62
     7
 10
486.78269999999992
 20
-225.04676666666671
 30
0.0
 40
8.466666666666665
  1
'03.12.
 41
0.8
 11
486.78269999999992
 21
-216.58009999999999
 31
0.0
 73
     3
  0
TEXT
  5
48
  8
HIBINO-BASE
 62
     7
 10
457.5
 20
-229.2847166666667
 30
0.0
 40
8.466666666666665
  1
5
 41
0.8
 11
457.5
 21
-220.81805
 31
0.0
 73
     3
  0
TEXT
  5
49
  8
HIBINO-BASE
 62
     7
 10
389.41666666666657
 20
-228.84999999999991
 30
0.0
 40
16.93333333333333
  1
A4
 41
0.8
 11
389.41666666666657
 21
-211.9166666666666
 31
0.0
 73
     3
  0
TEXT
  5
4A
  8
HIBINO-BASE
 62
     7
 10
615.02905005517289
 20
-225.0467666666664
 30
0.0
 40
8.466666666666665
  1
N.Sasaki
 41
0.8
 11
615.02905005517289
 21
-216.5800999999997
 31
0.0
 73
     3
  0
TEXT
  5
4B
  8
SPEC
 62
     7
 10
-36.25
 20
1017.918849999999
 30
0.0
 40
12.699999999999999
  1
仕様
 41
0.8
 11
-36.25
 21
1030.6188499999989
 31
0.0
 73
     3
  0
LINE
  5
4C
  8
SPEC
 62
     7
 10
-42.5
 20
1010.0
 30
0.0
 11
520.0
 21
1010.0
 31
0.0
  0
LINE
  5
4D
  8
SPEC
 62
     7
 10
13.75
 20
991.24999999999989
 30
0.0
 11
520.0
 21
991.24999999999989
 31
0.0
  0
LINE
  5
4E
  8
SPEC
 62
     7
 10
-42.5
 20
916.24999999999989
 30
0.0
 11
520.0
 21
916.24999999999989
 31
0.0
  0
LINE
  5
4F
  8
SPEC
 62
     7
 10
13.75
 20
935.0
 30
0.0
 11
520.0
 21
935.0
 31
0.0
  0
LINE
  5
50
  8
SPEC
 62
     7
 10
13.75
 20
953.74999999999989
 30
0.0
 11
520.0
 21
953.74999999999989
 31
0.0
  0
LINE
  5
51
  8
SPEC
 62
     7
 10
13.75
 20
897.49999999999989
 30
0.0
 11
520.0
 21
897.49999999999989
 31
0.0
  0
LINE
  5
52
  8
SPEC
 62
     7
 10
13.75
 20
860.0
 30
0.0
 11
520.0
 21
860.0
 31
0.0
  0
LINE
  5
53
  8
SPEC
 62
     7
 10
13.75
 20
841.24999999999989
 30
0.0
 11
520.0
 21
841.24999999999989
 31
0.0
  0
LINE
  5
54
  8
SPEC
 62
     7
 10
13.75
 20
972.49999999999989
 30
0.0
 11
520.0
 21
972.49999999999989
 31
0.0
  0
TEXT
  5
55
  8
SPEC
 62
     7
 10
134.49999999999989
 20
996.92082222222223
 30
0.0
 40
9.8777777777777782
  1
4
 41
0.8
 11
134.49999999999989
 21
1006.7986
 31
0.0
 73
     3
  0
LINE
  5
56
  8
SPEC
 62
     7
 10
-42.5
 20
785.0
 30
0.0
 11
520.0
 21
785.0
 31
0.0
  0
LINE
  5
57
  8
SPEC
 62
     7
 10
-42.5
 20
1010.0
 30
0.0
 11
-42.5
 21
728.75
 31
0.0
  0
LINE
  5
58
  8
SPEC
 62
     7
 10
126.25
 20
1010.0
 30
0.0
 11
126.25
 21
728.75
 31
0.0
  0
LINE
  5
59
  8
SPEC
 62
     7
 10
520.0
 20
1010.0
 30
0.0
 11
520.0
 21
728.75
 31
0.0
  0
TEXT
  5
5A
  8
SPEC
 62
     7
 10
134.49999999999989
 20
828.17082222222211
 30
0.0
 40
9.8777777777777782
  1
+10dBv(600Ω)
 41
0.8
 11
134.49999999999989
 21
838.04859999999985
 31
0.0
 73
     3
  0
TEXT
  5
5B
  8
SPEC
 62
     7
 10
23.49999999999995
 20
921.92082222222211
 30
0.0
 40
9.8777777777777782
  1
最大レベル
 41
0.8
 11
23.49999999999995
 21
931.79859999999985
 31
0.0
 73
     3
  0
TEXT
  5
5C
  8
SPEC
 62
     7
 10
-38.00000000000005
 20
996.92082222222223
 30
0.0
 40
9.8777777777777782
  1
入力
 41
0.8
 11
-38.00000000000005
 21
1006.7986
 31
0.0
 73
     3
  0
TEXT
  5
5D
  8
SPEC
 62
     7
 10
23.49999999999995
 20
884.42082222222211
 30
0.0
 40
9.8777777777777782
  1
形式
 41
0.8
 11
23.49999999999995
 21
894.29859999999985
 31
0.0
 73
     3
  0
TEXT
  5
5E
  8
SPEC
 62
     7
 10
23.49999999999995
 20
865.67082222222211
 30
0.0
 40
9.8777777777777782
  1
端子
 41
0.8
 11
23.49999999999995
 21
875.54859999999985
 31
0.0
 73
     3
  0
TEXT
  5
5F
  8
SPEC
 62
     7
 10
23.49999999999995
 20
940.67082222222223
 30
0.0
 40
9.8777777777777782
  1
インピーダンス
 41
0.8
 11
23.49999999999995
 21
950.54859999999985
 31
0.0
 73
     3
  0
TEXT
  5
60
  8
SPEC
 62
     7
 10
-38.00000000000005
 20
903.17082222222211
 30
0.0
 40
9.8777777777777782
  1
出力
 41
0.8
 11
-38.00000000000005
 21
913.04859999999985
 31
0.0
 73
     3
  0
TEXT
  5
61
  8
SPEC
 62
     7
 10
23.49999999999995
 20
978.17082222222223
 30
0.0
 40
9.8777777777777782
  1
形式
 41
0.8
 11
23.49999999999995
 21
988.04859999999985
 31
0.0
 73
     3
  0
TEXT
  5
62
  8
SPEC
 62
     7
 10
23.49999999999995
 20
959.42082222222223
 30
0.0
 40
9.8777777777777782
  1
端子
 41
0.8
 11
23.49999999999995
 21
969.29859999999985
 31
0.0
 73
     3
  0
TEXT
  5
63
  8
SPEC
 62
     7
 10
23.49999999999995
 20
846.92082222222211
 30
0.0
 40
9.8777777777777782
  1
インピーダンス
 41
0.8
 11
23.49999999999995
 21
856.79859999999985
 31
0.0
 73
     3
  0
TEXT
  5
64
  8
SPEC
 62
     7
 10
23.49999999999995
 20
828.17082222222211
 30
0.0
 40
9.8777777777777782
  1
最大レベル
 41
0.8
 11
23.49999999999995
 21
838.04859999999985
 31
0.0
 73
     3
  0
TEXT
  5
65
  8
SPEC
 62
     7
 10
134.49999999999989
 20
921.92082222222211
 30
0.0
 40
9.8777777777777782
  1
+10dBv(pad@0dB),+30dBv(pad@-20dB),+50dBv(pad@-40dB)
 41
0.8
 11
134.49999999999989
 21
931.79859999999985
 31
0.0
 73
     3
  0
TEXT
  5
66
  8
SPEC
 62
     7
 10
134.49999999999989
 20
846.92082222222211
 30
0.0
 40
9.8777777777777782
  1
600Ω
 41
0.8
 11
134.49999999999989
 21
856.79859999999985
 31
0.0
 73
     3
  0
TEXT
  5
67
  8
SPEC
 62
     7
 10
134.49999999999989
 20
865.67082222222211
 30
0.0
 40
9.8777777777777782
  1
XLR3ピンオス(3-HOT)
 41
0.8
 11
134.49999999999989
 21
875.54859999999985
 31
0.0
 73
     3
  0
TEXT
  5
68
  8
SPEC
 62
     7
 10
134.49999999999989
 20
940.67082222222223
 30
0.0
 40
9.8777777777777782
  1
1MΩ(pad@0dB),10kΩ(pad@-20dB),10kΩ(pad@-40dB)
 41
0.8
 11
134.49999999999989
 21
950.54859999999985
 31
0.0
 73
     3
  0
TEXT
  5
69
  8
SPEC
 62
     7
 10
134.49999999999989
 20
903.17082222222211
 30
0.0
 40
9.8777777777777782
  1
4
 41
0.8
 11
134.49999999999989
 21
913.04859999999985
 31
0.0
 73
     3
  0
TEXT
  5
6A
  8
SPEC
 62
     7
 10
134.49999999999989
 20
959.42082222222223
 30
0.0
 40
9.8777777777777782
  1
フォーンジャック
 41
0.8
 11
134.49999999999989
 21
969.29859999999985
 31
0.0
 73
     3
  0
TEXT
  5
6B
  8
SPEC
 62
     7
 10
134.49999999999989
 20
978.17082222222223
 30
0.0
 40
9.8777777777777782
  1
アンバランス
 41
0.8
 11
134.49999999999989
 21
988.04859999999985
 31
0.0
 73
     3
  0
TEXT
  5
6C
  8
SPEC
 62
     7
 10
23.49999999999995
 20
996.92082222222223
 30
0.0
 40
9.8777777777777782
  1
チャンネル数
 41
0.8
 11
23.49999999999995
 21
1006.7986
 31
0.0
 73
     3
  0
TEXT
  5
6D
  8
SPEC
 62
     7
 10
23.49999999999995
 20
903.17082222222211
 30
0.0
 40
9.8777777777777782
  1
チャンネル数
 41
0.8
 11
23.49999999999995
 21
913.04859999999985
 31
0.0
 73
     3
  0
LINE
  5
6E
  8
SPEC
 62
     7
 10
13.75
 20
1010.0
 30
0.0
 11
13.75
 21
822.49999999999989
 31
0.0
  0
TEXT
  5
6F
  8
SPEC
 62
     7
 10
-38.00000000000005
 20
790.67082222222211
 30
0.0
 40
9.8777777777777782
  1
THD
 41
0.8
 11
-38.00000000000005
 21
800.54859999999985
 31
0.0
 73
     3
  0
TEXT
  5
70
  8
SPEC
 62
     7
 10
134.49999999999989
 20
790.67082222222211
 30
0.0
 40
9.8777777777777782
  1
0.01%%%以下(150Hz～20kHz,+10dBv)
 41
0.8
 11
134.49999999999989
 21
800.54859999999985
 31
0.0
 73
     3
  0
LINE
  5
71
  8
SPEC
 62
     7
 10
-42.5
 20
803.74999999999989
 30
0.0
 11
520.0
 21
803.74999999999989
 31
0.0
  0
TEXT
  5
72
  8
SPEC
 62
     7
 10
-38.00000000000005
 20
771.92082222222211
 30
0.0
 40
9.8777777777777782
  1
電源
 41
0.8
 11
-38.00000000000005
 21
781.79859999999985
 31
0.0
 73
     3
  0
TEXT
  5
73
  8
SPEC
 62
     7
 10
-38.00000000000005
 20
753.17082222222211
 30
0.0
 40
9.8777777777777782
  1
消費電力
 41
0.8
 11
-38.00000000000005
 21
763.04859999999985
 31
0.0
 73
     3
  0
TEXT
  5
74
  8
SPEC
 62
     7
 10
134.49999999999989
 20
753.17082222222211
 30
0.0
 40
9.8777777777777782
  1
10W
 41
0.8
 11
134.49999999999989
 21
763.04859999999985
 31
0.0
 73
     3
  0
TEXT
  5
75
  8
SPEC
 62
     7
 10
134.49999999999989
 20
884.42082222222211
 30
0.0
 40
9.8777777777777782
  1
トランスバランス
 41
0.8
 11
134.49999999999989
 21
894.29859999999985
 31
0.0
 73
     3
  0
LINE
  5
76
  8
SPEC
 62
     7
 10
13.75
 20
878.74999999999989
 30
0.0
 11
520.0
 21
878.74999999999989
 31
0.0
  0
TEXT
  5
77
  8
SPEC
 62
     7
 10
-38.00000000000005
 20
809.42082222222211
 30
0.0
 40
9.8777777777777782
  1
周波数特性
 41
0.8
 11
-38.00000000000005
 21
819.29859999999985
 31
0.0
 73
     3
  0
TEXT
  5
78
  8
SPEC
 62
     7
 10
134.49999999999989
 20
809.42082222222211
 30
0.0
 40
9.8777777777777782
  1
30Hz～30kHz(±3dB)
 41
0.8
 11
134.49999999999989
 21
819.29859999999985
 31
0.0
 73
     3
  0
LINE
  5
79
  8
SPEC
 62
     7
 10
-42.5
 20
822.49999999999989
 30
0.0
 11
520.0
 21
822.49999999999989
 31
0.0
  0
LINE
  5
7A
  8
SPEC
 62
     7
 10
-42.5
 20
766.25
 30
0.0
 11
520.0
 21
766.25
 31
0.0
  0
LINE
  5
7B
  8
SPEC
 62
     7
 10
-42.5
 20
747.5
 30
0.0
 11
520.0
 21
747.5
 31
0.0
  0
TEXT
  5
7C
  8
SPEC
 62
     7
 10
134.49999999999989
 20
771.92082222222211
 30
0.0
 40
9.8777777777777782
  1
AC90～120V,50/60Hz
 41
0.8
 11
134.49999999999989
 21
781.79859999999985
 31
0.0
 73
     3
  0
TEXT
  5
7D
  8
SPEC
 62
     7
 10
-38.00000000000005
 20
734.42082222222211
 30
0.0
 40
9.8777777777777782
  1
寸法(W×H×D)/重量
 41
0.8
 11
-38.00000000000005
 21
744.29859999999985
 31
0.0
 73
     3
  0
TEXT
  5
7E
  8
SPEC
 62
     7
 10
134.49999999999989
 20
734.42082222222211
 30
0.0
 40
9.8777777777777782
  1
483×44×204mm(突起部含まず)/3.0kg
 41
0.8
 11
134.49999999999989
 21
744.29859999999985
 31
0.0
 73
     3
  0
LINE
  5
7F
  8
SPEC
 62
     7
 10
-42.5
 20
728.75
 30
0.0
 11
520.0
 21
728.75
 31
0.0
  0
TEXT
  5
80
  8
DIMNSIONS
 62
     7
 10
269.99999999999989
 20
-179.1111611111111
 30
0.0
 40
14.111111111111111
  1
(単位：mm)
 41
0.8
 11
269.99999999999989
 21
-165.00004999999999
 31
0.0
 73
     3
  0
LINE
  5
81
  8
DIMNSIONS
 62
     7
 10
0.0
 20
-8.0
 30
0.0
 11
0.0
 21
-60.0
 31
0.0
  0
LINE
  5
82
  8
DIMNSIONS
 62
     7
 10
482.60000000000002
 20
-8.0
 30
0.0
 11
482.60000000000002
 21
-60.0
 31
0.0
  0
LINE
  5
83
  8
DIMNSIONS
 62
     7
 10
0.0
 20
-50.0
 30
0.0
 11
482.60000000000002
 21
-50.0
 31
0.0
  0
LINE
  5
84
  8
DIMNSIONS
 62
     7
 10
0.0
 20
-50.0
 30
0.0
 11
12.50311279296875
 21
-46.649801024248802
 31
0.0
  0
LINE
  5
85
  8
DIMNSIONS
 62
     7
 10
0.0
 20
-50.0
 30
0.0
 11
12.50311279296875
 21
-53.350198975751191
 31
0.0
  0
LINE
  5
86
  8
DIMNSIONS
 62
     7
 10
482.60000000000002
 20
-50.0
 30
0.0
 11
470.09688720703122
 21
-53.350198975751191
 31
0.0
  0
LINE
  5
87
  8
DIMNSIONS
 62
     7
 10
482.60000000000002
 20
-50.0
 30
0.0
 11
470.09688720703122
 21
-46.649801024248802
 31
0.0
  0
TEXT
  5
88
  8
DIMNSIONS
 62
     7
 10
228.0708333333333
 20
-43.9722222222222
 30
0.0
 40
14.111111111111111
  1
483
 41
0.8
 11
228.0708333333333
 21
-29.861111111111089
 31
0.0
 73
     3
  0
LINE
  5
89
  8
DIMNSIONS
 62
     7
 10
-8.0
 20
0.0
 30
0.0
 11
-40.0
 21
0.0
 31
0.0
  0
LINE
  5
8A
  8
DIMNSIONS
 62
     7
 10
-8.0
 20
44.0
 30
0.0
 11
-40.0
 21
44.0
 31
0.0
  0
LINE
  5
8B
  8
DIMNSIONS
 62
     7
 10
-30.0
 20
0.0
 30
0.0
 11
-30.0
 21
44.0
 31
0.0
  0
LINE
  5
8C
  8
DIMNSIONS
 62
     7
 10
-30.0
 20
0.0
 30
0.0
 11
-33.350198975751198
 21
12.50311279296875
 31
0.0
  0
LINE
  5
8D
  8
DIMNSIONS
 62
     7
 10
-30.0
 20
0.0
 30
0.0
 11
-26.649801024248799
 21
12.50311279296875
 31
0.0
  0
LINE
  5
8E
  8
DIMNSIONS
 62
     7
 10
-30.0
 20
44.0
 30
0.0
 11
-26.649801024248799
 21
31.49688720703125
 31
0.0
  0
LINE
  5
8F
  8
DIMNSIONS
 62
     7
 10
-30.0
 20
44.0
 30
0.0
 11
-33.350198975751198
 21
31.49688720703125
 31
0.0
  0
TEXT
  5
90
  8
DIMNSIONS
 62
     7
 10
-36.027777777777793
 20
13.180555555555539
 30
0.0
 40
14.111111111111111
  1
44
 50
90.0
 41
0.8
 11
-50.1388888888889
 21
13.180555555555539
 31
0.0
 73
     3
  0
LINE
  5
91
  8
DIMNSIONS
 62
     7
 10
-10.0
 20
152.0
 30
0.0
 11
-25.0
 21
152.0
 31
0.0
  0
LINE
  5
92
  8
DIMNSIONS
 62
     7
 10
-10.0
 20
150.0
 30
0.0
 11
-25.0
 21
150.0
 31
0.0
  0
LINE
  5
93
  8
DIMNSIONS
 62
     7
 10
-15.0
 20
150.0
 30
0.0
 11
-15.0
 21
152.0
 31
0.0
  0
LINE
  5
94
  8
DIMNSIONS
 62
     7
 10
-15.0
 20
152.0
 30
0.0
 11
-15.0
 21
175.8194444444444
 31
0.0
  0
LINE
  5
95
  8
DIMNSIONS
 62
     7
 10
-15.0
 20
152.0
 30
0.0
 11
-18.350198975751201
 21
164.50311279296869
 31
0.0
  0
LINE
  5
96
  8
DIMNSIONS
 62
     7
 10
-15.0
 20
152.0
 30
0.0
 11
-11.6498010242488
 21
164.50311279296869
 31
0.0
  0
LINE
  5
97
  8
DIMNSIONS
 62
     7
 10
-15.0
 20
150.0
 30
0.0
 11
-15.0
 21
125.0
 31
0.0
  0
LINE
  5
98
  8
DIMNSIONS
 62
     7
 10
-15.0
 20
150.0
 30
0.0
 11
-11.6498010242488
 21
137.49688720703119
 31
0.0
  0
LINE
  5
99
  8
DIMNSIONS
 62
     7
 10
-15.0
 20
150.0
 30
0.0
 11
-18.350198975751201
 21
137.49688720703119
 31
0.0
  0
TEXT
  5
9A
  8
DIMNSIONS
 62
     7
 10
-21.0277777777778
 20
166.99999999999989
 30
0.0
 40
14.111111111111111
  1
2
 50
90.0
 41
0.8
 11
-35.138888888888907
 21
166.99999999999989
 31
0.0
 73
     3
  0
LINE
  5
9B
  8
DIMNSIONS
 62
     7
 10
-10.0
 20
150.0
 30
0.0
 11
-50.0
 21
150.0
 31
0.0
  0
LINE
  5
9C
  8
DIMNSIONS
 62
     7
 10
18.0
 20
354.0
 30
0.0
 11
-50.0
 21
354.0
 31
0.0
  0
LINE
  5
9D
  8
DIMNSIONS
 62
     7
 10
-40.0
 20
150.0
 30
0.0
 11
-40.0
 21
354.0
 31
0.0
  0
LINE
  5
9E
  8
DIMNSIONS
 62
     7
 10
-40.0
 20
150.0
 30
0.0
 11
-43.350198975751191
 21
162.50311279296869
 31
0.0
  0
LINE
  5
9F
  8
DIMNSIONS
 62
     7
 10
-40.0
 20
150.0
 30
0.0
 11
-36.649801024248802
 21
162.50311279296869
 31
0.0
  0
LINE
  5
A0
  8
DIMNSIONS
 62
     7
 10
-40.0
 20
354.0
 30
0.0
 11
-36.649801024248802
 21
341.49688720703119
 31
0.0
  0
LINE
  5
A1
  8
DIMNSIONS
 62
     7
 10
-40.0
 20
354.0
 30
0.0
 11
-43.350198975751191
 21
341.49688720703119
 31
0.0
  0
TEXT
  5
A2
  8
DIMNSIONS
 62
     7
 10
-46.027777777777779
 20
238.77083333333329
 30
0.0
 40
14.111111111111111
  1
204
 50
90.0
 41
0.8
 11
-60.1388888888889
 21
238.77083333333329
 31
0.0
 73
     3
  0
LINE
  5
A3
  8
DIMNSIONS
 62
     7
 10
-10.0
 20
150.0
 30
0.0
 11
-50.0
 21
150.0
 31
0.0
  0
LINE
  5
A4
  8
DIMNSIONS
 62
     7
 10
62.5
 20
145.0
 30
0.0
 11
-50.0
 21
145.0
 31
0.0
  0
LINE
  5
A5
  8
DIMNSIONS
 62
     7
 10
-40.0
 20
145.0
 30
0.0
 11
-40.0
 21
150.0
 31
0.0
  0
LINE
  5
A6
  8
DIMNSIONS
 62
     7
 10
-40.0
 20
150.0
 30
0.0
 11
-40.0
 21
175.0
 31
0.0
  0
LINE
  5
A7
  8
DIMNSIONS
 62
     7
 10
-40.0
 20
150.0
 30
0.0
 11
-43.350198975751191
 21
162.50311279296869
 31
0.0
  0
LINE
  5
A8
  8
DIMNSIONS
 62
     7
 10
-40.0
 20
150.0
 30
0.0
 11
-36.649801024248802
 21
162.50311279296869
 31
0.0
  0
LINE
  5
A9
  8
DIMNSIONS
 62
     7
 10
-40.0
 20
145.0
 30
0.0
 11
-40.0
 21
123.6805555555555
 31
0.0
  0
LINE
  5
AA
  8
DIMNSIONS
 62
     7
 10
-40.0
 20
145.0
 30
0.0
 11
-36.649801024248802
 21
132.49688720703119
 31
0.0
  0
LINE
  5
AB
  8
DIMNSIONS
 62
     7
 10
-40.0
 20
145.0
 30
0.0
 11
-43.350198975751191
 21
132.49688720703119
 31
0.0
  0
TEXT
  5
AC
  8
DIMNSIONS
 62
     7
 10
-46.027777777777779
 20
123.6805555555555
 30
0.0
 40
14.111111111111111
  1
5
 50
90.0
 41
0.8
 11
-60.1388888888889
 21
123.6805555555555
 31
0.0
 73
     3
  0
LINE
  5
AD
  8
DIMNSIONS
 62
     7
 10
18.0
 20
354.0
 30
0.0
 11
-50.0
 21
354.0
 31
0.0
  0
LINE
  5
AE
  8
DIMNSIONS
 62
     7
 10
30.5
 20
359.0
 30
0.0
 11
-50.0
 21
359.0
 31
0.0
  0
LINE
  5
AF
  8
DIMNSIONS
 62
     7
 10
-40.0
 20
359.0
 30
0.0
 11
-40.0
 21
354.0
 31
0.0
  0
LINE
  5
B0
  8
DIMNSIONS
 62
     7
 10
-40.0
 20
354.0
 30
0.0
 11
-40.0
 21
329.0
 31
0.0
  0
LINE
  5
B1
  8
DIMNSIONS
 62
     7
 10
-40.0
 20
354.0
 30
0.0
 11
-36.649801024248802
 21
341.49688720703119
 31
0.0
  0
LINE
  5
B2
  8
DIMNSIONS
 62
     7
 10
-40.0
 20
354.0
 30
0.0
 11
-43.350198975751191
 21
341.49688720703119
 31
0.0
  0
LINE
  5
B3
  8
DIMNSIONS
 62
     7
 10
-40.0
 20
359.0
 30
0.0
 11
-40.0
 21
380.31944444444451
 31
0.0
  0
LINE
  5
B4
  8
DIMNSIONS
 62
     7
 10
-40.0
 20
359.0
 30
0.0
 11
-43.350198975751191
 21
371.50311279296881
 31
0.0
  0
LINE
  5
B5
  8
DIMNSIONS
 62
     7
 10
-40.0
 20
359.0
 30
0.0
 11
-36.649801024248802
 21
371.50311279296881
 31
0.0
  0
TEXT
  5
B6
  8
DIMNSIONS
 62
     7
 10
-46.027777777777779
 20
371.5
 30
0.0
 40
14.111111111111111
  1
5
 50
90.0
 41
0.8
 11
-60.1388888888889
 21
371.5
 31
0.0
 73
     3
  0
LINE
  5
B7
  8
DIMNSIONS
 62
     7
 10
28.0
 20
364.0
 30
0.0
 11
28.0
 21
390.0
 31
0.0
  0
LINE
  5
B8
  8
DIMNSIONS
 62
     7
 10
454.60000000000002
 20
364.0
 30
0.0
 11
454.60000000000002
 21
390.0
 31
0.0
  0
LINE
  5
B9
  8
DIMNSIONS
 62
     7
 10
28.0
 20
380.0
 30
0.0
 11
454.60000000000002
 21
380.0
 31
0.0
  0
LINE
  5
BA
  8
DIMNSIONS
 62
     7
 10
28.0
 20
380.0
 30
0.0
 11
40.50311279296875
 21
383.3501989757512
 31
0.0
  0
LINE
  5
BB
  8
DIMNSIONS
 62
     7
 10
28.0
 20
380.0
 30
0.0
 11
40.50311279296875
 21
376.6498010242488
 31
0.0
  0
LINE
  5
BC
  8
DIMNSIONS
 62
     7
 10
454.60000000000002
 20
380.0
 30
0.0
 11
442.09688720703127
 21
376.6498010242488
 31
0.0
  0
LINE
  5
BD
  8
DIMNSIONS
 62
     7
 10
454.60000000000002
 20
380.0
 30
0.0
 11
442.09688720703127
 21
383.3501989757512
 31
0.0
  0
TEXT
  5
BE
  8
DIMNSIONS
 62
     7
 10
228.0708333333333
 20
386.02777777777771
 30
0.0
 40
14.111111111111111
  1
427
 41
0.8
 11
228.0708333333333
 21
400.1388888888888
 31
0.0
 73
     3
  0
LINE
  5
BF
  8
DIMNSIONS
 62
     7
 10
25.5
 20
360.0
 30
0.0
 11
25.5
 21
415.0
 31
0.0
  0
LINE
  5
C0
  8
DIMNSIONS
 62
     7
 10
460.60000000000002
 20
286.25
 30
0.0
 11
460.60000000000002
 21
415.0
 31
0.0
  0
LINE
  5
C1
  8
DIMNSIONS
 62
     7
 10
25.5
 20
405.0
 30
0.0
 11
460.60000000000002
 21
405.0
 31
0.0
  0
LINE
  5
C2
  8
DIMNSIONS
 62
     7
 10
25.5
 20
405.0
 30
0.0
 11
38.00311279296875
 21
408.3501989757512
 31
0.0
  0
LINE
  5
C3
  8
DIMNSIONS
 62
     7
 10
25.5
 20
405.0
 30
0.0
 11
38.00311279296875
 21
401.6498010242488
 31
0.0
  0
LINE
  5
C4
  8
DIMNSIONS
 62
     7
 10
460.60000000000002
 20
405.0
 30
0.0
 11
448.09688720703122
 21
401.6498010242488
 31
0.0
  0
LINE
  5
C5
  8
DIMNSIONS
 62
     7
 10
460.60000000000002
 20
405.0
 30
0.0
 11
448.09688720703122
 21
408.3501989757512
 31
0.0
  0
TEXT
  5
C6
  8
DIMNSIONS
 62
     7
 10
229.8208333333333
 20
411.02777777777771
 30
0.0
 40
14.111111111111111
  1
435
 41
0.8
 11
229.8208333333333
 21
425.1388888888888
 31
0.0
 73
     3
  0
TEXT
  5
C7
  8
DATA
 62
     7
 10
619.99999999999989
 20
-179.3930499999999
 30
0.0
 40
12.699999999999999
  1
AR-416
 41
0.8
 11
619.99999999999989
 21
-166.69304999999989
 31
0.0
 73
     3
  0
TEXT
  5
C8
  8
DATA
 62
     7
 10
619.99999999999989
 20
-153.1430499999999
 30
0.0
 40
12.699999999999999
  1
BSS
 41
0.8
 11
619.99999999999989
 21
-140.44304999999989
 31
0.0
 73
     3
  0
TEXT
  5
C9
  8
DATA
 62
     7
 10
-30.0
 20
-218.17500000000001
 30
0.0
 40
8.466666666666665
  1
仕様および外観は予告なく変更されることがありますので、ご了承ください。
 41
0.8
 11
-30.0
 21
-209.70833333333329
 31
0.0
 73
     3
  0
LINE
  5
CA
  8
DATA
 62
     7
 10
6.849999999999965
 20
10.05000000000001
 30
0.0
 11
10.14999999999997
 21
10.05000000000001
 31
0.0
  0
LINE
  5
CB
  8
DATA
 62
     7
 10
6.849999999999965
 20
2.9499999999999882
 30
0.0
 11
10.14999999999997
 21
2.9499999999999882
 31
0.0
  0
ARC
  5
CC
  8
DATA
 62
     7
 10
6.8499999999999091
 20
6.5
 30
0.0
 40
3.5500000000000109
 50
90.0
 51
270.0
  0
ARC
  5
CD
  8
DATA
 62
     7
 10
10.14999999999997
 20
6.5
 30
0.0
 40
3.5500000000000109
 50
270.0
 51
90.0
  0
LINE
  5
CE
  8
DATA
 62
     7
 10
6.849999999999965
 20
41.050000000000011
 30
0.0
 11
10.14999999999997
 21
41.050000000000011
 31
0.0
  0
LINE
  5
CF
  8
DATA
 62
     7
 10
6.849999999999965
 20
33.949999999999989
 30
0.0
 11
10.14999999999997
 21
33.949999999999989
 31
0.0
  0
ARC
  5
D0
  8
DATA
 62
     7
 10
6.8499999999999091
 20
37.5
 30
0.0
 40
3.5500000000000109
 50
90.0
 51
270.0
  0
ARC
  5
D1
  8
DATA
 62
     7
 10
10.14999999999997
 20
37.5
 30
0.0
 40
3.5500000000000109
 50
270.0
 51
90.0
  0
LINE
  5
D2
  8
DATA
 62
     7
 10
475.75
 20
10.05000000000001
 30
0.0
 11
472.44999999999999
 21
10.05000000000001
 31
0.0
  0
LINE
  5
D3
  8
DATA
 62
     7
 10
475.75
 20
2.9499999999999882
 30
0.0
 11
472.44999999999999
 21
2.9499999999999882
 31
0.0
  0
ARC
  5
D4
  8
DATA
 62
     7
 10
475.75
 20
6.5
 30
0.0
 40
3.5500000000000109
 50
270.0
 51
90.0
  0
ARC
  5
D5
  8
DATA
 62
     7
 10
472.44999999999999
 20
6.5
 30
0.0
 40
3.5500000000000109
 50
90.0
 51
270.0
  0
LINE
  5
D6
  8
DATA
 62
     7
 10
475.75
 20
41.050000000000011
 30
0.0
 11
472.44999999999999
 21
41.050000000000011
 31
0.0
  0
LINE
  5
D7
  8
DATA
 62
     7
 10
475.75
 20
33.949999999999989
 30
0.0
 11
472.44999999999999
 21
33.949999999999989
 31
0.0
  0
ARC
  5
D8
  8
DATA
 62
     7
 10
475.75
 20
37.5
 30
0.0
 40
3.5500000000000109
 50
270.0
 51
90.0
  0
ARC
  5
D9
  8
DATA
 62
     7
 10
472.44999999999999
 20
37.5
 30
0.0
 40
3.5500000000000109
 50
90.0
 51
270.0
  0
CIRCLE
  5
DA
  8
DATA
 62
     7
 10
51.0
 20
20.0
 30
0.0
 40
11.75
  0
CIRCLE
  5
DB
  8
DATA
 62
     7
 10
51.0
 20
20.0
 30
0.0
 40
9.75
  0
ARC
  5
DC
  8
DATA
 62
     7
 10
51.0
 20
20.0
 30
0.0
 40
7.9999999999999796
 50
48.581569318657898
 51
41.418430681342677
  0
CIRCLE
  5
DD
  8
DATA
 62
     7
 10
47.0
 20
20.0
 30
0.0
 40
1.249999999999976
  0
CIRCLE
  5
DE
  8
DATA
 62
     7
 10
51.0
 20
16.0
 30
0.0
 40
1.249999999999976
  0
CIRCLE
  5
DF
  8
DATA
 62
     7
 10
55.0
 20
20.0
 30
0.0
 40
1.249999999999976
  0
LINE
  5
E0
  8
DATA
 62
     7
 10
48.0
 20
29.276987657639719
 30
0.0
 11
48.0
 21
31.36056776750177
 31
0.0
  0
LINE
  5
E1
  8
DATA
 62
     7
 10
54.0
 20
29.276987657639719
 30
0.0
 11
54.0
 21
31.36056776750177
 31
0.0
  0
ARC
  5
E2
  8
DATA
 62
     7
 10
56.656854249492369
 20
25.656854249492369
 30
0.0
 40
0.4999999999999575
 50
313.2092153406752
 51
136.7907846593248
  0
CIRCLE
  5
E3
  8
DATA
 62
     7
 10
41.5
 20
32.0
 30
0.0
 40
2.5
  0
POLYLINE
  5
E4
  8
DATA
 62
     7
 66
     1
 10
0.0
 20
0.0
 30
0.0
  0
VERTEX
  5
8FF
  8
DATA
 62
     7
 10
41.749999999999993
 20
31.75
 30
0.0
  0
VERTEX
  5
900
  8
DATA
 62
     7
 10
43.0
 20
31.75
 30
0.0
  0
VERTEX
  5
901
  8
DATA
 62
     7
 10
43.0
 20
32.25
 30
0.0
  0
VERTEX
  5
902
  8
DATA
 62
     7
 10
41.749999999999993
 20
32.25
 30
0.0
  0
SEQEND
  5
903
  8
DATA
 62
     7
  0
POLYLINE
  5
EA
  8
DATA
 62
     7
 66
     1
 10
0.0
 20
0.0
 30
0.0
  0
VERTEX
  5
904
  8
DATA
 62
     7
 10
41.25
 20
31.75
 30
0.0
  0
VERTEX
  5
905
  8
DATA
 62
     7
 10
40.0
 20
31.75
 30
0.0
  0
VERTEX
  5
906
  8
DATA
 62
     7
 10
40.0
 20
32.25
 30
0.0
  0
VERTEX
  5
907
  8
DATA
 62
     7
 10
41.25
 20
32.25
 30
0.0
  0
SEQEND
  5
908
  8
DATA
 62
     7
  0
POLYLINE
  5
F0
  8
DATA
 62
     7
 66
     1
 10
0.0
 20
0.0
 30
0.0
  0
VERTEX
  5
909
  8
DATA
 62
     7
 10
41.749999999999993
 20
32.25
 30
0.0
  0
VERTEX
  5
90A
  8
DATA
 62
     7
 10
41.749999999999993
 20
33.5
 30
0.0
  0
VERTEX
  5
90B
  8
DATA
 62
     7
 10
41.25
 20
33.5
 30
0.0
  0
VERTEX
  5
90C
  8
DATA
 62
     7
 10
41.25
 20
32.25
 30
0.0
  0
SEQEND
  5
90D
  8
DATA
 62
     7
  0
POLYLINE
  5
F6
  8
DATA
 62
     7
 66
     1
 10
0.0
 20
0.0
 30
0.0
  0
VERTEX
  5
90E
  8
DATA
 62
     7
 10
41.749999999999993
 20
31.75
 30
0.0
  0
VERTEX
  5
90F
  8
DATA
 62
     7
 10
41.749999999999993
 20
30.5
 30
0.0
  0
VERTEX
  5
910
  8
DATA
 62
     7
 10
41.25
 20
30.5
 30
0.0
  0
VERTEX
  5
911
  8
DATA
 62
     7
 10
41.25
 20
31.75
 30
0.0
  0
SEQEND
  5
912
  8
DATA
 62
     7
  0
CIRCLE
  5
FC
  8
DATA
 62
     7
 10
60.5
 20
8.0
 30
0.0
 40
2.5
  0
POLYLINE
  5
FD
  8
DATA
 62
     7
 66
     1
 10
0.0
 20
0.0
 30
0.0
  0
VERTEX
  5
913
  8
DATA
 62
     7
 10
60.75
 20
7.75
 30
0.0
  0
VERTEX
  5
914
  8
DATA
 62
     7
 10
62.0
 20
7.75
 30
0.0
  0
VERTEX
  5
915
  8
DATA
 62
     7
 10
62.0
 20
8.25
 30
0.0
  0
VERTEX
  5
916
  8
DATA
 62
     7
 10
60.75
 20
8.25
 30
0.0
  0
SEQEND
  5
917
  8
DATA
 62
     7
  0
POLYLINE
  5
103
  8
DATA
 62
     7
 66
     1
 10
0.0
 20
0.0
 30
0.0
  0
VERTEX
  5
918
  8
DATA
 62
     7
 10
60.25
 20
7.75
 30
0.0
  0
VERTEX
  5
919
  8
DATA
 62
     7
 10
59.0
 20
7.75
 30
0.0
  0
VERTEX
  5
91A
  8
DATA
 62
     7
 10
59.0
 20
8.25
 30
0.0
  0
VERTEX
  5
91B
  8
DATA
 62
     7
 10
60.25
 20
8.25
 30
0.0
  0
SEQEND
  5
91C
  8
DATA
 62
     7
  0
POLYLINE
  5
109
  8
DATA
 62
     7
 66
     1
 10
0.0
 20
0.0
 30
0.0
  0
VERTEX
  5
91D
  8
DATA
 62
     7
 10
60.75
 20
8.25
 30
0.0
  0
VERTEX
  5
91E
  8
DATA
 62
     7
 10
60.75
 20
9.5
 30
0.0
  0
VERTEX
  5
91F
  8
DATA
 62
     7
 10
60.25
 20
9.5
 30
0.0
  0
VERTEX
  5
920
  8
DATA
 62
     7
 10
60.25
 20
8.25
 30
0.0
  0
SEQEND
  5
921
  8
DATA
 62
     7
  0
POLYLINE
  5
10F
  8
DATA
 62
     7
 66
     1
 10
0.0
 20
0.0
 30
0.0
  0
VERTEX
  5
922
  8
DATA
 62
     7
 10
60.75
 20
7.75
 30
0.0
  0
VERTEX
  5
923
  8
DATA
 62
     7
 10
60.75
 20
6.5
 30
0.0
  0
VERTEX
  5
924
  8
DATA
 62
     7
 10
60.25
 20
6.5
 30
0.0
  0
VERTEX
  5
925
  8
DATA
 62
     7
 10
60.25
 20
7.75
 30
0.0
  0
SEQEND
  5
926
  8
DATA
 62
     7
  0
LINE
  5
115
  8
DATA
 62
     7
 10
28.0
 20
44.0
 30
0.0
 11
28.0
 21
0.0
 31
0.0
  0
LINE
  5
116
  8
DATA
 62
     7
 10
454.60000000000002
 20
44.0
 30
0.0
 11
454.60000000000002
 21
0.0
 31
0.0
  0
LINE
  5
117
  8
DATA
 62
     7
 10
28.0
 20
1.5
 30
0.0
 11
454.60000000000002
 21
1.5
 31
0.0
  0
LINE
  5
118
  8
DATA
 62
     7
 10
28.0
 20
42.5
 30
0.0
 11
454.60000000000002
 21
42.5
 31
0.0
  0
LINE
  5
119
  8
DATA
 62
     7
 10
28.0
 20
2.5
 30
0.0
 11
454.60000000000002
 21
2.5
 31
0.0
  0
LINE
  5
11A
  8
DATA
 62
     7
 10
28.0
 20
41.5
 30
0.0
 11
454.60000000000002
 21
41.5
 31
0.0
  0
POLYLINE
  5
11B
  8
DATA
 62
     7
 66
     1
 10
0.0
 20
0.0
 30
0.0
 70
     1
  0
VERTEX
  5
927
  8
DATA
 62
     7
 10
72.5
 20
15.0
 30
0.0
  0
VERTEX
  5
928
  8
DATA
 62
     7
 10
81.5
 20
15.0
 30
0.0
  0
VERTEX
  5
929
  8
DATA
 62
     7
 10
81.5
 20
10.0
 30
0.0
  0
VERTEX
  5
92A
  8
DATA
 62
     7
 10
72.5
 20
10.0
 30
0.0
  0
SEQEND
  5
92B
  8
DATA
 62
     7
  0
LINE
  5
121
  8
DATA
 62
     7
 10
75.0
 20
16.5
 30
0.0
 11
79.0
 21
16.5
 31
0.0
  0
LINE
  5
122
  8
DATA
 62
     7
 10
75.0
 20
16.5
 30
0.0
 11
75.0
 21
17.0
 31
0.0
  0
LINE
  5
123
  8
DATA
 62
     7
 10
75.75
 20
18.0
 30
0.0
 11
78.25
 21
18.0
 31
0.0
  0
LINE
  5
124
  8
DATA
 62
     7
 10
75.75
 20
18.0
 30
0.0
 11
75.75
 21
17.0
 31
0.0
  0
LINE
  5
125
  8
DATA
 62
     7
 10
78.25
 20
18.0
 30
0.0
 11
78.25
 21
17.0
 31
0.0
  0
LINE
  5
126
  8
DATA
 62
     7
 10
79.0
 20
16.5
 30
0.0
 11
79.0
 21
17.0
 31
0.0
  0
LINE
  5
127
  8
DATA
 62
     7
 10
75.0
 20
17.0
 30
0.0
 11
75.75
 21
17.0
 31
0.0
  0
LINE
  5
128
  8
DATA
 62
     7
 10
78.25
 20
17.0
 30
0.0
 11
79.0
 21
17.0
 31
0.0
  0
LINE
  5
129
  8
DATA
 62
     7
 10
75.0
 20
23.0
 30
0.0
 11
79.0
 21
23.0
 31
0.0
  0
LINE
  5
12A
  8
DATA
 62
     7
 10
75.0
 20
23.0
 30
0.0
 11
75.0
 21
23.5
 31
0.0
  0
LINE
  5
12B
  8
DATA
 62
     7
 10
75.75
 20
25.0
 30
0.0
 11
78.25
 21
25.0
 31
0.0
  0
LINE
  5
12C
  8
DATA
 62
     7
 10
75.75
 20
25.0
 30
0.0
 11
75.75
 21
23.5
 31
0.0
  0
LINE
  5
12D
  8
DATA
 62
     7
 10
78.25
 20
25.0
 30
0.0
 11
78.25
 21
23.5
 31
0.0
  0
LINE
  5
12E
  8
DATA
 62
     7
 10
79.0
 20
23.0
 30
0.0
 11
79.0
 21
23.5
 31
0.0
  0
LINE
  5
12F
  8
DATA
 62
     7
 10
75.0
 20
23.5
 30
0.0
 11
75.75
 21
23.5
 31
0.0
  0
LINE
  5
130
  8
DATA
 62
     7
 10
78.25
 20
23.5
 30
0.0
 11
79.0
 21
23.5
 31
0.0
  0
TEXT
  5
131
  8
DATA
 62
     7
 10
74.249999986754517
 20
19.100000000000001
 30
0.0
 40
2.3999999999999999
  1
8kHz
 41
0.8
 11
74.249999986754517
 21
21.5
 31
0.0
 73
     3
  0
TEXT
  5
132
  8
DATA
 62
     7
 10
74.750000021523874
 20
26.600000000000001
 30
0.0
 40
2.3999999999999999
  1
OUT
 41
0.8
 11
74.750000021523874
 21
29.0
 31
0.0
 73
     3
  0
TEXT
  5
133
  8
DATA
 62
     7
 10
70.25000002152386
 20
6.5999999999999988
 30
0.0
 40
2.3999999999999999
  1
HF FILTER
 41
0.8
 11
70.25000002152386
 21
9.0
 31
0.0
 73
     3
  0
LINE
  5
134
  8
DATA
 62
     7
 10
38.5
 20
5.0
 30
0.0
 11
130.0
 21
5.0
 31
0.0
  0
LINE
  5
135
  8
DATA
 62
     7
 10
38.5
 20
39.0
 30
0.0
 11
69.0
 21
39.0
 31
0.0
  0
LINE
  5
136
  8
DATA
 62
     7
 10
73.0
 20
39.0
 30
0.0
 11
130.0
 21
39.0
 31
0.0
  0
LINE
  5
137
  8
DATA
 62
     7
 10
36.5
 20
37.0
 30
0.0
 11
36.5
 21
7.0
 31
0.0
  0
ARC
  5
138
  8
DATA
 62
     7
 10
38.5
 20
37.0
 30
0.0
 40
2.0
 50
90.0
 51
180.0
  0
ARC
  5
139
  8
DATA
 62
     7
 10
38.5
 20
7.0
 30
0.0
 40
2.0
 50
180.0
 51
270.0
  0
LINE
  5
13A
  8
DATA
 62
     7
 10
132.0
 20
37.0
 30
0.0
 11
132.0
 21
34.0
 31
0.0
  0
LINE
  5
13B
  8
DATA
 62
     7
 10
132.0
 20
34.0
 30
0.0
 11
132.0
 21
7.0
 31
0.0
  0
ARC
  5
13C
  8
DATA
 62
     7
 10
130.0
 20
37.0
 30
0.0
 40
2.0
 50
0.0
 51
90.0
  0
ARC
  5
13D
  8
DATA
 62
     7
 10
130.0
 20
7.0
 30
0.0
 40
2.0
 50
270.0
 51
0.0
  0
LINE
  5
13E
  8
DATA
 62
     7
 10
71.0
 20
37.0
 30
0.0
 11
71.0
 21
34.0
 31
0.0
  0
LINE
  5
13F
  8
DATA
 62
     7
 10
73.0
 20
32.0
 30
0.0
 11
130.0
 21
32.0
 31
0.0
  0
ARC
  5
140
  8
DATA
 62
     7
 10
73.0
 20
34.0
 30
0.0
 40
2.0
 50
180.0
 51
270.0
  0
ARC
  5
141
  8
DATA
 62
     7
 10
130.0
 20
34.0
 30
0.0
 40
2.0
 50
270.0
 51
0.0
  0
ARC
  5
142
  8
DATA
 62
     7
 10
69.0
 20
37.0
 30
0.0
 40
2.0
 50
0.0
 51
90.0
  0
ARC
  5
143
  8
DATA
 62
     7
 10
73.0
 20
37.0
 30
0.0
 40
2.0
 50
90.0
 51
180.0
  0
POLYLINE
  5
144
  8
DATA
 62
     7
 66
     1
 10
0.0
 20
0.0
 30
0.0
 70
     1
  0
VERTEX
  5
92C
  8
DATA
 62
     7
 10
91.0
 20
15.0
 30
0.0
  0
VERTEX
  5
92D
  8
DATA
 62
     7
 10
100.0
 20
15.0
 30
0.0
  0
VERTEX
  5
92E
  8
DATA
 62
     7
 10
100.0
 20
10.0
 30
0.0
  0
VERTEX
  5
92F
  8
DATA
 62
     7
 10
91.0
 20
10.0
 30
0.0
  0
SEQEND
  5
930
  8
DATA
 62
     7
  0
LINE
  5
14A
  8
DATA
 62
     7
 10
93.499999999999986
 20
16.5
 30
0.0
 11
97.5
 21
16.5
 31
0.0
  0
LINE
  5
14B
  8
DATA
 62
     7
 10
93.499999999999986
 20
16.5
 30
0.0
 11
93.499999999999986
 21
17.0
 31
0.0
  0
LINE
  5
14C
  8
DATA
 62
     7
 10
94.25
 20
18.0
 30
0.0
 11
96.75
 21
18.0
 31
0.0
  0
LINE
  5
14D
  8
DATA
 62
     7
 10
94.25
 20
18.0
 30
0.0
 11
94.25
 21
17.0
 31
0.0
  0
LINE
  5
14E
  8
DATA
 62
     7
 10
96.75
 20
18.0
 30
0.0
 11
96.75
 21
17.0
 31
0.0
  0
LINE
  5
14F
  8
DATA
 62
     7
 10
97.5
 20
16.5
 30
0.0
 11
97.5
 21
17.0
 31
0.0
  0
LINE
  5
150
  8
DATA
 62
     7
 10
93.499999999999986
 20
17.0
 30
0.0
 11
94.25
 21
17.0
 31
0.0
  0
LINE
  5
151
  8
DATA
 62
     7
 10
96.75
 20
17.0
 30
0.0
 11
97.5
 21
17.0
 31
0.0
  0
LINE
  5
152
  8
DATA
 62
     7
 10
93.499999999999986
 20
23.0
 30
0.0
 11
97.5
 21
23.0
 31
0.0
  0
LINE
  5
153
  8
DATA
 62
     7
 10
93.499999999999986
 20
23.0
 30
0.0
 11
93.499999999999986
 21
23.5
 31
0.0
  0
LINE
  5
154
  8
DATA
 62
     7
 10
94.25
 20
25.0
 30
0.0
 11
96.75
 21
25.0
 31
0.0
  0
LINE
  5
155
  8
DATA
 62
     7
 10
94.25
 20
25.0
 30
0.0
 11
94.25
 21
23.5
 31
0.0
  0
LINE
  5
156
  8
DATA
 62
     7
 10
96.75
 20
25.0
 30
0.0
 11
96.75
 21
23.5
 31
0.0
  0
LINE
  5
157
  8
DATA
 62
     7
 10
97.5
 20
23.0
 30
0.0
 11
97.5
 21
23.5
 31
0.0
  0
LINE
  5
158
  8
DATA
 62
     7
 10
93.499999999999986
 20
23.5
 30
0.0
 11
94.25
 21
23.5
 31
0.0
  0
LINE
  5
159
  8
DATA
 62
     7
 10
96.75
 20
23.5
 30
0.0
 11
97.5
 21
23.5
 31
0.0
  0
TEXT
  5
15A
  8
DATA
 62
     7
 10
90.63975693119896
 20
19.100000000000001
 30
0.0
 40
2.3999999999999999
  1
REVERSE
 41
0.8
 11
90.63975693119896
 21
21.5
 31
0.0
 73
     3
  0
TEXT
  5
15B
  8
DATA
 62
     7
 10
91.639756965968303
 20
26.600000000000001
 30
0.0
 40
2.3999999999999999
  1
NORMAL
 41
0.8
 11
91.639756965968303
 21
29.0
 31
0.0
 73
     3
  0
TEXT
  5
15C
  8
DATA
 62
     7
 10
89.750000021523874
 20
6.5999999999999988
 30
0.0
 40
2.3999999999999999
  1
POLARITY
 41
0.8
 11
89.750000021523874
 21
9.0
 31
0.0
 73
     3
  0
POLYLINE
  5
15D
  8
DATA
 62
     7
 66
     1
 10
0.0
 20
0.0
 30
0.0
 70
     1
  0
VERTEX
  5
931
  8
DATA
 62
     7
 10
109.5
 20
15.0
 30
0.0
  0
VERTEX
  5
932
  8
DATA
 62
     7
 10
118.5
 20
15.0
 30
0.0
  0
VERTEX
  5
933
  8
DATA
 62
     7
 10
118.5
 20
10.0
 30
0.0
  0
VERTEX
  5
934
  8
DATA
 62
     7
 10
109.5
 20
10.0
 30
0.0
  0
SEQEND
  5
935
  8
DATA
 62
     7
  0
LINE
  5
163
  8
DATA
 62
     7
 10
112.0
 20
16.5
 30
0.0
 11
116.0
 21
16.5
 31
0.0
  0
LINE
  5
164
  8
DATA
 62
     7
 10
112.0
 20
16.5
 30
0.0
 11
112.0
 21
17.0
 31
0.0
  0
LINE
  5
165
  8
DATA
 62
     7
 10
112.75
 20
18.0
 30
0.0
 11
115.25
 21
18.0
 31
0.0
  0
LINE
  5
166
  8
DATA
 62
     7
 10
112.75
 20
18.0
 30
0.0
 11
112.75
 21
17.0
 31
0.0
  0
LINE
  5
167
  8
DATA
 62
     7
 10
115.25
 20
18.0
 30
0.0
 11
115.25
 21
17.0
 31
0.0
  0
LINE
  5
168
  8
DATA
 62
     7
 10
116.0
 20
16.5
 30
0.0
 11
116.0
 21
17.0
 31
0.0
  0
LINE
  5
169
  8
DATA
 62
     7
 10
112.0
 20
17.0
 30
0.0
 11
112.75
 21
17.0
 31
0.0
  0
LINE
  5
16A
  8
DATA
 62
     7
 10
115.25
 20
17.0
 30
0.0
 11
116.0
 21
17.0
 31
0.0
  0
LINE
  5
16B
  8
DATA
 62
     7
 10
112.0
 20
23.0
 30
0.0
 11
116.0
 21
23.0
 31
0.0
  0
LINE
  5
16C
  8
DATA
 62
     7
 10
112.0
 20
23.0
 30
0.0
 11
112.0
 21
23.5
 31
0.0
  0
LINE
  5
16D
  8
DATA
 62
     7
 10
112.75
 20
25.0
 30
0.0
 11
115.25
 21
25.0
 31
0.0
  0
LINE
  5
16E
  8
DATA
 62
     7
 10
112.75
 20
25.0
 30
0.0
 11
112.75
 21
23.5
 31
0.0
  0
LINE
  5
16F
  8
DATA
 62
     7
 10
115.25
 20
25.0
 30
0.0
 11
115.25
 21
23.5
 31
0.0
  0
LINE
  5
170
  8
DATA
 62
     7
 10
116.0
 20
23.0
 30
0.0
 11
116.0
 21
23.5
 31
0.0
  0
LINE
  5
171
  8
DATA
 62
     7
 10
112.0
 20
23.5
 30
0.0
 11
112.75
 21
23.5
 31
0.0
  0
LINE
  5
172
  8
DATA
 62
     7
 10
115.25
 20
23.5
 30
0.0
 11
116.0
 21
23.5
 31
0.0
  0
TEXT
  5
173
  8
DATA
 62
     7
 10
109.7499999867545
 20
19.100000000000001
 30
0.0
 40
2.3999999999999999
  1
LIFTED
 41
0.8
 11
109.7499999867545
 21
21.5
 31
0.0
 73
     3
  0
TEXT
  5
174
  8
DATA
 62
     7
 10
109.1397569659683
 20
26.600000000000001
 30
0.0
 40
2.3999999999999999
  1
EARTHED
 41
0.8
 11
109.1397569659683
 21
29.0
 31
0.0
 73
     3
  0
TEXT
  5
175
  8
DATA
 62
     7
 10
110.6397569659683
 20
6.5999999999999988
 30
0.0
 40
2.3999999999999999
  1
EARTH
 41
0.8
 11
110.6397569659683
 21
9.0
 31
0.0
 73
     3
  0
POLYLINE
  5
176
  8
DATA
 62
     7
 66
     1
 10
0.0
 20
0.0
 30
0.0
 70
     1
  0
VERTEX
  5
936
  8
DATA
 62
     7
 10
127.0
 20
14.0
 30
0.0
  0
VERTEX
  5
937
  8
DATA
 62
     7
 10
130.0
 20
14.0
 30
0.0
  0
VERTEX
  5
938
  8
DATA
 62
     7
 10
130.0
 20
11.0
 30
0.0
  0
VERTEX
  5
939
  8
DATA
 62
     7
 10
127.0
 20
11.0
 30
0.0
  0
SEQEND
  5
93A
  8
DATA
 62
     7
  0
LINE
  5
17C
  8
DATA
 62
     7
 10
128.5
 20
14.0
 30
0.0
 11
128.5
 21
26.0
 31
0.0
  0
LINE
  5
17D
  8
DATA
 62
     7
 10
126.5
 20
28.0
 30
0.0
 11
120.5
 21
28.0
 31
0.0
  0
ARC
  5
17E
  8
DATA
 62
     7
 10
126.5
 20
26.0
 30
0.0
 40
2.0
 50
0.0
 51
90.0
  0
TEXT
  5
17F
  8
DATA
 62
     7
 10
46.750000021523931
 20
34.100000000000001
 30
0.0
 40
2.3999999999999999
  1
OUTPUT
 41
0.8
 11
46.750000021523931
 21
36.5
 31
0.0
 73
     3
  0
CIRCLE
  5
180
  8
DATA
 62
     7
 10
149.5
 20
20.0
 30
0.0
 40
11.75
  0
CIRCLE
  5
181
  8
DATA
 62
     7
 10
149.5
 20
20.0
 30
0.0
 40
9.75
  0
ARC
  5
182
  8
DATA
 62
     7
 10
149.5
 20
20.0
 30
0.0
 40
7.9999999999999796
 50
48.581569318657898
 51
41.418430681342677
  0
CIRCLE
  5
183
  8
DATA
 62
     7
 10
145.5
 20
20.0
 30
0.0
 40
1.249999999999976
  0
CIRCLE
  5
184
  8
DATA
 62
     7
 10
149.5
 20
16.0
 30
0.0
 40
1.249999999999976
  0
CIRCLE
  5
185
  8
DATA
 62
     7
 10
153.5
 20
20.0
 30
0.0
 40
1.249999999999976
  0
LINE
  5
186
  8
DATA
 62
     7
 10
146.5
 20
29.276987657639719
 30
0.0
 11
146.5
 21
31.36056776750177
 31
0.0
  0
LINE
  5
187
  8
DATA
 62
     7
 10
152.5
 20
29.276987657639719
 30
0.0
 11
152.5
 21
31.36056776750177
 31
0.0
  0
ARC
  5
188
  8
DATA
 62
     7
 10
155.15685424949231
 20
25.656854249492369
 30
0.0
 40
0.4999999999999575
 50
313.2092153406752
 51
136.7907846593248
  0
CIRCLE
  5
189
  8
DATA
 62
     7
 10
140.0
 20
32.0
 30
0.0
 40
2.5
  0
POLYLINE
  5
18A
  8
DATA
 62
     7
 66
     1
 10
0.0
 20
0.0
 30
0.0
  0
VERTEX
  5
93B
  8
DATA
 62
     7
 10
140.25
 20
31.75
 30
0.0
  0
VERTEX
  5
93C
  8
DATA
 62
     7
 10
141.5
 20
31.75
 30
0.0
  0
VERTEX
  5
93D
  8
DATA
 62
     7
 10
141.5
 20
32.25
 30
0.0
  0
VERTEX
  5
93E
  8
DATA
 62
     7
 10
140.25
 20
32.25
 30
0.0
  0
SEQEND
  5
93F
  8
DATA
 62
     7
  0
POLYLINE
  5
190
  8
DATA
 62
     7
 66
     1
 10
0.0
 20
0.0
 30
0.0
  0
VERTEX
  5
940
  8
DATA
 62
     7
 10
139.75
 20
31.75
 30
0.0
  0
VERTEX
  5
941
  8
DATA
 62
     7
 10
138.5
 20
31.75
 30
0.0
  0
VERTEX
  5
942
  8
DATA
 62
     7
 10
138.5
 20
32.25
 30
0.0
  0
VERTEX
  5
943
  8
DATA
 62
     7
 10
139.75
 20
32.25
 30
0.0
  0
SEQEND
  5
944
  8
DATA
 62
     7
  0
POLYLINE
  5
196
  8
DATA
 62
     7
 66
     1
 10
0.0
 20
0.0
 30
0.0
  0
VERTEX
  5
945
  8
DATA
 62
     7
 10
140.25
 20
32.25
 30
0.0
  0
VERTEX
  5
946
  8
DATA
 62
     7
 10
140.25
 20
33.5
 30
0.0
  0
VERTEX
  5
947
  8
DATA
 62
     7
 10
139.75
 20
33.5
 30
0.0
  0
VERTEX
  5
948
  8
DATA
 62
     7
 10
139.75
 20
32.25
 30
0.0
  0
SEQEND
  5
949
  8
DATA
 62
     7
  0
POLYLINE
  5
19C
  8
DATA
 62
     7
 66
     1
 10
0.0
 20
0.0
 30
0.0
  0
VERTEX
  5
94A
  8
DATA
 62
     7
 10
140.25
 20
31.75
 30
0.0
  0
VERTEX
  5
94B
  8
DATA
 62
     7
 10
140.25
 20
30.5
 30
0.0
  0
VERTEX
  5
94C
  8
DATA
 62
     7
 10
139.75
 20
30.5
 30
0.0
  0
VERTEX
  5
94D
  8
DATA
 62
     7
 10
139.75
 20
31.75
 30
0.0
  0
SEQEND
  5
94E
  8
DATA
 62
     7
  0
CIRCLE
  5
1A2
  8
DATA
 62
     7
 10
159.0
 20
8.0
 30
0.0
 40
2.5
  0
POLYLINE
  5
1A3
  8
DATA
 62
     7
 66
     1
 10
0.0
 20
0.0
 30
0.0
  0
VERTEX
  5
94F
  8
DATA
 62
     7
 10
159.25
 20
7.75
 30
0.0
  0
VERTEX
  5
950
  8
DATA
 62
     7
 10
160.5
 20
7.75
 30
0.0
  0
VERTEX
  5
951
  8
DATA
 62
     7
 10
160.5
 20
8.25
 30
0.0
  0
VERTEX
  5
952
  8
DATA
 62
     7
 10
159.25
 20
8.25
 30
0.0
  0
SEQEND
  5
953
  8
DATA
 62
     7
  0
POLYLINE
  5
1A9
  8
DATA
 62
     7
 66
     1
 10
0.0
 20
0.0
 30
0.0
  0
VERTEX
  5
954
  8
DATA
 62
     7
 10
158.75
 20
7.75
 30
0.0
  0
VERTEX
  5
955
  8
DATA
 62
     7
 10
157.5
 20
7.75
 30
0.0
  0
VERTEX
  5
956
  8
DATA
 62
     7
 10
157.5
 20
8.25
 30
0.0
  0
VERTEX
  5
957
  8
DATA
 62
     7
 10
158.75
 20
8.25
 30
0.0
  0
SEQEND
  5
958
  8
DATA
 62
     7
  0
POLYLINE
  5
1AF
  8
DATA
 62
     7
 66
     1
 10
0.0
 20
0.0
 30
0.0
  0
VERTEX
  5
959
  8
DATA
 62
     7
 10
159.25
 20
8.25
 30
0.0
  0
VERTEX
  5
95A
  8
DATA
 62
     7
 10
159.25
 20
9.5
 30
0.0
  0
VERTEX
  5
95B
  8
DATA
 62
     7
 10
158.75
 20
9.5
 30
0.0
  0
VERTEX
  5
95C
  8
DATA
 62
     7
 10
158.75
 20
8.25
 30
0.0
  0
SEQEND
  5
95D
  8
DATA
 62
     7
  0
POLYLINE
  5
1B5
  8
DATA
 62
     7
 66
     1
 10
0.0
 20
0.0
 30
0.0
  0
VERTEX
  5
95E
  8
DATA
 62
     7
 10
159.25
 20
7.75
 30
0.0
  0
VERTEX
  5
95F
  8
DATA
 62
     7
 10
159.25
 20
6.5
 30
0.0
  0
VERTEX
  5
960
  8
DATA
 62
     7
 10
158.75
 20
6.5
 30
0.0
  0
VERTEX
  5
961
  8
DATA
 62
     7
 10
158.75
 20
7.75
 30
0.0
  0
SEQEND
  5
962
  8
DATA
 62
     7
  0
POLYLINE
  5
1BB
  8
DATA
 62
     7
 66
     1
 10
0.0
 20
0.0
 30
0.0
 70
     1
  0
VERTEX
  5
963
  8
DATA
 62
     7
 10
171.0
 20
15.0
 30
0.0
  0
VERTEX
  5
964
  8
DATA
 62
     7
 10
180.0
 20
15.0
 30
0.0
  0
VERTEX
  5
965
  8
DATA
 62
     7
 10
180.0
 20
10.0
 30
0.0
  0
VERTEX
  5
966
  8
DATA
 62
     7
 10
171.0
 20
10.0
 30
0.0
  0
SEQEND
  5
967
  8
DATA
 62
     7
  0
LINE
  5
1C1
  8
DATA
 62
     7
 10
173.5
 20
16.5
 30
0.0
 11
177.5
 21
16.5
 31
0.0
  0
LINE
  5
1C2
  8
DATA
 62
     7
 10
173.5
 20
16.5
 30
0.0
 11
173.5
 21
17.0
 31
0.0
  0
LINE
  5
1C3
  8
DATA
 62
     7
 10
174.25
 20
18.0
 30
0.0
 11
176.75
 21
18.0
 31
0.0
  0
LINE
  5
1C4
  8
DATA
 62
     7
 10
174.25
 20
18.0
 30
0.0
 11
174.25
 21
17.0
 31
0.0
  0
LINE
  5
1C5
  8
DATA
 62
     7
 10
176.75
 20
18.0
 30
0.0
 11
176.75
 21
17.0
 31
0.0
  0
LINE
  5
1C6
  8
DATA
 62
     7
 10
177.5
 20
16.5
 30
0.0
 11
177.5
 21
17.0
 31
0.0
  0
LINE
  5
1C7
  8
DATA
 62
     7
 10
173.5
 20
17.0
 30
0.0
 11
174.25
 21
17.0
 31
0.0
  0
LINE
  5
1C8
  8
DATA
 62
     7
 10
176.75
 20
17.0
 30
0.0
 11
177.5
 21
17.0
 31
0.0
  0
LINE
  5
1C9
  8
DATA
 62
     7
 10
173.5
 20
23.0
 30
0.0
 11
177.5
 21
23.0
 31
0.0
  0
LINE
  5
1CA
  8
DATA
 62
     7
 10
173.5
 20
23.0
 30
0.0
 11
173.5
 21
23.5
 31
0.0
  0
LINE
  5
1CB
  8
DATA
 62
     7
 10
174.25
 20
25.0
 30
0.0
 11
176.75
 21
25.0
 31
0.0
  0
LINE
  5
1CC
  8
DATA
 62
     7
 10
174.25
 20
25.0
 30
0.0
 11
174.25
 21
23.5
 31
0.0
  0
LINE
  5
1CD
  8
DATA
 62
     7
 10
176.75
 20
25.0
 30
0.0
 11
176.75
 21
23.5
 31
0.0
  0
LINE
  5
1CE
  8
DATA
 62
     7
 10
177.5
 20
23.0
 30
0.0
 11
177.5
 21
23.5
 31
0.0
  0
LINE
  5
1CF
  8
DATA
 62
     7
 10
173.5
 20
23.5
 30
0.0
 11
174.25
 21
23.5
 31
0.0
  0
LINE
  5
1D0
  8
DATA
 62
     7
 10
176.75
 20
23.5
 30
0.0
 11
177.5
 21
23.5
 31
0.0
  0
TEXT
  5
1D1
  8
DATA
 62
     7
 10
172.74999998675449
 20
19.100000000000001
 30
0.0
 40
2.3999999999999999
  1
8kHz
 41
0.8
 11
172.74999998675449
 21
21.5
 31
0.0
 73
     3
  0
TEXT
  5
1D2
  8
DATA
 62
     7
 10
173.25000002152379
 20
26.600000000000001
 30
0.0
 40
2.3999999999999999
  1
OUT
 41
0.8
 11
173.25000002152379
 21
29.0
 31
0.0
 73
     3
  0
TEXT
  5
1D3
  8
DATA
 62
     7
 10
168.75000002152379
 20
6.5999999999999988
 30
0.0
 40
2.3999999999999999
  1
HF FILTER
 41
0.8
 11
168.75000002152379
 21
9.0
 31
0.0
 73
     3
  0
LINE
  5
1D4
  8
DATA
 62
     7
 10
137.0
 20
5.0
 30
0.0
 11
228.5
 21
5.0
 31
0.0
  0
LINE
  5
1D5
  8
DATA
 62
     7
 10
137.0
 20
39.0
 30
0.0
 11
167.5
 21
39.0
 31
0.0
  0
LINE
  5
1D6
  8
DATA
 62
     7
 10
171.5
 20
39.0
 30
0.0
 11
228.5
 21
39.0
 31
0.0
  0
LINE
  5
1D7
  8
DATA
 62
     7
 10
135.0
 20
37.0
 30
0.0
 11
135.0
 21
7.0
 31
0.0
  0
ARC
  5
1D8
  8
DATA
 62
     7
 10
137.0
 20
37.0
 30
0.0
 40
2.0
 50
90.0
 51
180.0
  0
ARC
  5
1D9
  8
DATA
 62
     7
 10
137.0
 20
7.0
 30
0.0
 40
2.0
 50
180.0
 51
270.0
  0
LINE
  5
1DA
  8
DATA
 62
     7
 10
230.5
 20
37.0
 30
0.0
 11
230.5
 21
34.0
 31
0.0
  0
LINE
  5
1DB
  8
DATA
 62
     7
 10
230.5
 20
34.0
 30
0.0
 11
230.5
 21
7.0
 31
0.0
  0
ARC
  5
1DC
  8
DATA
 62
     7
 10
228.5
 20
37.0
 30
0.0
 40
2.0
 50
0.0
 51
90.0
  0
ARC
  5
1DD
  8
DATA
 62
     7
 10
228.5
 20
7.0
 30
0.0
 40
2.0
 50
270.0
 51
0.0
  0
LINE
  5
1DE
  8
DATA
 62
     7
 10
169.5
 20
37.0
 30
0.0
 11
169.5
 21
34.0
 31
0.0
  0
LINE
  5
1DF
  8
DATA
 62
     7
 10
171.5
 20
32.0
 30
0.0
 11
228.5
 21
32.0
 31
0.0
  0
ARC
  5
1E0
  8
DATA
 62
     7
 10
171.5
 20
34.0
 30
0.0
 40
2.0
 50
180.0
 51
270.0
  0
ARC
  5
1E1
  8
DATA
 62
     7
 10
228.5
 20
34.0
 30
0.0
 40
2.0
 50
270.0
 51
0.0
  0
ARC
  5
1E2
  8
DATA
 62
     7
 10
167.5
 20
37.0
 30
0.0
 40
2.0
 50
0.0
 51
90.0
  0
ARC
  5
1E3
  8
DATA
 62
     7
 10
171.5
 20
37.0
 30
0.0
 40
2.0
 50
90.0
 51
180.0
  0
POLYLINE
  5
1E4
  8
DATA
 62
     7
 66
     1
 10
0.0
 20
0.0
 30
0.0
 70
     1
  0
VERTEX
  5
968
  8
DATA
 62
     7
 10
189.5
 20
15.0
 30
0.0
  0
VERTEX
  5
969
  8
DATA
 62
     7
 10
198.5
 20
15.0
 30
0.0
  0
VERTEX
  5
96A
  8
DATA
 62
     7
 10
198.5
 20
10.0
 30
0.0
  0
VERTEX
  5
96B
  8
DATA
 62
     7
 10
189.5
 20
10.0
 30
0.0
  0
SEQEND
  5
96C
  8
DATA
 62
     7
  0
LINE
  5
1EA
  8
DATA
 62
     7
 10
192.0
 20
16.5
 30
0.0
 11
196.0
 21
16.5
 31
0.0
  0
LINE
  5
1EB
  8
DATA
 62
     7
 10
192.0
 20
16.5
 30
0.0
 11
192.0
 21
17.0
 31
0.0
  0
LINE
  5
1EC
  8
DATA
 62
     7
 10
192.75
 20
18.0
 30
0.0
 11
195.25
 21
18.0
 31
0.0
  0
LINE
  5
1ED
  8
DATA
 62
     7
 10
192.75
 20
18.0
 30
0.0
 11
192.75
 21
17.0
 31
0.0
  0
LINE
  5
1EE
  8
DATA
 62
     7
 10
195.25
 20
18.0
 30
0.0
 11
195.25
 21
17.0
 31
0.0
  0
LINE
  5
1EF
  8
DATA
 62
     7
 10
196.0
 20
16.5
 30
0.0
 11
196.0
 21
17.0
 31
0.0
  0
LINE
  5
1F0
  8
DATA
 62
     7
 10
192.0
 20
17.0
 30
0.0
 11
192.75
 21
17.0
 31
0.0
  0
LINE
  5
1F1
  8
DATA
 62
     7
 10
195.25
 20
17.0
 30
0.0
 11
196.0
 21
17.0
 31
0.0
  0
LINE
  5
1F2
  8
DATA
 62
     7
 10
192.0
 20
23.0
 30
0.0
 11
196.0
 21
23.0
 31
0.0
  0
LINE
  5
1F3
  8
DATA
 62
     7
 10
192.0
 20
23.0
 30
0.0
 11
192.0
 21
23.5
 31
0.0
  0
LINE
  5
1F4
  8
DATA
 62
     7
 10
192.75
 20
25.0
 30
0.0
 11
195.25
 21
25.0
 31
0.0
  0
LINE
  5
1F5
  8
DATA
 62
     7
 10
192.75
 20
25.0
 30
0.0
 11
192.75
 21
23.5
 31
0.0
  0
LINE
  5
1F6
  8
DATA
 62
     7
 10
195.25
 20
25.0
 30
0.0
 11
195.25
 21
23.5
 31
0.0
  0
LINE
  5
1F7
  8
DATA
 62
     7
 10
196.0
 20
23.0
 30
0.0
 11
196.0
 21
23.5
 31
0.0
  0
LINE
  5
1F8
  8
DATA
 62
     7
 10
192.0
 20
23.5
 30
0.0
 11
192.75
 21
23.5
 31
0.0
  0
LINE
  5
1F9
  8
DATA
 62
     7
 10
195.25
 20
23.5
 30
0.0
 11
196.0
 21
23.5
 31
0.0
  0
TEXT
  5
1FA
  8
DATA
 62
     7
 10
189.13975693119889
 20
19.100000000000001
 30
0.0
 40
2.3999999999999999
  1
REVERSE
 41
0.8
 11
189.13975693119889
 21
21.5
 31
0.0
 73
     3
  0
TEXT
  5
1FB
  8
DATA
 62
     7
 10
190.1397569659683
 20
26.600000000000001
 30
0.0
 40
2.3999999999999999
  1
NORMAL
 41
0.8
 11
190.1397569659683
 21
29.0
 31
0.0
 73
     3
  0
TEXT
  5
1FC
  8
DATA
 62
     7
 10
188.25000002152379
 20
6.5999999999999988
 30
0.0
 40
2.3999999999999999
  1
POLARITY
 41
0.8
 11
188.25000002152379
 21
9.0
 31
0.0
 73
     3
  0
POLYLINE
  5
1FD
  8
DATA
 62
     7
 66
     1
 10
0.0
 20
0.0
 30
0.0
 70
     1
  0
VERTEX
  5
96D
  8
DATA
 62
     7
 10
208.0
 20
15.0
 30
0.0
  0
VERTEX
  5
96E
  8
DATA
 62
     7
 10
217.0
 20
15.0
 30
0.0
  0
VERTEX
  5
96F
  8
DATA
 62
     7
 10
217.0
 20
10.0
 30
0.0
  0
VERTEX
  5
970
  8
DATA
 62
     7
 10
208.0
 20
10.0
 30
0.0
  0
SEQEND
  5
971
  8
DATA
 62
     7
  0
LINE
  5
203
  8
DATA
 62
     7
 10
210.5
 20
16.5
 30
0.0
 11
214.5
 21
16.5
 31
0.0
  0
LINE
  5
204
  8
DATA
 62
     7
 10
210.5
 20
16.5
 30
0.0
 11
210.5
 21
17.0
 31
0.0
  0
LINE
  5
205
  8
DATA
 62
     7
 10
211.25
 20
18.0
 30
0.0
 11
213.75
 21
18.0
 31
0.0
  0
LINE
  5
206
  8
DATA
 62
     7
 10
211.25
 20
18.0
 30
0.0
 11
211.25
 21
17.0
 31
0.0
  0
LINE
  5
207
  8
DATA
 62
     7
 10
213.75
 20
18.0
 30
0.0
 11
213.75
 21
17.0
 31
0.0
  0
LINE
  5
208
  8
DATA
 62
     7
 10
214.5
 20
16.5
 30
0.0
 11
214.5
 21
17.0
 31
0.0
  0
LINE
  5
209
  8
DATA
 62
     7
 10
210.5
 20
17.0
 30
0.0
 11
211.25
 21
17.0
 31
0.0
  0
LINE
  5
20A
  8
DATA
 62
     7
 10
213.75
 20
17.0
 30
0.0
 11
214.5
 21
17.0
 31
0.0
  0
LINE
  5
20B
  8
DATA
 62
     7
 10
210.5
 20
23.0
 30
0.0
 11
214.5
 21
23.0
 31
0.0
  0
LINE
  5
20C
  8
DATA
 62
     7
 10
210.5
 20
23.0
 30
0.0
 11
210.5
 21
23.5
 31
0.0
  0
LINE
  5
20D
  8
DATA
 62
     7
 10
211.25
 20
25.0
 30
0.0
 11
213.75
 21
25.0
 31
0.0
  0
LINE
  5
20E
  8
DATA
 62
     7
 10
211.25
 20
25.0
 30
0.0
 11
211.25
 21
23.5
 31
0.0
  0
LINE
  5
20F
  8
DATA
 62
     7
 10
213.75
 20
25.0
 30
0.0
 11
213.75
 21
23.5
 31
0.0
  0
LINE
  5
210
  8
DATA
 62
     7
 10
214.5
 20
23.0
 30
0.0
 11
214.5
 21
23.5
 31
0.0
  0
LINE
  5
211
  8
DATA
 62
     7
 10
210.5
 20
23.5
 30
0.0
 11
211.25
 21
23.5
 31
0.0
  0
LINE
  5
212
  8
DATA
 62
     7
 10
213.75
 20
23.5
 30
0.0
 11
214.5
 21
23.5
 31
0.0
  0
TEXT
  5
213
  8
DATA
 62
     7
 10
208.24999998675449
 20
19.100000000000001
 30
0.0
 40
2.3999999999999999
  1
LIFTED
 41
0.8
 11
208.24999998675449
 21
21.5
 31
0.0
 73
     3
  0
TEXT
  5
214
  8
DATA
 62
     7
 10
207.6397569659683
 20
26.600000000000001
 30
0.0
 40
2.3999999999999999
  1
EARTHED
 41
0.8
 11
207.6397569659683
 21
29.0
 31
0.0
 73
     3
  0
TEXT
  5
215
  8
DATA
 62
     7
 10
209.13975696596839
 20
6.5999999999999988
 30
0.0
 40
2.3999999999999999
  1
EARTH
 41
0.8
 11
209.13975696596839
 21
9.0
 31
0.0
 73
     3
  0
POLYLINE
  5
216
  8
DATA
 62
     7
 66
     1
 10
0.0
 20
0.0
 30
0.0
 70
     1
  0
VERTEX
  5
972
  8
DATA
 62
     7
 10
225.5
 20
14.0
 30
0.0
  0
VERTEX
  5
973
  8
DATA
 62
     7
 10
228.5
 20
14.0
 30
0.0
  0
VERTEX
  5
974
  8
DATA
 62
     7
 10
228.5
 20
11.0
 30
0.0
  0
VERTEX
  5
975
  8
DATA
 62
     7
 10
225.5
 20
11.0
 30
0.0
  0
SEQEND
  5
976
  8
DATA
 62
     7
  0
LINE
  5
21C
  8
DATA
 62
     7
 10
227.0
 20
14.0
 30
0.0
 11
227.0
 21
26.0
 31
0.0
  0
LINE
  5
21D
  8
DATA
 62
     7
 10
225.0
 20
28.0
 30
0.0
 11
219.0
 21
28.0
 31
0.0
  0
ARC
  5
21E
  8
DATA
 62
     7
 10
225.0
 20
26.0
 30
0.0
 40
2.0
 50
0.0
 51
90.0
  0
TEXT
  5
21F
  8
DATA
 62
     7
 10
145.2500000215239
 20
34.100000000000001
 30
0.0
 40
2.3999999999999999
  1
OUTPUT
 41
0.8
 11
145.2500000215239
 21
36.5
 31
0.0
 73
     3
  0
CIRCLE
  5
220
  8
DATA
 62
     7
 10
248.0
 20
20.0
 30
0.0
 40
11.75
  0
CIRCLE
  5
221
  8
DATA
 62
     7
 10
248.0
 20
20.0
 30
0.0
 40
9.75
  0
ARC
  5
222
  8
DATA
 62
     7
 10
248.0
 20
20.0
 30
0.0
 40
7.9999999999999796
 50
48.581569318657898
 51
41.418430681342677
  0
CIRCLE
  5
223
  8
DATA
 62
     7
 10
244.0
 20
20.0
 30
0.0
 40
1.249999999999976
  0
CIRCLE
  5
224
  8
DATA
 62
     7
 10
248.0
 20
16.0
 30
0.0
 40
1.249999999999976
  0
CIRCLE
  5
225
  8
DATA
 62
     7
 10
252.0
 20
20.0
 30
0.0
 40
1.249999999999976
  0
LINE
  5
226
  8
DATA
 62
     7
 10
245.0
 20
29.276987657639719
 30
0.0
 11
245.0
 21
31.36056776750177
 31
0.0
  0
LINE
  5
227
  8
DATA
 62
     7
 10
251.0
 20
29.276987657639719
 30
0.0
 11
251.0
 21
31.36056776750177
 31
0.0
  0
ARC
  5
228
  8
DATA
 62
     7
 10
253.6568542494924
 20
25.656854249492369
 30
0.0
 40
0.4999999999999575
 50
313.2092153406752
 51
136.7907846593248
  0
CIRCLE
  5
229
  8
DATA
 62
     7
 10
238.5
 20
32.0
 30
0.0
 40
2.5
  0
POLYLINE
  5
22A
  8
DATA
 62
     7
 66
     1
 10
0.0
 20
0.0
 30
0.0
  0
VERTEX
  5
977
  8
DATA
 62
     7
 10
238.75
 20
31.75
 30
0.0
  0
VERTEX
  5
978
  8
DATA
 62
     7
 10
240.0
 20
31.75
 30
0.0
  0
VERTEX
  5
979
  8
DATA
 62
     7
 10
240.0
 20
32.25
 30
0.0
  0
VERTEX
  5
97A
  8
DATA
 62
     7
 10
238.75
 20
32.25
 30
0.0
  0
SEQEND
  5
97B
  8
DATA
 62
     7
  0
POLYLINE
  5
230
  8
DATA
 62
     7
 66
     1
 10
0.0
 20
0.0
 30
0.0
  0
VERTEX
  5
97C
  8
DATA
 62
     7
 10
238.25
 20
31.75
 30
0.0
  0
VERTEX
  5
97D
  8
DATA
 62
     7
 10
237.0
 20
31.75
 30
0.0
  0
VERTEX
  5
97E
  8
DATA
 62
     7
 10
237.0
 20
32.25
 30
0.0
  0
VERTEX
  5
97F
  8
DATA
 62
     7
 10
238.25
 20
32.25
 30
0.0
  0
SEQEND
  5
980
  8
DATA
 62
     7
  0
POLYLINE
  5
236
  8
DATA
 62
     7
 66
     1
 10
0.0
 20
0.0
 30
0.0
  0
VERTEX
  5
981
  8
DATA
 62
     7
 10
238.75
 20
32.25
 30
0.0
  0
VERTEX
  5
982
  8
DATA
 62
     7
 10
238.75
 20
33.5
 30
0.0
  0
VERTEX
  5
983
  8
DATA
 62
     7
 10
238.25
 20
33.5
 30
0.0
  0
VERTEX
  5
984
  8
DATA
 62
     7
 10
238.25
 20
32.25
 30
0.0
  0
SEQEND
  5
985
  8
DATA
 62
     7
  0
POLYLINE
  5
23C
  8
DATA
 62
     7
 66
     1
 10
0.0
 20
0.0
 30
0.0
  0
VERTEX
  5
986
  8
DATA
 62
     7
 10
238.75
 20
31.75
 30
0.0
  0
VERTEX
  5
987
  8
DATA
 62
     7
 10
238.75
 20
30.5
 30
0.0
  0
VERTEX
  5
988
  8
DATA
 62
     7
 10
238.25
 20
30.5
 30
0.0
  0
VERTEX
  5
989
  8
DATA
 62
     7
 10
238.25
 20
31.75
 30
0.0
  0
SEQEND
  5
98A
  8
DATA
 62
     7
  0
CIRCLE
  5
242
  8
DATA
 62
     7
 10
257.5
 20
8.0
 30
0.0
 40
2.5
  0
POLYLINE
  5
243
  8
DATA
 62
     7
 66
     1
 10
0.0
 20
0.0
 30
0.0
  0
VERTEX
  5
98B
  8
DATA
 62
     7
 10
257.75
 20
7.75
 30
0.0
  0
VERTEX
  5
98C
  8
DATA
 62
     7
 10
259.0
 20
7.75
 30
0.0
  0
VERTEX
  5
98D
  8
DATA
 62
     7
 10
259.0
 20
8.25
 30
0.0
  0
VERTEX
  5
98E
  8
DATA
 62
     7
 10
257.75
 20
8.25
 30
0.0
  0
SEQEND
  5
98F
  8
DATA
 62
     7
  0
POLYLINE
  5
249
  8
DATA
 62
     7
 66
     1
 10
0.0
 20
0.0
 30
0.0
  0
VERTEX
  5
990
  8
DATA
 62
     7
 10
257.25
 20
7.75
 30
0.0
  0
VERTEX
  5
991
  8
DATA
 62
     7
 10
256.0
 20
7.75
 30
0.0
  0
VERTEX
  5
992
  8
DATA
 62
     7
 10
256.0
 20
8.25
 30
0.0
  0
VERTEX
  5
993
  8
DATA
 62
     7
 10
257.25
 20
8.25
 30
0.0
  0
SEQEND
  5
994
  8
DATA
 62
     7
  0
POLYLINE
  5
24F
  8
DATA
 62
     7
 66
     1
 10
0.0
 20
0.0
 30
0.0
  0
VERTEX
  5
995
  8
DATA
 62
     7
 10
257.75
 20
8.25
 30
0.0
  0
VERTEX
  5
996
  8
DATA
 62
     7
 10
257.75
 20
9.5
 30
0.0
  0
VERTEX
  5
997
  8
DATA
 62
     7
 10
257.25
 20
9.5
 30
0.0
  0
VERTEX
  5
998
  8
DATA
 62
     7
 10
257.25
 20
8.25
 30
0.0
  0
SEQEND
  5
999
  8
DATA
 62
     7
  0
POLYLINE
  5
255
  8
DATA
 62
     7
 66
     1
 10
0.0
 20
0.0
 30
0.0
  0
VERTEX
  5
99A
  8
DATA
 62
     7
 10
257.75
 20
7.75
 30
0.0
  0
VERTEX
  5
99B
  8
DATA
 62
     7
 10
257.75
 20
6.5
 30
0.0
  0
VERTEX
  5
99C
  8
DATA
 62
     7
 10
257.25
 20
6.5
 30
0.0
  0
VERTEX
  5
99D
  8
DATA
 62
     7
 10
257.25
 20
7.75
 30
0.0
  0
SEQEND
  5
99E
  8
DATA
 62
     7
  0
POLYLINE
  5
25B
  8
DATA
 62
     7
 66
     1
 10
0.0
 20
0.0
 30
0.0
 70
     1
  0
VERTEX
  5
99F
  8
DATA
 62
     7
 10
269.5
 20
15.0
 30
0.0
  0
VERTEX
  5
9A0
  8
DATA
 62
     7
 10
278.5
 20
15.0
 30
0.0
  0
VERTEX
  5
9A1
  8
DATA
 62
     7
 10
278.5
 20
10.0
 30
0.0
  0
VERTEX
  5
9A2
  8
DATA
 62
     7
 10
269.5
 20
10.0
 30
0.0
  0
SEQEND
  5
9A3
  8
DATA
 62
     7
  0
LINE
  5
261
  8
DATA
 62
     7
 10
272.0
 20
16.5
 30
0.0
 11
276.0
 21
16.5
 31
0.0
  0
LINE
  5
262
  8
DATA
 62
     7
 10
272.0
 20
16.5
 30
0.0
 11
272.0
 21
17.0
 31
0.0
  0
LINE
  5
263
  8
DATA
 62
     7
 10
272.75
 20
18.0
 30
0.0
 11
275.25
 21
18.0
 31
0.0
  0
LINE
  5
264
  8
DATA
 62
     7
 10
272.75
 20
18.0
 30
0.0
 11
272.75
 21
17.0
 31
0.0
  0
LINE
  5
265
  8
DATA
 62
     7
 10
275.25
 20
18.0
 30
0.0
 11
275.25
 21
17.0
 31
0.0
  0
LINE
  5
266
  8
DATA
 62
     7
 10
276.0
 20
16.5
 30
0.0
 11
276.0
 21
17.0
 31
0.0
  0
LINE
  5
267
  8
DATA
 62
     7
 10
272.0
 20
17.0
 30
0.0
 11
272.75
 21
17.0
 31
0.0
  0
LINE
  5
268
  8
DATA
 62
     7
 10
275.25
 20
17.0
 30
0.0
 11
276.0
 21
17.0
 31
0.0
  0
LINE
  5
269
  8
DATA
 62
     7
 10
272.0
 20
23.0
 30
0.0
 11
276.0
 21
23.0
 31
0.0
  0
LINE
  5
26A
  8
DATA
 62
     7
 10
272.0
 20
23.0
 30
0.0
 11
272.0
 21
23.5
 31
0.0
  0
LINE
  5
26B
  8
DATA
 62
     7
 10
272.75
 20
25.0
 30
0.0
 11
275.25
 21
25.0
 31
0.0
  0
LINE
  5
26C
  8
DATA
 62
     7
 10
272.75
 20
25.0
 30
0.0
 11
272.75
 21
23.5
 31
0.0
  0
LINE
  5
26D
  8
DATA
 62
     7
 10
275.25
 20
25.0
 30
0.0
 11
275.25
 21
23.5
 31
0.0
  0
LINE
  5
26E
  8
DATA
 62
     7
 10
276.0
 20
23.0
 30
0.0
 11
276.0
 21
23.5
 31
0.0
  0
LINE
  5
26F
  8
DATA
 62
     7
 10
272.0
 20
23.5
 30
0.0
 11
272.75
 21
23.5
 31
0.0
  0
LINE
  5
270
  8
DATA
 62
     7
 10
275.25
 20
23.5
 30
0.0
 11
276.0
 21
23.5
 31
0.0
  0
TEXT
  5
271
  8
DATA
 62
     7
 10
271.2499999867544
 20
19.100000000000001
 30
0.0
 40
2.3999999999999999
  1
8kHz
 41
0.8
 11
271.2499999867544
 21
21.5
 31
0.0
 73
     3
  0
TEXT
  5
272
  8
DATA
 62
     7
 10
271.75000002152387
 20
26.600000000000001
 30
0.0
 40
2.3999999999999999
  1
OUT
 41
0.8
 11
271.75000002152387
 21
29.0
 31
0.0
 73
     3
  0
TEXT
  5
273
  8
DATA
 62
     7
 10
267.25000002152387
 20
6.5999999999999988
 30
0.0
 40
2.3999999999999999
  1
HF FILTER
 41
0.8
 11
267.25000002152387
 21
9.0
 31
0.0
 73
     3
  0
LINE
  5
274
  8
DATA
 62
     7
 10
235.5
 20
5.0
 30
0.0
 11
327.0
 21
5.0
 31
0.0
  0
LINE
  5
275
  8
DATA
 62
     7
 10
235.5
 20
39.0
 30
0.0
 11
266.0
 21
39.0
 31
0.0
  0
LINE
  5
276
  8
DATA
 62
     7
 10
270.0
 20
39.0
 30
0.0
 11
327.0
 21
39.0
 31
0.0
  0
LINE
  5
277
  8
DATA
 62
     7
 10
233.5
 20
37.0
 30
0.0
 11
233.5
 21
7.0
 31
0.0
  0
ARC
  5
278
  8
DATA
 62
     7
 10
235.5
 20
37.0
 30
0.0
 40
2.0
 50
90.0
 51
180.0
  0
ARC
  5
279
  8
DATA
 62
     7
 10
235.5
 20
7.0
 30
0.0
 40
2.0
 50
180.0
 51
270.0
  0
LINE
  5
27A
  8
DATA
 62
     7
 10
329.0
 20
37.0
 30
0.0
 11
329.0
 21
34.0
 31
0.0
  0
LINE
  5
27B
  8
DATA
 62
     7
 10
329.0
 20
34.0
 30
0.0
 11
329.0
 21
7.0
 31
0.0
  0
ARC
  5
27C
  8
DATA
 62
     7
 10
327.0
 20
37.0
 30
0.0
 40
2.0
 50
0.0
 51
90.0
  0
ARC
  5
27D
  8
DATA
 62
     7
 10
327.0
 20
7.0
 30
0.0
 40
2.0
 50
270.0
 51
0.0
  0
LINE
  5
27E
  8
DATA
 62
     7
 10
268.0
 20
37.0
 30
0.0
 11
268.0
 21
34.0
 31
0.0
  0
LINE
  5
27F
  8
DATA
 62
     7
 10
270.0
 20
32.0
 30
0.0
 11
327.0
 21
32.0
 31
0.0
  0
ARC
  5
280
  8
DATA
 62
     7
 10
270.0
 20
34.0
 30
0.0
 40
2.0
 50
180.0
 51
270.0
  0
ARC
  5
281
  8
DATA
 62
     7
 10
327.0
 20
34.0
 30
0.0
 40
2.0
 50
270.0
 51
0.0
  0
ARC
  5
282
  8
DATA
 62
     7
 10
266.0
 20
37.0
 30
0.0
 40
2.0
 50
0.0
 51
90.0
  0
ARC
  5
283
  8
DATA
 62
     7
 10
270.0
 20
37.0
 30
0.0
 40
2.0
 50
90.0
 51
180.0
  0
POLYLINE
  5
284
  8
DATA
 62
     7
 66
     1
 10
0.0
 20
0.0
 30
0.0
 70
     1
  0
VERTEX
  5
9A4
  8
DATA
 62
     7
 10
288.0
 20
15.0
 30
0.0
  0
VERTEX
  5
9A5
  8
DATA
 62
     7
 10
297.0
 20
15.0
 30
0.0
  0
VERTEX
  5
9A6
  8
DATA
 62
     7
 10
297.0
 20
10.0
 30
0.0
  0
VERTEX
  5
9A7
  8
DATA
 62
     7
 10
288.0
 20
10.0
 30
0.0
  0
SEQEND
  5
9A8
  8
DATA
 62
     7
  0
LINE
  5
28A
  8
DATA
 62
     7
 10
290.5
 20
16.5
 30
0.0
 11
294.5
 21
16.5
 31
0.0
  0
LINE
  5
28B
  8
DATA
 62
     7
 10
290.5
 20
16.5
 30
0.0
 11
290.5
 21
17.0
 31
0.0
  0
LINE
  5
28C
  8
DATA
 62
     7
 10
291.25
 20
18.0
 30
0.0
 11
293.75
 21
18.0
 31
0.0
  0
LINE
  5
28D
  8
DATA
 62
     7
 10
291.25
 20
18.0
 30
0.0
 11
291.25
 21
17.0
 31
0.0
  0
LINE
  5
28E
  8
DATA
 62
     7
 10
293.75
 20
18.0
 30
0.0
 11
293.75
 21
17.0
 31
0.0
  0
LINE
  5
28F
  8
DATA
 62
     7
 10
294.5
 20
16.5
 30
0.0
 11
294.5
 21
17.0
 31
0.0
  0
LINE
  5
290
  8
DATA
 62
     7
 10
290.5
 20
17.0
 30
0.0
 11
291.25
 21
17.0
 31
0.0
  0
LINE
  5
291
  8
DATA
 62
     7
 10
293.75
 20
17.0
 30
0.0
 11
294.5
 21
17.0
 31
0.0
  0
LINE
  5
292
  8
DATA
 62
     7
 10
290.5
 20
23.0
 30
0.0
 11
294.5
 21
23.0
 31
0.0
  0
LINE
  5
293
  8
DATA
 62
     7
 10
290.5
 20
23.0
 30
0.0
 11
290.5
 21
23.5
 31
0.0
  0
LINE
  5
294
  8
DATA
 62
     7
 10
291.25
 20
25.0
 30
0.0
 11
293.75
 21
25.0
 31
0.0
  0
LINE
  5
295
  8
DATA
 62
     7
 10
291.25
 20
25.0
 30
0.0
 11
291.25
 21
23.5
 31
0.0
  0
LINE
  5
296
  8
DATA
 62
     7
 10
293.75
 20
25.0
 30
0.0
 11
293.75
 21
23.5
 31
0.0
  0
LINE
  5
297
  8
DATA
 62
     7
 10
294.5
 20
23.0
 30
0.0
 11
294.5
 21
23.5
 31
0.0
  0
LINE
  5
298
  8
DATA
 62
     7
 10
290.5
 20
23.5
 30
0.0
 11
291.25
 21
23.5
 31
0.0
  0
LINE
  5
299
  8
DATA
 62
     7
 10
293.75
 20
23.5
 30
0.0
 11
294.5
 21
23.5
 31
0.0
  0
TEXT
  5
29A
  8
DATA
 62
     7
 10
287.63975693119892
 20
19.100000000000001
 30
0.0
 40
2.3999999999999999
  1
REVERSE
 41
0.8
 11
287.63975693119892
 21
21.5
 31
0.0
 73
     3
  0
TEXT
  5
29B
  8
DATA
 62
     7
 10
288.63975696596839
 20
26.600000000000001
 30
0.0
 40
2.3999999999999999
  1
NORMAL
 41
0.8
 11
288.63975696596839
 21
29.0
 31
0.0
 73
     3
  0
TEXT
  5
29C
  8
DATA
 62
     7
 10
286.75000002152387
 20
6.5999999999999988
 30
0.0
 40
2.3999999999999999
  1
POLARITY
 41
0.8
 11
286.75000002152387
 21
9.0
 31
0.0
 73
     3
  0
POLYLINE
  5
29D
  8
DATA
 62
     7
 66
     1
 10
0.0
 20
0.0
 30
0.0
 70
     1
  0
VERTEX
  5
9A9
  8
DATA
 62
     7
 10
306.5
 20
15.0
 30
0.0
  0
VERTEX
  5
9AA
  8
DATA
 62
     7
 10
315.5
 20
15.0
 30
0.0
  0
VERTEX
  5
9AB
  8
DATA
 62
     7
 10
315.5
 20
10.0
 30
0.0
  0
VERTEX
  5
9AC
  8
DATA
 62
     7
 10
306.5
 20
10.0
 30
0.0
  0
SEQEND
  5
9AD
  8
DATA
 62
     7
  0
LINE
  5
2A3
  8
DATA
 62
     7
 10
309.0
 20
16.5
 30
0.0
 11
313.0
 21
16.5
 31
0.0
  0
LINE
  5
2A4
  8
DATA
 62
     7
 10
309.0
 20
16.5
 30
0.0
 11
309.0
 21
17.0
 31
0.0
  0
LINE
  5
2A5
  8
DATA
 62
     7
 10
309.75
 20
18.0
 30
0.0
 11
312.25
 21
18.0
 31
0.0
  0
LINE
  5
2A6
  8
DATA
 62
     7
 10
309.75
 20
18.0
 30
0.0
 11
309.75
 21
17.0
 31
0.0
  0
LINE
  5
2A7
  8
DATA
 62
     7
 10
312.25
 20
18.0
 30
0.0
 11
312.25
 21
17.0
 31
0.0
  0
LINE
  5
2A8
  8
DATA
 62
     7
 10
313.0
 20
16.5
 30
0.0
 11
313.0
 21
17.0
 31
0.0
  0
LINE
  5
2A9
  8
DATA
 62
     7
 10
309.0
 20
17.0
 30
0.0
 11
309.75
 21
17.0
 31
0.0
  0
LINE
  5
2AA
  8
DATA
 62
     7
 10
312.25
 20
17.0
 30
0.0
 11
313.0
 21
17.0
 31
0.0
  0
LINE
  5
2AB
  8
DATA
 62
     7
 10
309.0
 20
23.0
 30
0.0
 11
313.0
 21
23.0
 31
0.0
  0
LINE
  5
2AC
  8
DATA
 62
     7
 10
309.0
 20
23.0
 30
0.0
 11
309.0
 21
23.5
 31
0.0
  0
LINE
  5
2AD
  8
DATA
 62
     7
 10
309.75
 20
25.0
 30
0.0
 11
312.25
 21
25.0
 31
0.0
  0
LINE
  5
2AE
  8
DATA
 62
     7
 10
309.75
 20
25.0
 30
0.0
 11
309.75
 21
23.5
 31
0.0
  0
LINE
  5
2AF
  8
DATA
 62
     7
 10
312.25
 20
25.0
 30
0.0
 11
312.25
 21
23.5
 31
0.0
  0
LINE
  5
2B0
  8
DATA
 62
     7
 10
313.0
 20
23.0
 30
0.0
 11
313.0
 21
23.5
 31
0.0
  0
LINE
  5
2B1
  8
DATA
 62
     7
 10
309.0
 20
23.5
 30
0.0
 11
309.75
 21
23.5
 31
0.0
  0
LINE
  5
2B2
  8
DATA
 62
     7
 10
312.25
 20
23.5
 30
0.0
 11
313.0
 21
23.5
 31
0.0
  0
TEXT
  5
2B3
  8
DATA
 62
     7
 10
306.74999998675452
 20
19.100000000000001
 30
0.0
 40
2.3999999999999999
  1
LIFTED
 41
0.8
 11
306.74999998675452
 21
21.5
 31
0.0
 73
     3
  0
TEXT
  5
2B4
  8
DATA
 62
     7
 10
306.13975696596839
 20
26.600000000000001
 30
0.0
 40
2.3999999999999999
  1
EARTHED
 41
0.8
 11
306.13975696596839
 21
29.0
 31
0.0
 73
     3
  0
TEXT
  5
2B5
  8
DATA
 62
     7
 10
307.63975696596839
 20
6.5999999999999988
 30
0.0
 40
2.3999999999999999
  1
EARTH
 41
0.8
 11
307.63975696596839
 21
9.0
 31
0.0
 73
     3
  0
POLYLINE
  5
2B6
  8
DATA
 62
     7
 66
     1
 10
0.0
 20
0.0
 30
0.0
 70
     1
  0
VERTEX
  5
9AE
  8
DATA
 62
     7
 10
324.0
 20
14.0
 30
0.0
  0
VERTEX
  5
9AF
  8
DATA
 62
     7
 10
327.0
 20
14.0
 30
0.0
  0
VERTEX
  5
9B0
  8
DATA
 62
     7
 10
327.0
 20
11.0
 30
0.0
  0
VERTEX
  5
9B1
  8
DATA
 62
     7
 10
324.0
 20
11.0
 30
0.0
  0
SEQEND
  5
9B2
  8
DATA
 62
     7
  0
LINE
  5
2BC
  8
DATA
 62
     7
 10
325.5
 20
14.0
 30
0.0
 11
325.5
 21
26.0
 31
0.0
  0
LINE
  5
2BD
  8
DATA
 62
     7
 10
323.5
 20
28.0
 30
0.0
 11
317.5
 21
28.0
 31
0.0
  0
ARC
  5
2BE
  8
DATA
 62
     7
 10
323.5
 20
26.0
 30
0.0
 40
2.0
 50
0.0
 51
90.0
  0
TEXT
  5
2BF
  8
DATA
 62
     7
 10
243.75000002152399
 20
34.100000000000001
 30
0.0
 40
2.3999999999999999
  1
OUTPUT
 41
0.8
 11
243.75000002152399
 21
36.5
 31
0.0
 73
     3
  0
CIRCLE
  5
2C0
  8
DATA
 62
     7
 10
346.5
 20
20.0
 30
0.0
 40
11.75
  0
CIRCLE
  5
2C1
  8
DATA
 62
     7
 10
346.5
 20
20.0
 30
0.0
 40
9.75
  0
ARC
  5
2C2
  8
DATA
 62
     7
 10
346.5
 20
20.0
 30
0.0
 40
7.9999999999999796
 50
48.581569318657898
 51
41.418430681342649
  0
CIRCLE
  5
2C3
  8
DATA
 62
     7
 10
342.5
 20
20.0
 30
0.0
 40
1.249999999999976
  0
CIRCLE
  5
2C4
  8
DATA
 62
     7
 10
346.5
 20
16.0
 30
0.0
 40
1.249999999999976
  0
CIRCLE
  5
2C5
  8
DATA
 62
     7
 10
350.5
 20
20.0
 30
0.0
 40
1.249999999999976
  0
LINE
  5
2C6
  8
DATA
 62
     7
 10
343.5
 20
29.276987657639719
 30
0.0
 11
343.5
 21
31.36056776750177
 31
0.0
  0
LINE
  5
2C7
  8
DATA
 62
     7
 10
349.5
 20
29.276987657639719
 30
0.0
 11
349.5
 21
31.36056776750177
 31
0.0
  0
ARC
  5
2C8
  8
DATA
 62
     7
 10
352.15685424949231
 20
25.656854249492369
 30
0.0
 40
0.4999999999999575
 50
313.2092153406752
 51
136.7907846593248
  0
CIRCLE
  5
2C9
  8
DATA
 62
     7
 10
337.0
 20
32.0
 30
0.0
 40
2.5
  0
POLYLINE
  5
2CA
  8
DATA
 62
     7
 66
     1
 10
0.0
 20
0.0
 30
0.0
  0
VERTEX
  5
9B3
  8
DATA
 62
     7
 10
337.25
 20
31.75
 30
0.0
  0
VERTEX
  5
9B4
  8
DATA
 62
     7
 10
338.5
 20
31.75
 30
0.0
  0
VERTEX
  5
9B5
  8
DATA
 62
     7
 10
338.5
 20
32.25
 30
0.0
  0
VERTEX
  5
9B6
  8
DATA
 62
     7
 10
337.25
 20
32.25
 30
0.0
  0
SEQEND
  5
9B7
  8
DATA
 62
     7
  0
POLYLINE
  5
2D0
  8
DATA
 62
     7
 66
     1
 10
0.0
 20
0.0
 30
0.0
  0
VERTEX
  5
9B8
  8
DATA
 62
     7
 10
336.75
 20
31.75
 30
0.0
  0
VERTEX
  5
9B9
  8
DATA
 62
     7
 10
335.5
 20
31.75
 30
0.0
  0
VERTEX
  5
9BA
  8
DATA
 62
     7
 10
335.5
 20
32.25
 30
0.0
  0
VERTEX
  5
9BB
  8
DATA
 62
     7
 10
336.75
 20
32.25
 30
0.0
  0
SEQEND
  5
9BC
  8
DATA
 62
     7
  0
POLYLINE
  5
2D6
  8
DATA
 62
     7
 66
     1
 10
0.0
 20
0.0
 30
0.0
  0
VERTEX
  5
9BD
  8
DATA
 62
     7
 10
337.25
 20
32.25
 30
0.0
  0
VERTEX
  5
9BE
  8
DATA
 62
     7
 10
337.25
 20
33.5
 30
0.0
  0
VERTEX
  5
9BF
  8
DATA
 62
     7
 10
336.75
 20
33.5
 30
0.0
  0
VERTEX
  5
9C0
  8
DATA
 62
     7
 10
336.75
 20
32.25
 30
0.0
  0
SEQEND
  5
9C1
  8
DATA
 62
     7
  0
POLYLINE
  5
2DC
  8
DATA
 62
     7
 66
     1
 10
0.0
 20
0.0
 30
0.0
  0
VERTEX
  5
9C2
  8
DATA
 62
     7
 10
337.25
 20
31.75
 30
0.0
  0
VERTEX
  5
9C3
  8
DATA
 62
     7
 10
337.25
 20
30.5
 30
0.0
  0
VERTEX
  5
9C4
  8
DATA
 62
     7
 10
336.75
 20
30.5
 30
0.0
  0
VERTEX
  5
9C5
  8
DATA
 62
     7
 10
336.75
 20
31.75
 30
0.0
  0
SEQEND
  5
9C6
  8
DATA
 62
     7
  0
CIRCLE
  5
2E2
  8
DATA
 62
     7
 10
356.0
 20
8.0
 30
0.0
 40
2.5
  0
POLYLINE
  5
2E3
  8
DATA
 62
     7
 66
     1
 10
0.0
 20
0.0
 30
0.0
  0
VERTEX
  5
9C7
  8
DATA
 62
     7
 10
356.25
 20
7.75
 30
0.0
  0
VERTEX
  5
9C8
  8
DATA
 62
     7
 10
357.5
 20
7.75
 30
0.0
  0
VERTEX
  5
9C9
  8
DATA
 62
     7
 10
357.5
 20
8.25
 30
0.0
  0
VERTEX
  5
9CA
  8
DATA
 62
     7
 10
356.25
 20
8.25
 30
0.0
  0
SEQEND
  5
9CB
  8
DATA
 62
     7
  0
POLYLINE
  5
2E9
  8
DATA
 62
     7
 66
     1
 10
0.0
 20
0.0
 30
0.0
  0
VERTEX
  5
9CC
  8
DATA
 62
     7
 10
355.75
 20
7.75
 30
0.0
  0
VERTEX
  5
9CD
  8
DATA
 62
     7
 10
354.5
 20
7.75
 30
0.0
  0
VERTEX
  5
9CE
  8
DATA
 62
     7
 10
354.5
 20
8.25
 30
0.0
  0
VERTEX
  5
9CF
  8
DATA
 62
     7
 10
355.75
 20
8.25
 30
0.0
  0
SEQEND
  5
9D0
  8
DATA
 62
     7
  0
POLYLINE
  5
2EF
  8
DATA
 62
     7
 66
     1
 10
0.0
 20
0.0
 30
0.0
  0
VERTEX
  5
9D1
  8
DATA
 62
     7
 10
356.25
 20
8.25
 30
0.0
  0
VERTEX
  5
9D2
  8
DATA
 62
     7
 10
356.25
 20
9.5
 30
0.0
  0
VERTEX
  5
9D3
  8
DATA
 62
     7
 10
355.75
 20
9.5
 30
0.0
  0
VERTEX
  5
9D4
  8
DATA
 62
     7
 10
355.75
 20
8.25
 30
0.0
  0
SEQEND
  5
9D5
  8
DATA
 62
     7
  0
POLYLINE
  5
2F5
  8
DATA
 62
     7
 66
     1
 10
0.0
 20
0.0
 30
0.0
  0
VERTEX
  5
9D6
  8
DATA
 62
     7
 10
356.25
 20
7.75
 30
0.0
  0
VERTEX
  5
9D7
  8
DATA
 62
     7
 10
356.25
 20
6.5
 30
0.0
  0
VERTEX
  5
9D8
  8
DATA
 62
     7
 10
355.75
 20
6.5
 30
0.0
  0
VERTEX
  5
9D9
  8
DATA
 62
     7
 10
355.75
 20
7.75
 30
0.0
  0
SEQEND
  5
9DA
  8
DATA
 62
     7
  0
POLYLINE
  5
2FB
  8
DATA
 62
     7
 66
     1
 10
0.0
 20
0.0
 30
0.0
 70
     1
  0
VERTEX
  5
9DB
  8
DATA
 62
     7
 10
368.0
 20
15.0
 30
0.0
  0
VERTEX
  5
9DC
  8
DATA
 62
     7
 10
377.0
 20
15.0
 30
0.0
  0
VERTEX
  5
9DD
  8
DATA
 62
     7
 10
377.0
 20
10.0
 30
0.0
  0
VERTEX
  5
9DE
  8
DATA
 62
     7
 10
368.0
 20
10.0
 30
0.0
  0
SEQEND
  5
9DF
  8
DATA
 62
     7
  0
LINE
  5
301
  8
DATA
 62
     7
 10
370.5
 20
16.5
 30
0.0
 11
374.5
 21
16.5
 31
0.0
  0
LINE
  5
302
  8
DATA
 62
     7
 10
370.5
 20
16.5
 30
0.0
 11
370.5
 21
17.0
 31
0.0
  0
LINE
  5
303
  8
DATA
 62
     7
 10
371.25
 20
18.0
 30
0.0
 11
373.75
 21
18.0
 31
0.0
  0
LINE
  5
304
  8
DATA
 62
     7
 10
371.25
 20
18.0
 30
0.0
 11
371.25
 21
17.0
 31
0.0
  0
LINE
  5
305
  8
DATA
 62
     7
 10
373.75
 20
18.0
 30
0.0
 11
373.75
 21
17.0
 31
0.0
  0
LINE
  5
306
  8
DATA
 62
     7
 10
374.5
 20
16.5
 30
0.0
 11
374.5
 21
17.0
 31
0.0
  0
LINE
  5
307
  8
DATA
 62
     7
 10
370.5
 20
17.0
 30
0.0
 11
371.25
 21
17.0
 31
0.0
  0
LINE
  5
308
  8
DATA
 62
     7
 10
373.75
 20
17.0
 30
0.0
 11
374.5
 21
17.0
 31
0.0
  0
LINE
  5
309
  8
DATA
 62
     7
 10
370.5
 20
23.0
 30
0.0
 11
374.5
 21
23.0
 31
0.0
  0
LINE
  5
30A
  8
DATA
 62
     7
 10
370.5
 20
23.0
 30
0.0
 11
370.5
 21
23.5
 31
0.0
  0
LINE
  5
30B
  8
DATA
 62
     7
 10
371.25
 20
25.0
 30
0.0
 11
373.75
 21
25.0
 31
0.0
  0
LINE
  5
30C
  8
DATA
 62
     7
 10
371.25
 20
25.0
 30
0.0
 11
371.25
 21
23.5
 31
0.0
  0
LINE
  5
30D
  8
DATA
 62
     7
 10
373.75
 20
25.0
 30
0.0
 11
373.75
 21
23.5
 31
0.0
  0
LINE
  5
30E
  8
DATA
 62
     7
 10
374.5
 20
23.0
 30
0.0
 11
374.5
 21
23.5
 31
0.0
  0
LINE
  5
30F
  8
DATA
 62
     7
 10
370.5
 20
23.5
 30
0.0
 11
371.25
 21
23.5
 31
0.0
  0
LINE
  5
310
  8
DATA
 62
     7
 10
373.75
 20
23.5
 30
0.0
 11
374.5
 21
23.5
 31
0.0
  0
TEXT
  5
311
  8
DATA
 62
     7
 10
369.74999998675452
 20
19.100000000000001
 30
0.0
 40
2.3999999999999999
  1
8kHz
 41
0.8
 11
369.74999998675452
 21
21.5
 31
0.0
 73
     3
  0
TEXT
  5
312
  8
DATA
 62
     7
 10
370.25000002152399
 20
26.600000000000001
 30
0.0
 40
2.3999999999999999
  1
OUT
 41
0.8
 11
370.25000002152399
 21
29.0
 31
0.0
 73
     3
  0
TEXT
  5
313
  8
DATA
 62
     7
 10
365.75000002152399
 20
6.5999999999999988
 30
0.0
 40
2.3999999999999999
  1
HF FILTER
 41
0.8
 11
365.75000002152399
 21
9.0
 31
0.0
 73
     3
  0
LINE
  5
314
  8
DATA
 62
     7
 10
334.0
 20
5.0
 30
0.0
 11
425.49999999999989
 21
5.0
 31
0.0
  0
LINE
  5
315
  8
DATA
 62
     7
 10
334.0
 20
39.0
 30
0.0
 11
364.5
 21
39.0
 31
0.0
  0
LINE
  5
316
  8
DATA
 62
     7
 10
368.5
 20
39.0
 30
0.0
 11
425.49999999999989
 21
39.0
 31
0.0
  0
LINE
  5
317
  8
DATA
 62
     7
 10
332.0
 20
37.0
 30
0.0
 11
332.0
 21
7.0
 31
0.0
  0
ARC
  5
318
  8
DATA
 62
     7
 10
334.0
 20
37.0
 30
0.0
 40
2.0
 50
90.0
 51
180.0
  0
ARC
  5
319
  8
DATA
 62
     7
 10
334.0
 20
7.0
 30
0.0
 40
2.0
 50
180.0
 51
270.0
  0
LINE
  5
31A
  8
DATA
 62
     7
 10
427.5
 20
37.0
 30
0.0
 11
427.5
 21
34.0
 31
0.0
  0
LINE
  5
31B
  8
DATA
 62
     7
 10
427.5
 20
34.0
 30
0.0
 11
427.5
 21
7.0
 31
0.0
  0
ARC
  5
31C
  8
DATA
 62
     7
 10
425.49999999999989
 20
37.0
 30
0.0
 40
2.0
 50
0.0
 51
90.0
  0
ARC
  5
31D
  8
DATA
 62
     7
 10
425.49999999999989
 20
7.0
 30
0.0
 40
2.0
 50
270.0
 51
0.0
  0
LINE
  5
31E
  8
DATA
 62
     7
 10
366.5
 20
37.0
 30
0.0
 11
366.5
 21
34.0
 31
0.0
  0
LINE
  5
31F
  8
DATA
 62
     7
 10
368.5
 20
32.0
 30
0.0
 11
425.49999999999989
 21
32.0
 31
0.0
  0
ARC
  5
320
  8
DATA
 62
     7
 10
368.5
 20
34.0
 30
0.0
 40
2.0
 50
180.0
 51
270.0
  0
ARC
  5
321
  8
DATA
 62
     7
 10
425.49999999999989
 20
34.0
 30
0.0
 40
2.0
 50
270.0
 51
0.0
  0
ARC
  5
322
  8
DATA
 62
     7
 10
364.5
 20
37.0
 30
0.0
 40
2.0
 50
0.0
 51
90.0
  0
ARC
  5
323
  8
DATA
 62
     7
 10
368.5
 20
37.0
 30
0.0
 40
2.0
 50
90.0
 51
180.0
  0
POLYLINE
  5
324
  8
DATA
 62
     7
 66
     1
 10
0.0
 20
0.0
 30
0.0
 70
     1
  0
VERTEX
  5
9E0
  8
DATA
 62
     7
 10
386.5
 20
15.0
 30
0.0
  0
VERTEX
  5
9E1
  8
DATA
 62
     7
 10
395.5
 20
15.0
 30
0.0
  0
VERTEX
  5
9E2
  8
DATA
 62
     7
 10
395.5
 20
10.0
 30
0.0
  0
VERTEX
  5
9E3
  8
DATA
 62
     7
 10
386.5
 20
10.0
 30
0.0
  0
SEQEND
  5
9E4
  8
DATA
 62
     7
  0
LINE
  5
32A
  8
DATA
 62
     7
 10
389.0
 20
16.5
 30
0.0
 11
393.0
 21
16.5
 31
0.0
  0
LINE
  5
32B
  8
DATA
 62
     7
 10
389.0
 20
16.5
 30
0.0
 11
389.0
 21
17.0
 31
0.0
  0
LINE
  5
32C
  8
DATA
 62
     7
 10
389.75
 20
18.0
 30
0.0
 11
392.25
 21
18.0
 31
0.0
  0
LINE
  5
32D
  8
DATA
 62
     7
 10
389.75
 20
18.0
 30
0.0
 11
389.75
 21
17.0
 31
0.0
  0
LINE
  5
32E
  8
DATA
 62
     7
 10
392.25
 20
18.0
 30
0.0
 11
392.25
 21
17.0
 31
0.0
  0
LINE
  5
32F
  8
DATA
 62
     7
 10
393.0
 20
16.5
 30
0.0
 11
393.0
 21
17.0
 31
0.0
  0
LINE
  5
330
  8
DATA
 62
     7
 10
389.0
 20
17.0
 30
0.0
 11
389.75
 21
17.0
 31
0.0
  0
LINE
  5
331
  8
DATA
 62
     7
 10
392.25
 20
17.0
 30
0.0
 11
393.0
 21
17.0
 31
0.0
  0
LINE
  5
332
  8
DATA
 62
     7
 10
389.0
 20
23.0
 30
0.0
 11
393.0
 21
23.0
 31
0.0
  0
LINE
  5
333
  8
DATA
 62
     7
 10
389.0
 20
23.0
 30
0.0
 11
389.0
 21
23.5
 31
0.0
  0
LINE
  5
334
  8
DATA
 62
     7
 10
389.75
 20
25.0
 30
0.0
 11
392.25
 21
25.0
 31
0.0
  0
LINE
  5
335
  8
DATA
 62
     7
 10
389.75
 20
25.0
 30
0.0
 11
389.75
 21
23.5
 31
0.0
  0
LINE
  5
336
  8
DATA
 62
     7
 10
392.25
 20
25.0
 30
0.0
 11
392.25
 21
23.5
 31
0.0
  0
LINE
  5
337
  8
DATA
 62
     7
 10
393.0
 20
23.0
 30
0.0
 11
393.0
 21
23.5
 31
0.0
  0
LINE
  5
338
  8
DATA
 62
     7
 10
389.0
 20
23.5
 30
0.0
 11
389.75
 21
23.5
 31
0.0
  0
LINE
  5
339
  8
DATA
 62
     7
 10
392.25
 20
23.5
 30
0.0
 11
393.0
 21
23.5
 31
0.0
  0
TEXT
  5
33A
  8
DATA
 62
     7
 10
386.13975693119897
 20
19.100000000000001
 30
0.0
 40
2.3999999999999999
  1
REVERSE
 41
0.8
 11
386.13975693119897
 21
21.5
 31
0.0
 73
     3
  0
TEXT
  5
33B
  8
DATA
 62
     7
 10
387.13975696596827
 20
26.600000000000001
 30
0.0
 40
2.3999999999999999
  1
NORMAL
 41
0.8
 11
387.13975696596827
 21
29.0
 31
0.0
 73
     3
  0
TEXT
  5
33C
  8
DATA
 62
     7
 10
385.25000002152399
 20
6.5999999999999988
 30
0.0
 40
2.3999999999999999
  1
POLARITY
 41
0.8
 11
385.25000002152399
 21
9.0
 31
0.0
 73
     3
  0
POLYLINE
  5
33D
  8
DATA
 62
     7
 66
     1
 10
0.0
 20
0.0
 30
0.0
 70
     1
  0
VERTEX
  5
9E5
  8
DATA
 62
     7
 10
405.0
 20
15.0
 30
0.0
  0
VERTEX
  5
9E6
  8
DATA
 62
     7
 10
414.0
 20
15.0
 30
0.0
  0
VERTEX
  5
9E7
  8
DATA
 62
     7
 10
414.0
 20
10.0
 30
0.0
  0
VERTEX
  5
9E8
  8
DATA
 62
     7
 10
405.0
 20
10.0
 30
0.0
  0
SEQEND
  5
9E9
  8
DATA
 62
     7
  0
LINE
  5
343
  8
DATA
 62
     7
 10
407.5
 20
16.5
 30
0.0
 11
411.5
 21
16.5
 31
0.0
  0
LINE
  5
344
  8
DATA
 62
     7
 10
407.5
 20
16.5
 30
0.0
 11
407.5
 21
17.0
 31
0.0
  0
LINE
  5
345
  8
DATA
 62
     7
 10
408.25
 20
18.0
 30
0.0
 11
410.74999999999989
 21
18.0
 31
0.0
  0
LINE
  5
346
  8
DATA
 62
     7
 10
408.25
 20
18.0
 30
0.0
 11
408.25
 21
17.0
 31
0.0
  0
LINE
  5
347
  8
DATA
 62
     7
 10
410.74999999999989
 20
18.0
 30
0.0
 11
410.74999999999989
 21
17.0
 31
0.0
  0
LINE
  5
348
  8
DATA
 62
     7
 10
411.5
 20
16.5
 30
0.0
 11
411.5
 21
17.0
 31
0.0
  0
LINE
  5
349
  8
DATA
 62
     7
 10
407.5
 20
17.0
 30
0.0
 11
408.25
 21
17.0
 31
0.0
  0
LINE
  5
34A
  8
DATA
 62
     7
 10
410.74999999999989
 20
17.0
 30
0.0
 11
411.5
 21
17.0
 31
0.0
  0
LINE
  5
34B
  8
DATA
 62
     7
 10
407.5
 20
23.0
 30
0.0
 11
411.5
 21
23.0
 31
0.0
  0
LINE
  5
34C
  8
DATA
 62
     7
 10
407.5
 20
23.0
 30
0.0
 11
407.5
 21
23.5
 31
0.0
  0
LINE
  5
34D
  8
DATA
 62
     7
 10
408.25
 20
25.0
 30
0.0
 11
410.74999999999989
 21
25.0
 31
0.0
  0
LINE
  5
34E
  8
DATA
 62
     7
 10
408.25
 20
25.0
 30
0.0
 11
408.25
 21
23.5
 31
0.0
  0
LINE
  5
34F
  8
DATA
 62
     7
 10
410.74999999999989
 20
25.0
 30
0.0
 11
410.74999999999989
 21
23.5
 31
0.0
  0
LINE
  5
350
  8
DATA
 62
     7
 10
411.5
 20
23.0
 30
0.0
 11
411.5
 21
23.5
 31
0.0
  0
LINE
  5
351
  8
DATA
 62
     7
 10
407.5
 20
23.5
 30
0.0
 11
408.25
 21
23.5
 31
0.0
  0
LINE
  5
352
  8
DATA
 62
     7
 10
410.74999999999989
 20
23.5
 30
0.0
 11
411.5
 21
23.5
 31
0.0
  0
TEXT
  5
353
  8
DATA
 62
     7
 10
405.24999998675452
 20
19.100000000000001
 30
0.0
 40
2.3999999999999999
  1
LIFTED
 41
0.8
 11
405.24999998675452
 21
21.5
 31
0.0
 73
     3
  0
TEXT
  5
354
  8
DATA
 62
     7
 10
404.63975696596827
 20
26.600000000000001
 30
0.0
 40
2.3999999999999999
  1
EARTHED
 41
0.8
 11
404.63975696596827
 21
29.0
 31
0.0
 73
     3
  0
TEXT
  5
355
  8
DATA
 62
     7
 10
406.13975696596827
 20
6.5999999999999988
 30
0.0
 40
2.3999999999999999
  1
EARTH
 41
0.8
 11
406.13975696596827
 21
9.0
 31
0.0
 73
     3
  0
POLYLINE
  5
356
  8
DATA
 62
     7
 66
     1
 10
0.0
 20
0.0
 30
0.0
 70
     1
  0
VERTEX
  5
9EA
  8
DATA
 62
     7
 10
422.49999999999989
 20
14.0
 30
0.0
  0
VERTEX
  5
9EB
  8
DATA
 62
     7
 10
425.49999999999989
 20
14.0
 30
0.0
  0
VERTEX
  5
9EC
  8
DATA
 62
     7
 10
425.49999999999989
 20
11.0
 30
0.0
  0
VERTEX
  5
9ED
  8
DATA
 62
     7
 10
422.49999999999989
 20
11.0
 30
0.0
  0
SEQEND
  5
9EE
  8
DATA
 62
     7
  0
LINE
  5
35C
  8
DATA
 62
     7
 10
424.0
 20
14.0
 30
0.0
 11
424.0
 21
26.0
 31
0.0
  0
LINE
  5
35D
  8
DATA
 62
     7
 10
422.0
 20
28.0
 30
0.0
 11
416.0
 21
28.0
 31
0.0
  0
ARC
  5
35E
  8
DATA
 62
     7
 10
422.0
 20
26.0
 30
0.0
 40
2.0
 50
0.0
 51
90.0
  0
TEXT
  5
35F
  8
DATA
 62
     7
 10
342.25000002152387
 20
34.100000000000001
 30
0.0
 40
2.3999999999999999
  1
OUTPUT
 41
0.8
 11
342.25000002152387
 21
36.5
 31
0.0
 73
     3
  0
LINE
  5
360
  8
DATA
 62
     7
 10
431.5
 20
37.0
 30
0.0
 11
431.5
 21
7.0
 31
0.0
  0
LINE
  5
361
  8
DATA
 62
     7
 10
450.49999999999989
 20
37.0
 30
0.0
 11
450.49999999999989
 21
7.0
 31
0.0
  0
LINE
  5
362
  8
DATA
 62
     7
 10
433.49999999999989
 20
5.0
 30
0.0
 11
448.5
 21
5.0
 31
0.0
  0
LINE
  5
363
  8
DATA
 62
     7
 10
433.49999999999989
 20
39.0
 30
0.0
 11
448.5
 21
39.0
 31
0.0
  0
ARC
  5
364
  8
DATA
 62
     7
 10
433.49999999999989
 20
37.0
 30
0.0
 40
2.0
 50
90.0
 51
180.0
  0
ARC
  5
365
  8
DATA
 62
     7
 10
448.5
 20
37.0
 30
0.0
 40
2.0
 50
0.0
 51
90.0
  0
ARC
  5
366
  8
DATA
 62
     7
 10
433.49999999999989
 20
7.0
 30
0.0
 40
2.0
 50
180.0
 51
270.0
  0
ARC
  5
367
  8
DATA
 62
     7
 10
448.5
 20
7.0
 30
0.0
 40
2.0
 50
270.0
 51
0.0
  0
POLYLINE
  5
368
  8
DATA
 62
     7
 66
     1
 10
0.0
 20
0.0
 30
0.0
 70
     1
  0
VERTEX
  5
9EF
  8
DATA
 62
     7
 10
435.74999999999989
 20
30.75
 30
0.0
  0
VERTEX
  5
9F0
  8
DATA
 62
     7
 10
446.25
 20
30.75
 30
0.0
  0
VERTEX
  5
9F1
  8
DATA
 62
     7
 10
446.25
 20
15.25
 30
0.0
  0
VERTEX
  5
9F2
  8
DATA
 62
     7
 10
435.74999999999989
 20
15.25
 30
0.0
  0
SEQEND
  5
9F3
  8
DATA
 62
     7
  0
CIRCLE
  5
36E
  8
DATA
 62
     7
 10
441.0
 20
26.5
 30
0.0
 40
1.5
  0
LINE
  5
36F
  8
DATA
 62
     7
 10
441.0
 20
20.5
 30
0.0
 11
441.0
 21
16.5
 31
0.0
  0
TEXT
  5
370
  8
DATA
 62
     7
 10
437.25000010596381
 20
34.100000000000001
 30
0.0
 40
2.3999999999999999
  1
POWER
 41
0.8
 11
437.25000010596381
 21
36.5
 31
0.0
 73
     3
  0
POLYLINE
  5
371
  8
DATA
 62
     7
 66
     1
 10
0.0
 20
0.0
 30
0.0
 70
     1
  0
VERTEX
  5
9F4
  8
DATA
 62
     7
 10
439.5
 20
11.5
 30
0.0
  0
VERTEX
  5
9F5
  8
DATA
 62
     7
 10
442.49999999999989
 20
11.5
 30
0.0
  0
VERTEX
  5
9F6
  8
DATA
 62
     7
 10
442.49999999999989
 20
8.5
 30
0.0
  0
VERTEX
  5
9F7
  8
DATA
 62
     7
 10
439.5
 20
8.5
 30
0.0
  0
SEQEND
  5
9F8
  8
DATA
 62
     7
  0
LINE
  5
377
  8
DATA
 62
     7
 10
36.75
 20
42.5
 30
0.0
 11
43.25
 21
42.5
 31
0.0
  0
LINE
  5
378
  8
DATA
 62
     7
 10
36.75
 20
42.5
 30
0.0
 11
36.75
 21
43.0
 31
0.0
  0
LINE
  5
379
  8
DATA
 62
     7
 10
43.25
 20
42.5
 30
0.0
 11
43.25
 21
43.0
 31
0.0
  0
LINE
  5
37A
  8
DATA
 62
     7
 10
36.75
 20
43.0
 30
0.0
 11
43.25
 21
43.0
 31
0.0
  0
ARC
  5
37B
  8
DATA
 62
     7
 10
39.999999999999943
 20
40.374999999999893
 30
0.0
 40
3.6250000000001208
 50
46.397181027296973
 51
133.60281897270181
  0
LINE
  5
37C
  8
DATA
 62
     7
 10
228.75
 20
42.5
 30
0.0
 11
235.25
 21
42.5
 31
0.0
  0
LINE
  5
37D
  8
DATA
 62
     7
 10
228.75
 20
42.5
 30
0.0
 11
228.75
 21
43.0
 31
0.0
  0
LINE
  5
37E
  8
DATA
 62
     7
 10
235.25
 20
42.5
 30
0.0
 11
235.25
 21
43.0
 31
0.0
  0
LINE
  5
37F
  8
DATA
 62
     7
 10
228.75
 20
43.0
 30
0.0
 11
235.25
 21
43.0
 31
0.0
  0
ARC
  5
380
  8
DATA
 62
     7
 10
232.0
 20
40.374999999999893
 30
0.0
 40
3.6250000000001208
 50
46.397181027296973
 51
133.60281897270181
  0
LINE
  5
381
  8
DATA
 62
     7
 10
443.75
 20
42.5
 30
0.0
 11
450.25
 21
42.5
 31
0.0
  0
LINE
  5
382
  8
DATA
 62
     7
 10
443.75
 20
42.5
 30
0.0
 11
443.75
 21
43.0
 31
0.0
  0
LINE
  5
383
  8
DATA
 62
     7
 10
450.25
 20
42.5
 30
0.0
 11
450.25
 21
43.0
 31
0.0
  0
LINE
  5
384
  8
DATA
 62
     7
 10
443.75
 20
43.0
 30
0.0
 11
450.25
 21
43.0
 31
0.0
  0
ARC
  5
385
  8
DATA
 62
     7
 10
447.0
 20
40.374999999999893
 30
0.0
 40
3.6250000000001208
 50
46.397181027296973
 51
133.60281897270181
  0
LINE
  5
386
  8
DATA
 62
     7
 10
228.75
 20
1.5
 30
0.0
 11
235.25
 21
1.5
 31
0.0
  0
LINE
  5
387
  8
DATA
 62
     7
 10
228.75
 20
1.5
 30
0.0
 11
228.75
 21
1.0
 31
0.0
  0
LINE
  5
388
  8
DATA
 62
     7
 10
235.25
 20
1.5
 30
0.0
 11
235.25
 21
1.0
 31
0.0
  0
LINE
  5
389
  8
DATA
 62
     7
 10
228.75
 20
1.0
 30
0.0
 11
235.25
 21
1.0
 31
0.0
  0
ARC
  5
38A
  8
DATA
 62
     7
 10
232.0
 20
3.6250000000001128
 30
0.0
 40
3.6250000000000431
 50
226.3971810272983
 51
313.60281897270301
  0
LINE
  5
38B
  8
DATA
 62
     7
 10
0.0
 20
150.0
 30
0.0
 11
28.0
 21
150.0
 31
0.0
  0
LINE
  5
38C
  8
DATA
 62
     7
 10
0.0
 20
150.0
 30
0.0
 11
0.0
 21
152.0
 31
0.0
  0
LINE
  5
38D
  8
DATA
 62
     7
 10
0.0
 20
152.0
 30
0.0
 11
26.0
 21
152.0
 31
0.0
  0
LINE
  5
38E
  8
DATA
 62
     7
 10
28.0
 20
150.0
 30
0.0
 11
28.0
 21
175.0
 31
0.0
  0
LINE
  5
38F
  8
DATA
 62
     7
 10
28.0
 20
175.0
 30
0.0
 11
26.0
 21
175.0
 31
0.0
  0
LINE
  5
390
  8
DATA
 62
     7
 10
26.0
 20
175.0
 30
0.0
 11
26.0
 21
152.0
 31
0.0
  0
LINE
  5
391
  8
DATA
 62
     7
 10
482.60000000000002
 20
150.0
 30
0.0
 11
454.60000000000002
 21
150.0
 31
0.0
  0
LINE
  5
392
  8
DATA
 62
     7
 10
482.60000000000002
 20
150.0
 30
0.0
 11
482.60000000000002
 21
152.0
 31
0.0
  0
LINE
  5
393
  8
DATA
 62
     7
 10
482.60000000000002
 20
152.0
 30
0.0
 11
456.60000000000002
 21
152.0
 31
0.0
  0
LINE
  5
394
  8
DATA
 62
     7
 10
454.60000000000002
 20
150.0
 30
0.0
 11
454.60000000000002
 21
175.0
 31
0.0
  0
LINE
  5
395
  8
DATA
 62
     7
 10
454.60000000000002
 20
175.0
 30
0.0
 11
456.60000000000002
 21
175.0
 31
0.0
  0
LINE
  5
396
  8
DATA
 62
     7
 10
456.60000000000002
 20
175.0
 30
0.0
 11
456.60000000000002
 21
152.0
 31
0.0
  0
LINE
  5
397
  8
DATA
 62
     7
 10
454.60000000000002
 20
150.0
 30
0.0
 11
28.0
 21
150.0
 31
0.0
  0
LINE
  5
398
  8
DATA
 62
     7
 10
28.0
 20
150.0
 30
0.0
 11
28.0
 21
354.0
 31
0.0
  0
LINE
  5
399
  8
DATA
 62
     7
 10
454.60000000000002
 20
150.0
 30
0.0
 11
454.60000000000002
 21
354.0
 31
0.0
  0
LINE
  5
39A
  8
DATA
 62
     7
 10
454.60000000000002
 20
354.0
 30
0.0
 11
28.0
 21
354.0
 31
0.0
  0
LINE
  5
39B
  8
DATA
 62
     7
 10
28.0
 20
44.0
 30
0.0
 11
2.0
 21
44.0
 31
0.0
  0
LINE
  5
39C
  8
DATA
 62
     7
 10
0.0
 20
42.0
 30
0.0
 11
0.0
 21
2.0
 31
0.0
  0
LINE
  5
39D
  8
DATA
 62
     7
 10
2.0
 20
0.0
 30
0.0
 11
28.0
 21
0.0
 31
0.0
  0
ARC
  5
39E
  8
DATA
 62
     7
 10
2.0
 20
42.0
 30
0.0
 40
2.0
 50
90.0
 51
180.0
  0
ARC
  5
39F
  8
DATA
 62
     7
 10
2.0
 20
2.0
 30
0.0
 40
2.0
 50
180.0
 51
270.0
  0
LINE
  5
3A0
  8
DATA
 62
     7
 10
454.60000000000002
 20
0.0
 30
0.0
 11
480.60000000000002
 21
0.0
 31
0.0
  0
LINE
  5
3A1
  8
DATA
 62
     7
 10
482.60000000000002
 20
2.0
 30
0.0
 11
482.60000000000002
 21
42.0
 31
0.0
  0
LINE
  5
3A2
  8
DATA
 62
     7
 10
480.60000000000002
 20
44.0
 30
0.0
 11
454.60000000000002
 21
44.0
 31
0.0
  0
ARC
  5
3A3
  8
DATA
 62
     7
 10
480.60000000000002
 20
42.0
 30
0.0
 40
2.0
 50
0.0
 51
90.0
  0
ARC
  5
3A4
  8
DATA
 62
     7
 10
480.60000000000002
 20
2.0
 30
0.0
 40
2.0
 50
270.0
 51
0.0
  0
LINE
  5
3A5
  8
DATA
 62
     7
 10
434.49999999999989
 20
33.5
 30
0.0
 11
447.5
 21
33.5
 31
0.0
  0
LINE
  5
3A6
  8
DATA
 62
     7
 10
448.5
 20
32.5
 30
0.0
 11
448.5
 21
13.5
 31
0.0
  0
LINE
  5
3A7
  8
DATA
 62
     7
 10
447.5
 20
12.5
 30
0.0
 11
434.49999999999989
 21
12.5
 31
0.0
  0
LINE
  5
3A8
  8
DATA
 62
     7
 10
433.49999999999989
 20
13.5
 30
0.0
 11
433.49999999999989
 21
32.5
 31
0.0
  0
ARC
  5
3A9
  8
DATA
 62
     7
 10
434.49999999999989
 20
32.5
 30
0.0
 40
1.0
 50
90.0
 51
180.0
  0
ARC
  5
3AA
  8
DATA
 62
     7
 10
447.5
 20
32.5
 30
0.0
 40
1.0
 50
0.0
 51
90.0
  0
ARC
  5
3AB
  8
DATA
 62
     7
 10
434.49999999999989
 20
13.5
 30
0.0
 40
1.0
 50
180.0
 51
270.0
  0
ARC
  5
3AC
  8
DATA
 62
     7
 10
447.5
 20
13.5
 30
0.0
 40
1.0
 50
270.0
 51
0.0
  0
LINE
  5
3AD
  8
DATA
 62
     7
 10
62.75
 20
148.5
 30
0.0
 11
62.75
 21
150.0
 31
0.0
  0
LINE
  5
3AE
  8
DATA
 62
     7
 10
43.86602540378442
 20
148.5
 30
0.0
 11
62.75
 21
148.5
 31
0.0
  0
LINE
  5
3AF
  8
DATA
 62
     7
 10
48.0
 20
148.5
 30
0.0
 11
48.0
 21
150.0
 31
0.0
  0
LINE
  5
3B0
  8
DATA
 62
     7
 10
54.0
 20
148.5
 30
0.0
 11
54.0
 21
150.0
 31
0.0
  0
LINE
  5
3B1
  8
DATA
 62
     7
 10
39.0
 20
149.0
 30
0.0
 11
39.0
 21
150.0
 31
0.0
  0
LINE
  5
3B2
  8
DATA
 62
     7
 10
44.0
 20
149.0
 30
0.0
 11
44.0
 21
150.0
 31
0.0
  0
LINE
  5
3B3
  8
DATA
 62
     7
 10
40.0
 20
148.0
 30
0.0
 11
43.0
 21
148.0
 31
0.0
  0
ARC
  5
3B4
  8
DATA
 62
     7
 10
40.0
 20
149.0
 30
0.0
 40
1.0
 50
180.0
 51
270.0
  0
ARC
  5
3B5
  8
DATA
 62
     7
 10
43.0
 20
149.0
 30
0.0
 40
1.0
 50
270.0
 51
0.0
  0
LINE
  5
3B6
  8
DATA
 62
     7
 10
63.0
 20
149.0
 30
0.0
 11
63.0
 21
150.0
 31
0.0
  0
LINE
  5
3B7
  8
DATA
 62
     7
 10
59.0
 20
148.0
 30
0.0
 11
62.0
 21
148.0
 31
0.0
  0
ARC
  5
3B8
  8
DATA
 62
     7
 10
59.0
 20
149.0
 30
0.0
 40
1.000000000000032
 50
209.99999999999889
 51
270.0
  0
ARC
  5
3B9
  8
DATA
 62
     7
 10
62.0
 20
149.0
 30
0.0
 40
1.0
 50
270.0
 51
0.0
  0
LINE
  5
3BA
  8
DATA
 62
     7
 10
72.5
 20
145.0
 30
0.0
 11
72.5
 21
150.0
 31
0.0
  0
LINE
  5
3BB
  8
DATA
 62
     7
 10
81.5
 20
145.0
 30
0.0
 11
81.5
 21
150.0
 31
0.0
  0
LINE
  5
3BC
  8
DATA
 62
     7
 10
72.5
 20
145.0
 30
0.0
 11
81.5
 21
145.0
 31
0.0
  0
LINE
  5
3BD
  8
DATA
 62
     7
 10
91.0
 20
145.0
 30
0.0
 11
91.0
 21
150.0
 31
0.0
  0
LINE
  5
3BE
  8
DATA
 62
     7
 10
100.0
 20
145.0
 30
0.0
 11
100.0
 21
150.0
 31
0.0
  0
LINE
  5
3BF
  8
DATA
 62
     7
 10
91.0
 20
145.0
 30
0.0
 11
100.0
 21
145.0
 31
0.0
  0
LINE
  5
3C0
  8
DATA
 62
     7
 10
109.5
 20
145.0
 30
0.0
 11
109.5
 21
150.0
 31
0.0
  0
LINE
  5
3C1
  8
DATA
 62
     7
 10
118.5
 20
145.0
 30
0.0
 11
118.5
 21
150.0
 31
0.0
  0
LINE
  5
3C2
  8
DATA
 62
     7
 10
109.5
 20
145.0
 30
0.0
 11
118.5
 21
145.0
 31
0.0
  0
LINE
  5
3C3
  8
DATA
 62
     7
 10
161.25
 20
148.5
 30
0.0
 11
161.25
 21
150.0
 31
0.0
  0
LINE
  5
3C4
  8
DATA
 62
     7
 10
142.36602540378439
 20
148.5
 30
0.0
 11
161.25
 21
148.5
 31
0.0
  0
LINE
  5
3C5
  8
DATA
 62
     7
 10
146.5
 20
148.5
 30
0.0
 11
146.5
 21
150.0
 31
0.0
  0
LINE
  5
3C6
  8
DATA
 62
     7
 10
152.5
 20
148.5
 30
0.0
 11
152.5
 21
150.0
 31
0.0
  0
LINE
  5
3C7
  8
DATA
 62
     7
 10
137.5
 20
149.0
 30
0.0
 11
137.5
 21
150.0
 31
0.0
  0
LINE
  5
3C8
  8
DATA
 62
     7
 10
142.5
 20
149.0
 30
0.0
 11
142.5
 21
150.0
 31
0.0
  0
LINE
  5
3C9
  8
DATA
 62
     7
 10
138.5
 20
148.0
 30
0.0
 11
141.5
 21
148.0
 31
0.0
  0
ARC
  5
3CA
  8
DATA
 62
     7
 10
138.5
 20
149.0
 30
0.0
 40
1.0
 50
180.0
 51
270.0
  0
ARC
  5
3CB
  8
DATA
 62
     7
 10
141.5
 20
149.0
 30
0.0
 40
1.0
 50
270.0
 51
0.0
  0
LINE
  5
3CC
  8
DATA
 62
     7
 10
161.5
 20
149.0
 30
0.0
 11
161.5
 21
150.0
 31
0.0
  0
LINE
  5
3CD
  8
DATA
 62
     7
 10
157.5
 20
148.0
 30
0.0
 11
160.5
 21
148.0
 31
0.0
  0
ARC
  5
3CE
  8
DATA
 62
     7
 10
157.5
 20
149.0
 30
0.0
 40
1.000000000000032
 50
209.99999999999889
 51
270.0
  0
ARC
  5
3CF
  8
DATA
 62
     7
 10
160.5
 20
149.0
 30
0.0
 40
1.0
 50
270.0
 51
0.0
  0
LINE
  5
3D0
  8
DATA
 62
     7
 10
171.0
 20
145.0
 30
0.0
 11
171.0
 21
150.0
 31
0.0
  0
LINE
  5
3D1
  8
DATA
 62
     7
 10
180.0
 20
145.0
 30
0.0
 11
180.0
 21
150.0
 31
0.0
  0
LINE
  5
3D2
  8
DATA
 62
     7
 10
171.0
 20
145.0
 30
0.0
 11
180.0
 21
145.0
 31
0.0
  0
LINE
  5
3D3
  8
DATA
 62
     7
 10
189.5
 20
145.0
 30
0.0
 11
189.5
 21
150.0
 31
0.0
  0
LINE
  5
3D4
  8
DATA
 62
     7
 10
198.5
 20
145.0
 30
0.0
 11
198.5
 21
150.0
 31
0.0
  0
LINE
  5
3D5
  8
DATA
 62
     7
 10
189.5
 20
145.0
 30
0.0
 11
198.5
 21
145.0
 31
0.0
  0
LINE
  5
3D6
  8
DATA
 62
     7
 10
208.0
 20
145.0
 30
0.0
 11
208.0
 21
150.0
 31
0.0
  0
LINE
  5
3D7
  8
DATA
 62
     7
 10
217.0
 20
145.0
 30
0.0
 11
217.0
 21
150.0
 31
0.0
  0
LINE
  5
3D8
  8
DATA
 62
     7
 10
208.0
 20
145.0
 30
0.0
 11
217.0
 21
145.0
 31
0.0
  0
LINE
  5
3D9
  8
DATA
 62
     7
 10
259.75
 20
148.5
 30
0.0
 11
259.75
 21
150.0
 31
0.0
  0
LINE
  5
3DA
  8
DATA
 62
     7
 10
240.86602540378439
 20
148.5
 30
0.0
 11
259.75
 21
148.5
 31
0.0
  0
LINE
  5
3DB
  8
DATA
 62
     7
 10
245.0
 20
148.5
 30
0.0
 11
245.0
 21
150.0
 31
0.0
  0
LINE
  5
3DC
  8
DATA
 62
     7
 10
251.0
 20
148.5
 30
0.0
 11
251.0
 21
150.0
 31
0.0
  0
LINE
  5
3DD
  8
DATA
 62
     7
 10
236.0
 20
149.0
 30
0.0
 11
236.0
 21
150.0
 31
0.0
  0
LINE
  5
3DE
  8
DATA
 62
     7
 10
241.0
 20
149.0
 30
0.0
 11
241.0
 21
150.0
 31
0.0
  0
LINE
  5
3DF
  8
DATA
 62
     7
 10
237.0
 20
148.0
 30
0.0
 11
240.0
 21
148.0
 31
0.0
  0
ARC
  5
3E0
  8
DATA
 62
     7
 10
237.0
 20
149.0
 30
0.0
 40
1.0
 50
180.0
 51
270.0
  0
ARC
  5
3E1
  8
DATA
 62
     7
 10
240.0
 20
149.0
 30
0.0
 40
1.0
 50
270.0
 51
0.0
  0
LINE
  5
3E2
  8
DATA
 62
     7
 10
260.0
 20
149.0
 30
0.0
 11
260.0
 21
150.0
 31
0.0
  0
LINE
  5
3E3
  8
DATA
 62
     7
 10
256.0
 20
148.0
 30
0.0
 11
259.0
 21
148.0
 31
0.0
  0
ARC
  5
3E4
  8
DATA
 62
     7
 10
256.0
 20
149.0
 30
0.0
 40
1.000000000000032
 50
209.99999999999889
 51
270.0
  0
ARC
  5
3E5
  8
DATA
 62
     7
 10
259.0
 20
149.0
 30
0.0
 40
1.0
 50
270.0
 51
0.0
  0
LINE
  5
3E6
  8
DATA
 62
     7
 10
269.5
 20
145.0
 30
0.0
 11
269.5
 21
150.0
 31
0.0
  0
LINE
  5
3E7
  8
DATA
 62
     7
 10
278.5
 20
145.0
 30
0.0
 11
278.5
 21
150.0
 31
0.0
  0
LINE
  5
3E8
  8
DATA
 62
     7
 10
269.5
 20
145.0
 30
0.0
 11
278.5
 21
145.0
 31
0.0
  0
LINE
  5
3E9
  8
DATA
 62
     7
 10
288.0
 20
145.0
 30
0.0
 11
288.0
 21
150.0
 31
0.0
  0
LINE
  5
3EA
  8
DATA
 62
     7
 10
297.0
 20
145.0
 30
0.0
 11
297.0
 21
150.0
 31
0.0
  0
LINE
  5
3EB
  8
DATA
 62
     7
 10
288.0
 20
145.0
 30
0.0
 11
297.0
 21
145.0
 31
0.0
  0
LINE
  5
3EC
  8
DATA
 62
     7
 10
306.5
 20
145.0
 30
0.0
 11
306.5
 21
150.0
 31
0.0
  0
LINE
  5
3ED
  8
DATA
 62
     7
 10
315.5
 20
145.0
 30
0.0
 11
315.5
 21
150.0
 31
0.0
  0
LINE
  5
3EE
  8
DATA
 62
     7
 10
306.5
 20
145.0
 30
0.0
 11
315.5
 21
145.0
 31
0.0
  0
LINE
  5
3EF
  8
DATA
 62
     7
 10
358.25
 20
148.5
 30
0.0
 11
358.25
 21
150.0
 31
0.0
  0
LINE
  5
3F0
  8
DATA
 62
     7
 10
339.36602540378442
 20
148.5
 30
0.0
 11
358.25
 21
148.5
 31
0.0
  0
LINE
  5
3F1
  8
DATA
 62
     7
 10
343.5
 20
148.5
 30
0.0
 11
343.5
 21
150.0
 31
0.0
  0
LINE
  5
3F2
  8
DATA
 62
     7
 10
349.5
 20
148.5
 30
0.0
 11
349.5
 21
150.0
 31
0.0
  0
LINE
  5
3F3
  8
DATA
 62
     7
 10
334.5
 20
149.0
 30
0.0
 11
334.5
 21
150.0
 31
0.0
  0
LINE
  5
3F4
  8
DATA
 62
     7
 10
339.5
 20
149.0
 30
0.0
 11
339.5
 21
150.0
 31
0.0
  0
LINE
  5
3F5
  8
DATA
 62
     7
 10
335.5
 20
148.0
 30
0.0
 11
338.5
 21
148.0
 31
0.0
  0
ARC
  5
3F6
  8
DATA
 62
     7
 10
335.5
 20
149.0
 30
0.0
 40
1.0
 50
180.0
 51
270.0
  0
ARC
  5
3F7
  8
DATA
 62
     7
 10
338.5
 20
149.0
 30
0.0
 40
1.0
 50
270.0
 51
0.0
  0
LINE
  5
3F8
  8
DATA
 62
     7
 10
358.5
 20
149.0
 30
0.0
 11
358.5
 21
150.0
 31
0.0
  0
LINE
  5
3F9
  8
DATA
 62
     7
 10
354.5
 20
148.0
 30
0.0
 11
357.5
 21
148.0
 31
0.0
  0
ARC
  5
3FA
  8
DATA
 62
     7
 10
354.5
 20
149.0
 30
0.0
 40
1.000000000000032
 50
209.99999999999889
 51
270.0
  0
ARC
  5
3FB
  8
DATA
 62
     7
 10
357.5
 20
149.0
 30
0.0
 40
1.0
 50
270.0
 51
0.0
  0
LINE
  5
3FC
  8
DATA
 62
     7
 10
368.0
 20
145.0
 30
0.0
 11
368.0
 21
150.0
 31
0.0
  0
LINE
  5
3FD
  8
DATA
 62
     7
 10
377.0
 20
145.0
 30
0.0
 11
377.0
 21
150.0
 31
0.0
  0
LINE
  5
3FE
  8
DATA
 62
     7
 10
368.0
 20
145.0
 30
0.0
 11
377.0
 21
145.0
 31
0.0
  0
LINE
  5
3FF
  8
DATA
 62
     7
 10
386.5
 20
145.0
 30
0.0
 11
386.5
 21
150.0
 31
0.0
  0
LINE
  5
400
  8
DATA
 62
     7
 10
395.5
 20
145.0
 30
0.0
 11
395.5
 21
150.0
 31
0.0
  0
LINE
  5
401
  8
DATA
 62
     7
 10
386.5
 20
145.0
 30
0.0
 11
395.5
 21
145.0
 31
0.0
  0
LINE
  5
402
  8
DATA
 62
     7
 10
405.0
 20
145.0
 30
0.0
 11
405.0
 21
150.0
 31
0.0
  0
LINE
  5
403
  8
DATA
 62
     7
 10
414.0
 20
145.0
 30
0.0
 11
414.0
 21
150.0
 31
0.0
  0
LINE
  5
404
  8
DATA
 62
     7
 10
405.0
 20
145.0
 30
0.0
 11
414.0
 21
145.0
 31
0.0
  0
LINE
  5
405
  8
DATA
 62
     7
 10
433.49999999999989
 20
148.0
 30
0.0
 11
433.49999999999989
 21
150.0
 31
0.0
  0
LINE
  5
406
  8
DATA
 62
     7
 10
448.5
 20
148.0
 30
0.0
 11
448.5
 21
150.0
 31
0.0
  0
LINE
  5
407
  8
DATA
 62
     7
 10
433.49999999999989
 20
148.0
 30
0.0
 11
448.5
 21
148.0
 31
0.0
  0
LINE
  5
408
  8
DATA
 62
     7
 10
435.74999999999989
 20
144.5
 30
0.0
 11
435.74999999999989
 21
148.0
 31
0.0
  0
LINE
  5
409
  8
DATA
 62
     7
 10
446.25
 20
144.5
 30
0.0
 11
446.25
 21
148.0
 31
0.0
  0
LINE
  5
40A
  8
DATA
 62
     7
 10
435.74999999999989
 20
144.5
 30
0.0
 11
446.25
 21
144.5
 31
0.0
  0
CIRCLE
  5
40B
  8
DATA
 62
     7
 10
40.0
 20
154.0
 30
0.0
 40
3.25
  0
CIRCLE
  5
40C
  8
DATA
 62
     7
 10
40.0
 20
154.0
 30
0.0
 40
2.5
  0
POLYLINE
  5
40D
  8
DATA
 62
     7
 66
     1
 10
0.0
 20
0.0
 30
0.0
  0
VERTEX
  5
9F9
  8
DATA
 62
     7
 10
40.499999999999993
 20
153.5
 30
0.0
  0
VERTEX
  5
9FA
  8
DATA
 62
     7
 10
41.5
 20
153.5
 30
0.0
  0
VERTEX
  5
9FB
  8
DATA
 62
     7
 10
41.5
 20
154.5
 30
0.0
  0
VERTEX
  5
9FC
  8
DATA
 62
     7
 10
40.499999999999993
 20
154.5
 30
0.0
  0
SEQEND
  5
9FD
  8
DATA
 62
     7
  0
POLYLINE
  5
413
  8
DATA
 62
     7
 66
     1
 10
0.0
 20
0.0
 30
0.0
  0
VERTEX
  5
9FE
  8
DATA
 62
     7
 10
39.5
 20
153.5
 30
0.0
  0
VERTEX
  5
9FF
  8
DATA
 62
     7
 10
38.5
 20
153.5
 30
0.0
  0
VERTEX
  5
A00
  8
DATA
 62
     7
 10
38.5
 20
154.5
 30
0.0
  0
VERTEX
  5
A01
  8
DATA
 62
     7
 10
39.5
 20
154.5
 30
0.0
  0
SEQEND
  5
A02
  8
DATA
 62
     7
  0
POLYLINE
  5
419
  8
DATA
 62
     7
 66
     1
 10
0.0
 20
0.0
 30
0.0
  0
VERTEX
  5
A03
  8
DATA
 62
     7
 10
40.499999999999993
 20
154.5
 30
0.0
  0
VERTEX
  5
A04
  8
DATA
 62
     7
 10
40.499999999999993
 20
155.5
 30
0.0
  0
VERTEX
  5
A05
  8
DATA
 62
     7
 10
39.5
 20
155.5
 30
0.0
  0
VERTEX
  5
A06
  8
DATA
 62
     7
 10
39.5
 20
154.5
 30
0.0
  0
SEQEND
  5
A07
  8
DATA
 62
     7
  0
POLYLINE
  5
41F
  8
DATA
 62
     7
 66
     1
 10
0.0
 20
0.0
 30
0.0
  0
VERTEX
  5
A08
  8
DATA
 62
     7
 10
40.499999999999993
 20
153.5
 30
0.0
  0
VERTEX
  5
A09
  8
DATA
 62
     7
 10
40.499999999999993
 20
152.5
 30
0.0
  0
VERTEX
  5
A0A
  8
DATA
 62
     7
 10
39.5
 20
152.5
 30
0.0
  0
VERTEX
  5
A0B
  8
DATA
 62
     7
 10
39.5
 20
153.5
 30
0.0
  0
SEQEND
  5
A0C
  8
DATA
 62
     7
  0
CIRCLE
  5
425
  8
DATA
 62
     7
 10
232.0
 20
154.0
 30
0.0
 40
3.25
  0
CIRCLE
  5
426
  8
DATA
 62
     7
 10
232.0
 20
154.0
 30
0.0
 40
2.5
  0
POLYLINE
  5
427
  8
DATA
 62
     7
 66
     1
 10
0.0
 20
0.0
 30
0.0
  0
VERTEX
  5
A0D
  8
DATA
 62
     7
 10
232.5
 20
153.5
 30
0.0
  0
VERTEX
  5
A0E
  8
DATA
 62
     7
 10
233.5
 20
153.5
 30
0.0
  0
VERTEX
  5
A0F
  8
DATA
 62
     7
 10
233.5
 20
154.5
 30
0.0
  0
VERTEX
  5
A10
  8
DATA
 62
     7
 10
232.5
 20
154.5
 30
0.0
  0
SEQEND
  5
A11
  8
DATA
 62
     7
  0
POLYLINE
  5
42D
  8
DATA
 62
     7
 66
     1
 10
0.0
 20
0.0
 30
0.0
  0
VERTEX
  5
A12
  8
DATA
 62
     7
 10
231.5
 20
153.5
 30
0.0
  0
VERTEX
  5
A13
  8
DATA
 62
     7
 10
230.5
 20
153.5
 30
0.0
  0
VERTEX
  5
A14
  8
DATA
 62
     7
 10
230.5
 20
154.5
 30
0.0
  0
VERTEX
  5
A15
  8
DATA
 62
     7
 10
231.5
 20
154.5
 30
0.0
  0
SEQEND
  5
A16
  8
DATA
 62
     7
  0
POLYLINE
  5
433
  8
DATA
 62
     7
 66
     1
 10
0.0
 20
0.0
 30
0.0
  0
VERTEX
  5
A17
  8
DATA
 62
     7
 10
232.5
 20
154.5
 30
0.0
  0
VERTEX
  5
A18
  8
DATA
 62
     7
 10
232.5
 20
155.5
 30
0.0
  0
VERTEX
  5
A19
  8
DATA
 62
     7
 10
231.5
 20
155.5
 30
0.0
  0
VERTEX
  5
A1A
  8
DATA
 62
     7
 10
231.5
 20
154.5
 30
0.0
  0
SEQEND
  5
A1B
  8
DATA
 62
     7
  0
POLYLINE
  5
439
  8
DATA
 62
     7
 66
     1
 10
0.0
 20
0.0
 30
0.0
  0
VERTEX
  5
A1C
  8
DATA
 62
     7
 10
232.5
 20
153.5
 30
0.0
  0
VERTEX
  5
A1D
  8
DATA
 62
     7
 10
232.5
 20
152.5
 30
0.0
  0
VERTEX
  5
A1E
  8
DATA
 62
     7
 10
231.5
 20
152.5
 30
0.0
  0
VERTEX
  5
A1F
  8
DATA
 62
     7
 10
231.5
 20
153.5
 30
0.0
  0
SEQEND
  5
A20
  8
DATA
 62
     7
  0
CIRCLE
  5
43F
  8
DATA
 62
     7
 10
447.0
 20
154.0
 30
0.0
 40
3.25
  0
CIRCLE
  5
440
  8
DATA
 62
     7
 10
447.0
 20
154.0
 30
0.0
 40
2.5
  0
POLYLINE
  5
441
  8
DATA
 62
     7
 66
     1
 10
0.0
 20
0.0
 30
0.0
  0
VERTEX
  5
A21
  8
DATA
 62
     7
 10
447.5
 20
153.5
 30
0.0
  0
VERTEX
  5
A22
  8
DATA
 62
     7
 10
448.5
 20
153.5
 30
0.0
  0
VERTEX
  5
A23
  8
DATA
 62
     7
 10
448.5
 20
154.5
 30
0.0
  0
VERTEX
  5
A24
  8
DATA
 62
     7
 10
447.5
 20
154.5
 30
0.0
  0
SEQEND
  5
A25
  8
DATA
 62
     7
  0
POLYLINE
  5
447
  8
DATA
 62
     7
 66
     1
 10
0.0
 20
0.0
 30
0.0
  0
VERTEX
  5
A26
  8
DATA
 62
     7
 10
446.49999999999989
 20
153.5
 30
0.0
  0
VERTEX
  5
A27
  8
DATA
 62
     7
 10
445.5
 20
153.5
 30
0.0
  0
VERTEX
  5
A28
  8
DATA
 62
     7
 10
445.5
 20
154.5
 30
0.0
  0
VERTEX
  5
A29
  8
DATA
 62
     7
 10
446.49999999999989
 20
154.5
 30
0.0
  0
SEQEND
  5
A2A
  8
DATA
 62
     7
  0
POLYLINE
  5
44D
  8
DATA
 62
     7
 66
     1
 10
0.0
 20
0.0
 30
0.0
  0
VERTEX
  5
A2B
  8
DATA
 62
     7
 10
447.5
 20
154.5
 30
0.0
  0
VERTEX
  5
A2C
  8
DATA
 62
     7
 10
447.5
 20
155.5
 30
0.0
  0
VERTEX
  5
A2D
  8
DATA
 62
     7
 10
446.49999999999989
 20
155.5
 30
0.0
  0
VERTEX
  5
A2E
  8
DATA
 62
     7
 10
446.49999999999989
 20
154.5
 30
0.0
  0
SEQEND
  5
A2F
  8
DATA
 62
     7
  0
POLYLINE
  5
453
  8
DATA
 62
     7
 66
     1
 10
0.0
 20
0.0
 30
0.0
  0
VERTEX
  5
A30
  8
DATA
 62
     7
 10
447.5
 20
153.5
 30
0.0
  0
VERTEX
  5
A31
  8
DATA
 62
     7
 10
447.5
 20
152.5
 30
0.0
  0
VERTEX
  5
A32
  8
DATA
 62
     7
 10
446.49999999999989
 20
152.5
 30
0.0
  0
VERTEX
  5
A33
  8
DATA
 62
     7
 10
446.49999999999989
 20
153.5
 30
0.0
  0
SEQEND
  5
A34
  8
DATA
 62
     7
  0
CIRCLE
  5
459
  8
DATA
 62
     7
 10
36.0
 20
349.5
 30
0.0
 40
3.25
  0
CIRCLE
  5
45A
  8
DATA
 62
     7
 10
36.0
 20
349.5
 30
0.0
 40
2.5
  0
POLYLINE
  5
45B
  8
DATA
 62
     7
 66
     1
 10
0.0
 20
0.0
 30
0.0
  0
VERTEX
  5
A35
  8
DATA
 62
     7
 10
36.5
 20
349.0
 30
0.0
  0
VERTEX
  5
A36
  8
DATA
 62
     7
 10
37.5
 20
349.0
 30
0.0
  0
VERTEX
  5
A37
  8
DATA
 62
     7
 10
37.5
 20
350.0
 30
0.0
  0
VERTEX
  5
A38
  8
DATA
 62
     7
 10
36.5
 20
350.0
 30
0.0
  0
SEQEND
  5
A39
  8
DATA
 62
     7
  0
POLYLINE
  5
461
  8
DATA
 62
     7
 66
     1
 10
0.0
 20
0.0
 30
0.0
  0
VERTEX
  5
A3A
  8
DATA
 62
     7
 10
35.5
 20
349.0
 30
0.0
  0
VERTEX
  5
A3B
  8
DATA
 62
     7
 10
34.5
 20
349.0
 30
0.0
  0
VERTEX
  5
A3C
  8
DATA
 62
     7
 10
34.5
 20
350.0
 30
0.0
  0
VERTEX
  5
A3D
  8
DATA
 62
     7
 10
35.5
 20
350.0
 30
0.0
  0
SEQEND
  5
A3E
  8
DATA
 62
     7
  0
POLYLINE
  5
467
  8
DATA
 62
     7
 66
     1
 10
0.0
 20
0.0
 30
0.0
  0
VERTEX
  5
A3F
  8
DATA
 62
     7
 10
36.5
 20
350.0
 30
0.0
  0
VERTEX
  5
A40
  8
DATA
 62
     7
 10
36.5
 20
351.0
 30
0.0
  0
VERTEX
  5
A41
  8
DATA
 62
     7
 10
35.5
 20
351.0
 30
0.0
  0
VERTEX
  5
A42
  8
DATA
 62
     7
 10
35.5
 20
350.0
 30
0.0
  0
SEQEND
  5
A43
  8
DATA
 62
     7
  0
POLYLINE
  5
46D
  8
DATA
 62
     7
 66
     1
 10
0.0
 20
0.0
 30
0.0
  0
VERTEX
  5
A44
  8
DATA
 62
     7
 10
36.5
 20
349.0
 30
0.0
  0
VERTEX
  5
A45
  8
DATA
 62
     7
 10
36.5
 20
348.0
 30
0.0
  0
VERTEX
  5
A46
  8
DATA
 62
     7
 10
35.5
 20
348.0
 30
0.0
  0
VERTEX
  5
A47
  8
DATA
 62
     7
 10
35.5
 20
349.0
 30
0.0
  0
SEQEND
  5
A48
  8
DATA
 62
     7
  0
CIRCLE
  5
473
  8
DATA
 62
     7
 10
232.0
 20
349.5
 30
0.0
 40
3.25
  0
CIRCLE
  5
474
  8
DATA
 62
     7
 10
232.0
 20
349.5
 30
0.0
 40
2.5
  0
POLYLINE
  5
475
  8
DATA
 62
     7
 66
     1
 10
0.0
 20
0.0
 30
0.0
  0
VERTEX
  5
A49
  8
DATA
 62
     7
 10
232.5
 20
349.0
 30
0.0
  0
VERTEX
  5
A4A
  8
DATA
 62
     7
 10
233.5
 20
349.0
 30
0.0
  0
VERTEX
  5
A4B
  8
DATA
 62
     7
 10
233.5
 20
350.0
 30
0.0
  0
VERTEX
  5
A4C
  8
DATA
 62
     7
 10
232.5
 20
350.0
 30
0.0
  0
SEQEND
  5
A4D
  8
DATA
 62
     7
  0
POLYLINE
  5
47B
  8
DATA
 62
     7
 66
     1
 10
0.0
 20
0.0
 30
0.0
  0
VERTEX
  5
A4E
  8
DATA
 62
     7
 10
231.5
 20
349.0
 30
0.0
  0
VERTEX
  5
A4F
  8
DATA
 62
     7
 10
230.5
 20
349.0
 30
0.0
  0
VERTEX
  5
A50
  8
DATA
 62
     7
 10
230.5
 20
350.0
 30
0.0
  0
VERTEX
  5
A51
  8
DATA
 62
     7
 10
231.5
 20
350.0
 30
0.0
  0
SEQEND
  5
A52
  8
DATA
 62
     7
  0
POLYLINE
  5
481
  8
DATA
 62
     7
 66
     1
 10
0.0
 20
0.0
 30
0.0
  0
VERTEX
  5
A53
  8
DATA
 62
     7
 10
232.5
 20
350.0
 30
0.0
  0
VERTEX
  5
A54
  8
DATA
 62
     7
 10
232.5
 20
351.0
 30
0.0
  0
VERTEX
  5
A55
  8
DATA
 62
     7
 10
231.5
 20
351.0
 30
0.0
  0
VERTEX
  5
A56
  8
DATA
 62
     7
 10
231.5
 20
350.0
 30
0.0
  0
SEQEND
  5
A57
  8
DATA
 62
     7
  0
POLYLINE
  5
487
  8
DATA
 62
     7
 66
     1
 10
0.0
 20
0.0
 30
0.0
  0
VERTEX
  5
A58
  8
DATA
 62
     7
 10
232.5
 20
349.0
 30
0.0
  0
VERTEX
  5
A59
  8
DATA
 62
     7
 10
232.5
 20
348.0
 30
0.0
  0
VERTEX
  5
A5A
  8
DATA
 62
     7
 10
231.5
 20
348.0
 30
0.0
  0
VERTEX
  5
A5B
  8
DATA
 62
     7
 10
231.5
 20
349.0
 30
0.0
  0
SEQEND
  5
A5C
  8
DATA
 62
     7
  0
CIRCLE
  5
48D
  8
DATA
 62
     7
 10
443.0
 20
349.5
 30
0.0
 40
3.25
  0
CIRCLE
  5
48E
  8
DATA
 62
     7
 10
443.0
 20
349.5
 30
0.0
 40
2.5
  0
POLYLINE
  5
48F
  8
DATA
 62
     7
 66
     1
 10
0.0
 20
0.0
 30
0.0
  0
VERTEX
  5
A5D
  8
DATA
 62
     7
 10
443.5
 20
349.0
 30
0.0
  0
VERTEX
  5
A5E
  8
DATA
 62
     7
 10
444.5
 20
349.0
 30
0.0
  0
VERTEX
  5
A5F
  8
DATA
 62
     7
 10
444.5
 20
350.0
 30
0.0
  0
VERTEX
  5
A60
  8
DATA
 62
     7
 10
443.5
 20
350.0
 30
0.0
  0
SEQEND
  5
A61
  8
DATA
 62
     7
  0
POLYLINE
  5
495
  8
DATA
 62
     7
 66
     1
 10
0.0
 20
0.0
 30
0.0
  0
VERTEX
  5
A62
  8
DATA
 62
     7
 10
442.49999999999989
 20
349.0
 30
0.0
  0
VERTEX
  5
A63
  8
DATA
 62
     7
 10
441.5
 20
349.0
 30
0.0
  0
VERTEX
  5
A64
  8
DATA
 62
     7
 10
441.5
 20
350.0
 30
0.0
  0
VERTEX
  5
A65
  8
DATA
 62
     7
 10
442.49999999999989
 20
350.0
 30
0.0
  0
SEQEND
  5
A66
  8
DATA
 62
     7
  0
POLYLINE
  5
49B
  8
DATA
 62
     7
 66
     1
 10
0.0
 20
0.0
 30
0.0
  0
VERTEX
  5
A67
  8
DATA
 62
     7
 10
443.5
 20
350.0
 30
0.0
  0
VERTEX
  5
A68
  8
DATA
 62
     7
 10
443.5
 20
351.0
 30
0.0
  0
VERTEX
  5
A69
  8
DATA
 62
     7
 10
442.49999999999989
 20
351.0
 30
0.0
  0
VERTEX
  5
A6A
  8
DATA
 62
     7
 10
442.49999999999989
 20
350.0
 30
0.0
  0
SEQEND
  5
A6B
  8
DATA
 62
     7
  0
POLYLINE
  5
4A1
  8
DATA
 62
     7
 66
     1
 10
0.0
 20
0.0
 30
0.0
  0
VERTEX
  5
A6C
  8
DATA
 62
     7
 10
443.5
 20
349.0
 30
0.0
  0
VERTEX
  5
A6D
  8
DATA
 62
     7
 10
443.5
 20
348.0
 30
0.0
  0
VERTEX
  5
A6E
  8
DATA
 62
     7
 10
442.49999999999989
 20
348.0
 30
0.0
  0
VERTEX
  5
A6F
  8
DATA
 62
     7
 10
442.49999999999989
 20
349.0
 30
0.0
  0
SEQEND
  5
A70
  8
DATA
 62
     7
  0
LINE
  5
4A7
  8
DATA
 62
     7
 10
32.75
 20
42.5
 30
0.0
 11
39.25
 21
42.5
 31
0.0
  0
LINE
  5
4A8
  8
DATA
 62
     7
 10
32.75
 20
42.5
 30
0.0
 11
32.75
 21
43.0
 31
0.0
  0
LINE
  5
4A9
  8
DATA
 62
     7
 10
32.75
 20
43.0
 30
0.0
 11
39.25
 21
43.0
 31
0.0
  0
ARC
  5
4AA
  8
DATA
 62
     7
 10
35.99999999999995
 20
40.374999999999893
 30
0.0
 40
3.6250000000001199
 50
56.51462337700881
 51
133.60281897270181
  0
LINE
  5
4AB
  8
DATA
 62
     7
 10
439.74999999999989
 20
42.5
 30
0.0
 11
446.25
 21
42.5
 31
0.0
  0
LINE
  5
4AC
  8
DATA
 62
     7
 10
439.74999999999989
 20
42.5
 30
0.0
 11
439.74999999999989
 21
43.0
 31
0.0
  0
LINE
  5
4AD
  8
DATA
 62
     7
 10
439.74999999999989
 20
43.0
 30
0.0
 11
446.25
 21
43.0
 31
0.0
  0
ARC
  5
4AE
  8
DATA
 62
     7
 10
443.0
 20
40.374999999999893
 30
0.0
 40
3.6250000000001199
 50
56.51462337700881
 51
133.60281897270181
  0
LINE
  5
4AF
  8
DATA
 62
     7
 10
446.25
 20
1.5
 30
0.0
 11
439.74999999999989
 21
1.5
 31
0.0
  0
LINE
  5
4B0
  8
DATA
 62
     7
 10
446.25
 20
1.5
 30
0.0
 11
446.25
 21
1.0
 31
0.0
  0
LINE
  5
4B1
  8
DATA
 62
     7
 10
439.74999999999989
 20
1.5
 30
0.0
 11
439.74999999999989
 21
1.0
 31
0.0
  0
LINE
  5
4B2
  8
DATA
 62
     7
 10
446.25
 20
1.0
 30
0.0
 11
439.74999999999989
 21
1.0
 31
0.0
  0
ARC
  5
4B3
  8
DATA
 62
     7
 10
443.0
 20
3.6250000000001128
 30
0.0
 40
3.6250000000001208
 50
226.39718102729699
 51
313.60281897270181
  0
LINE
  5
4B4
  8
DATA
 62
     7
 10
450.25
 20
1.5
 30
0.0
 11
443.75
 21
1.5
 31
0.0
  0
LINE
  5
4B5
  8
DATA
 62
     7
 10
450.25
 20
1.5
 30
0.0
 11
450.25
 21
1.0
 31
0.0
  0
LINE
  5
4B6
  8
DATA
 62
     7
 10
450.25
 20
1.0
 30
0.0
 11
443.75
 21
1.0
 31
0.0
  0
ARC
  5
4B7
  8
DATA
 62
     7
 10
447.0
 20
3.6250000000001128
 30
0.0
 40
3.6250000000001199
 50
236.5146233770088
 51
313.6028189727017
  0
LINE
  5
4B8
  8
DATA
 62
     7
 10
39.25
 20
1.5
 30
0.0
 11
32.75
 21
1.5
 31
0.0
  0
LINE
  5
4B9
  8
DATA
 62
     7
 10
39.25
 20
1.5
 30
0.0
 11
39.25
 21
1.0
 31
0.0
  0
LINE
  5
4BA
  8
DATA
 62
     7
 10
32.75
 20
1.5
 30
0.0
 11
32.75
 21
1.0
 31
0.0
  0
LINE
  5
4BB
  8
DATA
 62
     7
 10
39.25
 20
1.0
 30
0.0
 11
32.75
 21
1.0
 31
0.0
  0
ARC
  5
4BC
  8
DATA
 62
     7
 10
36.00000000000005
 20
3.6250000000001128
 30
0.0
 40
3.6250000000001208
 50
226.39718102729699
 51
313.60281897270181
  0
LINE
  5
4BD
  8
DATA
 62
     7
 10
43.25
 20
1.5
 30
0.0
 11
36.75
 21
1.5
 31
0.0
  0
LINE
  5
4BE
  8
DATA
 62
     7
 10
43.25
 20
1.5
 30
0.0
 11
43.25
 21
1.0
 31
0.0
  0
LINE
  5
4BF
  8
DATA
 62
     7
 10
43.25
 20
1.0
 30
0.0
 11
36.75
 21
1.0
 31
0.0
  0
ARC
  5
4C0
  8
DATA
 62
     7
 10
40.00000000000005
 20
3.6250000000001128
 30
0.0
 40
3.6250000000001199
 50
236.5146233770088
 51
313.6028189727017
  0
LINE
  5
4C1
  8
DATA
 62
     7
 10
6.849999999999965
 20
480.05000000000001
 30
0.0
 11
10.14999999999997
 21
480.05000000000001
 31
0.0
  0
LINE
  5
4C2
  8
DATA
 62
     7
 10
6.849999999999965
 20
472.94999999999987
 30
0.0
 11
10.14999999999997
 21
472.94999999999987
 31
0.0
  0
ARC
  5
4C3
  8
DATA
 62
     7
 10
6.8499999999999091
 20
476.49999999999989
 30
0.0
 40
3.5500000000000109
 50
90.0
 51
270.0
  0
ARC
  5
4C4
  8
DATA
 62
     7
 10
10.14999999999997
 20
476.49999999999989
 30
0.0
 40
3.5500000000000109
 50
270.0
 51
90.0
  0
LINE
  5
4C5
  8
DATA
 62
     7
 10
6.849999999999965
 20
511.05000000000001
 30
0.0
 11
10.14999999999997
 21
511.05000000000001
 31
0.0
  0
LINE
  5
4C6
  8
DATA
 62
     7
 10
6.849999999999965
 20
503.94999999999999
 30
0.0
 11
10.14999999999997
 21
503.94999999999999
 31
0.0
  0
ARC
  5
4C7
  8
DATA
 62
     7
 10
6.8499999999999091
 20
507.5
 30
0.0
 40
3.5500000000000109
 50
90.0
 51
270.0
  0
ARC
  5
4C8
  8
DATA
 62
     7
 10
10.14999999999997
 20
507.5
 30
0.0
 40
3.5500000000000109
 50
270.0
 51
90.0
  0
LINE
  5
4C9
  8
DATA
 62
     7
 10
475.75
 20
480.05000000000001
 30
0.0
 11
472.44999999999999
 21
480.05000000000001
 31
0.0
  0
LINE
  5
4CA
  8
DATA
 62
     7
 10
475.75
 20
472.94999999999987
 30
0.0
 11
472.44999999999999
 21
472.94999999999987
 31
0.0
  0
ARC
  5
4CB
  8
DATA
 62
     7
 10
475.75
 20
476.49999999999989
 30
0.0
 40
3.5500000000000109
 50
270.0
 51
90.0
  0
ARC
  5
4CC
  8
DATA
 62
     7
 10
472.44999999999999
 20
476.49999999999989
 30
0.0
 40
3.5500000000000109
 50
90.0
 51
270.0
  0
LINE
  5
4CD
  8
DATA
 62
     7
 10
475.75
 20
511.05000000000001
 30
0.0
 11
472.44999999999999
 21
511.05000000000001
 31
0.0
  0
LINE
  5
4CE
  8
DATA
 62
     7
 10
475.75
 20
503.94999999999999
 30
0.0
 11
472.44999999999999
 21
503.94999999999999
 31
0.0
  0
ARC
  5
4CF
  8
DATA
 62
     7
 10
475.75
 20
507.5
 30
0.0
 40
3.5500000000000109
 50
270.0
 51
90.0
  0
ARC
  5
4D0
  8
DATA
 62
     7
 10
472.44999999999999
 20
507.5
 30
0.0
 40
3.5500000000000109
 50
90.0
 51
270.0
  0
LINE
  5
4D1
  8
DATA
 62
     7
 10
28.0
 20
514.0
 30
0.0
 11
28.0
 21
470.0
 31
0.0
  0
LINE
  5
4D2
  8
DATA
 62
     7
 10
454.60000000000002
 20
514.0
 30
0.0
 11
454.60000000000002
 21
470.0
 31
0.0
  0
LINE
  5
4D3
  8
DATA
 62
     7
 10
28.0
 20
471.49999999999989
 30
0.0
 11
454.60000000000002
 21
471.49999999999989
 31
0.0
  0
LINE
  5
4D4
  8
DATA
 62
     7
 10
28.0
 20
512.5
 30
0.0
 11
454.60000000000002
 21
512.5
 31
0.0
  0
LINE
  5
4D5
  8
DATA
 62
     7
 10
28.0
 20
472.5
 30
0.0
 11
454.60000000000002
 21
472.5
 31
0.0
  0
LINE
  5
4D6
  8
DATA
 62
     7
 10
28.0
 20
511.5
 30
0.0
 11
454.60000000000002
 21
511.5
 31
0.0
  0
LINE
  5
4D7
  8
DATA
 62
     7
 10
36.75
 20
512.5
 30
0.0
 11
43.25
 21
512.5
 31
0.0
  0
LINE
  5
4D8
  8
DATA
 62
     7
 10
36.75
 20
512.5
 30
0.0
 11
36.75
 21
513.0
 31
0.0
  0
LINE
  5
4D9
  8
DATA
 62
     7
 10
43.25
 20
512.5
 30
0.0
 11
43.25
 21
513.0
 31
0.0
  0
LINE
  5
4DA
  8
DATA
 62
     7
 10
36.75
 20
513.0
 30
0.0
 11
43.25
 21
513.0
 31
0.0
  0
ARC
  5
4DB
  8
DATA
 62
     7
 10
39.999999999999943
 20
510.37499999999989
 30
0.0
 40
3.6250000000001208
 50
46.397181027296973
 51
133.60281897270181
  0
LINE
  5
4DC
  8
DATA
 62
     7
 10
228.75
 20
512.5
 30
0.0
 11
235.25
 21
512.5
 31
0.0
  0
LINE
  5
4DD
  8
DATA
 62
     7
 10
228.75
 20
512.5
 30
0.0
 11
228.75
 21
513.0
 31
0.0
  0
LINE
  5
4DE
  8
DATA
 62
     7
 10
235.25
 20
512.5
 30
0.0
 11
235.25
 21
513.0
 31
0.0
  0
LINE
  5
4DF
  8
DATA
 62
     7
 10
228.75
 20
513.0
 30
0.0
 11
235.25
 21
513.0
 31
0.0
  0
ARC
  5
4E0
  8
DATA
 62
     7
 10
232.0
 20
510.37499999999989
 30
0.0
 40
3.6250000000001208
 50
46.397181027296973
 51
133.60281897270181
  0
LINE
  5
4E1
  8
DATA
 62
     7
 10
443.75
 20
512.5
 30
0.0
 11
450.25
 21
512.5
 31
0.0
  0
LINE
  5
4E2
  8
DATA
 62
     7
 10
443.75
 20
512.5
 30
0.0
 11
443.75
 21
513.0
 31
0.0
  0
LINE
  5
4E3
  8
DATA
 62
     7
 10
450.25
 20
512.5
 30
0.0
 11
450.25
 21
513.0
 31
0.0
  0
LINE
  5
4E4
  8
DATA
 62
     7
 10
443.75
 20
513.0
 30
0.0
 11
450.25
 21
513.0
 31
0.0
  0
ARC
  5
4E5
  8
DATA
 62
     7
 10
447.0
 20
510.37499999999989
 30
0.0
 40
3.6250000000001208
 50
46.397181027296973
 51
133.60281897270181
  0
LINE
  5
4E6
  8
DATA
 62
     7
 10
228.75
 20
471.49999999999989
 30
0.0
 11
235.25
 21
471.49999999999989
 31
0.0
  0
LINE
  5
4E7
  8
DATA
 62
     7
 10
228.75
 20
471.49999999999989
 30
0.0
 11
228.75
 21
471.0
 31
0.0
  0
LINE
  5
4E8
  8
DATA
 62
     7
 10
235.25
 20
471.49999999999989
 30
0.0
 11
235.25
 21
471.0
 31
0.0
  0
LINE
  5
4E9
  8
DATA
 62
     7
 10
228.75
 20
471.0
 30
0.0
 11
235.25
 21
471.0
 31
0.0
  0
ARC
  5
4EA
  8
DATA
 62
     7
 10
232.0
 20
473.625
 30
0.0
 40
3.6250000000000431
 50
226.3971810272983
 51
313.60281897270301
  0
LINE
  5
4EB
  8
DATA
 62
     7
 10
28.0
 20
514.0
 30
0.0
 11
2.0
 21
514.0
 31
0.0
  0
LINE
  5
4EC
  8
DATA
 62
     7
 10
0.0
 20
512.0
 30
0.0
 11
0.0
 21
472.0
 31
0.0
  0
LINE
  5
4ED
  8
DATA
 62
     7
 10
2.0
 20
470.0
 30
0.0
 11
28.0
 21
470.0
 31
0.0
  0
ARC
  5
4EE
  8
DATA
 62
     7
 10
2.0
 20
512.0
 30
0.0
 40
2.0
 50
90.0
 51
180.0
  0
ARC
  5
4EF
  8
DATA
 62
     7
 10
2.0
 20
472.0
 30
0.0
 40
2.0
 50
180.0
 51
270.0
  0
LINE
  5
4F0
  8
DATA
 62
     7
 10
454.60000000000002
 20
470.0
 30
0.0
 11
480.60000000000002
 21
470.0
 31
0.0
  0
LINE
  5
4F1
  8
DATA
 62
     7
 10
482.60000000000002
 20
472.0
 30
0.0
 11
482.60000000000002
 21
512.0
 31
0.0
  0
LINE
  5
4F2
  8
DATA
 62
     7
 10
480.60000000000002
 20
514.0
 30
0.0
 11
454.60000000000002
 21
514.0
 31
0.0
  0
ARC
  5
4F3
  8
DATA
 62
     7
 10
480.60000000000002
 20
512.0
 30
0.0
 40
2.0
 50
0.0
 51
90.0
  0
ARC
  5
4F4
  8
DATA
 62
     7
 10
480.60000000000002
 20
472.0
 30
0.0
 40
2.0
 50
270.0
 51
0.0
  0
LINE
  5
4F5
  8
DATA
 62
     7
 10
32.75
 20
512.5
 30
0.0
 11
39.25
 21
512.5
 31
0.0
  0
LINE
  5
4F6
  8
DATA
 62
     7
 10
32.75
 20
512.5
 30
0.0
 11
32.75
 21
513.0
 31
0.0
  0
LINE
  5
4F7
  8
DATA
 62
     7
 10
32.75
 20
513.0
 30
0.0
 11
39.25
 21
513.0
 31
0.0
  0
ARC
  5
4F8
  8
DATA
 62
     7
 10
35.99999999999995
 20
510.37499999999989
 30
0.0
 40
3.6250000000001199
 50
56.51462337700881
 51
133.60281897270181
  0
LINE
  5
4F9
  8
DATA
 62
     7
 10
439.74999999999989
 20
512.5
 30
0.0
 11
446.25
 21
512.5
 31
0.0
  0
LINE
  5
4FA
  8
DATA
 62
     7
 10
439.74999999999989
 20
512.5
 30
0.0
 11
439.74999999999989
 21
513.0
 31
0.0
  0
LINE
  5
4FB
  8
DATA
 62
     7
 10
439.74999999999989
 20
513.0
 30
0.0
 11
446.25
 21
513.0
 31
0.0
  0
ARC
  5
4FC
  8
DATA
 62
     7
 10
443.0
 20
510.37499999999989
 30
0.0
 40
3.6250000000001199
 50
56.51462337700881
 51
133.60281897270181
  0
LINE
  5
4FD
  8
DATA
 62
     7
 10
446.25
 20
471.49999999999989
 30
0.0
 11
439.74999999999989
 21
471.49999999999989
 31
0.0
  0
LINE
  5
4FE
  8
DATA
 62
     7
 10
446.25
 20
471.49999999999989
 30
0.0
 11
446.25
 21
471.0
 31
0.0
  0
LINE
  5
4FF
  8
DATA
 62
     7
 10
439.74999999999989
 20
471.49999999999989
 30
0.0
 11
439.74999999999989
 21
471.0
 31
0.0
  0
LINE
  5
500
  8
DATA
 62
     7
 10
446.25
 20
471.0
 30
0.0
 11
439.74999999999989
 21
471.0
 31
0.0
  0
ARC
  5
501
  8
DATA
 62
     7
 10
443.0
 20
473.625
 30
0.0
 40
3.6250000000001208
 50
226.39718102729699
 51
313.60281897270181
  0
LINE
  5
502
  8
DATA
 62
     7
 10
450.25
 20
471.49999999999989
 30
0.0
 11
443.75
 21
471.49999999999989
 31
0.0
  0
LINE
  5
503
  8
DATA
 62
     7
 10
450.25
 20
471.49999999999989
 30
0.0
 11
450.25
 21
471.0
 31
0.0
  0
LINE
  5
504
  8
DATA
 62
     7
 10
450.25
 20
471.0
 30
0.0
 11
443.75
 21
471.0
 31
0.0
  0
ARC
  5
505
  8
DATA
 62
     7
 10
447.0
 20
473.625
 30
0.0
 40
3.6250000000001199
 50
236.5146233770088
 51
313.6028189727017
  0
LINE
  5
506
  8
DATA
 62
     7
 10
39.25
 20
471.49999999999989
 30
0.0
 11
32.75
 21
471.49999999999989
 31
0.0
  0
LINE
  5
507
  8
DATA
 62
     7
 10
39.25
 20
471.49999999999989
 30
0.0
 11
39.25
 21
471.0
 31
0.0
  0
LINE
  5
508
  8
DATA
 62
     7
 10
32.75
 20
471.49999999999989
 30
0.0
 11
32.75
 21
471.0
 31
0.0
  0
LINE
  5
509
  8
DATA
 62
     7
 10
39.25
 20
471.0
 30
0.0
 11
32.75
 21
471.0
 31
0.0
  0
ARC
  5
50A
  8
DATA
 62
     7
 10
36.00000000000005
 20
473.625
 30
0.0
 40
3.6250000000001208
 50
226.39718102729699
 51
313.60281897270181
  0
LINE
  5
50B
  8
DATA
 62
     7
 10
43.25
 20
471.49999999999989
 30
0.0
 11
36.75
 21
471.49999999999989
 31
0.0
  0
LINE
  5
50C
  8
DATA
 62
     7
 10
43.25
 20
471.49999999999989
 30
0.0
 11
43.25
 21
471.0
 31
0.0
  0
LINE
  5
50D
  8
DATA
 62
     7
 10
43.25
 20
471.0
 30
0.0
 11
36.75
 21
471.0
 31
0.0
  0
ARC
  5
50E
  8
DATA
 62
     7
 10
40.00000000000005
 20
473.625
 30
0.0
 40
3.6250000000001199
 50
236.5146233770088
 51
313.6028189727017
  0
LINE
  5
50F
  8
DATA
 62
     7
 10
30.5
 20
483.49999999999989
 30
0.0
 11
30.5
 21
476.49999999999989
 31
0.0
  0
LINE
  5
510
  8
DATA
 62
     7
 10
30.5
 20
506.5
 30
0.0
 11
30.5
 21
483.49999999999989
 31
0.0
  0
POLYLINE
  5
511
  8
DATA
 62
     7
 66
     1
 10
0.0
 20
0.0
 30
0.0
 70
     1
  0
VERTEX
  5
A71
  8
DATA
 62
     7
 10
40.499999999999993
 20
503.0
 30
0.0
  0
VERTEX
  5
A72
  8
DATA
 62
     7
 10
49.5
 20
503.0
 30
0.0
  0
VERTEX
  5
A73
  8
DATA
 62
     7
 10
49.5
 20
498.0
 30
0.0
  0
VERTEX
  5
A74
  8
DATA
 62
     7
 10
40.499999999999993
 20
498.0
 30
0.0
  0
SEQEND
  5
A75
  8
DATA
 62
     7
  0
POLYLINE
  5
517
  8
DATA
 62
     7
 66
     1
 10
0.0
 20
0.0
 30
0.0
 70
     1
  0
VERTEX
  5
A76
  8
DATA
 62
     7
 10
33.5
 20
502.0
 30
0.0
  0
VERTEX
  5
A77
  8
DATA
 62
     7
 10
36.5
 20
502.0
 30
0.0
  0
VERTEX
  5
A78
  8
DATA
 62
     7
 10
36.5
 20
499.0
 30
0.0
  0
VERTEX
  5
A79
  8
DATA
 62
     7
 10
33.5
 20
499.0
 30
0.0
  0
SEQEND
  5
A7A
  8
DATA
 62
     7
  0
CIRCLE
  5
51D
  8
DATA
 62
     7
 10
63.0
 20
498.5
 30
0.0
 40
7.9999999999999867
  0
CIRCLE
  5
51E
  8
DATA
 62
     7
 10
63.0
 20
498.5
 30
0.0
 40
3.0
  0
POLYLINE
  5
51F
  8
DATA
 62
     7
 66
     1
 10
0.0
 20
0.0
 30
0.0
 70
     1
  0
VERTEX
  5
A7B
  8
DATA
 62
     7
 10
63.0
 20
505.0
 30
0.0
  0
VERTEX
  5
A7C
  8
DATA
 62
     7
 10
57.370834875401151
 20
501.75
 30
0.0
  0
VERTEX
  5
A7D
  8
DATA
 62
     7
 10
57.370834875401151
 20
495.24999999999989
 30
0.0
  0
VERTEX
  5
A7E
  8
DATA
 62
     7
 10
63.0
 20
492.0
 30
0.0
  0
VERTEX
  5
A7F
  8
DATA
 62
     7
 10
68.629165124598842
 20
495.24999999999989
 30
0.0
  0
VERTEX
  5
A80
  8
DATA
 62
     7
 10
68.629165124598842
 20
501.75
 30
0.0
  0
SEQEND
  5
A81
  8
DATA
 62
     7
  0
LINE
  5
527
  8
DATA
 62
     7
 10
80.0
 20
504.0
 30
0.0
 11
80.0
 21
497.0
 31
0.0
  0
LINE
  5
528
  8
DATA
 62
     7
 10
83.0
 20
504.0
 30
0.0
 11
83.0
 21
497.0
 31
0.0
  0
ARC
  5
529
  8
DATA
 62
     7
 10
81.5
 20
504.0
 30
0.0
 40
1.5
 50
0.0
 51
180.0
  0
ARC
  5
52A
  8
DATA
 62
     7
 10
81.5
 20
497.0
 30
0.0
 40
1.5
 50
180.0
 51
0.0
  0
CIRCLE
  5
52B
  8
DATA
 62
     7
 10
81.5
 20
500.49999999999989
 30
0.0
 40
1.5
  0
CIRCLE
  5
52C
  8
DATA
 62
     7
 10
99.0
 20
498.5
 30
0.0
 40
7.9999999999999867
  0
CIRCLE
  5
52D
  8
DATA
 62
     7
 10
99.0
 20
498.5
 30
0.0
 40
3.0
  0
POLYLINE
  5
52E
  8
DATA
 62
     7
 66
     1
 10
0.0
 20
0.0
 30
0.0
 70
     1
  0
VERTEX
  5
A82
  8
DATA
 62
     7
 10
99.0
 20
505.0
 30
0.0
  0
VERTEX
  5
A83
  8
DATA
 62
     7
 10
93.370834875401158
 20
501.75
 30
0.0
  0
VERTEX
  5
A84
  8
DATA
 62
     7
 10
93.370834875401158
 20
495.24999999999989
 30
0.0
  0
VERTEX
  5
A85
  8
DATA
 62
     7
 10
99.0
 20
492.0
 30
0.0
  0
VERTEX
  5
A86
  8
DATA
 62
     7
 10
104.6291651245988
 20
495.24999999999989
 30
0.0
  0
VERTEX
  5
A87
  8
DATA
 62
     7
 10
104.6291651245988
 20
501.75
 30
0.0
  0
SEQEND
  5
A88
  8
DATA
 62
     7
  0
CIRCLE
  5
536
  8
DATA
 62
     7
 10
120.0
 20
498.5
 30
0.0
 40
7.9999999999999867
  0
CIRCLE
  5
537
  8
DATA
 62
     7
 10
120.0
 20
498.5
 30
0.0
 40
3.0
  0
POLYLINE
  5
538
  8
DATA
 62
     7
 66
     1
 10
0.0
 20
0.0
 30
0.0
 70
     1
  0
VERTEX
  5
A89
  8
DATA
 62
     7
 10
120.0
 20
505.0
 30
0.0
  0
VERTEX
  5
A8A
  8
DATA
 62
     7
 10
114.3708348754011
 20
501.75
 30
0.0
  0
VERTEX
  5
A8B
  8
DATA
 62
     7
 10
114.3708348754011
 20
495.24999999999989
 30
0.0
  0
VERTEX
  5
A8C
  8
DATA
 62
     7
 10
120.0
 20
492.0
 30
0.0
  0
VERTEX
  5
A8D
  8
DATA
 62
     7
 10
125.6291651245988
 20
495.24999999999989
 30
0.0
  0
VERTEX
  5
A8E
  8
DATA
 62
     7
 10
125.6291651245988
 20
501.75
 30
0.0
  0
SEQEND
  5
A8F
  8
DATA
 62
     7
  0
LINE
  5
540
  8
DATA
 62
     7
 10
128.0
 20
506.5
 30
0.0
 11
128.0
 21
476.49999999999989
 31
0.0
  0
LINE
  5
541
  8
DATA
 62
     7
 10
32.5
 20
474.5
 30
0.0
 11
39.5
 21
474.5
 31
0.0
  0
LINE
  5
542
  8
DATA
 62
     7
 10
39.5
 20
474.5
 30
0.0
 11
126.0
 21
474.5
 31
0.0
  0
LINE
  5
543
  8
DATA
 62
     7
 10
32.5
 20
508.49999999999989
 30
0.0
 11
126.0
 21
508.49999999999989
 31
0.0
  0
LINE
  5
544
  8
DATA
 62
     7
 10
120.0
 20
490.5
 30
0.0
 11
120.0
 21
484.49999999999989
 31
0.0
  0
LINE
  5
545
  8
DATA
 62
     7
 10
99.0
 20
490.5
 30
0.0
 11
99.0
 21
484.49999999999989
 31
0.0
  0
LINE
  5
546
  8
DATA
 62
     7
 10
63.0
 20
490.5
 30
0.0
 11
63.0
 21
484.49999999999989
 31
0.0
  0
LINE
  5
547
  8
DATA
 62
     7
 10
63.0
 20
484.49999999999989
 30
0.0
 11
66.0
 21
484.49999999999989
 31
0.0
  0
LINE
  5
548
  8
DATA
 62
     7
 10
82.5
 20
484.49999999999989
 30
0.0
 11
120.0
 21
484.49999999999989
 31
0.0
  0
POLYLINE
  5
549
  8
DATA
 62
     7
 66
     1
 10
0.0
 20
0.0
 30
0.0
 70
     1
  0
VERTEX
  5
A90
  8
DATA
 62
     7
 10
80.5
 20
488.0
 30
0.0
  0
VERTEX
  5
A91
  8
DATA
 62
     7
 10
82.5
 20
488.0
 30
0.0
  0
VERTEX
  5
A92
  8
DATA
 62
     7
 10
82.5
 20
481.0
 30
0.0
  0
VERTEX
  5
A93
  8
DATA
 62
     7
 10
80.5
 20
481.0
 30
0.0
  0
SEQEND
  5
A94
  8
DATA
 62
     7
  0
LINE
  5
54F
  8
DATA
 62
     7
 10
79.201902961143659
 20
482.20190296114367
 30
0.0
 11
83.798097038856184
 21
486.79809703885621
 31
0.0
  0
LINE
  5
550
  8
DATA
 62
     7
 10
78.492893218813421
 20
482.9071067811866
 30
0.0
 11
79.907106781186542
 21
481.49289321881338
 31
0.0
  0
LINE
  5
551
  8
DATA
 62
     7
 10
78.492893218813421
 20
482.9071067811866
 30
0.0
 11
77.999999999999929
 21
481.0
 31
0.0
  0
LINE
  5
552
  8
DATA
 62
     7
 10
77.999999999999929
 20
481.0
 30
0.0
 11
79.907106781186542
 21
481.49289321881338
 31
0.0
  0
LINE
  5
553
  8
DATA
 62
     7
 10
66.0
 20
484.49999999999989
 30
0.0
 11
71.0
 21
487.38675134594808
 31
0.0
  0
LINE
  5
554
  8
DATA
 62
     7
 10
66.0
 20
484.49999999999989
 30
0.0
 11
71.0
 21
481.61324865405192
 31
0.0
  0
LINE
  5
555
  8
DATA
 62
     7
 10
71.0
 20
487.38675134594808
 30
0.0
 11
71.0
 21
481.61324865405192
 31
0.0
  0
LINE
  5
556
  8
DATA
 62
     7
 10
71.0
 20
484.49999999999989
 30
0.0
 11
80.5
 21
484.49999999999989
 31
0.0
  0
LINE
  5
557
  8
DATA
 62
     7
 10
32.5
 20
485.5
 30
0.0
 11
39.5
 21
485.5
 31
0.0
  0
LINE
  5
558
  8
DATA
 62
     7
 10
41.5
 20
483.49999999999989
 30
0.0
 11
41.5
 21
476.49999999999989
 31
0.0
  0
ARC
  5
559
  8
DATA
 62
     7
 10
32.5
 20
483.49999999999989
 30
0.0
 40
2.0
 50
90.0
 51
180.0
  0
ARC
  5
55A
  8
DATA
 62
     7
 10
39.5
 20
476.49999999999989
 30
0.0
 40
2.0
 50
270.0
 51
0.0
  0
ARC
  5
55B
  8
DATA
 62
     7
 10
39.5
 20
483.49999999999989
 30
0.0
 40
2.0
 50
0.0
 51
90.0
  0
LINE
  5
55C
  8
DATA
 62
     7
 10
35.0
 20
499.0
 30
0.0
 11
35.0
 21
491.0
 31
0.0
  0
ARC
  5
55D
  8
DATA
 62
     7
 10
37.0
 20
491.0
 30
0.0
 40
2.0
 50
180.0
 51
270.0
  0
LINE
  5
55E
  8
DATA
 62
     7
 10
53.749999964402782
 20
495.0
 30
0.0
 11
49.749999964402782
 21
495.0
 31
0.0
  0
LINE
  5
55F
  8
DATA
 62
     7
 10
53.749999964402782
 20
495.0
 30
0.0
 11
53.749999964402782
 21
494.5
 31
0.0
  0
LINE
  5
560
  8
DATA
 62
     7
 10
52.999999964402782
 20
493.5
 30
0.0
 11
50.499999964402782
 21
493.5
 31
0.0
  0
LINE
  5
561
  8
DATA
 62
     7
 10
52.999999964402782
 20
493.5
 30
0.0
 11
52.999999964402782
 21
494.5
 31
0.0
  0
LINE
  5
562
  8
DATA
 62
     7
 10
50.499999964402782
 20
493.5
 30
0.0
 11
50.499999964402782
 21
494.5
 31
0.0
  0
LINE
  5
563
  8
DATA
 62
     7
 10
49.749999964402782
 20
495.0
 30
0.0
 11
49.749999964402782
 21
494.5
 31
0.0
  0
LINE
  5
564
  8
DATA
 62
     7
 10
53.749999964402782
 20
494.5
 30
0.0
 11
52.999999964402782
 21
494.5
 31
0.0
  0
LINE
  5
565
  8
DATA
 62
     7
 10
50.499999964402782
 20
494.5
 30
0.0
 11
49.749999964402782
 21
494.5
 31
0.0
  0
LINE
  5
566
  8
DATA
 62
     7
 10
53.749999964402782
 20
490.0
 30
0.0
 11
49.749999964402782
 21
490.0
 31
0.0
  0
LINE
  5
567
  8
DATA
 62
     7
 10
53.749999964402782
 20
490.0
 30
0.0
 11
53.749999964402782
 21
489.5
 31
0.0
  0
LINE
  5
568
  8
DATA
 62
     7
 10
52.999999964402782
 20
488.0
 30
0.0
 11
50.499999964402782
 21
488.0
 31
0.0
  0
LINE
  5
569
  8
DATA
 62
     7
 10
52.999999964402782
 20
488.0
 30
0.0
 11
52.999999964402782
 21
489.5
 31
0.0
  0
LINE
  5
56A
  8
DATA
 62
     7
 10
50.499999964402782
 20
488.0
 30
0.0
 11
50.499999964402782
 21
489.5
 31
0.0
  0
LINE
  5
56B
  8
DATA
 62
     7
 10
49.749999964402782
 20
490.0
 30
0.0
 11
49.749999964402782
 21
489.5
 31
0.0
  0
LINE
  5
56C
  8
DATA
 62
     7
 10
53.749999964402782
 20
489.5
 30
0.0
 11
52.999999964402782
 21
489.5
 31
0.0
  0
LINE
  5
56D
  8
DATA
 62
     7
 10
50.499999964402782
 20
489.5
 30
0.0
 11
49.749999964402782
 21
489.5
 31
0.0
  0
TEXT
  5
56E
  8
DATA
 62
     7
 10
48.499999977648251
 20
494.89999999999992
 30
0.0
 40
2.3999999999999999
  1
LIFTED
 50
180.0
 41
0.8
 11
48.499999977648251
 21
492.49999999999989
 31
0.0
 73
     3
  0
TEXT
  5
56F
  8
DATA
 62
     7
 10
48.750000019868253
 20
489.89999999999998
 30
0.0
 40
2.3999999999999999
  1
EARTHED
 50
180.0
 41
0.8
 11
48.750000019868253
 21
487.5
 31
0.0
 73
     3
  0
TEXT
  5
570
  8
DATA
 62
     7
 10
49.139756964312717
 20
506.39999999999998
 30
0.0
 40
2.3999999999999999
  1
EARTH
 50
180.0
 41
0.8
 11
49.139756964312717
 21
504.0
 31
0.0
 73
     3
  0
TEXT
  5
571
  8
DATA
 62
     7
 10
79.13975696431271
 20
505.10000000000002
 30
0.0
 40
2.6000000000000001
  1
40dB
 50
180.0
 41
0.8
 11
79.13975696431271
 21
502.5
 31
0.0
 73
     3
  0
TEXT
  5
572
  8
DATA
 62
     7
 10
79.13975696431271
 20
501.54878472222219
 30
0.0
 40
2.6000000000000001
  1
20dB
 50
180.0
 41
0.8
 11
79.13975696431271
 21
498.94878472222217
 31
0.0
 73
     3
  0
TEXT
  5
573
  8
DATA
 62
     7
 10
79.13975696431271
 20
498.04878472222219
 30
0.0
 40
2.6000000000000001
  1
0dB
 50
180.0
 41
0.8
 11
79.13975696431271
 21
495.44878472222217
 31
0.0
 73
     3
  0
TEXT
  5
574
  8
DATA
 62
     7
 10
68.999999977648258
 20
479.39999999999992
 30
0.0
 40
2.3999999999999999
  1
BUFFERED
 50
180.0
 41
0.8
 11
68.999999977648258
 21
477.0
 31
0.0
 73
     3
  0
TEXT
  5
575
  8
DATA
 62
     7
 10
103.4999999776482
 20
479.39999999999992
 30
0.0
 40
2.3999999999999999
  1
DIRECT
 50
180.0
 41
0.8
 11
103.4999999776482
 21
477.0
 31
0.0
 73
     3
  0
TEXT
  5
576
  8
DATA
 62
     7
 10
123.4999999776482
 20
479.39999999999992
 30
0.0
 40
2.3999999999999999
  1
INPUT
 50
180.0
 41
0.8
 11
123.4999999776482
 21
477.0
 31
0.0
 73
     3
  0
ARC
  5
577
  8
DATA
 62
     7
 10
126.0
 20
506.5
 30
0.0
 40
2.0
 50
0.0
 51
90.0
  0
ARC
  5
578
  8
DATA
 62
     7
 10
126.0
 20
476.49999999999989
 30
0.0
 40
2.0
 50
270.0
 51
0.0
  0
ARC
  5
579
  8
DATA
 62
     7
 10
32.5
 20
476.49999999999989
 30
0.0
 40
2.0
 50
180.0
 51
270.0
  0
ARC
  5
57A
  8
DATA
 62
     7
 10
32.5
 20
506.5
 30
0.0
 40
2.0
 50
90.0
 51
180.0
  0
LINE
  5
57B
  8
DATA
 62
     7
 10
81.5
 20
488.0
 30
0.0
 11
81.5
 21
495.5
 31
0.0
  0
LINE
  5
57C
  8
DATA
 62
     7
 10
130.5
 20
483.49999999999989
 30
0.0
 11
130.5
 21
476.49999999999989
 31
0.0
  0
LINE
  5
57D
  8
DATA
 62
     7
 10
130.5
 20
506.5
 30
0.0
 11
130.5
 21
483.49999999999989
 31
0.0
  0
POLYLINE
  5
57E
  8
DATA
 62
     7
 66
     1
 10
0.0
 20
0.0
 30
0.0
 70
     1
  0
VERTEX
  5
A95
  8
DATA
 62
     7
 10
140.5
 20
503.0
 30
0.0
  0
VERTEX
  5
A96
  8
DATA
 62
     7
 10
149.5
 20
503.0
 30
0.0
  0
VERTEX
  5
A97
  8
DATA
 62
     7
 10
149.5
 20
498.0
 30
0.0
  0
VERTEX
  5
A98
  8
DATA
 62
     7
 10
140.5
 20
498.0
 30
0.0
  0
SEQEND
  5
A99
  8
DATA
 62
     7
  0
POLYLINE
  5
584
  8
DATA
 62
     7
 66
     1
 10
0.0
 20
0.0
 30
0.0
 70
     1
  0
VERTEX
  5
A9A
  8
DATA
 62
     7
 10
133.5
 20
502.0
 30
0.0
  0
VERTEX
  5
A9B
  8
DATA
 62
     7
 10
136.5
 20
502.0
 30
0.0
  0
VERTEX
  5
A9C
  8
DATA
 62
     7
 10
136.5
 20
499.0
 30
0.0
  0
VERTEX
  5
A9D
  8
DATA
 62
     7
 10
133.5
 20
499.0
 30
0.0
  0
SEQEND
  5
A9E
  8
DATA
 62
     7
  0
CIRCLE
  5
58A
  8
DATA
 62
     7
 10
163.0
 20
498.5
 30
0.0
 40
7.9999999999999867
  0
CIRCLE
  5
58B
  8
DATA
 62
     7
 10
163.0
 20
498.5
 30
0.0
 40
3.0
  0
POLYLINE
  5
58C
  8
DATA
 62
     7
 66
     1
 10
0.0
 20
0.0
 30
0.0
 70
     1
  0
VERTEX
  5
A9F
  8
DATA
 62
     7
 10
163.0
 20
505.0
 30
0.0
  0
VERTEX
  5
AA0
  8
DATA
 62
     7
 10
157.3708348754011
 20
501.75
 30
0.0
  0
VERTEX
  5
AA1
  8
DATA
 62
     7
 10
157.3708348754011
 20
495.24999999999989
 30
0.0
  0
VERTEX
  5
AA2
  8
DATA
 62
     7
 10
163.0
 20
492.0
 30
0.0
  0
VERTEX
  5
AA3
  8
DATA
 62
     7
 10
168.62916512459881
 20
495.24999999999989
 30
0.0
  0
VERTEX
  5
AA4
  8
DATA
 62
     7
 10
168.62916512459881
 20
501.75
 30
0.0
  0
SEQEND
  5
AA5
  8
DATA
 62
     7
  0
LINE
  5
594
  8
DATA
 62
     7
 10
180.0
 20
504.0
 30
0.0
 11
180.0
 21
497.0
 31
0.0
  0
LINE
  5
595
  8
DATA
 62
     7
 10
183.0
 20
504.0
 30
0.0
 11
183.0
 21
497.0
 31
0.0
  0
ARC
  5
596
  8
DATA
 62
     7
 10
181.5
 20
504.0
 30
0.0
 40
1.5
 50
0.0
 51
180.0
  0
ARC
  5
597
  8
DATA
 62
     7
 10
181.5
 20
497.0
 30
0.0
 40
1.5
 50
180.0
 51
0.0
  0
CIRCLE
  5
598
  8
DATA
 62
     7
 10
181.5
 20
500.49999999999989
 30
0.0
 40
1.5
  0
CIRCLE
  5
599
  8
DATA
 62
     7
 10
199.0
 20
498.5
 30
0.0
 40
7.9999999999999867
  0
CIRCLE
  5
59A
  8
DATA
 62
     7
 10
199.0
 20
498.5
 30
0.0
 40
3.0
  0
POLYLINE
  5
59B
  8
DATA
 62
     7
 66
     1
 10
0.0
 20
0.0
 30
0.0
 70
     1
  0
VERTEX
  5
AA6
  8
DATA
 62
     7
 10
199.0
 20
505.0
 30
0.0
  0
VERTEX
  5
AA7
  8
DATA
 62
     7
 10
193.37083487540119
 20
501.75
 30
0.0
  0
VERTEX
  5
AA8
  8
DATA
 62
     7
 10
193.37083487540119
 20
495.24999999999989
 30
0.0
  0
VERTEX
  5
AA9
  8
DATA
 62
     7
 10
199.0
 20
492.0
 30
0.0
  0
VERTEX
  5
AAA
  8
DATA
 62
     7
 10
204.62916512459881
 20
495.24999999999989
 30
0.0
  0
VERTEX
  5
AAB
  8
DATA
 62
     7
 10
204.62916512459881
 20
501.75
 30
0.0
  0
SEQEND
  5
AAC
  8
DATA
 62
     7
  0
CIRCLE
  5
5A3
  8
DATA
 62
     7
 10
220.0
 20
498.5
 30
0.0
 40
7.9999999999999867
  0
CIRCLE
  5
5A4
  8
DATA
 62
     7
 10
220.0
 20
498.5
 30
0.0
 40
3.0
  0
POLYLINE
  5
5A5
  8
DATA
 62
     7
 66
     1
 10
0.0
 20
0.0
 30
0.0
 70
     1
  0
VERTEX
  5
AAD
  8
DATA
 62
     7
 10
220.0
 20
505.0
 30
0.0
  0
VERTEX
  5
AAE
  8
DATA
 62
     7
 10
214.37083487540119
 20
501.75
 30
0.0
  0
VERTEX
  5
AAF
  8
DATA
 62
     7
 10
214.37083487540119
 20
495.24999999999989
 30
0.0
  0
VERTEX
  5
AB0
  8
DATA
 62
     7
 10
220.0
 20
492.0
 30
0.0
  0
VERTEX
  5
AB1
  8
DATA
 62
     7
 10
225.62916512459881
 20
495.24999999999989
 30
0.0
  0
VERTEX
  5
AB2
  8
DATA
 62
     7
 10
225.62916512459881
 20
501.75
 30
0.0
  0
SEQEND
  5
AB3
  8
DATA
 62
     7
  0
LINE
  5
5AD
  8
DATA
 62
     7
 10
228.0
 20
506.5
 30
0.0
 11
228.0
 21
476.49999999999989
 31
0.0
  0
LINE
  5
5AE
  8
DATA
 62
     7
 10
132.5
 20
474.5
 30
0.0
 11
139.5
 21
474.5
 31
0.0
  0
LINE
  5
5AF
  8
DATA
 62
     7
 10
139.5
 20
474.5
 30
0.0
 11
226.0
 21
474.5
 31
0.0
  0
LINE
  5
5B0
  8
DATA
 62
     7
 10
132.5
 20
508.49999999999989
 30
0.0
 11
226.0
 21
508.49999999999989
 31
0.0
  0
LINE
  5
5B1
  8
DATA
 62
     7
 10
220.0
 20
490.5
 30
0.0
 11
220.0
 21
484.49999999999989
 31
0.0
  0
LINE
  5
5B2
  8
DATA
 62
     7
 10
199.0
 20
490.5
 30
0.0
 11
199.0
 21
484.49999999999989
 31
0.0
  0
LINE
  5
5B3
  8
DATA
 62
     7
 10
163.0
 20
490.5
 30
0.0
 11
163.0
 21
484.49999999999989
 31
0.0
  0
LINE
  5
5B4
  8
DATA
 62
     7
 10
163.0
 20
484.49999999999989
 30
0.0
 11
166.0
 21
484.49999999999989
 31
0.0
  0
LINE
  5
5B5
  8
DATA
 62
     7
 10
182.5
 20
484.49999999999989
 30
0.0
 11
220.0
 21
484.49999999999989
 31
0.0
  0
POLYLINE
  5
5B6
  8
DATA
 62
     7
 66
     1
 10
0.0
 20
0.0
 30
0.0
 70
     1
  0
VERTEX
  5
AB4
  8
DATA
 62
     7
 10
180.5
 20
488.0
 30
0.0
  0
VERTEX
  5
AB5
  8
DATA
 62
     7
 10
182.5
 20
488.0
 30
0.0
  0
VERTEX
  5
AB6
  8
DATA
 62
     7
 10
182.5
 20
481.0
 30
0.0
  0
VERTEX
  5
AB7
  8
DATA
 62
     7
 10
180.5
 20
481.0
 30
0.0
  0
SEQEND
  5
AB8
  8
DATA
 62
     7
  0
LINE
  5
5BC
  8
DATA
 62
     7
 10
179.20190296114359
 20
482.20190296114367
 30
0.0
 11
183.79809703885621
 21
486.79809703885621
 31
0.0
  0
LINE
  5
5BD
  8
DATA
 62
     7
 10
178.49289321881341
 20
482.9071067811866
 30
0.0
 11
179.90710678118651
 21
481.49289321881338
 31
0.0
  0
LINE
  5
5BE
  8
DATA
 62
     7
 10
178.49289321881341
 20
482.9071067811866
 30
0.0
 11
177.99999999999989
 21
481.0
 31
0.0
  0
LINE
  5
5BF
  8
DATA
 62
     7
 10
177.99999999999989
 20
481.0
 30
0.0
 11
179.90710678118651
 21
481.49289321881338
 31
0.0
  0
LINE
  5
5C0
  8
DATA
 62
     7
 10
166.0
 20
484.49999999999989
 30
0.0
 11
171.0
 21
487.38675134594808
 31
0.0
  0
LINE
  5
5C1
  8
DATA
 62
     7
 10
166.0
 20
484.49999999999989
 30
0.0
 11
171.0
 21
481.61324865405192
 31
0.0
  0
LINE
  5
5C2
  8
DATA
 62
     7
 10
171.0
 20
487.38675134594808
 30
0.0
 11
171.0
 21
481.61324865405192
 31
0.0
  0
LINE
  5
5C3
  8
DATA
 62
     7
 10
171.0
 20
484.49999999999989
 30
0.0
 11
180.5
 21
484.49999999999989
 31
0.0
  0
LINE
  5
5C4
  8
DATA
 62
     7
 10
132.5
 20
485.5
 30
0.0
 11
139.5
 21
485.5
 31
0.0
  0
LINE
  5
5C5
  8
DATA
 62
     7
 10
141.5
 20
483.49999999999989
 30
0.0
 11
141.5
 21
476.49999999999989
 31
0.0
  0
ARC
  5
5C6
  8
DATA
 62
     7
 10
132.5
 20
483.49999999999989
 30
0.0
 40
2.0
 50
90.0
 51
180.0
  0
ARC
  5
5C7
  8
DATA
 62
     7
 10
139.5
 20
476.49999999999989
 30
0.0
 40
2.0
 50
270.0
 51
0.0
  0
ARC
  5
5C8
  8
DATA
 62
     7
 10
139.5
 20
483.49999999999989
 30
0.0
 40
2.0
 50
0.0
 51
90.0
  0
LINE
  5
5C9
  8
DATA
 62
     7
 10
135.0
 20
499.0
 30
0.0
 11
135.0
 21
491.0
 31
0.0
  0
ARC
  5
5CA
  8
DATA
 62
     7
 10
137.0
 20
491.0
 30
0.0
 40
2.0
 50
180.0
 51
270.0
  0
LINE
  5
5CB
  8
DATA
 62
     7
 10
153.7499999644028
 20
495.0
 30
0.0
 11
149.7499999644028
 21
495.0
 31
0.0
  0
LINE
  5
5CC
  8
DATA
 62
     7
 10
153.7499999644028
 20
495.0
 30
0.0
 11
153.7499999644028
 21
494.5
 31
0.0
  0
LINE
  5
5CD
  8
DATA
 62
     7
 10
152.9999999644028
 20
493.5
 30
0.0
 11
150.4999999644028
 21
493.5
 31
0.0
  0
LINE
  5
5CE
  8
DATA
 62
     7
 10
152.9999999644028
 20
493.5
 30
0.0
 11
152.9999999644028
 21
494.5
 31
0.0
  0
LINE
  5
5CF
  8
DATA
 62
     7
 10
150.4999999644028
 20
493.5
 30
0.0
 11
150.4999999644028
 21
494.5
 31
0.0
  0
LINE
  5
5D0
  8
DATA
 62
     7
 10
149.7499999644028
 20
495.0
 30
0.0
 11
149.7499999644028
 21
494.5
 31
0.0
  0
LINE
  5
5D1
  8
DATA
 62
     7
 10
153.7499999644028
 20
494.5
 30
0.0
 11
152.9999999644028
 21
494.5
 31
0.0
  0
LINE
  5
5D2
  8
DATA
 62
     7
 10
150.4999999644028
 20
494.5
 30
0.0
 11
149.7499999644028
 21
494.5
 31
0.0
  0
LINE
  5
5D3
  8
DATA
 62
     7
 10
153.7499999644028
 20
490.0
 30
0.0
 11
149.7499999644028
 21
490.0
 31
0.0
  0
LINE
  5
5D4
  8
DATA
 62
     7
 10
153.7499999644028
 20
490.0
 30
0.0
 11
153.7499999644028
 21
489.5
 31
0.0
  0
LINE
  5
5D5
  8
DATA
 62
     7
 10
152.9999999644028
 20
488.0
 30
0.0
 11
150.4999999644028
 21
488.0
 31
0.0
  0
LINE
  5
5D6
  8
DATA
 62
     7
 10
152.9999999644028
 20
488.0
 30
0.0
 11
152.9999999644028
 21
489.5
 31
0.0
  0
LINE
  5
5D7
  8
DATA
 62
     7
 10
150.4999999644028
 20
488.0
 30
0.0
 11
150.4999999644028
 21
489.5
 31
0.0
  0
LINE
  5
5D8
  8
DATA
 62
     7
 10
149.7499999644028
 20
490.0
 30
0.0
 11
149.7499999644028
 21
489.5
 31
0.0
  0
LINE
  5
5D9
  8
DATA
 62
     7
 10
153.7499999644028
 20
489.5
 30
0.0
 11
152.9999999644028
 21
489.5
 31
0.0
  0
LINE
  5
5DA
  8
DATA
 62
     7
 10
150.4999999644028
 20
489.5
 30
0.0
 11
149.7499999644028
 21
489.5
 31
0.0
  0
TEXT
  5
5DB
  8
DATA
 62
     7
 10
148.4999999776482
 20
494.89999999999992
 30
0.0
 40
2.3999999999999999
  1
LIFTED
 50
180.0
 41
0.8
 11
148.4999999776482
 21
492.49999999999989
 31
0.0
 73
     3
  0
TEXT
  5
5DC
  8
DATA
 62
     7
 10
148.7500000198682
 20
489.89999999999998
 30
0.0
 40
2.3999999999999999
  1
EARTHED
 50
180.0
 41
0.8
 11
148.7500000198682
 21
487.5
 31
0.0
 73
     3
  0
TEXT
  5
5DD
  8
DATA
 62
     7
 10
149.13975696431271
 20
506.39999999999998
 30
0.0
 40
2.3999999999999999
  1
EARTH
 50
180.0
 41
0.8
 11
149.13975696431271
 21
504.0
 31
0.0
 73
     3
  0
TEXT
  5
5DE
  8
DATA
 62
     7
 10
179.13975696431271
 20
505.10000000000002
 30
0.0
 40
2.6000000000000001
  1
40dB
 50
180.0
 41
0.8
 11
179.13975696431271
 21
502.5
 31
0.0
 73
     3
  0
TEXT
  5
5DF
  8
DATA
 62
     7
 10
179.13975696431271
 20
501.54878472222219
 30
0.0
 40
2.6000000000000001
  1
20dB
 50
180.0
 41
0.8
 11
179.13975696431271
 21
498.94878472222217
 31
0.0
 73
     3
  0
TEXT
  5
5E0
  8
DATA
 62
     7
 10
179.13975696431271
 20
498.04878472222219
 30
0.0
 40
2.6000000000000001
  1
0dB
 50
180.0
 41
0.8
 11
179.13975696431271
 21
495.44878472222217
 31
0.0
 73
     3
  0
TEXT
  5
5E1
  8
DATA
 62
     7
 10
168.9999999776482
 20
479.39999999999992
 30
0.0
 40
2.3999999999999999
  1
BUFFERED
 50
180.0
 41
0.8
 11
168.9999999776482
 21
477.0
 31
0.0
 73
     3
  0
TEXT
  5
5E2
  8
DATA
 62
     7
 10
203.4999999776482
 20
479.39999999999992
 30
0.0
 40
2.3999999999999999
  1
DIRECT
 50
180.0
 41
0.8
 11
203.4999999776482
 21
477.0
 31
0.0
 73
     3
  0
TEXT
  5
5E3
  8
DATA
 62
     7
 10
223.4999999776482
 20
479.39999999999992
 30
0.0
 40
2.3999999999999999
  1
INPUT
 50
180.0
 41
0.8
 11
223.4999999776482
 21
477.0
 31
0.0
 73
     3
  0
ARC
  5
5E4
  8
DATA
 62
     7
 10
226.0
 20
506.5
 30
0.0
 40
2.0
 50
0.0
 51
90.0
  0
ARC
  5
5E5
  8
DATA
 62
     7
 10
226.0
 20
476.49999999999989
 30
0.0
 40
2.0
 50
270.0
 51
0.0
  0
ARC
  5
5E6
  8
DATA
 62
     7
 10
132.5
 20
476.49999999999989
 30
0.0
 40
2.0
 50
180.0
 51
270.0
  0
ARC
  5
5E7
  8
DATA
 62
     7
 10
132.5
 20
506.5
 30
0.0
 40
2.0
 50
90.0
 51
180.0
  0
LINE
  5
5E8
  8
DATA
 62
     7
 10
181.5
 20
488.0
 30
0.0
 11
181.5
 21
495.5
 31
0.0
  0
LINE
  5
5E9
  8
DATA
 62
     7
 10
230.5
 20
483.49999999999989
 30
0.0
 11
230.5
 21
476.49999999999989
 31
0.0
  0
LINE
  5
5EA
  8
DATA
 62
     7
 10
230.5
 20
506.5
 30
0.0
 11
230.5
 21
483.49999999999989
 31
0.0
  0
POLYLINE
  5
5EB
  8
DATA
 62
     7
 66
     1
 10
0.0
 20
0.0
 30
0.0
 70
     1
  0
VERTEX
  5
AB9
  8
DATA
 62
     7
 10
240.5
 20
503.0
 30
0.0
  0
VERTEX
  5
ABA
  8
DATA
 62
     7
 10
249.5
 20
503.0
 30
0.0
  0
VERTEX
  5
ABB
  8
DATA
 62
     7
 10
249.5
 20
498.0
 30
0.0
  0
VERTEX
  5
ABC
  8
DATA
 62
     7
 10
240.5
 20
498.0
 30
0.0
  0
SEQEND
  5
ABD
  8
DATA
 62
     7
  0
POLYLINE
  5
5F1
  8
DATA
 62
     7
 66
     1
 10
0.0
 20
0.0
 30
0.0
 70
     1
  0
VERTEX
  5
ABE
  8
DATA
 62
     7
 10
233.5
 20
502.0
 30
0.0
  0
VERTEX
  5
ABF
  8
DATA
 62
     7
 10
236.5
 20
502.0
 30
0.0
  0
VERTEX
  5
AC0
  8
DATA
 62
     7
 10
236.5
 20
499.0
 30
0.0
  0
VERTEX
  5
AC1
  8
DATA
 62
     7
 10
233.5
 20
499.0
 30
0.0
  0
SEQEND
  5
AC2
  8
DATA
 62
     7
  0
CIRCLE
  5
5F7
  8
DATA
 62
     7
 10
263.0
 20
498.5
 30
0.0
 40
7.9999999999999867
  0
CIRCLE
  5
5F8
  8
DATA
 62
     7
 10
263.0
 20
498.5
 30
0.0
 40
3.0
  0
POLYLINE
  5
5F9
  8
DATA
 62
     7
 66
     1
 10
0.0
 20
0.0
 30
0.0
 70
     1
  0
VERTEX
  5
AC3
  8
DATA
 62
     7
 10
263.0
 20
505.0
 30
0.0
  0
VERTEX
  5
AC4
  8
DATA
 62
     7
 10
257.37083487540121
 20
501.75
 30
0.0
  0
VERTEX
  5
AC5
  8
DATA
 62
     7
 10
257.37083487540121
 20
495.24999999999989
 30
0.0
  0
VERTEX
  5
AC6
  8
DATA
 62
     7
 10
263.0
 20
492.0
 30
0.0
  0
VERTEX
  5
AC7
  8
DATA
 62
     7
 10
268.62916512459879
 20
495.24999999999989
 30
0.0
  0
VERTEX
  5
AC8
  8
DATA
 62
     7
 10
268.62916512459879
 20
501.75
 30
0.0
  0
SEQEND
  5
AC9
  8
DATA
 62
     7
  0
LINE
  5
601
  8
DATA
 62
     7
 10
280.0
 20
504.0
 30
0.0
 11
280.0
 21
497.0
 31
0.0
  0
LINE
  5
602
  8
DATA
 62
     7
 10
283.0
 20
504.0
 30
0.0
 11
283.0
 21
497.0
 31
0.0
  0
ARC
  5
603
  8
DATA
 62
     7
 10
281.5
 20
504.0
 30
0.0
 40
1.5
 50
0.0
 51
180.0
  0
ARC
  5
604
  8
DATA
 62
     7
 10
281.5
 20
497.0
 30
0.0
 40
1.5
 50
180.0
 51
0.0
  0
CIRCLE
  5
605
  8
DATA
 62
     7
 10
281.5
 20
500.49999999999989
 30
0.0
 40
1.5
  0
CIRCLE
  5
606
  8
DATA
 62
     7
 10
299.0
 20
498.5
 30
0.0
 40
7.9999999999999867
  0
CIRCLE
  5
607
  8
DATA
 62
     7
 10
299.0
 20
498.5
 30
0.0
 40
3.0
  0
POLYLINE
  5
608
  8
DATA
 62
     7
 66
     1
 10
0.0
 20
0.0
 30
0.0
 70
     1
  0
VERTEX
  5
ACA
  8
DATA
 62
     7
 10
299.0
 20
505.0
 30
0.0
  0
VERTEX
  5
ACB
  8
DATA
 62
     7
 10
293.37083487540121
 20
501.75
 30
0.0
  0
VERTEX
  5
ACC
  8
DATA
 62
     7
 10
293.37083487540121
 20
495.24999999999989
 30
0.0
  0
VERTEX
  5
ACD
  8
DATA
 62
     7
 10
299.0
 20
492.0
 30
0.0
  0
VERTEX
  5
ACE
  8
DATA
 62
     7
 10
304.62916512459879
 20
495.24999999999989
 30
0.0
  0
VERTEX
  5
ACF
  8
DATA
 62
     7
 10
304.62916512459879
 20
501.75
 30
0.0
  0
SEQEND
  5
AD0
  8
DATA
 62
     7
  0
CIRCLE
  5
610
  8
DATA
 62
     7
 10
320.0
 20
498.5
 30
0.0
 40
7.9999999999999867
  0
CIRCLE
  5
611
  8
DATA
 62
     7
 10
320.0
 20
498.5
 30
0.0
 40
3.0
  0
POLYLINE
  5
612
  8
DATA
 62
     7
 66
     1
 10
0.0
 20
0.0
 30
0.0
 70
     1
  0
VERTEX
  5
AD1
  8
DATA
 62
     7
 10
320.0
 20
505.0
 30
0.0
  0
VERTEX
  5
AD2
  8
DATA
 62
     7
 10
314.37083487540121
 20
501.75
 30
0.0
  0
VERTEX
  5
AD3
  8
DATA
 62
     7
 10
314.37083487540121
 20
495.24999999999989
 30
0.0
  0
VERTEX
  5
AD4
  8
DATA
 62
     7
 10
320.0
 20
492.0
 30
0.0
  0
VERTEX
  5
AD5
  8
DATA
 62
     7
 10
325.62916512459879
 20
495.24999999999989
 30
0.0
  0
VERTEX
  5
AD6
  8
DATA
 62
     7
 10
325.62916512459879
 20
501.75
 30
0.0
  0
SEQEND
  5
AD7
  8
DATA
 62
     7
  0
LINE
  5
61A
  8
DATA
 62
     7
 10
328.0
 20
506.5
 30
0.0
 11
328.0
 21
476.49999999999989
 31
0.0
  0
LINE
  5
61B
  8
DATA
 62
     7
 10
232.5
 20
474.5
 30
0.0
 11
239.5
 21
474.5
 31
0.0
  0
LINE
  5
61C
  8
DATA
 62
     7
 10
239.5
 20
474.5
 30
0.0
 11
326.0
 21
474.5
 31
0.0
  0
LINE
  5
61D
  8
DATA
 62
     7
 10
232.5
 20
508.49999999999989
 30
0.0
 11
326.0
 21
508.49999999999989
 31
0.0
  0
LINE
  5
61E
  8
DATA
 62
     7
 10
320.0
 20
490.5
 30
0.0
 11
320.0
 21
484.49999999999989
 31
0.0
  0
LINE
  5
61F
  8
DATA
 62
     7
 10
299.0
 20
490.5
 30
0.0
 11
299.0
 21
484.49999999999989
 31
0.0
  0
LINE
  5
620
  8
DATA
 62
     7
 10
263.0
 20
490.5
 30
0.0
 11
263.0
 21
484.49999999999989
 31
0.0
  0
LINE
  5
621
  8
DATA
 62
     7
 10
263.0
 20
484.49999999999989
 30
0.0
 11
266.0
 21
484.49999999999989
 31
0.0
  0
LINE
  5
622
  8
DATA
 62
     7
 10
282.5
 20
484.49999999999989
 30
0.0
 11
320.0
 21
484.49999999999989
 31
0.0
  0
POLYLINE
  5
623
  8
DATA
 62
     7
 66
     1
 10
0.0
 20
0.0
 30
0.0
 70
     1
  0
VERTEX
  5
AD8
  8
DATA
 62
     7
 10
280.5
 20
488.0
 30
0.0
  0
VERTEX
  5
AD9
  8
DATA
 62
     7
 10
282.5
 20
488.0
 30
0.0
  0
VERTEX
  5
ADA
  8
DATA
 62
     7
 10
282.5
 20
481.0
 30
0.0
  0
VERTEX
  5
ADB
  8
DATA
 62
     7
 10
280.5
 20
481.0
 30
0.0
  0
SEQEND
  5
ADC
  8
DATA
 62
     7
  0
LINE
  5
629
  8
DATA
 62
     7
 10
279.20190296114367
 20
482.20190296114367
 30
0.0
 11
283.79809703885621
 21
486.79809703885621
 31
0.0
  0
LINE
  5
62A
  8
DATA
 62
     7
 10
278.49289321881338
 20
482.9071067811866
 30
0.0
 11
279.90710678118649
 21
481.49289321881338
 31
0.0
  0
LINE
  5
62B
  8
DATA
 62
     7
 10
278.49289321881338
 20
482.9071067811866
 30
0.0
 11
277.99999999999989
 21
481.0
 31
0.0
  0
LINE
  5
62C
  8
DATA
 62
     7
 10
277.99999999999989
 20
481.0
 30
0.0
 11
279.90710678118649
 21
481.49289321881338
 31
0.0
  0
LINE
  5
62D
  8
DATA
 62
     7
 10
266.0
 20
484.49999999999989
 30
0.0
 11
271.0
 21
487.38675134594808
 31
0.0
  0
LINE
  5
62E
  8
DATA
 62
     7
 10
266.0
 20
484.49999999999989
 30
0.0
 11
271.0
 21
481.61324865405192
 31
0.0
  0
LINE
  5
62F
  8
DATA
 62
     7
 10
271.0
 20
487.38675134594808
 30
0.0
 11
271.0
 21
481.61324865405192
 31
0.0
  0
LINE
  5
630
  8
DATA
 62
     7
 10
271.0
 20
484.49999999999989
 30
0.0
 11
280.5
 21
484.49999999999989
 31
0.0
  0
LINE
  5
631
  8
DATA
 62
     7
 10
232.5
 20
485.5
 30
0.0
 11
239.5
 21
485.5
 31
0.0
  0
LINE
  5
632
  8
DATA
 62
     7
 10
241.5
 20
483.49999999999989
 30
0.0
 11
241.5
 21
476.49999999999989
 31
0.0
  0
ARC
  5
633
  8
DATA
 62
     7
 10
232.5
 20
483.49999999999989
 30
0.0
 40
2.0
 50
90.0
 51
180.0
  0
ARC
  5
634
  8
DATA
 62
     7
 10
239.5
 20
476.49999999999989
 30
0.0
 40
2.0
 50
270.0
 51
0.0
  0
ARC
  5
635
  8
DATA
 62
     7
 10
239.5
 20
483.49999999999989
 30
0.0
 40
2.0
 50
0.0
 51
90.0
  0
LINE
  5
636
  8
DATA
 62
     7
 10
235.0
 20
499.0
 30
0.0
 11
235.0
 21
491.0
 31
0.0
  0
ARC
  5
637
  8
DATA
 62
     7
 10
237.0
 20
491.0
 30
0.0
 40
2.0
 50
180.0
 51
270.0
  0
LINE
  5
638
  8
DATA
 62
     7
 10
253.7499999644028
 20
495.0
 30
0.0
 11
249.7499999644028
 21
495.0
 31
0.0
  0
LINE
  5
639
  8
DATA
 62
     7
 10
253.7499999644028
 20
495.0
 30
0.0
 11
253.7499999644028
 21
494.5
 31
0.0
  0
LINE
  5
63A
  8
DATA
 62
     7
 10
252.9999999644028
 20
493.5
 30
0.0
 11
250.4999999644028
 21
493.5
 31
0.0
  0
LINE
  5
63B
  8
DATA
 62
     7
 10
252.9999999644028
 20
493.5
 30
0.0
 11
252.9999999644028
 21
494.5
 31
0.0
  0
LINE
  5
63C
  8
DATA
 62
     7
 10
250.4999999644028
 20
493.5
 30
0.0
 11
250.4999999644028
 21
494.5
 31
0.0
  0
LINE
  5
63D
  8
DATA
 62
     7
 10
249.7499999644028
 20
495.0
 30
0.0
 11
249.7499999644028
 21
494.5
 31
0.0
  0
LINE
  5
63E
  8
DATA
 62
     7
 10
253.7499999644028
 20
494.5
 30
0.0
 11
252.9999999644028
 21
494.5
 31
0.0
  0
LINE
  5
63F
  8
DATA
 62
     7
 10
250.4999999644028
 20
494.5
 30
0.0
 11
249.7499999644028
 21
494.5
 31
0.0
  0
LINE
  5
640
  8
DATA
 62
     7
 10
253.7499999644028
 20
490.0
 30
0.0
 11
249.7499999644028
 21
490.0
 31
0.0
  0
LINE
  5
641
  8
DATA
 62
     7
 10
253.7499999644028
 20
490.0
 30
0.0
 11
253.7499999644028
 21
489.5
 31
0.0
  0
LINE
  5
642
  8
DATA
 62
     7
 10
252.9999999644028
 20
488.0
 30
0.0
 11
250.4999999644028
 21
488.0
 31
0.0
  0
LINE
  5
643
  8
DATA
 62
     7
 10
252.9999999644028
 20
488.0
 30
0.0
 11
252.9999999644028
 21
489.5
 31
0.0
  0
LINE
  5
644
  8
DATA
 62
     7
 10
250.4999999644028
 20
488.0
 30
0.0
 11
250.4999999644028
 21
489.5
 31
0.0
  0
LINE
  5
645
  8
DATA
 62
     7
 10
249.7499999644028
 20
490.0
 30
0.0
 11
249.7499999644028
 21
489.5
 31
0.0
  0
LINE
  5
646
  8
DATA
 62
     7
 10
253.7499999644028
 20
489.5
 30
0.0
 11
252.9999999644028
 21
489.5
 31
0.0
  0
LINE
  5
647
  8
DATA
 62
     7
 10
250.4999999644028
 20
489.5
 30
0.0
 11
249.7499999644028
 21
489.5
 31
0.0
  0
TEXT
  5
648
  8
DATA
 62
     7
 10
248.4999999776482
 20
494.89999999999992
 30
0.0
 40
2.3999999999999999
  1
LIFTED
 50
180.0
 41
0.8
 11
248.4999999776482
 21
492.49999999999989
 31
0.0
 73
     3
  0
TEXT
  5
649
  8
DATA
 62
     7
 10
248.75000001986831
 20
489.89999999999998
 30
0.0
 40
2.3999999999999999
  1
EARTHED
 50
180.0
 41
0.8
 11
248.75000001986831
 21
487.5
 31
0.0
 73
     3
  0
TEXT
  5
64A
  8
DATA
 62
     7
 10
249.13975696431271
 20
506.39999999999998
 30
0.0
 40
2.3999999999999999
  1
EARTH
 50
180.0
 41
0.8
 11
249.13975696431271
 21
504.0
 31
0.0
 73
     3
  0
TEXT
  5
64B
  8
DATA
 62
     7
 10
279.13975696431271
 20
505.10000000000002
 30
0.0
 40
2.6000000000000001
  1
40dB
 50
180.0
 41
0.8
 11
279.13975696431271
 21
502.5
 31
0.0
 73
     3
  0
TEXT
  5
64C
  8
DATA
 62
     7
 10
279.13975696431271
 20
501.54878472222219
 30
0.0
 40
2.6000000000000001
  1
20dB
 50
180.0
 41
0.8
 11
279.13975696431271
 21
498.94878472222217
 31
0.0
 73
     3
  0
TEXT
  5
64D
  8
DATA
 62
     7
 10
279.13975696431271
 20
498.04878472222219
 30
0.0
 40
2.6000000000000001
  1
0dB
 50
180.0
 41
0.8
 11
279.13975696431271
 21
495.44878472222217
 31
0.0
 73
     3
  0
TEXT
  5
64E
  8
DATA
 62
     7
 10
268.99999997764832
 20
479.39999999999992
 30
0.0
 40
2.3999999999999999
  1
BUFFERED
 50
180.0
 41
0.8
 11
268.99999997764832
 21
477.0
 31
0.0
 73
     3
  0
TEXT
  5
64F
  8
DATA
 62
     7
 10
303.4999999776482
 20
479.39999999999992
 30
0.0
 40
2.3999999999999999
  1
DIRECT
 50
180.0
 41
0.8
 11
303.4999999776482
 21
477.0
 31
0.0
 73
     3
  0
TEXT
  5
650
  8
DATA
 62
     7
 10
323.49999997764832
 20
479.39999999999992
 30
0.0
 40
2.3999999999999999
  1
INPUT
 50
180.0
 41
0.8
 11
323.49999997764832
 21
477.0
 31
0.0
 73
     3
  0
ARC
  5
651
  8
DATA
 62
     7
 10
326.0
 20
506.5
 30
0.0
 40
2.0
 50
0.0
 51
90.0
  0
ARC
  5
652
  8
DATA
 62
     7
 10
326.0
 20
476.49999999999989
 30
0.0
 40
2.0
 50
270.0
 51
0.0
  0
ARC
  5
653
  8
DATA
 62
     7
 10
232.5
 20
476.49999999999989
 30
0.0
 40
2.0
 50
180.0
 51
270.0
  0
ARC
  5
654
  8
DATA
 62
     7
 10
232.5
 20
506.5
 30
0.0
 40
2.0
 50
90.0
 51
180.0
  0
LINE
  5
655
  8
DATA
 62
     7
 10
281.5
 20
488.0
 30
0.0
 11
281.5
 21
495.5
 31
0.0
  0
LINE
  5
656
  8
DATA
 62
     7
 10
330.5
 20
483.49999999999989
 30
0.0
 11
330.5
 21
476.49999999999989
 31
0.0
  0
LINE
  5
657
  8
DATA
 62
     7
 10
330.5
 20
506.5
 30
0.0
 11
330.5
 21
483.49999999999989
 31
0.0
  0
POLYLINE
  5
658
  8
DATA
 62
     7
 66
     1
 10
0.0
 20
0.0
 30
0.0
 70
     1
  0
VERTEX
  5
ADD
  8
DATA
 62
     7
 10
340.5
 20
503.0
 30
0.0
  0
VERTEX
  5
ADE
  8
DATA
 62
     7
 10
349.5
 20
503.0
 30
0.0
  0
VERTEX
  5
ADF
  8
DATA
 62
     7
 10
349.5
 20
498.0
 30
0.0
  0
VERTEX
  5
AE0
  8
DATA
 62
     7
 10
340.5
 20
498.0
 30
0.0
  0
SEQEND
  5
AE1
  8
DATA
 62
     7
  0
POLYLINE
  5
65E
  8
DATA
 62
     7
 66
     1
 10
0.0
 20
0.0
 30
0.0
 70
     1
  0
VERTEX
  5
AE2
  8
DATA
 62
     7
 10
333.5
 20
502.0
 30
0.0
  0
VERTEX
  5
AE3
  8
DATA
 62
     7
 10
336.5
 20
502.0
 30
0.0
  0
VERTEX
  5
AE4
  8
DATA
 62
     7
 10
336.5
 20
499.0
 30
0.0
  0
VERTEX
  5
AE5
  8
DATA
 62
     7
 10
333.5
 20
499.0
 30
0.0
  0
SEQEND
  5
AE6
  8
DATA
 62
     7
  0
CIRCLE
  5
664
  8
DATA
 62
     7
 10
363.0
 20
498.5
 30
0.0
 40
7.9999999999999867
  0
CIRCLE
  5
665
  8
DATA
 62
     7
 10
363.0
 20
498.5
 30
0.0
 40
3.0
  0
POLYLINE
  5
666
  8
DATA
 62
     7
 66
     1
 10
0.0
 20
0.0
 30
0.0
 70
     1
  0
VERTEX
  5
AE7
  8
DATA
 62
     7
 10
363.0
 20
505.0
 30
0.0
  0
VERTEX
  5
AE8
  8
DATA
 62
     7
 10
357.37083487540121
 20
501.75
 30
0.0
  0
VERTEX
  5
AE9
  8
DATA
 62
     7
 10
357.37083487540121
 20
495.24999999999989
 30
0.0
  0
VERTEX
  5
AEA
  8
DATA
 62
     7
 10
363.0
 20
492.0
 30
0.0
  0
VERTEX
  5
AEB
  8
DATA
 62
     7
 10
368.62916512459879
 20
495.24999999999989
 30
0.0
  0
VERTEX
  5
AEC
  8
DATA
 62
     7
 10
368.62916512459879
 20
501.75
 30
0.0
  0
SEQEND
  5
AED
  8
DATA
 62
     7
  0
LINE
  5
66E
  8
DATA
 62
     7
 10
380.0
 20
504.0
 30
0.0
 11
380.0
 21
497.0
 31
0.0
  0
LINE
  5
66F
  8
DATA
 62
     7
 10
383.0
 20
504.0
 30
0.0
 11
383.0
 21
497.0
 31
0.0
  0
ARC
  5
670
  8
DATA
 62
     7
 10
381.5
 20
504.0
 30
0.0
 40
1.5
 50
0.0
 51
180.0
  0
ARC
  5
671
  8
DATA
 62
     7
 10
381.5
 20
497.0
 30
0.0
 40
1.5
 50
180.0
 51
0.0
  0
CIRCLE
  5
672
  8
DATA
 62
     7
 10
381.5
 20
500.49999999999989
 30
0.0
 40
1.5
  0
CIRCLE
  5
673
  8
DATA
 62
     7
 10
399.0
 20
498.5
 30
0.0
 40
7.9999999999999867
  0
CIRCLE
  5
674
  8
DATA
 62
     7
 10
399.0
 20
498.5
 30
0.0
 40
3.0
  0
POLYLINE
  5
675
  8
DATA
 62
     7
 66
     1
 10
0.0
 20
0.0
 30
0.0
 70
     1
  0
VERTEX
  5
AEE
  8
DATA
 62
     7
 10
399.0
 20
505.0
 30
0.0
  0
VERTEX
  5
AEF
  8
DATA
 62
     7
 10
393.37083487540121
 20
501.75
 30
0.0
  0
VERTEX
  5
AF0
  8
DATA
 62
     7
 10
393.37083487540121
 20
495.24999999999989
 30
0.0
  0
VERTEX
  5
AF1
  8
DATA
 62
     7
 10
399.0
 20
492.0
 30
0.0
  0
VERTEX
  5
AF2
  8
DATA
 62
     7
 10
404.62916512459879
 20
495.24999999999989
 30
0.0
  0
VERTEX
  5
AF3
  8
DATA
 62
     7
 10
404.62916512459879
 20
501.75
 30
0.0
  0
SEQEND
  5
AF4
  8
DATA
 62
     7
  0
CIRCLE
  5
67D
  8
DATA
 62
     7
 10
420.0
 20
498.5
 30
0.0
 40
7.9999999999999867
  0
CIRCLE
  5
67E
  8
DATA
 62
     7
 10
420.0
 20
498.5
 30
0.0
 40
3.0
  0
POLYLINE
  5
67F
  8
DATA
 62
     7
 66
     1
 10
0.0
 20
0.0
 30
0.0
 70
     1
  0
VERTEX
  5
AF5
  8
DATA
 62
     7
 10
420.0
 20
505.0
 30
0.0
  0
VERTEX
  5
AF6
  8
DATA
 62
     7
 10
414.3708348754011
 20
501.75
 30
0.0
  0
VERTEX
  5
AF7
  8
DATA
 62
     7
 10
414.3708348754011
 20
495.24999999999989
 30
0.0
  0
VERTEX
  5
AF8
  8
DATA
 62
     7
 10
420.0
 20
492.0
 30
0.0
  0
VERTEX
  5
AF9
  8
DATA
 62
     7
 10
425.62916512459879
 20
495.24999999999989
 30
0.0
  0
VERTEX
  5
AFA
  8
DATA
 62
     7
 10
425.62916512459879
 20
501.75
 30
0.0
  0
SEQEND
  5
AFB
  8
DATA
 62
     7
  0
LINE
  5
687
  8
DATA
 62
     7
 10
428.0
 20
506.5
 30
0.0
 11
428.0
 21
476.49999999999989
 31
0.0
  0
LINE
  5
688
  8
DATA
 62
     7
 10
332.5
 20
474.5
 30
0.0
 11
339.5
 21
474.5
 31
0.0
  0
LINE
  5
689
  8
DATA
 62
     7
 10
339.5
 20
474.5
 30
0.0
 11
426.0
 21
474.5
 31
0.0
  0
LINE
  5
68A
  8
DATA
 62
     7
 10
332.5
 20
508.49999999999989
 30
0.0
 11
426.0
 21
508.49999999999989
 31
0.0
  0
LINE
  5
68B
  8
DATA
 62
     7
 10
420.0
 20
490.5
 30
0.0
 11
420.0
 21
484.49999999999989
 31
0.0
  0
LINE
  5
68C
  8
DATA
 62
     7
 10
399.0
 20
490.5
 30
0.0
 11
399.0
 21
484.49999999999989
 31
0.0
  0
LINE
  5
68D
  8
DATA
 62
     7
 10
363.0
 20
490.5
 30
0.0
 11
363.0
 21
484.49999999999989
 31
0.0
  0
LINE
  5
68E
  8
DATA
 62
     7
 10
363.0
 20
484.49999999999989
 30
0.0
 11
366.0
 21
484.49999999999989
 31
0.0
  0
LINE
  5
68F
  8
DATA
 62
     7
 10
382.5
 20
484.49999999999989
 30
0.0
 11
420.0
 21
484.49999999999989
 31
0.0
  0
POLYLINE
  5
690
  8
DATA
 62
     7
 66
     1
 10
0.0
 20
0.0
 30
0.0
 70
     1
  0
VERTEX
  5
AFC
  8
DATA
 62
     7
 10
380.5
 20
488.0
 30
0.0
  0
VERTEX
  5
AFD
  8
DATA
 62
     7
 10
382.5
 20
488.0
 30
0.0
  0
VERTEX
  5
AFE
  8
DATA
 62
     7
 10
382.5
 20
481.0
 30
0.0
  0
VERTEX
  5
AFF
  8
DATA
 62
     7
 10
380.5
 20
481.0
 30
0.0
  0
SEQEND
  5
B00
  8
DATA
 62
     7
  0
LINE
  5
696
  8
DATA
 62
     7
 10
379.20190296114367
 20
482.20190296114367
 30
0.0
 11
383.79809703885621
 21
486.79809703885621
 31
0.0
  0
LINE
  5
697
  8
DATA
 62
     7
 10
378.49289321881338
 20
482.9071067811866
 30
0.0
 11
379.9071067811866
 21
481.49289321881338
 31
0.0
  0
LINE
  5
698
  8
DATA
 62
     7
 10
378.49289321881338
 20
482.9071067811866
 30
0.0
 11
378.0
 21
481.0
 31
0.0
  0
LINE
  5
699
  8
DATA
 62
     7
 10
378.0
 20
481.0
 30
0.0
 11
379.9071067811866
 21
481.49289321881338
 31
0.0
  0
LINE
  5
69A
  8
DATA
 62
     7
 10
366.0
 20
484.49999999999989
 30
0.0
 11
371.0
 21
487.38675134594808
 31
0.0
  0
LINE
  5
69B
  8
DATA
 62
     7
 10
366.0
 20
484.49999999999989
 30
0.0
 11
371.0
 21
481.61324865405192
 31
0.0
  0
LINE
  5
69C
  8
DATA
 62
     7
 10
371.0
 20
487.38675134594808
 30
0.0
 11
371.0
 21
481.61324865405192
 31
0.0
  0
LINE
  5
69D
  8
DATA
 62
     7
 10
371.0
 20
484.49999999999989
 30
0.0
 11
380.5
 21
484.49999999999989
 31
0.0
  0
LINE
  5
69E
  8
DATA
 62
     7
 10
332.5
 20
485.5
 30
0.0
 11
339.5
 21
485.5
 31
0.0
  0
LINE
  5
69F
  8
DATA
 62
     7
 10
341.5
 20
483.49999999999989
 30
0.0
 11
341.5
 21
476.49999999999989
 31
0.0
  0
ARC
  5
6A0
  8
DATA
 62
     7
 10
332.5
 20
483.49999999999989
 30
0.0
 40
2.0
 50
90.0
 51
180.0
  0
ARC
  5
6A1
  8
DATA
 62
     7
 10
339.5
 20
476.49999999999989
 30
0.0
 40
2.0
 50
270.0
 51
0.0
  0
ARC
  5
6A2
  8
DATA
 62
     7
 10
339.5
 20
483.49999999999989
 30
0.0
 40
2.0
 50
0.0
 51
90.0
  0
LINE
  5
6A3
  8
DATA
 62
     7
 10
335.0
 20
499.0
 30
0.0
 11
335.0
 21
491.0
 31
0.0
  0
ARC
  5
6A4
  8
DATA
 62
     7
 10
337.0
 20
491.0
 30
0.0
 40
2.0
 50
180.0
 51
270.0
  0
LINE
  5
6A5
  8
DATA
 62
     7
 10
353.74999996440278
 20
495.0
 30
0.0
 11
349.74999996440278
 21
495.0
 31
0.0
  0
LINE
  5
6A6
  8
DATA
 62
     7
 10
353.74999996440278
 20
495.0
 30
0.0
 11
353.74999996440278
 21
494.5
 31
0.0
  0
LINE
  5
6A7
  8
DATA
 62
     7
 10
352.99999996440278
 20
493.5
 30
0.0
 11
350.49999996440278
 21
493.5
 31
0.0
  0
LINE
  5
6A8
  8
DATA
 62
     7
 10
352.99999996440278
 20
493.5
 30
0.0
 11
352.99999996440278
 21
494.5
 31
0.0
  0
LINE
  5
6A9
  8
DATA
 62
     7
 10
350.49999996440278
 20
493.5
 30
0.0
 11
350.49999996440278
 21
494.5
 31
0.0
  0
LINE
  5
6AA
  8
DATA
 62
     7
 10
349.74999996440278
 20
495.0
 30
0.0
 11
349.74999996440278
 21
494.5
 31
0.0
  0
LINE
  5
6AB
  8
DATA
 62
     7
 10
353.74999996440278
 20
494.5
 30
0.0
 11
352.99999996440278
 21
494.5
 31
0.0
  0
LINE
  5
6AC
  8
DATA
 62
     7
 10
350.49999996440278
 20
494.5
 30
0.0
 11
349.74999996440278
 21
494.5
 31
0.0
  0
LINE
  5
6AD
  8
DATA
 62
     7
 10
353.74999996440278
 20
490.0
 30
0.0
 11
349.74999996440278
 21
490.0
 31
0.0
  0
LINE
  5
6AE
  8
DATA
 62
     7
 10
353.74999996440278
 20
490.0
 30
0.0
 11
353.74999996440278
 21
489.5
 31
0.0
  0
LINE
  5
6AF
  8
DATA
 62
     7
 10
352.99999996440278
 20
488.0
 30
0.0
 11
350.49999996440278
 21
488.0
 31
0.0
  0
LINE
  5
6B0
  8
DATA
 62
     7
 10
352.99999996440278
 20
488.0
 30
0.0
 11
352.99999996440278
 21
489.5
 31
0.0
  0
LINE
  5
6B1
  8
DATA
 62
     7
 10
350.49999996440278
 20
488.0
 30
0.0
 11
350.49999996440278
 21
489.5
 31
0.0
  0
LINE
  5
6B2
  8
DATA
 62
     7
 10
349.74999996440278
 20
490.0
 30
0.0
 11
349.74999996440278
 21
489.5
 31
0.0
  0
LINE
  5
6B3
  8
DATA
 62
     7
 10
353.74999996440278
 20
489.5
 30
0.0
 11
352.99999996440278
 21
489.5
 31
0.0
  0
LINE
  5
6B4
  8
DATA
 62
     7
 10
350.49999996440278
 20
489.5
 30
0.0
 11
349.74999996440278
 21
489.5
 31
0.0
  0
TEXT
  5
6B5
  8
DATA
 62
     7
 10
348.49999997764832
 20
494.89999999999992
 30
0.0
 40
2.3999999999999999
  1
LIFTED
 50
180.0
 41
0.8
 11
348.49999997764832
 21
492.49999999999989
 31
0.0
 73
     3
  0
TEXT
  5
6B6
  8
DATA
 62
     7
 10
348.75000001986831
 20
489.89999999999998
 30
0.0
 40
2.3999999999999999
  1
EARTHED
 50
180.0
 41
0.8
 11
348.75000001986831
 21
487.5
 31
0.0
 73
     3
  0
TEXT
  5
6B7
  8
DATA
 62
     7
 10
349.13975696431282
 20
506.39999999999998
 30
0.0
 40
2.3999999999999999
  1
EARTH
 50
180.0
 41
0.8
 11
349.13975696431282
 21
504.0
 31
0.0
 73
     3
  0
TEXT
  5
6B8
  8
DATA
 62
     7
 10
379.13975696431282
 20
505.10000000000002
 30
0.0
 40
2.6000000000000001
  1
40dB
 50
180.0
 41
0.8
 11
379.13975696431282
 21
502.5
 31
0.0
 73
     3
  0
TEXT
  5
6B9
  8
DATA
 62
     7
 10
379.13975696431282
 20
501.54878472222219
 30
0.0
 40
2.6000000000000001
  1
20dB
 50
180.0
 41
0.8
 11
379.13975696431282
 21
498.94878472222217
 31
0.0
 73
     3
  0
TEXT
  5
6BA
  8
DATA
 62
     7
 10
379.13975696431282
 20
498.04878472222219
 30
0.0
 40
2.6000000000000001
  1
0dB
 50
180.0
 41
0.8
 11
379.13975696431282
 21
495.44878472222217
 31
0.0
 73
     3
  0
TEXT
  5
6BB
  8
DATA
 62
     7
 10
368.99999997764832
 20
479.39999999999992
 30
0.0
 40
2.3999999999999999
  1
BUFFERED
 50
180.0
 41
0.8
 11
368.99999997764832
 21
477.0
 31
0.0
 73
     3
  0
TEXT
  5
6BC
  8
DATA
 62
     7
 10
403.4999999776482
 20
479.39999999999992
 30
0.0
 40
2.3999999999999999
  1
DIRECT
 50
180.0
 41
0.8
 11
403.4999999776482
 21
477.0
 31
0.0
 73
     3
  0
TEXT
  5
6BD
  8
DATA
 62
     7
 10
423.4999999776482
 20
479.39999999999992
 30
0.0
 40
2.3999999999999999
  1
INPUT
 50
180.0
 41
0.8
 11
423.4999999776482
 21
477.0
 31
0.0
 73
     3
  0
ARC
  5
6BE
  8
DATA
 62
     7
 10
426.0
 20
506.5
 30
0.0
 40
2.0
 50
0.0
 51
90.0
  0
ARC
  5
6BF
  8
DATA
 62
     7
 10
426.0
 20
476.49999999999989
 30
0.0
 40
2.0
 50
270.0
 51
0.0
  0
ARC
  5
6C0
  8
DATA
 62
     7
 10
332.5
 20
476.49999999999989
 30
0.0
 40
2.0
 50
180.0
 51
270.0
  0
ARC
  5
6C1
  8
DATA
 62
     7
 10
332.5
 20
506.5
 30
0.0
 40
2.0
 50
90.0
 51
180.0
  0
LINE
  5
6C2
  8
DATA
 62
     7
 10
381.5
 20
488.0
 30
0.0
 11
381.5
 21
495.5
 31
0.0
  0
LINE
  5
6C3
  8
DATA
 62
     7
 10
436.0
 20
506.5
 30
0.0
 11
436.0
 21
476.49999999999989
 31
0.0
  0
LINE
  5
6C4
  8
DATA
 62
     7
 10
444.0
 20
506.5
 30
0.0
 11
444.0
 21
476.49999999999989
 31
0.0
  0
LINE
  5
6C5
  8
DATA
 62
     7
 10
438.0
 20
508.49999999999989
 30
0.0
 11
442.0
 21
508.49999999999989
 31
0.0
  0
LINE
  5
6C6
  8
DATA
 62
     7
 10
438.0
 20
474.5
 30
0.0
 11
442.0
 21
474.5
 31
0.0
  0
ARC
  5
6C7
  8
DATA
 62
     7
 10
438.0
 20
506.5
 30
0.0
 40
2.0
 50
90.0
 51
180.0
  0
ARC
  5
6C8
  8
DATA
 62
     7
 10
442.0
 20
506.5
 30
0.0
 40
2.0
 50
0.0
 51
90.0
  0
ARC
  5
6C9
  8
DATA
 62
     7
 10
438.0
 20
476.49999999999989
 30
0.0
 40
2.0
 50
180.0
 51
270.0
  0
ARC
  5
6CA
  8
DATA
 62
     7
 10
442.0
 20
476.49999999999989
 30
0.0
 40
2.0
 50
270.0
 51
0.0
  0
POLYLINE
  5
6CB
  8
DATA
 62
     7
 66
     1
 10
0.0
 20
0.0
 30
0.0
 70
     1
  0
VERTEX
  5
B01
  8
DATA
 62
     7
 10
438.49999999999989
 20
501.49999999999989
 30
0.0
  0
VERTEX
  5
B02
  8
DATA
 62
     7
 10
441.5
 20
501.49999999999989
 30
0.0
  0
VERTEX
  5
B03
  8
DATA
 62
     7
 10
441.5
 20
498.5
 30
0.0
  0
VERTEX
  5
B04
  8
DATA
 62
     7
 10
438.49999999999989
 20
498.5
 30
0.0
  0
SEQEND
  5
B05
  8
DATA
 62
     7
  0
LINE
  5
6D1
  8
DATA
 62
     7
 10
40.499999999999993
 20
359.0
 30
0.0
 11
40.499999999999993
 21
354.0
 31
0.0
  0
LINE
  5
6D2
  8
DATA
 62
     7
 10
49.5
 20
359.0
 30
0.0
 11
49.5
 21
354.0
 31
0.0
  0
LINE
  5
6D3
  8
DATA
 62
     7
 10
40.499999999999993
 20
359.0
 30
0.0
 11
49.5
 21
359.0
 31
0.0
  0
LINE
  5
6D4
  8
DATA
 62
     7
 10
80.0
 20
356.5
 30
0.0
 11
80.0
 21
354.0
 31
0.0
  0
LINE
  5
6D5
  8
DATA
 62
     7
 10
83.0
 20
356.5
 30
0.0
 11
83.0
 21
354.0
 31
0.0
  0
ARC
  5
6D6
  8
DATA
 62
     7
 10
81.5
 20
356.5
 30
0.0
 40
1.5
 50
0.0
 51
180.0
  0
LINE
  5
6D7
  8
DATA
 62
     7
 10
57.370834875401151
 20
355.5
 30
0.0
 11
55.0
 21
354.0
 31
0.0
  0
LINE
  5
6D8
  8
DATA
 62
     7
 10
68.629165124598842
 20
355.5
 30
0.0
 11
71.0
 21
354.0
 31
0.0
  0
LINE
  5
6D9
  8
DATA
 62
     7
 10
57.370834875401151
 20
356.5
 30
0.0
 11
57.370834875401151
 21
355.5
 31
0.0
  0
LINE
  5
6DA
  8
DATA
 62
     7
 10
68.629165124598842
 20
356.5
 30
0.0
 11
68.629165124598842
 21
355.5
 31
0.0
  0
LINE
  5
6DB
  8
DATA
 62
     7
 10
57.370834875401151
 20
355.5
 30
0.0
 11
68.629165124598842
 21
355.5
 31
0.0
  0
ARC
  5
6DC
  8
DATA
 62
     7
 10
60.185417437700607
 20
348.86250462620308
 30
0.0
 40
8.1396075203149376
 50
69.770064683092428
 51
110.229935316908
  0
ARC
  5
6DD
  8
DATA
 62
     7
 10
65.814582562299449
 20
348.86250462620347
 30
0.0
 40
8.1396075203147227
 50
69.770064683091874
 51
110.2299353169085
  0
ARC
  5
6DE
  8
DATA
 62
     7
 10
63.0
 20
346.68749999999977
 30
0.0
 40
11.31250000000019
 50
60.158275835316232
 51
74.62155680240086
  0
ARC
  5
6DF
  8
DATA
 62
     7
 10
63.0
 20
346.68749999999977
 30
0.0
 40
11.31250000000019
 50
105.3784431975991
 51
119.8417241646838
  0
LINE
  5
6E0
  8
DATA
 62
     7
 10
60.0
 20
357.59495874390552
 30
0.0
 11
66.0
 21
357.59495874390552
 31
0.0
  0
LINE
  5
6E1
  8
DATA
 62
     7
 10
63.0
 20
356.5
 30
0.0
 11
63.0
 21
355.5
 31
0.0
  0
LINE
  5
6E2
  8
DATA
 62
     7
 10
93.370834875401158
 20
355.5
 30
0.0
 11
91.0
 21
354.0
 31
0.0
  0
LINE
  5
6E3
  8
DATA
 62
     7
 10
104.6291651245988
 20
355.5
 30
0.0
 11
107.0
 21
354.0
 31
0.0
  0
LINE
  5
6E4
  8
DATA
 62
     7
 10
93.370834875401158
 20
356.5
 30
0.0
 11
93.370834875401158
 21
355.5
 31
0.0
  0
LINE
  5
6E5
  8
DATA
 62
     7
 10
104.6291651245988
 20
356.5
 30
0.0
 11
104.6291651245988
 21
355.5
 31
0.0
  0
LINE
  5
6E6
  8
DATA
 62
     7
 10
93.370834875401158
 20
355.5
 30
0.0
 11
104.6291651245988
 21
355.5
 31
0.0
  0
ARC
  5
6E7
  8
DATA
 62
     7
 10
96.185417437700593
 20
348.86250462620308
 30
0.0
 40
8.1396075203149376
 50
69.770064683092428
 51
110.229935316908
  0
ARC
  5
6E8
  8
DATA
 62
     7
 10
101.81458256229941
 20
348.86250462620347
 30
0.0
 40
8.1396075203147227
 50
69.770064683091874
 51
110.2299353169085
  0
ARC
  5
6E9
  8
DATA
 62
     7
 10
99.0
 20
346.68749999999977
 30
0.0
 40
11.31250000000019
 50
60.158275835316232
 51
74.62155680240086
  0
ARC
  5
6EA
  8
DATA
 62
     7
 10
99.0
 20
346.68749999999977
 30
0.0
 40
11.31250000000019
 50
105.3784431975991
 51
119.8417241646838
  0
LINE
  5
6EB
  8
DATA
 62
     7
 10
96.0
 20
357.59495874390552
 30
0.0
 11
102.0
 21
357.59495874390552
 31
0.0
  0
LINE
  5
6EC
  8
DATA
 62
     7
 10
99.0
 20
356.5
 30
0.0
 11
99.0
 21
355.5
 31
0.0
  0
LINE
  5
6ED
  8
DATA
 62
     7
 10
114.3708348754011
 20
355.5
 30
0.0
 11
112.0
 21
354.0
 31
0.0
  0
LINE
  5
6EE
  8
DATA
 62
     7
 10
125.6291651245988
 20
355.5
 30
0.0
 11
128.0
 21
354.0
 31
0.0
  0
LINE
  5
6EF
  8
DATA
 62
     7
 10
114.3708348754011
 20
356.5
 30
0.0
 11
114.3708348754011
 21
355.5
 31
0.0
  0
LINE
  5
6F0
  8
DATA
 62
     7
 10
125.6291651245988
 20
356.5
 30
0.0
 11
125.6291651245988
 21
355.5
 31
0.0
  0
LINE
  5
6F1
  8
DATA
 62
     7
 10
114.3708348754011
 20
355.5
 30
0.0
 11
125.6291651245988
 21
355.5
 31
0.0
  0
ARC
  5
6F2
  8
DATA
 62
     7
 10
117.18541743770059
 20
348.86250462620308
 30
0.0
 40
8.1396075203149376
 50
69.770064683092428
 51
110.229935316908
  0
ARC
  5
6F3
  8
DATA
 62
     7
 10
122.81458256229941
 20
348.86250462620347
 30
0.0
 40
8.1396075203147227
 50
69.770064683091874
 51
110.2299353169085
  0
ARC
  5
6F4
  8
DATA
 62
     7
 10
120.0
 20
346.68749999999977
 30
0.0
 40
11.31250000000019
 50
60.158275835316232
 51
74.62155680240086
  0
ARC
  5
6F5
  8
DATA
 62
     7
 10
120.0
 20
346.68749999999977
 30
0.0
 40
11.31250000000019
 50
105.3784431975991
 51
119.8417241646838
  0
LINE
  5
6F6
  8
DATA
 62
     7
 10
117.0
 20
357.59495874390552
 30
0.0
 11
123.0
 21
357.59495874390552
 31
0.0
  0
LINE
  5
6F7
  8
DATA
 62
     7
 10
120.0
 20
356.5
 30
0.0
 11
120.0
 21
355.5
 31
0.0
  0
LINE
  5
6F8
  8
DATA
 62
     7
 10
140.5
 20
359.0
 30
0.0
 11
140.5
 21
354.0
 31
0.0
  0
LINE
  5
6F9
  8
DATA
 62
     7
 10
149.5
 20
359.0
 30
0.0
 11
149.5
 21
354.0
 31
0.0
  0
LINE
  5
6FA
  8
DATA
 62
     7
 10
140.5
 20
359.0
 30
0.0
 11
149.5
 21
359.0
 31
0.0
  0
LINE
  5
6FB
  8
DATA
 62
     7
 10
180.0
 20
356.5
 30
0.0
 11
180.0
 21
354.0
 31
0.0
  0
LINE
  5
6FC
  8
DATA
 62
     7
 10
183.0
 20
356.5
 30
0.0
 11
183.0
 21
354.0
 31
0.0
  0
ARC
  5
6FD
  8
DATA
 62
     7
 10
181.5
 20
356.5
 30
0.0
 40
1.5
 50
0.0
 51
180.0
  0
LINE
  5
6FE
  8
DATA
 62
     7
 10
157.3708348754011
 20
355.5
 30
0.0
 11
155.0
 21
354.0
 31
0.0
  0
LINE
  5
6FF
  8
DATA
 62
     7
 10
168.62916512459881
 20
355.5
 30
0.0
 11
171.0
 21
354.0
 31
0.0
  0
LINE
  5
700
  8
DATA
 62
     7
 10
157.3708348754011
 20
356.5
 30
0.0
 11
157.3708348754011
 21
355.5
 31
0.0
  0
LINE
  5
701
  8
DATA
 62
     7
 10
168.62916512459881
 20
356.5
 30
0.0
 11
168.62916512459881
 21
355.5
 31
0.0
  0
LINE
  5
702
  8
DATA
 62
     7
 10
157.3708348754011
 20
355.5
 30
0.0
 11
168.62916512459881
 21
355.5
 31
0.0
  0
ARC
  5
703
  8
DATA
 62
     7
 10
160.18541743770061
 20
348.86250462620308
 30
0.0
 40
8.1396075203149376
 50
69.770064683092428
 51
110.229935316908
  0
ARC
  5
704
  8
DATA
 62
     7
 10
165.81458256229939
 20
348.86250462620347
 30
0.0
 40
8.1396075203147227
 50
69.770064683091874
 51
110.2299353169085
  0
ARC
  5
705
  8
DATA
 62
     7
 10
163.0
 20
346.68749999999977
 30
0.0
 40
11.31250000000019
 50
60.158275835316232
 51
74.62155680240086
  0
ARC
  5
706
  8
DATA
 62
     7
 10
163.0
 20
346.68749999999977
 30
0.0
 40
11.31250000000019
 50
105.3784431975991
 51
119.8417241646838
  0
LINE
  5
707
  8
DATA
 62
     7
 10
160.0
 20
357.59495874390552
 30
0.0
 11
166.0
 21
357.59495874390552
 31
0.0
  0
LINE
  5
708
  8
DATA
 62
     7
 10
163.0
 20
356.5
 30
0.0
 11
163.0
 21
355.5
 31
0.0
  0
LINE
  5
709
  8
DATA
 62
     7
 10
193.37083487540119
 20
355.5
 30
0.0
 11
191.0
 21
354.0
 31
0.0
  0
LINE
  5
70A
  8
DATA
 62
     7
 10
204.62916512459881
 20
355.5
 30
0.0
 11
207.0
 21
354.0
 31
0.0
  0
LINE
  5
70B
  8
DATA
 62
     7
 10
193.37083487540119
 20
356.5
 30
0.0
 11
193.37083487540119
 21
355.5
 31
0.0
  0
LINE
  5
70C
  8
DATA
 62
     7
 10
204.62916512459881
 20
356.5
 30
0.0
 11
204.62916512459881
 21
355.5
 31
0.0
  0
LINE
  5
70D
  8
DATA
 62
     7
 10
193.37083487540119
 20
355.5
 30
0.0
 11
204.62916512459881
 21
355.5
 31
0.0
  0
ARC
  5
70E
  8
DATA
 62
     7
 10
196.18541743770061
 20
348.86250462620308
 30
0.0
 40
8.1396075203149376
 50
69.770064683092428
 51
110.229935316908
  0
ARC
  5
70F
  8
DATA
 62
     7
 10
201.81458256229939
 20
348.86250462620347
 30
0.0
 40
8.1396075203147227
 50
69.770064683091874
 51
110.2299353169085
  0
ARC
  5
710
  8
DATA
 62
     7
 10
199.0
 20
346.68749999999977
 30
0.0
 40
11.31250000000019
 50
60.158275835316232
 51
74.62155680240086
  0
ARC
  5
711
  8
DATA
 62
     7
 10
199.0
 20
346.68749999999977
 30
0.0
 40
11.31250000000019
 50
105.3784431975991
 51
119.8417241646838
  0
LINE
  5
712
  8
DATA
 62
     7
 10
196.0
 20
357.59495874390552
 30
0.0
 11
202.0
 21
357.59495874390552
 31
0.0
  0
LINE
  5
713
  8
DATA
 62
     7
 10
199.0
 20
356.5
 30
0.0
 11
199.0
 21
355.5
 31
0.0
  0
LINE
  5
714
  8
DATA
 62
     7
 10
214.37083487540119
 20
355.5
 30
0.0
 11
212.0
 21
354.0
 31
0.0
  0
LINE
  5
715
  8
DATA
 62
     7
 10
225.62916512459881
 20
355.5
 30
0.0
 11
228.0
 21
354.0
 31
0.0
  0
LINE
  5
716
  8
DATA
 62
     7
 10
214.37083487540119
 20
356.5
 30
0.0
 11
214.37083487540119
 21
355.5
 31
0.0
  0
LINE
  5
717
  8
DATA
 62
     7
 10
225.62916512459881
 20
356.5
 30
0.0
 11
225.62916512459881
 21
355.5
 31
0.0
  0
LINE
  5
718
  8
DATA
 62
     7
 10
214.37083487540119
 20
355.5
 30
0.0
 11
225.62916512459881
 21
355.5
 31
0.0
  0
ARC
  5
719
  8
DATA
 62
     7
 10
217.18541743770061
 20
348.86250462620308
 30
0.0
 40
8.1396075203149376
 50
69.770064683092428
 51
110.229935316908
  0
ARC
  5
71A
  8
DATA
 62
     7
 10
222.81458256229939
 20
348.86250462620347
 30
0.0
 40
8.1396075203147227
 50
69.770064683091874
 51
110.2299353169085
  0
ARC
  5
71B
  8
DATA
 62
     7
 10
220.0
 20
346.68749999999977
 30
0.0
 40
11.31250000000019
 50
60.158275835316232
 51
74.62155680240086
  0
ARC
  5
71C
  8
DATA
 62
     7
 10
220.0
 20
346.68749999999977
 30
0.0
 40
11.31250000000019
 50
105.3784431975991
 51
119.8417241646838
  0
LINE
  5
71D
  8
DATA
 62
     7
 10
217.0
 20
357.59495874390552
 30
0.0
 11
223.0
 21
357.59495874390552
 31
0.0
  0
LINE
  5
71E
  8
DATA
 62
     7
 10
220.0
 20
356.5
 30
0.0
 11
220.0
 21
355.5
 31
0.0
  0
LINE
  5
71F
  8
DATA
 62
     7
 10
240.5
 20
359.0
 30
0.0
 11
240.5
 21
354.0
 31
0.0
  0
LINE
  5
720
  8
DATA
 62
     7
 10
249.5
 20
359.0
 30
0.0
 11
249.5
 21
354.0
 31
0.0
  0
LINE
  5
721
  8
DATA
 62
     7
 10
240.5
 20
359.0
 30
0.0
 11
249.5
 21
359.0
 31
0.0
  0
LINE
  5
722
  8
DATA
 62
     7
 10
280.0
 20
356.5
 30
0.0
 11
280.0
 21
354.0
 31
0.0
  0
LINE
  5
723
  8
DATA
 62
     7
 10
283.0
 20
356.5
 30
0.0
 11
283.0
 21
354.0
 31
0.0
  0
ARC
  5
724
  8
DATA
 62
     7
 10
281.5
 20
356.5
 30
0.0
 40
1.5
 50
0.0
 51
180.0
  0
LINE
  5
725
  8
DATA
 62
     7
 10
257.37083487540121
 20
355.5
 30
0.0
 11
255.0
 21
354.0
 31
0.0
  0
LINE
  5
726
  8
DATA
 62
     7
 10
268.62916512459879
 20
355.5
 30
0.0
 11
271.0
 21
354.0
 31
0.0
  0
LINE
  5
727
  8
DATA
 62
     7
 10
257.37083487540121
 20
356.5
 30
0.0
 11
257.37083487540121
 21
355.5
 31
0.0
  0
LINE
  5
728
  8
DATA
 62
     7
 10
268.62916512459879
 20
356.5
 30
0.0
 11
268.62916512459879
 21
355.5
 31
0.0
  0
LINE
  5
729
  8
DATA
 62
     7
 10
257.37083487540121
 20
355.5
 30
0.0
 11
268.62916512459879
 21
355.5
 31
0.0
  0
ARC
  5
72A
  8
DATA
 62
     7
 10
260.18541743770061
 20
348.86250462620308
 30
0.0
 40
8.1396075203149376
 50
69.770064683092428
 51
110.229935316908
  0
ARC
  5
72B
  8
DATA
 62
     7
 10
265.81458256229951
 20
348.86250462620347
 30
0.0
 40
8.1396075203147227
 50
69.770064683091874
 51
110.2299353169085
  0
ARC
  5
72C
  8
DATA
 62
     7
 10
263.0
 20
346.68749999999977
 30
0.0
 40
11.31250000000019
 50
60.158275835316232
 51
74.62155680240086
  0
ARC
  5
72D
  8
DATA
 62
     7
 10
263.0
 20
346.68749999999977
 30
0.0
 40
11.31250000000019
 50
105.3784431975991
 51
119.8417241646838
  0
LINE
  5
72E
  8
DATA
 62
     7
 10
260.0
 20
357.59495874390552
 30
0.0
 11
266.0
 21
357.59495874390552
 31
0.0
  0
LINE
  5
72F
  8
DATA
 62
     7
 10
263.0
 20
356.5
 30
0.0
 11
263.0
 21
355.5
 31
0.0
  0
LINE
  5
730
  8
DATA
 62
     7
 10
293.37083487540121
 20
355.5
 30
0.0
 11
291.0
 21
354.0
 31
0.0
  0
LINE
  5
731
  8
DATA
 62
     7
 10
304.62916512459879
 20
355.5
 30
0.0
 11
307.0
 21
354.0
 31
0.0
  0
LINE
  5
732
  8
DATA
 62
     7
 10
293.37083487540121
 20
356.5
 30
0.0
 11
293.37083487540121
 21
355.5
 31
0.0
  0
LINE
  5
733
  8
DATA
 62
     7
 10
304.62916512459879
 20
356.5
 30
0.0
 11
304.62916512459879
 21
355.5
 31
0.0
  0
LINE
  5
734
  8
DATA
 62
     7
 10
293.37083487540121
 20
355.5
 30
0.0
 11
304.62916512459879
 21
355.5
 31
0.0
  0
ARC
  5
735
  8
DATA
 62
     7
 10
296.18541743770061
 20
348.86250462620308
 30
0.0
 40
8.1396075203149376
 50
69.770064683092428
 51
110.229935316908
  0
ARC
  5
736
  8
DATA
 62
     7
 10
301.81458256229939
 20
348.86250462620347
 30
0.0
 40
8.1396075203147227
 50
69.770064683091874
 51
110.2299353169085
  0
ARC
  5
737
  8
DATA
 62
     7
 10
299.0
 20
346.68749999999977
 30
0.0
 40
11.31250000000019
 50
60.158275835316232
 51
74.62155680240086
  0
ARC
  5
738
  8
DATA
 62
     7
 10
299.0
 20
346.68749999999977
 30
0.0
 40
11.31250000000019
 50
105.3784431975991
 51
119.8417241646838
  0
LINE
  5
739
  8
DATA
 62
     7
 10
296.0
 20
357.59495874390552
 30
0.0
 11
302.0
 21
357.59495874390552
 31
0.0
  0
LINE
  5
73A
  8
DATA
 62
     7
 10
299.0
 20
356.5
 30
0.0
 11
299.0
 21
355.5
 31
0.0
  0
LINE
  5
73B
  8
DATA
 62
     7
 10
314.37083487540121
 20
355.5
 30
0.0
 11
312.0
 21
354.0
 31
0.0
  0
LINE
  5
73C
  8
DATA
 62
     7
 10
325.62916512459879
 20
355.5
 30
0.0
 11
328.0
 21
354.0
 31
0.0
  0
LINE
  5
73D
  8
DATA
 62
     7
 10
314.37083487540121
 20
356.5
 30
0.0
 11
314.37083487540121
 21
355.5
 31
0.0
  0
LINE
  5
73E
  8
DATA
 62
     7
 10
325.62916512459879
 20
356.5
 30
0.0
 11
325.62916512459879
 21
355.5
 31
0.0
  0
LINE
  5
73F
  8
DATA
 62
     7
 10
314.37083487540121
 20
355.5
 30
0.0
 11
325.62916512459879
 21
355.5
 31
0.0
  0
ARC
  5
740
  8
DATA
 62
     7
 10
317.18541743770061
 20
348.86250462620308
 30
0.0
 40
8.1396075203149376
 50
69.770064683092428
 51
110.2299353169079
  0
ARC
  5
741
  8
DATA
 62
     7
 10
322.81458256229939
 20
348.86250462620347
 30
0.0
 40
8.1396075203147227
 50
69.770064683091874
 51
110.2299353169085
  0
ARC
  5
742
  8
DATA
 62
     7
 10
320.0
 20
346.68749999999977
 30
0.0
 40
11.31250000000019
 50
60.158275835316232
 51
74.62155680240086
  0
ARC
  5
743
  8
DATA
 62
     7
 10
320.0
 20
346.68749999999977
 30
0.0
 40
11.31250000000019
 50
105.3784431975991
 51
119.8417241646838
  0
LINE
  5
744
  8
DATA
 62
     7
 10
317.0
 20
357.59495874390552
 30
0.0
 11
323.0
 21
357.59495874390552
 31
0.0
  0
LINE
  5
745
  8
DATA
 62
     7
 10
320.0
 20
356.5
 30
0.0
 11
320.0
 21
355.5
 31
0.0
  0
LINE
  5
746
  8
DATA
 62
     7
 10
340.5
 20
359.0
 30
0.0
 11
340.5
 21
354.0
 31
0.0
  0
LINE
  5
747
  8
DATA
 62
     7
 10
349.5
 20
359.0
 30
0.0
 11
349.5
 21
354.0
 31
0.0
  0
LINE
  5
748
  8
DATA
 62
     7
 10
340.5
 20
359.0
 30
0.0
 11
349.5
 21
359.0
 31
0.0
  0
LINE
  5
749
  8
DATA
 62
     7
 10
380.0
 20
356.5
 30
0.0
 11
380.0
 21
354.0
 31
0.0
  0
LINE
  5
74A
  8
DATA
 62
     7
 10
383.0
 20
356.5
 30
0.0
 11
383.0
 21
354.0
 31
0.0
  0
ARC
  5
74B
  8
DATA
 62
     7
 10
381.5
 20
356.5
 30
0.0
 40
1.5
 50
0.0
 51
180.0
  0
LINE
  5
74C
  8
DATA
 62
     7
 10
357.37083487540121
 20
355.5
 30
0.0
 11
355.0
 21
354.0
 31
0.0
  0
LINE
  5
74D
  8
DATA
 62
     7
 10
368.62916512459879
 20
355.5
 30
0.0
 11
371.0
 21
354.0
 31
0.0
  0
LINE
  5
74E
  8
DATA
 62
     7
 10
357.37083487540121
 20
356.5
 30
0.0
 11
357.37083487540121
 21
355.5
 31
0.0
  0
LINE
  5
74F
  8
DATA
 62
     7
 10
368.62916512459879
 20
356.5
 30
0.0
 11
368.62916512459879
 21
355.5
 31
0.0
  0
LINE
  5
750
  8
DATA
 62
     7
 10
357.37083487540121
 20
355.5
 30
0.0
 11
368.62916512459879
 21
355.5
 31
0.0
  0
ARC
  5
751
  8
DATA
 62
     7
 10
360.18541743770061
 20
348.86250462620308
 30
0.0
 40
8.1396075203149376
 50
69.770064683092428
 51
110.2299353169079
  0
ARC
  5
752
  8
DATA
 62
     7
 10
365.81458256229951
 20
348.86250462620347
 30
0.0
 40
8.1396075203147227
 50
69.770064683091874
 51
110.2299353169085
  0
ARC
  5
753
  8
DATA
 62
     7
 10
363.0
 20
346.68749999999977
 30
0.0
 40
11.31250000000019
 50
60.158275835316232
 51
74.62155680240086
  0
ARC
  5
754
  8
DATA
 62
     7
 10
363.0
 20
346.68749999999977
 30
0.0
 40
11.31250000000019
 50
105.3784431975991
 51
119.8417241646838
  0
LINE
  5
755
  8
DATA
 62
     7
 10
360.0
 20
357.59495874390552
 30
0.0
 11
366.0
 21
357.59495874390552
 31
0.0
  0
LINE
  5
756
  8
DATA
 62
     7
 10
363.0
 20
356.5
 30
0.0
 11
363.0
 21
355.5
 31
0.0
  0
LINE
  5
757
  8
DATA
 62
     7
 10
393.37083487540121
 20
355.5
 30
0.0
 11
391.0
 21
354.0
 31
0.0
  0
LINE
  5
758
  8
DATA
 62
     7
 10
404.62916512459879
 20
355.5
 30
0.0
 11
407.0
 21
354.0
 31
0.0
  0
LINE
  5
759
  8
DATA
 62
     7
 10
393.37083487540121
 20
356.5
 30
0.0
 11
393.37083487540121
 21
355.5
 31
0.0
  0
LINE
  5
75A
  8
DATA
 62
     7
 10
404.62916512459879
 20
356.5
 30
0.0
 11
404.62916512459879
 21
355.5
 31
0.0
  0
LINE
  5
75B
  8
DATA
 62
     7
 10
393.37083487540121
 20
355.5
 30
0.0
 11
404.62916512459879
 21
355.5
 31
0.0
  0
ARC
  5
75C
  8
DATA
 62
     7
 10
396.18541743770072
 20
348.86250462620308
 30
0.0
 40
8.1396075203149376
 50
69.770064683092428
 51
110.2299353169079
  0
ARC
  5
75D
  8
DATA
 62
     7
 10
401.81458256229939
 20
348.86250462620347
 30
0.0
 40
8.1396075203147227
 50
69.770064683091874
 51
110.2299353169085
  0
ARC
  5
75E
  8
DATA
 62
     7
 10
399.0
 20
346.68749999999977
 30
0.0
 40
11.31250000000019
 50
60.158275835316232
 51
74.62155680240086
  0
ARC
  5
75F
  8
DATA
 62
     7
 10
399.0
 20
346.68749999999977
 30
0.0
 40
11.31250000000019
 50
105.3784431975991
 51
119.8417241646838
  0
LINE
  5
760
  8
DATA
 62
     7
 10
396.0
 20
357.59495874390552
 30
0.0
 11
402.0
 21
357.59495874390552
 31
0.0
  0
LINE
  5
761
  8
DATA
 62
     7
 10
399.0
 20
356.5
 30
0.0
 11
399.0
 21
355.5
 31
0.0
  0
LINE
  5
762
  8
DATA
 62
     7
 10
414.3708348754011
 20
355.5
 30
0.0
 11
412.0
 21
354.0
 31
0.0
  0
LINE
  5
763
  8
DATA
 62
     7
 10
425.62916512459879
 20
355.5
 30
0.0
 11
428.0
 21
354.0
 31
0.0
  0
LINE
  5
764
  8
DATA
 62
     7
 10
414.3708348754011
 20
356.5
 30
0.0
 11
414.3708348754011
 21
355.5
 31
0.0
  0
LINE
  5
765
  8
DATA
 62
     7
 10
425.62916512459879
 20
356.5
 30
0.0
 11
425.62916512459879
 21
355.5
 31
0.0
  0
LINE
  5
766
  8
DATA
 62
     7
 10
414.3708348754011
 20
355.5
 30
0.0
 11
425.62916512459879
 21
355.5
 31
0.0
  0
ARC
  5
767
  8
DATA
 62
     7
 10
417.18541743770061
 20
348.86250462620308
 30
0.0
 40
8.1396075203149376
 50
69.770064683092428
 51
110.2299353169079
  0
ARC
  5
768
  8
DATA
 62
     7
 10
422.81458256229939
 20
348.86250462620347
 30
0.0
 40
8.1396075203147227
 50
69.770064683091874
 51
110.2299353169085
  0
ARC
  5
769
  8
DATA
 62
     7
 10
420.0
 20
346.68749999999977
 30
0.0
 40
11.31250000000019
 50
60.158275835316232
 51
74.62155680240086
  0
ARC
  5
76A
  8
DATA
 62
     7
 10
420.0
 20
346.68749999999977
 30
0.0
 40
11.31250000000019
 50
105.3784431975991
 51
119.8417241646838
  0
LINE
  5
76B
  8
DATA
 62
     7
 10
417.0
 20
357.59495874390552
 30
0.0
 11
423.0
 21
357.59495874390552
 31
0.0
  0
LINE
  5
76C
  8
DATA
 62
     7
 10
420.0
 20
356.5
 30
0.0
 11
420.0
 21
355.5
 31
0.0
  0
LINE
  5
76D
  8
DATA
 62
     7
 10
540.0
 20
44.0
 30
0.0
 11
540.0
 21
0.0
 31
0.0
  0
LINE
  5
76E
  8
DATA
 62
     7
 10
540.0
 20
0.0
 30
0.0
 11
542.0
 21
0.0
 31
0.0
  0
LINE
  5
76F
  8
DATA
 62
     7
 10
542.0
 20
0.0
 30
0.0
 11
542.0
 21
44.0
 31
0.0
  0
LINE
  5
770
  8
DATA
 62
     7
 10
540.0
 20
44.0
 30
0.0
 11
542.0
 21
44.0
 31
0.0
  0
LINE
  5
771
  8
DATA
 62
     7
 10
542.0
 20
42.5
 30
0.0
 11
744.0
 21
42.5
 31
0.0
  0
LINE
  5
772
  8
DATA
 62
     7
 10
542.0
 20
41.5
 30
0.0
 11
744.0
 21
41.5
 31
0.0
  0
LINE
  5
773
  8
DATA
 62
     7
 10
542.0
 20
2.5
 30
0.0
 11
591.75
 21
2.5
 31
0.0
  0
LINE
  5
774
  8
DATA
 62
     7
 10
598.24999999999989
 20
2.5
 30
0.0
 11
744.0
 21
2.5
 31
0.0
  0
LINE
  5
775
  8
DATA
 62
     7
 10
542.0
 20
1.5
 30
0.0
 11
591.75
 21
1.5
 31
0.0
  0
LINE
  5
776
  8
DATA
 62
     7
 10
598.24999999999989
 20
1.5
 30
0.0
 11
744.0
 21
1.5
 31
0.0
  0
LINE
  5
777
  8
DATA
 62
     7
 10
565.0
 20
41.5
 30
0.0
 11
565.0
 21
2.5
 31
0.0
  0
LINE
  5
778
  8
DATA
 62
     7
 10
744.0
 20
42.5
 30
0.0
 11
744.0
 21
1.5
 31
0.0
  0
CIRCLE
  5
779
  8
DATA
 62
     7
 10
547.0
 20
9.5
 30
0.0
 40
3.000000000000016
  0
CIRCLE
  5
77A
  8
DATA
 62
     7
 10
558.0
 20
22.0
 30
0.0
 40
3.0000000000000022
  0
LINE
  5
77B
  8
DATA
 62
     7
 10
570.0
 20
42.5
 30
0.0
 11
570.0
 21
1.5
 31
0.0
  0
CIRCLE
  5
77C
  8
DATA
 62
     7
 10
547.0
 20
34.5
 30
0.0
 40
3.000000000000016
  0
POLYLINE
  5
77D
  8
DATA
 62
     7
 66
     1
 10
0.0
 20
0.0
 30
0.0
  0
VERTEX
  5
B06
  8
DATA
 62
     7
 10
547.5
 20
9.0
 30
0.0
  0
VERTEX
  5
B07
  8
DATA
 62
     7
 10
548.5
 20
9.0
 30
0.0
  0
VERTEX
  5
B08
  8
DATA
 62
     7
 10
548.5
 20
10.0
 30
0.0
  0
VERTEX
  5
B09
  8
DATA
 62
     7
 10
547.5
 20
10.0
 30
0.0
  0
SEQEND
  5
B0A
  8
DATA
 62
     7
  0
POLYLINE
  5
783
  8
DATA
 62
     7
 66
     1
 10
0.0
 20
0.0
 30
0.0
  0
VERTEX
  5
B0B
  8
DATA
 62
     7
 10
546.49999999999989
 20
9.0
 30
0.0
  0
VERTEX
  5
B0C
  8
DATA
 62
     7
 10
545.5
 20
9.0
 30
0.0
  0
VERTEX
  5
B0D
  8
DATA
 62
     7
 10
545.5
 20
10.0
 30
0.0
  0
VERTEX
  5
B0E
  8
DATA
 62
     7
 10
546.49999999999989
 20
10.0
 30
0.0
  0
SEQEND
  5
B0F
  8
DATA
 62
     7
  0
POLYLINE
  5
789
  8
DATA
 62
     7
 66
     1
 10
0.0
 20
0.0
 30
0.0
  0
VERTEX
  5
B10
  8
DATA
 62
     7
 10
547.5
 20
10.0
 30
0.0
  0
VERTEX
  5
B11
  8
DATA
 62
     7
 10
547.5
 20
11.0
 30
0.0
  0
VERTEX
  5
B12
  8
DATA
 62
     7
 10
546.49999999999989
 20
11.0
 30
0.0
  0
VERTEX
  5
B13
  8
DATA
 62
     7
 10
546.49999999999989
 20
10.0
 30
0.0
  0
SEQEND
  5
B14
  8
DATA
 62
     7
  0
POLYLINE
  5
78F
  8
DATA
 62
     7
 66
     1
 10
0.0
 20
0.0
 30
0.0
  0
VERTEX
  5
B15
  8
DATA
 62
     7
 10
547.5
 20
9.0
 30
0.0
  0
VERTEX
  5
B16
  8
DATA
 62
     7
 10
547.5
 20
8.0
 30
0.0
  0
VERTEX
  5
B17
  8
DATA
 62
     7
 10
546.49999999999989
 20
8.0
 30
0.0
  0
VERTEX
  5
B18
  8
DATA
 62
     7
 10
546.49999999999989
 20
9.0
 30
0.0
  0
SEQEND
  5
B19
  8
DATA
 62
     7
  0
POLYLINE
  5
795
  8
DATA
 62
     7
 66
     1
 10
0.0
 20
0.0
 30
0.0
  0
VERTEX
  5
B1A
  8
DATA
 62
     7
 10
547.5
 20
34.0
 30
0.0
  0
VERTEX
  5
B1B
  8
DATA
 62
     7
 10
548.5
 20
34.0
 30
0.0
  0
VERTEX
  5
B1C
  8
DATA
 62
     7
 10
548.5
 20
35.0
 30
0.0
  0
VERTEX
  5
B1D
  8
DATA
 62
     7
 10
547.5
 20
35.0
 30
0.0
  0
SEQEND
  5
B1E
  8
DATA
 62
     7
  0
POLYLINE
  5
79B
  8
DATA
 62
     7
 66
     1
 10
0.0
 20
0.0
 30
0.0
  0
VERTEX
  5
B1F
  8
DATA
 62
     7
 10
546.49999999999989
 20
34.0
 30
0.0
  0
VERTEX
  5
B20
  8
DATA
 62
     7
 10
545.5
 20
34.0
 30
0.0
  0
VERTEX
  5
B21
  8
DATA
 62
     7
 10
545.5
 20
35.0
 30
0.0
  0
VERTEX
  5
B22
  8
DATA
 62
     7
 10
546.49999999999989
 20
35.0
 30
0.0
  0
SEQEND
  5
B23
  8
DATA
 62
     7
  0
POLYLINE
  5
7A1
  8
DATA
 62
     7
 66
     1
 10
0.0
 20
0.0
 30
0.0
  0
VERTEX
  5
B24
  8
DATA
 62
     7
 10
547.5
 20
35.0
 30
0.0
  0
VERTEX
  5
B25
  8
DATA
 62
     7
 10
547.5
 20
36.0
 30
0.0
  0
VERTEX
  5
B26
  8
DATA
 62
     7
 10
546.49999999999989
 20
36.0
 30
0.0
  0
VERTEX
  5
B27
  8
DATA
 62
     7
 10
546.49999999999989
 20
35.0
 30
0.0
  0
SEQEND
  5
B28
  8
DATA
 62
     7
  0
POLYLINE
  5
7A7
  8
DATA
 62
     7
 66
     1
 10
0.0
 20
0.0
 30
0.0
  0
VERTEX
  5
B29
  8
DATA
 62
     7
 10
547.5
 20
34.0
 30
0.0
  0
VERTEX
  5
B2A
  8
DATA
 62
     7
 10
547.5
 20
33.0
 30
0.0
  0
VERTEX
  5
B2B
  8
DATA
 62
     7
 10
546.49999999999989
 20
33.0
 30
0.0
  0
VERTEX
  5
B2C
  8
DATA
 62
     7
 10
546.49999999999989
 20
34.0
 30
0.0
  0
SEQEND
  5
B2D
  8
DATA
 62
     7
  0
POLYLINE
  5
7AD
  8
DATA
 62
     7
 66
     1
 10
0.0
 20
0.0
 30
0.0
  0
VERTEX
  5
B2E
  8
DATA
 62
     7
 10
558.49999999999989
 20
21.5
 30
0.0
  0
VERTEX
  5
B2F
  8
DATA
 62
     7
 10
559.49999999999989
 20
21.5
 30
0.0
  0
VERTEX
  5
B30
  8
DATA
 62
     7
 10
559.49999999999989
 20
22.5
 30
0.0
  0
VERTEX
  5
B31
  8
DATA
 62
     7
 10
558.49999999999989
 20
22.5
 30
0.0
  0
SEQEND
  5
B32
  8
DATA
 62
     7
  0
POLYLINE
  5
7B3
  8
DATA
 62
     7
 66
     1
 10
0.0
 20
0.0
 30
0.0
  0
VERTEX
  5
B33
  8
DATA
 62
     7
 10
557.5
 20
21.5
 30
0.0
  0
VERTEX
  5
B34
  8
DATA
 62
     7
 10
556.5
 20
21.5
 30
0.0
  0
VERTEX
  5
B35
  8
DATA
 62
     7
 10
556.5
 20
22.5
 30
0.0
  0
VERTEX
  5
B36
  8
DATA
 62
     7
 10
557.5
 20
22.5
 30
0.0
  0
SEQEND
  5
B37
  8
DATA
 62
     7
  0
POLYLINE
  5
7B9
  8
DATA
 62
     7
 66
     1
 10
0.0
 20
0.0
 30
0.0
  0
VERTEX
  5
B38
  8
DATA
 62
     7
 10
558.49999999999989
 20
22.5
 30
0.0
  0
VERTEX
  5
B39
  8
DATA
 62
     7
 10
558.49999999999989
 20
23.5
 30
0.0
  0
VERTEX
  5
B3A
  8
DATA
 62
     7
 10
557.5
 20
23.5
 30
0.0
  0
VERTEX
  5
B3B
  8
DATA
 62
     7
 10
557.5
 20
22.5
 30
0.0
  0
SEQEND
  5
B3C
  8
DATA
 62
     7
  0
POLYLINE
  5
7BF
  8
DATA
 62
     7
 66
     1
 10
0.0
 20
0.0
 30
0.0
  0
VERTEX
  5
B3D
  8
DATA
 62
     7
 10
558.49999999999989
 20
21.5
 30
0.0
  0
VERTEX
  5
B3E
  8
DATA
 62
     7
 10
558.49999999999989
 20
20.5
 30
0.0
  0
VERTEX
  5
B3F
  8
DATA
 62
     7
 10
557.5
 20
20.5
 30
0.0
  0
VERTEX
  5
B40
  8
DATA
 62
     7
 10
557.5
 20
21.5
 30
0.0
  0
SEQEND
  5
B41
  8
DATA
 62
     7
  0
CIRCLE
  5
7C5
  8
DATA
 62
     7
 10
737.0
 20
34.5
 30
0.0
 40
3.5000000000000182
  0
POLYLINE
  5
7C6
  8
DATA
 62
     7
 66
     1
 10
0.0
 20
0.0
 30
0.0
  0
VERTEX
  5
B42
  8
DATA
 62
     7
 10
737.5
 20
34.0
 30
0.0
  0
VERTEX
  5
B43
  8
DATA
 62
     7
 10
739.0
 20
34.0
 30
0.0
  0
VERTEX
  5
B44
  8
DATA
 62
     7
 10
739.0
 20
35.0
 30
0.0
  0
VERTEX
  5
B45
  8
DATA
 62
     7
 10
737.5
 20
35.0
 30
0.0
  0
SEQEND
  5
B46
  8
DATA
 62
     7
  0
POLYLINE
  5
7CC
  8
DATA
 62
     7
 66
     1
 10
0.0
 20
0.0
 30
0.0
  0
VERTEX
  5
B47
  8
DATA
 62
     7
 10
736.5
 20
34.0
 30
0.0
  0
VERTEX
  5
B48
  8
DATA
 62
     7
 10
735.0
 20
34.0
 30
0.0
  0
VERTEX
  5
B49
  8
DATA
 62
     7
 10
735.0
 20
35.0
 30
0.0
  0
VERTEX
  5
B4A
  8
DATA
 62
     7
 10
736.5
 20
35.0
 30
0.0
  0
SEQEND
  5
B4B
  8
DATA
 62
     7
  0
POLYLINE
  5
7D2
  8
DATA
 62
     7
 66
     1
 10
0.0
 20
0.0
 30
0.0
  0
VERTEX
  5
B4C
  8
DATA
 62
     7
 10
737.5
 20
35.0
 30
0.0
  0
VERTEX
  5
B4D
  8
DATA
 62
     7
 10
737.5
 20
36.5
 30
0.0
  0
VERTEX
  5
B4E
  8
DATA
 62
     7
 10
736.5
 20
36.5
 30
0.0
  0
VERTEX
  5
B4F
  8
DATA
 62
     7
 10
736.5
 20
35.0
 30
0.0
  0
SEQEND
  5
B50
  8
DATA
 62
     7
  0
POLYLINE
  5
7D8
  8
DATA
 62
     7
 66
     1
 10
0.0
 20
0.0
 30
0.0
  0
VERTEX
  5
B51
  8
DATA
 62
     7
 10
737.5
 20
34.0
 30
0.0
  0
VERTEX
  5
B52
  8
DATA
 62
     7
 10
737.5
 20
32.5
 30
0.0
  0
VERTEX
  5
B53
  8
DATA
 62
     7
 10
736.5
 20
32.5
 30
0.0
  0
VERTEX
  5
B54
  8
DATA
 62
     7
 10
736.5
 20
34.0
 30
0.0
  0
SEQEND
  5
B55
  8
DATA
 62
     7
  0
CIRCLE
  5
7DE
  8
DATA
 62
     7
 10
737.0
 20
9.5
 30
0.0
 40
3.5000000000000182
  0
POLYLINE
  5
7DF
  8
DATA
 62
     7
 66
     1
 10
0.0
 20
0.0
 30
0.0
  0
VERTEX
  5
B56
  8
DATA
 62
     7
 10
737.5
 20
9.0
 30
0.0
  0
VERTEX
  5
B57
  8
DATA
 62
     7
 10
739.0
 20
9.0
 30
0.0
  0
VERTEX
  5
B58
  8
DATA
 62
     7
 10
739.0
 20
10.0
 30
0.0
  0
VERTEX
  5
B59
  8
DATA
 62
     7
 10
737.5
 20
10.0
 30
0.0
  0
SEQEND
  5
B5A
  8
DATA
 62
     7
  0
POLYLINE
  5
7E5
  8
DATA
 62
     7
 66
     1
 10
0.0
 20
0.0
 30
0.0
  0
VERTEX
  5
B5B
  8
DATA
 62
     7
 10
736.5
 20
9.0
 30
0.0
  0
VERTEX
  5
B5C
  8
DATA
 62
     7
 10
735.0
 20
9.0
 30
0.0
  0
VERTEX
  5
B5D
  8
DATA
 62
     7
 10
735.0
 20
10.0
 30
0.0
  0
VERTEX
  5
B5E
  8
DATA
 62
     7
 10
736.5
 20
10.0
 30
0.0
  0
SEQEND
  5
B5F
  8
DATA
 62
     7
  0
POLYLINE
  5
7EB
  8
DATA
 62
     7
 66
     1
 10
0.0
 20
0.0
 30
0.0
  0
VERTEX
  5
B60
  8
DATA
 62
     7
 10
737.5
 20
10.0
 30
0.0
  0
VERTEX
  5
B61
  8
DATA
 62
     7
 10
737.5
 20
11.5
 30
0.0
  0
VERTEX
  5
B62
  8
DATA
 62
     7
 10
736.5
 20
11.5
 30
0.0
  0
VERTEX
  5
B63
  8
DATA
 62
     7
 10
736.5
 20
10.0
 30
0.0
  0
SEQEND
  5
B64
  8
DATA
 62
     7
  0
POLYLINE
  5
7F1
  8
DATA
 62
     7
 66
     1
 10
0.0
 20
0.0
 30
0.0
  0
VERTEX
  5
B65
  8
DATA
 62
     7
 10
737.5
 20
9.0
 30
0.0
  0
VERTEX
  5
B66
  8
DATA
 62
     7
 10
737.5
 20
7.5
 30
0.0
  0
VERTEX
  5
B67
  8
DATA
 62
     7
 10
736.5
 20
7.5
 30
0.0
  0
VERTEX
  5
B68
  8
DATA
 62
     7
 10
736.5
 20
9.0
 30
0.0
  0
SEQEND
  5
B69
  8
DATA
 62
     7
  0
CIRCLE
  5
7F7
  8
DATA
 62
     7
 10
727.0
 20
22.0
 30
0.0
 40
3.5000000000000182
  0
POLYLINE
  5
7F8
  8
DATA
 62
     7
 66
     1
 10
0.0
 20
0.0
 30
0.0
  0
VERTEX
  5
B6A
  8
DATA
 62
     7
 10
727.5
 20
21.5
 30
0.0
  0
VERTEX
  5
B6B
  8
DATA
 62
     7
 10
729.0
 20
21.5
 30
0.0
  0
VERTEX
  5
B6C
  8
DATA
 62
     7
 10
729.0
 20
22.5
 30
0.0
  0
VERTEX
  5
B6D
  8
DATA
 62
     7
 10
727.5
 20
22.5
 30
0.0
  0
SEQEND
  5
B6E
  8
DATA
 62
     7
  0
POLYLINE
  5
7FE
  8
DATA
 62
     7
 66
     1
 10
0.0
 20
0.0
 30
0.0
  0
VERTEX
  5
B6F
  8
DATA
 62
     7
 10
726.5
 20
21.5
 30
0.0
  0
VERTEX
  5
B70
  8
DATA
 62
     7
 10
725.0
 20
21.5
 30
0.0
  0
VERTEX
  5
B71
  8
DATA
 62
     7
 10
725.0
 20
22.5
 30
0.0
  0
VERTEX
  5
B72
  8
DATA
 62
     7
 10
726.5
 20
22.5
 30
0.0
  0
SEQEND
  5
B73
  8
DATA
 62
     7
  0
POLYLINE
  5
804
  8
DATA
 62
     7
 66
     1
 10
0.0
 20
0.0
 30
0.0
  0
VERTEX
  5
B74
  8
DATA
 62
     7
 10
727.5
 20
22.5
 30
0.0
  0
VERTEX
  5
B75
  8
DATA
 62
     7
 10
727.5
 20
24.0
 30
0.0
  0
VERTEX
  5
B76
  8
DATA
 62
     7
 10
726.5
 20
24.0
 30
0.0
  0
VERTEX
  5
B77
  8
DATA
 62
     7
 10
726.5
 20
22.5
 30
0.0
  0
SEQEND
  5
B78
  8
DATA
 62
     7
  0
POLYLINE
  5
80A
  8
DATA
 62
     7
 66
     1
 10
0.0
 20
0.0
 30
0.0
  0
VERTEX
  5
B79
  8
DATA
 62
     7
 10
727.5
 20
21.5
 30
0.0
  0
VERTEX
  5
B7A
  8
DATA
 62
     7
 10
727.5
 20
20.0
 30
0.0
  0
VERTEX
  5
B7B
  8
DATA
 62
     7
 10
726.5
 20
20.0
 30
0.0
  0
VERTEX
  5
B7C
  8
DATA
 62
     7
 10
726.5
 20
21.5
 30
0.0
  0
SEQEND
  5
B7D
  8
DATA
 62
     7
  0
CIRCLE
  5
810
  8
DATA
 62
     7
 10
660.0
 20
22.0
 30
0.0
 40
7.5
  0
CIRCLE
  5
811
  8
DATA
 62
     7
 10
660.0
 20
22.0
 30
0.0
 40
6.25
  0
CIRCLE
  5
812
  8
DATA
 62
     7
 10
660.0
 20
22.0
 30
0.0
 40
4.75
  0
POLYLINE
  5
813
  8
DATA
 62
     7
 66
     1
 10
0.0
 20
0.0
 30
0.0
 70
     1
  0
VERTEX
  5
B7E
  8
DATA
 62
     7
 10
659.25
 20
25.0
 30
0.0
  0
VERTEX
  5
B7F
  8
DATA
 62
     7
 10
660.74999999999989
 20
25.0
 30
0.0
  0
VERTEX
  5
B80
  8
DATA
 62
     7
 10
660.74999999999989
 20
19.0
 30
0.0
  0
VERTEX
  5
B81
  8
DATA
 62
     7
 10
659.25
 20
19.0
 30
0.0
  0
SEQEND
  5
B82
  8
DATA
 62
     7
  0
LINE
  5
819
  8
DATA
 62
     7
 10
621.0
 20
17.5
 30
0.0
 11
634.0
 21
17.5
 31
0.0
  0
LINE
  5
81A
  8
DATA
 62
     7
 10
621.0
 20
17.5
 30
0.0
 11
621.0
 21
26.5
 31
0.0
  0
LINE
  5
81B
  8
DATA
 62
     7
 10
621.0
 20
26.5
 30
0.0
 11
634.0
 21
26.5
 31
0.0
  0
LINE
  5
81C
  8
DATA
 62
     7
 10
634.0
 20
26.5
 30
0.0
 11
634.0
 21
17.5
 31
0.0
  0
POLYLINE
  5
81D
  8
DATA
 62
     7
 66
     1
 10
0.0
 20
0.0
 30
0.0
 70
     1
  0
VERTEX
  5
B83
  8
DATA
 62
     7
 10
627.5
 20
24.75
 30
0.0
  0
VERTEX
  5
B84
  8
DATA
 62
     7
 10
633.0
 20
24.75
 30
0.0
  0
VERTEX
  5
B85
  8
DATA
 62
     7
 10
633.0
 20
19.25
 30
0.0
  0
VERTEX
  5
B86
  8
DATA
 62
     7
 10
627.5
 20
19.25
 30
0.0
  0
SEQEND
  5
B87
  8
DATA
 62
     7
  0
TEXT
  5
823
  8
DATA
 62
     7
 10
626.82951388888875
 20
19.044270823399241
 30
0.0
 40
2.7999999999999998
  1
120
 50
90.0
 41
0.8
 11
624.0295138888888
 21
19.044270823399241
 31
0.0
 73
     3
  0
CIRCLE
  5
824
  8
DATA
 62
     7
 10
630.25
 20
22.0
 30
0.0
 40
1.0
  0
ARC
  5
825
  8
DATA
 62
     7
 10
595.0
 20
22.0
 30
0.0
 40
7.2500000000000222
 50
296.63311874915581
 51
243.3668812508441
  0
ARC
  5
826
  8
DATA
 62
     7
 10
595.0
 20
22.0
 30
0.0
 40
3.25
 50
0.0
 51
180.0
  0
LINE
  5
827
  8
DATA
 62
     7
 10
595.0
 20
25.25
 30
0.0
 11
588.51925930159132
 21
25.25
 31
0.0
  0
LINE
  5
828
  8
DATA
 62
     7
 10
591.75
 20
18.75
 30
0.0
 11
588.51925930159132
 21
18.75
 31
0.0
  0
LINE
  5
829
  8
DATA
 62
     7
 10
598.24999999999989
 20
22.0
 30
0.0
 11
598.24999999999989
 21
-14.0
 31
0.0
  0
LINE
  5
82A
  8
DATA
 62
     7
 10
591.75
 20
22.0
 30
0.0
 11
591.75
 21
-14.0
 31
0.0
  0
ARC
  5
82B
  8
DATA
 62
     7
 10
593.37499999999989
 20
-14.0
 30
0.0
 40
1.625
 50
0.0
 51
180.0
  0
ARC
  5
82C
  8
DATA
 62
     7
 10
596.625
 20
-14.0
 30
0.0
 40
1.625
 50
180.0
 51
0.0
  0
LINE
  5
82D
  8
DATA
 62
     7
 10
585.0
 20
35.5
 30
0.0
 11
585.0
 21
31.5
 31
0.0
  0
LINE
  5
82E
  8
DATA
 62
     7
 10
585.0
 20
27.5
 30
0.0
 11
585.0
 21
7.5
 31
0.0
  0
LINE
  5
82F
  8
DATA
 62
     7
 10
587.0
 20
5.5
 30
0.0
 11
591.75
 21
5.5
 31
0.0
  0
LINE
  5
830
  8
DATA
 62
     7
 10
598.24999999999989
 20
5.5
 30
0.0
 11
672.0
 21
5.5
 31
0.0
  0
LINE
  5
831
  8
DATA
 62
     7
 10
674.0
 20
7.5
 30
0.0
 11
674.0
 21
35.5
 31
0.0
  0
LINE
  5
832
  8
DATA
 62
     7
 10
623.0
 20
37.5
 30
0.0
 11
587.0
 21
37.5
 31
0.0
  0
LINE
  5
833
  8
DATA
 62
     7
 10
672.0
 20
37.5
 30
0.0
 11
627.00000000000364
 21
37.5
 31
0.0
  0
LINE
  5
834
  8
DATA
 62
     7
 10
625.0
 20
35.5
 30
0.0
 11
625.0
 21
31.5
 31
0.0
  0
LINE
  5
835
  8
DATA
 62
     7
 10
623.0
 20
29.5
 30
0.0
 11
587.0
 21
29.5
 31
0.0
  0
ARC
  5
836
  8
DATA
 62
     7
 10
672.0
 20
35.5
 30
0.0
 40
2.0
 50
0.0
 51
90.0
  0
ARC
  5
837
  8
DATA
 62
     7
 10
672.0
 20
7.5
 30
0.0
 40
2.0
 50
270.0
 51
0.0
  0
ARC
  5
838
  8
DATA
 62
     7
 10
587.0
 20
7.5
 30
0.0
 40
2.0
 50
180.0
 51
270.0
  0
ARC
  5
839
  8
DATA
 62
     7
 10
587.0
 20
35.5
 30
0.0
 40
2.0
 50
90.0
 51
180.0
  0
ARC
  5
83A
  8
DATA
 62
     7
 10
623.0
 20
31.5
 30
0.0
 40
2.0
 50
270.0
 51
0.0
  0
ARC
  5
83B
  8
DATA
 62
     7
 10
627.00000000000364
 20
35.499999999996369
 30
0.0
 40
2.000000000003638
 50
90.0
 51
179.99999999989569
  0
ARC
  5
83C
  8
DATA
 62
     7
 10
623.0
 20
35.5
 30
0.0
 40
2.0
 50
0.0
 51
90.0
  0
ARC
  5
83D
  8
DATA
 62
     7
 10
587.0
 20
31.5
 30
0.0
 40
2.0
 50
180.0
 51
270.0
  0
ARC
  5
83E
  8
DATA
 62
     7
 10
587.0
 20
27.5
 30
0.0
 40
2.0
 50
90.0
 51
180.0
  0
TEXT
  5
83F
  8
DATA
 62
     7
 10
634.74999998013186
 20
22.600000000000001
 30
0.0
 40
2.3999999999999999
  1
SELECT
 41
0.8
 11
634.74999998013186
 21
25.0
 31
0.0
 73
     3
  0
TEXT
  5
840
  8
DATA
 62
     7
 10
634.74999998013186
 20
19.600000000000001
 30
0.0
 40
2.3999999999999999
  1
VOLTAGE
 41
0.8
 11
634.74999998013186
 21
22.0
 31
0.0
 73
     3
  0
TEXT
  5
841
  8
DATA
 62
     7
 10
617.25399998013177
 20
10.6
 30
0.0
 40
2.3999999999999999
  1
MAINS SUPPLY
 41
0.8
 72
     1
 11
627.74999998013175
 21
13.0
 31
0.0
 73
     3
  0
TEXT
  5
842
  8
DATA
 62
     7
 10
614.34199998013185
 20
7.5999999999999988
 30
0.0
 40
2.3999999999999999
  1
AC～50/60Hz 10VA
 41
0.8
 72
     1
 11
627.74999998013175
 21
10.0
 31
0.0
 73
     3
  0
TEXT
  5
843
  8
DATA
 62
     7
 10
649.41987296120965
 20
7.5999999999999988
 30
0.0
 40
2.3999999999999999
  1
USE FUSE T160mA
 41
0.8
 11
649.41987296120965
 21
10.0
 31
0.0
 73
     3
  0
LINE
  5
844
  8
DATA
 62
     7
 10
684.0
 20
41.5
 30
0.0
 11
684.0
 21
2.5
 31
0.0
  0
LINE
  5
845
  8
DATA
 62
     7
 10
542.0
 20
42.5
 30
0.0
 11
547.25
 21
42.5
 31
0.0
  0
LINE
  5
846
  8
DATA
 62
     7
 10
547.25
 20
42.5
 30
0.0
 11
547.25
 21
43.0
 31
0.0
  0
LINE
  5
847
  8
DATA
 62
     7
 10
542.0
 20
43.0
 30
0.0
 11
547.25
 21
43.0
 31
0.0
  0
ARC
  5
848
  8
DATA
 62
     7
 10
544.0
 20
40.374999999999893
 30
0.0
 40
3.6250000000001208
 50
46.397181027296973
 51
123.48537662299159
  0
LINE
  5
849
  8
DATA
 62
     7
 10
736.24999999999989
 20
42.5
 30
0.0
 11
742.75
 21
42.5
 31
0.0
  0
LINE
  5
84A
  8
DATA
 62
     7
 10
736.24999999999989
 20
42.5
 30
0.0
 11
736.24999999999989
 21
43.0
 31
0.0
  0
LINE
  5
84B
  8
DATA
 62
     7
 10
742.75
 20
42.5
 30
0.0
 11
742.75
 21
43.0
 31
0.0
  0
LINE
  5
84C
  8
DATA
 62
     7
 10
736.24999999999989
 20
43.0
 30
0.0
 11
742.75
 21
43.0
 31
0.0
  0
ARC
  5
84D
  8
DATA
 62
     7
 10
739.5
 20
40.374999999999893
 30
0.0
 40
3.6250000000001208
 50
46.397181027296973
 51
133.60281897270181
  0
LINE
  5
84E
  8
DATA
 62
     7
 10
542.0
 20
1.5
 30
0.0
 11
547.25
 21
1.5
 31
0.0
  0
LINE
  5
84F
  8
DATA
 62
     7
 10
547.25
 20
1.5
 30
0.0
 11
547.25
 21
1.0
 31
0.0
  0
LINE
  5
850
  8
DATA
 62
     7
 10
542.0
 20
1.0
 30
0.0
 11
547.25
 21
1.0
 31
0.0
  0
ARC
  5
851
  8
DATA
 62
     7
 10
544.0
 20
3.6250000000001128
 30
0.0
 40
3.6250000000001359
 50
236.51462337700841
 51
313.60281897270301
  0
LINE
  5
852
  8
DATA
 62
     7
 10
736.24999999999989
 20
1.5
 30
0.0
 11
742.75
 21
1.5
 31
0.0
  0
LINE
  5
853
  8
DATA
 62
     7
 10
736.24999999999989
 20
1.5
 30
0.0
 11
736.24999999999989
 21
1.0
 31
0.0
  0
LINE
  5
854
  8
DATA
 62
     7
 10
742.75
 20
1.5
 30
0.0
 11
742.75
 21
1.0
 31
0.0
  0
LINE
  5
855
  8
DATA
 62
     7
 10
736.24999999999989
 20
1.0
 30
0.0
 11
742.75
 21
1.0
 31
0.0
  0
ARC
  5
856
  8
DATA
 62
     7
 10
739.5
 20
3.6250000000001128
 30
0.0
 40
3.6250000000000431
 50
226.3971810272983
 51
313.60281897270301
  0
LINE
  5
857
  8
DATA
 62
     7
 10
460.60000000000002
 20
276.25
 30
0.0
 11
460.60000000000002
 21
263.75
 31
0.0
  0
LINE
  5
858
  8
DATA
 62
     7
 10
454.60000000000002
 20
277.5
 30
0.0
 11
460.60000000000002
 21
276.25
 31
0.0
  0
LINE
  5
859
  8
DATA
 62
     7
 10
460.60000000000002
 20
263.75
 30
0.0
 11
454.60000000000002
 21
262.5
 31
0.0
  0
LINE
  5
85A
  8
DATA
 62
     7
 10
457.10000000000002
 20
350.0
 30
0.0
 11
457.10000000000002
 21
344.0
 31
0.0
  0
LINE
  5
85B
  8
DATA
 62
     7
 10
454.60000000000002
 20
343.5
 30
0.0
 11
456.60000000000002
 21
343.5
 31
0.0
  0
LINE
  5
85C
  8
DATA
 62
     7
 10
456.60000000000002
 20
350.5
 30
0.0
 11
454.60000000000002
 21
350.5
 31
0.0
  0
ARC
  5
85D
  8
DATA
 62
     7
 10
456.60000000000002
 20
350.0
 30
0.0
 40
0.5
 50
0.0
 51
90.0
  0
ARC
  5
85E
  8
DATA
 62
     7
 10
456.60000000000002
 20
344.0
 30
0.0
 40
0.5
 50
270.0
 51
0.0
  0
LINE
  5
85F
  8
DATA
 62
     7
 10
457.10000000000002
 20
340.0
 30
0.0
 11
457.10000000000002
 21
334.0
 31
0.0
  0
LINE
  5
860
  8
DATA
 62
     7
 10
454.60000000000002
 20
333.5
 30
0.0
 11
456.60000000000002
 21
333.5
 31
0.0
  0
LINE
  5
861
  8
DATA
 62
     7
 10
456.60000000000002
 20
340.5
 30
0.0
 11
454.60000000000002
 21
340.5
 31
0.0
  0
ARC
  5
862
  8
DATA
 62
     7
 10
456.60000000000002
 20
340.0
 30
0.0
 40
0.5
 50
0.0
 51
90.0
  0
ARC
  5
863
  8
DATA
 62
     7
 10
456.60000000000002
 20
334.0
 30
0.0
 40
0.5
 50
270.0
 51
0.0
  0
LINE
  5
864
  8
DATA
 62
     7
 10
25.5
 20
350.0
 30
0.0
 11
25.5
 21
344.0
 31
0.0
  0
LINE
  5
865
  8
DATA
 62
     7
 10
28.0
 20
343.5
 30
0.0
 11
26.0
 21
343.5
 31
0.0
  0
LINE
  5
866
  8
DATA
 62
     7
 10
26.0
 20
350.5
 30
0.0
 11
28.0
 21
350.5
 31
0.0
  0
ARC
  5
867
  8
DATA
 62
     7
 10
26.0
 20
350.0
 30
0.0
 40
0.5
 50
90.0
 51
180.0
  0
ARC
  5
868
  8
DATA
 62
     7
 10
26.0
 20
344.0
 30
0.0
 40
0.5
 50
180.0
 51
270.0
  0
LINE
  5
869
  8
DATA
 62
     7
 10
25.5
 20
340.0
 30
0.0
 11
25.5
 21
334.0
 31
0.0
  0
LINE
  5
86A
  8
DATA
 62
     7
 10
28.0
 20
333.5
 30
0.0
 11
26.0
 21
333.5
 31
0.0
  0
LINE
  5
86B
  8
DATA
 62
     7
 10
26.0
 20
340.5
 30
0.0
 11
28.0
 21
340.5
 31
0.0
  0
ARC
  5
86C
  8
DATA
 62
     7
 10
26.0
 20
340.0
 30
0.0
 40
0.5
 50
90.0
 51
180.0
  0
ARC
  5
86D
  8
DATA
 62
     7
 10
26.0
 20
334.0
 30
0.0
 40
0.5
 50
180.0
 51
270.0
  0
LINE
  5
86E
  8
DATA
 62
     7
 10
454.60000000000002
 20
197.75
 30
0.0
 11
457.60000000000002
 21
197.75
 31
0.0
  0
LINE
  5
86F
  8
DATA
 62
     7
 10
459.10000000000002
 20
199.25
 30
0.0
 11
459.10000000000002
 21
210.75
 31
0.0
  0
LINE
  5
870
  8
DATA
 62
     7
 10
457.60000000000002
 20
212.25
 30
0.0
 11
454.60000000000002
 21
212.25
 31
0.0
  0
ARC
  5
871
  8
DATA
 62
     7
 10
457.60000000000002
 20
210.75
 30
0.0
 40
1.5
 50
0.0
 51
90.0
  0
ARC
  5
872
  8
DATA
 62
     7
 10
457.60000000000002
 20
199.25
 30
0.0
 40
1.5
 50
270.0
 51
0.0
  0
LINE
  5
873
  8
DATA
 62
     7
 10
459.10000000000002
 20
208.25
 30
0.0
 11
477.60000000000002
 21
208.25
 31
0.0
  0
LINE
  5
874
  8
DATA
 62
     7
 10
459.10000000000002
 20
201.75
 30
0.0
 11
477.60000000000002
 21
201.75
 31
0.0
  0
ARC
  5
875
  8
DATA
 62
     7
 10
477.60000000000002
 20
206.625
 30
0.0
 40
1.625
 50
270.0
 51
90.0
  0
ARC
  5
876
  8
DATA
 62
     7
 10
477.60000000000002
 20
203.375
 30
0.0
 40
1.625
 50
90.0
 51
270.0
  0
LINE
  5
877
  8
DATA
 62
     7
 10
454.60000000000002
 20
484.75
 30
0.0
 11
457.60000000000002
 21
484.75
 31
0.0
  0
LINE
  5
878
  8
DATA
 62
     7
 10
459.10000000000002
 20
486.24999999999989
 30
0.0
 11
459.10000000000002
 21
497.75
 31
0.0
  0
LINE
  5
879
  8
DATA
 62
     7
 10
457.60000000000002
 20
499.24999999999989
 30
0.0
 11
454.60000000000002
 21
499.24999999999989
 31
0.0
  0
ARC
  5
87A
  8
DATA
 62
     7
 10
457.60000000000002
 20
497.75
 30
0.0
 40
1.5
 50
0.0
 51
90.0
  0
ARC
  5
87B
  8
DATA
 62
     7
 10
457.60000000000002
 20
486.24999999999989
 30
0.0
 40
1.5
 50
270.0
 51
0.0
  0
LINE
  5
87C
  8
DATA
 62
     7
 10
459.10000000000002
 20
495.24999999999989
 30
0.0
 11
468.10000000000002
 21
495.24999999999989
 31
0.0
  0
LINE
  5
87D
  8
DATA
 62
     7
 10
459.10000000000002
 20
488.75
 30
0.0
 11
471.60000000000002
 21
488.75
 31
0.0
  0
LINE
  5
87E
  8
DATA
 62
     7
 10
477.60000000000002
 20
494.74999999999989
 30
0.0
 11
477.60000000000002
 21
500.0
 31
0.0
  0
LINE
  5
87F
  8
DATA
 62
     7
 10
471.10000000000002
 20
498.24999999999989
 30
0.0
 11
471.10000000000002
 21
500.0
 31
0.0
  0
ARC
  5
880
  8
DATA
 62
     7
 10
472.72500000000002
 20
500.0
 30
0.0
 40
1.625
 50
0.0
 51
180.0
  0
ARC
  5
881
  8
DATA
 62
     7
 10
475.97500000000002
 20
500.0
 30
0.0
 40
1.625
 50
180.0
 51
0.0
  0
ARC
  5
882
  8
DATA
 62
     7
 10
471.60000000000002
 20
494.74999999999989
 30
0.0
 40
6.0
 50
270.0
 51
0.0
  0
ARC
  5
883
  8
DATA
 62
     7
 10
468.10000000000002
 20
498.24999999999989
 30
0.0
 40
3.0
 50
270.0
 51
0.0
  0
LINE
  5
884
  8
DATA
 62
     7
 10
457.10000000000002
 20
482.5
 30
0.0
 11
457.10000000000002
 21
476.49999999999989
 31
0.0
  0
LINE
  5
885
  8
DATA
 62
     7
 10
454.60000000000002
 20
476.0
 30
0.0
 11
456.60000000000002
 21
476.0
 31
0.0
  0
LINE
  5
886
  8
DATA
 62
     7
 10
456.60000000000002
 20
483.0
 30
0.0
 11
454.60000000000002
 21
483.0
 31
0.0
  0
ARC
  5
887
  8
DATA
 62
     7
 10
456.60000000000002
 20
482.5
 30
0.0
 40
0.5
 50
0.0
 51
90.0
  0
ARC
  5
888
  8
DATA
 62
     7
 10
456.60000000000002
 20
476.49999999999989
 30
0.0
 40
0.5
 50
270.0
 51
0.0
  0
LINE
  5
889
  8
DATA
 62
     7
 10
457.10000000000002
 20
507.5
 30
0.0
 11
457.10000000000002
 21
501.49999999999989
 31
0.0
  0
LINE
  5
88A
  8
DATA
 62
     7
 10
454.60000000000002
 20
501.0
 30
0.0
 11
456.60000000000002
 21
501.0
 31
0.0
  0
LINE
  5
88B
  8
DATA
 62
     7
 10
456.60000000000002
 20
508.0
 30
0.0
 11
454.60000000000002
 21
508.0
 31
0.0
  0
ARC
  5
88C
  8
DATA
 62
     7
 10
456.60000000000002
 20
507.5
 30
0.0
 40
0.5
 50
0.0
 51
90.0
  0
ARC
  5
88D
  8
DATA
 62
     7
 10
456.60000000000002
 20
501.49999999999989
 30
0.0
 40
0.5
 50
270.0
 51
0.0
  0
LINE
  5
88E
  8
DATA
 62
     7
 10
25.5
 20
482.5
 30
0.0
 11
25.5
 21
476.49999999999989
 31
0.0
  0
LINE
  5
88F
  8
DATA
 62
     7
 10
28.0
 20
476.0
 30
0.0
 11
26.0
 21
476.0
 31
0.0
  0
LINE
  5
890
  8
DATA
 62
     7
 10
26.0
 20
483.0
 30
0.0
 11
28.0
 21
483.0
 31
0.0
  0
ARC
  5
891
  8
DATA
 62
     7
 10
26.0
 20
482.5
 30
0.0
 40
0.5
 50
90.0
 51
180.0
  0
ARC
  5
892
  8
DATA
 62
     7
 10
26.0
 20
476.49999999999989
 30
0.0
 40
0.5
 50
180.0
 51
270.0
  0
LINE
  5
893
  8
DATA
 62
     7
 10
25.5
 20
507.5
 30
0.0
 11
25.5
 21
501.49999999999989
 31
0.0
  0
LINE
  5
894
  8
DATA
 62
     7
 10
28.0
 20
501.0
 30
0.0
 11
26.0
 21
501.0
 31
0.0
  0
LINE
  5
895
  8
DATA
 62
     7
 10
26.0
 20
508.0
 30
0.0
 11
28.0
 21
508.0
 31
0.0
  0
ARC
  5
896
  8
DATA
 62
     7
 10
26.0
 20
507.5
 30
0.0
 40
0.5
 50
90.0
 51
180.0
  0
ARC
  5
897
  8
DATA
 62
     7
 10
26.0
 20
501.49999999999989
 30
0.0
 40
0.5
 50
180.0
 51
270.0
  0
LINE
  5
898
  8
DATA
 62
     7
 10
25.5
 20
495.0
 30
0.0
 11
25.5
 21
489.0
 31
0.0
  0
LINE
  5
899
  8
DATA
 62
     7
 10
28.0
 20
488.49999999999989
 30
0.0
 11
26.0
 21
488.49999999999989
 31
0.0
  0
LINE
  5
89A
  8
DATA
 62
     7
 10
26.0
 20
495.5
 30
0.0
 11
28.0
 21
495.5
 31
0.0
  0
ARC
  5
89B
  8
DATA
 62
     7
 10
26.0
 20
495.0
 30
0.0
 40
0.5
 50
90.0
 51
180.0
  0
ARC
  5
89C
  8
DATA
 62
     7
 10
26.0
 20
489.0
 30
0.0
 40
0.5
 50
180.0
 51
270.0
  0
LINE
  5
89D
  8
DATA
 62
     7
 10
745.49625000000015
 20
21.129165124598838
 30
0.0
 11
743.99625000000015
 21
23.5
 31
0.0
  0
LINE
  5
89E
  8
DATA
 62
     7
 10
745.49625000000015
 20
9.8708348754011581
 30
0.0
 11
743.99625000000015
 21
7.5
 31
0.0
  0
LINE
  5
89F
  8
DATA
 62
     7
 10
746.49625000000015
 20
21.129165124598838
 30
0.0
 11
745.49625000000015
 21
21.129165124598838
 31
0.0
  0
LINE
  5
8A0
  8
DATA
 62
     7
 10
746.49625000000015
 20
9.8708348754011581
 30
0.0
 11
745.49625000000015
 21
9.8708348754011581
 31
0.0
  0
LINE
  5
8A1
  8
DATA
 62
     7
 10
745.49625000000015
 20
21.129165124598838
 30
0.0
 11
745.49625000000015
 21
9.8708348754011581
 31
0.0
  0
ARC
  5
8A2
  8
DATA
 62
     7
 10
738.85875462620334
 20
18.314582562299389
 30
0.0
 40
8.1396075203149376
 50
339.77006468309253
 51
20.22993531690798
  0
ARC
  5
8A3
  8
DATA
 62
     7
 10
738.85875462620345
 20
12.685417437700551
 30
0.0
 40
8.1396075203147227
 50
339.7700646830919
 51
20.229935316908549
  0
ARC
  5
8A4
  8
DATA
 62
     7
 10
736.6837499999998
 20
15.5
 30
0.0
 40
11.31250000000019
 50
330.1582758353162
 51
344.6215568024009
  0
ARC
  5
8A5
  8
DATA
 62
     7
 10
736.6837499999998
 20
15.5
 30
0.0
 40
11.31250000000021
 50
15.37844319759912
 51
29.841724164683772
  0
LINE
  5
8A6
  8
DATA
 62
     7
 10
747.59120874390544
 20
18.5
 30
0.0
 11
747.59120874390544
 21
12.5
 31
0.0
  0
LINE
  5
8A7
  8
DATA
 62
     7
 10
746.49625000000015
 20
15.5
 30
0.0
 11
745.49625000000015
 21
15.5
 31
0.0
  0
LINE
  5
8A8
  8
DATA
 62
     7
 10
744.0
 20
15.0
 30
0.0
 11
743.99625000000015
 21
15.0
 31
0.0
  0
LINE
  5
8A9
  8
DATA
 62
     7
 10
744.0
 20
12.0
 30
0.0
 11
743.99625000000015
 21
12.0
 31
0.0
  0
ARC
  5
8AA
  8
DATA
 62
     7
 10
746.49625000000015
 20
13.5
 30
0.0
 40
1.4999999999999929
 50
316.33532635716432
 51
43.115911658633081
  0
LINE
  5
8AB
  8
DATA
 62
     7
 10
749.0
 20
16.0
 30
0.0
 11
747.59120874390544
 21
16.0
 31
0.0
  0
LINE
  5
8AC
  8
DATA
 62
     7
 10
749.0
 20
11.0
 30
0.0
 11
747.06270256034963
 21
11.0
 31
0.0
  0
LINE
  5
8AD
  8
DATA
 62
     7
 10
749.0
 20
16.0
 30
0.0
 11
749.0
 21
11.0
 31
0.0
  0
TEXT
  5
8AE
  8
DATA
 62
     7
 10
523.28472222222206
 20
253.12222222222221
 30
0.0
 40
9.8777777777777782
  1
AC電源ケーブル
 41
0.8
 11
523.28472222222206
 21
263.0
 31
0.0
 73
     3
  0
LINE
  5
8AF
  8
DATA
 62
     7
 10
469.5
 20
205.0
 30
0.0
 11
520.5
 21
256.0
 31
0.0
  0
LINE
  5
8B0
  8
DATA
 62
     7
 10
539.0
 20
34.5
 30
0.0
 11
540.0
 21
34.5
 31
0.0
  0
LINE
  5
8B1
  8
DATA
 62
     7
 10
538.0
 20
33.5
 30
0.0
 11
538.0
 21
30.5
 31
0.0
  0
ARC
  5
8B2
  8
DATA
 62
     7
 10
539.0
 20
33.5
 30
0.0
 40
1.0
 50
90.0
 51
180.0
  0
LINE
  5
8B3
  8
DATA
 62
     7
 10
539.0
 20
5.5
 30
0.0
 11
540.0
 21
5.5
 31
0.0
  0
LINE
  5
8B4
  8
DATA
 62
     7
 10
538.0
 20
9.5
 30
0.0
 11
538.0
 21
6.5
 31
0.0
  0
ARC
  5
8B5
  8
DATA
 62
     7
 10
539.0
 20
6.5
 30
0.0
 40
1.0
 50
180.0
 51
270.0
  0
ARC
  5
8B6
  8
DATA
 62
     7
 10
539.0
 20
9.5
 30
0.0
 40
0.9999999999999836
 50
149.9999999999994
 51
180.0
  0
LINE
  5
8B7
  8
DATA
 62
     7
 10
538.0
 20
12.5
 30
0.0
 11
540.0
 21
12.5
 31
0.0
  0
LINE
  5
8B8
  8
DATA
 62
     7
 10
538.0
 20
33.5
 30
0.0
 11
540.0
 21
33.5
 31
0.0
  0
LINE
  5
8B9
  8
DATA
 62
     7
 10
538.0
 20
12.5
 30
0.0
 11
538.0
 21
33.5
 31
0.0
  0
ARC
  5
8BA
  8
DATA
 62
     7
 10
515.24999999999955
 20
30.375000000000121
 30
0.0
 40
22.750343404001988
 50
327.79439939076542
 51
0.314808807388772
  0
LINE
  5
8BB
  8
DATA
 62
     7
 10
534.49999999999989
 20
18.25
 30
0.0
 11
538.0
 21
15.25
 31
0.0
  0
LINE
  5
8BC
  8
DATA
 62
     7
 10
535.0
 20
10.0
 30
0.0
 11
540.0
 21
10.0
 31
0.0
  0
LINE
  5
8BD
  8
DATA
 62
     7
 10
535.0
 20
15.0
 30
0.0
 11
538.0
 21
15.0
 31
0.0
  0
LINE
  5
8BE
  8
DATA
 62
     7
 10
535.0
 20
15.0
 30
0.0
 11
535.0
 21
10.0
 31
0.0
  0
ENDSEC
  0
EOF
