  0
SECTION
  2
HEADER
  9
$ACADVER
  1
AC1009
  9
$INSBASE
 10
0.0
 20
0.0
 30
0.0
  9
$EXTMIN
 10
-80.027463724868767
 20
-276.8870479174243
 30
-0.0015258207003583
  9
$EXTMAX
 10
820.02746791582013
 20
1060.040753785041
 30
0.0000000349246037
  9
$LIMMIN
 10
0.0
 20
0.0
  9
$LIMMAX
 10
0.0
 20
0.0
  9
$ORTHOMODE
 70
     0
  9
$REGENMODE
 70
     1
  9
$FILLMODE
 70
     1
  9
$QTEXTMODE
 70
     0
  9
$MIRRTEXT
 70
     1
  9
$DRAGMODE
 70
     2
  9
$LTSCALE
 40
25.399999999999999
  9
$OSMODE
 70
   167
  9
$ATTMODE
 70
     1
  9
$TEXTSIZE
 40
0.0
  9
$TRACEWID
 40
1.0
  9
$TEXTSTYLE
  7
STANDARD
  9
$CLAYER
  8
DATA
  9
$CELTYPE
  6
CONTINUOUS
  9
$CECOLOR
 62
   256
  9
$DIMSCALE
 40
1.0
  9
$DIMASZ
 40
0.18
  9
$DIMEXO
 40
0.0625
  9
$DIMDLI
 40
0.38
  9
$DIMRND
 40
0.0
  9
$DIMDLE
 40
0.0
  9
$DIMEXE
 40
0.18
  9
$DIMTP
 40
0.0
  9
$DIMTM
 40
0.0
  9
$DIMTXT
 40
0.18
  9
$DIMCEN
 40
0.09
  9
$DIMTSZ
 40
0.0
  9
$DIMTOL
 70
     0
  9
$DIMLIM
 70
     0
  9
$DIMTIH
 70
     1
  9
$DIMTOH
 70
     1
  9
$DIMSE1
 70
     0
  9
$DIMSE2
 70
     0
  9
$DIMTAD
 70
     0
  9
$DIMZIN
 70
     0
  9
$DIMBLK
  1

  9
$DIMASO
 70
     1
  9
$DIMSHO
 70
     1
  9
$DIMPOST
  1

  9
$DIMAPOST
  1

  9
$DIMALT
 70
     0
  9
$DIMALTD
 70
     2
  9
$DIMALTF
 40
25.399999999999999
  9
$DIMLFAC
 40
1.0
  9
$DIMTOFL
 70
     0
  9
$DIMTVP
 40
0.0
  9
$DIMTIX
 70
     0
  9
$DIMSOXD
 70
     0
  9
$DIMSAH
 70
     0
  9
$DIMBLK1
  1

  9
$DIMBLK2
  1

  9
$DIMSTYLE
  2
STANDARD
  9
$DIMCLRD
 70
     0
  9
$DIMCLRE
 70
     0
  9
$DIMCLRT
 70
     0
  9
$DIMTFAC
 40
1.0
  9
$DIMGAP
 40
0.09
  9
$LUNITS
 70
     2
  9
$LUPREC
 70
     4
  9
$SKETCHINC
 40
0.1
  9
$FILLETRAD
 40
0.0
  9
$AUNITS
 70
     0
  9
$AUPREC
 70
     0
  9
$MENU
  1
acad
  9
$ELEVATION
 40
0.0
  9
$PELEVATION
 40
0.0
  9
$THICKNESS
 40
0.0
  9
$LIMCHECK
 70
     0
  9
$BLIPMODE
 70
     0
  9
$CHAMFERA
 40
0.0
  9
$CHAMFERB
 40
0.0
  9
$SKPOLY
 70
     0
  9
$TDCREATE
 40
2452979.8113425928
  9
$TDUPDATE
 40
2452979.8117346638
  9
$TDINDWG
 40
0.0002671065
  9
$TDUSRTIMER
 40
0.0002669329
  9
$USRTIMER
 70
     1
  9
$ANGBASE
 50
0.0
  9
$ANGDIR
 70
     0
  9
$PDMODE
 70
     1
  9
$PDSIZE
 40
-2.0
  9
$PLINEWID
 40
0.0
  9
$COORDS
 70
     2
  9
$SPLFRAME
 70
     0
  9
$SPLINETYPE
 70
     6
  9
$SPLINESEGS
 70
     8
  9
$ATTDIA
 70
     0
  9
$ATTREQ
 70
     1
  9
$HANDLING
 70
     1
  9
$HANDSEED
  5
7C2
  9
$SURFTAB1
 70
     6
  9
$SURFTAB2
 70
     6
  9
$SURFTYPE
 70
     6
  9
$SURFU
 70
     6
  9
$SURFV
 70
     6
  9
$UCSNAME
  2

  9
$UCSORG
 10
0.0
 20
0.0
 30
0.0
  9
$UCSXDIR
 10
1.0
 20
0.0
 30
0.0
  9
$UCSYDIR
 10
0.0
 20
1.0
 30
0.0
  9
$PUCSNAME
  2

  9
$PUCSORG
 10
0.0
 20
0.0
 30
0.0
  9
$PUCSXDIR
 10
1.0
 20
0.0
 30
0.0
  9
$PUCSYDIR
 10
0.0
 20
1.0
 30
0.0
  9
$USERI1
 70
     0
  9
$USERI2
 70
     0
  9
$USERI3
 70
     0
  9
$USERI4
 70
     0
  9
$USERI5
 70
     0
  9
$USERR1
 40
0.0
  9
$USERR2
 40
0.0
  9
$USERR3
 40
0.0
  9
$USERR4
 40
0.0
  9
$USERR5
 40
0.0
  9
$WORLDVIEW
 70
     1
  9
$SHADEDGE
 70
     3
  9
$SHADEDIF
 70
    70
  9
$TILEMODE
 70
     1
  9
$MAXACTVP
 70
    16
  9
$PLIMCHECK
 70
     0
  9
$PEXTMIN
 10
1.0000000000000000E+020
 20
1.0000000000000000E+020
 30
1.0000000000000000E+020
  9
$PEXTMAX
 10
-1.0000000000000000E+020
 20
-1.0000000000000000E+020
 30
-1.0000000000000000E+020
  9
$PLIMMIN
 10
0.0
 20
0.0
  9
$PLIMMAX
 10
12.0
 20
9.0
  9
$UNITMODE
 70
     0
  9
$VISRETAIN
 70
     0
  9
$PLINEGEN
 70
     1
  9
$PSLTSCALE
 70
     0
  0
ENDSEC
  0
SECTION
  2
TABLES
  0
TABLE
  2
VPORT
 70
     2
  0
VPORT
  2
*ACTIVE
 70
     0
 10
0.0
 20
0.0
 11
1.0
 21
1.0
 12
370.00000209547579
 22
391.57685293380871
 13
0.0
 23
0.0
 14
1.0
 24
1.0
 15
0.0
 25
0.0
 16
0.0
 26
0.0
 36
1.0
 17
0.0
 27
0.0
 37
0.0
 40
1347.58061287141
 41
1.603723404255319
 42
50.0
 43
0.0
 44
0.0
 50
0.0
 51
0.0
 71
     0
 72
   100
 73
     1
 74
     1
 75
     0
 76
     0
 77
     0
 78
     0
  0
ENDTAB
  0
TABLE
  2
LTYPE
 70
    11
  0
LTYPE
  2
CONTINUOUS
 70
     0
  3
Solid line
 72
    65
 73
     0
 40
0.0
  0
LTYPE
  2
STYLE_01
 70
     0
  3

 72
    65
 73
     2
 40
0.4166412353515625
 49
0.208282470703125
 49
-0.2083587646484375
  0
LTYPE
  2
STYLE_02
 70
     0
  3

 72
    65
 73
     2
 40
0.694427490234375
 49
0.4860687255859375
 49
-0.2083587646484375
  0
LTYPE
  2
STYLE_03
 70
     0
  3

 72
    65
 73
     2
 40
1.25
 49
1.0416412353515621
 49
-0.2083587646484375
  0
LTYPE
  2
STYLE_04
 70
     0
  3

 72
    65
 73
     2
 40
1.5277099609375
 49
1.319427490234375
 49
-0.208282470703125
  0
LTYPE
  2
STYLE_05
 70
     0
  3

 72
    65
 73
     2
 40
0.208282470703125
 49
0.069427490234375
 49
-0.13885498046875
  0
LTYPE
  2
STYLE_06
 70
     0
  3

 72
    65
 73
     4
 40
1.0416412353515621
 49
0.625
 49
-0.208282470703125
 49
0.069427490234375
 49
-0.1389312744140625
  0
LTYPE
  2
STYLE_07
 70
     0
  3

 72
    65
 73
     6
 40
1.875
 49
0.625
 49
-0.208282470703125
 49
0.625
 49
-0.2083587646484375
 49
0.069427490234375
 49
-0.1389312744140625
  0
LTYPE
  2
STYLE_08
 70
     0
  3

 72
    65
 73
     6
 40
1.25
 49
0.625
 49
-0.208282470703125
 49
0.069427490234375
 49
-0.1389312744140625
 49
0.069427490234375
 49
-0.1389312744140625
  0
LTYPE
  2
STYLE_09
 70
     0
  3

 72
    65
 73
     4
 40
5.0
 49
3.75
 49
-0.2777862548828125
 49
0.694427490234375
 49
-0.2777862548828125
  0
LTYPE
  2
STYLE_10
 70
     0
  3

 72
    65
 73
     6
 40
5.9375
 49
3.75
 49
-0.2777862548828125
 49
0.694427490234375
 49
-0.2777862548828125
 49
0.625
 49
-0.3125
  0
ENDTAB
  0
TABLE
  2
LAYER
 70
     6
  0
LAYER
  2
0
 70
     0
 62
     7
  6
CONTINUOUS
  0
LAYER
  2
DATA
 70
     0
 62
     7
  6
CONTINUOUS
  0
LAYER
  2
DEFPOINTS
 70
     0
 62
     7
  6
CONTINUOUS
  0
LAYER
  2
HIBINO-BASE
 70
     0
 62
     7
  6
CONTINUOUS
  0
LAYER
  2
SPEC
 70
     0
 62
     7
  6
CONTINUOUS
  0
LAYER
  2
DIMNSIONS
 70
     0
 62
     7
  6
CONTINUOUS
  0
ENDTAB
  0
TABLE
  2
STYLE
 70
     2
  0
STYLE
  2
STANDARD
 70
     0
 40
0.0
 41
1.0
 50
0.0
 71
     0
 42
0.0
  3
txt
  4
BIGFONT.SHX
  0
ENDTAB
  0
TABLE
  2
VIEW
 70
     0
  0
ENDTAB
  0
TABLE
  2
UCS
 70
     0
  0
ENDTAB
  0
TABLE
  2
APPID
 70
     1
  0
APPID
  2
ACAD
 70
     0
  0
ENDTAB
  0
TABLE
  2
DIMSTYLE
 70
     1
  0
DIMSTYLE
  2
STANDARD
 70
     0
  3

  4

  5

  6

  7

 40
1.0
 41
0.18
 42
0.0625
 43
0.38
 44
0.18
 45
0.0
 46
0.0
 47
0.0
 48
0.0
140
0.18
141
0.09
142
0.0
143
25.399999999999999
144
1.0
145
0.0
146
1.0
147
0.09
 71
     0
 72
     0
 73
     1
 74
     1
 75
     0
 76
     0
 77
     0
 78
     0
170
     0
171
     2
172
     0
173
     0
174
     0
175
     0
176
     0
177
     0
178
     0
  0
ENDTAB
  0
ENDSEC
  0
SECTION
  2
BLOCKS
  0
BLOCK
  8
0
  2
$MODEL_SPACE
 70
     0
 10
0.0
 20
0.0
 30
0.0
  3
$MODEL_SPACE
  1

  0
ENDBLK
  5
5CC
  8
0
  0
BLOCK
 67
     1
  8
0
  2
$PAPER_SPACE
 70
     0
 10
0.0
 20
0.0
 30
0.0
  3
$PAPER_SPACE
  1

  0
ENDBLK
  5
5C8
 67
     1
  8
0
  0
ENDSEC
  0
SECTION
  2
ENTITIES
  0
LINE
  5
2D
  8
HIBINO-BASE
 62
     7
 10
-80.0
 20
1060.0
 30
0.0
 11
820.0
 21
1060.0
 31
0.0
  0
LINE
  5
2E
  8
HIBINO-BASE
 62
     7
 10
820.0
 20
-240.0
 30
0.0
 11
-80.0
 21
-240.0
 31
0.0
  0
LINE
  5
2F
  8
HIBINO-BASE
 62
     7
 10
-80.0
 20
-240.0
 30
0.0
 11
-80.0
 21
1060.0
 31
0.0
  0
TEXT
  5
30
  8
HIBINO-BASE
 62
     7
 10
-44.079999999999977
 20
-270.6399199999999
 30
0.0
 40
18.71292
  1
Hibino Corporation
 41
0.8
 11
-44.079999999999977
 21
-251.92699999999991
 31
0.0
 73
     3
  0
LINE
  5
31
  8
HIBINO-BASE
 62
     7
 10
820.0
 20
1060.0
 30
0.0
 11
820.0
 21
-240.0
 31
0.0
  0
LINE
  5
32
  8
HIBINO-BASE
 62
     7
 10
370.0
 20
-127.4999999999999
 30
0.0
 11
820.0
 21
-127.4999999999999
 31
0.0
  0
LINE
  5
33
  8
HIBINO-BASE
 62
     7
 10
370.0
 20
-240.0
 30
0.0
 11
370.0
 21
-127.4999999999999
 31
0.0
  0
TEXT
  5
34
  8
HIBINO-BASE
 62
     7
 10
374.5
 20
-139.40846666666661
 30
0.0
 40
8.466666666666665
  1
NOTE
 41
0.8
 11
374.5
 21
-130.94179999999989
 31
0.0
 73
     3
  0
LINE
  5
35
  8
HIBINO-BASE
 62
     7
 10
545.0
 20
-240.0
 30
0.0
 11
545.0
 21
-127.4999999999999
 31
0.0
  0
TEXT
  5
36
  8
HIBINO-BASE
 62
     7
 10
549.5
 20
-139.40846666666661
 30
0.0
 40
8.466666666666665
  1
TITLE
 41
0.8
 11
549.5
 21
-130.94179999999989
 31
0.0
 73
     3
  0
TEXT
  5
37
  8
HIBINO-BASE
 62
     7
 10
620.34194999999977
 20
-270.6399199999999
 30
0.0
 40
18.71292
  1
ヒビノ株式会社
 41
0.8
 11
620.34194999999977
 21
-251.92699999999991
 31
0.0
 73
     3
  0
LINE
  5
38
  8
HIBINO-BASE
 62
     7
 10
370.0
 20
-189.9999999999998
 30
0.0
 11
820.0
 21
-189.9999999999998
 31
0.0
  0
TEXT
  5
39
  8
HIBINO-BASE
 62
     7
 10
612.0
 20
-201.62686666666659
 30
0.0
 40
8.466666666666665
  1
DRAWN
 41
0.8
 11
612.0
 21
-193.16019999999989
 31
0.0
 73
     3
  0
TEXT
  5
3A
  8
HIBINO-BASE
 62
     7
 10
487.0
 20
-201.62686666666659
 30
0.0
 40
8.466666666666665
  1
DATE
 41
0.8
 11
487.0
 21
-193.16019999999989
 31
0.0
 73
     3
  0
TEXT
  5
3B
  8
HIBINO-BASE
 62
     7
 10
375.5
 20
-202.46227999999999
 30
0.0
 40
8.4666799999999984
  1
図面サイズ
 41
0.8
 11
375.5
 21
-193.9956
 31
0.0
 73
     3
  0
TEXT
  5
3C
  8
HIBINO-BASE
 62
     7
 10
437.0
 20
-201.62686666666659
 30
0.0
 40
8.466666666666665
  1
SCALE
 41
0.8
 11
437.0
 21
-193.16019999999989
 31
0.0
 73
     3
  0
TEXT
  5
3D
  8
HIBINO-BASE
 62
     7
 10
549.5
 20
-201.62686666666659
 30
0.0
 40
8.466666666666665
  1
DESIGN
 41
0.8
 11
549.5
 21
-193.16019999999989
 31
0.0
 73
     3
  0
TEXT
  5
3E
  8
HIBINO-BASE
 62
     7
 10
737.0
 20
-201.62686666666659
 30
0.0
 40
8.466666666666665
  1
DRAWING NO.
 41
0.8
 11
737.0
 21
-193.16019999999989
 31
0.0
 73
     3
  0
TEXT
  5
3F
  8
HIBINO-BASE
 62
     7
 10
674.49999999999989
 20
-201.62686666666659
 30
0.0
 40
8.466666666666665
  1
CHECK
 41
0.8
 11
674.49999999999989
 21
-193.16019999999989
 31
0.0
 73
     3
  0
LINE
  5
40
  8
HIBINO-BASE
 62
     7
 10
441.875
 20
-233.75
 30
0.0
 11
460.625
 21
-214.99999999999989
 31
0.0
  0
TEXT
  5
41
  8
HIBINO-BASE
 62
     7
 10
438.75
 20
-219.9097166666667
 30
0.0
 40
8.466666666666665
  1
1
 41
0.8
 11
438.75
 21
-211.44305
 31
0.0
 73
     3
  0
LINE
  5
42
  8
HIBINO-BASE
 62
     7
 10
432.5
 20
-240.0
 30
0.0
 11
432.5
 21
-189.9999999999998
 31
0.0
  0
LINE
  5
43
  8
HIBINO-BASE
 62
     7
 10
482.5
 20
-240.0
 30
0.0
 11
482.5
 21
-189.9999999999998
 31
0.0
  0
LINE
  5
44
  8
HIBINO-BASE
 62
     7
 10
607.49999999999989
 20
-189.9999999999998
 30
0.0
 11
607.49999999999989
 21
-240.0
 31
0.0
  0
LINE
  5
45
  8
HIBINO-BASE
 62
     7
 10
732.5
 20
-189.9999999999998
 30
0.0
 11
732.5
 21
-240.0
 31
0.0
  0
LINE
  5
46
  8
HIBINO-BASE
 62
     7
 10
669.99999999999989
 20
-240.0
 30
0.0
 11
669.99999999999989
 21
-189.9999999999998
 31
0.0
  0
TEXT
  5
47
  8
HIBINO-BASE
 62
     7
 10
486.78269999999992
 20
-225.04676666666671
 30
0.0
 40
8.466666666666665
  1
'03.12.
 41
0.8
 11
486.78269999999992
 21
-216.58009999999999
 31
0.0
 73
     3
  0
TEXT
  5
48
  8
HIBINO-BASE
 62
     7
 10
457.5
 20
-229.2847166666667
 30
0.0
 40
8.466666666666665
  1
5
 41
0.8
 11
457.5
 21
-220.81805
 31
0.0
 73
     3
  0
TEXT
  5
49
  8
HIBINO-BASE
 62
     7
 10
389.41666666666657
 20
-228.84999999999991
 30
0.0
 40
16.93333333333333
  1
A4
 41
0.8
 11
389.41666666666657
 21
-211.9166666666666
 31
0.0
 73
     3
  0
TEXT
  5
4A
  8
HIBINO-BASE
 62
     7
 10
615.02905005517312
 20
-225.0467666666664
 30
0.0
 40
8.466666666666665
  1
N.Sasaki
 41
0.8
 11
615.02905005517312
 21
-216.5800999999997
 31
0.0
 73
     3
  0
TEXT
  5
4B
  8
SPEC
 62
     7
 10
-36.25
 20
1017.918849999999
 30
0.0
 40
12.699999999999999
  1
仕様
 41
0.8
 11
-36.25
 21
1030.6188499999989
 31
0.0
 73
     3
  0
LINE
  5
4C
  8
SPEC
 62
     7
 10
-42.5
 20
1010.0
 30
0.0
 11
574.99999999999989
 21
1010.0
 31
0.0
  0
LINE
  5
4D
  8
SPEC
 62
     7
 10
-42.5
 20
991.24999999999989
 30
0.0
 11
574.99999999999989
 21
991.24999999999989
 31
0.0
  0
LINE
  5
4E
  8
SPEC
 62
     7
 10
-42.5
 20
935.0
 30
0.0
 11
574.99999999999989
 21
935.0
 31
0.0
  0
LINE
  5
4F
  8
SPEC
 62
     7
 10
-42.5
 20
953.74999999999989
 30
0.0
 11
574.99999999999989
 21
953.74999999999989
 31
0.0
  0
LINE
  5
50
  8
SPEC
 62
     7
 10
-42.5
 20
972.49999999999989
 30
0.0
 11
574.99999999999989
 21
972.49999999999989
 31
0.0
  0
TEXT
  5
51
  8
SPEC
 62
     7
 10
134.49999999999989
 20
996.92082222222223
 30
0.0
 40
9.8777777777777782
  1
+27V 4A Max,-27V 4A Max,+48V(±5%%%)500mA
 41
0.8
 11
134.49999999999989
 21
1006.7986
 31
0.0
 73
     3
  0
LINE
  5
52
  8
SPEC
 62
     7
 10
-42.5
 20
1010.0
 30
0.0
 11
-42.5
 21
916.24999999999989
 31
0.0
  0
LINE
  5
53
  8
SPEC
 62
     7
 10
126.25
 20
1010.0
 30
0.0
 11
126.25
 21
916.24999999999989
 31
0.0
  0
LINE
  5
54
  8
SPEC
 62
     7
 10
575.0
 20
1010.0
 30
0.0
 11
575.0
 21
916.24999999999989
 31
0.0
  0
TEXT
  5
55
  8
SPEC
 62
     7
 10
-38.00000000000005
 20
996.92082222222223
 30
0.0
 40
9.8777777777777782
  1
DCアウトプット
 41
0.8
 11
-38.00000000000005
 21
1006.7986
 31
0.0
 73
     3
  0
TEXT
  5
56
  8
SPEC
 62
     7
 10
134.49999999999989
 20
940.67082222222223
 30
0.0
 40
9.8777777777777782
  1
150W
 41
0.8
 11
134.49999999999989
 21
950.54859999999985
 31
0.0
 73
     3
  0
TEXT
  5
57
  8
SPEC
 62
     7
 10
134.49999999999989
 20
959.42082222222223
 30
0.0
 40
9.8777777777777782
  1
AC90～130V,50/60Hz
 41
0.8
 11
134.49999999999989
 21
969.29859999999985
 31
0.0
 73
     3
  0
TEXT
  5
58
  8
SPEC
 62
     7
 10
134.49999999999989
 20
978.17082222222223
 30
0.0
 40
9.8777777777777782
  1
9ピン Dサブ･メス/ループアウト,9ピン Dサブ･オス/ループリタ ーン
 41
0.8
 11
134.49999999999989
 21
988.04859999999985
 31
0.0
 73
     3
  0
TEXT
  5
59
  8
SPEC
 62
     7
 10
-38.00000000000005
 20
978.17082222222211
 30
0.0
 40
9.8777777777777782
  1
端子
 41
0.8
 11
-38.00000000000005
 21
988.04859999999985
 31
0.0
 73
     3
  0
TEXT
  5
5A
  8
SPEC
 62
     7
 10
-38.00000000000005
 20
959.42082222222211
 30
0.0
 40
9.8777777777777782
  1
電源
 41
0.8
 11
-38.00000000000005
 21
969.29859999999985
 31
0.0
 73
     3
  0
TEXT
  5
5B
  8
SPEC
 62
     7
 10
-38.00000000000005
 20
940.67082222222211
 30
0.0
 40
9.8777777777777782
  1
消費電力
 41
0.8
 11
-38.00000000000005
 21
950.54859999999985
 31
0.0
 73
     3
  0
LINE
  5
5C
  8
SPEC
 62
     7
 10
-42.5
 20
916.24999999999989
 30
0.0
 11
574.99999999999989
 21
916.24999999999989
 31
0.0
  0
TEXT
  5
5D
  8
SPEC
 62
     7
 10
134.49999999999989
 20
921.92082222222223
 30
0.0
 40
9.8777777777777782
  1
483×44×290mm(突起部含まず)/7.0kg
 41
0.8
 11
134.49999999999989
 21
931.79859999999985
 31
0.0
 73
     3
  0
TEXT
  5
5E
  8
SPEC
 62
     7
 10
-38.00000000000005
 20
921.92082222222211
 30
0.0
 40
9.8777777777777782
  1
寸法(W×H×D)/重量
 41
0.8
 11
-38.00000000000005
 21
931.79859999999985
 31
0.0
 73
     3
  0
TEXT
  5
5F
  8
DIMNSIONS
 62
     7
 10
269.99999999999989
 20
-179.1111611111111
 30
0.0
 40
14.111111111111111
  1
(単位：mm)
 41
0.8
 11
269.99999999999989
 21
-165.00004999999999
 31
0.0
 73
     3
  0
LINE
  5
60
  8
DIMNSIONS
 62
     7
 10
0.0
 20
-10.0
 30
0.0
 11
0.0
 21
-60.0
 31
0.0
  0
LINE
  5
61
  8
DIMNSIONS
 62
     7
 10
482.60000000000002
 20
-10.0
 30
0.0
 11
482.60000000000002
 21
-60.0
 31
0.0
  0
LINE
  5
62
  8
DIMNSIONS
 62
     7
 10
0.0
 20
-50.0
 30
0.0
 11
482.60000000000002
 21
-50.0
 31
0.0
  0
LINE
  5
63
  8
DIMNSIONS
 62
     7
 10
0.0
 20
-50.0
 30
0.0
 11
12.50311279296875
 21
-46.649801024248802
 31
0.0
  0
LINE
  5
64
  8
DIMNSIONS
 62
     7
 10
0.0
 20
-50.0
 30
0.0
 11
12.50311279296875
 21
-53.350198975751191
 31
0.0
  0
LINE
  5
65
  8
DIMNSIONS
 62
     7
 10
482.60000000000002
 20
-50.0
 30
0.0
 11
470.09688720703122
 21
-53.350198975751191
 31
0.0
  0
LINE
  5
66
  8
DIMNSIONS
 62
     7
 10
482.60000000000002
 20
-50.0
 30
0.0
 11
470.09688720703122
 21
-46.649801024248802
 31
0.0
  0
TEXT
  5
67
  8
DIMNSIONS
 62
     7
 10
228.0708333333333
 20
-43.9722222222222
 30
0.0
 40
14.111111111111111
  1
483
 41
0.8
 11
228.0708333333333
 21
-29.861111111111089
 31
0.0
 73
     3
  0
LINE
  5
68
  8
DIMNSIONS
 62
     7
 10
-10.0
 20
44.0
 30
0.0
 11
-40.0
 21
44.0
 31
0.0
  0
LINE
  5
69
  8
DIMNSIONS
 62
     7
 10
-10.0
 20
0.0
 30
0.0
 11
-40.0
 21
0.0
 31
0.0
  0
LINE
  5
6A
  8
DIMNSIONS
 62
     7
 10
-30.0
 20
44.0
 30
0.0
 11
-30.0
 21
0.0
 31
0.0
  0
LINE
  5
6B
  8
DIMNSIONS
 62
     7
 10
-30.0
 20
44.0
 30
0.0
 11
-26.649801024248799
 21
31.49688720703125
 31
0.0
  0
LINE
  5
6C
  8
DIMNSIONS
 62
     7
 10
-30.0
 20
44.0
 30
0.0
 11
-33.350198975751198
 21
31.49688720703125
 31
0.0
  0
LINE
  5
6D
  8
DIMNSIONS
 62
     7
 10
-30.0
 20
0.0
 30
0.0
 11
-33.350198975751198
 21
12.50311279296875
 31
0.0
  0
LINE
  5
6E
  8
DIMNSIONS
 62
     7
 10
-30.0
 20
0.0
 30
0.0
 11
-26.649801024248799
 21
12.50311279296875
 31
0.0
  0
TEXT
  5
6F
  8
DIMNSIONS
 62
     7
 10
-36.027777777777793
 20
13.180555555555539
 30
0.0
 40
14.111111111111111
  1
44
 50
90.0
 41
0.8
 11
-50.1388888888889
 21
13.180555555555539
 31
0.0
 73
     3
  0
LINE
  5
70
  8
DIMNSIONS
 62
     7
 10
-10.0
 20
155.0
 30
0.0
 11
-25.0
 21
155.0
 31
0.0
  0
LINE
  5
71
  8
DIMNSIONS
 62
     7
 10
-10.0
 20
150.0
 30
0.0
 11
-25.0
 21
150.0
 31
0.0
  0
LINE
  5
72
  8
DIMNSIONS
 62
     7
 10
-15.0
 20
150.0
 30
0.0
 11
-15.0
 21
155.0
 31
0.0
  0
LINE
  5
73
  8
DIMNSIONS
 62
     7
 10
-15.0
 20
155.0
 30
0.0
 11
-15.0
 21
178.8194444444444
 31
0.0
  0
LINE
  5
74
  8
DIMNSIONS
 62
     7
 10
-15.0
 20
155.0
 30
0.0
 11
-18.350198975751201
 21
167.50311279296869
 31
0.0
  0
LINE
  5
75
  8
DIMNSIONS
 62
     7
 10
-15.0
 20
155.0
 30
0.0
 11
-11.6498010242488
 21
167.50311279296869
 31
0.0
  0
LINE
  5
76
  8
DIMNSIONS
 62
     7
 10
-15.0
 20
150.0
 30
0.0
 11
-15.0
 21
125.0
 31
0.0
  0
LINE
  5
77
  8
DIMNSIONS
 62
     7
 10
-15.0
 20
150.0
 30
0.0
 11
-11.6498010242488
 21
137.49688720703119
 31
0.0
  0
LINE
  5
78
  8
DIMNSIONS
 62
     7
 10
-15.0
 20
150.0
 30
0.0
 11
-18.350198975751201
 21
137.49688720703119
 31
0.0
  0
TEXT
  5
79
  8
DIMNSIONS
 62
     7
 10
-21.0277777777778
 20
169.99999999999989
 30
0.0
 40
14.111111111111111
  1
5
 50
90.0
 41
0.8
 11
-35.138888888888907
 21
169.99999999999989
 31
0.0
 73
     3
  0
LINE
  5
7A
  8
DIMNSIONS
 62
     7
 10
25.300000000000011
 20
450.0
 30
0.0
 11
25.300000000000011
 21
480.0
 31
0.0
  0
LINE
  5
7B
  8
DIMNSIONS
 62
     7
 10
457.30000000000001
 20
450.0
 30
0.0
 11
457.30000000000001
 21
480.0
 31
0.0
  0
LINE
  5
7C
  8
DIMNSIONS
 62
     7
 10
25.300000000000011
 20
470.0
 30
0.0
 11
457.30000000000001
 21
470.0
 31
0.0
  0
LINE
  5
7D
  8
DIMNSIONS
 62
     7
 10
25.300000000000011
 20
470.0
 30
0.0
 11
37.803112792968761
 21
473.35019897575108
 31
0.0
  0
LINE
  5
7E
  8
DIMNSIONS
 62
     7
 10
25.300000000000011
 20
470.0
 30
0.0
 11
37.803112792968761
 21
466.6498010242488
 31
0.0
  0
LINE
  5
7F
  8
DIMNSIONS
 62
     7
 10
457.30000000000001
 20
470.0
 30
0.0
 11
444.7968872070312
 21
466.6498010242488
 31
0.0
  0
LINE
  5
80
  8
DIMNSIONS
 62
     7
 10
457.30000000000001
 20
470.0
 30
0.0
 11
444.7968872070312
 21
473.35019897575108
 31
0.0
  0
TEXT
  5
81
  8
DIMNSIONS
 62
     7
 10
228.0708333333333
 20
476.02777777777771
 30
0.0
 40
14.111111111111111
  1
432
 41
0.8
 11
228.0708333333333
 21
490.1388888888888
 31
0.0
 73
     3
  0
LINE
  5
82
  8
DIMNSIONS
 62
     7
 10
-10.0
 20
150.0
 30
0.0
 11
-50.0
 21
150.0
 31
0.0
  0
LINE
  5
83
  8
DIMNSIONS
 62
     7
 10
15.30000000000001
 20
440.0
 30
0.0
 11
-50.0
 21
440.0
 31
0.0
  0
LINE
  5
84
  8
DIMNSIONS
 62
     7
 10
-40.0
 20
150.0
 30
0.0
 11
-40.0
 21
440.0
 31
0.0
  0
LINE
  5
85
  8
DIMNSIONS
 62
     7
 10
-40.0
 20
150.0
 30
0.0
 11
-43.350198975751191
 21
162.50311279296869
 31
0.0
  0
LINE
  5
86
  8
DIMNSIONS
 62
     7
 10
-40.0
 20
150.0
 30
0.0
 11
-36.649801024248802
 21
162.50311279296869
 31
0.0
  0
LINE
  5
87
  8
DIMNSIONS
 62
     7
 10
-40.0
 20
440.0
 30
0.0
 11
-36.649801024248802
 21
427.49688720703119
 31
0.0
  0
LINE
  5
88
  8
DIMNSIONS
 62
     7
 10
-40.0
 20
440.0
 30
0.0
 11
-43.350198975751191
 21
427.49688720703119
 31
0.0
  0
TEXT
  5
89
  8
DIMNSIONS
 62
     7
 10
-46.027777777777779
 20
281.77083333333343
 30
0.0
 40
14.111111111111111
  1
290
 50
90.0
 41
0.8
 11
-60.1388888888889
 21
281.77083333333343
 31
0.0
 73
     3
  0
LINE
  5
8A
  8
DIMNSIONS
 62
     7
 10
394.82999999999998
 20
138.5
 30
0.0
 11
-50.0
 21
138.5
 31
0.0
  0
LINE
  5
8B
  8
DIMNSIONS
 62
     7
 10
-10.0
 20
150.0
 30
0.0
 11
-50.0
 21
150.0
 31
0.0
  0
LINE
  5
8C
  8
DIMNSIONS
 62
     7
 10
-40.0
 20
150.0
 30
0.0
 11
-40.0
 21
138.5
 31
0.0
  0
LINE
  5
8D
  8
DIMNSIONS
 62
     7
 10
-40.0
 20
138.5
 30
0.0
 11
-40.0
 21
108.361111111111
 31
0.0
  0
LINE
  5
8E
  8
DIMNSIONS
 62
     7
 10
-40.0
 20
138.5
 30
0.0
 11
-36.649801024248802
 21
125.99688720703119
 31
0.0
  0
LINE
  5
8F
  8
DIMNSIONS
 62
     7
 10
-40.0
 20
138.5
 30
0.0
 11
-43.350198975751191
 21
125.99688720703119
 31
0.0
  0
LINE
  5
90
  8
DIMNSIONS
 62
     7
 10
-40.0
 20
150.0
 30
0.0
 11
-40.0
 21
175.0
 31
0.0
  0
LINE
  5
91
  8
DIMNSIONS
 62
     7
 10
-40.0
 20
150.0
 30
0.0
 11
-43.350198975751191
 21
162.50311279296869
 31
0.0
  0
LINE
  5
92
  8
DIMNSIONS
 62
     7
 10
-40.0
 20
150.0
 30
0.0
 11
-36.649801024248802
 21
162.50311279296869
 31
0.0
  0
TEXT
  5
93
  8
DIMNSIONS
 62
     7
 10
-46.027777777777779
 20
108.361111111111
 30
0.0
 40
14.111111111111111
  1
12
 50
90.0
 41
0.8
 11
-60.1388888888889
 21
108.361111111111
 31
0.0
 73
     3
  0
LINE
  5
94
  8
DIMNSIONS
 62
     7
 10
86.300000000000026
 20
445.5
 30
0.0
 11
-50.0
 21
445.5
 31
0.0
  0
LINE
  5
95
  8
DIMNSIONS
 62
     7
 10
15.30000000000001
 20
440.0
 30
0.0
 11
-50.0
 21
440.0
 31
0.0
  0
LINE
  5
96
  8
DIMNSIONS
 62
     7
 10
-40.0
 20
440.0
 30
0.0
 11
-40.0
 21
445.5
 31
0.0
  0
LINE
  5
97
  8
DIMNSIONS
 62
     7
 10
-40.0
 20
445.5
 30
0.0
 11
-40.0
 21
468.8194444444444
 31
0.0
  0
LINE
  5
98
  8
DIMNSIONS
 62
     7
 10
-40.0
 20
445.5
 30
0.0
 11
-43.350198975751191
 21
458.00311279296881
 31
0.0
  0
LINE
  5
99
  8
DIMNSIONS
 62
     7
 10
-40.0
 20
445.5
 30
0.0
 11
-36.649801024248802
 21
458.00311279296881
 31
0.0
  0
LINE
  5
9A
  8
DIMNSIONS
 62
     7
 10
-40.0
 20
440.0
 30
0.0
 11
-40.0
 21
415.0
 31
0.0
  0
LINE
  5
9B
  8
DIMNSIONS
 62
     7
 10
-40.0
 20
440.0
 30
0.0
 11
-36.649801024248802
 21
427.49688720703119
 31
0.0
  0
LINE
  5
9C
  8
DIMNSIONS
 62
     7
 10
-40.0
 20
440.0
 30
0.0
 11
-43.350198975751191
 21
427.49688720703119
 31
0.0
  0
TEXT
  5
9D
  8
DIMNSIONS
 62
     7
 10
-46.027777777777779
 20
460.0
 30
0.0
 40
14.111111111111111
  1
6
 50
90.0
 41
0.8
 11
-60.1388888888889
 21
460.0
 31
0.0
 73
     3
  0
LINE
  5
9E
  8
DIMNSIONS
 62
     7
 10
22.800000000000011
 20
200.0
 30
0.0
 11
22.800000000000011
 21
505.0
 31
0.0
  0
LINE
  5
9F
  8
DIMNSIONS
 62
     7
 10
459.7999999999999
 20
200.0
 30
0.0
 11
459.7999999999999
 21
505.0
 31
0.0
  0
LINE
  5
A0
  8
DIMNSIONS
 62
     7
 10
22.800000000000011
 20
495.0
 30
0.0
 11
459.7999999999999
 21
495.0
 31
0.0
  0
LINE
  5
A1
  8
DIMNSIONS
 62
     7
 10
22.800000000000011
 20
495.0
 30
0.0
 11
35.303112792968761
 21
498.35019897575108
 31
0.0
  0
LINE
  5
A2
  8
DIMNSIONS
 62
     7
 10
22.800000000000011
 20
495.0
 30
0.0
 11
35.303112792968761
 21
491.6498010242488
 31
0.0
  0
LINE
  5
A3
  8
DIMNSIONS
 62
     7
 10
459.7999999999999
 20
495.0
 30
0.0
 11
447.2968872070312
 21
491.6498010242488
 31
0.0
  0
LINE
  5
A4
  8
DIMNSIONS
 62
     7
 10
459.7999999999999
 20
495.0
 30
0.0
 11
447.2968872070312
 21
498.3501989757512
 31
0.0
  0
TEXT
  5
A5
  8
DIMNSIONS
 62
     7
 10
228.0708333333333
 20
501.02777777777771
 30
0.0
 40
14.111111111111111
  1
437
 41
0.8
 11
228.0708333333333
 21
515.13888888888869
 31
0.0
 73
     3
  0
TEXT
  5
A6
  8
DATA
 62
     7
 10
619.99999999999989
 20
-179.3930499999999
 30
0.0
 40
12.699999999999999
  1
MSR-602 II
 41
0.8
 11
619.99999999999989
 21
-166.69304999999989
 31
0.0
 73
     3
  0
TEXT
  5
A7
  8
DATA
 62
     7
 10
619.99999999999989
 20
-153.1430499999999
 30
0.0
 40
12.699999999999999
  1
BSS
 41
0.8
 11
619.99999999999989
 21
-140.44304999999989
 31
0.0
 73
     3
  0
TEXT
  5
A8
  8
DATA
 62
     7
 10
-30.0
 20
-218.17500000000001
 30
0.0
 40
8.466666666666665
  1
仕様および外観は予告なく変更されることがありますので、ご了承ください。
 41
0.8
 11
-30.0
 21
-209.70833333333329
 31
0.0
 73
     3
  0
POLYLINE
  5
A9
  8
DATA
 62
     7
 66
     1
 10
0.0
 20
0.0
 30
0.0
 70
     1
  0
VERTEX
  5
5E9
  8
DATA
 62
     7
 10
0.0
 20
44.0
 30
0.0
  0
VERTEX
  5
5EA
  8
DATA
 62
     7
 10
482.60000000000002
 20
44.0
 30
0.0
  0
VERTEX
  5
5EB
  8
DATA
 62
     7
 10
482.60000000000002
 20
0.0
 30
0.0
  0
VERTEX
  5
5EC
  8
DATA
 62
     7
 10
0.0
 20
0.0
 30
0.0
  0
SEQEND
  5
5ED
  8
DATA
 62
     7
  0
LINE
  5
AF
  8
DATA
 62
     7
 10
26.300000000000011
 20
154.0
 30
0.0
 11
0.0
 21
154.0
 31
0.0
  0
LINE
  5
B0
  8
DATA
 62
     7
 10
0.0
 20
150.0
 30
0.0
 11
482.60000000000002
 21
150.0
 31
0.0
  0
LINE
  5
B1
  8
DATA
 62
     7
 10
0.0
 20
152.0
 30
0.0
 11
482.60000000000002
 21
152.0
 31
0.0
  0
LINE
  5
B2
  8
DATA
 62
     7
 10
28.300000000000011
 20
153.0
 30
0.0
 11
28.300000000000011
 21
152.0
 31
0.0
  0
LINE
  5
B3
  8
DATA
 62
     7
 10
0.0
 20
150.0
 30
0.0
 11
0.0
 21
155.0
 31
0.0
  0
LINE
  5
B4
  8
DATA
 62
     7
 10
511.0
 20
44.0
 30
0.0
 11
511.0
 21
0.0
 31
0.0
  0
LINE
  5
B5
  8
DATA
 62
     7
 10
514.0
 20
44.0
 30
0.0
 11
514.0
 21
0.0
 31
0.0
  0
LINE
  5
B6
  8
DATA
 62
     7
 10
799.0
 20
42.0
 30
0.0
 11
514.5
 21
42.0
 31
0.0
  0
LINE
  5
B7
  8
DATA
 62
     7
 10
509.0
 20
44.0
 30
0.0
 11
509.0
 21
0.0
 31
0.0
  0
LINE
  5
B8
  8
DATA
 62
     7
 10
509.0
 20
44.0
 30
0.0
 11
514.0
 21
44.0
 31
0.0
  0
LINE
  5
B9
  8
DATA
 62
     7
 10
509.0
 20
0.0
 30
0.0
 11
514.0
 21
0.0
 31
0.0
  0
LINE
  5
BA
  8
DATA
 62
     7
 10
514.0
 20
2.0
 30
0.0
 11
799.0
 21
2.0
 31
0.0
  0
LINE
  5
BB
  8
DATA
 62
     7
 10
6.849999999999965
 20
10.05000000000001
 30
0.0
 11
10.14999999999997
 21
10.05000000000001
 31
0.0
  0
LINE
  5
BC
  8
DATA
 62
     7
 10
6.849999999999965
 20
2.9499999999999882
 30
0.0
 11
10.14999999999997
 21
2.9499999999999882
 31
0.0
  0
ARC
  5
BD
  8
DATA
 62
     7
 10
6.8499999999999091
 20
6.5
 30
0.0
 40
3.5500000000000109
 50
90.0
 51
270.0
  0
ARC
  5
BE
  8
DATA
 62
     7
 10
10.14999999999997
 20
6.5
 30
0.0
 40
3.5500000000000109
 50
270.0
 51
90.0
  0
LINE
  5
BF
  8
DATA
 62
     7
 10
6.849999999999965
 20
41.050000000000011
 30
0.0
 11
10.14999999999997
 21
41.050000000000011
 31
0.0
  0
LINE
  5
C0
  8
DATA
 62
     7
 10
6.849999999999965
 20
33.949999999999989
 30
0.0
 11
10.14999999999997
 21
33.949999999999989
 31
0.0
  0
ARC
  5
C1
  8
DATA
 62
     7
 10
6.8499999999999091
 20
37.5
 30
0.0
 40
3.5500000000000109
 50
90.0
 51
270.0
  0
ARC
  5
C2
  8
DATA
 62
     7
 10
10.14999999999997
 20
37.5
 30
0.0
 40
3.5500000000000109
 50
270.0
 51
90.0
  0
LINE
  5
C3
  8
DATA
 62
     7
 10
475.75
 20
10.05000000000001
 30
0.0
 11
472.44999999999999
 21
10.05000000000001
 31
0.0
  0
LINE
  5
C4
  8
DATA
 62
     7
 10
475.75
 20
2.9499999999999882
 30
0.0
 11
472.44999999999999
 21
2.9499999999999882
 31
0.0
  0
ARC
  5
C5
  8
DATA
 62
     7
 10
475.75
 20
6.5
 30
0.0
 40
3.5500000000000109
 50
270.0
 51
90.0
  0
ARC
  5
C6
  8
DATA
 62
     7
 10
472.44999999999999
 20
6.5
 30
0.0
 40
3.5500000000000109
 50
90.0
 51
270.0
  0
LINE
  5
C7
  8
DATA
 62
     7
 10
475.75
 20
41.050000000000011
 30
0.0
 11
472.44999999999999
 21
41.050000000000011
 31
0.0
  0
LINE
  5
C8
  8
DATA
 62
     7
 10
475.75
 20
33.949999999999989
 30
0.0
 11
472.44999999999999
 21
33.949999999999989
 31
0.0
  0
ARC
  5
C9
  8
DATA
 62
     7
 10
475.75
 20
37.5
 30
0.0
 40
3.5500000000000109
 50
270.0
 51
90.0
  0
ARC
  5
CA
  8
DATA
 62
     7
 10
472.44999999999999
 20
37.5
 30
0.0
 40
3.5500000000000109
 50
90.0
 51
270.0
  0
LINE
  5
CB
  8
DATA
 62
     7
 10
0.0
 20
155.0
 30
0.0
 11
25.300000000000011
 21
155.0
 31
0.0
  0
LINE
  5
CC
  8
DATA
 62
     7
 10
26.300000000000011
 20
154.0
 30
0.0
 11
26.300000000000011
 21
155.0
 31
0.0
  0
LINE
  5
CD
  8
DATA
 62
     7
 10
513.0
 20
44.0
 30
0.0
 11
513.0
 21
0.0
 31
0.0
  0
LINE
  5
CE
  8
DATA
 62
     7
 10
25.300000000000011
 20
155.0
 30
0.0
 11
25.300000000000011
 21
440.0
 31
0.0
  0
LINE
  5
CF
  8
DATA
 62
     7
 10
456.30000000000001
 20
154.0
 30
0.0
 11
482.60000000000002
 21
154.0
 31
0.0
  0
LINE
  5
D0
  8
DATA
 62
     7
 10
454.30000000000001
 20
153.0
 30
0.0
 11
454.30000000000001
 21
152.0
 31
0.0
  0
LINE
  5
D1
  8
DATA
 62
     7
 10
482.60000000000002
 20
150.0
 30
0.0
 11
482.60000000000002
 21
155.0
 31
0.0
  0
LINE
  5
D2
  8
DATA
 62
     7
 10
482.60000000000002
 20
155.0
 30
0.0
 11
457.30000000000001
 21
155.0
 31
0.0
  0
LINE
  5
D3
  8
DATA
 62
     7
 10
456.30000000000001
 20
154.0
 30
0.0
 11
456.30000000000001
 21
155.0
 31
0.0
  0
LINE
  5
D4
  8
DATA
 62
     7
 10
25.300000000000011
 20
156.0
 30
0.0
 11
29.300000000000011
 21
152.0
 31
0.0
  0
LINE
  5
D5
  8
DATA
 62
     7
 10
457.30000000000001
 20
156.0
 30
0.0
 11
453.30000000000001
 21
152.0
 31
0.0
  0
LINE
  5
D6
  8
DATA
 62
     7
 10
457.30000000000001
 20
155.0
 30
0.0
 11
457.30000000000001
 21
440.0
 31
0.0
  0
LINE
  5
D7
  8
DATA
 62
     7
 10
457.30000000000001
 20
440.0
 30
0.0
 11
25.300000000000011
 21
440.0
 31
0.0
  0
LINE
  5
D8
  8
DATA
 62
     7
 10
514.0
 20
41.0
 30
0.0
 11
799.0
 21
41.0
 31
0.0
  0
LINE
  5
D9
  8
DATA
 62
     7
 10
514.0
 20
3.0
 30
0.0
 11
799.0
 21
3.0
 31
0.0
  0
LINE
  5
DA
  8
DATA
 62
     7
 10
799.0
 20
42.0
 30
0.0
 11
799.0
 21
2.0
 31
0.0
  0
ARC
  5
DB
  8
DATA
 62
     7
 10
516.0
 20
39.229166666666629
 30
0.0
 40
4.270833333333357
 50
40.449718862336539
 51
117.9235278487856
  0
LINE
  5
DC
  8
DATA
 62
     7
 10
514.0
 20
42.0
 30
0.0
 11
518.75
 21
42.0
 31
0.0
  0
LINE
  5
DD
  8
DATA
 62
     7
 10
783.75
 20
42.0
 30
0.0
 11
790.24999999999989
 21
42.0
 31
0.0
  0
ARC
  5
DE
  8
DATA
 62
     7
 10
786.5
 20
39.229166666666629
 30
0.0
 40
4.270833333333357
 50
40.449718862336539
 51
139.5502811376634
  0
LINE
  5
DF
  8
DATA
 62
     7
 10
783.75
 20
2.0
 30
0.0
 11
790.24999999999989
 21
2.0
 31
0.0
  0
ARC
  5
E0
  8
DATA
 62
     7
 10
516.0
 20
4.7708333333333712
 30
0.0
 40
4.2708333333333632
 50
242.0764721512144
 51
319.55028113766349
  0
LINE
  5
E1
  8
DATA
 62
     7
 10
514.0
 20
42.0
 30
0.0
 11
518.75
 21
42.0
 31
0.0
  0
ARC
  5
E2
  8
DATA
 62
     7
 10
794.5
 20
39.229166666666629
 30
0.0
 40
4.270833333333357
 50
40.449718862336539
 51
139.5502811376634
  0
CIRCLE
  5
E3
  8
DATA
 62
     7
 10
774.0
 20
9.0
 30
0.0
 40
1.2499999999999789
  0
CIRCLE
  5
E4
  8
DATA
 62
     7
 10
774.0
 20
35.0
 30
0.0
 40
1.2500000000000511
  0
LINE
  5
E5
  8
DATA
 62
     7
 10
429.0
 20
38.0
 30
0.0
 11
429.0
 21
4.5
 31
0.0
  0
ARC
  5
E6
  8
DATA
 62
     7
 10
431.0
 20
38.0
 30
0.0
 40
2.0
 50
90.0
 51
180.0
  0
ARC
  5
E7
  8
DATA
 62
     7
 10
431.0
 20
4.5
 30
0.0
 40
2.0
 50
180.0
 51
270.0
  0
LINE
  5
E8
  8
DATA
 62
     7
 10
450.0
 20
38.0
 30
0.0
 11
450.0
 21
4.5
 31
0.0
  0
ARC
  5
E9
  8
DATA
 62
     7
 10
448.0
 20
38.0
 30
0.0
 40
2.0
 50
0.0
 51
90.0
  0
ARC
  5
EA
  8
DATA
 62
     7
 10
448.0
 20
4.5
 30
0.0
 40
2.0
 50
270.0
 51
0.0
  0
LINE
  5
EB
  8
DATA
 62
     7
 10
431.0
 20
40.0
 30
0.0
 11
431.5
 21
40.0
 31
0.0
  0
LINE
  5
EC
  8
DATA
 62
     7
 10
447.5
 20
40.0
 30
0.0
 11
448.0
 21
40.0
 31
0.0
  0
LINE
  5
ED
  8
DATA
 62
     7
 10
431.0
 20
2.5
 30
0.0
 11
448.0
 21
2.5
 31
0.0
  0
POLYLINE
  5
EE
  8
DATA
 62
     7
 66
     1
 10
0.0
 20
0.0
 30
0.0
 70
     1
  0
VERTEX
  5
5EE
  8
DATA
 62
     7
 10
441.5
 20
13.5
 30
0.0
  0
VERTEX
  5
5EF
  8
DATA
 62
     7
 10
444.5
 20
13.5
 30
0.0
  0
VERTEX
  5
5F0
  8
DATA
 62
     7
 10
444.5
 20
10.5
 30
0.0
  0
VERTEX
  5
5F1
  8
DATA
 62
     7
 10
441.5
 20
10.5
 30
0.0
  0
SEQEND
  5
5F2
  8
DATA
 62
     7
  0
TEXT
  5
F4
  8
DATA
 62
     7
 10
433.49999997350892
 20
11.07951388888891
 30
0.0
 40
2.2000000000000002
  1
-27V
 41
0.8
 11
433.49999997350892
 21
13.279513888888911
 31
0.0
 73
     3
  0
CIRCLE
  5
F5
  8
DATA
 62
     7
 10
453.30000000000001
 20
177.0
 30
0.0
 40
2.9999999999999938
  0
POLYLINE
  5
F6
  8
DATA
 62
     7
 66
     1
 10
0.0
 20
0.0
 30
0.0
  0
VERTEX
  5
5F3
  8
DATA
 62
     7
 10
452.80000000000001
 20
177.5
 30
0.0
  0
VERTEX
  5
5F4
  8
DATA
 62
     7
 10
452.80000000000001
 20
179.0
 30
0.0
  0
VERTEX
  5
5F5
  8
DATA
 62
     7
 10
453.80000000000001
 20
179.0
 30
0.0
  0
VERTEX
  5
5F6
  8
DATA
 62
     7
 10
453.80000000000001
 20
177.5
 30
0.0
  0
SEQEND
  5
5F7
  8
DATA
 62
     7
  0
POLYLINE
  5
FC
  8
DATA
 62
     7
 66
     1
 10
0.0
 20
0.0
 30
0.0
  0
VERTEX
  5
5F8
  8
DATA
 62
     7
 10
452.80000000000001
 20
176.5
 30
0.0
  0
VERTEX
  5
5F9
  8
DATA
 62
     7
 10
452.80000000000001
 20
175.0
 30
0.0
  0
VERTEX
  5
5FA
  8
DATA
 62
     7
 10
453.80000000000001
 20
175.0
 30
0.0
  0
VERTEX
  5
5FB
  8
DATA
 62
     7
 10
453.80000000000001
 20
176.5
 30
0.0
  0
SEQEND
  5
5FC
  8
DATA
 62
     7
  0
POLYLINE
  5
102
  8
DATA
 62
     7
 66
     1
 10
0.0
 20
0.0
 30
0.0
  0
VERTEX
  5
5FD
  8
DATA
 62
     7
 10
452.80000000000001
 20
176.5
 30
0.0
  0
VERTEX
  5
5FE
  8
DATA
 62
     7
 10
451.2999999999999
 20
176.5
 30
0.0
  0
VERTEX
  5
5FF
  8
DATA
 62
     7
 10
451.2999999999999
 20
177.5
 30
0.0
  0
VERTEX
  5
600
  8
DATA
 62
     7
 10
452.80000000000001
 20
177.5
 30
0.0
  0
SEQEND
  5
601
  8
DATA
 62
     7
  0
POLYLINE
  5
108
  8
DATA
 62
     7
 66
     1
 10
0.0
 20
0.0
 30
0.0
  0
VERTEX
  5
602
  8
DATA
 62
     7
 10
453.80000000000001
 20
176.5
 30
0.0
  0
VERTEX
  5
603
  8
DATA
 62
     7
 10
455.2999999999999
 20
176.5
 30
0.0
  0
VERTEX
  5
604
  8
DATA
 62
     7
 10
455.2999999999999
 20
177.5
 30
0.0
  0
VERTEX
  5
605
  8
DATA
 62
     7
 10
453.80000000000001
 20
177.5
 30
0.0
  0
SEQEND
  5
606
  8
DATA
 62
     7
  0
CIRCLE
  5
10E
  8
DATA
 62
     7
 10
453.30000000000001
 20
177.0
 30
0.0
 40
3.25000000000002
  0
CIRCLE
  5
10F
  8
DATA
 62
     7
 10
453.30000000000001
 20
305.0
 30
0.0
 40
2.9999999999999938
  0
POLYLINE
  5
110
  8
DATA
 62
     7
 66
     1
 10
0.0
 20
0.0
 30
0.0
  0
VERTEX
  5
607
  8
DATA
 62
     7
 10
452.80000000000001
 20
305.5
 30
0.0
  0
VERTEX
  5
608
  8
DATA
 62
     7
 10
452.80000000000001
 20
307.0
 30
0.0
  0
VERTEX
  5
609
  8
DATA
 62
     7
 10
453.80000000000001
 20
307.0
 30
0.0
  0
VERTEX
  5
60A
  8
DATA
 62
     7
 10
453.80000000000001
 20
305.5
 30
0.0
  0
SEQEND
  5
60B
  8
DATA
 62
     7
  0
POLYLINE
  5
116
  8
DATA
 62
     7
 66
     1
 10
0.0
 20
0.0
 30
0.0
  0
VERTEX
  5
60C
  8
DATA
 62
     7
 10
452.80000000000001
 20
304.5
 30
0.0
  0
VERTEX
  5
60D
  8
DATA
 62
     7
 10
452.80000000000001
 20
303.0
 30
0.0
  0
VERTEX
  5
60E
  8
DATA
 62
     7
 10
453.80000000000001
 20
303.0
 30
0.0
  0
VERTEX
  5
60F
  8
DATA
 62
     7
 10
453.80000000000001
 20
304.5
 30
0.0
  0
SEQEND
  5
610
  8
DATA
 62
     7
  0
POLYLINE
  5
11C
  8
DATA
 62
     7
 66
     1
 10
0.0
 20
0.0
 30
0.0
  0
VERTEX
  5
611
  8
DATA
 62
     7
 10
452.80000000000001
 20
304.5
 30
0.0
  0
VERTEX
  5
612
  8
DATA
 62
     7
 10
451.2999999999999
 20
304.5
 30
0.0
  0
VERTEX
  5
613
  8
DATA
 62
     7
 10
451.2999999999999
 20
305.5
 30
0.0
  0
VERTEX
  5
614
  8
DATA
 62
     7
 10
452.80000000000001
 20
305.5
 30
0.0
  0
SEQEND
  5
615
  8
DATA
 62
     7
  0
POLYLINE
  5
122
  8
DATA
 62
     7
 66
     1
 10
0.0
 20
0.0
 30
0.0
  0
VERTEX
  5
616
  8
DATA
 62
     7
 10
453.80000000000001
 20
304.5
 30
0.0
  0
VERTEX
  5
617
  8
DATA
 62
     7
 10
455.2999999999999
 20
304.5
 30
0.0
  0
VERTEX
  5
618
  8
DATA
 62
     7
 10
455.2999999999999
 20
305.5
 30
0.0
  0
VERTEX
  5
619
  8
DATA
 62
     7
 10
453.80000000000001
 20
305.5
 30
0.0
  0
SEQEND
  5
61A
  8
DATA
 62
     7
  0
CIRCLE
  5
128
  8
DATA
 62
     7
 10
453.30000000000001
 20
305.0
 30
0.0
 40
3.25000000000002
  0
CIRCLE
  5
129
  8
DATA
 62
     7
 10
453.30000000000001
 20
427.5
 30
0.0
 40
2.9999999999999938
  0
POLYLINE
  5
12A
  8
DATA
 62
     7
 66
     1
 10
0.0
 20
0.0
 30
0.0
  0
VERTEX
  5
61B
  8
DATA
 62
     7
 10
452.80000000000001
 20
428.0
 30
0.0
  0
VERTEX
  5
61C
  8
DATA
 62
     7
 10
452.80000000000001
 20
429.49999999999989
 30
0.0
  0
VERTEX
  5
61D
  8
DATA
 62
     7
 10
453.80000000000001
 20
429.49999999999989
 30
0.0
  0
VERTEX
  5
61E
  8
DATA
 62
     7
 10
453.80000000000001
 20
428.0
 30
0.0
  0
SEQEND
  5
61F
  8
DATA
 62
     7
  0
POLYLINE
  5
130
  8
DATA
 62
     7
 66
     1
 10
0.0
 20
0.0
 30
0.0
  0
VERTEX
  5
620
  8
DATA
 62
     7
 10
452.80000000000001
 20
427.0
 30
0.0
  0
VERTEX
  5
621
  8
DATA
 62
     7
 10
452.80000000000001
 20
425.49999999999989
 30
0.0
  0
VERTEX
  5
622
  8
DATA
 62
     7
 10
453.80000000000001
 20
425.49999999999989
 30
0.0
  0
VERTEX
  5
623
  8
DATA
 62
     7
 10
453.80000000000001
 20
427.0
 30
0.0
  0
SEQEND
  5
624
  8
DATA
 62
     7
  0
POLYLINE
  5
136
  8
DATA
 62
     7
 66
     1
 10
0.0
 20
0.0
 30
0.0
  0
VERTEX
  5
625
  8
DATA
 62
     7
 10
452.80000000000001
 20
427.0
 30
0.0
  0
VERTEX
  5
626
  8
DATA
 62
     7
 10
451.2999999999999
 20
427.0
 30
0.0
  0
VERTEX
  5
627
  8
DATA
 62
     7
 10
451.2999999999999
 20
428.0
 30
0.0
  0
VERTEX
  5
628
  8
DATA
 62
     7
 10
452.80000000000001
 20
428.0
 30
0.0
  0
SEQEND
  5
629
  8
DATA
 62
     7
  0
POLYLINE
  5
13C
  8
DATA
 62
     7
 66
     1
 10
0.0
 20
0.0
 30
0.0
  0
VERTEX
  5
62A
  8
DATA
 62
     7
 10
453.80000000000001
 20
427.0
 30
0.0
  0
VERTEX
  5
62B
  8
DATA
 62
     7
 10
455.2999999999999
 20
427.0
 30
0.0
  0
VERTEX
  5
62C
  8
DATA
 62
     7
 10
455.2999999999999
 20
428.0
 30
0.0
  0
VERTEX
  5
62D
  8
DATA
 62
     7
 10
453.80000000000001
 20
428.0
 30
0.0
  0
SEQEND
  5
62E
  8
DATA
 62
     7
  0
CIRCLE
  5
142
  8
DATA
 62
     7
 10
453.30000000000001
 20
427.5
 30
0.0
 40
3.25000000000002
  0
ARC
  5
143
  8
DATA
 62
     7
 10
664.0
 20
39.229166666666629
 30
0.0
 40
4.270833333333357
 50
40.449718862336539
 51
139.5502811376634
  0
ARC
  5
144
  8
DATA
 62
     7
 10
536.0
 20
39.229166666666629
 30
0.0
 40
4.270833333333357
 50
40.449718862336539
 51
139.5502811376634
  0
ARC
  5
145
  8
DATA
 62
     7
 10
786.5
 20
4.7708333333333712
 30
0.0
 40
4.270833333333357
 50
220.44971886233651
 51
319.55028113766349
  0
ARC
  5
146
  8
DATA
 62
     7
 10
794.5
 20
4.7708333333333712
 30
0.0
 40
4.270833333333357
 50
220.44971886233651
 51
319.55028113766349
  0
ARC
  5
147
  8
DATA
 62
     7
 10
664.0
 20
4.7708333333333712
 30
0.0
 40
4.270833333333357
 50
220.44971886233651
 51
319.55028113766349
  0
ARC
  5
148
  8
DATA
 62
     7
 10
536.0
 20
4.7708333333333712
 30
0.0
 40
4.270833333333357
 50
220.44971886233651
 51
319.55028113766349
  0
LINE
  5
149
  8
DATA
 62
     7
 10
476.14999999999992
 20
550.04999999999995
 30
0.0
 11
472.85000000000002
 21
550.04999999999995
 31
0.0
  0
LINE
  5
14A
  8
DATA
 62
     7
 10
476.14999999999992
 20
542.95000000000005
 30
0.0
 11
472.85000000000002
 21
542.95000000000005
 31
0.0
  0
ARC
  5
14B
  8
DATA
 62
     7
 10
476.14999999999992
 20
546.49999999999989
 30
0.0
 40
3.5500000000000109
 50
270.0
 51
90.0
  0
ARC
  5
14C
  8
DATA
 62
     7
 10
472.85000000000002
 20
546.49999999999989
 30
0.0
 40
3.5500000000000109
 50
90.0
 51
270.0
  0
LINE
  5
14D
  8
DATA
 62
     7
 10
476.14999999999992
 20
581.04999999999995
 30
0.0
 11
472.85000000000002
 21
581.04999999999995
 31
0.0
  0
LINE
  5
14E
  8
DATA
 62
     7
 10
476.14999999999992
 20
573.95000000000005
 30
0.0
 11
472.85000000000002
 21
573.95000000000005
 31
0.0
  0
ARC
  5
14F
  8
DATA
 62
     7
 10
476.14999999999992
 20
577.5
 30
0.0
 40
3.5500000000000109
 50
270.0
 51
90.0
  0
ARC
  5
150
  8
DATA
 62
     7
 10
472.85000000000002
 20
577.5
 30
0.0
 40
3.5500000000000109
 50
90.0
 51
270.0
  0
LINE
  5
151
  8
DATA
 62
     7
 10
6.8500000000000227
 20
550.04999999999995
 30
0.0
 11
10.150000000000031
 21
550.04999999999995
 31
0.0
  0
LINE
  5
152
  8
DATA
 62
     7
 10
6.8500000000000227
 20
542.95000000000005
 30
0.0
 11
10.150000000000031
 21
542.95000000000005
 31
0.0
  0
ARC
  5
153
  8
DATA
 62
     7
 10
6.849999999999965
 20
546.49999999999989
 30
0.0
 40
3.5500000000000109
 50
90.0
 51
270.0
  0
ARC
  5
154
  8
DATA
 62
     7
 10
10.150000000000031
 20
546.49999999999989
 30
0.0
 40
3.5500000000000109
 50
270.0
 51
90.0
  0
LINE
  5
155
  8
DATA
 62
     7
 10
6.8500000000000227
 20
581.04999999999995
 30
0.0
 11
10.150000000000031
 21
581.04999999999995
 31
0.0
  0
LINE
  5
156
  8
DATA
 62
     7
 10
6.8500000000000227
 20
573.95000000000005
 30
0.0
 11
10.150000000000031
 21
573.95000000000005
 31
0.0
  0
ARC
  5
157
  8
DATA
 62
     7
 10
6.849999999999965
 20
577.5
 30
0.0
 40
3.5500000000000109
 50
90.0
 51
270.0
  0
ARC
  5
158
  8
DATA
 62
     7
 10
10.150000000000031
 20
577.5
 30
0.0
 40
3.5500000000000109
 50
270.0
 51
90.0
  0
LINE
  5
159
  8
DATA
 62
     7
 10
25.300000000000011
 20
582.0
 30
0.0
 11
457.30000000000001
 21
582.0
 31
0.0
  0
LINE
  5
15A
  8
DATA
 62
     7
 10
25.300000000000011
 20
542.0
 30
0.0
 11
457.30000000000001
 21
542.0
 31
0.0
  0
LINE
  5
15B
  8
DATA
 62
     7
 10
428.04999937719231
 20
542.0
 30
0.0
 11
428.05000062280772
 21
542.0
 31
0.0
  0
LINE
  5
15C
  8
DATA
 62
     7
 10
25.300000000000011
 20
581.0
 30
0.0
 11
457.30000000000001
 21
581.0
 31
0.0
  0
LINE
  5
15D
  8
DATA
 62
     7
 10
25.300000000000011
 20
543.0
 30
0.0
 11
154.30000000000001
 21
543.0
 31
0.0
  0
LINE
  5
15E
  8
DATA
 62
     7
 10
154.30000000000001
 20
543.0
 30
0.0
 11
457.30000000000001
 21
543.0
 31
0.0
  0
LINE
  5
15F
  8
DATA
 62
     7
 10
457.30000000000001
 20
582.0
 30
0.0
 11
457.30000000000001
 21
542.0
 31
0.0
  0
LINE
  5
160
  8
DATA
 62
     7
 10
457.30000000000001
 20
579.0
 30
0.0
 11
457.30000000000001
 21
573.0
 31
0.0
  0
LINE
  5
161
  8
DATA
 62
     7
 10
457.30000000000001
 20
579.0
 30
0.0
 11
458.80000000000001
 21
579.0
 31
0.0
  0
LINE
  5
162
  8
DATA
 62
     7
 10
460.30000000000001
 20
577.5
 30
0.0
 11
460.30000000000001
 21
574.5
 31
0.0
  0
LINE
  5
163
  8
DATA
 62
     7
 10
458.80000000000001
 20
573.0
 30
0.0
 11
457.30000000000001
 21
573.0
 31
0.0
  0
ARC
  5
164
  8
DATA
 62
     7
 10
458.80000000000001
 20
577.5
 30
0.0
 40
1.5
 50
0.0
 51
90.0
  0
ARC
  5
165
  8
DATA
 62
     7
 10
458.80000000000001
 20
574.5
 30
0.0
 40
1.5
 50
270.0
 51
0.0
  0
LINE
  5
166
  8
DATA
 62
     7
 10
457.85000000000002
 20
579.0
 30
0.0
 11
457.85000000000002
 21
573.0
 31
0.0
  0
LINE
  5
167
  8
DATA
 62
     7
 10
25.300000000000011
 20
582.0
 30
0.0
 11
25.300000000000011
 21
542.0
 31
0.0
  0
ARC
  5
168
  8
DATA
 62
     7
 10
29.300000000000011
 20
544.77307694697231
 30
0.0
 40
4.2708333333332842
 50
220.44971886233529
 51
319.55028113766463
  0
ARC
  5
169
  8
DATA
 62
     7
 10
29.300000000000011
 20
579.22692305302758
 30
0.0
 40
4.2708333333332842
 50
40.449718862335381
 51
139.5502811376646
  0
LINE
  5
16A
  8
DATA
 62
     7
 10
25.75
 20
581.99775638636083
 30
0.0
 11
32.25
 21
581.99775638636083
 31
0.0
  0
ARC
  5
16B
  8
DATA
 62
     7
 10
148.0
 20
579.22692305302758
 30
0.0
 40
4.2708333333332842
 50
40.449718862335381
 51
139.5502811376646
  0
ARC
  5
16C
  8
DATA
 62
     7
 10
148.0
 20
544.77307694697231
 30
0.0
 40
4.2708333333332842
 50
220.44971886233529
 51
319.55028113766463
  0
ARC
  5
16D
  8
DATA
 62
     7
 10
241.30000000000001
 20
544.77307694697231
 30
0.0
 40
4.2708333333332842
 50
220.44971886233529
 51
319.55028113766463
  0
ARC
  5
16E
  8
DATA
 62
     7
 10
453.30000000000001
 20
544.77307694697231
 30
0.0
 40
4.2708333333332842
 50
220.44971886233529
 51
319.55028113766463
  0
LINE
  5
16F
  8
DATA
 62
     7
 10
456.85000000000002
 20
542.00224361363905
 30
0.0
 11
450.35000000000002
 21
542.00224361363905
 31
0.0
  0
ARC
  5
170
  8
DATA
 62
     7
 10
453.30000000000001
 20
579.22692305302758
 30
0.0
 40
4.2708333333332842
 50
40.449718862335381
 51
139.5502811376646
  0
LINE
  5
171
  8
DATA
 62
     7
 10
456.85000000000002
 20
581.99775638636083
 30
0.0
 11
450.35000000000002
 21
581.99775638636083
 31
0.0
  0
ARC
  5
172
  8
DATA
 62
     7
 10
334.0
 20
544.77307694697231
 30
0.0
 40
4.2708333333332842
 50
220.44971886233529
 51
319.55028113766463
  0
ARC
  5
173
  8
DATA
 62
     7
 10
241.30000000000001
 20
579.22692305302758
 30
0.0
 40
4.2708333333332842
 50
40.449718862335381
 51
139.5502811376646
  0
LINE
  5
174
  8
DATA
 62
     7
 10
0.0
 20
540.0
 30
0.0
 11
0.0
 21
584.0
 31
0.0
  0
LINE
  5
175
  8
DATA
 62
     7
 10
483.0
 20
540.0
 30
0.0
 11
483.0
 21
584.0
 31
0.0
  0
LINE
  5
176
  8
DATA
 62
     7
 10
483.0
 20
540.0
 30
0.0
 11
0.0
 21
540.0
 31
0.0
  0
LINE
  5
177
  8
DATA
 62
     7
 10
0.0
 20
584.0
 30
0.0
 11
483.0
 21
584.0
 31
0.0
  0
ARC
  5
178
  8
DATA
 62
     7
 10
334.0
 20
579.22692305302758
 30
0.0
 40
4.2708333333332842
 50
40.449718862335381
 51
139.5502811376646
  0
LINE
  5
179
  8
DATA
 62
     7
 10
25.300000000000011
 20
579.0
 30
0.0
 11
25.300000000000011
 21
573.0
 31
0.0
  0
LINE
  5
17A
  8
DATA
 62
     7
 10
25.300000000000011
 20
579.0
 30
0.0
 11
23.800000000000011
 21
579.0
 31
0.0
  0
LINE
  5
17B
  8
DATA
 62
     7
 10
22.300000000000011
 20
577.5
 30
0.0
 11
22.300000000000011
 21
574.5
 31
0.0
  0
LINE
  5
17C
  8
DATA
 62
     7
 10
23.800000000000011
 20
573.0
 30
0.0
 11
25.300000000000011
 21
573.0
 31
0.0
  0
ARC
  5
17D
  8
DATA
 62
     7
 10
23.800000000000011
 20
577.5
 30
0.0
 40
1.5
 50
90.0
 51
180.0
  0
ARC
  5
17E
  8
DATA
 62
     7
 10
23.800000000000011
 20
574.5
 30
0.0
 40
1.5
 50
180.0
 51
270.0
  0
LINE
  5
17F
  8
DATA
 62
     7
 10
24.75
 20
579.0
 30
0.0
 11
24.75
 21
573.0
 31
0.0
  0
LINE
  5
180
  8
DATA
 62
     7
 10
457.30000000000001
 20
551.0
 30
0.0
 11
457.30000000000001
 21
545.0
 31
0.0
  0
LINE
  5
181
  8
DATA
 62
     7
 10
457.30000000000001
 20
551.0
 30
0.0
 11
458.80000000000001
 21
551.0
 31
0.0
  0
LINE
  5
182
  8
DATA
 62
     7
 10
460.30000000000001
 20
549.5
 30
0.0
 11
460.30000000000001
 21
546.49999999999989
 31
0.0
  0
LINE
  5
183
  8
DATA
 62
     7
 10
458.80000000000001
 20
545.0
 30
0.0
 11
457.30000000000001
 21
545.0
 31
0.0
  0
ARC
  5
184
  8
DATA
 62
     7
 10
458.80000000000001
 20
549.5
 30
0.0
 40
1.5
 50
0.0
 51
90.0
  0
ARC
  5
185
  8
DATA
 62
     7
 10
458.80000000000001
 20
546.49999999999989
 30
0.0
 40
1.5
 50
270.0
 51
0.0
  0
LINE
  5
186
  8
DATA
 62
     7
 10
457.85000000000002
 20
551.0
 30
0.0
 11
457.85000000000002
 21
545.0
 31
0.0
  0
LINE
  5
187
  8
DATA
 62
     7
 10
25.300000000000011
 20
551.0
 30
0.0
 11
25.300000000000011
 21
545.0
 31
0.0
  0
LINE
  5
188
  8
DATA
 62
     7
 10
25.300000000000011
 20
551.0
 30
0.0
 11
23.800000000000011
 21
551.0
 31
0.0
  0
LINE
  5
189
  8
DATA
 62
     7
 10
22.300000000000011
 20
549.5
 30
0.0
 11
22.300000000000011
 21
546.49999999999989
 31
0.0
  0
LINE
  5
18A
  8
DATA
 62
     7
 10
23.800000000000011
 20
545.0
 30
0.0
 11
25.300000000000011
 21
545.0
 31
0.0
  0
ARC
  5
18B
  8
DATA
 62
     7
 10
23.800000000000011
 20
549.5
 30
0.0
 40
1.5
 50
90.0
 51
180.0
  0
ARC
  5
18C
  8
DATA
 62
     7
 10
23.800000000000011
 20
546.49999999999989
 30
0.0
 40
1.5
 50
180.0
 51
270.0
  0
LINE
  5
18D
  8
DATA
 62
     7
 10
24.75
 20
551.0
 30
0.0
 11
24.75
 21
545.0
 31
0.0
  0
LINE
  5
18E
  8
DATA
 62
     7
 10
377.80000000000001
 20
577.0
 30
0.0
 11
377.80000000000001
 21
549.5
 31
0.0
  0
LINE
  5
18F
  8
DATA
 62
     7
 10
379.80000000000001
 20
579.0
 30
0.0
 11
444.30000000000001
 21
579.0
 31
0.0
  0
LINE
  5
190
  8
DATA
 62
     7
 10
446.30000000000001
 20
549.5
 30
0.0
 11
446.30000000000001
 21
577.0
 31
0.0
  0
ARC
  5
191
  8
DATA
 62
     7
 10
379.80000000000001
 20
577.0
 30
0.0
 40
2.0
 50
90.0
 51
180.0
  0
ARC
  5
192
  8
DATA
 62
     7
 10
428.0499999999999
 20
549.0
 30
0.0
 40
6.9999999999999991
 50
269.9999949022494
 51
270.00000504024968
  0
POLYLINE
  5
193
  8
DATA
 62
     7
 66
     1
 10
0.0
 20
0.0
 30
0.0
 70
     1
  0
VERTEX
  5
62F
  8
DATA
 62
     7
 10
441.5
 20
21.5
 30
0.0
  0
VERTEX
  5
630
  8
DATA
 62
     7
 10
444.5
 20
21.5
 30
0.0
  0
VERTEX
  5
631
  8
DATA
 62
     7
 10
444.5
 20
18.5
 30
0.0
  0
VERTEX
  5
632
  8
DATA
 62
     7
 10
441.5
 20
18.5
 30
0.0
  0
SEQEND
  5
633
  8
DATA
 62
     7
  0
POLYLINE
  5
199
  8
DATA
 62
     7
 66
     1
 10
0.0
 20
0.0
 30
0.0
 70
     1
  0
VERTEX
  5
634
  8
DATA
 62
     7
 10
441.5
 20
29.5
 30
0.0
  0
VERTEX
  5
635
  8
DATA
 62
     7
 10
444.5
 20
29.5
 30
0.0
  0
VERTEX
  5
636
  8
DATA
 62
     7
 10
444.5
 20
26.5
 30
0.0
  0
VERTEX
  5
637
  8
DATA
 62
     7
 10
441.5
 20
26.5
 30
0.0
  0
SEQEND
  5
638
  8
DATA
 62
     7
  0
TEXT
  5
19F
  8
DATA
 62
     7
 10
433.49999997350892
 20
19.079513888888911
 30
0.0
 40
2.2000000000000002
  1
+27V
 41
0.8
 11
433.49999997350892
 21
21.279513888888921
 31
0.0
 73
     3
  0
TEXT
  5
1A0
  8
DATA
 62
     7
 10
433.49999997350892
 20
27.079513888888911
 30
0.0
 40
2.2000000000000002
  1
+48V
 41
0.8
 11
433.49999997350892
 21
29.279513888888911
 31
0.0
 73
     3
  0
LINE
  5
1A1
  8
DATA
 62
     7
 10
432.5
 20
42.0
 30
0.0
 11
446.49999999999989
 21
42.0
 31
0.0
  0
LINE
  5
1A2
  8
DATA
 62
     7
 10
432.5
 20
37.0
 30
0.0
 11
446.49999999999989
 21
37.0
 31
0.0
  0
LINE
  5
1A3
  8
DATA
 62
     7
 10
431.5
 20
41.0
 30
0.0
 11
431.5
 21
38.0
 31
0.0
  0
LINE
  5
1A4
  8
DATA
 62
     7
 10
447.5
 20
41.0
 30
0.0
 11
447.5
 21
38.0
 31
0.0
  0
ARC
  5
1A5
  8
DATA
 62
     7
 10
432.5
 20
41.0
 30
0.0
 40
1.0
 50
90.0
 51
180.0
  0
ARC
  5
1A6
  8
DATA
 62
     7
 10
432.5
 20
38.0
 30
0.0
 40
1.0
 50
180.0
 51
270.0
  0
ARC
  5
1A7
  8
DATA
 62
     7
 10
446.49999999999989
 20
38.0
 30
0.0
 40
1.0
 50
270.0
 51
0.0
  0
ARC
  5
1A8
  8
DATA
 62
     7
 10
446.49999999999989
 20
41.0
 30
0.0
 40
1.0
 50
0.0
 51
90.0
  0
TEXT
  5
1A9
  8
DATA
 62
     7
 10
434.72048611111109
 20
38.299999999999997
 30
0.0
 40
3.2000000000000002
  1
POWER
 41
0.8
 11
434.72048611111109
 21
41.5
 31
0.0
 73
     3
  0
LINE
  5
1AA
  8
DATA
 62
     7
 10
426.49999999999989
 20
38.0
 30
0.0
 11
426.49999999999989
 21
4.5
 31
0.0
  0
LINE
  5
1AB
  8
DATA
 62
     7
 10
424.5
 20
2.5
 30
0.0
 11
330.0
 21
2.5
 31
0.0
  0
LINE
  5
1AC
  8
DATA
 62
     7
 10
424.5
 20
40.0
 30
0.0
 11
388.25
 21
40.0
 31
0.0
  0
LINE
  5
1AD
  8
DATA
 62
     7
 10
366.25
 20
40.0
 30
0.0
 11
330.0
 21
40.0
 31
0.0
  0
LINE
  5
1AE
  8
DATA
 62
     7
 10
328.0
 20
38.0
 30
0.0
 11
328.0
 21
4.5
 31
0.0
  0
ARC
  5
1AF
  8
DATA
 62
     7
 10
330.0
 20
38.0
 30
0.0
 40
2.0
 50
90.0
 51
180.0
  0
ARC
  5
1B0
  8
DATA
 62
     7
 10
330.0
 20
4.5
 30
0.0
 40
2.0
 50
180.0
 51
270.0
  0
ARC
  5
1B1
  8
DATA
 62
     7
 10
424.5
 20
4.5
 30
0.0
 40
2.0
 50
270.0
 51
0.0
  0
ARC
  5
1B2
  8
DATA
 62
     7
 10
424.5
 20
38.0
 30
0.0
 40
2.0
 50
0.0
 51
90.0
  0
LINE
  5
1B3
  8
DATA
 62
     7
 10
387.25
 20
42.0
 30
0.0
 11
367.25
 21
42.0
 31
0.0
  0
LINE
  5
1B4
  8
DATA
 62
     7
 10
387.25
 20
37.0
 30
0.0
 11
367.25
 21
37.0
 31
0.0
  0
LINE
  5
1B5
  8
DATA
 62
     7
 10
366.25
 20
41.0
 30
0.0
 11
366.25
 21
38.0
 31
0.0
  0
LINE
  5
1B6
  8
DATA
 62
     7
 10
388.25
 20
41.0
 30
0.0
 11
388.25
 21
38.0
 31
0.0
  0
ARC
  5
1B7
  8
DATA
 62
     7
 10
367.25
 20
41.0
 30
0.0
 40
1.0
 50
90.0
 51
180.0
  0
ARC
  5
1B8
  8
DATA
 62
     7
 10
367.25
 20
38.0
 30
0.0
 40
1.0
 50
180.0
 51
270.0
  0
ARC
  5
1B9
  8
DATA
 62
     7
 10
387.25
 20
41.0
 30
0.0
 40
1.0
 50
0.0
 51
90.0
  0
ARC
  5
1BA
  8
DATA
 62
     7
 10
387.25
 20
38.0
 30
0.0
 40
1.0
 50
270.0
 51
0.0
  0
TEXT
  5
1BB
  8
DATA
 62
     7
 10
372.11805583702193
 20
38.299999999999997
 30
0.0
 40
3.2000000000000002
  1
LISTEN
 41
0.8
 11
372.11805583702193
 21
41.5
 31
0.0
 73
     3
  0
POLYLINE
  5
1BC
  8
DATA
 62
     7
 66
     1
 10
0.0
 20
0.0
 30
0.0
 70
     1
  0
VERTEX
  5
639
  8
DATA
 62
     7
 10
410.74999999999989
 20
28.25
 30
0.0
  0
VERTEX
  5
63A
  8
DATA
 62
     7
 10
411.24999999999989
 20
28.25
 30
0.0
  0
VERTEX
  5
63B
  8
DATA
 62
     7
 10
411.24999999999989
 20
26.75
 30
0.0
  0
VERTEX
  5
63C
  8
DATA
 62
     7
 10
410.74999999999989
 20
26.75
 30
0.0
  0
SEQEND
  5
63D
  8
DATA
 62
     7
  0
TEXT
  5
1C2
  8
DATA
 62
     7
 10
416.375
 20
8.9174681535017726
 30
0.0
 40
2.0
  1
MAX
 41
0.8
 11
416.375
 21
10.917468153501771
 31
0.0
 73
     3
  0
TEXT
  5
1C3
  8
DATA
 62
     7
 10
402.12500005298187
 20
8.9174681535017726
 30
0.0
 40
2.0
  1
OFF
 41
0.8
 11
402.12500005298187
 21
10.917468153501771
 31
0.0
 73
     3
  0
TEXT
  5
1C4
  8
DATA
 62
     7
 10
407.0
 20
4.8547005383793014
 30
0.0
 40
2.7999999999999998
  1
LEVEL
 41
0.8
 11
407.0
 21
7.6547005383793021
 31
0.0
 73
     3
  0
CIRCLE
  5
1C5
  8
DATA
 62
     7
 10
411.0
 20
18.5
 30
0.0
 40
7.9999999999999787
  0
CIRCLE
  5
1C6
  8
DATA
 62
     7
 10
411.0
 20
18.5
 30
0.0
 40
6.25
  0
POLYLINE
  5
1C7
  8
DATA
 62
     7
 66
     1
 10
0.0
 20
0.0
 30
0.0
  0
VERTEX
  5
63E
  8
DATA
 62
     7
 10
411.5
 20
26.484359711335632
 30
0.0
  0
VERTEX
  5
63F
  8
DATA
 62
     7
 10
411.5
 20
18.5
 30
0.0
  0
VERTEX
  5
640
  8
DATA
 62
     7
 10
410.5
 20
18.5
 30
0.0
  0
VERTEX
  5
641
  8
DATA
 62
     7
 10
410.5
 20
26.484359711335632
 30
0.0
  0
SEQEND
  5
642
  8
DATA
 62
     7
  0
ARC
  5
1CD
  8
DATA
 62
     7
 10
411.0
 20
18.5
 30
0.0
 40
6.9999999999999396
 50
96.999999999999517
 51
128.0000000000004
  0
ARC
  5
1CE
  8
DATA
 62
     7
 10
411.0
 20
18.5
 30
0.0
 40
6.9999999999999281
 50
141.99999999999969
 51
173.00000000000011
  0
ARC
  5
1CF
  8
DATA
 62
     7
 10
411.0
 20
18.5
 30
0.0
 40
6.9999999999999396
 50
186.9999999999994
 51
218.0000000000002
  0
ARC
  5
1D0
  8
DATA
 62
     7
 10
411.0
 20
18.5
 30
0.0
 40
6.999999999999944
 50
231.9999999999981
 51
263.00000000000051
  0
ARC
  5
1D1
  8
DATA
 62
     7
 10
411.0
 20
18.5
 30
0.0
 40
6.9999999999999396
 50
276.9999999999996
 51
308.0000000000004
  0
ARC
  5
1D2
  8
DATA
 62
     7
 10
411.0
 20
18.5
 30
0.0
 40
6.9999999999999378
 50
322.00000000000051
 51
352.99999999999972
  0
ARC
  5
1D3
  8
DATA
 62
     7
 10
411.0
 20
18.5
 30
0.0
 40
6.9999999999999396
 50
6.9999999999994804
 51
38.00000000000022
  0
ARC
  5
1D4
  8
DATA
 62
     7
 10
411.0
 20
18.5
 30
0.0
 40
6.9999999999999281
 50
51.999999999999723
 51
83.000000000000526
  0
ARC
  5
1D5
  8
DATA
 62
     7
 10
411.0
 20
18.5
 30
0.0
 40
6.75
 50
127.9999999999999
 51
141.9999999999994
  0
ARC
  5
1D6
  8
DATA
 62
     7
 10
411.0
 20
18.5
 30
0.0
 40
6.7499999999999902
 50
173.00000000000031
 51
186.99999999999969
  0
ARC
  5
1D7
  8
DATA
 62
     7
 10
411.0
 20
18.5
 30
0.0
 40
6.7499999999999547
 50
218.0000000000002
 51
231.99999999999901
  0
ARC
  5
1D8
  8
DATA
 62
     7
 10
411.0
 20
18.5
 30
0.0
 40
6.7499999999999316
 50
263.00000000000028
 51
277.00000000000028
  0
ARC
  5
1D9
  8
DATA
 62
     7
 10
411.0
 20
18.5
 30
0.0
 40
6.7499999999999458
 50
308.0000000000008
 51
322.00000000000051
  0
ARC
  5
1DA
  8
DATA
 62
     7
 10
411.0
 20
18.5
 30
0.0
 40
6.7499999999999396
 50
352.99999999999977
 51
6.9999999999997149
  0
ARC
  5
1DB
  8
DATA
 62
     7
 10
411.0
 20
18.5
 30
0.0
 40
6.7499999999999201
 50
37.999999999999851
 51
52.000000000000171
  0
ARC
  5
1DC
  8
DATA
 62
     7
 10
411.0
 20
18.5
 30
0.0
 40
6.7499999999999316
 50
83.00000000000027
 51
96.999999999999744
  0
LINE
  5
1DD
  8
DATA
 62
     7
 10
410.1773819320241
 20
25.199686523505989
 30
0.0
 11
410.14691459616398
 21
25.44782306148932
 31
0.0
  0
LINE
  5
1DE
  8
DATA
 62
     7
 10
411.76168339629839
 20
24.703413447891531
 30
0.0
 11
411.7616833963209
 21
24.70341344807343
 31
0.0
  0
LINE
  5
1DF
  8
DATA
 62
     7
 10
411.8226180679834
 20
25.19968652356852
 30
0.0
 11
411.85308540383591
 21
25.44782306148926
 31
0.0
  0
LINE
  5
1E0
  8
DATA
 62
     7
 10
410.14691459616398
 20
25.44782306148932
 30
0.0
 11
410.14691459616398
 21
26.454385286983161
 31
0.0
  0
LINE
  5
1E1
  8
DATA
 62
     7
 10
411.85308540383591
 20
25.44782306148926
 30
0.0
 11
411.85308540383591
 21
26.454385286983161
 31
0.0
  0
LINE
  5
1E2
  8
DATA
 62
     7
 10
405.68092741321249
 20
22.655714958402999
 30
0.0
 11
405.48392472475291
 21
22.809630327279699
 31
0.0
  0
LINE
  5
1E3
  8
DATA
 62
     7
 10
407.15211577913192
 20
23.425067210147802
 30
0.0
 11
407.15211577901908
 21
23.425067210292241
 31
0.0
  0
LINE
  5
1E4
  8
DATA
 62
     7
 10
406.84428504155818
 20
23.819072586837141
 30
0.0
 11
406.69036967272029
 21
24.01607527524709
 31
0.0
  0
LINE
  5
1E5
  8
DATA
 62
     7
 10
405.48392472475291
 20
22.809630327279699
 30
0.0
 11
404.77217774941988
 21
23.52137730261262
 31
0.0
  0
LINE
  5
1E6
  8
DATA
 62
     7
 10
406.69036967272029
 20
24.01607527524709
 30
0.0
 11
405.97862269738738
 21
24.727822250580061
 31
0.0
  0
LINE
  5
1E7
  8
DATA
 62
     7
 10
404.30031347649401
 20
17.677381932024218
 30
0.0
 11
404.05217693851051
 21
17.646914596163981
 31
0.0
  0
LINE
  5
1E8
  8
DATA
 62
     7
 10
404.79658655210829
 20
19.261683396298508
 30
0.0
 11
404.7965865519264
 21
19.261683396320841
 31
0.0
  0
LINE
  5
1E9
  8
DATA
 62
     7
 10
404.30031347643143
 20
19.322618067983448
 30
0.0
 11
404.05217693851051
 21
19.353085403836008
 31
0.0
  0
LINE
  5
1EA
  8
DATA
 62
     7
 10
404.05217693851051
 20
17.646914596163981
 30
0.0
 11
403.04561471301668
 21
17.646914596163981
 31
0.0
  0
LINE
  5
1EB
  8
DATA
 62
     7
 10
404.05217693851051
 20
19.353085403836008
 30
0.0
 11
403.04561471301668
 21
19.353085403836008
 31
0.0
  0
LINE
  5
1EC
  8
DATA
 62
     7
 10
406.84428504159678
 20
13.180927413212491
 30
0.0
 11
406.69036967272018
 21
12.98392472475285
 31
0.0
  0
LINE
  5
1ED
  8
DATA
 62
     7
 10
406.0749327898522
 20
14.652115779131851
 30
0.0
 11
406.07493278970759
 21
14.652115779019081
 31
0.0
  0
LINE
  5
1EE
  8
DATA
 62
     7
 10
405.68092741316281
 20
14.34428504155818
 30
0.0
 11
405.48392472475291
 21
14.190369672720291
 31
0.0
  0
LINE
  5
1EF
  8
DATA
 62
     7
 10
406.69036967272018
 20
12.98392472475285
 30
0.0
 11
405.97862269738721
 21
12.27217774941988
 31
0.0
  0
LINE
  5
1F0
  8
DATA
 62
     7
 10
405.48392472475291
 20
14.190369672720291
 30
0.0
 11
404.77217774941988
 21
13.478622697387321
 31
0.0
  0
LINE
  5
1F1
  8
DATA
 62
     7
 10
411.82261806797578
 20
11.80031347649401
 30
0.0
 11
411.85308540383591
 21
11.55217693851068
 31
0.0
  0
LINE
  5
1F2
  8
DATA
 62
     7
 10
410.23831660370138
 20
12.29658655210846
 30
0.0
 11
410.2383166036791
 21
12.296586551926559
 31
0.0
  0
LINE
  5
1F3
  8
DATA
 62
     7
 10
410.17738193201649
 20
11.80031347643148
 30
0.0
 11
410.14691459616398
 21
11.55217693851074
 31
0.0
  0
LINE
  5
1F4
  8
DATA
 62
     7
 10
411.85308540383591
 20
11.55217693851068
 30
0.0
 11
411.85308540383591
 21
10.545614713016841
 31
0.0
  0
LINE
  5
1F5
  8
DATA
 62
     7
 10
410.14691459616398
 20
11.55217693851074
 30
0.0
 11
410.14691459616398
 21
10.545614713016841
 31
0.0
  0
LINE
  5
1F6
  8
DATA
 62
     7
 10
416.3190725867874
 20
14.344285041597059
 30
0.0
 11
416.51607527524709
 21
14.190369672720349
 31
0.0
  0
LINE
  5
1F7
  8
DATA
 62
     7
 10
414.84788422086802
 20
13.574932789852189
 30
0.0
 11
414.84788422098092
 21
13.574932789707811
 31
0.0
  0
LINE
  5
1F8
  8
DATA
 62
     7
 10
415.15571495844182
 20
13.180927413162919
 30
0.0
 11
415.30963032727959
 21
12.983924724752971
 31
0.0
  0
LINE
  5
1F9
  8
DATA
 62
     7
 10
416.51607527524709
 20
14.190369672720349
 30
0.0
 11
417.22782225058
 21
13.478622697387429
 31
0.0
  0
LINE
  5
1FA
  8
DATA
 62
     7
 10
415.30963032727959
 20
12.983924724752971
 30
0.0
 11
416.02137730261262
 21
12.27217774941999
 31
0.0
  0
LINE
  5
1FB
  8
DATA
 62
     7
 10
417.69968652350587
 20
19.322618067975721
 30
0.0
 11
417.9478230614892
 21
19.353085403835959
 31
0.0
  0
LINE
  5
1FC
  8
DATA
 62
     7
 10
417.20341344789148
 20
17.738316603701431
 30
0.0
 11
417.20341344807338
 21
17.738316603679088
 31
0.0
  0
LINE
  5
1FD
  8
DATA
 62
     7
 10
417.6996865235684
 20
17.677381932016491
 30
0.0
 11
417.9478230614892
 21
17.646914596163931
 31
0.0
  0
LINE
  5
1FE
  8
DATA
 62
     7
 10
417.9478230614892
 20
19.353085403835959
 30
0.0
 11
418.95438528698321
 21
19.353085403835959
 31
0.0
  0
LINE
  5
1FF
  8
DATA
 62
     7
 10
417.9478230614892
 20
17.646914596163931
 30
0.0
 11
418.95438528698321
 21
17.646914596163931
 31
0.0
  0
LINE
  5
200
  8
DATA
 62
     7
 10
415.15571495840288
 20
23.819072586787509
 30
0.0
 11
415.30963032727959
 21
24.01607527524709
 31
0.0
  0
LINE
  5
201
  8
DATA
 62
     7
 10
415.92506721014769
 20
22.347884220868082
 30
0.0
 11
415.92506721029213
 21
22.347884220980919
 31
0.0
  0
LINE
  5
202
  8
DATA
 62
     7
 10
416.31907258683708
 20
22.65571495844177
 30
0.0
 11
416.51607527524698
 21
22.809630327279649
 31
0.0
  0
LINE
  5
203
  8
DATA
 62
     7
 10
415.30963032727959
 20
24.01607527524709
 30
0.0
 11
416.02137730261262
 21
24.727822250580061
 31
0.0
  0
LINE
  5
204
  8
DATA
 62
     7
 10
416.51607527524698
 20
22.809630327279649
 30
0.0
 11
417.22782225057989
 21
23.52137730261262
 31
0.0
  0
POLYLINE
  5
205
  8
DATA
 62
     7
 66
     1
 10
0.0
 20
0.0
 30
0.0
 70
     1
  0
VERTEX
  5
643
  8
DATA
 62
     7
 10
405.9084936490537
 20
26.818747686898291
 30
0.0
  0
VERTEX
  5
644
  8
DATA
 62
     7
 10
406.34150635094591
 20
27.068747686898291
 30
0.0
  0
VERTEX
  5
645
  8
DATA
 62
     7
 10
407.09150635094602
 20
25.769709581221601
 30
0.0
  0
VERTEX
  5
646
  8
DATA
 62
     7
 10
406.65849364905381
 20
25.519709581221608
 30
0.0
  0
SEQEND
  5
647
  8
DATA
 62
     7
  0
POLYLINE
  5
20B
  8
DATA
 62
     7
 66
     1
 10
0.0
 20
0.0
 30
0.0
 70
     1
  0
VERTEX
  5
648
  8
DATA
 62
     7
 10
402.4312523131016
 20
23.15849364905387
 30
0.0
  0
VERTEX
  5
649
  8
DATA
 62
     7
 10
402.68125231310171
 20
23.59150635094613
 30
0.0
  0
VERTEX
  5
64A
  8
DATA
 62
     7
 10
403.9802904187784
 20
22.84150635094613
 30
0.0
  0
VERTEX
  5
64B
  8
DATA
 62
     7
 10
403.73029041877828
 20
22.40849364905387
 30
0.0
  0
SEQEND
  5
64C
  8
DATA
 62
     7
  0
POLYLINE
  5
211
  8
DATA
 62
     7
 66
     1
 10
0.0
 20
0.0
 30
0.0
 70
     1
  0
VERTEX
  5
64D
  8
DATA
 62
     7
 10
401.25
 20
18.75
 30
0.0
  0
VERTEX
  5
64E
  8
DATA
 62
     7
 10
402.74999999999989
 20
18.75
 30
0.0
  0
VERTEX
  5
64F
  8
DATA
 62
     7
 10
402.74999999999989
 20
18.25
 30
0.0
  0
VERTEX
  5
650
  8
DATA
 62
     7
 10
401.25
 20
18.25
 30
0.0
  0
SEQEND
  5
651
  8
DATA
 62
     7
  0
POLYLINE
  5
217
  8
DATA
 62
     7
 66
     1
 10
0.0
 20
0.0
 30
0.0
 70
     1
  0
VERTEX
  5
652
  8
DATA
 62
     7
 10
402.6812523131016
 20
13.40849364905398
 30
0.0
  0
VERTEX
  5
653
  8
DATA
 62
     7
 10
402.4312523131016
 20
13.84150635094619
 30
0.0
  0
VERTEX
  5
654
  8
DATA
 62
     7
 10
403.73029041877828
 20
14.59150635094613
 30
0.0
  0
VERTEX
  5
655
  8
DATA
 62
     7
 10
403.9802904187784
 20
14.15849364905392
 30
0.0
  0
SEQEND
  5
656
  8
DATA
 62
     7
  0
POLYLINE
  5
21D
  8
DATA
 62
     7
 66
     1
 10
0.0
 20
0.0
 30
0.0
 70
     1
  0
VERTEX
  5
657
  8
DATA
 62
     7
 10
406.34150635094591
 20
9.9312523131017088
 30
0.0
  0
VERTEX
  5
658
  8
DATA
 62
     7
 10
405.9084936490537
 20
10.1812523131017
 30
0.0
  0
VERTEX
  5
659
  8
DATA
 62
     7
 10
406.65849364905381
 20
11.48029041877839
 30
0.0
  0
VERTEX
  5
65A
  8
DATA
 62
     7
 10
407.09150635094602
 20
11.23029041877839
 30
0.0
  0
SEQEND
  5
65B
  8
DATA
 62
     7
  0
POLYLINE
  5
223
  8
DATA
 62
     7
 66
     1
 10
0.0
 20
0.0
 30
0.0
 70
     1
  0
VERTEX
  5
65C
  8
DATA
 62
     7
 10
415.65849364905381
 20
27.068747686898291
 30
0.0
  0
VERTEX
  5
65D
  8
DATA
 62
     7
 10
416.09150635094602
 20
26.818747686898291
 30
0.0
  0
VERTEX
  5
65E
  8
DATA
 62
     7
 10
415.34150635094602
 20
25.519709581221608
 30
0.0
  0
VERTEX
  5
65F
  8
DATA
 62
     7
 10
414.9084936490537
 20
25.769709581221601
 30
0.0
  0
SEQEND
  5
660
  8
DATA
 62
     7
  0
POLYLINE
  5
229
  8
DATA
 62
     7
 66
     1
 10
0.0
 20
0.0
 30
0.0
 70
     1
  0
VERTEX
  5
661
  8
DATA
 62
     7
 10
419.31874768689829
 20
23.59150635094613
 30
0.0
  0
VERTEX
  5
662
  8
DATA
 62
     7
 10
419.56874768689818
 20
23.15849364905387
 30
0.0
  0
VERTEX
  5
663
  8
DATA
 62
     7
 10
418.2697095812216
 20
22.40849364905387
 30
0.0
  0
VERTEX
  5
664
  8
DATA
 62
     7
 10
418.0197095812216
 20
22.84150635094613
 30
0.0
  0
SEQEND
  5
665
  8
DATA
 62
     7
  0
POLYLINE
  5
22F
  8
DATA
 62
     7
 66
     1
 10
0.0
 20
0.0
 30
0.0
 70
     1
  0
VERTEX
  5
666
  8
DATA
 62
     7
 10
419.24999999999989
 20
18.75
 30
0.0
  0
VERTEX
  5
667
  8
DATA
 62
     7
 10
420.75
 20
18.75
 30
0.0
  0
VERTEX
  5
668
  8
DATA
 62
     7
 10
420.75
 20
18.25
 30
0.0
  0
VERTEX
  5
669
  8
DATA
 62
     7
 10
419.24999999999989
 20
18.25
 30
0.0
  0
SEQEND
  5
66A
  8
DATA
 62
     7
  0
POLYLINE
  5
235
  8
DATA
 62
     7
 66
     1
 10
0.0
 20
0.0
 30
0.0
 70
     1
  0
VERTEX
  5
66B
  8
DATA
 62
     7
 10
419.56874768689829
 20
13.84150635094613
 30
0.0
  0
VERTEX
  5
66C
  8
DATA
 62
     7
 10
419.31874768689829
 20
13.40849364905392
 30
0.0
  0
VERTEX
  5
66D
  8
DATA
 62
     7
 10
418.0197095812216
 20
14.15849364905392
 30
0.0
  0
VERTEX
  5
66E
  8
DATA
 62
     7
 10
418.2697095812216
 20
14.59150635094613
 30
0.0
  0
SEQEND
  5
66F
  8
DATA
 62
     7
  0
POLYLINE
  5
23B
  8
DATA
 62
     7
 66
     1
 10
0.0
 20
0.0
 30
0.0
 70
     1
  0
VERTEX
  5
670
  8
DATA
 62
     7
 10
416.09150635094602
 20
10.1812523131017
 30
0.0
  0
VERTEX
  5
671
  8
DATA
 62
     7
 10
415.65849364905392
 20
9.9312523131017088
 30
0.0
  0
VERTEX
  5
672
  8
DATA
 62
     7
 10
414.90849364905392
 20
11.23029041877839
 30
0.0
  0
VERTEX
  5
673
  8
DATA
 62
     7
 10
415.34150635094602
 20
11.48029041877839
 30
0.0
  0
SEQEND
  5
674
  8
DATA
 62
     7
  0
POLYLINE
  5
241
  8
DATA
 62
     7
 66
     1
 10
0.0
 20
0.0
 30
0.0
 70
     1
  0
VERTEX
  5
675
  8
DATA
 62
     7
 10
370.5
 20
15.0
 30
0.0
  0
VERTEX
  5
676
  8
DATA
 62
     7
 10
367.25
 20
20.629165124598838
 30
0.0
  0
VERTEX
  5
677
  8
DATA
 62
     7
 10
360.75
 20
20.629165124598838
 30
0.0
  0
VERTEX
  5
678
  8
DATA
 62
     7
 10
357.5
 20
15.0
 30
0.0
  0
VERTEX
  5
679
  8
DATA
 62
     7
 10
360.75
 20
9.3708348754011581
 30
0.0
  0
VERTEX
  5
67A
  8
DATA
 62
     7
 10
367.25
 20
9.3708348754011581
 30
0.0
  0
SEQEND
  5
67B
  8
DATA
 62
     7
  0
CIRCLE
  5
249
  8
DATA
 62
     7
 10
364.0
 20
15.0
 30
0.0
 40
8.0
  0
CIRCLE
  5
24A
  8
DATA
 62
     7
 10
364.0
 20
15.0
 30
0.0
 40
3.25
  0
POLYLINE
  5
24B
  8
DATA
 62
     7
 66
     1
 10
0.0
 20
0.0
 30
0.0
 70
     1
  0
VERTEX
  5
67C
  8
DATA
 62
     7
 10
340.5
 20
31.5
 30
0.0
  0
VERTEX
  5
67D
  8
DATA
 62
     7
 10
343.5
 20
31.5
 30
0.0
  0
VERTEX
  5
67E
  8
DATA
 62
     7
 10
343.5
 20
28.5
 30
0.0
  0
VERTEX
  5
67F
  8
DATA
 62
     7
 10
340.5
 20
28.5
 30
0.0
  0
SEQEND
  5
680
  8
DATA
 62
     7
  0
POLYLINE
  5
251
  8
DATA
 62
     7
 66
     1
 10
0.0
 20
0.0
 30
0.0
 70
     1
  0
VERTEX
  5
681
  8
DATA
 62
     7
 10
340.5
 20
28.5
 30
0.0
  0
VERTEX
  5
682
  8
DATA
 62
     7
 10
343.5
 20
28.5
 30
0.0
  0
VERTEX
  5
683
  8
DATA
 62
     7
 10
343.5
 20
25.5
 30
0.0
  0
VERTEX
  5
684
  8
DATA
 62
     7
 10
340.5
 20
25.5
 30
0.0
  0
SEQEND
  5
685
  8
DATA
 62
     7
  0
POLYLINE
  5
257
  8
DATA
 62
     7
 66
     1
 10
0.0
 20
0.0
 30
0.0
 70
     1
  0
VERTEX
  5
686
  8
DATA
 62
     7
 10
340.5
 20
25.5
 30
0.0
  0
VERTEX
  5
687
  8
DATA
 62
     7
 10
343.5
 20
25.5
 30
0.0
  0
VERTEX
  5
688
  8
DATA
 62
     7
 10
343.5
 20
22.5
 30
0.0
  0
VERTEX
  5
689
  8
DATA
 62
     7
 10
340.5
 20
22.5
 30
0.0
  0
SEQEND
  5
68A
  8
DATA
 62
     7
  0
POLYLINE
  5
25D
  8
DATA
 62
     7
 66
     1
 10
0.0
 20
0.0
 30
0.0
 70
     1
  0
VERTEX
  5
68B
  8
DATA
 62
     7
 10
340.5
 20
22.5
 30
0.0
  0
VERTEX
  5
68C
  8
DATA
 62
     7
 10
343.5
 20
22.5
 30
0.0
  0
VERTEX
  5
68D
  8
DATA
 62
     7
 10
343.5
 20
19.5
 30
0.0
  0
VERTEX
  5
68E
  8
DATA
 62
     7
 10
340.5
 20
19.5
 30
0.0
  0
SEQEND
  5
68F
  8
DATA
 62
     7
  0
POLYLINE
  5
263
  8
DATA
 62
     7
 66
     1
 10
0.0
 20
0.0
 30
0.0
 70
     1
  0
VERTEX
  5
690
  8
DATA
 62
     7
 10
340.5
 20
19.5
 30
0.0
  0
VERTEX
  5
691
  8
DATA
 62
     7
 10
343.5
 20
19.5
 30
0.0
  0
VERTEX
  5
692
  8
DATA
 62
     7
 10
343.5
 20
16.5
 30
0.0
  0
VERTEX
  5
693
  8
DATA
 62
     7
 10
340.5
 20
16.5
 30
0.0
  0
SEQEND
  5
694
  8
DATA
 62
     7
  0
POLYLINE
  5
269
  8
DATA
 62
     7
 66
     1
 10
0.0
 20
0.0
 30
0.0
 70
     1
  0
VERTEX
  5
695
  8
DATA
 62
     7
 10
340.5
 20
16.5
 30
0.0
  0
VERTEX
  5
696
  8
DATA
 62
     7
 10
343.5
 20
16.5
 30
0.0
  0
VERTEX
  5
697
  8
DATA
 62
     7
 10
343.5
 20
13.5
 30
0.0
  0
VERTEX
  5
698
  8
DATA
 62
     7
 10
340.5
 20
13.5
 30
0.0
  0
SEQEND
  5
699
  8
DATA
 62
     7
  0
TEXT
  5
26F
  8
DATA
 62
     7
 10
344.06987852520422
 20
29.252103570168451
 30
0.0
 40
2.0
  1
CLIP
 41
0.8
 11
344.06987852520422
 21
31.252103570168451
 31
0.0
 73
     3
  0
TEXT
  5
270
  8
DATA
 62
     7
 10
336.12500005298187
 20
29.252103570168451
 30
0.0
 40
2.0
  1
0dB
 41
0.8
 11
336.12500005298187
 21
31.252103570168451
 31
0.0
 73
     3
  0
TEXT
  5
271
  8
DATA
 62
     7
 10
337.37500008775118
 20
26.252103570168451
 30
0.0
 40
2.0
  1
-1
 41
0.8
 11
337.37500008775118
 21
28.252103570168451
 31
0.0
 73
     3
  0
TEXT
  5
272
  8
DATA
 62
     7
 10
337.37500008775118
 20
23.252103570168451
 30
0.0
 40
2.0
  1
-3
 41
0.8
 11
337.37500008775118
 21
25.252103570168451
 31
0.0
 73
     3
  0
TEXT
  5
273
  8
DATA
 62
     7
 10
337.37500008775118
 20
20.252103570168451
 30
0.0
 40
2.0
  1
-6
 41
0.8
 11
337.37500008775118
 21
22.252103570168451
 31
0.0
 73
     3
  0
TEXT
  5
274
  8
DATA
 62
     7
 10
336.12500026325392
 20
17.252103570168451
 30
0.0
 40
2.0
  1
-12
 41
0.8
 11
336.12500026325392
 21
19.252103570168451
 31
0.0
 73
     3
  0
TEXT
  5
275
  8
DATA
 62
     7
 10
336.12500026325392
 20
14.25210357016846
 30
0.0
 40
2.0
  1
SIG
 41
0.8
 11
336.12500026325392
 21
16.252103570168462
 31
0.0
 73
     3
  0
TEXT
  5
276
  8
DATA
 62
     7
 10
336.0698785252041
 20
4.4521035701684557
 30
0.0
 40
2.7999999999999998
  1
HEADROOM
 41
0.8
 11
336.0698785252041
 21
7.2521035701684573
 31
0.0
 73
     3
  0
TEXT
  5
277
  8
DATA
 62
     7
 10
358.56987852520422
 20
4.2521035701684573
 30
0.0
 40
2.0
  1
4-400 OHMS
 41
0.8
 11
358.56987852520422
 21
6.2521035701684573
 31
0.0
 73
     3
  0
LINE
  5
278
  8
DATA
 62
     7
 10
364.0
 20
23.0
 30
0.0
 11
364.0
 21
30.0
 31
0.0
  0
LINE
  5
279
  8
DATA
 62
     7
 10
411.0
 20
28.25
 30
0.0
 11
411.0
 21
30.0
 31
0.0
  0
LINE
  5
27A
  8
DATA
 62
     7
 10
366.0
 20
32.0
 30
0.0
 11
378.0
 21
32.0
 31
0.0
  0
ARC
  5
27B
  8
DATA
 62
     7
 10
366.0
 20
30.0
 30
0.0
 40
2.0
 50
90.0
 51
180.0
  0
ARC
  5
27C
  8
DATA
 62
     7
 10
409.0
 20
30.0
 30
0.0
 40
2.0
 50
0.0
 51
90.0
  0
TEXT
  5
27D
  8
DATA
 62
     7
 10
379.14453130298187
 20
30.95210357016845
 30
0.0
 40
2.7999999999999998
  1
HEADPHONES
 41
0.8
 11
379.14453130298187
 21
33.752103570168451
 31
0.0
 73
     3
  0
LINE
  5
27E
  8
DATA
 62
     7
 10
409.75
 20
32.0
 30
0.0
 11
397.75
 21
32.0
 31
0.0
  0
LINE
  5
27F
  8
DATA
 62
     7
 10
377.5
 20
11.5
 30
0.0
 11
397.5
 21
11.5
 31
0.0
  0
LINE
  5
280
  8
DATA
 62
     7
 10
377.5
 20
11.5
 30
0.0
 11
387.5
 21
28.820508075688402
 31
0.0
  0
LINE
  5
281
  8
DATA
 62
     7
 10
397.5
 20
11.5
 30
0.0
 11
387.5
 21
28.820508075688402
 31
0.0
  0
LINE
  5
282
  8
DATA
 62
     7
 10
379.5
 20
12.5
 30
0.0
 11
395.5
 21
12.5
 31
0.0
  0
LINE
  5
283
  8
DATA
 62
     7
 10
379.5
 20
12.5
 30
0.0
 11
387.5
 21
26.356406460550719
 31
0.0
  0
LINE
  5
284
  8
DATA
 62
     7
 10
395.5
 20
12.5
 30
0.0
 11
387.5
 21
26.356406460550719
 31
0.0
  0
ARC
  5
285
  8
DATA
 62
     7
 10
385.06350832689628
 20
17.0
 30
0.0
 40
1.250000000000002
 50
328.00144813003612
 51
180.0
  0
ARC
  5
286
  8
DATA
 62
     7
 10
385.06350832689628
 20
17.0
 30
0.0
 40
2.0000000000000071
 50
330.00000000000011
 51
180.0
  0
ARC
  5
287
  8
DATA
 62
     7
 10
388.8093621349218
 20
14.41750782766627
 30
0.0
 40
2.5589534544297279
 50
142.02206715708601
 51
177.770114120876
  0
ARC
  5
288
  8
DATA
 62
     7
 10
384.84979614931689
 20
14.932818700397259
 30
0.0
 40
1.468200342221037
 50
202.7509763427887
 51
341.56505117707769
  0
LINE
  5
289
  8
DATA
 62
     7
 10
389.5
 20
18.5
 30
0.0
 11
389.5
 21
13.5
 31
0.0
  0
LINE
  5
28A
  8
DATA
 62
     7
 10
392.5
 20
17.0
 30
0.0
 11
392.5
 21
15.0
 31
0.0
  0
LINE
  5
28B
  8
DATA
 62
     7
 10
392.5
 20
17.0
 30
0.0
 11
391.0
 21
17.0
 31
0.0
  0
LINE
  5
28C
  8
DATA
 62
     7
 10
392.5
 20
15.0
 30
0.0
 11
391.0
 21
15.0
 31
0.0
  0
LINE
  5
28D
  8
DATA
 62
     7
 10
389.5
 20
13.5
 30
0.0
 11
391.0
 21
15.0
 31
0.0
  0
LINE
  5
28E
  8
DATA
 62
     7
 10
389.5
 20
18.5
 30
0.0
 11
390.96132486540517
 21
17.038675134594818
 31
0.0
  0
LINE
  5
28F
  8
DATA
 62
     7
 10
389.0
 20
14.5
 30
0.0
 11
387.0
 21
13.5
 31
0.0
  0
LINE
  5
290
  8
DATA
 62
     7
 10
389.0
 20
15.5
 30
0.0
 11
387.0
 21
15.0
 31
0.0
  0
LINE
  5
291
  8
DATA
 62
     7
 10
389.0
 20
16.5
 30
0.0
 11
388.0
 21
16.5
 31
0.0
  0
LINE
  5
292
  8
DATA
 62
     7
 10
389.0
 20
17.5
 30
0.0
 11
388.0
 21
18.0
 31
0.0
  0
CIRCLE
  5
293
  8
DATA
 62
     7
 10
387.5
 20
19.5
 30
0.0
 40
0.5
  0
LINE
  5
294
  8
DATA
 62
     7
 10
387.30000000000001
 20
20.5
 30
0.0
 11
386.75
 21
23.0
 31
0.0
  0
LINE
  5
295
  8
DATA
 62
     7
 10
387.69999999999999
 20
20.5
 30
0.0
 11
388.25
 21
23.0
 31
0.0
  0
ARC
  5
296
  8
DATA
 62
     7
 10
387.5
 20
23.0
 30
0.0
 40
0.75
 50
0.0
 51
180.0
  0
ARC
  5
297
  8
DATA
 62
     7
 10
387.5
 20
20.5
 30
0.0
 40
0.1999999999999993
 50
180.0
 51
0.0
  0
TEXT
  5
298
  8
DATA
 62
     7
 10
379.00000039405302
 20
7.055121527777775
 30
0.0
 40
4.0
  1
WARNING
 41
0.8
 11
379.00000039405302
 21
11.05512152777777
 31
0.0
 73
     3
  0
TEXT
  5
299
  8
DATA
 62
     7
 10
379.02951385577518
 20
3.446093749999942
 30
0.0
 40
2.7999999999999998
  1
1 Watt MAX
 41
0.8
 11
379.02951385577518
 21
6.2460937499999432
 31
0.0
 73
     3
  0
LINE
  5
29A
  8
DATA
 62
     7
 10
404.82999999999998
 20
138.5
 30
0.0
 11
417.32999999999998
 21
138.5
 31
0.0
  0
LINE
  5
29B
  8
DATA
 62
     7
 10
404.82999999999998
 20
138.5
 30
0.0
 11
404.82999999999998
 21
139.0
 31
0.0
  0
LINE
  5
29C
  8
DATA
 62
     7
 10
417.32999999999998
 20
138.5
 30
0.0
 11
417.32999999999998
 21
139.0
 31
0.0
  0
LINE
  5
29D
  8
DATA
 62
     7
 10
404.82999999999998
 20
139.0
 30
0.0
 11
417.32999999999998
 21
139.0
 31
0.0
  0
LINE
  5
29E
  8
DATA
 62
     7
 10
404.07999999999993
 20
139.0
 30
0.0
 11
418.07999999999993
 21
139.0
 31
0.0
  0
LINE
  5
29F
  8
DATA
 62
     7
 10
404.07999999999993
 20
139.0
 30
0.0
 11
403.32137931034458
 21
150.0
 31
0.0
  0
LINE
  5
2A0
  8
DATA
 62
     7
 10
418.07999999999993
 20
139.0
 30
0.0
 11
418.8386206896551
 21
150.0
 31
0.0
  0
LINE
  5
2A1
  8
DATA
 62
     7
 10
411.93308540383589
 20
139.0
 30
0.0
 11
411.93308540383589
 21
150.0
 31
0.0
  0
LINE
  5
2A2
  8
DATA
 62
     7
 10
410.22691459616402
 20
139.0
 30
0.0
 11
410.22691459616402
 21
150.0
 31
0.0
  0
LINE
  5
2A3
  8
DATA
 62
     7
 10
416.1013773026126
 20
139.0
 30
0.0
 11
416.48068764743999
 21
150.0
 31
0.0
  0
LINE
  5
2A4
  8
DATA
 62
     7
 10
417.30782225057987
 20
139.0
 30
0.0
 11
417.68713259540738
 21
150.0
 31
0.0
  0
LINE
  5
2A5
  8
DATA
 62
     7
 10
406.05862269738731
 20
139.0
 30
0.0
 11
405.67931235255992
 21
150.0
 31
0.0
  0
LINE
  5
2A6
  8
DATA
 62
     7
 10
404.85217774941992
 20
139.0
 30
0.0
 11
404.47286740459248
 21
150.0
 31
0.0
  0
POLYLINE
  5
2A7
  8
DATA
 62
     7
 66
     1
 10
0.0
 20
0.0
 30
0.0
 70
     1
  0
VERTEX
  5
69A
  8
DATA
 62
     7
 10
410.57999999999998
 20
150.0
 30
0.0
  0
VERTEX
  5
69B
  8
DATA
 62
     7
 10
411.41333333333353
 20
150.0
 30
0.0
  0
VERTEX
  5
69C
  8
DATA
 62
     7
 10
411.41333333333353
 20
138.5
 30
0.0
  0
VERTEX
  5
69D
  8
DATA
 62
     7
 10
410.57999999999998
 20
138.5
 30
0.0
  0
SEQEND
  5
69E
  8
DATA
 62
     7
  0
LINE
  5
2AD
  8
DATA
 62
     7
 10
372.0
 20
149.5
 30
0.0
 11
372.0
 21
150.0
 31
0.0
  0
LINE
  5
2AE
  8
DATA
 62
     7
 10
356.0
 20
149.5
 30
0.0
 11
356.0
 21
150.0
 31
0.0
  0
LINE
  5
2AF
  8
DATA
 62
     7
 10
356.0
 20
149.5
 30
0.0
 11
357.5
 21
148.5
 31
0.0
  0
LINE
  5
2B0
  8
DATA
 62
     7
 10
372.0
 20
149.5
 30
0.0
 11
370.5
 21
148.5
 31
0.0
  0
LINE
  5
2B1
  8
DATA
 62
     7
 10
357.5
 20
148.5
 30
0.0
 11
370.5
 21
148.5
 31
0.0
  0
LINE
  5
2B2
  8
DATA
 62
     7
 10
357.5
 20
148.5
 30
0.0
 11
357.5
 21
147.0
 31
0.0
  0
LINE
  5
2B3
  8
DATA
 62
     7
 10
370.5
 20
148.5
 30
0.0
 11
370.5
 21
147.0
 31
0.0
  0
LINE
  5
2B4
  8
DATA
 62
     7
 10
357.5
 20
147.0
 30
0.0
 11
370.5
 21
147.0
 31
0.0
  0
LINE
  5
2B5
  8
DATA
 62
     7
 10
360.75
 20
146.5
 30
0.0
 11
367.25
 21
146.5
 31
0.0
  0
LINE
  5
2B6
  8
DATA
 62
     7
 10
357.5
 20
147.0
 30
0.0
 11
360.75
 21
146.5
 31
0.0
  0
LINE
  5
2B7
  8
DATA
 62
     7
 10
370.5
 20
147.0
 30
0.0
 11
367.25
 21
146.5
 31
0.0
  0
LINE
  5
2B8
  8
DATA
 62
     7
 10
360.75
 20
147.0
 30
0.0
 11
360.75
 21
148.5
 31
0.0
  0
LINE
  5
2B9
  8
DATA
 62
     7
 10
367.25
 20
147.0
 30
0.0
 11
367.25
 21
148.5
 31
0.0
  0
CIRCLE
  5
2BA
  8
DATA
 62
     7
 10
29.300000000000011
 20
177.0
 30
0.0
 40
2.9999999999999938
  0
POLYLINE
  5
2BB
  8
DATA
 62
     7
 66
     1
 10
0.0
 20
0.0
 30
0.0
  0
VERTEX
  5
69F
  8
DATA
 62
     7
 10
29.800000000000011
 20
177.5
 30
0.0
  0
VERTEX
  5
6A0
  8
DATA
 62
     7
 10
29.800000000000011
 20
179.0
 30
0.0
  0
VERTEX
  5
6A1
  8
DATA
 62
     7
 10
28.800000000000011
 20
179.0
 30
0.0
  0
VERTEX
  5
6A2
  8
DATA
 62
     7
 10
28.800000000000011
 20
177.5
 30
0.0
  0
SEQEND
  5
6A3
  8
DATA
 62
     7
  0
POLYLINE
  5
2C1
  8
DATA
 62
     7
 66
     1
 10
0.0
 20
0.0
 30
0.0
  0
VERTEX
  5
6A4
  8
DATA
 62
     7
 10
29.800000000000011
 20
176.5
 30
0.0
  0
VERTEX
  5
6A5
  8
DATA
 62
     7
 10
29.800000000000011
 20
175.0
 30
0.0
  0
VERTEX
  5
6A6
  8
DATA
 62
     7
 10
28.800000000000011
 20
175.0
 30
0.0
  0
VERTEX
  5
6A7
  8
DATA
 62
     7
 10
28.800000000000011
 20
176.5
 30
0.0
  0
SEQEND
  5
6A8
  8
DATA
 62
     7
  0
POLYLINE
  5
2C7
  8
DATA
 62
     7
 66
     1
 10
0.0
 20
0.0
 30
0.0
  0
VERTEX
  5
6A9
  8
DATA
 62
     7
 10
29.800000000000011
 20
176.5
 30
0.0
  0
VERTEX
  5
6AA
  8
DATA
 62
     7
 10
31.300000000000011
 20
176.5
 30
0.0
  0
VERTEX
  5
6AB
  8
DATA
 62
     7
 10
31.300000000000011
 20
177.5
 30
0.0
  0
VERTEX
  5
6AC
  8
DATA
 62
     7
 10
29.800000000000011
 20
177.5
 30
0.0
  0
SEQEND
  5
6AD
  8
DATA
 62
     7
  0
POLYLINE
  5
2CD
  8
DATA
 62
     7
 66
     1
 10
0.0
 20
0.0
 30
0.0
  0
VERTEX
  5
6AE
  8
DATA
 62
     7
 10
28.800000000000011
 20
176.5
 30
0.0
  0
VERTEX
  5
6AF
  8
DATA
 62
     7
 10
27.300000000000011
 20
176.5
 30
0.0
  0
VERTEX
  5
6B0
  8
DATA
 62
     7
 10
27.300000000000011
 20
177.5
 30
0.0
  0
VERTEX
  5
6B1
  8
DATA
 62
     7
 10
28.800000000000011
 20
177.5
 30
0.0
  0
SEQEND
  5
6B2
  8
DATA
 62
     7
  0
CIRCLE
  5
2D3
  8
DATA
 62
     7
 10
29.300000000000011
 20
177.0
 30
0.0
 40
3.25000000000002
  0
CIRCLE
  5
2D4
  8
DATA
 62
     7
 10
29.300000000000011
 20
305.0
 30
0.0
 40
2.9999999999999938
  0
POLYLINE
  5
2D5
  8
DATA
 62
     7
 66
     1
 10
0.0
 20
0.0
 30
0.0
  0
VERTEX
  5
6B3
  8
DATA
 62
     7
 10
29.800000000000011
 20
305.5
 30
0.0
  0
VERTEX
  5
6B4
  8
DATA
 62
     7
 10
29.800000000000011
 20
307.0
 30
0.0
  0
VERTEX
  5
6B5
  8
DATA
 62
     7
 10
28.800000000000011
 20
307.0
 30
0.0
  0
VERTEX
  5
6B6
  8
DATA
 62
     7
 10
28.800000000000011
 20
305.5
 30
0.0
  0
SEQEND
  5
6B7
  8
DATA
 62
     7
  0
POLYLINE
  5
2DB
  8
DATA
 62
     7
 66
     1
 10
0.0
 20
0.0
 30
0.0
  0
VERTEX
  5
6B8
  8
DATA
 62
     7
 10
29.800000000000011
 20
304.5
 30
0.0
  0
VERTEX
  5
6B9
  8
DATA
 62
     7
 10
29.800000000000011
 20
303.0
 30
0.0
  0
VERTEX
  5
6BA
  8
DATA
 62
     7
 10
28.800000000000011
 20
303.0
 30
0.0
  0
VERTEX
  5
6BB
  8
DATA
 62
     7
 10
28.800000000000011
 20
304.5
 30
0.0
  0
SEQEND
  5
6BC
  8
DATA
 62
     7
  0
POLYLINE
  5
2E1
  8
DATA
 62
     7
 66
     1
 10
0.0
 20
0.0
 30
0.0
  0
VERTEX
  5
6BD
  8
DATA
 62
     7
 10
29.800000000000011
 20
304.5
 30
0.0
  0
VERTEX
  5
6BE
  8
DATA
 62
     7
 10
31.300000000000011
 20
304.5
 30
0.0
  0
VERTEX
  5
6BF
  8
DATA
 62
     7
 10
31.300000000000011
 20
305.5
 30
0.0
  0
VERTEX
  5
6C0
  8
DATA
 62
     7
 10
29.800000000000011
 20
305.5
 30
0.0
  0
SEQEND
  5
6C1
  8
DATA
 62
     7
  0
POLYLINE
  5
2E7
  8
DATA
 62
     7
 66
     1
 10
0.0
 20
0.0
 30
0.0
  0
VERTEX
  5
6C2
  8
DATA
 62
     7
 10
28.800000000000011
 20
304.5
 30
0.0
  0
VERTEX
  5
6C3
  8
DATA
 62
     7
 10
27.300000000000011
 20
304.5
 30
0.0
  0
VERTEX
  5
6C4
  8
DATA
 62
     7
 10
27.300000000000011
 20
305.5
 30
0.0
  0
VERTEX
  5
6C5
  8
DATA
 62
     7
 10
28.800000000000011
 20
305.5
 30
0.0
  0
SEQEND
  5
6C6
  8
DATA
 62
     7
  0
CIRCLE
  5
2ED
  8
DATA
 62
     7
 10
29.300000000000011
 20
305.0
 30
0.0
 40
3.25000000000002
  0
CIRCLE
  5
2EE
  8
DATA
 62
     7
 10
29.300000000000011
 20
427.5
 30
0.0
 40
2.9999999999999938
  0
POLYLINE
  5
2EF
  8
DATA
 62
     7
 66
     1
 10
0.0
 20
0.0
 30
0.0
  0
VERTEX
  5
6C7
  8
DATA
 62
     7
 10
29.800000000000011
 20
428.0
 30
0.0
  0
VERTEX
  5
6C8
  8
DATA
 62
     7
 10
29.800000000000011
 20
429.49999999999989
 30
0.0
  0
VERTEX
  5
6C9
  8
DATA
 62
     7
 10
28.800000000000011
 20
429.49999999999989
 30
0.0
  0
VERTEX
  5
6CA
  8
DATA
 62
     7
 10
28.800000000000011
 20
428.0
 30
0.0
  0
SEQEND
  5
6CB
  8
DATA
 62
     7
  0
POLYLINE
  5
2F5
  8
DATA
 62
     7
 66
     1
 10
0.0
 20
0.0
 30
0.0
  0
VERTEX
  5
6CC
  8
DATA
 62
     7
 10
29.800000000000011
 20
427.0
 30
0.0
  0
VERTEX
  5
6CD
  8
DATA
 62
     7
 10
29.800000000000011
 20
425.49999999999989
 30
0.0
  0
VERTEX
  5
6CE
  8
DATA
 62
     7
 10
28.800000000000011
 20
425.49999999999989
 30
0.0
  0
VERTEX
  5
6CF
  8
DATA
 62
     7
 10
28.800000000000011
 20
427.0
 30
0.0
  0
SEQEND
  5
6D0
  8
DATA
 62
     7
  0
POLYLINE
  5
2FB
  8
DATA
 62
     7
 66
     1
 10
0.0
 20
0.0
 30
0.0
  0
VERTEX
  5
6D1
  8
DATA
 62
     7
 10
29.800000000000011
 20
427.0
 30
0.0
  0
VERTEX
  5
6D2
  8
DATA
 62
     7
 10
31.300000000000011
 20
427.0
 30
0.0
  0
VERTEX
  5
6D3
  8
DATA
 62
     7
 10
31.300000000000011
 20
428.0
 30
0.0
  0
VERTEX
  5
6D4
  8
DATA
 62
     7
 10
29.800000000000011
 20
428.0
 30
0.0
  0
SEQEND
  5
6D5
  8
DATA
 62
     7
  0
POLYLINE
  5
301
  8
DATA
 62
     7
 66
     1
 10
0.0
 20
0.0
 30
0.0
  0
VERTEX
  5
6D6
  8
DATA
 62
     7
 10
28.800000000000011
 20
427.0
 30
0.0
  0
VERTEX
  5
6D7
  8
DATA
 62
     7
 10
27.300000000000011
 20
427.0
 30
0.0
  0
VERTEX
  5
6D8
  8
DATA
 62
     7
 10
27.300000000000011
 20
428.0
 30
0.0
  0
VERTEX
  5
6D9
  8
DATA
 62
     7
 10
28.800000000000011
 20
428.0
 30
0.0
  0
SEQEND
  5
6DA
  8
DATA
 62
     7
  0
CIRCLE
  5
307
  8
DATA
 62
     7
 10
29.300000000000011
 20
427.5
 30
0.0
 40
3.25000000000002
  0
CIRCLE
  5
308
  8
DATA
 62
     7
 10
148.0
 20
157.0
 30
0.0
 40
2.9999999999999938
  0
POLYLINE
  5
309
  8
DATA
 62
     7
 66
     1
 10
0.0
 20
0.0
 30
0.0
  0
VERTEX
  5
6DB
  8
DATA
 62
     7
 10
148.5
 20
157.5
 30
0.0
  0
VERTEX
  5
6DC
  8
DATA
 62
     7
 10
148.5
 20
159.0
 30
0.0
  0
VERTEX
  5
6DD
  8
DATA
 62
     7
 10
147.5
 20
159.0
 30
0.0
  0
VERTEX
  5
6DE
  8
DATA
 62
     7
 10
147.5
 20
157.5
 30
0.0
  0
SEQEND
  5
6DF
  8
DATA
 62
     7
  0
POLYLINE
  5
30F
  8
DATA
 62
     7
 66
     1
 10
0.0
 20
0.0
 30
0.0
  0
VERTEX
  5
6E0
  8
DATA
 62
     7
 10
148.5
 20
156.5
 30
0.0
  0
VERTEX
  5
6E1
  8
DATA
 62
     7
 10
148.5
 20
155.0
 30
0.0
  0
VERTEX
  5
6E2
  8
DATA
 62
     7
 10
147.5
 20
155.0
 30
0.0
  0
VERTEX
  5
6E3
  8
DATA
 62
     7
 10
147.5
 20
156.5
 30
0.0
  0
SEQEND
  5
6E4
  8
DATA
 62
     7
  0
POLYLINE
  5
315
  8
DATA
 62
     7
 66
     1
 10
0.0
 20
0.0
 30
0.0
  0
VERTEX
  5
6E5
  8
DATA
 62
     7
 10
148.5
 20
156.5
 30
0.0
  0
VERTEX
  5
6E6
  8
DATA
 62
     7
 10
150.0
 20
156.5
 30
0.0
  0
VERTEX
  5
6E7
  8
DATA
 62
     7
 10
150.0
 20
157.5
 30
0.0
  0
VERTEX
  5
6E8
  8
DATA
 62
     7
 10
148.5
 20
157.5
 30
0.0
  0
SEQEND
  5
6E9
  8
DATA
 62
     7
  0
POLYLINE
  5
31B
  8
DATA
 62
     7
 66
     1
 10
0.0
 20
0.0
 30
0.0
  0
VERTEX
  5
6EA
  8
DATA
 62
     7
 10
147.5
 20
156.5
 30
0.0
  0
VERTEX
  5
6EB
  8
DATA
 62
     7
 10
146.0
 20
156.5
 30
0.0
  0
VERTEX
  5
6EC
  8
DATA
 62
     7
 10
146.0
 20
157.5
 30
0.0
  0
VERTEX
  5
6ED
  8
DATA
 62
     7
 10
147.5
 20
157.5
 30
0.0
  0
SEQEND
  5
6EE
  8
DATA
 62
     7
  0
CIRCLE
  5
321
  8
DATA
 62
     7
 10
148.0
 20
157.0
 30
0.0
 40
3.25000000000002
  0
CIRCLE
  5
322
  8
DATA
 62
     7
 10
334.0
 20
157.0
 30
0.0
 40
2.9999999999999938
  0
POLYLINE
  5
323
  8
DATA
 62
     7
 66
     1
 10
0.0
 20
0.0
 30
0.0
  0
VERTEX
  5
6EF
  8
DATA
 62
     7
 10
334.5
 20
157.5
 30
0.0
  0
VERTEX
  5
6F0
  8
DATA
 62
     7
 10
334.5
 20
159.0
 30
0.0
  0
VERTEX
  5
6F1
  8
DATA
 62
     7
 10
333.5
 20
159.0
 30
0.0
  0
VERTEX
  5
6F2
  8
DATA
 62
     7
 10
333.5
 20
157.5
 30
0.0
  0
SEQEND
  5
6F3
  8
DATA
 62
     7
  0
POLYLINE
  5
329
  8
DATA
 62
     7
 66
     1
 10
0.0
 20
0.0
 30
0.0
  0
VERTEX
  5
6F4
  8
DATA
 62
     7
 10
334.5
 20
156.5
 30
0.0
  0
VERTEX
  5
6F5
  8
DATA
 62
     7
 10
334.5
 20
155.0
 30
0.0
  0
VERTEX
  5
6F6
  8
DATA
 62
     7
 10
333.5
 20
155.0
 30
0.0
  0
VERTEX
  5
6F7
  8
DATA
 62
     7
 10
333.5
 20
156.5
 30
0.0
  0
SEQEND
  5
6F8
  8
DATA
 62
     7
  0
POLYLINE
  5
32F
  8
DATA
 62
     7
 66
     1
 10
0.0
 20
0.0
 30
0.0
  0
VERTEX
  5
6F9
  8
DATA
 62
     7
 10
334.5
 20
156.5
 30
0.0
  0
VERTEX
  5
6FA
  8
DATA
 62
     7
 10
336.0
 20
156.5
 30
0.0
  0
VERTEX
  5
6FB
  8
DATA
 62
     7
 10
336.0
 20
157.5
 30
0.0
  0
VERTEX
  5
6FC
  8
DATA
 62
     7
 10
334.5
 20
157.5
 30
0.0
  0
SEQEND
  5
6FD
  8
DATA
 62
     7
  0
POLYLINE
  5
335
  8
DATA
 62
     7
 66
     1
 10
0.0
 20
0.0
 30
0.0
  0
VERTEX
  5
6FE
  8
DATA
 62
     7
 10
333.5
 20
156.5
 30
0.0
  0
VERTEX
  5
6FF
  8
DATA
 62
     7
 10
332.0
 20
156.5
 30
0.0
  0
VERTEX
  5
700
  8
DATA
 62
     7
 10
332.0
 20
157.5
 30
0.0
  0
VERTEX
  5
701
  8
DATA
 62
     7
 10
333.5
 20
157.5
 30
0.0
  0
SEQEND
  5
702
  8
DATA
 62
     7
  0
CIRCLE
  5
33B
  8
DATA
 62
     7
 10
334.0
 20
157.0
 30
0.0
 40
3.25000000000002
  0
CIRCLE
  5
33C
  8
DATA
 62
     7
 10
241.30000000000001
 20
435.5
 30
0.0
 40
2.9999999999999938
  0
CIRCLE
  5
33D
  8
DATA
 62
     7
 10
241.30000000000001
 20
435.5
 30
0.0
 40
3.25000000000002
  0
POLYLINE
  5
33E
  8
DATA
 62
     7
 66
     1
 10
0.0
 20
0.0
 30
0.0
  0
VERTEX
  5
703
  8
DATA
 62
     7
 10
241.80000000000001
 20
436.0
 30
0.0
  0
VERTEX
  5
704
  8
DATA
 62
     7
 10
241.80000000000001
 20
437.5
 30
0.0
  0
VERTEX
  5
705
  8
DATA
 62
     7
 10
240.80000000000001
 20
437.5
 30
0.0
  0
VERTEX
  5
706
  8
DATA
 62
     7
 10
240.80000000000001
 20
436.0
 30
0.0
  0
SEQEND
  5
707
  8
DATA
 62
     7
  0
POLYLINE
  5
344
  8
DATA
 62
     7
 66
     1
 10
0.0
 20
0.0
 30
0.0
  0
VERTEX
  5
708
  8
DATA
 62
     7
 10
241.80000000000001
 20
435.0
 30
0.0
  0
VERTEX
  5
709
  8
DATA
 62
     7
 10
241.80000000000001
 20
433.49999999999989
 30
0.0
  0
VERTEX
  5
70A
  8
DATA
 62
     7
 10
240.80000000000001
 20
433.49999999999989
 30
0.0
  0
VERTEX
  5
70B
  8
DATA
 62
     7
 10
240.80000000000001
 20
435.0
 30
0.0
  0
SEQEND
  5
70C
  8
DATA
 62
     7
  0
POLYLINE
  5
34A
  8
DATA
 62
     7
 66
     1
 10
0.0
 20
0.0
 30
0.0
  0
VERTEX
  5
70D
  8
DATA
 62
     7
 10
241.80000000000001
 20
435.0
 30
0.0
  0
VERTEX
  5
70E
  8
DATA
 62
     7
 10
243.30000000000001
 20
435.0
 30
0.0
  0
VERTEX
  5
70F
  8
DATA
 62
     7
 10
243.30000000000001
 20
436.0
 30
0.0
  0
VERTEX
  5
710
  8
DATA
 62
     7
 10
241.80000000000001
 20
436.0
 30
0.0
  0
SEQEND
  5
711
  8
DATA
 62
     7
  0
POLYLINE
  5
350
  8
DATA
 62
     7
 66
     1
 10
0.0
 20
0.0
 30
0.0
  0
VERTEX
  5
712
  8
DATA
 62
     7
 10
240.80000000000001
 20
435.0
 30
0.0
  0
VERTEX
  5
713
  8
DATA
 62
     7
 10
239.30000000000001
 20
435.0
 30
0.0
  0
VERTEX
  5
714
  8
DATA
 62
     7
 10
239.30000000000001
 20
436.0
 30
0.0
  0
VERTEX
  5
715
  8
DATA
 62
     7
 10
240.80000000000001
 20
436.0
 30
0.0
  0
SEQEND
  5
716
  8
DATA
 62
     7
  0
CIRCLE
  5
356
  8
DATA
 62
     7
 10
522.5
 20
36.0
 30
0.0
 40
3.0
  0
POLYLINE
  5
357
  8
DATA
 62
     7
 66
     1
 10
0.0
 20
0.0
 30
0.0
  0
VERTEX
  5
717
  8
DATA
 62
     7
 10
522.0
 20
35.5
 30
0.0
  0
VERTEX
  5
718
  8
DATA
 62
     7
 10
522.0
 20
34.0
 30
0.0
  0
VERTEX
  5
719
  8
DATA
 62
     7
 10
523.0
 20
34.0
 30
0.0
  0
VERTEX
  5
71A
  8
DATA
 62
     7
 10
523.0
 20
35.5
 30
0.0
  0
SEQEND
  5
71B
  8
DATA
 62
     7
  0
POLYLINE
  5
35D
  8
DATA
 62
     7
 66
     1
 10
0.0
 20
0.0
 30
0.0
  0
VERTEX
  5
71C
  8
DATA
 62
     7
 10
522.0
 20
36.5
 30
0.0
  0
VERTEX
  5
71D
  8
DATA
 62
     7
 10
522.0
 20
38.0
 30
0.0
  0
VERTEX
  5
71E
  8
DATA
 62
     7
 10
523.0
 20
38.0
 30
0.0
  0
VERTEX
  5
71F
  8
DATA
 62
     7
 10
523.0
 20
36.5
 30
0.0
  0
SEQEND
  5
720
  8
DATA
 62
     7
  0
POLYLINE
  5
363
  8
DATA
 62
     7
 66
     1
 10
0.0
 20
0.0
 30
0.0
  0
VERTEX
  5
721
  8
DATA
 62
     7
 10
523.0
 20
35.5
 30
0.0
  0
VERTEX
  5
722
  8
DATA
 62
     7
 10
524.5
 20
35.5
 30
0.0
  0
VERTEX
  5
723
  8
DATA
 62
     7
 10
524.5
 20
36.5
 30
0.0
  0
VERTEX
  5
724
  8
DATA
 62
     7
 10
523.0
 20
36.5
 30
0.0
  0
SEQEND
  5
725
  8
DATA
 62
     7
  0
POLYLINE
  5
369
  8
DATA
 62
     7
 66
     1
 10
0.0
 20
0.0
 30
0.0
  0
VERTEX
  5
726
  8
DATA
 62
     7
 10
522.0
 20
35.5
 30
0.0
  0
VERTEX
  5
727
  8
DATA
 62
     7
 10
520.5
 20
35.5
 30
0.0
  0
VERTEX
  5
728
  8
DATA
 62
     7
 10
520.5
 20
36.5
 30
0.0
  0
VERTEX
  5
729
  8
DATA
 62
     7
 10
522.0
 20
36.5
 30
0.0
  0
SEQEND
  5
72A
  8
DATA
 62
     7
  0
CIRCLE
  5
36F
  8
DATA
 62
     7
 10
547.0
 20
8.0
 30
0.0
 40
3.0
  0
POLYLINE
  5
370
  8
DATA
 62
     7
 66
     1
 10
0.0
 20
0.0
 30
0.0
  0
VERTEX
  5
72B
  8
DATA
 62
     7
 10
546.49999999999989
 20
7.5
 30
0.0
  0
VERTEX
  5
72C
  8
DATA
 62
     7
 10
546.49999999999989
 20
6.0
 30
0.0
  0
VERTEX
  5
72D
  8
DATA
 62
     7
 10
547.5
 20
6.0
 30
0.0
  0
VERTEX
  5
72E
  8
DATA
 62
     7
 10
547.5
 20
7.5
 30
0.0
  0
SEQEND
  5
72F
  8
DATA
 62
     7
  0
POLYLINE
  5
376
  8
DATA
 62
     7
 66
     1
 10
0.0
 20
0.0
 30
0.0
  0
VERTEX
  5
730
  8
DATA
 62
     7
 10
546.49999999999989
 20
8.5
 30
0.0
  0
VERTEX
  5
731
  8
DATA
 62
     7
 10
546.49999999999989
 20
10.0
 30
0.0
  0
VERTEX
  5
732
  8
DATA
 62
     7
 10
547.5
 20
10.0
 30
0.0
  0
VERTEX
  5
733
  8
DATA
 62
     7
 10
547.5
 20
8.5
 30
0.0
  0
SEQEND
  5
734
  8
DATA
 62
     7
  0
POLYLINE
  5
37C
  8
DATA
 62
     7
 66
     1
 10
0.0
 20
0.0
 30
0.0
  0
VERTEX
  5
735
  8
DATA
 62
     7
 10
547.5
 20
7.5
 30
0.0
  0
VERTEX
  5
736
  8
DATA
 62
     7
 10
549.0
 20
7.5
 30
0.0
  0
VERTEX
  5
737
  8
DATA
 62
     7
 10
549.0
 20
8.5
 30
0.0
  0
VERTEX
  5
738
  8
DATA
 62
     7
 10
547.5
 20
8.5
 30
0.0
  0
SEQEND
  5
739
  8
DATA
 62
     7
  0
POLYLINE
  5
382
  8
DATA
 62
     7
 66
     1
 10
0.0
 20
0.0
 30
0.0
  0
VERTEX
  5
73A
  8
DATA
 62
     7
 10
546.49999999999989
 20
7.5
 30
0.0
  0
VERTEX
  5
73B
  8
DATA
 62
     7
 10
545.0
 20
7.5
 30
0.0
  0
VERTEX
  5
73C
  8
DATA
 62
     7
 10
545.0
 20
8.5
 30
0.0
  0
VERTEX
  5
73D
  8
DATA
 62
     7
 10
546.49999999999989
 20
8.5
 30
0.0
  0
SEQEND
  5
73E
  8
DATA
 62
     7
  0
LINE
  5
388
  8
DATA
 62
     7
 10
457.30000000000001
 20
166.5
 30
0.0
 11
457.30000000000001
 21
160.5
 31
0.0
  0
LINE
  5
389
  8
DATA
 62
     7
 10
457.30000000000001
 20
166.5
 30
0.0
 11
458.80000000000001
 21
166.5
 31
0.0
  0
LINE
  5
38A
  8
DATA
 62
     7
 10
458.80000000000001
 20
160.5
 30
0.0
 11
457.30000000000001
 21
160.5
 31
0.0
  0
LINE
  5
38B
  8
DATA
 62
     7
 10
457.85000000000002
 20
166.5
 30
0.0
 11
457.85000000000002
 21
160.5
 31
0.0
  0
LINE
  5
38C
  8
DATA
 62
     7
 10
459.7999999999999
 20
165.5
 30
0.0
 11
459.7999999999999
 21
161.5
 31
0.0
  0
ARC
  5
38D
  8
DATA
 62
     7
 10
458.80000000000001
 20
165.5
 30
0.0
 40
1.0
 50
0.0
 51
90.0
  0
ARC
  5
38E
  8
DATA
 62
     7
 10
458.80000000000001
 20
161.5
 30
0.0
 40
1.0
 50
270.0
 51
0.0
  0
LINE
  5
38F
  8
DATA
 62
     7
 10
457.30000000000001
 20
191.0
 30
0.0
 11
457.30000000000001
 21
185.0
 31
0.0
  0
LINE
  5
390
  8
DATA
 62
     7
 10
457.30000000000001
 20
191.0
 30
0.0
 11
458.80000000000001
 21
191.0
 31
0.0
  0
LINE
  5
391
  8
DATA
 62
     7
 10
458.80000000000001
 20
185.0
 30
0.0
 11
457.30000000000001
 21
185.0
 31
0.0
  0
LINE
  5
392
  8
DATA
 62
     7
 10
457.85000000000002
 20
191.0
 30
0.0
 11
457.85000000000002
 21
185.0
 31
0.0
  0
LINE
  5
393
  8
DATA
 62
     7
 10
459.7999999999999
 20
190.0
 30
0.0
 11
459.7999999999999
 21
186.0
 31
0.0
  0
ARC
  5
394
  8
DATA
 62
     7
 10
458.80000000000001
 20
190.0
 30
0.0
 40
1.0
 50
0.0
 51
90.0
  0
ARC
  5
395
  8
DATA
 62
     7
 10
458.80000000000001
 20
186.0
 30
0.0
 40
1.0
 50
270.0
 51
0.0
  0
LINE
  5
396
  8
DATA
 62
     7
 10
25.300000000000011
 20
166.5
 30
0.0
 11
25.300000000000011
 21
160.5
 31
0.0
  0
LINE
  5
397
  8
DATA
 62
     7
 10
25.300000000000011
 20
166.5
 30
0.0
 11
23.800000000000011
 21
166.5
 31
0.0
  0
LINE
  5
398
  8
DATA
 62
     7
 10
23.800000000000011
 20
160.5
 30
0.0
 11
25.300000000000011
 21
160.5
 31
0.0
  0
LINE
  5
399
  8
DATA
 62
     7
 10
24.75
 20
166.5
 30
0.0
 11
24.75
 21
160.5
 31
0.0
  0
LINE
  5
39A
  8
DATA
 62
     7
 10
22.800000000000011
 20
165.5
 30
0.0
 11
22.800000000000011
 21
161.5
 31
0.0
  0
ARC
  5
39B
  8
DATA
 62
     7
 10
23.800000000000011
 20
165.5
 30
0.0
 40
1.0
 50
90.0
 51
180.0
  0
ARC
  5
39C
  8
DATA
 62
     7
 10
23.800000000000011
 20
161.5
 30
0.0
 40
1.0
 50
180.0
 51
270.0
  0
LINE
  5
39D
  8
DATA
 62
     7
 10
25.300000000000011
 20
191.0
 30
0.0
 11
25.300000000000011
 21
185.0
 31
0.0
  0
LINE
  5
39E
  8
DATA
 62
     7
 10
25.300000000000011
 20
191.0
 30
0.0
 11
23.800000000000011
 21
191.0
 31
0.0
  0
LINE
  5
39F
  8
DATA
 62
     7
 10
23.800000000000011
 20
185.0
 30
0.0
 11
25.300000000000011
 21
185.0
 31
0.0
  0
LINE
  5
3A0
  8
DATA
 62
     7
 10
24.75
 20
191.0
 30
0.0
 11
24.75
 21
185.0
 31
0.0
  0
LINE
  5
3A1
  8
DATA
 62
     7
 10
22.800000000000011
 20
190.0
 30
0.0
 11
22.800000000000011
 21
186.0
 31
0.0
  0
ARC
  5
3A2
  8
DATA
 62
     7
 10
23.800000000000011
 20
190.0
 30
0.0
 40
1.0
 50
90.0
 51
180.0
  0
ARC
  5
3A3
  8
DATA
 62
     7
 10
23.800000000000011
 20
186.0
 30
0.0
 40
1.0
 50
180.0
 51
270.0
  0
LINE
  5
3A4
  8
DATA
 62
     7
 10
47.300000000000011
 20
574.75
 30
0.0
 11
69.300000000000011
 21
574.75
 31
0.0
  0
LINE
  5
3A5
  8
DATA
 62
     7
 10
73.300000000000026
 20
570.75
 30
0.0
 11
73.300000000000026
 21
557.24999999999989
 31
0.0
  0
LINE
  5
3A6
  8
DATA
 62
     7
 10
43.299999999999997
 20
570.75
 30
0.0
 11
43.299999999999997
 21
557.24999999999989
 31
0.0
  0
LINE
  5
3A7
  8
DATA
 62
     7
 10
47.300000000000011
 20
553.24999999999989
 30
0.0
 11
69.300000000000011
 21
553.24999999999989
 31
0.0
  0
ARC
  5
3A8
  8
DATA
 62
     7
 10
47.300000000000011
 20
570.75
 30
0.0
 40
4.0
 50
90.0
 51
180.0
  0
ARC
  5
3A9
  8
DATA
 62
     7
 10
69.300000000000011
 20
570.75
 30
0.0
 40
4.0
 50
0.0
 51
90.0
  0
ARC
  5
3AA
  8
DATA
 62
     7
 10
69.300000000000011
 20
557.24999999999989
 30
0.0
 40
4.0
 50
270.0
 51
0.0
  0
ARC
  5
3AB
  8
DATA
 62
     7
 10
47.300000000000011
 20
557.24999999999989
 30
0.0
 40
4.0
 50
180.0
 51
270.0
  0
LINE
  5
3AC
  8
DATA
 62
     7
 10
70.400000000000034
 20
570.10000000000002
 30
0.0
 11
70.400000000000034
 21
560.94878048780515
 31
0.0
  0
LINE
  5
3AD
  8
DATA
 62
     7
 10
65.400000000000034
 20
555.89999999999998
 30
0.0
 11
51.199999999999989
 21
555.89999999999998
 31
0.0
  0
LINE
  5
3AE
  8
DATA
 62
     7
 10
46.199999999999989
 20
560.94878048780515
 30
0.0
 11
46.199999999999989
 21
570.10000000000002
 31
0.0
  0
LINE
  5
3AF
  8
DATA
 62
     7
 10
48.199999999999989
 20
572.10000000000002
 30
0.0
 11
68.400000000000034
 21
572.10000000000002
 31
0.0
  0
LINE
  5
3B0
  8
DATA
 62
     7
 10
51.199999999999989
 20
555.89999999999998
 30
0.0
 11
46.199999999999989
 21
560.94878048780515
 31
0.0
  0
LINE
  5
3B1
  8
DATA
 62
     7
 10
65.400000000000034
 20
555.89999999999998
 30
0.0
 11
70.400000000000034
 21
560.94878048780515
 31
0.0
  0
POLYLINE
  5
3B2
  8
DATA
 62
     7
 66
     1
 10
0.0
 20
0.0
 30
0.0
 70
     1
  0
VERTEX
  5
73F
  8
DATA
 62
     7
 10
57.300000000000011
 20
564.39999999999998
 30
0.0
  0
VERTEX
  5
740
  8
DATA
 62
     7
 10
59.300000000000011
 20
564.39999999999998
 30
0.0
  0
VERTEX
  5
741
  8
DATA
 62
     7
 10
59.300000000000011
 20
560.39999999999998
 30
0.0
  0
VERTEX
  5
742
  8
DATA
 62
     7
 10
57.300000000000011
 20
560.39999999999998
 30
0.0
  0
SEQEND
  5
743
  8
DATA
 62
     7
  0
POLYLINE
  5
3B8
  8
DATA
 62
     7
 66
     1
 10
0.0
 20
0.0
 30
0.0
 70
     1
  0
VERTEX
  5
744
  8
DATA
 62
     7
 10
64.300000000000011
 20
568.39999999999998
 30
0.0
  0
VERTEX
  5
745
  8
DATA
 62
     7
 10
66.300000000000011
 20
568.39999999999998
 30
0.0
  0
VERTEX
  5
746
  8
DATA
 62
     7
 10
66.300000000000011
 20
564.39999999999998
 30
0.0
  0
VERTEX
  5
747
  8
DATA
 62
     7
 10
64.300000000000011
 20
564.39999999999998
 30
0.0
  0
SEQEND
  5
748
  8
DATA
 62
     7
  0
POLYLINE
  5
3BE
  8
DATA
 62
     7
 66
     1
 10
0.0
 20
0.0
 30
0.0
 70
     1
  0
VERTEX
  5
749
  8
DATA
 62
     7
 10
50.300000000000011
 20
568.39999999999998
 30
0.0
  0
VERTEX
  5
74A
  8
DATA
 62
     7
 10
52.300000000000011
 20
568.39999999999998
 30
0.0
  0
VERTEX
  5
74B
  8
DATA
 62
     7
 10
52.300000000000011
 20
564.39999999999998
 30
0.0
  0
VERTEX
  5
74C
  8
DATA
 62
     7
 10
50.300000000000011
 20
564.39999999999998
 30
0.0
  0
SEQEND
  5
74D
  8
DATA
 62
     7
  0
CIRCLE
  5
3C4
  8
DATA
 62
     7
 10
78.300000000000026
 20
564.0
 30
0.0
 40
2.7500000000000049
  0
CIRCLE
  5
3C5
  8
DATA
 62
     7
 10
38.300000000000011
 20
564.0
 30
0.0
 40
2.7500000000000049
  0
ARC
  5
3C6
  8
DATA
 62
     7
 10
48.199999999999989
 20
570.10000000000002
 30
0.0
 40
2.000000000000028
 50
90.0
 51
180.0
  0
ARC
  5
3C7
  8
DATA
 62
     7
 10
68.400000000000034
 20
570.10000000000002
 30
0.0
 40
2.0
 50
0.0
 51
90.0
  0
POLYLINE
  5
3C8
  8
DATA
 62
     7
 66
     1
 10
0.0
 20
0.0
 30
0.0
  0
VERTEX
  5
74E
  8
DATA
 62
     7
 10
38.800000000000011
 20
563.49999999999989
 30
0.0
  0
VERTEX
  5
74F
  8
DATA
 62
     7
 10
40.300000000000011
 20
563.49999999999989
 30
0.0
  0
VERTEX
  5
750
  8
DATA
 62
     7
 10
40.300000000000011
 20
564.5
 30
0.0
  0
VERTEX
  5
751
  8
DATA
 62
     7
 10
38.800000000000011
 20
564.5
 30
0.0
  0
SEQEND
  5
752
  8
DATA
 62
     7
  0
POLYLINE
  5
3CE
  8
DATA
 62
     7
 66
     1
 10
0.0
 20
0.0
 30
0.0
  0
VERTEX
  5
753
  8
DATA
 62
     7
 10
37.800000000000011
 20
563.49999999999989
 30
0.0
  0
VERTEX
  5
754
  8
DATA
 62
     7
 10
36.300000000000011
 20
563.49999999999989
 30
0.0
  0
VERTEX
  5
755
  8
DATA
 62
     7
 10
36.300000000000011
 20
564.5
 30
0.0
  0
VERTEX
  5
756
  8
DATA
 62
     7
 10
37.800000000000011
 20
564.5
 30
0.0
  0
SEQEND
  5
757
  8
DATA
 62
     7
  0
POLYLINE
  5
3D4
  8
DATA
 62
     7
 66
     1
 10
0.0
 20
0.0
 30
0.0
  0
VERTEX
  5
758
  8
DATA
 62
     7
 10
38.800000000000011
 20
564.5
 30
0.0
  0
VERTEX
  5
759
  8
DATA
 62
     7
 10
38.800000000000011
 20
566.0
 30
0.0
  0
VERTEX
  5
75A
  8
DATA
 62
     7
 10
37.800000000000011
 20
566.0
 30
0.0
  0
VERTEX
  5
75B
  8
DATA
 62
     7
 10
37.800000000000011
 20
564.5
 30
0.0
  0
SEQEND
  5
75C
  8
DATA
 62
     7
  0
POLYLINE
  5
3DA
  8
DATA
 62
     7
 66
     1
 10
0.0
 20
0.0
 30
0.0
  0
VERTEX
  5
75D
  8
DATA
 62
     7
 10
38.800000000000011
 20
563.49999999999989
 30
0.0
  0
VERTEX
  5
75E
  8
DATA
 62
     7
 10
38.800000000000011
 20
562.0
 30
0.0
  0
VERTEX
  5
75F
  8
DATA
 62
     7
 10
37.800000000000011
 20
562.0
 30
0.0
  0
VERTEX
  5
760
  8
DATA
 62
     7
 10
37.800000000000011
 20
563.49999999999989
 30
0.0
  0
SEQEND
  5
761
  8
DATA
 62
     7
  0
POLYLINE
  5
3E0
  8
DATA
 62
     7
 66
     1
 10
0.0
 20
0.0
 30
0.0
  0
VERTEX
  5
762
  8
DATA
 62
     7
 10
78.800000000000026
 20
563.49999999999989
 30
0.0
  0
VERTEX
  5
763
  8
DATA
 62
     7
 10
80.300000000000026
 20
563.49999999999989
 30
0.0
  0
VERTEX
  5
764
  8
DATA
 62
     7
 10
80.300000000000026
 20
564.5
 30
0.0
  0
VERTEX
  5
765
  8
DATA
 62
     7
 10
78.800000000000026
 20
564.5
 30
0.0
  0
SEQEND
  5
766
  8
DATA
 62
     7
  0
POLYLINE
  5
3E6
  8
DATA
 62
     7
 66
     1
 10
0.0
 20
0.0
 30
0.0
  0
VERTEX
  5
767
  8
DATA
 62
     7
 10
77.800000000000026
 20
563.49999999999989
 30
0.0
  0
VERTEX
  5
768
  8
DATA
 62
     7
 10
76.300000000000026
 20
563.49999999999989
 30
0.0
  0
VERTEX
  5
769
  8
DATA
 62
     7
 10
76.300000000000026
 20
564.5
 30
0.0
  0
VERTEX
  5
76A
  8
DATA
 62
     7
 10
77.800000000000026
 20
564.5
 30
0.0
  0
SEQEND
  5
76B
  8
DATA
 62
     7
  0
POLYLINE
  5
3EC
  8
DATA
 62
     7
 66
     1
 10
0.0
 20
0.0
 30
0.0
  0
VERTEX
  5
76C
  8
DATA
 62
     7
 10
78.800000000000026
 20
564.5
 30
0.0
  0
VERTEX
  5
76D
  8
DATA
 62
     7
 10
78.800000000000026
 20
566.0
 30
0.0
  0
VERTEX
  5
76E
  8
DATA
 62
     7
 10
77.800000000000026
 20
566.0
 30
0.0
  0
VERTEX
  5
76F
  8
DATA
 62
     7
 10
77.800000000000026
 20
564.5
 30
0.0
  0
SEQEND
  5
770
  8
DATA
 62
     7
  0
POLYLINE
  5
3F2
  8
DATA
 62
     7
 66
     1
 10
0.0
 20
0.0
 30
0.0
  0
VERTEX
  5
771
  8
DATA
 62
     7
 10
78.800000000000026
 20
563.49999999999989
 30
0.0
  0
VERTEX
  5
772
  8
DATA
 62
     7
 10
78.800000000000026
 20
562.0
 30
0.0
  0
VERTEX
  5
773
  8
DATA
 62
     7
 10
77.800000000000026
 20
562.0
 30
0.0
  0
VERTEX
  5
774
  8
DATA
 62
     7
 10
77.800000000000026
 20
563.49999999999989
 30
0.0
  0
SEQEND
  5
775
  8
DATA
 62
     7
  0
ARC
  5
3F8
  8
DATA
 62
     7
 10
38.300000000000011
 20
564.0
 30
0.0
 40
3.9999999999999938
 50
128.6821874532674
 51
231.31781254715929
  0
LINE
  5
3F9
  8
DATA
 62
     7
 10
44.138318729286702
 20
553.24999999999989
 30
0.0
 11
72.461681270713314
 21
553.24999999999989
 31
0.0
  0
LINE
  5
3FA
  8
DATA
 62
     7
 10
42.712236226974468
 20
553.84775583559826
 30
0.0
 11
35.800000000000011
 21
560.87750100080075
 31
0.0
  0
LINE
  5
3FB
  8
DATA
 62
     7
 10
73.887763773025554
 20
553.84775583559826
 30
0.0
 11
80.800000000000026
 21
560.87750100080075
 31
0.0
  0
LINE
  5
3FC
  8
DATA
 62
     7
 10
44.138318729286773
 20
574.75
 30
0.0
 11
72.461681270713314
 21
574.75
 31
0.0
  0
LINE
  5
3FD
  8
DATA
 62
     7
 10
42.712236226974532
 20
574.15224416440174
 30
0.0
 11
35.800000000000011
 21
567.12249899919925
 31
0.0
  0
LINE
  5
3FE
  8
DATA
 62
     7
 10
73.887763773025554
 20
574.15224416440174
 30
0.0
 11
80.800000000000026
 21
567.12249899919925
 31
0.0
  0
ARC
  5
3FF
  8
DATA
 62
     7
 10
78.300000000000026
 20
564.0
 30
0.0
 40
3.999999999999996
 50
308.68218745284071
 51
51.317812546732689
  0
ARC
  5
400
  8
DATA
 62
     7
 10
44.138318729286773
 20
572.75
 30
0.0
 40
2.0
 50
90.0
 51
135.48290171997539
  0
ARC
  5
401
  8
DATA
 62
     7
 10
72.46168127071337
 20
572.75
 30
0.0
 40
1.9999999999999549
 50
44.517098280025749
 51
90.000000000001606
  0
ARC
  5
402
  8
DATA
 62
     7
 10
44.138318729286652
 20
555.25
 30
0.0
 40
1.9999999999999549
 50
224.51709828002569
 51
270.00000000000159
  0
ARC
  5
403
  8
DATA
 62
     7
 10
72.461681270713314
 20
555.25
 30
0.0
 40
2.0
 50
270.0
 51
315.48290171997542
  0
CIRCLE
  5
404
  8
DATA
 62
     7
 10
102.3
 20
570.0
 30
0.0
 40
7.5000000000000071
  0
POLYLINE
  5
405
  8
DATA
 62
     7
 66
     1
 10
0.0
 20
0.0
 30
0.0
 70
     1
  0
VERTEX
  5
776
  8
DATA
 62
     7
 10
101.8
 20
572.5
 30
0.0
  0
VERTEX
  5
777
  8
DATA
 62
     7
 10
102.8
 20
572.5
 30
0.0
  0
VERTEX
  5
778
  8
DATA
 62
     7
 10
102.8
 20
567.49999999999989
 30
0.0
  0
VERTEX
  5
779
  8
DATA
 62
     7
 10
101.8
 20
567.49999999999989
 30
0.0
  0
SEQEND
  5
77A
  8
DATA
 62
     7
  0
CIRCLE
  5
40B
  8
DATA
 62
     7
 10
102.3
 20
570.0
 30
0.0
 40
4.500000000000024
  0
POLYLINE
  5
40C
  8
DATA
 62
     7
 66
     1
 10
0.0
 20
0.0
 30
0.0
 70
     1
  0
VERTEX
  5
77B
  8
DATA
 62
     7
 10
146.30000000000001
 20
572.0
 30
0.0
  0
VERTEX
  5
77C
  8
DATA
 62
     7
 10
161.30000000000001
 20
572.0
 30
0.0
  0
VERTEX
  5
77D
  8
DATA
 62
     7
 10
161.30000000000001
 20
564.0
 30
0.0
  0
VERTEX
  5
77E
  8
DATA
 62
     7
 10
146.30000000000001
 20
564.0
 30
0.0
  0
SEQEND
  5
77F
  8
DATA
 62
     7
  0
POLYLINE
  5
412
  8
DATA
 62
     7
 66
     1
 10
0.0
 20
0.0
 30
0.0
 70
     1
  0
VERTEX
  5
780
  8
DATA
 62
     7
 10
147.30000000000001
 20
570.5
 30
0.0
  0
VERTEX
  5
781
  8
DATA
 62
     7
 10
152.30000000000001
 20
570.5
 30
0.0
  0
VERTEX
  5
782
  8
DATA
 62
     7
 10
152.30000000000001
 20
565.5
 30
0.0
  0
VERTEX
  5
783
  8
DATA
 62
     7
 10
147.30000000000001
 20
565.5
 30
0.0
  0
SEQEND
  5
784
  8
DATA
 62
     7
  0
TEXT
  5
418
  8
DATA
 62
     7
 10
153.75
 20
570.84548612104516
 30
0.0
 40
2.7999999999999998
  1
120
 50
270.0
 41
0.8
 11
156.55000000000001
 21
570.84548612104516
 31
0.0
 73
     3
  0
LINE
  5
419
  8
DATA
 62
     7
 10
32.300000000000011
 20
577.5
 30
0.0
 11
32.300000000000011
 21
549.5
 31
0.0
  0
LINE
  5
41A
  8
DATA
 62
     7
 10
166.30000000000001
 20
577.5
 30
0.0
 11
166.30000000000001
 21
549.5
 31
0.0
  0
LINE
  5
41B
  8
DATA
 62
     7
 10
34.300000000000011
 20
579.49999999999989
 30
0.0
 11
164.30000000000001
 21
579.49999999999989
 31
0.0
  0
LINE
  5
41C
  8
DATA
 62
     7
 10
164.30000000000001
 20
547.5
 30
0.0
 11
112.6660254037844
 21
547.5
 31
0.0
  0
LINE
  5
41D
  8
DATA
 62
     7
 10
91.933974596215592
 20
547.5
 30
0.0
 11
73.300000000000026
 21
547.5
 31
0.0
  0
LINE
  5
41E
  8
DATA
 62
     7
 10
43.299999999999997
 20
547.5
 30
0.0
 11
34.300000000000011
 21
547.5
 31
0.0
  0
LINE
  5
41F
  8
DATA
 62
     7
 10
92.799999999999983
 20
547.0
 30
0.0
 11
111.8
 21
547.0
 31
0.0
  0
LINE
  5
420
  8
DATA
 62
     7
 10
91.799999999999983
 20
548.0
 30
0.0
 11
91.799999999999983
 21
560.0
 31
0.0
  0
LINE
  5
421
  8
DATA
 62
     7
 10
92.799999999999983
 20
561.0
 30
0.0
 11
111.8
 21
561.0
 31
0.0
  0
LINE
  5
422
  8
DATA
 62
     7
 10
112.8
 20
560.0
 30
0.0
 11
112.8
 21
548.0
 31
0.0
  0
LINE
  5
423
  8
DATA
 62
     7
 10
94.299999999999983
 20
548.74999999999989
 30
0.0
 11
94.299999999999983
 21
559.25
 31
0.0
  0
LINE
  5
424
  8
DATA
 62
     7
 10
94.299999999999983
 20
559.25
 30
0.0
 11
109.8
 21
559.25
 31
0.0
  0
LINE
  5
425
  8
DATA
 62
     7
 10
109.8
 20
559.25
 30
0.0
 11
109.8
 21
548.74999999999989
 31
0.0
  0
LINE
  5
426
  8
DATA
 62
     7
 10
109.8
 20
548.74999999999989
 30
0.0
 11
94.299999999999983
 21
548.74999999999989
 31
0.0
  0
LINE
  5
427
  8
DATA
 62
     7
 10
106.8
 20
548.74999999999989
 30
0.0
 11
106.8
 21
559.25
 31
0.0
  0
LINE
  5
428
  8
DATA
 62
     7
 10
95.299999999999983
 20
554.0
 30
0.0
 11
99.299999999999983
 21
554.0
 31
0.0
  0
CIRCLE
  5
429
  8
DATA
 62
     7
 10
104.1228756555323
 20
554.0
 30
0.0
 40
1.4999999999999749
  0
ARC
  5
42A
  8
DATA
 62
     7
 10
92.799999999999983
 20
548.0
 30
0.0
 40
1.0
 50
180.0
 51
270.0
  0
ARC
  5
42B
  8
DATA
 62
     7
 10
111.8
 20
548.0
 30
0.0
 40
1.0
 50
270.0
 51
0.0
  0
ARC
  5
42C
  8
DATA
 62
     7
 10
111.8
 20
560.0
 30
0.0
 40
1.0
 50
0.0
 51
90.0
  0
ARC
  5
42D
  8
DATA
 62
     7
 10
92.799999999999983
 20
560.0
 30
0.0
 40
1.0
 50
90.0
 51
180.0
  0
TEXT
  5
42E
  8
DATA
 62
     7
 10
96.609027824137073
 20
577.92887879427735
 30
0.0
 40
2.7999999999999998
  1
AC FUSE
 50
180.0
 41
0.8
 11
96.609027824137073
 21
575.12887879427728
 31
0.0
 73
     3
  0
LINE
  5
42F
  8
DATA
 62
     7
 10
44.300000000000011
 20
544.5
 30
0.0
 11
72.300000000000026
 21
544.5
 31
0.0
  0
LINE
  5
430
  8
DATA
 62
     7
 10
43.299999999999997
 20
545.5
 30
0.0
 11
43.299999999999997
 21
547.5
 31
0.0
  0
LINE
  5
431
  8
DATA
 62
     7
 10
44.300000000000011
 20
548.5
 30
0.0
 11
72.300000000000026
 21
548.5
 31
0.0
  0
LINE
  5
432
  8
DATA
 62
     7
 10
73.300000000000026
 20
547.5
 30
0.0
 11
73.300000000000026
 21
545.5
 31
0.0
  0
ARC
  5
433
  8
DATA
 62
     7
 10
44.300000000000011
 20
547.5
 30
0.0
 40
1.0
 50
90.0
 51
180.0
  0
ARC
  5
434
  8
DATA
 62
     7
 10
44.300000000000011
 20
545.5
 30
0.0
 40
1.0
 50
180.0
 51
270.0
  0
ARC
  5
435
  8
DATA
 62
     7
 10
72.300000000000026
 20
545.5
 30
0.0
 40
1.0
 50
270.0
 51
0.0
  0
ARC
  5
436
  8
DATA
 62
     7
 10
72.300000000000026
 20
547.5
 30
0.0
 40
1.0
 50
0.0
 51
90.0
  0
TEXT
  5
437
  8
DATA
 62
     7
 10
71.55000004635923
 20
547.64936490538844
 30
0.0
 40
2.7999999999999998
  1
AC MAINS SUPPLY
 50
180.0
 41
0.8
 11
71.55000004635923
 21
544.84936490538848
 31
0.0
 73
     3
  0
TEXT
  5
438
  8
DATA
 62
     7
 10
70.68397464257481
 20
551.74936490538835
 30
0.0
 40
2.3999999999999999
  1
AC～50/60Hz 150VA
 50
180.0
 41
0.8
 11
70.68397464257481
 21
549.34936490538848
 31
0.0
 73
     3
  0
TEXT
  5
439
  8
DATA
 62
     7
 10
90.050000046359216
 20
555.34936490538837
 30
0.0
 40
4.0
  1
ON
 50
180.0
 41
0.8
 11
90.050000046359216
 21
551.34936490538837
 31
0.0
 73
     3
  0
TEXT
  5
43A
  8
DATA
 62
     7
 10
164.0500000463592
 20
575.04936490538853
 30
0.0
 40
2.2000000000000002
  1
SELECT VOLTAGE
 50
180.0
 41
0.8
 11
164.0500000463592
 21
572.84936490538837
 31
0.0
 73
     3
  0
TEXT
  5
43B
  8
DATA
 62
     7
 10
128.68397464257481
 20
574.74936490538835
 30
0.0
 40
2.3999999999999999
  1
190-250V=F5A
 50
180.0
 41
0.8
 11
128.68397464257481
 21
572.34936490538837
 31
0.0
 73
     3
  0
TEXT
  5
43C
  8
DATA
 62
     7
 10
128.68397464257481
 20
577.74936490538846
 30
0.0
 40
2.3999999999999999
  1
90-130V=F6.3A
 50
180.0
 41
0.8
 11
128.68397464257481
 21
575.34936490538848
 31
0.0
 73
     3
  0
ARC
  5
43D
  8
DATA
 62
     7
 10
164.30000000000001
 20
577.5
 30
0.0
 40
2.0
 50
0.0
 51
90.0
  0
ARC
  5
43E
  8
DATA
 62
     7
 10
164.30000000000001
 20
549.5
 30
0.0
 40
2.0
 50
270.0
 51
0.0
  0
ARC
  5
43F
  8
DATA
 62
     7
 10
34.300000000000011
 20
577.5
 30
0.0
 40
2.0
 50
90.0
 51
180.0
  0
ARC
  5
440
  8
DATA
 62
     7
 10
34.300000000000011
 20
549.5
 30
0.0
 40
2.0
 50
180.0
 51
270.0
  0
LINE
  5
441
  8
DATA
 62
     7
 10
168.30000000000001
 20
577.5
 30
0.0
 11
168.30000000000001
 21
549.5
 31
0.0
  0
LINE
  5
442
  8
DATA
 62
     7
 10
230.30000000000001
 20
577.5
 30
0.0
 11
230.30000000000001
 21
549.5
 31
0.0
  0
LINE
  5
443
  8
DATA
 62
     7
 10
170.30000000000001
 20
579.49999999999989
 30
0.0
 11
228.30000000000001
 21
579.49999999999989
 31
0.0
  0
LINE
  5
444
  8
DATA
 62
     7
 10
170.30000000000001
 20
547.5
 30
0.0
 11
179.80000000000001
 21
547.5
 31
0.0
  0
LINE
  5
445
  8
DATA
 62
     7
 10
218.80000000000001
 20
547.5
 30
0.0
 11
228.30000000000001
 21
547.5
 31
0.0
  0
ARC
  5
446
  8
DATA
 62
     7
 10
170.30000000000001
 20
577.5
 30
0.0
 40
2.0
 50
90.0
 51
180.0
  0
ARC
  5
447
  8
DATA
 62
     7
 10
228.30000000000001
 20
577.5
 30
0.0
 40
2.0
 50
0.0
 51
90.0
  0
ARC
  5
448
  8
DATA
 62
     7
 10
228.30000000000001
 20
549.5
 30
0.0
 40
2.0
 50
270.0
 51
0.0
  0
ARC
  5
449
  8
DATA
 62
     7
 10
170.30000000000001
 20
549.5
 30
0.0
 40
2.0
 50
180.0
 51
270.0
  0
LINE
  5
44A
  8
DATA
 62
     7
 10
232.30000000000001
 20
577.5
 30
0.0
 11
232.30000000000001
 21
549.5
 31
0.0
  0
LINE
  5
44B
  8
DATA
 62
     7
 10
303.30000000000001
 20
577.5
 30
0.0
 11
303.30000000000001
 21
549.5
 31
0.0
  0
LINE
  5
44C
  8
DATA
 62
     7
 10
234.30000000000001
 20
547.5
 30
0.0
 11
253.80000000000001
 21
547.5
 31
0.0
  0
LINE
  5
44D
  8
DATA
 62
     7
 10
281.80000000000001
 20
547.5
 30
0.0
 11
301.30000000000001
 21
547.5
 31
0.0
  0
LINE
  5
44E
  8
DATA
 62
     7
 10
234.30000000000001
 20
579.49999999999989
 30
0.0
 11
301.30000000000001
 21
579.49999999999989
 31
0.0
  0
ARC
  5
44F
  8
DATA
 62
     7
 10
234.30000000000001
 20
577.5
 30
0.0
 40
2.0
 50
90.0
 51
180.0
  0
ARC
  5
450
  8
DATA
 62
     7
 10
301.30000000000001
 20
577.5
 30
0.0
 40
2.0
 50
0.0
 51
90.0
  0
ARC
  5
451
  8
DATA
 62
     7
 10
234.30000000000001
 20
549.5
 30
0.0
 40
2.0
 50
180.0
 51
270.0
  0
ARC
  5
452
  8
DATA
 62
     7
 10
301.30000000000001
 20
549.5
 30
0.0
 40
2.0
 50
270.0
 51
0.0
  0
LINE
  5
453
  8
DATA
 62
     7
 10
305.30000000000001
 20
577.43649167310366
 30
0.0
 11
305.30000000000001
 21
549.5
 31
0.0
  0
LINE
  5
454
  8
DATA
 62
     7
 10
375.80000000000001
 20
577.43649167310366
 30
0.0
 11
375.80000000000001
 21
549.5
 31
0.0
  0
LINE
  5
455
  8
DATA
 62
     7
 10
307.30000000000001
 20
547.5
 30
0.0
 11
332.05000000000001
 21
547.5
 31
0.0
  0
LINE
  5
456
  8
DATA
 62
     7
 10
349.05000000000001
 20
547.5
 30
0.0
 11
373.80000000000001
 21
547.5
 31
0.0
  0
LINE
  5
457
  8
DATA
 62
     7
 10
307.30000000000001
 20
579.43649167310355
 30
0.0
 11
373.80000000000001
 21
579.43649167310355
 31
0.0
  0
ARC
  5
458
  8
DATA
 62
     7
 10
307.30000000000001
 20
577.43649167310366
 30
0.0
 40
2.0
 50
90.0
 51
180.0
  0
ARC
  5
459
  8
DATA
 62
     7
 10
373.80000000000001
 20
577.43649167310366
 30
0.0
 40
2.0
 50
0.0
 51
90.0
  0
ARC
  5
45A
  8
DATA
 62
     7
 10
373.80000000000001
 20
549.5
 30
0.0
 40
2.0
 50
270.0
 51
0.0
  0
ARC
  5
45B
  8
DATA
 62
     7
 10
307.30000000000001
 20
549.5
 30
0.0
 40
2.0
 50
180.0
 51
270.0
  0
LINE
  5
45C
  8
DATA
 62
     7
 10
379.80000000000001
 20
547.5
 30
0.0
 11
399.05000000000001
 21
547.5
 31
0.0
  0
LINE
  5
45D
  8
DATA
 62
     7
 10
425.05000000000001
 20
547.5
 30
0.0
 11
444.30000000000001
 21
547.5
 31
0.0
  0
ARC
  5
45E
  8
DATA
 62
     7
 10
379.80000000000001
 20
549.5
 30
0.0
 40
2.0
 50
180.0
 51
270.0
  0
LINE
  5
45F
  8
DATA
 62
     7
 10
424.57430926198867
 20
574.0
 30
0.0
 11
434.02569073801141
 21
574.0
 31
0.0
  0
LINE
  5
460
  8
DATA
 62
     7
 10
423.14573783341717
 20
566.0
 30
0.0
 11
435.45426216658268
 21
566.0
 31
0.0
  0
LINE
  5
461
  8
DATA
 62
     7
 10
421.70345191195599
 20
567.91208169184608
 30
0.0
 11
423.13202334052733
 21
572.91208169184608
 31
0.0
  0
LINE
  5
462
  8
DATA
 62
     7
 10
435.46797665947258
 20
572.91208169184608
 30
0.0
 11
436.89654808804391
 21
567.91208169184608
 31
0.0
  0
POLYLINE
  5
463
  8
DATA
 62
     7
 66
     1
 10
0.0
 20
0.0
 30
0.0
 70
     1
  0
VERTEX
  5
785
  8
DATA
 62
     7
 10
444.12962405069641
 20
568.65499092721984
 30
0.0
  0
VERTEX
  5
786
  8
DATA
 62
     7
 10
444.12962405069641
 20
571.34500907278016
 30
0.0
  0
VERTEX
  5
787
  8
DATA
 62
     7
 10
441.80000000000001
 20
572.69001814556032
 30
0.0
  0
VERTEX
  5
788
  8
DATA
 62
     7
 10
439.47037594930367
 20
571.34500907278016
 30
0.0
  0
VERTEX
  5
789
  8
DATA
 62
     7
 10
439.47037594930367
 20
568.65499092721984
 30
0.0
  0
VERTEX
  5
78A
  8
DATA
 62
     7
 10
441.80000000000001
 20
567.30998185443946
 30
0.0
  0
SEQEND
  5
78B
  8
DATA
 62
     7
  0
CIRCLE
  5
46B
  8
DATA
 62
     7
 10
441.80000000000001
 20
570.0
 30
0.0
 40
1.25
  0
POLYLINE
  5
46C
  8
DATA
 62
     7
 66
     1
 10
0.0
 20
0.0
 30
0.0
 70
     1
  0
VERTEX
  5
78C
  8
DATA
 62
     7
 10
419.12962405069641
 20
568.65499092721984
 30
0.0
  0
VERTEX
  5
78D
  8
DATA
 62
     7
 10
419.12962405069641
 20
571.34500907278016
 30
0.0
  0
VERTEX
  5
78E
  8
DATA
 62
     7
 10
416.80000000000001
 20
572.69001814556032
 30
0.0
  0
VERTEX
  5
78F
  8
DATA
 62
     7
 10
414.47037594930367
 20
571.34500907278016
 30
0.0
  0
VERTEX
  5
790
  8
DATA
 62
     7
 10
414.47037594930367
 20
568.65499092721984
 30
0.0
  0
VERTEX
  5
791
  8
DATA
 62
     7
 10
416.80000000000001
 20
567.30998185443946
 30
0.0
  0
SEQEND
  5
792
  8
DATA
 62
     7
  0
CIRCLE
  5
474
  8
DATA
 62
     7
 10
416.80000000000001
 20
570.0
 30
0.0
 40
1.25
  0
CIRCLE
  5
475
  8
DATA
 62
     7
 10
429.30000000000001
 20
568.73000000000002
 30
0.0
 40
0.7499999999999935
  0
CIRCLE
  5
476
  8
DATA
 62
     7
 10
431.83999999999992
 20
568.73000000000002
 30
0.0
 40
0.7499999999999935
  0
CIRCLE
  5
477
  8
DATA
 62
     7
 10
434.37999999999988
 20
568.73000000000002
 30
0.0
 40
0.7499999999999875
  0
CIRCLE
  5
478
  8
DATA
 62
     7
 10
426.75999999999988
 20
568.73000000000002
 30
0.0
 40
0.7499999999999935
  0
CIRCLE
  5
479
  8
DATA
 62
     7
 10
424.22000000000003
 20
568.73000000000002
 30
0.0
 40
0.7499999999999935
  0
CIRCLE
  5
47A
  8
DATA
 62
     7
 10
430.56999999999988
 20
571.26999999999987
 30
0.0
 40
0.7499999999999935
  0
CIRCLE
  5
47B
  8
DATA
 62
     7
 10
433.11000000000001
 20
571.26999999999987
 30
0.0
 40
0.7499999999999935
  0
CIRCLE
  5
47C
  8
DATA
 62
     7
 10
428.02999999999992
 20
571.26999999999987
 30
0.0
 40
0.7499999999999935
  0
CIRCLE
  5
47D
  8
DATA
 62
     7
 10
425.49000000000001
 20
571.26999999999987
 30
0.0
 40
0.7499999999999935
  0
TEXT
  5
47E
  8
DATA
 62
     7
 10
435.52902084938512
 20
563.14999999999986
 30
0.0
 40
2.3999999999999999
  1
LOOP OUT
 50
180.0
 41
0.8
 11
435.52902084938512
 21
560.74999999999989
 31
0.0
 73
     3
  0
LINE
  5
47F
  8
DATA
 62
     7
 10
390.04515876278708
 20
574.75
 30
0.0
 11
398.554841237213
 21
574.75
 31
0.0
  0
LINE
  5
480
  8
DATA
 62
     7
 10
388.7594444770728
 20
565.24999999999989
 30
0.0
 11
399.84055552292722
 21
565.24999999999989
 31
0.0
  0
LINE
  5
481
  8
DATA
 62
     7
 10
386.35563460797073
 20
568.43680281974321
 30
0.0
 11
387.64134889368489
 21
572.93680281974332
 31
0.0
  0
LINE
  5
482
  8
DATA
 62
     7
 10
400.95865110631507
 20
572.93680281974332
 30
0.0
 11
402.24436539202929
 21
568.43680281974321
 31
0.0
  0
POLYLINE
  5
483
  8
DATA
 62
     7
 66
     1
 10
0.0
 20
0.0
 30
0.0
 70
     1
  0
VERTEX
  5
793
  8
DATA
 62
     7
 10
409.12962405069641
 20
568.65499092721984
 30
0.0
  0
VERTEX
  5
794
  8
DATA
 62
     7
 10
409.12962405069641
 20
571.34500907278016
 30
0.0
  0
VERTEX
  5
795
  8
DATA
 62
     7
 10
406.80000000000001
 20
572.69001814556032
 30
0.0
  0
VERTEX
  5
796
  8
DATA
 62
     7
 10
404.47037594930362
 20
571.34500907278016
 30
0.0
  0
VERTEX
  5
797
  8
DATA
 62
     7
 10
404.47037594930362
 20
568.65499092721984
 30
0.0
  0
VERTEX
  5
798
  8
DATA
 62
     7
 10
406.80000000000001
 20
567.30998185443946
 30
0.0
  0
SEQEND
  5
799
  8
DATA
 62
     7
  0
CIRCLE
  5
48B
  8
DATA
 62
     7
 10
406.80000000000001
 20
570.0
 30
0.0
 40
1.25
  0
POLYLINE
  5
48C
  8
DATA
 62
     7
 66
     1
 10
0.0
 20
0.0
 30
0.0
 70
     1
  0
VERTEX
  5
79A
  8
DATA
 62
     7
 10
384.12962405069641
 20
568.65499092721984
 30
0.0
  0
VERTEX
  5
79B
  8
DATA
 62
     7
 10
384.12962405069641
 20
571.34500907278016
 30
0.0
  0
VERTEX
  5
79C
  8
DATA
 62
     7
 10
381.80000000000001
 20
572.69001814556032
 30
0.0
  0
VERTEX
  5
79D
  8
DATA
 62
     7
 10
379.47037594930367
 20
571.34500907278016
 30
0.0
  0
VERTEX
  5
79E
  8
DATA
 62
     7
 10
379.47037594930367
 20
568.65499092721984
 30
0.0
  0
VERTEX
  5
79F
  8
DATA
 62
     7
 10
381.80000000000001
 20
567.30998185443946
 30
0.0
  0
SEQEND
  5
7A0
  8
DATA
 62
     7
  0
CIRCLE
  5
494
  8
DATA
 62
     7
 10
381.80000000000001
 20
570.0
 30
0.0
 40
1.25
  0
CIRCLE
  5
495
  8
DATA
 62
     7
 10
394.30000000000001
 20
568.73000000000002
 30
0.0
 40
0.4999999999999948
  0
CIRCLE
  5
496
  8
DATA
 62
     7
 10
396.83999999999997
 20
568.73000000000002
 30
0.0
 40
0.4999999999999948
  0
CIRCLE
  5
497
  8
DATA
 62
     7
 10
399.38
 20
568.73000000000002
 30
0.0
 40
0.4999999999999917
  0
CIRCLE
  5
498
  8
DATA
 62
     7
 10
391.75999999999999
 20
568.73000000000002
 30
0.0
 40
0.4999999999999948
  0
CIRCLE
  5
499
  8
DATA
 62
     7
 10
389.22000000000003
 20
568.73000000000002
 30
0.0
 40
0.4999999999999948
  0
CIRCLE
  5
49A
  8
DATA
 62
     7
 10
395.56999999999999
 20
571.26999999999987
 30
0.0
 40
0.4999999999999948
  0
CIRCLE
  5
49B
  8
DATA
 62
     7
 10
398.11000000000001
 20
571.26999999999987
 30
0.0
 40
0.4999999999999948
  0
CIRCLE
  5
49C
  8
DATA
 62
     7
 10
393.02999999999997
 20
571.26999999999987
 30
0.0
 40
0.4999999999999948
  0
CIRCLE
  5
49D
  8
DATA
 62
     7
 10
390.49000000000001
 20
571.26999999999987
 30
0.0
 40
0.4999999999999948
  0
TEXT
  5
49E
  8
DATA
 62
     7
 10
402.58804862716289
 20
563.14999999999986
 30
0.0
 40
2.3999999999999999
  1
LOOP RETURN
 50
180.0
 41
0.8
 11
402.58804862716289
 21
560.74999999999989
 31
0.0
 73
     3
  0
ARC
  5
49F
  8
DATA
 62
     7
 10
444.30000000000001
 20
577.0
 30
0.0
 40
2.0
 50
0.0
 51
90.0
  0
ARC
  5
4A0
  8
DATA
 62
     7
 10
444.30000000000001
 20
549.5
 30
0.0
 40
2.0
 50
270.0
 51
0.0
  0
LINE
  5
4A1
  8
DATA
 62
     7
 10
448.30000000000001
 20
549.5
 30
0.0
 11
448.30000000000001
 21
577.0
 31
0.0
  0
LINE
  5
4A2
  8
DATA
 62
     7
 10
454.30000000000001
 20
549.5
 30
0.0
 11
454.30000000000001
 21
577.0
 31
0.0
  0
LINE
  5
4A3
  8
DATA
 62
     7
 10
450.30000000000001
 20
579.0
 30
0.0
 11
452.30000000000001
 21
579.0
 31
0.0
  0
LINE
  5
4A4
  8
DATA
 62
     7
 10
450.30000000000001
 20
547.5
 30
0.0
 11
452.30000000000001
 21
547.5
 31
0.0
  0
ARC
  5
4A5
  8
DATA
 62
     7
 10
450.30000000000001
 20
577.0
 30
0.0
 40
2.0
 50
90.0
 51
180.0
  0
ARC
  5
4A6
  8
DATA
 62
     7
 10
452.30000000000001
 20
577.0
 30
0.0
 40
2.0
 50
0.0
 51
90.0
  0
ARC
  5
4A7
  8
DATA
 62
     7
 10
450.30000000000001
 20
549.5
 30
0.0
 40
2.0
 50
180.0
 51
270.0
  0
ARC
  5
4A8
  8
DATA
 62
     7
 10
452.30000000000001
 20
549.5
 30
0.0
 40
2.0
 50
270.0
 51
0.0
  0
LINE
  5
4A9
  8
DATA
 62
     7
 10
400.05000000000001
 20
544.5
 30
0.0
 11
424.0499999999999
 21
544.5
 31
0.0
  0
LINE
  5
4AA
  8
DATA
 62
     7
 10
399.05000000000001
 20
545.5
 30
0.0
 11
399.05000000000001
 21
547.5
 31
0.0
  0
LINE
  5
4AB
  8
DATA
 62
     7
 10
425.05000000000001
 20
545.5
 30
0.0
 11
425.05000000000001
 21
547.5
 31
0.0
  0
LINE
  5
4AC
  8
DATA
 62
     7
 10
400.05000000000001
 20
548.5
 30
0.0
 11
424.0499999999999
 21
548.5
 31
0.0
  0
ARC
  5
4AD
  8
DATA
 62
     7
 10
400.05000000000001
 20
547.5
 30
0.0
 40
1.0
 50
90.0
 51
180.0
  0
ARC
  5
4AE
  8
DATA
 62
     7
 10
400.05000000000001
 20
545.5
 30
0.0
 40
1.0
 50
180.0
 51
270.0
  0
ARC
  5
4AF
  8
DATA
 62
     7
 10
424.0499999999999
 20
547.5
 30
0.0
 40
1.0
 50
0.0
 51
90.0
  0
ARC
  5
4B0
  8
DATA
 62
     7
 10
424.0499999999999
 20
545.5
 30
0.0
 40
1.0
 50
270.0
 51
0.0
  0
LINE
  5
4B1
  8
DATA
 62
     7
 10
180.80000000000001
 20
544.5
 30
0.0
 11
217.80000000000001
 21
544.5
 31
0.0
  0
LINE
  5
4B2
  8
DATA
 62
     7
 10
179.80000000000001
 20
545.5
 30
0.0
 11
179.80000000000001
 21
547.5
 31
0.0
  0
LINE
  5
4B3
  8
DATA
 62
     7
 10
218.80000000000001
 20
545.5
 30
0.0
 11
218.80000000000001
 21
547.5
 31
0.0
  0
LINE
  5
4B4
  8
DATA
 62
     7
 10
180.80000000000001
 20
548.5
 30
0.0
 11
217.80000000000001
 21
548.5
 31
0.0
  0
ARC
  5
4B5
  8
DATA
 62
     7
 10
180.80000000000001
 20
545.5
 30
0.0
 40
1.0
 50
180.0
 51
270.0
  0
ARC
  5
4B6
  8
DATA
 62
     7
 10
180.80000000000001
 20
547.5
 30
0.0
 40
1.0
 50
90.0
 51
180.0
  0
ARC
  5
4B7
  8
DATA
 62
     7
 10
217.80000000000001
 20
547.5
 30
0.0
 40
1.0
 50
0.0
 51
90.0
  0
ARC
  5
4B8
  8
DATA
 62
     7
 10
217.80000000000001
 20
545.5
 30
0.0
 40
1.0
 50
270.0
 51
0.0
  0
LINE
  5
4B9
  8
DATA
 62
     7
 10
254.80000000000001
 20
544.5
 30
0.0
 11
280.80000000000001
 21
544.5
 31
0.0
  0
LINE
  5
4BA
  8
DATA
 62
     7
 10
253.80000000000001
 20
545.5
 30
0.0
 11
253.80000000000001
 21
547.5
 31
0.0
  0
LINE
  5
4BB
  8
DATA
 62
     7
 10
281.80000000000001
 20
545.5
 30
0.0
 11
281.80000000000001
 21
547.5
 31
0.0
  0
LINE
  5
4BC
  8
DATA
 62
     7
 10
254.80000000000001
 20
548.5
 30
0.0
 11
280.80000000000001
 21
548.5
 31
0.0
  0
ARC
  5
4BD
  8
DATA
 62
     7
 10
254.80000000000001
 20
547.5
 30
0.0
 40
1.0
 50
90.0
 51
180.0
  0
ARC
  5
4BE
  8
DATA
 62
     7
 10
254.80000000000001
 20
545.5
 30
0.0
 40
1.0
 50
180.0
 51
270.0
  0
ARC
  5
4BF
  8
DATA
 62
     7
 10
280.80000000000001
 20
547.5
 30
0.0
 40
1.0
 50
0.0
 51
90.0
  0
ARC
  5
4C0
  8
DATA
 62
     7
 10
280.80000000000001
 20
545.5
 30
0.0
 40
1.0
 50
270.0
 51
0.0
  0
LINE
  5
4C1
  8
DATA
 62
     7
 10
333.05000000000001
 20
544.5
 30
0.0
 11
348.05000000000001
 21
544.5
 31
0.0
  0
LINE
  5
4C2
  8
DATA
 62
     7
 10
332.05000000000001
 20
545.5
 30
0.0
 11
332.05000000000001
 21
547.5
 31
0.0
  0
LINE
  5
4C3
  8
DATA
 62
     7
 10
349.05000000000001
 20
545.5
 30
0.0
 11
349.05000000000001
 21
547.5
 31
0.0
  0
LINE
  5
4C4
  8
DATA
 62
     7
 10
333.05000000000001
 20
548.5
 30
0.0
 11
348.05000000000001
 21
548.5
 31
0.0
  0
ARC
  5
4C5
  8
DATA
 62
     7
 10
333.05000000000001
 20
547.5
 30
0.0
 40
1.0
 50
90.0
 51
180.0
  0
ARC
  5
4C6
  8
DATA
 62
     7
 10
333.05000000000001
 20
545.5
 30
0.0
 40
1.0
 50
180.0
 51
270.0
  0
ARC
  5
4C7
  8
DATA
 62
     7
 10
348.05000000000001
 20
547.5
 30
0.0
 40
1.0
 50
0.0
 51
90.0
  0
ARC
  5
4C8
  8
DATA
 62
     7
 10
348.05000000000001
 20
545.5
 30
0.0
 40
1.0
 50
270.0
 51
0.0
  0
TEXT
  5
4C9
  8
DATA
 62
     7
 10
216.05000004635929
 20
547.64936490538844
 30
0.0
 40
2.7999999999999998
  1
DC CONNECTOR WIRING
 50
180.0
 41
0.8
 11
216.05000004635929
 21
544.84936490538848
 31
0.0
 73
     3
  0
TEXT
  5
4CA
  8
DATA
 62
     7
 10
279.55000004635917
 20
547.64936490538844
 30
0.0
 40
2.7999999999999998
  1
SYSTEM GROUND
 50
180.0
 41
0.8
 11
279.55000004635917
 21
544.84936490538848
 31
0.0
 73
     3
  0
TEXT
  5
4CB
  8
DATA
 62
     7
 10
347.55000004635917
 20
547.64936490538844
 30
0.0
 40
2.7999999999999998
  1
DC FUSES
 50
180.0
 41
0.8
 11
347.55000004635917
 21
544.84936490538848
 31
0.0
 73
     3
  0
TEXT
  5
4CC
  8
DATA
 62
     7
 10
422.55000004635917
 20
547.64936490538844
 30
0.0
 40
2.7999999999999998
  1
DC POWER OUT
 50
180.0
 41
0.8
 11
422.55000004635917
 21
544.84936490538848
 31
0.0
 73
     3
  0
POLYLINE
  5
4CD
  8
DATA
 62
     7
 66
     1
 10
0.0
 20
0.0
 30
0.0
 70
     1
  0
VERTEX
  5
7A1
  8
DATA
 62
     7
 10
260.30000000000001
 20
572.0
 30
0.0
  0
VERTEX
  5
7A2
  8
DATA
 62
     7
 10
275.30000000000001
 20
572.0
 30
0.0
  0
VERTEX
  5
7A3
  8
DATA
 62
     7
 10
275.30000000000001
 20
564.0
 30
0.0
  0
VERTEX
  5
7A4
  8
DATA
 62
     7
 10
260.30000000000001
 20
564.0
 30
0.0
  0
SEQEND
  5
7A5
  8
DATA
 62
     7
  0
POLYLINE
  5
4D3
  8
DATA
 62
     7
 66
     1
 10
0.0
 20
0.0
 30
0.0
 70
     1
  0
VERTEX
  5
7A6
  8
DATA
 62
     7
 10
261.30000000000001
 20
570.5
 30
0.0
  0
VERTEX
  5
7A7
  8
DATA
 62
     7
 10
266.30000000000001
 20
570.5
 30
0.0
  0
VERTEX
  5
7A8
  8
DATA
 62
     7
 10
266.30000000000001
 20
565.5
 30
0.0
  0
VERTEX
  5
7A9
  8
DATA
 62
     7
 10
261.30000000000001
 20
565.5
 30
0.0
  0
SEQEND
  5
7AA
  8
DATA
 62
     7
  0
CIRCLE
  5
4D9
  8
DATA
 62
     7
 10
263.80000000000001
 20
568.0
 30
0.0
 40
0.75
  0
CIRCLE
  5
4DA
  8
DATA
 62
     7
 10
149.80000000000001
 20
568.0
 30
0.0
 40
0.75
  0
LINE
  5
4DB
  8
DATA
 62
     7
 10
275.30000000000001
 20
568.0
 30
0.0
 11
281.30000000000001
 21
568.0
 31
0.0
  0
LINE
  5
4DC
  8
DATA
 62
     7
 10
260.30000000000001
 20
568.0
 30
0.0
 11
254.30000000000001
 21
568.0
 31
0.0
  0
LINE
  5
4DD
  8
DATA
 62
     7
 10
254.30000000000001
 20
568.0
 30
0.0
 11
254.30000000000001
 21
573.0
 31
0.0
  0
LINE
  5
4DE
  8
DATA
 62
     7
 10
251.30000000000001
 20
573.0
 30
0.0
 11
257.30000000000001
 21
573.0
 31
0.0
  0
LINE
  5
4DF
  8
DATA
 62
     7
 10
251.80000000000001
 20
574.0
 30
0.0
 11
256.80000000000001
 21
574.0
 31
0.0
  0
LINE
  5
4E0
  8
DATA
 62
     7
 10
252.80000000000001
 20
575.0
 30
0.0
 11
255.80000000000001
 21
575.0
 31
0.0
  0
LINE
  5
4E1
  8
DATA
 62
     7
 10
253.80000000000001
 20
576.0
 30
0.0
 11
254.80000000000001
 21
576.0
 31
0.0
  0
TEXT
  5
4E2
  8
DATA
 62
     7
 10
292.05000004635917
 20
569.14936490538844
 30
0.0
 40
2.7999999999999998
  1
LIFTED
 50
180.0
 41
0.8
 11
292.05000004635917
 21
566.34936490538848
 31
0.0
 73
     3
  0
TEXT
  5
4E3
  8
DATA
 62
     7
 10
253.55000004635929
 20
569.14936490538844
 30
0.0
 40
2.7999999999999998
  1
EARTHED
 50
180.0
 41
0.8
 11
253.55000004635929
 21
566.34936490538848
 31
0.0
 73
     3
  0
CIRCLE
  5
4E4
  8
DATA
 62
     7
 10
340.55000000000001
 20
567.0
 30
0.0
 40
7.5000000000000027
  0
CIRCLE
  5
4E5
  8
DATA
 62
     7
 10
340.55000000000001
 20
567.0
 30
0.0
 40
4.5000000000000009
  0
POLYLINE
  5
4E6
  8
DATA
 62
     7
 66
     1
 10
0.0
 20
0.0
 30
0.0
 70
     1
  0
VERTEX
  5
7AB
  8
DATA
 62
     7
 10
339.55000000000001
 20
570.0
 30
0.0
  0
VERTEX
  5
7AC
  8
DATA
 62
     7
 10
341.55000000000001
 20
570.0
 30
0.0
  0
VERTEX
  5
7AD
  8
DATA
 62
     7
 10
341.55000000000001
 20
564.0
 30
0.0
  0
VERTEX
  5
7AE
  8
DATA
 62
     7
 10
339.55000000000001
 20
564.0
 30
0.0
  0
SEQEND
  5
7AF
  8
DATA
 62
     7
  0
CIRCLE
  5
4EC
  8
DATA
 62
     7
 10
365.55000000000001
 20
567.0
 30
0.0
 40
7.5000000000000027
  0
CIRCLE
  5
4ED
  8
DATA
 62
     7
 10
365.55000000000001
 20
567.0
 30
0.0
 40
4.5
  0
POLYLINE
  5
4EE
  8
DATA
 62
     7
 66
     1
 10
0.0
 20
0.0
 30
0.0
 70
     1
  0
VERTEX
  5
7B0
  8
DATA
 62
     7
 10
364.55000000000001
 20
570.0
 30
0.0
  0
VERTEX
  5
7B1
  8
DATA
 62
     7
 10
366.55000000000001
 20
570.0
 30
0.0
  0
VERTEX
  5
7B2
  8
DATA
 62
     7
 10
366.55000000000001
 20
564.0
 30
0.0
  0
VERTEX
  5
7B3
  8
DATA
 62
     7
 10
364.55000000000001
 20
564.0
 30
0.0
  0
SEQEND
  5
7B4
  8
DATA
 62
     7
  0
CIRCLE
  5
4F4
  8
DATA
 62
     7
 10
315.55000000000001
 20
567.0
 30
0.0
 40
7.5000000000000027
  0
CIRCLE
  5
4F5
  8
DATA
 62
     7
 10
315.55000000000001
 20
567.0
 30
0.0
 40
4.5
  0
POLYLINE
  5
4F6
  8
DATA
 62
     7
 66
     1
 10
0.0
 20
0.0
 30
0.0
 70
     1
  0
VERTEX
  5
7B5
  8
DATA
 62
     7
 10
314.55000000000001
 20
570.0
 30
0.0
  0
VERTEX
  5
7B6
  8
DATA
 62
     7
 10
316.55000000000001
 20
570.0
 30
0.0
  0
VERTEX
  5
7B7
  8
DATA
 62
     7
 10
316.55000000000001
 20
564.0
 30
0.0
  0
VERTEX
  5
7B8
  8
DATA
 62
     7
 10
314.55000000000001
 20
564.0
 30
0.0
  0
SEQEND
  5
7B9
  8
DATA
 62
     7
  0
TEXT
  5
4FC
  8
DATA
 62
     7
 10
368.85902776660191
 20
557.39999999999986
 30
0.0
 40
2.3999999999999999
  1
+48V
 50
180.0
 41
0.8
 11
368.85902776660191
 21
555.0
 31
0.0
 73
     3
  0
TEXT
  5
4FD
  8
DATA
 62
     7
 10
343.41024304437968
 20
557.39999999999986
 30
0.0
 40
2.3999999999999999
  1
+27V
 50
180.0
 41
0.8
 11
343.41024304437968
 21
555.0
 31
0.0
 73
     3
  0
TEXT
  5
4FE
  8
DATA
 62
     7
 10
319.13072920805882
 20
557.39999999999986
 30
0.0
 40
2.3999999999999999
  1
-27V
 50
180.0
 41
0.8
 11
319.13072920805882
 21
555.0
 31
0.0
 73
     3
  0
TEXT
  5
4FF
  8
DATA
 62
     7
 10
369.49878461625838
 20
577.5
 30
0.0
 40
2.0
  1
F500mA
 50
180.0
 41
0.8
 11
369.49878461625838
 21
575.49999999999989
 31
0.0
 73
     3
  0
TEXT
  5
500
  8
DATA
 62
     7
 10
342.32951378292512
 20
577.5
 30
0.0
 40
2.0
  1
F5A
 50
180.0
 41
0.8
 11
342.32951378292512
 21
575.49999999999989
 31
0.0
 73
     3
  0
TEXT
  5
501
  8
DATA
 62
     7
 10
317.45451383590688
 20
577.5
 30
0.0
 40
2.0
  1
F5A
 50
180.0
 41
0.8
 11
317.45451383590688
 21
575.49999999999989
 31
0.0
 73
     3
  0
TEXT
  5
502
  8
DATA
 62
     7
 10
201.17499994701811
 20
550.74872981077704
 30
0.0
 40
1.8
  1
PIN
 50
180.0
 41
0.8
 11
201.17499994701811
 21
548.94872981077697
 31
0.0
 73
     3
  0
TEXT
  5
503
  8
DATA
 62
     7
 10
199.92500001738469
 20
553.54999999999995
 30
0.0
 40
1.8
  1
1
 50
180.0
 41
0.8
 11
199.92500001738469
 21
551.75
 31
0.0
 73
     3
  0
TEXT
  5
504
  8
DATA
 62
     7
 10
199.92500001738469
 20
556.04999999999995
 30
0.0
 40
1.8
  1
2
 50
180.0
 41
0.8
 11
199.92500001738469
 21
554.25
 31
0.0
 73
     3
  0
TEXT
  5
505
  8
DATA
 62
     7
 10
199.92500001738469
 20
558.54999999999995
 30
0.0
 40
1.8
  1
3
 50
180.0
 41
0.8
 11
199.92500001738469
 21
556.74999999999989
 31
0.0
 73
     3
  0
TEXT
  5
506
  8
DATA
 62
     7
 10
199.92500001738469
 20
561.04999999999995
 30
0.0
 40
1.8
  1
4
 50
180.0
 41
0.8
 11
199.92500001738469
 21
559.25
 31
0.0
 73
     3
  0
TEXT
  5
507
  8
DATA
 62
     7
 10
199.92500001738469
 20
563.54999999999995
 30
0.0
 40
1.8
  1
5
 50
180.0
 41
0.8
 11
199.92500001738469
 21
561.74999999999989
 31
0.0
 73
     3
  0
TEXT
  5
508
  8
DATA
 62
     7
 10
199.92500001738469
 20
566.04999999999995
 30
0.0
 40
1.8
  1
6
 50
180.0
 41
0.8
 11
199.92500001738469
 21
564.25
 31
0.0
 73
     3
  0
TEXT
  5
509
  8
DATA
 62
     7
 10
199.92500001738469
 20
568.54999999999995
 30
0.0
 40
1.8
  1
7
 50
180.0
 41
0.8
 11
199.92500001738469
 21
566.75
 31
0.0
 73
     3
  0
TEXT
  5
50A
  8
DATA
 62
     7
 10
199.92500001738469
 20
571.04999999999995
 30
0.0
 40
1.8
  1
8
 50
180.0
 41
0.8
 11
199.92500001738469
 21
569.24999999999989
 31
0.0
 73
     3
  0
TEXT
  5
50B
  8
DATA
 62
     7
 10
199.92500001738469
 20
573.54999999999995
 30
0.0
 40
1.8
  1
9
 50
180.0
 41
0.8
 11
199.92500001738469
 21
571.75
 31
0.0
 73
     3
  0
TEXT
  5
50C
  8
DATA
 62
     7
 10
210.29499994701811
 20
553.52824369966595
 30
0.0
 40
1.8
  1
CHASSIS
 50
180.0
 41
0.8
 72
     2
 11
201.17499994701811
 21
551.72824369966588
 31
0.0
 73
     3
  0
TEXT
  5
50D
  8
DATA
 62
     7
 10
216.43899994701809
 20
556.02824369966595
 30
0.0
 40
1.8
  1
LISTEN INPUT
 50
180.0
 41
0.8
 72
     2
 11
201.17499994701811
 21
554.228243699666
 31
0.0
 73
     3
  0
TEXT
  5
50E
  8
DATA
 62
     7
 10
230.2149999470181
 20
558.52824369966595
 30
0.0
 40
1.8
  1
EX-BUSS(MSR-604IIONLY)
 50
180.0
 41
0.8
 72
     2
 11
201.17499994701811
 21
556.72824369966588
 31
0.0
 73
     3
  0
TEXT
  5
50F
  8
DATA
 62
     7
 10
203.81499994701809
 20
561.02824369966595
 30
0.0
 40
1.8
  1
0V
 50
180.0
 41
0.8
 72
     2
 11
201.17499994701811
 21
559.228243699666
 31
0.0
 73
     3
  0
TEXT
  5
510
  8
DATA
 62
     7
 10
206.9349999470181
 20
563.52824369966595
 30
0.0
 40
1.8
  1
+48V
 50
180.0
 41
0.8
 72
     2
 11
201.17499994701811
 21
561.72824369966588
 31
0.0
 73
     3
  0
TEXT
  5
511
  8
DATA
 62
     7
 10
218.35899994701811
 20
566.02824369966595
 30
0.0
 40
1.8
  1
LISTEN SCREEN
 50
180.0
 41
0.8
 72
     2
 11
201.17499994701811
 21
564.22824369966588
 31
0.0
 73
     3
  0
TEXT
  5
512
  8
DATA
 62
     7
 10
203.81499994701809
 20
568.52824369966595
 30
0.0
 40
1.8
  1
0V
 50
180.0
 41
0.8
 72
     2
 11
201.17499994701811
 21
566.728243699666
 31
0.0
 73
     3
  0
TEXT
  5
513
  8
DATA
 62
     7
 10
206.9349999470181
 20
571.02824369966595
 30
0.0
 40
1.8
  1
-27V
 50
180.0
 41
0.8
 72
     2
 11
201.17499994701811
 21
569.22824369966588
 31
0.0
 73
     3
  0
TEXT
  5
514
  8
DATA
 62
     7
 10
206.9349999470181
 20
573.52824369966595
 30
0.0
 40
1.8
  1
+27V
 50
180.0
 41
0.8
 72
     2
 11
201.17499994701811
 21
571.728243699666
 31
0.0
 73
     3
  0
TEXT
  5
515
  8
DATA
 62
     7
 10
197.73749980462921
 20
553.52824369966595
 30
0.0
 40
1.8
  1
CHASSIS
 50
180.0
 41
0.8
 11
197.73749980462921
 21
551.72824369966588
 31
0.0
 73
     3
  0
TEXT
  5
516
  8
DATA
 62
     7
 10
197.73749980462921
 20
556.02824369966595
 30
0.0
 40
1.8
  1
LISTEN THRU(MSR-604IIONLY)
 50
180.0
 41
0.8
 11
197.73749980462921
 21
554.228243699666
 31
0.0
 73
     3
  0
TEXT
  5
517
  8
DATA
 62
     7
 10
197.73749980462921
 20
558.52824369966595
 30
0.0
 40
1.8
  1
EX-BUSS(MSR-604IIONLY)
 50
180.0
 41
0.8
 11
197.73749980462921
 21
556.72824369966588
 31
0.0
 73
     3
  0
TEXT
  5
518
  8
DATA
 62
     7
 10
197.73749980462921
 20
561.02824369966595
 30
0.0
 40
1.8
  1
0V
 50
180.0
 41
0.8
 11
197.73749980462921
 21
559.228243699666
 31
0.0
 73
     3
  0
TEXT
  5
519
  8
DATA
 62
     7
 10
197.73749980462921
 20
563.52824369966595
 30
0.0
 40
1.8
  1
+48V
 50
180.0
 41
0.8
 11
197.73749980462921
 21
561.72824369966588
 31
0.0
 73
     3
  0
TEXT
  5
51A
  8
DATA
 62
     7
 10
197.73749980462921
 20
566.02824369966595
 30
0.0
 40
1.8
  1
LISTEN SCREEN
 50
180.0
 41
0.8
 11
197.73749980462921
 21
564.22824369966588
 31
0.0
 73
     3
  0
TEXT
  5
51B
  8
DATA
 62
     7
 10
197.73749980462921
 20
568.52824369966595
 30
0.0
 40
1.8
  1
0V
 50
180.0
 41
0.8
 11
197.73749980462921
 21
566.728243699666
 31
0.0
 73
     3
  0
TEXT
  5
51C
  8
DATA
 62
     7
 10
197.73749980462921
 20
571.02824369966595
 30
0.0
 40
1.8
  1
-27V
 50
180.0
 41
0.8
 11
197.73749980462921
 21
569.22824369966588
 31
0.0
 73
     3
  0
TEXT
  5
51D
  8
DATA
 62
     7
 10
197.73749980462921
 20
573.52824369966595
 30
0.0
 40
1.8
  1
+27V
 50
180.0
 41
0.8
 11
197.73749980462921
 21
571.728243699666
 31
0.0
 73
     3
  0
LINE
  5
51E
  8
DATA
 62
     7
 10
174.7211646096066
 20
568.5
 30
0.0
 11
187.87883539039331
 21
568.5
 31
0.0
  0
LINE
  5
51F
  8
DATA
 62
     7
 10
175.4711646096066
 20
574.5
 30
0.0
 11
187.12883539039331
 21
574.5
 31
0.0
  0
LINE
  5
520
  8
DATA
 62
     7
 10
174.0159508593886
 20
573.36380343755445
 30
0.0
 11
173.2659508593886
 21
570.36380343755445
 31
0.0
  0
LINE
  5
521
  8
DATA
 62
     7
 10
188.58404914061131
 20
573.36380343755445
 30
0.0
 11
189.3340491406114
 21
570.36380343755445
 31
0.0
  0
CIRCLE
  5
522
  8
DATA
 62
     7
 10
186.30000000000001
 20
570.0
 30
0.0
 40
0.5
  0
CIRCLE
  5
523
  8
DATA
 62
     7
 10
183.80000000000001
 20
570.0
 30
0.0
 40
0.5
  0
CIRCLE
  5
524
  8
DATA
 62
     7
 10
181.30000000000001
 20
570.0
 30
0.0
 40
0.5
  0
CIRCLE
  5
525
  8
DATA
 62
     7
 10
178.80000000000001
 20
570.0
 30
0.0
 40
0.5
  0
CIRCLE
  5
526
  8
DATA
 62
     7
 10
176.30000000000001
 20
570.0
 30
0.0
 40
0.5
  0
CIRCLE
  5
527
  8
DATA
 62
     7
 10
185.05000000000001
 20
572.5
 30
0.0
 40
0.5
  0
CIRCLE
  5
528
  8
DATA
 62
     7
 10
182.55000000000001
 20
572.5
 30
0.0
 40
0.5
  0
CIRCLE
  5
529
  8
DATA
 62
     7
 10
180.05000000000001
 20
572.5
 30
0.0
 40
0.5
  0
CIRCLE
  5
52A
  8
DATA
 62
     7
 10
177.55000000000001
 20
572.5
 30
0.0
 40
0.5
  0
ARC
  5
52B
  8
DATA
 62
     7
 10
174.7211646096066
 20
570.0
 30
0.0
 40
1.499999999999984
 50
165.96375653207301
 51
270.00000000000108
  0
ARC
  5
52C
  8
DATA
 62
     7
 10
175.4711646096066
 20
573.0
 30
0.0
 40
1.5
 50
90.0
 51
165.96375653207321
  0
ARC
  5
52D
  8
DATA
 62
     7
 10
187.12883539039331
 20
573.0
 30
0.0
 40
1.499999999999984
 50
14.036243467926999
 51
90.000000000001094
  0
ARC
  5
52E
  8
DATA
 62
     7
 10
187.87883539039331
 20
570.0
 30
0.0
 40
1.5
 50
270.0
 51
14.03624346792674
  0
TEXT
  5
52F
  8
DATA
 62
     7
 10
188.44133538501239
 20
570.74097222222213
 30
0.0
 40
1.8
  1
1
 50
180.0
 41
0.8
 11
188.44133538501239
 21
568.94097222222206
 31
0.0
 73
     3
  0
TEXT
  5
530
  8
DATA
 62
     7
 10
175.28366460422561
 20
570.74097222222213
 30
0.0
 40
1.8
  1
5
 50
180.0
 41
0.8
 11
175.28366460422561
 21
568.94097222222206
 31
0.0
 73
     3
  0
TEXT
  5
531
  8
DATA
 62
     7
 10
176.4303908139228
 20
573.52048611111115
 30
0.0
 40
1.8
  1
9
 50
180.0
 41
0.8
 11
176.4303908139228
 21
571.72048611111109
 31
0.0
 73
     3
  0
TEXT
  5
532
  8
DATA
 62
     7
 10
187.47084927390131
 20
573.67499999999995
 30
0.0
 40
1.8
  1
6
 50
180.0
 41
0.8
 11
187.47084927390131
 21
571.875
 31
0.0
 73
     3
  0
TEXT
  5
533
  8
DATA
 62
     7
 10
187.98749980462921
 20
577.22824369966588
 30
0.0
 40
2.0
  1
LOOP RETURN
 50
180.0
 41
0.8
 11
187.98749980462921
 21
575.228243699666
 31
0.0
 73
     3
  0
LINE
  5
534
  8
DATA
 62
     7
 10
211.2211646096066
 20
568.5
 30
0.0
 11
224.37883539039339
 21
568.5
 31
0.0
  0
LINE
  5
535
  8
DATA
 62
     7
 10
211.9711646096066
 20
574.5
 30
0.0
 11
223.62883539039339
 21
574.5
 31
0.0
  0
LINE
  5
536
  8
DATA
 62
     7
 10
210.5159508593886
 20
573.36380343755445
 30
0.0
 11
209.7659508593886
 21
570.36380343755445
 31
0.0
  0
LINE
  5
537
  8
DATA
 62
     7
 10
225.0840491406114
 20
573.36380343755445
 30
0.0
 11
225.8340491406114
 21
570.36380343755445
 31
0.0
  0
CIRCLE
  5
538
  8
DATA
 62
     7
 10
222.80000000000001
 20
570.0
 30
0.0
 40
0.5
  0
CIRCLE
  5
539
  8
DATA
 62
     7
 10
220.30000000000001
 20
570.0
 30
0.0
 40
0.5
  0
CIRCLE
  5
53A
  8
DATA
 62
     7
 10
217.80000000000001
 20
570.0
 30
0.0
 40
0.5
  0
CIRCLE
  5
53B
  8
DATA
 62
     7
 10
215.30000000000001
 20
570.0
 30
0.0
 40
0.5
  0
CIRCLE
  5
53C
  8
DATA
 62
     7
 10
212.80000000000001
 20
570.0
 30
0.0
 40
0.5
  0
CIRCLE
  5
53D
  8
DATA
 62
     7
 10
221.55000000000001
 20
572.5
 30
0.0
 40
0.5
  0
CIRCLE
  5
53E
  8
DATA
 62
     7
 10
219.05000000000001
 20
572.5
 30
0.0
 40
0.5
  0
CIRCLE
  5
53F
  8
DATA
 62
     7
 10
216.55000000000001
 20
572.5
 30
0.0
 40
0.5
  0
CIRCLE
  5
540
  8
DATA
 62
     7
 10
214.05000000000001
 20
572.5
 30
0.0
 40
0.5
  0
ARC
  5
541
  8
DATA
 62
     7
 10
211.2211646096066
 20
570.0
 30
0.0
 40
1.499999999999984
 50
165.96375653207301
 51
270.00000000000108
  0
ARC
  5
542
  8
DATA
 62
     7
 10
211.9711646096066
 20
573.0
 30
0.0
 40
1.5
 50
90.0
 51
165.96375653207321
  0
ARC
  5
543
  8
DATA
 62
     7
 10
223.62883539039339
 20
573.0
 30
0.0
 40
1.499999999999984
 50
14.036243467926999
 51
90.000000000001094
  0
ARC
  5
544
  8
DATA
 62
     7
 10
224.37883539039339
 20
570.0
 30
0.0
 40
1.5
 50
270.0
 51
14.03624346792674
  0
TEXT
  5
545
  8
DATA
 62
     7
 10
224.94133538501239
 20
570.74097222222213
 30
0.0
 40
1.8
  1
5
 50
180.0
 41
0.8
 11
224.94133538501239
 21
568.94097222222206
 31
0.0
 73
     3
  0
TEXT
  5
546
  8
DATA
 62
     7
 10
211.78366460422569
 20
570.74097222222213
 30
0.0
 40
1.8
  1
1
 50
180.0
 41
0.8
 11
211.78366460422569
 21
568.94097222222206
 31
0.0
 73
     3
  0
TEXT
  5
547
  8
DATA
 62
     7
 10
212.9303908139228
 20
573.52048611111115
 30
0.0
 40
1.8
  1
6
 50
180.0
 41
0.8
 11
212.9303908139228
 21
571.72048611111109
 31
0.0
 73
     3
  0
TEXT
  5
548
  8
DATA
 62
     7
 10
223.97084927390131
 20
573.67499999999995
 30
0.0
 40
1.8
  1
9
 50
180.0
 41
0.8
 11
223.97084927390131
 21
571.875
 31
0.0
 73
     3
  0
TEXT
  5
549
  8
DATA
 62
     7
 10
222.98749980462921
 20
577.22824369966588
 30
0.0
 40
2.0
  1
LOOP OUT
 50
180.0
 41
0.8
 11
222.98749980462921
 21
575.228243699666
 31
0.0
 73
     3
  0
LINE
  5
54A
  8
DATA
 62
     7
 10
497.5
 20
24.75
 30
0.0
 11
497.5
 21
12.25
 31
0.0
  0
LINE
  5
54B
  8
DATA
 62
     7
 10
497.5
 20
24.75
 30
0.0
 11
498.0
 21
24.75
 31
0.0
  0
LINE
  5
54C
  8
DATA
 62
     7
 10
497.5
 20
12.25
 30
0.0
 11
498.0
 21
12.25
 31
0.0
  0
LINE
  5
54D
  8
DATA
 62
     7
 10
498.0
 20
24.75
 30
0.0
 11
498.0
 21
12.25
 31
0.0
  0
LINE
  5
54E
  8
DATA
 62
     7
 10
498.0
 20
25.5
 30
0.0
 11
498.0
 21
11.5
 31
0.0
  0
LINE
  5
54F
  8
DATA
 62
     7
 10
498.0
 20
25.5
 30
0.0
 11
509.0
 21
26.258620689655341
 31
0.0
  0
LINE
  5
550
  8
DATA
 62
     7
 10
498.0
 20
11.5
 30
0.0
 11
509.0
 21
10.74137931034465
 31
0.0
  0
LINE
  5
551
  8
DATA
 62
     7
 10
498.0
 20
17.646914596163981
 30
0.0
 11
509.0
 21
17.646914596163981
 31
0.0
  0
LINE
  5
552
  8
DATA
 62
     7
 10
498.0
 20
19.353085403836008
 30
0.0
 11
509.0
 21
19.353085403836008
 31
0.0
  0
LINE
  5
553
  8
DATA
 62
     7
 10
498.0
 20
13.47862269738738
 30
0.0
 11
509.0
 21
13.099312352559989
 31
0.0
  0
LINE
  5
554
  8
DATA
 62
     7
 10
498.0
 20
12.27217774941999
 30
0.0
 11
509.0
 21
11.892867404592611
 31
0.0
  0
LINE
  5
555
  8
DATA
 62
     7
 10
498.0
 20
23.52137730261262
 30
0.0
 11
509.0
 21
23.900687647440009
 31
0.0
  0
LINE
  5
556
  8
DATA
 62
     7
 10
498.0
 20
24.727822250580061
 30
0.0
 11
509.0
 21
25.1071325954074
 31
0.0
  0
LINE
  5
557
  8
DATA
 62
     7
 10
508.49999999999989
 20
7.0
 30
0.0
 11
509.0
 21
7.0
 31
0.0
  0
LINE
  5
558
  8
DATA
 62
     7
 10
508.49999999999989
 20
7.0
 30
0.0
 11
507.5
 21
8.5
 31
0.0
  0
LINE
  5
559
  8
DATA
 62
     7
 10
507.5
 20
10.844827586206749
 30
0.0
 11
507.5
 21
8.5
 31
0.0
  0
LINE
  5
55A
  8
DATA
 62
     7
 10
507.5
 20
8.5
 30
0.0
 11
506.0
 21
8.5
 31
0.0
  0
LINE
  5
55B
  8
DATA
 62
     7
 10
506.0
 20
10.94827586206884
 30
0.0
 11
506.0
 21
8.5
 31
0.0
  0
LINE
  5
55C
  8
DATA
 62
     7
 10
506.0
 20
8.5
 30
0.0
 11
505.61930294906159
 21
10.974530831099059
 31
0.0
  0
LINE
  5
55D
  8
DATA
 62
     7
 10
804.0
 20
16.690018145560309
 30
0.0
 11
799.0
 21
16.690018145560309
 31
0.0
  0
LINE
  5
55E
  8
DATA
 62
     7
 10
804.0
 20
11.30998185443968
 30
0.0
 11
799.0
 21
11.30998185443968
 31
0.0
  0
LINE
  5
55F
  8
DATA
 62
     7
 10
804.0
 20
18.75
 30
0.0
 11
804.0
 21
9.25
 31
0.0
  0
LINE
  5
560
  8
DATA
 62
     7
 10
804.0
 20
15.345009072780149
 30
0.0
 11
799.0
 21
15.345009072780149
 31
0.0
  0
LINE
  5
561
  8
DATA
 62
     7
 10
804.0
 20
12.65499092721984
 30
0.0
 11
799.0
 21
12.65499092721984
 31
0.0
  0
LINE
  5
562
  8
DATA
 62
     7
 10
801.0
 20
37.0
 30
0.0
 11
799.0
 21
37.0
 31
0.0
  0
LINE
  5
563
  8
DATA
 62
     7
 10
801.0
 20
37.0
 30
0.0
 11
801.0
 21
23.954545454545439
 31
0.0
  0
LINE
  5
564
  8
DATA
 62
     7
 10
804.49999999999989
 20
35.25
 30
0.0
 11
801.0
 21
35.25
 31
0.0
  0
LINE
  5
565
  8
DATA
 62
     7
 10
804.49999999999989
 20
24.75
 30
0.0
 11
801.0
 21
24.75
 31
0.0
  0
LINE
  5
566
  8
DATA
 62
     7
 10
804.49999999999989
 20
35.25
 30
0.0
 11
804.49999999999989
 21
24.75
 31
0.0
  0
LINE
  5
567
  8
DATA
 62
     7
 10
804.0
 20
18.75
 30
0.0
 11
799.0
 21
18.75
 31
0.0
  0
LINE
  5
568
  8
DATA
 62
     7
 10
804.0
 20
9.25
 30
0.0
 11
799.0
 21
9.25
 31
0.0
  0
LINE
  5
569
  8
DATA
 62
     7
 10
804.0
 20
18.0
 30
0.0
 11
799.0
 21
18.0
 31
0.0
  0
LINE
  5
56A
  8
DATA
 62
     7
 10
804.0
 20
10.0
 30
0.0
 11
799.0
 21
10.0
 31
0.0
  0
ARC
  5
56B
  8
DATA
 62
     7
 10
388.7594444770728
 20
567.75
 30
0.0
 40
2.500000000000008
 50
164.05460409907681
 51
269.99999999999977
  0
ARC
  5
56C
  8
DATA
 62
     7
 10
399.84055552292722
 20
567.75
 30
0.0
 40
2.499999999999972
 50
269.99999999999977
 51
15.945395900924151
  0
ARC
  5
56D
  8
DATA
 62
     7
 10
390.04515876278708
 20
572.25
 30
0.0
 40
2.500000000000028
 50
89.999999999999844
 51
164.05460409907619
  0
ARC
  5
56E
  8
DATA
 62
     7
 10
398.554841237213
 20
572.25
 30
0.0
 40
2.500000000000008
 50
15.945395900923209
 51
89.999999999999844
  0
ARC
  5
56F
  8
DATA
 62
     7
 10
423.14573783341717
 20
567.49999999999989
 30
0.0
 40
1.4999999999999969
 50
164.0546040990765
 51
270.00000000000028
  0
ARC
  5
570
  8
DATA
 62
     7
 10
435.45426216658268
 20
567.49999999999989
 30
0.0
 40
1.5
 50
270.0
 51
15.94539590092347
  0
ARC
  5
571
  8
DATA
 62
     7
 10
424.57430926198867
 20
572.5
 30
0.0
 40
1.5
 50
89.99999999999973
 51
164.0546040990765
  0
ARC
  5
572
  8
DATA
 62
     7
 10
434.02569073801141
 20
572.5
 30
0.0
 40
1.500000000000004
 50
15.945395900923449
 51
90.000000000000028
  0
CIRCLE
  5
573
  8
DATA
 62
     7
 10
365.55000000000001
 20
567.0
 30
0.0
 40
6.0
  0
CIRCLE
  5
574
  8
DATA
 62
     7
 10
340.55000000000001
 20
567.0
 30
0.0
 40
6.0
  0
CIRCLE
  5
575
  8
DATA
 62
     7
 10
315.55000000000001
 20
567.0
 30
0.0
 40
6.0
  0
CIRCLE
  5
576
  8
DATA
 62
     7
 10
102.3
 20
570.0
 30
0.0
 40
6.0
  0
LINE
  5
577
  8
DATA
 62
     7
 10
804.49999999999989
 20
23.0
 30
0.0
 11
804.49999999999989
 21
8.0
 31
0.0
  0
LINE
  5
578
  8
DATA
 62
     7
 10
799.0
 20
24.5
 30
0.0
 11
804.49999999999989
 21
23.0
 31
0.0
  0
LINE
  5
579
  8
DATA
 62
     7
 10
804.49999999999989
 20
11.0
 30
0.0
 11
804.0
 21
10.86363636363637
 31
0.0
  0
LINE
  5
57A
  8
DATA
 62
     7
 10
804.49999999999989
 20
8.0
 30
0.0
 11
799.0
 21
6.5
 31
0.0
  0
LINE
  5
57B
  8
DATA
 62
     7
 10
444.12962405069641
 20
445.0
 30
0.0
 11
444.12962405069641
 21
440.0
 31
0.0
  0
LINE
  5
57C
  8
DATA
 62
     7
 10
439.47037594930367
 20
445.0
 30
0.0
 11
439.47037594930367
 21
440.0
 31
0.0
  0
LINE
  5
57D
  8
DATA
 62
     7
 10
441.80000000000001
 20
445.0
 30
0.0
 11
441.80000000000001
 21
440.0
 31
0.0
  0
LINE
  5
57E
  8
DATA
 62
     7
 10
419.12962405069641
 20
445.0
 30
0.0
 11
419.12962405069641
 21
440.0
 31
0.0
  0
LINE
  5
57F
  8
DATA
 62
     7
 10
414.47037594930367
 20
445.0
 30
0.0
 11
414.47037594930367
 21
440.0
 31
0.0
  0
LINE
  5
580
  8
DATA
 62
     7
 10
416.80000000000001
 20
445.0
 30
0.0
 11
416.80000000000001
 21
440.0
 31
0.0
  0
LINE
  5
581
  8
DATA
 62
     7
 10
421.70345191195599
 20
445.0
 30
0.0
 11
421.70345191195599
 21
440.0
 31
0.0
  0
LINE
  5
582
  8
DATA
 62
     7
 10
436.89654808804391
 20
445.0
 30
0.0
 11
436.89654808804391
 21
440.0
 31
0.0
  0
LINE
  5
583
  8
DATA
 62
     7
 10
444.12962405069641
 20
445.0
 30
0.0
 11
439.47037594930367
 21
445.0
 31
0.0
  0
LINE
  5
584
  8
DATA
 62
     7
 10
436.89654808804391
 20
445.0
 30
0.0
 11
421.70345191195599
 21
445.0
 31
0.0
  0
LINE
  5
585
  8
DATA
 62
     7
 10
419.12962405069641
 20
445.0
 30
0.0
 11
414.47037594930367
 21
445.0
 31
0.0
  0
LINE
  5
586
  8
DATA
 62
     7
 10
409.12962405069641
 20
445.0
 30
0.0
 11
409.12962405069641
 21
440.0
 31
0.0
  0
LINE
  5
587
  8
DATA
 62
     7
 10
404.47037594930362
 20
445.0
 30
0.0
 11
404.47037594930362
 21
440.0
 31
0.0
  0
LINE
  5
588
  8
DATA
 62
     7
 10
406.80000000000001
 20
445.0
 30
0.0
 11
406.80000000000001
 21
440.0
 31
0.0
  0
LINE
  5
589
  8
DATA
 62
     7
 10
402.24436539202929
 20
445.0
 30
0.0
 11
402.24436539202929
 21
440.0
 31
0.0
  0
LINE
  5
58A
  8
DATA
 62
     7
 10
386.35563460797073
 20
445.0
 30
0.0
 11
386.35563460797073
 21
440.0
 31
0.0
  0
LINE
  5
58B
  8
DATA
 62
     7
 10
384.12962405069641
 20
445.0
 30
0.0
 11
384.12962405069641
 21
440.0
 31
0.0
  0
LINE
  5
58C
  8
DATA
 62
     7
 10
381.80000000000001
 20
445.0
 30
0.0
 11
381.80000000000001
 21
440.0
 31
0.0
  0
LINE
  5
58D
  8
DATA
 62
     7
 10
379.47037594930367
 20
445.0
 30
0.0
 11
379.47037594930367
 21
440.0
 31
0.0
  0
LINE
  5
58E
  8
DATA
 62
     7
 10
409.12962405069641
 20
445.0
 30
0.0
 11
404.47037594930362
 21
445.0
 31
0.0
  0
LINE
  5
58F
  8
DATA
 62
     7
 10
402.24436539202929
 20
445.0
 30
0.0
 11
386.35563460797073
 21
445.0
 31
0.0
  0
LINE
  5
590
  8
DATA
 62
     7
 10
384.12962405069641
 20
445.0
 30
0.0
 11
379.47037594930367
 21
445.0
 31
0.0
  0
LINE
  5
591
  8
DATA
 62
     7
 10
359.55000000000001
 20
445.5
 30
0.0
 11
371.55000000000001
 21
445.5
 31
0.0
  0
LINE
  5
592
  8
DATA
 62
     7
 10
371.55000000000001
 20
445.5
 30
0.0
 11
373.05000000000001
 21
440.0
 31
0.0
  0
LINE
  5
593
  8
DATA
 62
     7
 10
359.55000000000001
 20
445.5
 30
0.0
 11
358.05000000000001
 21
440.0
 31
0.0
  0
LINE
  5
594
  8
DATA
 62
     7
 10
334.55000000000001
 20
445.5
 30
0.0
 11
346.55000000000001
 21
445.5
 31
0.0
  0
LINE
  5
595
  8
DATA
 62
     7
 10
346.55000000000001
 20
445.5
 30
0.0
 11
348.05000000000001
 21
440.0
 31
0.0
  0
LINE
  5
596
  8
DATA
 62
     7
 10
334.55000000000001
 20
445.5
 30
0.0
 11
333.05000000000001
 21
440.0
 31
0.0
  0
LINE
  5
597
  8
DATA
 62
     7
 10
309.55000000000001
 20
445.5
 30
0.0
 11
321.55000000000001
 21
445.5
 31
0.0
  0
LINE
  5
598
  8
DATA
 62
     7
 10
321.55000000000001
 20
445.5
 30
0.0
 11
323.05000000000001
 21
440.0
 31
0.0
  0
LINE
  5
599
  8
DATA
 62
     7
 10
309.55000000000001
 20
445.5
 30
0.0
 11
308.05000000000001
 21
440.0
 31
0.0
  0
LINE
  5
59A
  8
DATA
 62
     7
 10
112.8
 20
442.0
 30
0.0
 11
112.8
 21
440.0
 31
0.0
  0
LINE
  5
59B
  8
DATA
 62
     7
 10
91.799999999999983
 20
442.0
 30
0.0
 11
91.799999999999983
 21
440.0
 31
0.0
  0
LINE
  5
59C
  8
DATA
 62
     7
 10
91.799999999999983
 20
442.0
 30
0.0
 11
112.8
 21
442.0
 31
0.0
  0
LINE
  5
59D
  8
DATA
 62
     7
 10
106.8
 20
445.0
 30
0.0
 11
109.8
 21
442.0
 31
0.0
  0
ARC
  5
59E
  8
DATA
 62
     7
 10
94.195990922844189
 20
469.9750378214826
 30
0.0
 40
27.975231169760001
 50
270.21302039811451
 51
296.77844616347721
  0
LINE
  5
59F
  8
DATA
 62
     7
 10
95.345454545454558
 20
442.0
 30
0.0
 11
96.299999999999997
 21
445.5
 31
0.0
  0
LINE
  5
5A0
  8
DATA
 62
     7
 10
109.05
 20
442.75
 30
0.0
 11
108.3
 21
445.5
 31
0.0
  0
LINE
  5
5A1
  8
DATA
 62
     7
 10
108.3
 20
445.5
 30
0.0
 11
96.299999999999997
 21
445.5
 31
0.0
  0
LINE
  5
5A2
  8
DATA
 62
     7
 10
82.300000000000026
 20
443.0
 30
0.0
 11
82.300000000000026
 21
440.0
 31
0.0
  0
LINE
  5
5A3
  8
DATA
 62
     7
 10
34.300000000000011
 20
443.0
 30
0.0
 11
34.300000000000011
 21
440.0
 31
0.0
  0
LINE
  5
5A4
  8
DATA
 62
     7
 10
34.300000000000011
 20
443.0
 30
0.0
 11
43.299999999999997
 21
443.0
 31
0.0
  0
LINE
  5
5A5
  8
DATA
 62
     7
 10
73.300000000000026
 20
443.0
 30
0.0
 11
82.300000000000026
 21
443.0
 31
0.0
  0
LINE
  5
5A6
  8
DATA
 62
     7
 10
73.300000000000026
 20
445.0
 30
0.0
 11
73.300000000000026
 21
443.0
 31
0.0
  0
LINE
  5
5A7
  8
DATA
 62
     7
 10
43.299999999999997
 20
445.0
 30
0.0
 11
43.299999999999997
 21
443.0
 31
0.0
  0
LINE
  5
5A8
  8
DATA
 62
     7
 10
43.299999999999997
 20
445.0
 30
0.0
 11
73.300000000000026
 21
445.0
 31
0.0
  0
ENDSEC
  0
EOF
