  0
SECTION
  2
HEADER
  9
$ACADVER
  1
AC1009
  9
$INSBASE
 10
0.0
 20
0.0
 30
0.0
  9
$EXTMIN
 10
-80.010985489947416
 20
-131.71201227911089
 30
-0.0015258207003583
  9
$EXTMAX
 10
280.01098716632811
 20
403.5481165140169
 30
0.0000000349246037
  9
$LIMMIN
 10
0.0
 20
0.0
  9
$LIMMAX
 10
0.0
 20
0.0
  9
$ORTHOMODE
 70
     0
  9
$REGENMODE
 70
     1
  9
$FILLMODE
 70
     1
  9
$QTEXTMODE
 70
     0
  9
$MIRRTEXT
 70
     1
  9
$DRAGMODE
 70
     2
  9
$LTSCALE
 40
10.16
  9
$OSMODE
 70
   231
  9
$ATTMODE
 70
     1
  9
$TEXTSIZE
 40
0.0
  9
$TRACEWID
 40
1.0
  9
$TEXTSTYLE
  7
STANDARD
  9
$CLAYER
  8
DATA
  9
$CELTYPE
  6
BYLAYER
  9
$CECOLOR
 62
   256
  9
$DIMSCALE
 40
1.0
  9
$DIMASZ
 40
0.18
  9
$DIMEXO
 40
0.0625
  9
$DIMDLI
 40
0.38
  9
$DIMRND
 40
0.0
  9
$DIMDLE
 40
0.0
  9
$DIMEXE
 40
0.18
  9
$DIMTP
 40
0.0
  9
$DIMTM
 40
0.0
  9
$DIMTXT
 40
0.18
  9
$DIMCEN
 40
0.09
  9
$DIMTSZ
 40
0.0
  9
$DIMTOL
 70
     0
  9
$DIMLIM
 70
     0
  9
$DIMTIH
 70
     1
  9
$DIMTOH
 70
     1
  9
$DIMSE1
 70
     0
  9
$DIMSE2
 70
     0
  9
$DIMTAD
 70
     0
  9
$DIMZIN
 70
     0
  9
$DIMBLK
  1

  9
$DIMASO
 70
     1
  9
$DIMSHO
 70
     1
  9
$DIMPOST
  1

  9
$DIMAPOST
  1

  9
$DIMALT
 70
     0
  9
$DIMALTD
 70
     2
  9
$DIMALTF
 40
25.399999999999999
  9
$DIMLFAC
 40
1.0
  9
$DIMTOFL
 70
     0
  9
$DIMTVP
 40
0.0
  9
$DIMTIX
 70
     0
  9
$DIMSOXD
 70
     0
  9
$DIMSAH
 70
     0
  9
$DIMBLK1
  1

  9
$DIMBLK2
  1

  9
$DIMSTYLE
  2
STANDARD
  9
$DIMCLRD
 70
     0
  9
$DIMCLRE
 70
     0
  9
$DIMCLRT
 70
     0
  9
$DIMTFAC
 40
1.0
  9
$DIMGAP
 40
0.09
  9
$LUNITS
 70
     2
  9
$LUPREC
 70
     4
  9
$SKETCHINC
 40
0.1
  9
$FILLETRAD
 40
0.0
  9
$AUNITS
 70
     0
  9
$AUPREC
 70
     0
  9
$MENU
  1
acad
  9
$ELEVATION
 40
0.0
  9
$PELEVATION
 40
0.0
  9
$THICKNESS
 40
0.0
  9
$LIMCHECK
 70
     0
  9
$BLIPMODE
 70
     0
  9
$CHAMFERA
 40
0.0
  9
$CHAMFERB
 40
0.0
  9
$SKPOLY
 70
     0
  9
$TDCREATE
 40
2454272.756064815
  9
$TDUPDATE
 40
2454272.7576346071
  9
$TDINDWG
 40
0.0003112269
  9
$TDUSRTIMER
 40
0.0003087616
  9
$USRTIMER
 70
     1
  9
$ANGBASE
 50
0.0
  9
$ANGDIR
 70
     0
  9
$PDMODE
 70
     1
  9
$PDSIZE
 40
-2.0
  9
$PLINEWID
 40
0.0
  9
$COORDS
 70
     1
  9
$SPLFRAME
 70
     0
  9
$SPLINETYPE
 70
     6
  9
$SPLINESEGS
 70
     8
  9
$ATTDIA
 70
     0
  9
$ATTREQ
 70
     1
  9
$HANDLING
 70
     1
  9
$HANDSEED
  5
276
  9
$SURFTAB1
 70
     6
  9
$SURFTAB2
 70
     6
  9
$SURFTYPE
 70
     6
  9
$SURFU
 70
     6
  9
$SURFV
 70
     6
  9
$UCSNAME
  2

  9
$UCSORG
 10
0.0
 20
0.0
 30
0.0
  9
$UCSXDIR
 10
1.0
 20
0.0
 30
0.0
  9
$UCSYDIR
 10
0.0
 20
1.0
 30
0.0
  9
$PUCSNAME
  2

  9
$PUCSORG
 10
0.0
 20
0.0
 30
0.0
  9
$PUCSXDIR
 10
1.0
 20
0.0
 30
0.0
  9
$PUCSYDIR
 10
0.0
 20
1.0
 30
0.0
  9
$USERI1
 70
     0
  9
$USERI2
 70
     0
  9
$USERI3
 70
     0
  9
$USERI4
 70
     0
  9
$USERI5
 70
     0
  9
$USERR1
 40
0.0
  9
$USERR2
 40
0.0
  9
$USERR3
 40
0.0
  9
$USERR4
 40
0.0
  9
$USERR5
 40
0.0
  9
$WORLDVIEW
 70
     1
  9
$SHADEDGE
 70
     3
  9
$SHADEDIF
 70
    70
  9
$TILEMODE
 70
     1
  9
$MAXACTVP
 70
    64
  9
$PLIMCHECK
 70
     0
  9
$PEXTMIN
 10
1.0000000000000000E+020
 20
1.0000000000000000E+020
 30
1.0000000000000000E+020
  9
$PEXTMAX
 10
-1.0000000000000000E+020
 20
-1.0000000000000000E+020
 30
-1.0000000000000000E+020
  9
$PLIMMIN
 10
0.0
 20
0.0
  9
$PLIMMAX
 10
12.0
 20
9.0
  9
$UNITMODE
 70
     0
  9
$VISRETAIN
 70
     0
  9
$PLINEGEN
 70
     1
  9
$PSLTSCALE
 70
     0
  0
ENDSEC
  0
SECTION
  2
TABLES
  0
TABLE
  2
VPORT
 70
     1
  0
VPORT
  2
*ACTIVE
 70
     0
 10
0.0
 20
0.0
 11
1.0
 21
1.0
 12
100.0000008381904
 22
135.91805211745299
 13
0.0
 23
0.0
 14
1.0
 24
1.0
 15
0.0
 25
0.0
 16
0.0
 26
0.0
 36
1.0
 17
0.0
 27
0.0
 37
0.0
 40
539.70212156319542
 41
1.6703601108033239
 42
50.0
 43
0.0
 44
0.0
 50
0.0
 51
0.0
 71
     0
 72
  2000
 73
     1
 74
     1
 75
     0
 76
     0
 77
     0
 78
     0
  0
ENDTAB
  0
TABLE
  2
LTYPE
 70
    11
  0
LTYPE
  2
CONTINUOUS
 70
     0
  3
Solid line
 72
    65
 73
     0
 40
0.0
  0
ENDTAB
  0
TABLE
  2
LAYER
 70
     5
  0
LAYER
  2
0
 70
     0
 62
     7
  6
CONTINUOUS
  0
LAYER
  2
DATA
 70
     0
 62
     7
  6
CONTINUOUS
  0
LAYER
  2
HIBINO-BASE
 70
     0
 62
     7
  6
CONTINUOUS
  0
LAYER
  2
SPEC
 70
     0
 62
     7
  6
CONTINUOUS
  0
LAYER
  2
DIMNSIONS
 70
     0
 62
     7
  6
CONTINUOUS
  0
ENDTAB
  0
TABLE
  2
STYLE
 70
     2
  0
STYLE
  2
STANDARD
 70
     0
 40
0.0
 41
1.0
 50
0.0
 71
     0
 42
0.0
  3
txt
  4
BIGFONT.SHX
  0
ENDTAB
  0
TABLE
  2
VIEW
 70
     0
  0
ENDTAB
  0
TABLE
  2
UCS
 70
     0
  0
ENDTAB
  0
TABLE
  2
APPID
 70
     1
  0
APPID
  2
ACAD
 70
     0
  0
ENDTAB
  0
TABLE
  2
DIMSTYLE
 70
     1
  0
DIMSTYLE
  2
STANDARD
 70
     0
  3

  4

  5

  6

  7

 40
1.0
 41
0.18
 42
0.0625
 43
0.38
 44
0.18
 45
0.0
 46
0.0
 47
0.0
 48
0.0
140
0.18
141
0.09
142
0.0
143
25.399999999999999
144
1.0
145
0.0
146
1.0
147
0.09
 71
     0
 72
     0
 73
     1
 74
     1
 75
     0
 76
     0
 77
     0
 78
     0
170
     0
171
     2
172
     0
173
     0
174
     0
175
     0
176
     0
177
     0
178
     0
  0
ENDTAB
  0
ENDSEC
  0
SECTION
  2
BLOCKS
  0
BLOCK
  8
0
  2
$MODEL_SPACE
 70
     0
 10
0.0
 20
0.0
 30
0.0
  3
$MODEL_SPACE
  1

  0
ENDBLK
  5
249
  8
0
  0
BLOCK
 67
     1
  8
0
  2
$PAPER_SPACE
 70
     0
 10
0.0
 20
0.0
 30
0.0
  3
$PAPER_SPACE
  1

  0
ENDBLK
  5
245
 67
     1
  8
0
  0
ENDSEC
  0
SECTION
  2
ENTITIES
  0
LINE
  5
2C
  8
HIBINO-BASE
  6
CONTINUOUS
 62
     7
 10
-79.999999999999986
 20
403.53181499999999
 30
0.0
 11
279.99999999999989
 21
403.53181499999999
 31
0.0
  0
LINE
  5
2D
  8
HIBINO-BASE
  6
CONTINUOUS
 62
     7
 10
279.99999999999989
 20
-116.46818500000001
 30
0.0
 11
-79.999999999999986
 21
-116.46818500000001
 31
0.0
  0
LINE
  5
2E
  8
HIBINO-BASE
  6
CONTINUOUS
 62
     7
 10
-79.999999999999986
 20
-116.46818500000001
 30
0.0
 11
-79.999999999999986
 21
403.53181499999999
 31
0.0
  0
TEXT
  5
2F
  8
HIBINO-BASE
 62
     7
 10
-65.631999999999991
 20
-129.2855405999999
 30
0.0
 40
7.2000883593749991
  1
Hibino Corporation
 41
0.7
 11
-65.631999999999991
 21
-122.0854522406249
 31
0.0
 73
     3
  0
LINE
  5
30
  8
HIBINO-BASE
  6
CONTINUOUS
 62
     7
 10
279.99999999999989
 20
403.53181499999999
 30
0.0
 11
279.99999999999989
 21
-116.46818500000001
 31
0.0
  0
LINE
  5
31
  8
HIBINO-BASE
  6
CONTINUOUS
 62
     7
 10
100.0
 20
-71.468184999999977
 30
0.0
 11
279.99999999999989
 21
-71.468184999999977
 31
0.0
  0
LINE
  5
32
  8
HIBINO-BASE
  6
CONTINUOUS
 62
     7
 10
100.0
 20
-116.46818500000001
 30
0.0
 11
100.0
 21
-71.468184999999977
 31
0.0
  0
TEXT
  5
33
  8
HIBINO-BASE
 62
     7
 10
101.8
 20
-76.485571666666644
 30
0.0
 40
3.2576822916666659
  1
NOTE
 41
0.7
 11
101.8
 21
-73.227889374999975
 31
0.0
 73
     3
  0
LINE
  5
34
  8
HIBINO-BASE
  6
CONTINUOUS
 62
     7
 10
170.0
 20
-116.46818500000001
 30
0.0
 11
170.0
 21
-71.468184999999977
 31
0.0
  0
TEXT
  5
35
  8
HIBINO-BASE
 62
     7
 10
171.7999999999999
 20
-76.485571666666644
 30
0.0
 40
3.2576822916666659
  1
TITLE
 41
0.7
 11
171.7999999999999
 21
-73.227889374999975
 31
0.0
 73
     3
  0
TEXT
  5
36
  8
HIBINO-BASE
 62
     7
 10
200.13677999999999
 20
-129.2855405999999
 30
0.0
 40
7.2000883593749991
  1
ヒビノ株式会社
 41
0.7
 11
200.13677999999999
 21
-122.0854522406249
 31
0.0
 73
     3
  0
LINE
  5
37
  8
HIBINO-BASE
  6
CONTINUOUS
 62
     7
 10
100.0
 20
-96.468184999999963
 30
0.0
 11
279.99999999999989
 21
-96.468184999999963
 31
0.0
  0
TEXT
  5
38
  8
HIBINO-BASE
 62
     7
 10
196.80000000000001
 20
-101.3729316666666
 30
0.0
 40
3.2576822916666659
  1
DRAWN
 41
0.7
 11
196.80000000000001
 21
-98.115249375000005
 31
0.0
 73
     3
  0
TEXT
  5
39
  8
HIBINO-BASE
 62
     7
 10
146.7999999999999
 20
-101.3729316666666
 30
0.0
 40
3.2576822916666659
  1
DATE
 41
0.7
 11
146.7999999999999
 21
-98.115249375000005
 31
0.0
 73
     3
  0
TEXT
  5
3A
  8
HIBINO-BASE
 62
     7
 10
126.8
 20
-101.3729316666666
 30
0.0
 40
3.2576822916666659
  1
SCALE
 41
0.7
 11
126.8
 21
-98.115249375000005
 31
0.0
 73
     3
  0
TEXT
  5
3B
  8
HIBINO-BASE
 62
     7
 10
171.7999999999999
 20
-101.3729316666666
 30
0.0
 40
3.2576822916666659
  1
DESIGN
 41
0.7
 11
171.7999999999999
 21
-98.115249375000005
 31
0.0
 73
     3
  0
TEXT
  5
3C
  8
HIBINO-BASE
 62
     7
 10
246.7999999999999
 20
-101.3729316666666
 30
0.0
 40
3.2576822916666659
  1
DRAWING NO.
 41
0.7
 11
246.7999999999999
 21
-98.115249375000005
 31
0.0
 73
     3
  0
TEXT
  5
3D
  8
HIBINO-BASE
 62
     7
 10
221.7999999999999
 20
-101.3729316666666
 30
0.0
 40
3.2576822916666659
  1
CHECK
 41
0.7
 11
221.7999999999999
 21
-98.115249375000005
 31
0.0
 73
     3
  0
LINE
  5
3E
  8
HIBINO-BASE
  6
CONTINUOUS
 62
     7
 10
128.74999999999989
 20
-113.96818500000001
 30
0.0
 11
136.25
 21
-106.46818499999991
 31
0.0
  0
TEXT
  5
3F
  8
HIBINO-BASE
 62
     7
 10
127.5
 20
-108.68607166666661
 30
0.0
 40
3.2576822916666659
  1
1
 41
0.7
 11
127.5
 21
-105.42838937499999
 31
0.0
 73
     3
  0
LINE
  5
40
  8
HIBINO-BASE
  6
CONTINUOUS
 62
     7
 10
125.0
 20
-116.46818500000001
 30
0.0
 11
125.0
 21
-96.468184999999963
 31
0.0
  0
LINE
  5
41
  8
HIBINO-BASE
  6
CONTINUOUS
 62
     7
 10
145.0
 20
-116.46818500000001
 30
0.0
 11
145.0
 21
-96.468184999999963
 31
0.0
  0
LINE
  5
42
  8
HIBINO-BASE
  6
CONTINUOUS
 62
     7
 10
195.0
 20
-96.468184999999963
 30
0.0
 11
195.0
 21
-116.46818500000001
 31
0.0
  0
LINE
  5
43
  8
HIBINO-BASE
  6
CONTINUOUS
 62
     7
 10
245.0
 20
-96.468184999999963
 30
0.0
 11
245.0
 21
-116.46818500000001
 31
0.0
  0
LINE
  5
44
  8
HIBINO-BASE
  6
CONTINUOUS
 62
     7
 10
220.0
 20
-116.46818500000001
 30
0.0
 11
220.0
 21
-96.468184999999963
 31
0.0
  0
TEXT
  5
45
  8
HIBINO-BASE
 62
     7
 10
146.71307999999999
 20
-110.7408916666666
 30
0.0
 40
3.2576822916666659
  1
'07.06.
 41
0.7
 11
146.71307999999999
 21
-107.483209375
 31
0.0
 73
     3
  0
TEXT
  5
46
  8
HIBINO-BASE
 62
     7
 10
135.0
 20
-112.43607166666661
 30
0.0
 40
3.2576822916666659
  1
2
 41
0.7
 11
135.0
 21
-109.17838937499999
 31
0.0
 73
     3
  0
TEXT
  5
47
  8
HIBINO-BASE
 62
     7
 10
198.0116200220692
 20
-110.7408916666666
 30
0.0
 40
3.2576822916666659
  1
N.Sasaki
 41
0.7
 11
198.0116200220692
 21
-107.483209375
 31
0.0
 73
     3
  0
TEXT
  5
48
  8
HIBINO-BASE
 62
     7
 10
107.76666666666659
 20
-112.51618499999999
 30
0.0
 40
6.5153645833333318
  1
A4
 41
0.7
 11
107.76666666666659
 21
-106.0008204166666
 31
0.0
 73
     3
  0
TEXT
  5
49
  8
HIBINO-BASE
 62
     7
 10
101.9166666666666
 20
-101.707095
 30
0.0
 40
3.2576822916666659
  1
PAPER SIZE
 41
0.7
 11
101.9166666666666
 21
-98.449412708333327
 31
0.0
 73
     3
  0
LINE
  5
4A
  8
SPEC
  6
CONTINUOUS
 62
     7
 10
-65.000000000000014
 20
383.53181499999999
 30
0.0
 11
166.0
 21
383.53181499999999
 31
0.0
  0
LINE
  5
4B
  8
SPEC
  6
CONTINUOUS
 62
     7
 10
-65.000000000000014
 20
383.53181499999999
 30
0.0
 11
-65.000000000000014
 21
361.032535
 31
0.0
  0
TEXT
  5
4C
  8
SPEC
 62
     7
 10
-62.500000000000021
 20
386.318355
 30
0.0
 40
4.8865234375000011
  1
仕様
 41
0.7
 11
-62.500000000000021
 21
391.20487843749999
 31
0.0
 73
     3
  0
LINE
  5
4D
  8
SPEC
  6
CONTINUOUS
 62
     7
 10
15.99999999999998
 20
383.53181499999999
 30
0.0
 11
15.99999999999998
 21
361.032535
 31
0.0
  0
LINE
  5
4E
  8
SPEC
  6
CONTINUOUS
 62
     7
 10
166.0
 20
383.53181499999999
 30
0.0
 11
166.0
 21
361.032535
 31
0.0
  0
LINE
  5
4F
  8
SPEC
  6
CONTINUOUS
 62
     7
 10
-65.000000000000014
 20
361.032535
 30
0.0
 11
166.0
 21
361.032535
 31
0.0
  0
TEXT
  5
50
  8
SPEC
 62
     7
 10
-63.200000000000067
 20
362.6083705555555
 30
0.0
 40
3.8006293402777769
  1
質量
 41
0.7
 11
-63.200000000000067
 21
366.40899989583329
 31
0.0
 73
     3
  0
TEXT
  5
51
  8
SPEC
 62
     7
 10
17.999999999999979
 20
362.6083705555555
 30
0.0
 40
3.8006293402777769
  1
約116g
 41
0.7
 11
17.999999999999979
 21
366.40899989583329
 31
0.0
 73
     3
  0
TEXT
  5
52
  8
SPEC
 62
     7
 10
-63.200000000000067
 20
377.6083705555555
 30
0.0
 40
3.8006293402777769
  1
コネクタ 
 41
0.7
 11
-63.200000000000067
 21
381.40899989583329
 31
0.0
 73
     3
  0
TEXT
  5
53
  8
SPEC
 62
     7
 10
17.999999999999979
 20
377.6083705555555
 30
0.0
 40
3.8006293402777769
  1
3Pユーロブロック(1:GND,2:1SOURCE,3:2LEVEL)
 41
0.7
 11
17.999999999999979
 21
381.40899989583329
 31
0.0
 73
     3
  0
TEXT
  5
54
  8
SPEC
 62
     7
 10
-63.200000000000067
 20
370.1083705555555
 30
0.0
 40
3.8006293402777769
  1
寸法(W×H×D)
 41
0.7
 11
-63.200000000000067
 21
373.90899989583329
 31
0.0
 73
     3
  0
TEXT
  5
55
  8
SPEC
 62
     7
 10
17.999999999999979
 20
370.1083705555555
 30
0.0
 40
3.8006293402777769
  1
86×86×28mm(突起部含まず)
 41
0.7
 11
17.999999999999979
 21
373.90899989583329
 31
0.0
 73
     3
  0
LINE
  5
56
  8
SPEC
  6
CONTINUOUS
 62
     7
 10
-65.000000000000014
 20
368.532535
 30
0.0
 11
166.0
 21
368.532535
 31
0.0
  0
LINE
  5
57
  8
SPEC
  6
CONTINUOUS
 62
     7
 10
-65.000000000000014
 20
376.032535
 30
0.0
 11
166.0
 21
376.032535
 31
0.0
  0
TEXT
  5
58
  8
DIMNSIONS
 62
     7
 10
60.0
 20
-91.929204999999968
 30
0.0
 40
4.8865234375000002
  1
(単位：mm)
 41
0.7
 11
60.0
 21
-87.042681562499979
 31
0.0
 73
     3
  0
LINE
  5
59
  8
DIMNSIONS
  6
CONTINUOUS
 62
     7
 10
56.576305647714193
 20
126.379879035531
 30
0.0
 11
75.0
 21
150.0
 31
0.0
  0
LINE
  5
5A
  8
DIMNSIONS
  6
CONTINUOUS
 62
     7
 10
56.576305647714193
 20
126.379879035531
 30
0.0
 11
58.599382467181428
 21
131.1459493469161
 31
0.0
  0
LINE
  5
5B
  8
DIMNSIONS
  6
CONTINUOUS
 62
     7
 10
56.576305647714193
 20
126.379879035531
 30
0.0
 11
60.711376722872771
 21
129.49587859167971
 31
0.0
  0
LINE
  5
5C
  8
DIMNSIONS
  6
CONTINUOUS
 62
     7
 10
75.0
 20
150.0
 30
0.0
 11
103.6944444444444
 21
150.0
 31
0.0
  0
TEXT
  5
5D
  8
DIMNSIONS
 62
     7
 10
79.0
 20
151.98777777777769
 30
0.0
 40
5.4294704861111107
  1
2-φ3.5
 41
0.7
 11
79.0
 21
157.41724826388881
 31
0.0
 73
     3
  0
LINE
  5
5E
  8
DIMNSIONS
  6
CONTINUOUS
 62
     7
 10
-14.0
 20
168.0
 30
0.0
 11
-54.000000000000021
 21
168.0
 31
0.0
  0
LINE
  5
5F
  8
DIMNSIONS
  6
CONTINUOUS
 62
     7
 10
-14.0
 20
82.000000000000014
 30
0.0
 11
-54.000000000000021
 21
82.000000000000014
 31
0.0
  0
LINE
  5
60
  8
DIMNSIONS
  6
CONTINUOUS
 62
     7
 10
-50.000000000000021
 20
168.0
 30
0.0
 11
-50.000000000000021
 21
82.000000000000014
 31
0.0
  0
LINE
  5
61
  8
DIMNSIONS
  6
CONTINUOUS
 62
     7
 10
-50.000000000000021
 20
168.0
 30
0.0
 11
-48.659920409699531
 21
162.99875488281251
 31
0.0
  0
LINE
  5
62
  8
DIMNSIONS
  6
CONTINUOUS
 62
     7
 10
-50.000000000000021
 20
168.0
 30
0.0
 11
-51.340079590300498
 21
162.99875488281251
 31
0.0
  0
LINE
  5
63
  8
DIMNSIONS
  6
CONTINUOUS
 62
     7
 10
-50.000000000000021
 20
82.000000000000014
 30
0.0
 11
-51.340079590300498
 21
87.001245117187537
 31
0.0
  0
LINE
  5
64
  8
DIMNSIONS
  6
CONTINUOUS
 62
     7
 10
-50.000000000000021
 20
82.000000000000014
 30
0.0
 11
-48.659920409699531
 21
87.001245117187537
 31
0.0
  0
TEXT
  5
65
  8
DIMNSIONS
 62
     7
 10
-51.987777777777772
 20
121.4722222222222
 30
0.0
 40
5.4294704861111107
  1
86
 50
90.0
 41
0.7
 11
-57.417248263888887
 21
121.4722222222222
 31
0.0
 73
     3
  0
LINE
  5
66
  8
DIMNSIONS
  6
CONTINUOUS
 62
     7
 10
-18.0
 20
86.0
 30
0.0
 11
-18.0
 21
46.0
 31
0.0
  0
LINE
  5
67
  8
DIMNSIONS
  6
CONTINUOUS
 62
     7
 10
68.0
 20
86.0
 30
0.0
 11
68.0
 21
46.0
 31
0.0
  0
LINE
  5
68
  8
DIMNSIONS
  6
CONTINUOUS
 62
     7
 10
-18.0
 20
50.0
 30
0.0
 11
68.0
 21
50.0
 31
0.0
  0
LINE
  5
69
  8
DIMNSIONS
  6
CONTINUOUS
 62
     7
 10
-18.0
 20
50.0
 30
0.0
 11
-12.9987548828125
 21
51.340079590300491
 31
0.0
  0
LINE
  5
6A
  8
DIMNSIONS
  6
CONTINUOUS
 62
     7
 10
-18.0
 20
50.0
 30
0.0
 11
-12.9987548828125
 21
48.659920409699509
 31
0.0
  0
LINE
  5
6B
  8
DIMNSIONS
  6
CONTINUOUS
 62
     7
 10
68.0
 20
50.0
 30
0.0
 11
62.998754882812499
 21
48.659920409699509
 31
0.0
  0
LINE
  5
6C
  8
DIMNSIONS
  6
CONTINUOUS
 62
     7
 10
68.0
 20
50.0
 30
0.0
 11
62.998754882812499
 21
51.340079590300491
 31
0.0
  0
TEXT
  5
6D
  8
DIMNSIONS
 62
     7
 10
21.472222222222229
 20
51.987777777777779
 30
0.0
 40
5.4294704861111107
  1
86
 41
0.7
 11
21.472222222222229
 21
57.417248263888901
 31
0.0
 73
     3
  0
LINE
  5
6E
  8
DIMNSIONS
  6
CONTINUOUS
 62
     7
 10
-17.171572875253791
 20
9.0
 30
0.0
 11
-54.000000000000021
 21
9.0
 31
0.0
  0
LINE
  5
6F
  8
DIMNSIONS
  6
CONTINUOUS
 62
     7
 10
15.0
 20
25.0
 30
0.0
 11
-54.000000000000021
 21
25.0
 31
0.0
  0
LINE
  5
70
  8
DIMNSIONS
  6
CONTINUOUS
 62
     7
 10
-50.000000000000021
 20
9.0
 30
0.0
 11
-50.000000000000021
 21
25.0
 31
0.0
  0
LINE
  5
71
  8
DIMNSIONS
  6
CONTINUOUS
 62
     7
 10
-50.000000000000021
 20
9.0
 30
0.0
 11
-51.340079590300498
 21
14.001245117187491
 31
0.0
  0
LINE
  5
72
  8
DIMNSIONS
  6
CONTINUOUS
 62
     7
 10
-50.000000000000021
 20
9.0
 30
0.0
 11
-48.659920409699531
 21
14.001245117187491
 31
0.0
  0
LINE
  5
73
  8
DIMNSIONS
  6
CONTINUOUS
 62
     7
 10
-50.000000000000021
 20
25.0
 30
0.0
 11
-48.659920409699531
 21
19.998754882812499
 31
0.0
  0
LINE
  5
74
  8
DIMNSIONS
  6
CONTINUOUS
 62
     7
 10
-50.000000000000021
 20
25.0
 30
0.0
 11
-51.340079590300498
 21
19.998754882812499
 31
0.0
  0
TEXT
  5
75
  8
DIMNSIONS
 62
     7
 10
-51.987777777777772
 20
13.47222222222222
 30
0.0
 40
5.4294704861111107
  1
16
 50
90.0
 41
0.7
 11
-57.417248263888887
 21
13.47222222222222
 31
0.0
 73
     3
  0
LINE
  5
76
  8
DIMNSIONS
  6
CONTINUOUS
 62
     7
 10
-17.171572875253791
 20
9.0
 30
0.0
 11
-54.000000000000021
 21
9.0
 31
0.0
  0
LINE
  5
77
  8
DIMNSIONS
  6
CONTINUOUS
 62
     7
 10
-22.0
 20
0.0
 30
0.0
 11
-54.000000000000021
 21
0.0
 31
0.0
  0
LINE
  5
78
  8
DIMNSIONS
  6
CONTINUOUS
 62
     7
 10
-50.000000000000021
 20
0.0
 30
0.0
 11
-50.000000000000021
 21
9.0
 31
0.0
  0
LINE
  5
79
  8
DIMNSIONS
  6
CONTINUOUS
 62
     7
 10
-50.000000000000021
 20
9.0
 30
0.0
 11
-50.000000000000021
 21
19.0
 31
0.0
  0
LINE
  5
7A
  8
DIMNSIONS
  6
CONTINUOUS
 62
     7
 10
-50.000000000000021
 20
9.0
 30
0.0
 11
-51.340079590300498
 21
14.001245117187491
 31
0.0
  0
LINE
  5
7B
  8
DIMNSIONS
  6
CONTINUOUS
 62
     7
 10
-50.000000000000021
 20
9.0
 30
0.0
 11
-48.659920409699531
 21
14.001245117187491
 31
0.0
  0
LINE
  5
7C
  8
DIMNSIONS
  6
CONTINUOUS
 62
     7
 10
-50.000000000000021
 20
0.0
 30
0.0
 11
-50.000000000000021
 21
-10.0
 31
0.0
  0
LINE
  5
7D
  8
DIMNSIONS
  6
CONTINUOUS
 62
     7
 10
-50.000000000000021
 20
0.0
 30
0.0
 11
-48.659920409699531
 21
-5.0012451171874943
 31
0.0
  0
LINE
  5
7E
  8
DIMNSIONS
  6
CONTINUOUS
 62
     7
 10
-50.000000000000021
 20
0.0
 30
0.0
 11
-51.340079590300498
 21
-5.0012451171874943
 31
0.0
  0
TEXT
  5
7F
  8
DIMNSIONS
 62
     7
 10
-51.987777777777772
 20
2.7361111111111129
 30
0.0
 40
5.4294704861111107
  1
9
 50
90.0
 41
0.7
 11
-57.417248263888887
 21
2.7361111111111138
 31
0.0
 73
     3
  0
LINE
  5
80
  8
DIMNSIONS
  6
CONTINUOUS
 62
     7
 10
-22.0
 20
0.0
 30
0.0
 11
-54.000000000000021
 21
0.0
 31
0.0
  0
LINE
  5
81
  8
DIMNSIONS
  6
CONTINUOUS
 62
     7
 10
12.000000000000281
 20
-19.0
 30
0.0
 11
-54.000000000000021
 21
-19.0
 31
0.0
  0
LINE
  5
82
  8
DIMNSIONS
  6
CONTINUOUS
 62
     7
 10
-50.000000000000021
 20
0.0
 30
0.0
 11
-50.000000000000021
 21
-19.0
 31
0.0
  0
LINE
  5
83
  8
DIMNSIONS
  6
CONTINUOUS
 62
     7
 10
-50.000000000000021
 20
0.0
 30
0.0
 11
-48.659920409699531
 21
-5.0012451171874943
 31
0.0
  0
LINE
  5
84
  8
DIMNSIONS
  6
CONTINUOUS
 62
     7
 10
-50.000000000000021
 20
0.0
 30
0.0
 11
-51.340079590300498
 21
-5.0012451171874943
 31
0.0
  0
LINE
  5
85
  8
DIMNSIONS
  6
CONTINUOUS
 62
     7
 10
-50.000000000000021
 20
-19.0
 30
0.0
 11
-51.340079590300498
 21
-13.9987548828125
 31
0.0
  0
LINE
  5
86
  8
DIMNSIONS
  6
CONTINUOUS
 62
     7
 10
-50.000000000000021
 20
-19.0
 30
0.0
 11
-48.659920409699531
 21
-13.9987548828125
 31
0.0
  0
TEXT
  5
87
  8
DIMNSIONS
 62
     7
 10
-51.987777777777772
 20
-13.02777777777777
 30
0.0
 40
5.4294704861111107
  1
19
 50
90.0
 41
0.7
 11
-57.417248263888887
 21
-13.02777777777777
 31
0.0
 73
     3
  0
TEXT
  5
88
  8
DATA
 62
     7
 10
-60.0
 20
-107.99218500000001
 30
0.0
 40
3.2576822916666659
  1
仕様および外観は予告なく変更されることがありますので、ご了承ください。
 41
0.7
 11
-60.0
 21
-104.7345027083333
 31
0.0
 73
     3
  0
TEXT
  5
89
  8
DATA
 62
     7
 10
200.0
 20
-94.206404999999947
 30
0.0
 40
4.8865234375000011
  1
BLU-3
 41
0.7
 11
200.0
 21
-89.319881562499944
 31
0.0
 73
     3
  0
TEXT
  5
8A
  8
DATA
 62
     7
 10
200.0
 20
-79.706404999999933
 30
0.0
 40
4.8865234375000011
  1
BSS
 41
0.7
 11
200.0
 21
-74.81988156249993
 31
0.0
 73
     3
  0
TEXT
  5
8B
  8
DATA
 62
     7
 10
194.29444444444439
 20
-86.778000000000006
 30
0.0
 40
3.8006293402777769
  1
Soundweb London
 41
0.7
 11
194.29444444444439
 21
-82.977370659722226
 31
0.0
 73
     3
  0
LINE
  5
8C
  8
DATA
  6
CONTINUOUS
 62
     7
 10
-10.0
 20
82.000000000000014
 30
0.0
 11
60.0
 21
82.000000000000014
 31
0.0
  0
LINE
  5
8D
  8
DATA
  6
CONTINUOUS
 62
     7
 10
-18.0
 20
90.0
 30
0.0
 11
-18.0
 21
160.0
 31
0.0
  0
LINE
  5
8E
  8
DATA
  6
CONTINUOUS
 62
     7
 10
-10.0
 20
168.0
 30
0.0
 11
60.0
 21
168.0
 31
0.0
  0
LINE
  5
8F
  8
DATA
  6
CONTINUOUS
 62
     7
 10
68.0
 20
160.0
 30
0.0
 11
68.0
 21
90.0
 31
0.0
  0
ARC
  5
90
  8
DATA
  6
CONTINUOUS
 62
     7
 10
-10.0
 20
90.0
 30
0.0
 40
8.0
 50
180.0
 51
270.0
  0
ARC
  5
91
  8
DATA
  6
CONTINUOUS
 62
     7
 10
60.0
 20
90.0
 30
0.0
 40
7.9999999999999867
 50
270.0
 51
0.0
  0
ARC
  5
92
  8
DATA
  6
CONTINUOUS
 62
     7
 10
-10.0
 20
160.0
 30
0.0
 40
8.0
 50
90.0
 51
180.0
  0
ARC
  5
93
  8
DATA
  6
CONTINUOUS
 62
     7
 10
60.0
 20
160.0
 30
0.0
 40
8.0
 50
0.0
 51
90.0
  0
LINE
  5
94
  8
DATA
  6
CONTINUOUS
 62
     7
 10
-14.0
 20
90.0
 30
0.0
 11
-14.0
 21
160.0
 31
0.0
  0
ARC
  5
95
  8
DATA
  6
CONTINUOUS
 62
     7
 10
-10.0
 20
90.0
 30
0.0
 40
4.0
 50
180.0
 51
270.0
  0
LINE
  5
96
  8
DATA
  6
CONTINUOUS
 62
     7
 10
-10.0
 20
86.0
 30
0.0
 11
60.0
 21
86.0
 31
0.0
  0
ARC
  5
97
  8
DATA
  6
CONTINUOUS
 62
     7
 10
60.0
 20
90.0
 30
0.0
 40
4.0
 50
270.0
 51
0.0
  0
LINE
  5
98
  8
DATA
  6
CONTINUOUS
 62
     7
 10
-10.0
 20
164.0
 30
0.0
 11
60.0
 21
164.0
 31
0.0
  0
ARC
  5
99
  8
DATA
  6
CONTINUOUS
 62
     7
 10
-10.0
 20
160.0
 30
0.0
 40
4.0
 50
90.0
 51
180.0
  0
ARC
  5
9A
  8
DATA
  6
CONTINUOUS
 62
     7
 10
60.0
 20
160.0
 30
0.0
 40
4.0
 50
0.0
 51
90.0
  0
LINE
  5
9B
  8
DATA
  6
CONTINUOUS
 62
     7
 10
64.0
 20
160.0
 30
0.0
 11
64.0
 21
90.0
 31
0.0
  0
CIRCLE
  5
9C
  8
DATA
  6
CONTINUOUS
 62
     7
 10
-5.5
 20
125.0
 30
0.0
 40
4.0000000000000231
  0
CIRCLE
  5
9D
  8
DATA
  6
CONTINUOUS
 62
     7
 10
-5.5
 20
125.0
 30
0.0
 40
1.75
  0
CIRCLE
  5
9E
  8
DATA
  6
CONTINUOUS
 62
     7
 10
55.5
 20
125.0
 30
0.0
 40
3.999999999999968
  0
CIRCLE
  5
9F
  8
DATA
  6
CONTINUOUS
 62
     7
 10
55.5
 20
125.0
 30
0.0
 40
1.75
  0
TEXT
  5
A0
  8
DATA
 62
     7
 10
10.00000000000011
 20
91.572888888888869
 30
0.0
 40
2.1717881944444439
  1
BLU-3
 41
0.7
 11
10.00000000000011
 21
93.744677083333315
 31
0.0
 73
     3
  0
LINE
  5
A1
  8
DATA
  6
CONTINUOUS
 62
     7
 10
-18.0
 20
4.1715728752537871
 30
0.0
 11
-18.0
 21
0.0
 31
0.0
  0
LINE
  5
A2
  8
DATA
  6
CONTINUOUS
 62
     7
 10
68.0
 20
4.171572875253843
 30
0.0
 11
68.0
 21
0.0
 31
0.0
  0
LINE
  5
A3
  8
DATA
  6
CONTINUOUS
 62
     7
 10
-18.0
 20
0.0
 30
0.0
 11
68.0
 21
0.0
 31
0.0
  0
LINE
  5
A4
  8
DATA
  6
CONTINUOUS
 62
     7
 10
-17.820359442249469
 20
5.0
 30
0.0
 11
67.8203594422489
 21
5.0
 31
0.0
  0
LINE
  5
A5
  8
DATA
  6
CONTINUOUS
 62
     7
 10
-13.17157287525378
 20
9.0
 30
0.0
 11
63.17157287525378
 21
9.0
 31
0.0
  0
LINE
  5
A6
  8
DATA
  6
CONTINUOUS
 62
     7
 10
31.0
 20
25.0
 30
0.0
 11
31.0
 21
23.5
 31
0.0
  0
LINE
  5
A7
  8
DATA
  6
CONTINUOUS
 62
     7
 10
19.0
 20
25.0
 30
0.0
 11
19.0
 21
23.5
 31
0.0
  0
LINE
  5
A8
  8
DATA
  6
CONTINUOUS
 62
     7
 10
19.0
 20
25.0
 30
0.0
 11
31.0
 21
25.0
 31
0.0
  0
LINE
  5
A9
  8
DATA
  6
CONTINUOUS
 62
     7
 10
18.0
 20
23.5
 30
0.0
 11
32.0
 21
23.5
 31
0.0
  0
LINE
  5
AA
  8
DATA
  6
CONTINUOUS
 62
     7
 10
17.5
 20
9.0
 30
0.0
 11
32.5
 21
9.0
 31
0.0
  0
LINE
  5
AB
  8
DATA
  6
CONTINUOUS
 62
     7
 10
17.5
 20
9.0
 30
0.0
 11
18.0
 21
23.5
 31
0.0
  0
LINE
  5
AC
  8
DATA
  6
CONTINUOUS
 62
     7
 10
32.5
 20
9.0
 30
0.0
 11
32.0
 21
23.5
 31
0.0
  0
LINE
  5
AD
  8
DATA
  6
CONTINUOUS
 62
     7
 10
-14.58578643762689
 20
8.4142135623731065
 30
0.0
 11
-17.41421356237305
 21
5.5857864376268926
 31
0.0
  0
LINE
  5
AE
  8
DATA
  6
CONTINUOUS
 62
     7
 10
24.5
 20
23.5
 30
0.0
 11
25.5
 21
23.5
 31
0.0
  0
LINE
  5
AF
  8
DATA
  6
CONTINUOUS
 62
     7
 10
24.25
 20
9.0
 30
0.0
 11
24.5
 21
23.5
 31
0.0
  0
LINE
  5
B0
  8
DATA
  6
CONTINUOUS
 62
     7
 10
25.75
 20
9.0
 30
0.0
 11
25.5
 21
23.5
 31
0.0
  0
LINE
  5
B1
  8
DATA
  6
CONTINUOUS
 62
     7
 10
28.251338128294378
 20
23.5
 30
0.0
 11
28.251338128294378
 21
9.0
 31
0.0
  0
LINE
  5
B2
  8
DATA
  6
CONTINUOUS
 62
     7
 10
29.25
 20
23.5
 30
0.0
 11
29.70454422464735
 21
9.0
 31
0.0
  0
LINE
  5
B3
  8
DATA
  6
CONTINUOUS
 62
     7
 10
31.5
 20
23.5
 30
0.0
 11
31.4704917617089
 21
9.0
 31
0.0
  0
LINE
  5
B4
  8
DATA
  6
CONTINUOUS
 62
     7
 10
31.809500692636789
 20
23.5
 30
0.0
 11
32.309500692636789
 21
9.0
 31
0.0
  0
LINE
  5
B5
  8
DATA
  6
CONTINUOUS
 62
     7
 10
21.748661871705679
 20
23.5
 30
0.0
 11
21.748661871705679
 21
9.0
 31
0.0
  0
LINE
  5
B6
  8
DATA
  6
CONTINUOUS
 62
     7
 10
20.75
 20
23.5
 30
0.0
 11
20.295455775352711
 21
9.0
 31
0.0
  0
LINE
  5
B7
  8
DATA
  6
CONTINUOUS
 62
     7
 10
18.5
 20
23.5
 30
0.0
 11
18.529508238291161
 21
9.0
 31
0.0
  0
LINE
  5
B8
  8
DATA
  6
CONTINUOUS
 62
     7
 10
18.190499307363261
 20
23.5
 30
0.0
 11
17.690499307363261
 21
9.0
 31
0.0
  0
ARC
  5
B9
  8
DATA
  6
CONTINUOUS
 62
     7
 10
-16.0
 20
4.171572875253843
 30
0.0
 40
1.9999999999999361
 50
135.0
 51
180.00000000000159
  0
ARC
  5
BA
  8
DATA
  6
CONTINUOUS
 62
     7
 10
-13.17157287525378
 20
7.0
 30
0.0
 40
2.0
 50
90.0
 51
135.0
  0
LINE
  5
BB
  8
DATA
  6
CONTINUOUS
 62
     7
 10
64.585786437626894
 20
8.4142135623731065
 30
0.0
 11
67.414213562373121
 21
5.5857864376268926
 31
0.0
  0
ARC
  5
BC
  8
DATA
  6
CONTINUOUS
 62
     7
 10
66.0
 20
4.171572875253843
 30
0.0
 40
2.0
 50
359.99999999999841
 51
44.999999999998799
  0
ARC
  5
BD
  8
DATA
  6
CONTINUOUS
 62
     7
 10
63.17157287525378
 20
7.0
 30
0.0
 40
2.0000000000000151
 50
45.0
 51
90.0
  0
LINE
  5
BE
  8
DATA
  6
CONTINUOUS
 62
     7
 10
145.82842712474621
 20
82.000000000000014
 30
0.0
 11
150.0
 21
82.000000000000014
 31
0.0
  0
LINE
  5
BF
  8
DATA
  6
CONTINUOUS
 62
     7
 10
145.82842712474621
 20
168.0
 30
0.0
 11
150.0
 21
168.0
 31
0.0
  0
LINE
  5
C0
  8
DATA
  6
CONTINUOUS
 62
     7
 10
150.0
 20
82.000000000000014
 30
0.0
 11
150.0
 21
168.0
 31
0.0
  0
LINE
  5
C1
  8
DATA
  6
CONTINUOUS
 62
     7
 10
145.0
 20
82.179640557750517
 30
0.0
 11
145.0
 21
167.8203594422489
 31
0.0
  0
LINE
  5
C2
  8
DATA
  6
CONTINUOUS
 62
     7
 10
141.0
 20
86.828427124746213
 30
0.0
 11
141.0
 21
163.17157287525379
 31
0.0
  0
LINE
  5
C3
  8
DATA
  6
CONTINUOUS
 62
     7
 10
141.58578643762681
 20
85.414213562373092
 30
0.0
 11
144.41421356237311
 21
82.585786437626908
 31
0.0
  0
ARC
  5
C4
  8
DATA
  6
CONTINUOUS
 62
     7
 10
145.82842712474621
 20
84.000000000000014
 30
0.0
 40
2.0000000000000151
 50
225.0
 51
270.0
  0
ARC
  5
C5
  8
DATA
  6
CONTINUOUS
 62
     7
 10
143.0
 20
86.828427124746213
 30
0.0
 40
2.0
 50
180.0
 51
225.0
  0
LINE
  5
C6
  8
DATA
  6
CONTINUOUS
 62
     7
 10
141.58578643762681
 20
164.58578643762689
 30
0.0
 11
144.41421356237311
 21
167.41421356237311
 31
0.0
  0
ARC
  5
C7
  8
DATA
  6
CONTINUOUS
 62
     7
 10
145.82842712474621
 20
166.0
 30
0.0
 40
2.0
 50
90.0
 51
135.0
  0
ARC
  5
C8
  8
DATA
  6
CONTINUOUS
 62
     7
 10
143.0
 20
163.17157287525379
 30
0.0
 40
2.0000000000000151
 50
135.0
 51
180.0
  0
LINE
  5
C9
  8
DATA
  6
CONTINUOUS
 62
     7
 10
25.000000000000291
 20
146.5
 30
0.0
 11
25.000000000000291
 21
149.0
 31
0.0
  0
CIRCLE
  5
CA
  8
DATA
  6
CONTINUOUS
 62
     7
 10
25.000000000000291
 20
150.0
 30
0.0
 40
1.0000000000000011
  0
LINE
  5
CB
  8
DATA
  6
CONTINUOUS
 62
     7
 10
30.250000000000341
 20
145.09326673973629
 30
0.0
 11
31.500000000000341
 21
147.2583302491974
 31
0.0
  0
CIRCLE
  5
CC
  8
DATA
  6
CONTINUOUS
 62
     7
 10
32.000000000000341
 20
148.12435565298179
 30
0.0
 40
0.9999999999999836
  0
LINE
  5
CD
  8
DATA
  6
CONTINUOUS
 62
     7
 10
34.093266739736862
 20
141.2499999999994
 30
0.0
 11
36.258330249197968
 21
142.4999999999994
 31
0.0
  0
CIRCLE
  5
CE
  8
DATA
  6
CONTINUOUS
 62
     7
 10
37.124355652982388
 20
142.9999999999994
 30
0.0
 40
1.0
  0
LINE
  5
CF
  8
DATA
  6
CONTINUOUS
 62
     7
 10
19.750000000000171
 20
145.09326673973661
 30
0.0
 11
18.500000000000171
 21
147.2583302491976
 31
0.0
  0
CIRCLE
  5
D0
  8
DATA
  6
CONTINUOUS
 62
     7
 10
18.000000000000171
 20
148.1243556529821
 30
0.0
 40
1.0000000000000071
  0
LINE
  5
D1
  8
DATA
  6
CONTINUOUS
 62
     7
 10
15.906733260263479
 20
141.2499999999998
 30
0.0
 11
13.74166975080237
 21
142.4999999999998
 31
0.0
  0
CIRCLE
  5
D2
  8
DATA
  6
CONTINUOUS
 62
     7
 10
12.87564434701795
 20
142.9999999999998
 30
0.0
 40
0.999999999999996
  0
LINE
  5
D3
  8
DATA
  6
CONTINUOUS
 62
     7
 10
10.15685424949231
 20
141.5
 30
0.0
 11
-6.0031457505076551
 21
141.5
 31
0.0
  0
ARC
  5
D4
  8
DATA
  6
CONTINUOUS
 62
     7
 10
-6.0000000000001128
 20
144.0
 30
0.0
 40
2.500000000000028
 50
90.0
 51
270.0
  0
LINE
  5
D5
  8
DATA
  6
CONTINUOUS
 62
     7
 10
-6.0031457505076551
 20
146.5
 30
0.0
 11
10.15685424949231
 21
146.49999999999989
 31
0.0
  0
ARC
  5
D6
  8
DATA
  6
CONTINUOUS
 62
     7
 10
4.4999999999998863
 20
143.99999999999989
 30
0.0
 40
6.5000000000000071
 50
340.52877936550942
 51
19.471220634490571
  0
ARC
  5
D7
  8
DATA
  6
CONTINUOUS
 62
     7
 10
10.15685424949231
 20
146.0
 30
0.0
 40
0.4999999999999459
 50
19.471220634484819
 51
90.0
  0
ARC
  5
D8
  8
DATA
  6
CONTINUOUS
 62
     7
 10
10.15685424949231
 20
141.99999999999989
 30
0.0
 40
0.4999999999999433
 50
270.0
 51
340.52877936551522
  0
LINE
  5
D9
  8
DATA
  6
CONTINUOUS
 62
     7
 10
15.1568542494922
 20
148.49999999999989
 30
0.0
 11
-1.003145750507769
 21
148.49999999999989
 31
0.0
  0
ARC
  5
DA
  8
DATA
  6
CONTINUOUS
 62
     7
 10
-1.0000000000002269
 20
151.0
 30
0.0
 40
2.500000000000028
 50
90.0
 51
270.0
  0
LINE
  5
DB
  8
DATA
  6
CONTINUOUS
 62
     7
 10
-1.003145750507769
 20
153.5
 30
0.0
 11
15.1568542494922
 21
153.49999999999989
 31
0.0
  0
ARC
  5
DC
  8
DATA
  6
CONTINUOUS
 62
     7
 10
9.4999999999997726
 20
150.99999999999989
 30
0.0
 40
6.5000000000000071
 50
340.52877936550942
 51
19.471220634490571
  0
ARC
  5
DD
  8
DATA
  6
CONTINUOUS
 62
     7
 10
15.1568542494922
 20
153.0
 30
0.0
 40
0.4999999999999459
 50
19.471220634484819
 51
90.0
  0
ARC
  5
DE
  8
DATA
  6
CONTINUOUS
 62
     7
 10
15.1568542494922
 20
148.99999999999989
 30
0.0
 40
0.4999999999999433
 50
270.0
 51
340.52877936551522
  0
LINE
  5
DF
  8
DATA
  6
CONTINUOUS
 62
     7
 10
31.99685424949223
 20
155.49999999999989
 30
0.0
 11
17.99685424949223
 21
155.49999999999989
 31
0.0
  0
ARC
  5
E0
  8
DATA
  6
CONTINUOUS
 62
     7
 10
17.999999999999769
 20
158.0
 30
0.0
 40
2.500000000000028
 50
90.000000000001293
 51
270.0
  0
LINE
  5
E1
  8
DATA
  6
CONTINUOUS
 62
     7
 10
17.99685424949223
 20
160.5
 30
0.0
 11
31.99685424949223
 21
160.49999999999989
 31
0.0
  0
ARC
  5
E2
  8
DATA
  6
CONTINUOUS
 62
     7
 10
31.993708498984692
 20
158.0
 30
0.0
 40
2.500000000000028
 50
269.99999999999869
 51
90.000000000000028
  0
LINE
  5
E3
  8
DATA
  6
CONTINUOUS
 62
     7
 10
39.843145750508207
 20
141.5
 30
0.0
 11
56.003145750508217
 21
141.5
 31
0.0
  0
ARC
  5
E4
  8
DATA
  6
CONTINUOUS
 62
     7
 10
56.000000000000682
 20
144.0
 30
0.0
 40
2.500000000000028
 50
270.0
 51
90.0
  0
LINE
  5
E5
  8
DATA
  6
CONTINUOUS
 62
     7
 10
56.003145750508217
 20
146.5
 30
0.0
 11
39.843145750508207
 21
146.49999999999989
 31
0.0
  0
ARC
  5
E6
  8
DATA
  6
CONTINUOUS
 62
     7
 10
45.500000000000668
 20
143.99999999999989
 30
0.0
 40
6.5000000000000071
 50
160.52877936550939
 51
199.47122063449049
  0
ARC
  5
E7
  8
DATA
  6
CONTINUOUS
 62
     7
 10
39.843145750508207
 20
146.0
 30
0.0
 40
0.4999999999999433
 50
90.0
 51
160.528779365513
  0
ARC
  5
E8
  8
DATA
  6
CONTINUOUS
 62
     7
 10
39.843145750508207
 20
141.99999999999989
 30
0.0
 40
0.4999999999998921
 50
199.47122063448691
 51
270.0
  0
LINE
  5
E9
  8
DATA
  6
CONTINUOUS
 62
     7
 10
34.84314575050837
 20
148.49999999999989
 30
0.0
 11
51.003145750508338
 21
148.49999999999989
 31
0.0
  0
ARC
  5
EA
  8
DATA
  6
CONTINUOUS
 62
     7
 10
51.000000000000803
 20
151.0
 30
0.0
 40
2.500000000000028
 50
270.0
 51
90.0
  0
LINE
  5
EB
  8
DATA
  6
CONTINUOUS
 62
     7
 10
51.003145750508338
 20
153.5
 30
0.0
 11
34.84314575050837
 21
153.49999999999989
 31
0.0
  0
ARC
  5
EC
  8
DATA
  6
CONTINUOUS
 62
     7
 10
40.500000000000789
 20
150.99999999999989
 30
0.0
 40
6.5000000000000071
 50
160.52877936550939
 51
199.47122063449049
  0
ARC
  5
ED
  8
DATA
  6
CONTINUOUS
 62
     7
 10
34.84314575050837
 20
153.0
 30
0.0
 40
0.4999999999999433
 50
90.0
 51
160.52877936551511
  0
ARC
  5
EE
  8
DATA
  6
CONTINUOUS
 62
     7
 10
34.84314575050837
 20
148.99999999999989
 30
0.0
 40
0.4999999999999459
 50
199.47122063448481
 51
270.0
  0
CIRCLE
  5
EF
  8
DATA
  6
CONTINUOUS
 62
     7
 10
25.0
 20
136.0
 30
0.0
 40
5.9999999999999716
  0
CIRCLE
  5
F0
  8
DATA
  6
CONTINUOUS
 62
     7
 10
25.0
 20
136.0
 30
0.0
 40
7.0000000000000124
  0
CIRCLE
  5
F1
  8
DATA
  6
CONTINUOUS
 62
     7
 10
25.0
 20
136.0
 30
0.0
 40
8.4999999999999911
  0
CIRCLE
  5
F2
  8
DATA
  6
CONTINUOUS
 62
     7
 10
25.0
 20
135.9999999999998
 30
0.0
 40
8.0000000000000355
  0
LINE
  5
F3
  8
DATA
  6
CONTINUOUS
 62
     7
 10
24.49999999999995
 20
136.0
 30
0.0
 11
25.49999999999995
 21
136.0
 31
0.0
  0
LINE
  5
F4
  8
DATA
  6
CONTINUOUS
 62
     7
 10
25.49999999999995
 20
136.0
 30
0.0
 11
25.5
 21
143.9843597113354
 31
0.0
  0
LINE
  5
F5
  8
DATA
  6
CONTINUOUS
 62
     7
 10
24.49999999999995
 20
136.0
 30
0.0
 11
24.5
 21
143.98435971133549
 31
0.0
  0
ARC
  5
F6
  8
DATA
  6
CONTINUOUS
 62
     7
 10
32.485925153740311
 20
133.99415240045539
 30
0.0
 40
0.7499999999999915
 50
97.107409944494293
 51
232.8925900555069
  0
ARC
  5
F7
  8
DATA
  6
CONTINUOUS
 62
     7
 10
33.210369523457132
 20
133.80003811662851
 30
0.0
 40
0.9999999999999895
 50
107.96438732315301
 51
222.03561267684799
  0
LINE
  5
F8
  8
DATA
  6
CONTINUOUS
 62
     7
 10
32.03344180430679
 20
133.39602296756871
 30
0.0
 11
32.467640745290851
 21
133.1304457316034
 31
0.0
  0
LINE
  5
F9
  8
DATA
  6
CONTINUOUS
 62
     7
 10
32.393127794784789
 20
134.73838935880329
 30
0.0
 11
32.901943725955903
 21
134.751286521324
 31
0.0
  0
ARC
  5
FA
  8
DATA
  6
CONTINUOUS
 62
     7
 10
25.000000000000291
 20
135.99999999999989
 30
0.0
 40
7.4999999999997859
 50
350.31596282990279
 51
9.6840371700997139
  0
ARC
  5
FB
  8
DATA
  6
CONTINUOUS
 62
     7
 10
32.485925153740311
 20
138.0058475995445
 30
0.0
 40
0.7500000000000139
 50
127.1074099444937
 51
262.89259005550582
  0
ARC
  5
FC
  8
DATA
  6
CONTINUOUS
 62
     7
 10
33.210369523457132
 20
138.19996188337149
 30
0.0
 40
1.000000000000018
 50
137.96438732315531
 51
252.03561267684691
  0
LINE
  5
FD
  8
DATA
  6
CONTINUOUS
 62
     7
 10
32.393127794784789
 20
137.26161064119671
 30
0.0
 11
32.901943725955903
 21
137.248713478676
 31
0.0
  0
LINE
  5
FE
  8
DATA
  6
CONTINUOUS
 62
     7
 10
32.03344180430679
 20
138.60397703243129
 30
0.0
 11
32.467640745290851
 21
138.8695542683966
 31
0.0
  0
ARC
  5
FF
  8
DATA
  6
CONTINUOUS
 62
     7
 10
25.000000000000231
 20
136.0
 30
0.0
 40
7.4999999999998064
 50
20.315962829903022
 51
39.684037170099771
  0
ARC
  5
100
  8
DATA
  6
CONTINUOUS
 62
     7
 10
30.480077554195709
 20
141.4800775541957
 30
0.0
 40
0.7500000000000254
 50
157.1074099444925
 51
292.89259005550639
  0
ARC
  5
101
  8
DATA
  6
CONTINUOUS
 62
     7
 10
31.010407640085649
 20
142.0104076400857
 30
0.0
 40
1.0000000000000311
 50
167.96438732315471
 51
282.0356126768441
  0
LINE
  5
102
  8
DATA
  6
CONTINUOUS
 62
     7
 10
30.771831163110051
 20
140.7891507623535
 30
0.0
 11
31.218927266614848
 21
141.03238945755939
 31
0.0
  0
LINE
  5
103
  8
DATA
  6
CONTINUOUS
 62
     7
 10
29.789150762353412
 20
141.77183116311011
 30
0.0
 11
30.032389457559251
 21
142.21892726661491
 31
0.0
  0
ARC
  5
104
  8
DATA
  6
CONTINUOUS
 62
     7
 10
25.00000000000011
 20
136.00000000000011
 30
0.0
 40
7.4999999999997984
 50
50.315962829902787
 51
69.684037170099643
  0
ARC
  5
105
  8
DATA
  6
CONTINUOUS
 62
     7
 10
27.005847599544438
 20
143.4859251537402
 30
0.0
 40
0.7500000000000056
 50
187.10740994449409
 51
322.89259005550628
  0
ARC
  5
106
  8
DATA
  6
CONTINUOUS
 62
     7
 10
27.199961883371319
 20
144.21036952345699
 30
0.0
 40
0.9999999999999937
 50
197.9643873231538
 51
312.03561267684819
  0
LINE
  5
107
  8
DATA
  6
CONTINUOUS
 62
     7
 10
27.603977032431199
 20
143.0334418043067
 30
0.0
 11
27.869554268396431
 21
143.46764074529079
 31
0.0
  0
LINE
  5
108
  8
DATA
  6
CONTINUOUS
 62
     7
 10
26.261610641196569
 20
143.3931277947847
 30
0.0
 11
26.248713478675821
 21
143.90194372595579
 31
0.0
  0
ARC
  5
109
  8
DATA
  6
CONTINUOUS
 62
     7
 10
25.0
 20
136.00000000000011
 30
0.0
 40
7.4999999999997939
 50
80.315962829903043
 51
99.684037170100027
  0
ARC
  5
10A
  8
DATA
  6
CONTINUOUS
 62
     7
 10
22.994152400455331
 20
143.4859251537402
 30
0.0
 40
0.7500000000000056
 50
217.1074099444929
 51
352.89259005550701
  0
ARC
  5
10B
  8
DATA
  6
CONTINUOUS
 62
     7
 10
22.8000381166284
 20
144.21036952345699
 30
0.0
 40
0.9999999999999978
 50
227.96438732315431
 51
342.03561267684631
  0
LINE
  5
10C
  8
DATA
  6
CONTINUOUS
 62
     7
 10
23.7383893588032
 20
143.3931277947847
 30
0.0
 11
23.751286521323891
 21
143.90194372595579
 31
0.0
  0
LINE
  5
10D
  8
DATA
  6
CONTINUOUS
 62
     7
 10
22.39602296756857
 20
143.0334418043067
 30
0.0
 11
22.130445731603292
 21
143.46764074529071
 31
0.0
  0
ARC
  5
10E
  8
DATA
  6
CONTINUOUS
 62
     7
 10
24.99999999999989
 20
136.00000000000011
 30
0.0
 40
7.4999999999998499
 50
110.315962829903
 51
129.68403717009971
  0
ARC
  5
10F
  8
DATA
  6
CONTINUOUS
 62
     7
 10
19.519922445804131
 20
141.48007755419559
 30
0.0
 40
0.7500000000000233
 50
247.10740994449009
 51
22.892590055508151
  0
ARC
  5
110
  8
DATA
  6
CONTINUOUS
 62
     7
 10
18.98959235991418
 20
142.0104076400855
 30
0.0
 40
1.0000000000000231
 50
257.96438732315301
 51
12.035612676846711
  0
LINE
  5
111
  8
DATA
  6
CONTINUOUS
 62
     7
 10
20.210849237646361
 20
141.77183116310991
 30
0.0
 11
19.967610542440521
 21
142.21892726661471
 31
0.0
  0
LINE
  5
112
  8
DATA
  6
CONTINUOUS
 62
     7
 10
19.228168836889719
 20
140.7891507623533
 30
0.0
 11
18.781072733384971
 21
141.03238945755919
 31
0.0
  0
ARC
  5
113
  8
DATA
  6
CONTINUOUS
 62
     7
 10
24.999999999999769
 20
136.0
 30
0.0
 40
7.4999999999998099
 50
140.31596282990299
 51
159.6840371701
  0
ARC
  5
114
  8
DATA
  6
CONTINUOUS
 62
     7
 10
17.514074846259629
 20
138.0058475995443
 30
0.0
 40
0.7499999999999986
 50
277.10740994448992
 51
52.8925900555097
  0
ARC
  5
115
  8
DATA
  6
CONTINUOUS
 62
     7
 10
16.789630476542762
 20
138.1999618833712
 30
0.0
 40
1.00000000000002
 50
287.96438732315579
 51
42.035612676844679
  0
LINE
  5
116
  8
DATA
  6
CONTINUOUS
 62
     7
 10
17.966558195693089
 20
138.60397703243109
 30
0.0
 11
17.532359254709029
 21
138.86955426839631
 31
0.0
  0
LINE
  5
117
  8
DATA
  6
CONTINUOUS
 62
     7
 10
17.60687220521509
 20
137.2616106411964
 30
0.0
 11
17.09805627404398
 21
137.24871347867571
 31
0.0
  0
ARC
  5
118
  8
DATA
  6
CONTINUOUS
 62
     7
 10
24.999999999999719
 20
135.9999999999998
 30
0.0
 40
7.4999999999997851
 50
170.3159628299029
 51
189.6840371700998
  0
ARC
  5
119
  8
DATA
  6
CONTINUOUS
 62
     7
 10
17.514074846259678
 20
133.99415240045519
 30
0.0
 40
0.7500000000000139
 50
307.10740994449372
 51
82.892590055505806
  0
ARC
  5
11A
  8
DATA
  6
CONTINUOUS
 62
     7
 10
16.789630476542861
 20
133.80003811662829
 30
0.0
 40
0.9999999999999861
 50
317.96438732315249
 51
72.035612676846995
  0
LINE
  5
11B
  8
DATA
  6
CONTINUOUS
 62
     7
 10
17.606872205215211
 20
134.73838935880309
 30
0.0
 11
17.098056274044101
 21
134.75128652132381
 31
0.0
  0
LINE
  5
11C
  8
DATA
  6
CONTINUOUS
 62
     7
 10
17.96655819569321
 20
133.3960229675684
 30
0.0
 11
17.532359254709149
 21
133.1304457316032
 31
0.0
  0
ARC
  5
11D
  8
DATA
  6
CONTINUOUS
 62
     7
 10
24.999999999999769
 20
135.99999999999969
 30
0.0
 40
7.4999999999997939
 50
200.31596282990279
 51
219.6840371700996
  0
ARC
  5
11E
  8
DATA
  6
CONTINUOUS
 62
     7
 10
19.519922445804301
 20
130.51992244580401
 30
0.0
 40
0.7500000000000254
 50
337.10740994449247
 51
112.8925900555067
  0
ARC
  5
11F
  8
DATA
  6
CONTINUOUS
 62
     7
 10
18.989592359914351
 20
129.98959235991401
 30
0.0
 40
1.0000000000000311
 50
347.96438732315482
 51
102.0356126768441
  0
LINE
  5
120
  8
DATA
  6
CONTINUOUS
 62
     7
 10
19.228168836889949
 20
131.21084923764619
 30
0.0
 11
18.781072733385141
 21
130.96761054244041
 31
0.0
  0
LINE
  5
121
  8
DATA
  6
CONTINUOUS
 62
     7
 10
20.210849237646588
 20
130.22816883688969
 30
0.0
 11
19.967610542440749
 21
129.7810727333848
 31
0.0
  0
ARC
  5
122
  8
DATA
  6
CONTINUOUS
 62
     7
 10
24.99999999999989
 20
135.9999999999996
 30
0.0
 40
7.4999999999997984
 50
230.31596282990279
 51
249.68403717009971
  0
ARC
  5
123
  8
DATA
  6
CONTINUOUS
 62
     7
 10
22.994152400455562
 20
128.51407484625949
 30
0.0
 40
0.7500000000000004
 50
7.1074099444909278
 51
142.89259005550801
  0
ARC
  5
124
  8
DATA
  6
CONTINUOUS
 62
     7
 10
22.800038116628691
 20
127.7896304765427
 30
0.0
 40
0.9999999999999895
 50
17.96438732315303
 51
132.0356126768468
  0
LINE
  5
125
  8
DATA
  6
CONTINUOUS
 62
     7
 10
22.396022967568801
 20
128.96655819569301
 30
0.0
 11
22.130445731603562
 21
128.53235925470901
 31
0.0
  0
LINE
  5
126
  8
DATA
  6
CONTINUOUS
 62
     7
 10
23.738389358803431
 20
128.60687220521501
 30
0.0
 11
23.751286521324172
 21
128.0980562740439
 31
0.0
  0
ARC
  5
127
  8
DATA
  6
CONTINUOUS
 62
     7
 10
25.0
 20
135.9999999999996
 30
0.0
 40
7.4999999999998099
 50
260.31596282990301
 51
279.6840371701
  0
ARC
  5
128
  8
DATA
  6
CONTINUOUS
 62
     7
 10
27.005847599544669
 20
128.5140748462596
 30
0.0
 40
0.7499999999999968
 50
37.107409944492026
 51
172.89259005550801
  0
ARC
  5
129
  8
DATA
  6
CONTINUOUS
 62
     7
 10
27.19996188337155
 20
127.7896304765427
 30
0.0
 40
1.0000000000000351
 50
47.96438732315179
 51
162.03561267684611
  0
LINE
  5
12A
  8
DATA
  6
CONTINUOUS
 62
     7
 10
26.2616106411968
 20
128.6068722052151
 30
0.0
 11
26.248713478676059
 21
128.09805627404401
 31
0.0
  0
LINE
  5
12B
  8
DATA
  6
CONTINUOUS
 62
     7
 10
27.60397703243143
 20
128.9665581956931
 30
0.0
 11
27.869554268396708
 21
128.53235925470901
 31
0.0
  0
ARC
  5
12C
  8
DATA
  6
CONTINUOUS
 62
     7
 10
25.00000000000011
 20
135.9999999999996
 30
0.0
 40
7.4999999999998099
 50
290.31596282990319
 51
309.68403717009988
  0
ARC
  5
12D
  8
DATA
  6
CONTINUOUS
 62
     7
 10
30.48007755419588
 20
130.51992244580421
 30
0.0
 40
0.7500000000000365
 50
67.107409944490513
 51
202.89259005550721
  0
ARC
  5
12E
  8
DATA
  6
CONTINUOUS
 62
     7
 10
31.01040764008582
 20
129.9895923599143
 30
0.0
 40
0.9999999999999836
 50
77.964387323155819
 51
192.035612676846
  0
LINE
  5
12F
  8
DATA
  6
CONTINUOUS
 62
     7
 10
29.789150762353639
 20
130.22816883688981
 30
0.0
 11
30.032389457559479
 21
129.78107273338509
 31
0.0
  0
LINE
  5
130
  8
DATA
  6
CONTINUOUS
 62
     7
 10
30.771831163110281
 20
131.21084923764641
 30
0.0
 11
31.218927266615019
 21
130.96761054244061
 31
0.0
  0
ARC
  5
131
  8
DATA
  6
CONTINUOUS
 62
     7
 10
25.000000000000291
 20
135.99999999999969
 30
0.0
 40
7.4999999999997584
 50
320.31596282990279
 51
339.68403717009983
  0
CIRCLE
  5
132
  8
DATA
  6
CONTINUOUS
 62
     7
 10
25.0
 20
105.9999999999998
 30
0.0
 40
5.9999999999999796
  0
CIRCLE
  5
133
  8
DATA
  6
CONTINUOUS
 62
     7
 10
25.0
 20
105.9999999999998
 30
0.0
 40
6.9999999999999556
  0
CIRCLE
  5
134
  8
DATA
  6
CONTINUOUS
 62
     7
 10
25.0
 20
105.9999999999998
 30
0.0
 40
8.4999999999999964
  0
CIRCLE
  5
135
  8
DATA
  6
CONTINUOUS
 62
     7
 10
25.00000000000011
 20
105.9999999999998
 30
0.0
 40
8.0000000000000409
  0
LINE
  5
136
  8
DATA
  6
CONTINUOUS
 62
     7
 10
25.43301270189227
 20
105.7499999999997
 30
0.0
 11
24.566987298107851
 21
106.2499999999998
 31
0.0
  0
LINE
  5
137
  8
DATA
  6
CONTINUOUS
 62
     7
 10
24.566987298107851
 20
106.2499999999998
 30
0.0
 11
20.57480744244015
 21
99.335341657030284
 31
0.0
  0
LINE
  5
138
  8
DATA
  6
CONTINUOUS
 62
     7
 10
25.43301270189227
 20
105.7499999999997
 30
0.0
 11
21.440832846224509
 21
98.835341657030213
 31
0.0
  0
ARC
  5
139
  8
DATA
  6
CONTINUOUS
 62
     7
 10
19.519922445804241
 20
111.4800775541955
 30
0.0
 40
0.7499999999999751
 50
247.10740994449321
 51
22.89259005550748
  0
ARC
  5
13A
  8
DATA
  6
CONTINUOUS
 62
     7
 10
18.989592359914351
 20
112.0104076400854
 30
0.0
 40
1.0000000000000091
 50
257.96438732315278
 51
12.035612676846711
  0
LINE
  5
13B
  8
DATA
  6
CONTINUOUS
 62
     7
 10
20.210849237646531
 20
111.77183116310989
 30
0.0
 11
19.967610542440688
 21
112.2189272666147
 31
0.0
  0
LINE
  5
13C
  8
DATA
  6
CONTINUOUS
 62
     7
 10
19.228168836889889
 20
110.7891507623533
 30
0.0
 11
18.781072733385141
 21
111.03238945755911
 31
0.0
  0
ARC
  5
13D
  8
DATA
  6
CONTINUOUS
 62
     7
 10
24.999999999999829
 20
106.0
 30
0.0
 40
7.4999999999997762
 50
140.31596282990259
 51
159.68403717009971
  0
ARC
  5
13E
  8
DATA
  6
CONTINUOUS
 62
     7
 10
17.514074846259739
 20
108.0058475995443
 30
0.0
 40
0.7500000000000127
 50
277.10740994448969
 51
52.892590055509046
  0
ARC
  5
13F
  8
DATA
  6
CONTINUOUS
 62
     7
 10
16.789630476542921
 20
108.1999618833712
 30
0.0
 40
0.9999999999999895
 50
287.96438732315301
 51
42.035612676846817
  0
LINE
  5
140
  8
DATA
  6
CONTINUOUS
 62
     7
 10
17.96655819569321
 20
108.603977032431
 30
0.0
 11
17.532359254709149
 21
108.8695542683963
 31
0.0
  0
LINE
  5
141
  8
DATA
  6
CONTINUOUS
 62
     7
 10
17.606872205215211
 20
107.2616106411964
 30
0.0
 11
17.098056274044101
 21
107.2487134786757
 31
0.0
  0
ARC
  5
142
  8
DATA
  6
CONTINUOUS
 62
     7
 10
24.999999999999829
 20
105.9999999999998
 30
0.0
 40
7.4999999999997824
 50
170.31596282990299
 51
189.6840371700998
  0
ARC
  5
143
  8
DATA
  6
CONTINUOUS
 62
     7
 10
17.514074846259739
 20
103.99415240045521
 30
0.0
 40
0.7500000000000026
 50
307.10740994449441
 51
82.892590055505863
  0
ARC
  5
144
  8
DATA
  6
CONTINUOUS
 62
     7
 10
16.789630476542978
 20
103.8000381166283
 30
0.0
 40
0.9999999999999767
 50
317.96438732315318
 51
72.035612676846938
  0
LINE
  5
145
  8
DATA
  6
CONTINUOUS
 62
     7
 10
17.606872205215261
 20
104.738389358803
 30
0.0
 11
17.098056274044211
 21
104.75128652132381
 31
0.0
  0
LINE
  5
146
  8
DATA
  6
CONTINUOUS
 62
     7
 10
17.96655819569326
 20
103.3960229675684
 30
0.0
 11
17.532359254709259
 21
103.1304457316031
 31
0.0
  0
ARC
  5
147
  8
DATA
  6
CONTINUOUS
 62
     7
 10
24.999999999999829
 20
105.9999999999997
 30
0.0
 40
7.4999999999997939
 50
200.31596282990279
 51
219.6840371701
  0
ARC
  5
148
  8
DATA
  6
CONTINUOUS
 62
     7
 10
19.519922445804351
 20
100.519922445804
 30
0.0
 40
0.7500000000000143
 50
337.10740994449452
 51
112.8925900555019
  0
ARC
  5
149
  8
DATA
  6
CONTINUOUS
 62
     7
 10
18.989592359914472
 20
99.98959235991407
 30
0.0
 40
0.9999999999999788
 50
347.96438732315318
 51
102.03561267684729
  0
LINE
  5
14A
  8
DATA
  6
CONTINUOUS
 62
     7
 10
19.22816883689007
 20
101.2108492376462
 30
0.0
 11
18.781072733385251
 21
100.9676105424404
 31
0.0
  0
LINE
  5
14B
  8
DATA
  6
CONTINUOUS
 62
     7
 10
20.210849237646642
 20
100.22816883688959
 30
0.0
 11
19.967610542440809
 21
99.781072733384832
 31
0.0
  0
ARC
  5
14C
  8
DATA
  6
CONTINUOUS
 62
     7
 10
25.0
 20
105.9999999999996
 30
0.0
 40
7.4999999999997984
 50
230.31596282990279
 51
249.68403717009971
  0
ARC
  5
14D
  8
DATA
  6
CONTINUOUS
 62
     7
 10
22.994152400455679
 20
98.514074846259476
 30
0.0
 40
0.7500000000000056
 50
7.107409944494159
 51
142.89259005550619
  0
ARC
  5
14E
  8
DATA
  6
CONTINUOUS
 62
     7
 10
22.800038116628802
 20
97.789630476542655
 30
0.0
 40
0.9999999999999982
 50
17.964387323154579
 51
132.03561267684819
  0
LINE
  5
14F
  8
DATA
  6
CONTINUOUS
 62
     7
 10
22.396022967568921
 20
98.966558195692997
 30
0.0
 11
22.13044573160369
 21
98.532359254708922
 31
0.0
  0
LINE
  5
150
  8
DATA
  6
CONTINUOUS
 62
     7
 10
23.738389358803548
 20
98.606872205214998
 30
0.0
 11
23.751286521324289
 21
98.098056274043884
 31
0.0
  0
ARC
  5
151
  8
DATA
  6
CONTINUOUS
 62
     7
 10
25.00000000000011
 20
105.9999999999996
 30
0.0
 40
7.4999999999998481
 50
260.31596282990262
 51
279.68403717009949
  0
ARC
  5
152
  8
DATA
  6
CONTINUOUS
 62
     7
 10
27.005847599544769
 20
98.514074846259575
 30
0.0
 40
0.7499999999999968
 50
37.107409944492026
 51
172.89259005550801
  0
ARC
  5
153
  8
DATA
  6
CONTINUOUS
 62
     7
 10
27.19996188337166
 20
97.789630476542726
 30
0.0
 40
1.000000000000008
 50
47.964387323154753
 51
162.03561267684611
  0
LINE
  5
154
  8
DATA
  6
CONTINUOUS
 62
     7
 10
26.26161064119691
 20
98.606872205215055
 30
0.0
 11
26.248713478676169
 21
98.098056274043984
 31
0.0
  0
LINE
  5
155
  8
DATA
  6
CONTINUOUS
 62
     7
 10
27.603977032431551
 20
98.966558195693054
 30
0.0
 11
27.869554268396769
 21
98.532359254709036
 31
0.0
  0
ARC
  5
156
  8
DATA
  6
CONTINUOUS
 62
     7
 10
25.000000000000231
 20
105.9999999999996
 30
0.0
 40
7.499999999999825
 50
290.31596282990313
 51
309.68403717009988
  0
ARC
  5
157
  8
DATA
  6
CONTINUOUS
 62
     7
 10
30.48007755419599
 20
100.5199224458041
 30
0.0
 40
0.7500000000000233
 50
67.107409944490087
 51
202.89259005550809
  0
ARC
  5
158
  8
DATA
  6
CONTINUOUS
 62
     7
 10
31.01040764008593
 20
99.989592359914226
 30
0.0
 40
1.0000000000000091
 50
77.964387323152764
 51
192.03561267684759
  0
LINE
  5
159
  8
DATA
  6
CONTINUOUS
 62
     7
 10
29.78915076235376
 20
100.22816883688979
 30
0.0
 11
30.032389457559589
 21
99.781072733385045
 31
0.0
  0
LINE
  5
15A
  8
DATA
  6
CONTINUOUS
 62
     7
 10
30.771831163110392
 20
101.2108492376464
 30
0.0
 11
31.21892726661514
 21
100.9676105424406
 31
0.0
  0
ARC
  5
15B
  8
DATA
  6
CONTINUOUS
 62
     7
 10
25.000000000000341
 20
105.9999999999997
 30
0.0
 40
7.4999999999998099
 50
320.31596282990301
 51
339.68403717009983
  0
ARC
  5
15C
  8
DATA
  6
CONTINUOUS
 62
     7
 10
32.485925153740482
 20
103.99415240045541
 30
0.0
 40
0.7500000000000056
 50
97.107409944494179
 51
232.89259005550619
  0
ARC
  5
15D
  8
DATA
  6
CONTINUOUS
 62
     7
 10
33.21036952345731
 20
103.8000381166285
 30
0.0
 40
1.000000000000034
 50
107.96438732315561
 51
222.03561267684469
  0
LINE
  5
15E
  8
DATA
  6
CONTINUOUS
 62
     7
 10
32.03344180430696
 20
103.3960229675687
 30
0.0
 11
32.467640745291021
 21
103.1304457316034
 31
0.0
  0
LINE
  5
15F
  8
DATA
  6
CONTINUOUS
 62
     7
 10
32.393127794784959
 20
104.7383893588033
 30
0.0
 11
32.901943725956073
 21
104.751286521324
 31
0.0
  0
ARC
  5
160
  8
DATA
  6
CONTINUOUS
 62
     7
 10
25.000000000000341
 20
105.9999999999999
 30
0.0
 40
7.4999999999998419
 50
350.3159628299029
 51
9.6840371700995433
  0
ARC
  5
161
  8
DATA
  6
CONTINUOUS
 62
     7
 10
32.485925153740382
 20
108.0058475995445
 30
0.0
 40
0.749999999999991
 50
127.1074099444896
 51
262.89259005550991
  0
ARC
  5
162
  8
DATA
  6
CONTINUOUS
 62
     7
 10
33.210369523457203
 20
108.1999618833714
 30
0.0
 40
0.9999999999999767
 50
137.96438732315309
 51
252.03561267684691
  0
LINE
  5
163
  8
DATA
  6
CONTINUOUS
 62
     7
 10
32.39312779478491
 20
107.2616106411967
 30
0.0
 11
32.901943725956023
 21
107.2487134786759
 31
0.0
  0
LINE
  5
164
  8
DATA
  6
CONTINUOUS
 62
     7
 10
32.033441804306911
 20
108.6039770324313
 30
0.0
 11
32.467640745290907
 21
108.8695542683966
 31
0.0
  0
ARC
  5
165
  8
DATA
  6
CONTINUOUS
 62
     7
 10
25.000000000000291
 20
106.0
 30
0.0
 40
7.4999999999998419
 50
20.315962829902571
 51
39.684037170099252
  0
ARC
  5
166
  8
DATA
  6
CONTINUOUS
 62
     7
 10
30.480077554195809
 20
111.4800775541957
 30
0.0
 40
0.7500000000000254
 50
157.1074099444925
 51
292.89259005550639
  0
ARC
  5
167
  8
DATA
  6
CONTINUOUS
 62
     7
 10
31.010407640085699
 20
112.0104076400856
 30
0.0
 40
0.9999999999999815
 50
167.96438732315241
 51
282.03561267684762
  0
LINE
  5
168
  8
DATA
  6
CONTINUOUS
 62
     7
 10
30.771831163110171
 20
110.7891507623534
 30
0.0
 11
31.218927266614909
 21
111.0323894575593
 31
0.0
  0
LINE
  5
169
  8
DATA
  6
CONTINUOUS
 62
     7
 10
29.789150762353529
 20
111.77183116311009
 30
0.0
 11
30.032389457559361
 21
112.2189272666149
 31
0.0
  0
ARC
  5
16A
  8
DATA
  6
CONTINUOUS
 62
     7
 10
25.000000000000231
 20
106.0000000000001
 30
0.0
 40
7.4999999999998197
 50
50.315962829902922
 51
69.684037170099685
  0
ARC
  5
16B
  8
DATA
  6
CONTINUOUS
 62
     7
 10
27.005847599544548
 20
113.4859251537402
 30
0.0
 40
0.7500000000000585
 50
187.10740994449139
 51
322.89259005550713
  0
ARC
  5
16C
  8
DATA
  6
CONTINUOUS
 62
     7
 10
27.199961883371429
 20
114.210369523457
 30
0.0
 40
0.9999999999999982
 50
197.9643873231546
 51
312.03561267684643
  0
LINE
  5
16D
  8
DATA
  6
CONTINUOUS
 62
     7
 10
27.60397703243132
 20
113.0334418043067
 30
0.0
 11
27.869554268396541
 21
113.46764074529079
 31
0.0
  0
LINE
  5
16E
  8
DATA
  6
CONTINUOUS
 62
     7
 10
26.261610641196619
 20
113.3931277947848
 30
0.0
 11
26.248713478675882
 21
113.9019437259558
 31
0.0
  0
ARC
  5
16F
  8
DATA
  6
CONTINUOUS
 62
     7
 10
25.00000000000011
 20
106.0000000000001
 30
0.0
 40
7.4999999999998099
 50
80.315962829903043
 51
99.684037170100027
  0
ARC
  5
170
  8
DATA
  6
CONTINUOUS
 62
     7
 10
22.994152400455452
 20
113.4859251537402
 30
0.0
 40
0.7500000000000594
 50
217.10740994449111
 51
352.8925900555052
  0
ARC
  5
171
  8
DATA
  6
CONTINUOUS
 62
     7
 10
22.80003811662851
 20
114.210369523457
 30
0.0
 40
0.9999999999999978
 50
227.96438732315431
 51
342.03561267684631
  0
LINE
  5
172
  8
DATA
  6
CONTINUOUS
 62
     7
 10
23.738389358803271
 20
113.3931277947846
 30
0.0
 11
23.751286521324008
 21
113.9019437259557
 31
0.0
  0
LINE
  5
173
  8
DATA
  6
CONTINUOUS
 62
     7
 10
22.39602296756863
 20
113.03344180430661
 30
0.0
 11
22.130445731603398
 21
113.46764074529059
 31
0.0
  0
ARC
  5
174
  8
DATA
  6
CONTINUOUS
 62
     7
 10
24.99999999999989
 20
106.0000000000001
 30
0.0
 40
7.4999999999997771
 50
110.3159628299027
 51
129.6840371700996
  0
LINE
  5
175
  8
DATA
  6
CONTINUOUS
 62
     7
 10
38.843145750507567
 20
103.4999999999997
 30
0.0
 11
58.0
 21
103.4999999999997
 31
0.0
  0
ARC
  5
176
  8
DATA
  6
CONTINUOUS
 62
     7
 10
58.0
 20
105.9999999999998
 30
0.0
 40
2.500000000000028
 50
270.0
 51
90.0
  0
LINE
  5
177
  8
DATA
  6
CONTINUOUS
 62
     7
 10
58.0
 20
108.4999999999998
 30
0.0
 11
38.843145750507567
 21
108.4999999999997
 31
0.0
  0
ARC
  5
178
  8
DATA
  6
CONTINUOUS
 62
     7
 10
44.50000000000005
 20
105.9999999999998
 30
0.0
 40
6.5000000000000604
 50
160.52877936550959
 51
199.47122063449041
  0
ARC
  5
179
  8
DATA
  6
CONTINUOUS
 62
     7
 10
38.843145750507567
 20
107.9999999999998
 30
0.0
 40
0.4999999999999433
 50
90.0
 51
160.52877936551511
  0
ARC
  5
17A
  8
DATA
  6
CONTINUOUS
 62
     7
 10
38.843145750507567
 20
103.9999999999997
 30
0.0
 40
0.4999999999999459
 50
199.47122063448481
 51
270.0
  0
ARC
  5
17B
  8
DATA
  6
CONTINUOUS
 62
     7
 10
24.99999999999989
 20
106.0000000000001
 30
0.0
 40
10.249999999999989
 50
59.999999999997009
 51
119.93151184050799
  0
ARC
  5
17C
  8
DATA
  6
CONTINUOUS
 62
     7
 10
27.49999999999989
 20
108.0000000000001
 30
0.0
 40
10.25000000000002
 50
66.526614867912727
 51
137.9142377787457
  0
LINE
  5
17D
  8
DATA
  6
CONTINUOUS
 62
     7
 10
30.125000000000451
 20
114.8767603887904
 30
0.0
 11
31.58281111753309
 21
117.4017633121957
 31
0.0
  0
LINE
  5
17E
  8
DATA
  6
CONTINUOUS
 62
     7
 10
16.000000000000291
 20
0.0
 30
0.0
 11
16.000000000000291
 21
-19.0
 31
0.0
  0
LINE
  5
17F
  8
DATA
  6
CONTINUOUS
 62
     7
 10
17.500000000000291
 20
0.0
 30
0.0
 11
17.500000000000291
 21
-19.0
 31
0.0
  0
LINE
  5
180
  8
DATA
  6
CONTINUOUS
 62
     7
 10
16.000000000000291
 20
-19.0
 30
0.0
 11
17.500000000000291
 21
-19.0
 31
0.0
  0
LINE
  5
181
  8
DATA
  6
CONTINUOUS
 62
     7
 10
17.500000000000291
 20
-6.5
 30
0.0
 11
28.500000000000291
 21
-6.5
 31
0.0
  0
LINE
  5
182
  8
DATA
  6
CONTINUOUS
 62
     7
 10
28.500000000000291
 20
-6.5
 30
0.0
 11
28.500000000000291
 21
0.0
 31
0.0
  0
LINE
  5
183
  8
DATA
  6
CONTINUOUS
 62
     7
 10
17.500000000000291
 20
-18.0
 30
0.0
 11
30.000000000000291
 21
-18.0
 31
0.0
  0
LINE
  5
184
  8
DATA
  6
CONTINUOUS
 62
     7
 10
30.000000000000291
 20
-18.0
 30
0.0
 11
30.000000000000291
 21
-3.0
 31
0.0
  0
LINE
  5
185
  8
DATA
  6
CONTINUOUS
 62
     7
 10
24.500000000000291
 20
-17.5
 30
0.0
 11
30.000000000000291
 21
-17.5
 31
0.0
  0
LINE
  5
186
  8
DATA
  6
CONTINUOUS
 62
     7
 10
24.500000000000291
 20
-13.5
 30
0.0
 11
30.000000000000291
 21
-13.5
 31
0.0
  0
LINE
  5
187
  8
DATA
  6
CONTINUOUS
 62
     7
 10
24.500000000000291
 20
-13.5
 30
0.0
 11
24.500000000000291
 21
-17.5
 31
0.0
  0
LINE
  5
188
  8
DATA
  6
CONTINUOUS
 62
     7
 10
24.500000000000291
 20
-12.5
 30
0.0
 11
30.000000000000291
 21
-12.5
 31
0.0
  0
LINE
  5
189
  8
DATA
  6
CONTINUOUS
 62
     7
 10
24.500000000000291
 20
-8.5
 30
0.0
 11
30.000000000000291
 21
-8.5
 31
0.0
  0
LINE
  5
18A
  8
DATA
  6
CONTINUOUS
 62
     7
 10
24.500000000000291
 20
-8.5
 30
0.0
 11
24.500000000000291
 21
-12.5
 31
0.0
  0
LINE
  5
18B
  8
DATA
  6
CONTINUOUS
 62
     7
 10
24.500000000000291
 20
-7.5
 30
0.0
 11
30.000000000000291
 21
-7.5
 31
0.0
  0
LINE
  5
18C
  8
DATA
  6
CONTINUOUS
 62
     7
 10
24.500000000000291
 20
-7.5
 30
0.0
 11
24.500000000000291
 21
-6.5
 31
0.0
  0
LINE
  5
18D
  8
DATA
  6
CONTINUOUS
 62
     7
 10
28.500000000000291
 20
-3.5
 30
0.0
 11
30.000000000000291
 21
-3.5
 31
0.0
  0
LINE
  5
18E
  8
DATA
  6
CONTINUOUS
 62
     7
 10
30.000000000000291
 20
-3.0
 30
0.0
 11
28.500000000000291
 21
-3.0
 31
0.0
  0
LINE
  5
18F
  8
DATA
  6
CONTINUOUS
 62
     7
 10
25.5
 20
-17.0
 30
0.0
 11
25.5
 21
-14.0
 31
0.0
  0
LINE
  5
190
  8
DATA
  6
CONTINUOUS
 62
     7
 10
25.5
 20
-17.0
 30
0.0
 11
28.5
 21
-17.0
 31
0.0
  0
LINE
  5
191
  8
DATA
  6
CONTINUOUS
 62
     7
 10
28.5
 20
-17.0
 30
0.0
 11
28.5
 21
-16.5
 31
0.0
  0
LINE
  5
192
  8
DATA
  6
CONTINUOUS
 62
     7
 10
28.5
 20
-14.5
 30
0.0
 11
28.5
 21
-14.0
 31
0.0
  0
LINE
  5
193
  8
DATA
  6
CONTINUOUS
 62
     7
 10
28.5
 20
-14.0
 30
0.0
 11
25.5
 21
-14.0
 31
0.0
  0
LINE
  5
194
  8
DATA
  6
CONTINUOUS
 62
     7
 10
27.5
 20
-14.5
 30
0.0
 11
30.000000000000291
 21
-14.5
 31
0.0
  0
LINE
  5
195
  8
DATA
  6
CONTINUOUS
 62
     7
 10
27.5
 20
-16.5
 30
0.0
 11
30.0
 21
-16.5
 31
0.0
  0
LINE
  5
196
  8
DATA
  6
CONTINUOUS
 62
     7
 10
27.5
 20
-14.5
 30
0.0
 11
27.5
 21
-16.5
 31
0.0
  0
LINE
  5
197
  8
DATA
  6
CONTINUOUS
 62
     7
 10
25.5
 20
-12.0
 30
0.0
 11
25.5
 21
-9.0
 31
0.0
  0
LINE
  5
198
  8
DATA
  6
CONTINUOUS
 62
     7
 10
25.5
 20
-12.0
 30
0.0
 11
28.5
 21
-12.0
 31
0.0
  0
LINE
  5
199
  8
DATA
  6
CONTINUOUS
 62
     7
 10
28.5
 20
-12.0
 30
0.0
 11
28.5
 21
-11.5
 31
0.0
  0
LINE
  5
19A
  8
DATA
  6
CONTINUOUS
 62
     7
 10
28.5
 20
-9.5
 30
0.0
 11
28.5
 21
-9.0
 31
0.0
  0
LINE
  5
19B
  8
DATA
  6
CONTINUOUS
 62
     7
 10
28.5
 20
-9.0
 30
0.0
 11
25.5
 21
-9.0
 31
0.0
  0
LINE
  5
19C
  8
DATA
  6
CONTINUOUS
 62
     7
 10
27.5
 20
-9.5
 30
0.0
 11
30.000000000000291
 21
-9.5
 31
0.0
  0
LINE
  5
19D
  8
DATA
  6
CONTINUOUS
 62
     7
 10
27.5
 20
-11.5
 30
0.0
 11
30.0
 21
-11.5
 31
0.0
  0
LINE
  5
19E
  8
DATA
  6
CONTINUOUS
 62
     7
 10
27.5
 20
-9.5
 30
0.0
 11
27.5
 21
-11.5
 31
0.0
  0
LINE
  5
19F
  8
DATA
  6
CONTINUOUS
 62
     7
 10
25.5
 20
-7.0
 30
0.0
 11
25.5
 21
-6.5
 31
0.0
  0
LINE
  5
1A0
  8
DATA
  6
CONTINUOUS
 62
     7
 10
25.5
 20
-7.0
 30
0.0
 11
28.5
 21
-7.0
 31
0.0
  0
LINE
  5
1A1
  8
DATA
  6
CONTINUOUS
 62
     7
 10
28.500000000000291
 20
-6.5
 30
0.0
 11
30.0
 21
-6.5
 31
0.0
  0
LINE
  5
1A2
  8
DATA
  6
CONTINUOUS
 62
     7
 10
28.5
 20
-7.0
 30
0.0
 11
28.500000000000291
 21
-6.5
 31
0.0
  0
LINE
  5
1A3
  8
DATA
  6
CONTINUOUS
 62
     7
 10
30.000000000000291
 20
-4.5
 30
0.0
 11
28.500000000000291
 21
-4.5
 31
0.0
  0
LINE
  5
1A4
  8
DATA
  6
CONTINUOUS
 62
     7
 10
28.500000000000291
 20
-2.5
 30
0.0
 11
17.500000000000291
 21
-2.5
 31
0.0
  0
LINE
  5
1A5
  8
DATA
  6
CONTINUOUS
 62
     7
 10
125.0
 20
142.0
 30
0.0
 11
126.5
 21
142.0
 31
0.0
  0
LINE
  5
1A6
  8
DATA
  6
CONTINUOUS
 62
     7
 10
125.0
 20
130.0
 30
0.0
 11
126.5
 21
130.0
 31
0.0
  0
LINE
  5
1A7
  8
DATA
  6
CONTINUOUS
 62
     7
 10
125.0
 20
130.0
 30
0.0
 11
125.0
 21
142.0
 31
0.0
  0
LINE
  5
1A8
  8
DATA
  6
CONTINUOUS
 62
     7
 10
126.5
 20
129.0
 30
0.0
 11
126.5
 21
143.0
 31
0.0
  0
LINE
  5
1A9
  8
DATA
  6
CONTINUOUS
 62
     7
 10
141.0
 20
128.5
 30
0.0
 11
141.0
 21
143.5
 31
0.0
  0
LINE
  5
1AA
  8
DATA
  6
CONTINUOUS
 62
     7
 10
141.0
 20
128.5
 30
0.0
 11
126.5
 21
129.0
 31
0.0
  0
LINE
  5
1AB
  8
DATA
  6
CONTINUOUS
 62
     7
 10
141.0
 20
143.5
 30
0.0
 11
126.5
 21
143.0
 31
0.0
  0
LINE
  5
1AC
  8
DATA
  6
CONTINUOUS
 62
     7
 10
126.5
 20
135.5
 30
0.0
 11
126.5
 21
136.5
 31
0.0
  0
LINE
  5
1AD
  8
DATA
  6
CONTINUOUS
 62
     7
 10
141.0
 20
135.25
 30
0.0
 11
126.5
 21
135.5
 31
0.0
  0
LINE
  5
1AE
  8
DATA
  6
CONTINUOUS
 62
     7
 10
141.0
 20
136.75
 30
0.0
 11
126.5
 21
136.5
 31
0.0
  0
LINE
  5
1AF
  8
DATA
  6
CONTINUOUS
 62
     7
 10
126.5
 20
139.25133812829429
 30
0.0
 11
141.0
 21
139.25133812829429
 31
0.0
  0
LINE
  5
1B0
  8
DATA
  6
CONTINUOUS
 62
     7
 10
126.5
 20
140.25
 30
0.0
 11
141.0
 21
140.70454422464729
 31
0.0
  0
LINE
  5
1B1
  8
DATA
  6
CONTINUOUS
 62
     7
 10
126.5
 20
142.5
 30
0.0
 11
141.0
 21
142.4704917617089
 31
0.0
  0
LINE
  5
1B2
  8
DATA
  6
CONTINUOUS
 62
     7
 10
126.5
 20
142.80950069263679
 30
0.0
 11
141.0
 21
143.30950069263679
 31
0.0
  0
LINE
  5
1B3
  8
DATA
  6
CONTINUOUS
 62
     7
 10
126.5
 20
132.74866187170571
 30
0.0
 11
141.0
 21
132.74866187170571
 31
0.0
  0
LINE
  5
1B4
  8
DATA
  6
CONTINUOUS
 62
     7
 10
126.5
 20
131.75
 30
0.0
 11
141.0
 21
131.29545577535271
 31
0.0
  0
LINE
  5
1B5
  8
DATA
  6
CONTINUOUS
 62
     7
 10
126.5
 20
129.5
 30
0.0
 11
141.0
 21
129.5295082382911
 31
0.0
  0
LINE
  5
1B6
  8
DATA
  6
CONTINUOUS
 62
     7
 10
126.5
 20
129.19049930736321
 30
0.0
 11
141.0
 21
128.69049930736321
 31
0.0
  0
LINE
  5
1B7
  8
DATA
  6
CONTINUOUS
 62
     7
 10
125.0
 20
112.0
 30
0.0
 11
126.5
 21
112.0
 31
0.0
  0
LINE
  5
1B8
  8
DATA
  6
CONTINUOUS
 62
     7
 10
125.0
 20
100.0
 30
0.0
 11
126.5
 21
100.0
 31
0.0
  0
LINE
  5
1B9
  8
DATA
  6
CONTINUOUS
 62
     7
 10
125.0
 20
100.0
 30
0.0
 11
125.0
 21
112.0
 31
0.0
  0
LINE
  5
1BA
  8
DATA
  6
CONTINUOUS
 62
     7
 10
126.5
 20
99.0
 30
0.0
 11
126.5
 21
113.0
 31
0.0
  0
LINE
  5
1BB
  8
DATA
  6
CONTINUOUS
 62
     7
 10
141.0
 20
98.500000000000014
 30
0.0
 11
141.0
 21
113.5
 31
0.0
  0
LINE
  5
1BC
  8
DATA
  6
CONTINUOUS
 62
     7
 10
141.0
 20
98.500000000000014
 30
0.0
 11
126.5
 21
99.0
 31
0.0
  0
LINE
  5
1BD
  8
DATA
  6
CONTINUOUS
 62
     7
 10
141.0
 20
113.5
 30
0.0
 11
126.5
 21
113.0
 31
0.0
  0
LINE
  5
1BE
  8
DATA
  6
CONTINUOUS
 62
     7
 10
126.5
 20
105.5
 30
0.0
 11
126.5
 21
106.5
 31
0.0
  0
LINE
  5
1BF
  8
DATA
  6
CONTINUOUS
 62
     7
 10
141.0
 20
105.25
 30
0.0
 11
126.5
 21
105.5
 31
0.0
  0
LINE
  5
1C0
  8
DATA
  6
CONTINUOUS
 62
     7
 10
141.0
 20
106.75
 30
0.0
 11
126.5
 21
106.5
 31
0.0
  0
LINE
  5
1C1
  8
DATA
  6
CONTINUOUS
 62
     7
 10
126.5
 20
109.25133812829429
 30
0.0
 11
141.0
 21
109.25133812829429
 31
0.0
  0
LINE
  5
1C2
  8
DATA
  6
CONTINUOUS
 62
     7
 10
126.5
 20
110.25
 30
0.0
 11
141.0
 21
110.70454422464729
 31
0.0
  0
LINE
  5
1C3
  8
DATA
  6
CONTINUOUS
 62
     7
 10
126.5
 20
112.5
 30
0.0
 11
141.0
 21
112.4704917617089
 31
0.0
  0
LINE
  5
1C4
  8
DATA
  6
CONTINUOUS
 62
     7
 10
126.5
 20
112.8095006926368
 30
0.0
 11
141.0
 21
113.3095006926368
 31
0.0
  0
LINE
  5
1C5
  8
DATA
  6
CONTINUOUS
 62
     7
 10
126.5
 20
102.74866187170571
 30
0.0
 11
141.0
 21
102.74866187170571
 31
0.0
  0
LINE
  5
1C6
  8
DATA
  6
CONTINUOUS
 62
     7
 10
126.5
 20
101.75
 30
0.0
 11
141.0
 21
101.29545577535271
 31
0.0
  0
LINE
  5
1C7
  8
DATA
  6
CONTINUOUS
 62
     7
 10
126.5
 20
99.500000000000014
 30
0.0
 11
141.0
 21
99.529508238291143
 31
0.0
  0
LINE
  5
1C8
  8
DATA
  6
CONTINUOUS
 62
     7
 10
126.5
 20
99.19049930736324
 30
0.0
 11
141.0
 21
98.690499307363226
 31
0.0
  0
LINE
  5
1C9
  8
DATA
  6
CONTINUOUS
 62
     7
 10
150.0
 20
101.0
 30
0.0
 11
168.5
 21
101.0
 31
0.0
  0
LINE
  5
1CA
  8
DATA
  6
CONTINUOUS
 62
     7
 10
168.5
 20
101.0
 30
0.0
 11
168.5
 21
150.0
 31
0.0
  0
LINE
  5
1CB
  8
DATA
  6
CONTINUOUS
 62
     7
 10
168.5
 20
150.0
 30
0.0
 11
150.0
 21
150.0
 31
0.0
  0
LINE
  5
1CC
  8
DATA
  6
CONTINUOUS
 62
     7
 10
150.0
 20
101.5
 30
0.0
 11
156.5
 21
101.5
 31
0.0
  0
LINE
  5
1CD
  8
DATA
  6
CONTINUOUS
 62
     7
 10
156.5
 20
101.5
 30
0.0
 11
156.5
 21
110.5
 31
0.0
  0
LINE
  5
1CE
  8
DATA
  6
CONTINUOUS
 62
     7
 10
156.5
 20
110.5
 30
0.0
 11
150.0
 21
110.5
 31
0.0
  0
LINE
  5
1CF
  8
DATA
  6
CONTINUOUS
 62
     7
 10
152.5
 20
101.5
 30
0.0
 11
152.5
 21
110.5
 31
0.0
  0
LINE
  5
1D0
  8
DATA
  6
CONTINUOUS
 62
     7
 10
168.0
 20
117.0
 30
0.0
 11
153.0
 21
117.0
 31
0.0
  0
LINE
  5
1D1
  8
DATA
  6
CONTINUOUS
 62
     7
 10
168.0
 20
117.0
 30
0.0
 11
168.0
 21
129.5
 31
0.0
  0
LINE
  5
1D2
  8
DATA
  6
CONTINUOUS
 62
     7
 10
168.0
 20
129.5
 30
0.0
 11
153.0
 21
129.5
 31
0.0
  0
LINE
  5
1D3
  8
DATA
  6
CONTINUOUS
 62
     7
 10
167.5
 20
117.0
 30
0.0
 11
167.5
 21
125.0
 31
0.0
  0
LINE
  5
1D4
  8
DATA
  6
CONTINUOUS
 62
     7
 10
167.5
 20
125.0
 30
0.0
 11
163.5
 21
125.0
 31
0.0
  0
LINE
  5
1D5
  8
DATA
  6
CONTINUOUS
 62
     7
 10
163.5
 20
117.0
 30
0.0
 11
163.5
 21
125.0
 31
0.0
  0
LINE
  5
1D6
  8
DATA
  6
CONTINUOUS
 62
     7
 10
167.5
 20
127.5
 30
0.0
 11
163.5
 21
127.5
 31
0.0
  0
LINE
  5
1D7
  8
DATA
  6
CONTINUOUS
 62
     7
 10
163.5
 20
127.5
 30
0.0
 11
163.5
 21
129.5
 31
0.0
  0
LINE
  5
1D8
  8
DATA
  6
CONTINUOUS
 62
     7
 10
167.5
 20
127.5
 30
0.0
 11
167.5
 21
129.5
 31
0.0
  0
CIRCLE
  5
1D9
  8
DATA
  6
CONTINUOUS
 62
     7
 10
165.5
 20
128.5
 30
0.0
 40
1.0
  0
LINE
  5
1DA
  8
DATA
  6
CONTINUOUS
 62
     7
 10
162.5
 20
117.0
 30
0.0
 11
162.5
 21
125.0
 31
0.0
  0
LINE
  5
1DB
  8
DATA
  6
CONTINUOUS
 62
     7
 10
162.5
 20
125.0
 30
0.0
 11
158.5
 21
125.0
 31
0.0
  0
LINE
  5
1DC
  8
DATA
  6
CONTINUOUS
 62
     7
 10
158.5
 20
117.0
 30
0.0
 11
158.5
 21
125.0
 31
0.0
  0
LINE
  5
1DD
  8
DATA
  6
CONTINUOUS
 62
     7
 10
162.5
 20
127.5
 30
0.0
 11
158.5
 21
127.5
 31
0.0
  0
LINE
  5
1DE
  8
DATA
  6
CONTINUOUS
 62
     7
 10
158.5
 20
127.5
 30
0.0
 11
158.5
 21
129.5
 31
0.0
  0
LINE
  5
1DF
  8
DATA
  6
CONTINUOUS
 62
     7
 10
162.5
 20
127.5
 30
0.0
 11
162.5
 21
129.5
 31
0.0
  0
CIRCLE
  5
1E0
  8
DATA
  6
CONTINUOUS
 62
     7
 10
160.5
 20
128.5
 30
0.0
 40
1.0
  0
LINE
  5
1E1
  8
DATA
  6
CONTINUOUS
 62
     7
 10
157.5
 20
117.0
 30
0.0
 11
157.5
 21
125.0
 31
0.0
  0
LINE
  5
1E2
  8
DATA
  6
CONTINUOUS
 62
     7
 10
157.5
 20
125.0
 30
0.0
 11
153.5
 21
125.0
 31
0.0
  0
LINE
  5
1E3
  8
DATA
  6
CONTINUOUS
 62
     7
 10
153.5
 20
117.0
 30
0.0
 11
153.5
 21
125.0
 31
0.0
  0
LINE
  5
1E4
  8
DATA
  6
CONTINUOUS
 62
     7
 10
157.5
 20
127.5
 30
0.0
 11
153.5
 21
127.5
 31
0.0
  0
LINE
  5
1E5
  8
DATA
  6
CONTINUOUS
 62
     7
 10
153.5
 20
127.5
 30
0.0
 11
153.5
 21
129.5
 31
0.0
  0
LINE
  5
1E6
  8
DATA
  6
CONTINUOUS
 62
     7
 10
157.5
 20
127.5
 30
0.0
 11
157.5
 21
129.5
 31
0.0
  0
CIRCLE
  5
1E7
  8
DATA
  6
CONTINUOUS
 62
     7
 10
155.5
 20
128.5
 30
0.0
 40
1.0
  0
LINE
  5
1E8
  8
DATA
  6
CONTINUOUS
 62
     7
 10
153.0
 20
129.5
 30
0.0
 11
153.0
 21
117.0
 31
0.0
  0
LINE
  5
1E9
  8
DATA
  6
CONTINUOUS
 62
     7
 10
164.0
 20
120.5
 30
0.0
 11
167.0
 21
120.5
 31
0.0
  0
LINE
  5
1EA
  8
DATA
  6
CONTINUOUS
 62
     7
 10
167.0
 20
120.5
 30
0.0
 11
167.0
 21
124.5
 31
0.0
  0
LINE
  5
1EB
  8
DATA
  6
CONTINUOUS
 62
     7
 10
164.0
 20
120.5
 30
0.0
 11
164.0
 21
124.5
 31
0.0
  0
LINE
  5
1EC
  8
DATA
  6
CONTINUOUS
 62
     7
 10
164.5
 20
122.5
 30
0.0
 11
166.5
 21
122.5
 31
0.0
  0
LINE
  5
1ED
  8
DATA
  6
CONTINUOUS
 62
     7
 10
166.5
 20
125.0
 30
0.0
 11
166.5
 21
122.5
 31
0.0
  0
LINE
  5
1EE
  8
DATA
  6
CONTINUOUS
 62
     7
 10
164.5
 20
122.5
 30
0.0
 11
164.5
 21
125.0
 31
0.0
  0
LINE
  5
1EF
  8
DATA
  6
CONTINUOUS
 62
     7
 10
164.0
 20
124.5
 30
0.0
 11
164.5
 21
124.5
 31
0.0
  0
LINE
  5
1F0
  8
DATA
  6
CONTINUOUS
 62
     7
 10
166.5
 20
124.5
 30
0.0
 11
167.0
 21
124.5
 31
0.0
  0
LINE
  5
1F1
  8
DATA
  6
CONTINUOUS
 62
     7
 10
159.0
 20
120.5
 30
0.0
 11
162.0
 21
120.5
 31
0.0
  0
LINE
  5
1F2
  8
DATA
  6
CONTINUOUS
 62
     7
 10
162.0
 20
120.5
 30
0.0
 11
162.0
 21
124.5
 31
0.0
  0
LINE
  5
1F3
  8
DATA
  6
CONTINUOUS
 62
     7
 10
159.0
 20
120.5
 30
0.0
 11
159.0
 21
124.5
 31
0.0
  0
LINE
  5
1F4
  8
DATA
  6
CONTINUOUS
 62
     7
 10
159.5
 20
122.5
 30
0.0
 11
161.5
 21
122.5
 31
0.0
  0
LINE
  5
1F5
  8
DATA
  6
CONTINUOUS
 62
     7
 10
161.5
 20
125.0
 30
0.0
 11
161.5
 21
122.5
 31
0.0
  0
LINE
  5
1F6
  8
DATA
  6
CONTINUOUS
 62
     7
 10
159.5
 20
122.5
 30
0.0
 11
159.5
 21
125.0
 31
0.0
  0
LINE
  5
1F7
  8
DATA
  6
CONTINUOUS
 62
     7
 10
159.0
 20
124.5
 30
0.0
 11
159.5
 21
124.5
 31
0.0
  0
LINE
  5
1F8
  8
DATA
  6
CONTINUOUS
 62
     7
 10
161.5
 20
124.5
 30
0.0
 11
162.0
 21
124.5
 31
0.0
  0
LINE
  5
1F9
  8
DATA
  6
CONTINUOUS
 62
     7
 10
154.0
 20
120.5
 30
0.0
 11
157.0
 21
120.5
 31
0.0
  0
LINE
  5
1FA
  8
DATA
  6
CONTINUOUS
 62
     7
 10
157.0
 20
120.5
 30
0.0
 11
157.0
 21
124.5
 31
0.0
  0
LINE
  5
1FB
  8
DATA
  6
CONTINUOUS
 62
     7
 10
154.0
 20
120.5
 30
0.0
 11
154.0
 21
124.5
 31
0.0
  0
LINE
  5
1FC
  8
DATA
  6
CONTINUOUS
 62
     7
 10
154.5
 20
122.5
 30
0.0
 11
156.5
 21
122.5
 31
0.0
  0
LINE
  5
1FD
  8
DATA
  6
CONTINUOUS
 62
     7
 10
156.5
 20
125.0
 30
0.0
 11
156.5
 21
122.5
 31
0.0
  0
LINE
  5
1FE
  8
DATA
  6
CONTINUOUS
 62
     7
 10
154.5
 20
122.5
 30
0.0
 11
154.5
 21
125.0
 31
0.0
  0
LINE
  5
1FF
  8
DATA
  6
CONTINUOUS
 62
     7
 10
154.0
 20
124.5
 30
0.0
 11
154.5
 21
124.5
 31
0.0
  0
LINE
  5
200
  8
DATA
  6
CONTINUOUS
 62
     7
 10
156.5
 20
124.5
 30
0.0
 11
157.0
 21
124.5
 31
0.0
  0
LINE
  5
201
  8
DATA
  6
CONTINUOUS
 62
     7
 10
165.0
 20
128.5
 30
0.0
 11
166.0
 21
128.5
 31
0.0
  0
LINE
  5
202
  8
DATA
  6
CONTINUOUS
 62
     7
 10
165.5
 20
129.0
 30
0.0
 11
165.5
 21
128.0
 31
0.0
  0
LINE
  5
203
  8
DATA
  6
CONTINUOUS
 62
     7
 10
160.0
 20
128.5
 30
0.0
 11
161.0
 21
128.5
 31
0.0
  0
LINE
  5
204
  8
DATA
  6
CONTINUOUS
 62
     7
 10
160.5
 20
129.0
 30
0.0
 11
160.5
 21
128.0
 31
0.0
  0
LINE
  5
205
  8
DATA
  6
CONTINUOUS
 62
     7
 10
155.0
 20
128.5
 30
0.0
 11
156.0
 21
128.5
 31
0.0
  0
LINE
  5
206
  8
DATA
  6
CONTINUOUS
 62
     7
 10
155.5
 20
129.0
 30
0.0
 11
155.5
 21
128.0
 31
0.0
  0
LINE
  5
207
  8
DATA
  6
CONTINUOUS
 62
     7
 10
150.0
 20
131.0
 30
0.0
 11
161.5
 21
131.0
 31
0.0
  0
LINE
  5
208
  8
DATA
  6
CONTINUOUS
 62
     7
 10
161.5
 20
131.0
 30
0.0
 11
161.5
 21
141.0
 31
0.0
  0
LINE
  5
209
  8
DATA
  6
CONTINUOUS
 62
     7
 10
161.5
 20
141.0
 30
0.0
 11
150.0
 21
141.0
 31
0.0
  0
LINE
  5
20A
  8
DATA
  6
CONTINUOUS
 62
     7
 10
153.5
 20
131.0
 30
0.0
 11
153.5
 21
141.0
 31
0.0
  0
TEXT
  5
20B
  8
DATA
 62
     7
 10
153.5
 20
114.0728888888888
 30
0.0
 40
2.4694444444444441
  1
GND
 41
0.7
 11
153.5
 21
116.5423333333333
 31
0.0
 73
     3
  0
TEXT
  5
20C
  8
DATA
 62
     7
 10
160.0
 20
114.0728888888888
 30
0.0
 40
2.1717881944444439
  1
1
 41
0.7
 11
160.0
 21
116.2446770833333
 31
0.0
 73
     3
  0
TEXT
  5
20D
  8
DATA
 62
     7
 10
165.0
 20
114.0728888888888
 30
0.0
 40
2.1717881944444439
  1
2
 41
0.7
 11
165.0
 21
116.2446770833333
 31
0.0
 73
     3
  0
TEXT
  5
20E
  8
DATA
 62
     7
 10
158.5
 20
112.2864444444444
 30
0.0
 40
1.2347222222222221
  1
source
 41
0.7
 11
158.5
 21
113.5211666666666
 31
0.0
 73
     3
  0
TEXT
  5
20F
  8
DATA
 62
     7
 10
164.0
 20
112.2864444444444
 30
0.0
 40
1.085894097222222
  1
level
 41
0.7
 11
164.0
 21
113.37233854166659
 31
0.0
 73
     3
  0
ENDSEC
  0
EOF
