  0
SECTION
  2
HEADER
  9
$ACADVER
  1
AC1009
  9
$INSBASE
 10
0.0
 20
0.0
 30
0.0
  9
$EXTMIN
 10
-80.010985489947416
 20
-131.71201227911089
 30
-0.0015258207003583
  9
$EXTMAX
 10
280.01098716632811
 20
403.5481165140169
 30
0.0000000349246037
  9
$LIMMIN
 10
0.0
 20
0.0
  9
$LIMMAX
 10
0.0
 20
0.0
  9
$ORTHOMODE
 70
     0
  9
$REGENMODE
 70
     1
  9
$FILLMODE
 70
     1
  9
$QTEXTMODE
 70
     0
  9
$MIRRTEXT
 70
     1
  9
$DRAGMODE
 70
     2
  9
$LTSCALE
 40
10.16
  9
$OSMODE
 70
   231
  9
$ATTMODE
 70
     1
  9
$TEXTSIZE
 40
0.0
  9
$TRACEWID
 40
1.0
  9
$TEXTSTYLE
  7
STANDARD
  9
$CLAYER
  8
DATA
  9
$CELTYPE
  6
BYLAYER
  9
$CECOLOR
 62
   256
  9
$DIMSCALE
 40
1.0
  9
$DIMASZ
 40
0.18
  9
$DIMEXO
 40
0.0625
  9
$DIMDLI
 40
0.38
  9
$DIMRND
 40
0.0
  9
$DIMDLE
 40
0.0
  9
$DIMEXE
 40
0.18
  9
$DIMTP
 40
0.0
  9
$DIMTM
 40
0.0
  9
$DIMTXT
 40
0.18
  9
$DIMCEN
 40
0.09
  9
$DIMTSZ
 40
0.0
  9
$DIMTOL
 70
     0
  9
$DIMLIM
 70
     0
  9
$DIMTIH
 70
     1
  9
$DIMTOH
 70
     1
  9
$DIMSE1
 70
     0
  9
$DIMSE2
 70
     0
  9
$DIMTAD
 70
     0
  9
$DIMZIN
 70
     0
  9
$DIMBLK
  1

  9
$DIMASO
 70
     1
  9
$DIMSHO
 70
     1
  9
$DIMPOST
  1

  9
$DIMAPOST
  1

  9
$DIMALT
 70
     0
  9
$DIMALTD
 70
     2
  9
$DIMALTF
 40
25.399999999999999
  9
$DIMLFAC
 40
1.0
  9
$DIMTOFL
 70
     0
  9
$DIMTVP
 40
0.0
  9
$DIMTIX
 70
     0
  9
$DIMSOXD
 70
     0
  9
$DIMSAH
 70
     0
  9
$DIMBLK1
  1

  9
$DIMBLK2
  1

  9
$DIMSTYLE
  2
STANDARD
  9
$DIMCLRD
 70
     0
  9
$DIMCLRE
 70
     0
  9
$DIMCLRT
 70
     0
  9
$DIMTFAC
 40
1.0
  9
$DIMGAP
 40
0.09
  9
$LUNITS
 70
     2
  9
$LUPREC
 70
     4
  9
$SKETCHINC
 40
0.1
  9
$FILLETRAD
 40
0.0
  9
$AUNITS
 70
     0
  9
$AUPREC
 70
     0
  9
$MENU
  1
acad
  9
$ELEVATION
 40
0.0
  9
$PELEVATION
 40
0.0
  9
$THICKNESS
 40
0.0
  9
$LIMCHECK
 70
     0
  9
$BLIPMODE
 70
     0
  9
$CHAMFERA
 40
0.0
  9
$CHAMFERB
 40
0.0
  9
$SKPOLY
 70
     0
  9
$TDCREATE
 40
2454272.7562847221
  9
$TDUPDATE
 40
2454272.7579555088
  9
$TDINDWG
 40
0.0002588079
  9
$TDUSRTIMER
 40
0.0002586343
  9
$USRTIMER
 70
     1
  9
$ANGBASE
 50
0.0
  9
$ANGDIR
 70
     0
  9
$PDMODE
 70
     1
  9
$PDSIZE
 40
-2.0
  9
$PLINEWID
 40
0.0
  9
$COORDS
 70
     1
  9
$SPLFRAME
 70
     0
  9
$SPLINETYPE
 70
     6
  9
$SPLINESEGS
 70
     8
  9
$ATTDIA
 70
     0
  9
$ATTREQ
 70
     1
  9
$HANDLING
 70
     1
  9
$HANDSEED
  5
244
  9
$SURFTAB1
 70
     6
  9
$SURFTAB2
 70
     6
  9
$SURFTYPE
 70
     6
  9
$SURFU
 70
     6
  9
$SURFV
 70
     6
  9
$UCSNAME
  2

  9
$UCSORG
 10
0.0
 20
0.0
 30
0.0
  9
$UCSXDIR
 10
1.0
 20
0.0
 30
0.0
  9
$UCSYDIR
 10
0.0
 20
1.0
 30
0.0
  9
$PUCSNAME
  2

  9
$PUCSORG
 10
0.0
 20
0.0
 30
0.0
  9
$PUCSXDIR
 10
1.0
 20
0.0
 30
0.0
  9
$PUCSYDIR
 10
0.0
 20
1.0
 30
0.0
  9
$USERI1
 70
     0
  9
$USERI2
 70
     0
  9
$USERI3
 70
     0
  9
$USERI4
 70
     0
  9
$USERI5
 70
     0
  9
$USERR1
 40
0.0
  9
$USERR2
 40
0.0
  9
$USERR3
 40
0.0
  9
$USERR4
 40
0.0
  9
$USERR5
 40
0.0
  9
$WORLDVIEW
 70
     1
  9
$SHADEDGE
 70
     3
  9
$SHADEDIF
 70
    70
  9
$TILEMODE
 70
     1
  9
$MAXACTVP
 70
    64
  9
$PLIMCHECK
 70
     0
  9
$PEXTMIN
 10
1.0000000000000000E+020
 20
1.0000000000000000E+020
 30
1.0000000000000000E+020
  9
$PEXTMAX
 10
-1.0000000000000000E+020
 20
-1.0000000000000000E+020
 30
-1.0000000000000000E+020
  9
$PLIMMIN
 10
0.0
 20
0.0
  9
$PLIMMAX
 10
12.0
 20
9.0
  9
$UNITMODE
 70
     0
  9
$VISRETAIN
 70
     0
  9
$PLINEGEN
 70
     1
  9
$PSLTSCALE
 70
     0
  0
ENDSEC
  0
SECTION
  2
TABLES
  0
TABLE
  2
VPORT
 70
     1
  0
VPORT
  2
*ACTIVE
 70
     0
 10
0.0
 20
0.0
 11
1.0
 21
1.0
 12
100.0000008381904
 22
135.91805211745299
 13
0.0
 23
0.0
 14
1.0
 24
1.0
 15
0.0
 25
0.0
 16
0.0
 26
0.0
 36
1.0
 17
0.0
 27
0.0
 37
0.0
 40
539.70212156319542
 41
1.6703601108033239
 42
50.0
 43
0.0
 44
0.0
 50
0.0
 51
0.0
 71
     0
 72
  2000
 73
     1
 74
     1
 75
     0
 76
     0
 77
     0
 78
     0
  0
ENDTAB
  0
TABLE
  2
LTYPE
 70
    11
  0
LTYPE
  2
CONTINUOUS
 70
     0
  3
Solid line
 72
    65
 73
     0
 40
0.0
  0
ENDTAB
  0
TABLE
  2
LAYER
 70
     5
  0
LAYER
  2
0
 70
     0
 62
     7
  6
CONTINUOUS
  0
LAYER
  2
DATA
 70
     0
 62
     7
  6
CONTINUOUS
  0
LAYER
  2
HIBINO-BASE
 70
     0
 62
     7
  6
CONTINUOUS
  0
LAYER
  2
SPEC
 70
     0
 62
     7
  6
CONTINUOUS
  0
LAYER
  2
DIMNSIONS
 70
     0
 62
     7
  6
CONTINUOUS
  0
ENDTAB
  0
TABLE
  2
STYLE
 70
     2
  0
STYLE
  2
STANDARD
 70
     0
 40
0.0
 41
1.0
 50
0.0
 71
     0
 42
0.0
  3
txt
  4
BIGFONT.SHX
  0
ENDTAB
  0
TABLE
  2
VIEW
 70
     0
  0
ENDTAB
  0
TABLE
  2
UCS
 70
     0
  0
ENDTAB
  0
TABLE
  2
APPID
 70
     1
  0
APPID
  2
ACAD
 70
     0
  0
ENDTAB
  0
TABLE
  2
DIMSTYLE
 70
     1
  0
DIMSTYLE
  2
STANDARD
 70
     0
  3

  4

  5

  6

  7

 40
1.0
 41
0.18
 42
0.0625
 43
0.38
 44
0.18
 45
0.0
 46
0.0
 47
0.0
 48
0.0
140
0.18
141
0.09
142
0.0
143
25.399999999999999
144
1.0
145
0.0
146
1.0
147
0.09
 71
     0
 72
     0
 73
     1
 74
     1
 75
     0
 76
     0
 77
     0
 78
     0
170
     0
171
     2
172
     0
173
     0
174
     0
175
     0
176
     0
177
     0
178
     0
  0
ENDTAB
  0
ENDSEC
  0
SECTION
  2
BLOCKS
  0
BLOCK
  8
0
  2
$MODEL_SPACE
 70
     0
 10
0.0
 20
0.0
 30
0.0
  3
$MODEL_SPACE
  1

  0
ENDBLK
  5
217
  8
0
  0
BLOCK
 67
     1
  8
0
  2
$PAPER_SPACE
 70
     0
 10
0.0
 20
0.0
 30
0.0
  3
$PAPER_SPACE
  1

  0
ENDBLK
  5
213
 67
     1
  8
0
  0
ENDSEC
  0
SECTION
  2
ENTITIES
  0
LINE
  5
2C
  8
HIBINO-BASE
  6
CONTINUOUS
 62
     7
 10
-79.999999999999986
 20
403.53181499999999
 30
0.0
 11
279.99999999999989
 21
403.53181499999999
 31
0.0
  0
LINE
  5
2D
  8
HIBINO-BASE
  6
CONTINUOUS
 62
     7
 10
279.99999999999989
 20
-116.46818500000001
 30
0.0
 11
-79.999999999999986
 21
-116.46818500000001
 31
0.0
  0
LINE
  5
2E
  8
HIBINO-BASE
  6
CONTINUOUS
 62
     7
 10
-79.999999999999986
 20
-116.46818500000001
 30
0.0
 11
-79.999999999999986
 21
403.53181499999999
 31
0.0
  0
TEXT
  5
2F
  8
HIBINO-BASE
 62
     7
 10
-65.631999999999991
 20
-129.2855405999999
 30
0.0
 40
7.2000883593749991
  1
Hibino Corporation
 41
0.7
 11
-65.631999999999991
 21
-122.0854522406249
 31
0.0
 73
     3
  0
LINE
  5
30
  8
HIBINO-BASE
  6
CONTINUOUS
 62
     7
 10
279.99999999999989
 20
403.53181499999999
 30
0.0
 11
279.99999999999989
 21
-116.46818500000001
 31
0.0
  0
LINE
  5
31
  8
HIBINO-BASE
  6
CONTINUOUS
 62
     7
 10
100.0
 20
-71.468184999999977
 30
0.0
 11
279.99999999999989
 21
-71.468184999999977
 31
0.0
  0
LINE
  5
32
  8
HIBINO-BASE
  6
CONTINUOUS
 62
     7
 10
100.0
 20
-116.46818500000001
 30
0.0
 11
100.0
 21
-71.468184999999977
 31
0.0
  0
TEXT
  5
33
  8
HIBINO-BASE
 62
     7
 10
101.8
 20
-76.485571666666644
 30
0.0
 40
3.2576822916666659
  1
NOTE
 41
0.7
 11
101.8
 21
-73.227889374999975
 31
0.0
 73
     3
  0
LINE
  5
34
  8
HIBINO-BASE
  6
CONTINUOUS
 62
     7
 10
170.0
 20
-116.46818500000001
 30
0.0
 11
170.0
 21
-71.468184999999977
 31
0.0
  0
TEXT
  5
35
  8
HIBINO-BASE
 62
     7
 10
171.7999999999999
 20
-76.485571666666644
 30
0.0
 40
3.2576822916666659
  1
TITLE
 41
0.7
 11
171.7999999999999
 21
-73.227889374999975
 31
0.0
 73
     3
  0
TEXT
  5
36
  8
HIBINO-BASE
 62
     7
 10
200.13677999999999
 20
-129.2855405999999
 30
0.0
 40
7.2000883593749991
  1
ヒビノ株式会社
 41
0.7
 11
200.13677999999999
 21
-122.0854522406249
 31
0.0
 73
     3
  0
LINE
  5
37
  8
HIBINO-BASE
  6
CONTINUOUS
 62
     7
 10
100.0
 20
-96.468184999999963
 30
0.0
 11
279.99999999999989
 21
-96.468184999999963
 31
0.0
  0
TEXT
  5
38
  8
HIBINO-BASE
 62
     7
 10
196.80000000000001
 20
-101.3729316666666
 30
0.0
 40
3.2576822916666659
  1
DRAWN
 41
0.7
 11
196.80000000000001
 21
-98.115249375000005
 31
0.0
 73
     3
  0
TEXT
  5
39
  8
HIBINO-BASE
 62
     7
 10
146.7999999999999
 20
-101.3729316666666
 30
0.0
 40
3.2576822916666659
  1
DATE
 41
0.7
 11
146.7999999999999
 21
-98.115249375000005
 31
0.0
 73
     3
  0
TEXT
  5
3A
  8
HIBINO-BASE
 62
     7
 10
126.8
 20
-101.3729316666666
 30
0.0
 40
3.2576822916666659
  1
SCALE
 41
0.7
 11
126.8
 21
-98.115249375000005
 31
0.0
 73
     3
  0
TEXT
  5
3B
  8
HIBINO-BASE
 62
     7
 10
171.7999999999999
 20
-101.3729316666666
 30
0.0
 40
3.2576822916666659
  1
DESIGN
 41
0.7
 11
171.7999999999999
 21
-98.115249375000005
 31
0.0
 73
     3
  0
TEXT
  5
3C
  8
HIBINO-BASE
 62
     7
 10
246.7999999999999
 20
-101.3729316666666
 30
0.0
 40
3.2576822916666659
  1
DRAWING NO.
 41
0.7
 11
246.7999999999999
 21
-98.115249375000005
 31
0.0
 73
     3
  0
TEXT
  5
3D
  8
HIBINO-BASE
 62
     7
 10
221.7999999999999
 20
-101.3729316666666
 30
0.0
 40
3.2576822916666659
  1
CHECK
 41
0.7
 11
221.7999999999999
 21
-98.115249375000005
 31
0.0
 73
     3
  0
LINE
  5
3E
  8
HIBINO-BASE
  6
CONTINUOUS
 62
     7
 10
128.74999999999989
 20
-113.96818500000001
 30
0.0
 11
136.25
 21
-106.46818499999991
 31
0.0
  0
TEXT
  5
3F
  8
HIBINO-BASE
 62
     7
 10
127.5
 20
-108.68607166666661
 30
0.0
 40
3.2576822916666659
  1
1
 41
0.7
 11
127.5
 21
-105.42838937499999
 31
0.0
 73
     3
  0
LINE
  5
40
  8
HIBINO-BASE
  6
CONTINUOUS
 62
     7
 10
125.0
 20
-116.46818500000001
 30
0.0
 11
125.0
 21
-96.468184999999963
 31
0.0
  0
LINE
  5
41
  8
HIBINO-BASE
  6
CONTINUOUS
 62
     7
 10
145.0
 20
-116.46818500000001
 30
0.0
 11
145.0
 21
-96.468184999999963
 31
0.0
  0
LINE
  5
42
  8
HIBINO-BASE
  6
CONTINUOUS
 62
     7
 10
195.0
 20
-96.468184999999963
 30
0.0
 11
195.0
 21
-116.46818500000001
 31
0.0
  0
LINE
  5
43
  8
HIBINO-BASE
  6
CONTINUOUS
 62
     7
 10
245.0
 20
-96.468184999999963
 30
0.0
 11
245.0
 21
-116.46818500000001
 31
0.0
  0
LINE
  5
44
  8
HIBINO-BASE
  6
CONTINUOUS
 62
     7
 10
220.0
 20
-116.46818500000001
 30
0.0
 11
220.0
 21
-96.468184999999963
 31
0.0
  0
TEXT
  5
45
  8
HIBINO-BASE
 62
     7
 10
146.71307999999999
 20
-110.7408916666666
 30
0.0
 40
3.2576822916666659
  1
'07.06.
 41
0.7
 11
146.71307999999999
 21
-107.483209375
 31
0.0
 73
     3
  0
TEXT
  5
46
  8
HIBINO-BASE
 62
     7
 10
135.0
 20
-112.43607166666661
 30
0.0
 40
3.2576822916666659
  1
2
 41
0.7
 11
135.0
 21
-109.17838937499999
 31
0.0
 73
     3
  0
TEXT
  5
47
  8
HIBINO-BASE
 62
     7
 10
198.0116200220692
 20
-110.7408916666666
 30
0.0
 40
3.2576822916666659
  1
N.Sasaki
 41
0.7
 11
198.0116200220692
 21
-107.483209375
 31
0.0
 73
     3
  0
TEXT
  5
48
  8
HIBINO-BASE
 62
     7
 10
107.76666666666659
 20
-112.51618499999999
 30
0.0
 40
6.5153645833333318
  1
A4
 41
0.7
 11
107.76666666666659
 21
-106.0008204166666
 31
0.0
 73
     3
  0
TEXT
  5
49
  8
HIBINO-BASE
 62
     7
 10
101.9166666666666
 20
-101.707095
 30
0.0
 40
3.2576822916666659
  1
PAPER SIZE
 41
0.7
 11
101.9166666666666
 21
-98.449412708333327
 31
0.0
 73
     3
  0
LINE
  5
4A
  8
SPEC
  6
CONTINUOUS
 62
     7
 10
-65.000000000000014
 20
383.53181499999999
 30
0.0
 11
166.0
 21
383.53181499999999
 31
0.0
  0
LINE
  5
4B
  8
SPEC
  6
CONTINUOUS
 62
     7
 10
-65.000000000000014
 20
383.53181499999999
 30
0.0
 11
-65.000000000000014
 21
361.032535
 31
0.0
  0
TEXT
  5
4C
  8
SPEC
 62
     7
 10
-62.500000000000021
 20
386.318355
 30
0.0
 40
4.8865234375000011
  1
仕様
 41
0.7
 11
-62.500000000000021
 21
391.20487843749999
 31
0.0
 73
     3
  0
LINE
  5
4D
  8
SPEC
  6
CONTINUOUS
 62
     7
 10
15.99999999999998
 20
383.53181499999999
 30
0.0
 11
15.99999999999998
 21
361.032535
 31
0.0
  0
LINE
  5
4E
  8
SPEC
  6
CONTINUOUS
 62
     7
 10
166.0
 20
383.53181499999999
 30
0.0
 11
166.0
 21
361.032535
 31
0.0
  0
LINE
  5
4F
  8
SPEC
  6
CONTINUOUS
 62
     7
 10
-65.000000000000014
 20
361.032535
 30
0.0
 11
166.0
 21
361.032535
 31
0.0
  0
TEXT
  5
50
  8
SPEC
 62
     7
 10
-63.200000000000067
 20
362.6083705555555
 30
0.0
 40
3.8006293402777769
  1
質量
 41
0.7
 11
-63.200000000000067
 21
366.40899989583329
 31
0.0
 73
     3
  0
TEXT
  5
51
  8
SPEC
 62
     7
 10
17.999999999999979
 20
362.6083705555555
 30
0.0
 40
3.8006293402777769
  1
約110g
 41
0.7
 11
17.999999999999979
 21
366.40899989583329
 31
0.0
 73
     3
  0
TEXT
  5
52
  8
SPEC
 62
     7
 10
-63.200000000000067
 20
377.6083705555555
 30
0.0
 40
3.8006293402777769
  1
コネクタ 
 41
0.7
 11
-63.200000000000067
 21
381.40899989583329
 31
0.0
 73
     3
  0
TEXT
  5
53
  8
SPEC
 62
     7
 10
17.999999999999979
 20
377.6083705555555
 30
0.0
 40
3.8006293402777769
  1
4Pユーロブロック(1:GND,2:SELECT,3:UP,4:DOWN)
 41
0.7
 11
17.999999999999979
 21
381.40899989583329
 31
0.0
 73
     3
  0
TEXT
  5
54
  8
SPEC
 62
     7
 10
-63.200000000000067
 20
370.1083705555555
 30
0.0
 40
3.8006293402777769
  1
寸法(W×H×D)
 41
0.7
 11
-63.200000000000067
 21
373.90899989583329
 31
0.0
 73
     3
  0
TEXT
  5
55
  8
SPEC
 62
     7
 10
17.999999999999979
 20
370.1083705555555
 30
0.0
 40
3.8006293402777769
  1
86×86×21mm(突起部含まず)
 41
0.7
 11
17.999999999999979
 21
373.90899989583329
 31
0.0
 73
     3
  0
LINE
  5
56
  8
SPEC
  6
CONTINUOUS
 62
     7
 10
-65.000000000000014
 20
368.532535
 30
0.0
 11
166.0
 21
368.532535
 31
0.0
  0
LINE
  5
57
  8
SPEC
  6
CONTINUOUS
 62
     7
 10
-65.000000000000014
 20
376.032535
 30
0.0
 11
166.0
 21
376.032535
 31
0.0
  0
TEXT
  5
58
  8
DIMNSIONS
 62
     7
 10
60.0
 20
-91.929204999999968
 30
0.0
 40
4.8865234375000002
  1
(単位：mm)
 41
0.7
 11
60.0
 21
-87.042681562499979
 31
0.0
 73
     3
  0
LINE
  5
59
  8
DIMNSIONS
  6
CONTINUOUS
 62
     7
 10
56.576305647714179
 20
126.379879035531
 30
0.0
 11
75.0
 21
150.0
 31
0.0
  0
LINE
  5
5A
  8
DIMNSIONS
  6
CONTINUOUS
 62
     7
 10
56.576305647714179
 20
126.379879035531
 30
0.0
 11
58.5993824671814
 21
131.1459493469161
 31
0.0
  0
LINE
  5
5B
  8
DIMNSIONS
  6
CONTINUOUS
 62
     7
 10
56.576305647714179
 20
126.379879035531
 30
0.0
 11
60.711376722872743
 21
129.49587859167971
 31
0.0
  0
LINE
  5
5C
  8
DIMNSIONS
  6
CONTINUOUS
 62
     7
 10
75.0
 20
150.0
 30
0.0
 11
103.6944444444444
 21
150.0
 31
0.0
  0
TEXT
  5
5D
  8
DIMNSIONS
 62
     7
 10
79.0
 20
151.98777777777769
 30
0.0
 40
5.4294704861111107
  1
2-φ3.5
 41
0.7
 11
79.0
 21
157.41724826388881
 31
0.0
 73
     3
  0
LINE
  5
5E
  8
DIMNSIONS
  6
CONTINUOUS
 62
     7
 10
-14.000000000000011
 20
82.0
 30
0.0
 11
-54.000000000000021
 21
82.0
 31
0.0
  0
LINE
  5
5F
  8
DIMNSIONS
  6
CONTINUOUS
 62
     7
 10
-14.000000000000011
 20
168.0
 30
0.0
 11
-54.000000000000021
 21
168.0
 31
0.0
  0
LINE
  5
60
  8
DIMNSIONS
  6
CONTINUOUS
 62
     7
 10
-50.000000000000021
 20
82.0
 30
0.0
 11
-50.000000000000021
 21
168.0
 31
0.0
  0
LINE
  5
61
  8
DIMNSIONS
  6
CONTINUOUS
 62
     7
 10
-50.000000000000021
 20
82.0
 30
0.0
 11
-51.340079590300498
 21
87.00124511718748
 31
0.0
  0
LINE
  5
62
  8
DIMNSIONS
  6
CONTINUOUS
 62
     7
 10
-50.000000000000021
 20
82.0
 30
0.0
 11
-48.659920409699531
 21
87.00124511718748
 31
0.0
  0
LINE
  5
63
  8
DIMNSIONS
  6
CONTINUOUS
 62
     7
 10
-50.000000000000021
 20
168.0
 30
0.0
 11
-48.659920409699531
 21
162.99875488281251
 31
0.0
  0
LINE
  5
64
  8
DIMNSIONS
  6
CONTINUOUS
 62
     7
 10
-50.000000000000021
 20
168.0
 30
0.0
 11
-51.340079590300498
 21
162.99875488281251
 31
0.0
  0
TEXT
  5
65
  8
DIMNSIONS
 62
     7
 10
-51.987777777777772
 20
121.4722222222222
 30
0.0
 40
5.4294704861111107
  1
86
 50
90.0
 41
0.7
 11
-57.417248263888887
 21
121.4722222222222
 31
0.0
 73
     3
  0
LINE
  5
66
  8
DIMNSIONS
  6
CONTINUOUS
 62
     7
 10
-18.000000000000021
 20
86.0
 30
0.0
 11
-18.000000000000021
 21
46.0
 31
0.0
  0
LINE
  5
67
  8
DIMNSIONS
  6
CONTINUOUS
 62
     7
 10
67.999999999999986
 20
86.0
 30
0.0
 11
67.999999999999986
 21
46.0
 31
0.0
  0
LINE
  5
68
  8
DIMNSIONS
  6
CONTINUOUS
 62
     7
 10
-18.000000000000021
 20
50.0
 30
0.0
 11
67.999999999999986
 21
50.0
 31
0.0
  0
LINE
  5
69
  8
DIMNSIONS
  6
CONTINUOUS
 62
     7
 10
-18.000000000000021
 20
50.0
 30
0.0
 11
-12.99875488281252
 21
51.340079590300491
 31
0.0
  0
LINE
  5
6A
  8
DIMNSIONS
  6
CONTINUOUS
 62
     7
 10
-18.000000000000021
 20
50.0
 30
0.0
 11
-12.99875488281252
 21
48.659920409699509
 31
0.0
  0
LINE
  5
6B
  8
DIMNSIONS
  6
CONTINUOUS
 62
     7
 10
67.999999999999986
 20
50.0
 30
0.0
 11
62.998754882812477
 21
48.659920409699509
 31
0.0
  0
LINE
  5
6C
  8
DIMNSIONS
  6
CONTINUOUS
 62
     7
 10
67.999999999999986
 20
50.0
 30
0.0
 11
62.998754882812477
 21
51.340079590300491
 31
0.0
  0
TEXT
  5
6D
  8
DIMNSIONS
 62
     7
 10
21.472222222222211
 20
51.987777777777779
 30
0.0
 40
5.4294704861111107
  1
86
 41
0.7
 11
21.472222222222211
 21
57.417248263888901
 31
0.0
 73
     3
  0
LINE
  5
6E
  8
DIMNSIONS
  6
CONTINUOUS
 62
     7
 10
14.99999999999998
 20
25.0
 30
0.0
 11
-54.000000000000021
 21
25.0
 31
0.0
  0
LINE
  5
6F
  8
DIMNSIONS
  6
CONTINUOUS
 62
     7
 10
-17.171572875253801
 20
9.0
 30
0.0
 11
-54.000000000000021
 21
9.0
 31
0.0
  0
LINE
  5
70
  8
DIMNSIONS
  6
CONTINUOUS
 62
     7
 10
-50.000000000000021
 20
25.0
 30
0.0
 11
-50.000000000000021
 21
9.0
 31
0.0
  0
LINE
  5
71
  8
DIMNSIONS
  6
CONTINUOUS
 62
     7
 10
-50.000000000000021
 20
25.0
 30
0.0
 11
-48.659920409699531
 21
19.998754882812499
 31
0.0
  0
LINE
  5
72
  8
DIMNSIONS
  6
CONTINUOUS
 62
     7
 10
-50.000000000000021
 20
25.0
 30
0.0
 11
-51.340079590300498
 21
19.998754882812499
 31
0.0
  0
LINE
  5
73
  8
DIMNSIONS
  6
CONTINUOUS
 62
     7
 10
-50.000000000000021
 20
9.0
 30
0.0
 11
-51.340079590300498
 21
14.001245117187491
 31
0.0
  0
LINE
  5
74
  8
DIMNSIONS
  6
CONTINUOUS
 62
     7
 10
-50.000000000000021
 20
9.0
 30
0.0
 11
-48.659920409699531
 21
14.001245117187491
 31
0.0
  0
TEXT
  5
75
  8
DIMNSIONS
 62
     7
 10
-51.987777777777772
 20
13.47222222222222
 30
0.0
 40
5.4294704861111107
  1
16
 50
90.0
 41
0.7
 11
-57.417248263888887
 21
13.47222222222222
 31
0.0
 73
     3
  0
LINE
  5
76
  8
DIMNSIONS
  6
CONTINUOUS
 62
     7
 10
-17.171572875253801
 20
9.0
 30
0.0
 11
-54.000000000000021
 21
9.0
 31
0.0
  0
LINE
  5
77
  8
DIMNSIONS
  6
CONTINUOUS
 62
     7
 10
-22.000000000000011
 20
0.0
 30
0.0
 11
-54.000000000000021
 21
0.0
 31
0.0
  0
LINE
  5
78
  8
DIMNSIONS
  6
CONTINUOUS
 62
     7
 10
-50.000000000000021
 20
0.0
 30
0.0
 11
-50.000000000000021
 21
9.0
 31
0.0
  0
LINE
  5
79
  8
DIMNSIONS
  6
CONTINUOUS
 62
     7
 10
-50.000000000000021
 20
9.0
 30
0.0
 11
-50.000000000000021
 21
19.0
 31
0.0
  0
LINE
  5
7A
  8
DIMNSIONS
  6
CONTINUOUS
 62
     7
 10
-50.000000000000021
 20
9.0
 30
0.0
 11
-51.340079590300498
 21
14.001245117187491
 31
0.0
  0
LINE
  5
7B
  8
DIMNSIONS
  6
CONTINUOUS
 62
     7
 10
-50.000000000000021
 20
9.0
 30
0.0
 11
-48.659920409699531
 21
14.001245117187491
 31
0.0
  0
LINE
  5
7C
  8
DIMNSIONS
  6
CONTINUOUS
 62
     7
 10
-50.000000000000021
 20
0.0
 30
0.0
 11
-50.000000000000021
 21
-10.0
 31
0.0
  0
LINE
  5
7D
  8
DIMNSIONS
  6
CONTINUOUS
 62
     7
 10
-50.000000000000021
 20
0.0
 30
0.0
 11
-48.659920409699531
 21
-5.0012451171874943
 31
0.0
  0
LINE
  5
7E
  8
DIMNSIONS
  6
CONTINUOUS
 62
     7
 10
-50.000000000000021
 20
0.0
 30
0.0
 11
-51.340079590300498
 21
-5.0012451171874943
 31
0.0
  0
TEXT
  5
7F
  8
DIMNSIONS
 62
     7
 10
-51.987777777777772
 20
2.7361111111111129
 30
0.0
 40
5.4294704861111107
  1
9
 50
90.0
 41
0.7
 11
-57.417248263888887
 21
2.7361111111111138
 31
0.0
 73
     3
  0
LINE
  5
80
  8
DIMNSIONS
  6
CONTINUOUS
 62
     7
 10
-22.000000000000011
 20
0.0
 30
0.0
 11
-54.000000000000021
 21
0.0
 31
0.0
  0
LINE
  5
81
  8
DIMNSIONS
  6
CONTINUOUS
 62
     7
 10
0.2499999999999858
 20
-11.5
 30
0.0
 11
-54.000000000000021
 21
-11.5
 31
0.0
  0
LINE
  5
82
  8
DIMNSIONS
  6
CONTINUOUS
 62
     7
 10
-50.000000000000021
 20
0.0
 30
0.0
 11
-50.000000000000021
 21
-11.5
 31
0.0
  0
LINE
  5
83
  8
DIMNSIONS
  6
CONTINUOUS
 62
     7
 10
-50.000000000000021
 20
0.0
 30
0.0
 11
-48.659920409699531
 21
-5.0012451171874943
 31
0.0
  0
LINE
  5
84
  8
DIMNSIONS
  6
CONTINUOUS
 62
     7
 10
-50.000000000000021
 20
0.0
 30
0.0
 11
-51.340079590300498
 21
-5.0012451171874943
 31
0.0
  0
LINE
  5
85
  8
DIMNSIONS
  6
CONTINUOUS
 62
     7
 10
-50.000000000000021
 20
-11.5
 30
0.0
 11
-51.340079590300498
 21
-6.4987548828125048
 31
0.0
  0
LINE
  5
86
  8
DIMNSIONS
  6
CONTINUOUS
 62
     7
 10
-50.000000000000021
 20
-11.5
 30
0.0
 11
-48.659920409699531
 21
-6.4987548828125048
 31
0.0
  0
TEXT
  5
87
  8
DIMNSIONS
 62
     7
 10
-51.987777777777772
 20
-9.2777777777777732
 30
0.0
 40
5.4294704861111107
  1
12
 50
90.0
 41
0.7
 11
-57.417248263888887
 21
-9.2777777777777732
 31
0.0
 73
     3
  0
TEXT
  5
88
  8
DATA
 62
     7
 10
-60.0
 20
-107.99218500000001
 30
0.0
 40
3.2576822916666659
  1
仕様および外観は予告なく変更されることがありますので、ご了承ください。
 41
0.7
 11
-60.0
 21
-104.7345027083333
 31
0.0
 73
     3
  0
TEXT
  5
89
  8
DATA
 62
     7
 10
200.0
 20
-94.206404999999947
 30
0.0
 40
4.8865234375000011
  1
BLU-6
 41
0.7
 11
200.0
 21
-89.319881562499944
 31
0.0
 73
     3
  0
TEXT
  5
8A
  8
DATA
 62
     7
 10
200.0
 20
-79.706404999999933
 30
0.0
 40
4.8865234375000011
  1
BSS
 41
0.7
 11
200.0
 21
-74.81988156249993
 31
0.0
 73
     3
  0
TEXT
  5
8B
  8
DATA
 62
     7
 10
194.29444444444439
 20
-86.778000000000006
 30
0.0
 40
3.8006293402777769
  1
Soundweb London
 41
0.7
 11
194.29444444444439
 21
-82.977370659722226
 31
0.0
 73
     3
  0
LINE
  5
8C
  8
DATA
  6
CONTINUOUS
 62
     7
 10
-10.000000000000011
 20
82.0
 30
0.0
 11
60.0
 21
82.0
 31
0.0
  0
LINE
  5
8D
  8
DATA
  6
CONTINUOUS
 62
     7
 10
-18.000000000000021
 20
90.0
 30
0.0
 11
-18.000000000000021
 21
160.0
 31
0.0
  0
LINE
  5
8E
  8
DATA
  6
CONTINUOUS
 62
     7
 10
-10.000000000000011
 20
168.0
 30
0.0
 11
60.0
 21
168.0
 31
0.0
  0
LINE
  5
8F
  8
DATA
  6
CONTINUOUS
 62
     7
 10
67.999999999999986
 20
160.0
 30
0.0
 11
67.999999999999986
 21
90.0
 31
0.0
  0
ARC
  5
90
  8
DATA
  6
CONTINUOUS
 62
     7
 10
-10.000000000000011
 20
90.0
 30
0.0
 40
8.0
 50
180.0
 51
270.0
  0
ARC
  5
91
  8
DATA
  6
CONTINUOUS
 62
     7
 10
60.0
 20
90.0
 30
0.0
 40
8.0
 50
270.0
 51
0.0
  0
ARC
  5
92
  8
DATA
  6
CONTINUOUS
 62
     7
 10
-10.000000000000011
 20
160.0
 30
0.0
 40
8.0
 50
90.0
 51
180.0
  0
ARC
  5
93
  8
DATA
  6
CONTINUOUS
 62
     7
 10
60.0
 20
160.0
 30
0.0
 40
8.0
 50
0.0
 51
90.0
  0
LINE
  5
94
  8
DATA
  6
CONTINUOUS
 62
     7
 10
-14.000000000000011
 20
90.0
 30
0.0
 11
-14.000000000000011
 21
160.0
 31
0.0
  0
ARC
  5
95
  8
DATA
  6
CONTINUOUS
 62
     7
 10
-10.000000000000011
 20
90.0
 30
0.0
 40
4.0
 50
180.0
 51
270.0
  0
LINE
  5
96
  8
DATA
  6
CONTINUOUS
 62
     7
 10
-10.000000000000011
 20
86.0
 30
0.0
 11
60.0
 21
86.0
 31
0.0
  0
ARC
  5
97
  8
DATA
  6
CONTINUOUS
 62
     7
 10
60.0
 20
90.0
 30
0.0
 40
4.0
 50
270.0
 51
0.0
  0
LINE
  5
98
  8
DATA
  6
CONTINUOUS
 62
     7
 10
-10.000000000000011
 20
164.0
 30
0.0
 11
60.0
 21
164.0
 31
0.0
  0
ARC
  5
99
  8
DATA
  6
CONTINUOUS
 62
     7
 10
-10.000000000000011
 20
160.0
 30
0.0
 40
4.0
 50
90.0
 51
180.0
  0
ARC
  5
9A
  8
DATA
  6
CONTINUOUS
 62
     7
 10
60.0
 20
160.0
 30
0.0
 40
4.0
 50
0.0
 51
90.0
  0
LINE
  5
9B
  8
DATA
  6
CONTINUOUS
 62
     7
 10
63.999999999999993
 20
160.0
 30
0.0
 11
63.999999999999993
 21
90.0
 31
0.0
  0
CIRCLE
  5
9C
  8
DATA
  6
CONTINUOUS
 62
     7
 10
-5.5000000000000142
 20
125.0
 30
0.0
 40
4.0000000000000231
  0
CIRCLE
  5
9D
  8
DATA
  6
CONTINUOUS
 62
     7
 10
-5.5000000000000142
 20
125.0
 30
0.0
 40
1.75
  0
ARC
  5
9E
  8
DATA
  6
CONTINUOUS
 62
     7
 10
23.499999999999989
 20
104.0
 30
0.0
 40
2.2431291246660572
 50
321.17716065900339
 51
38.822839340996559
  0
ARC
  5
9F
  8
DATA
  6
CONTINUOUS
 62
     7
 10
21.999999999999989
 20
105.40000000000001
 30
0.0
 40
4.2920757288868954
 50
220.8303255921912
 51
319.16967440780883
  0
ARC
  5
A0
  8
DATA
  6
CONTINUOUS
 62
     7
 10
21.999999999999989
 20
102.59999999999999
 30
0.0
 40
4.2920757288868954
 50
40.830325592191294
 51
139.16967440780871
  0
ARC
  5
A1
  8
DATA
  6
CONTINUOUS
 62
     7
 10
20.499999999999979
 20
104.0
 30
0.0
 40
2.2431291246660572
 50
141.1771606590035
 51
218.8228393409974
  0
ARC
  5
A2
  8
DATA
  6
CONTINUOUS
 62
     7
 10
23.499999999999989
 20
114.0
 30
0.0
 40
2.2431291246660572
 50
321.17716065900339
 51
38.822839340996559
  0
ARC
  5
A3
  8
DATA
  6
CONTINUOUS
 62
     7
 10
21.999999999999989
 20
115.39999999999991
 30
0.0
 40
4.2920757288868954
 50
220.8303255921912
 51
319.16967440780883
  0
ARC
  5
A4
  8
DATA
  6
CONTINUOUS
 62
     7
 10
21.999999999999989
 20
112.59999999999999
 30
0.0
 40
4.2920757288868954
 50
40.830325592191294
 51
139.16967440780871
  0
ARC
  5
A5
  8
DATA
  6
CONTINUOUS
 62
     7
 10
20.499999999999979
 20
114.0
 30
0.0
 40
2.2431291246660572
 50
141.1771606590035
 51
218.8228393409974
  0
LINE
  5
A6
  8
DATA
  6
CONTINUOUS
 62
     7
 10
32.499999999999993
 20
105.75
 30
0.0
 11
29.499999999999989
 21
105.75
 31
0.0
  0
LINE
  5
A7
  8
DATA
  6
CONTINUOUS
 62
     7
 10
32.499999999999993
 20
105.75
 30
0.0
 11
30.999999999999989
 21
102.75
 31
0.0
  0
LINE
  5
A8
  8
DATA
  6
CONTINUOUS
 62
     7
 10
30.999999999999989
 20
102.75
 30
0.0
 11
29.499999999999989
 21
105.75
 31
0.0
  0
LINE
  5
A9
  8
DATA
  6
CONTINUOUS
 62
     7
 10
32.499999999999993
 20
112.25
 30
0.0
 11
29.499999999999989
 21
112.25
 31
0.0
  0
LINE
  5
AA
  8
DATA
  6
CONTINUOUS
 62
     7
 10
32.499999999999993
 20
112.25
 30
0.0
 11
30.999999999999989
 21
115.25
 31
0.0
  0
LINE
  5
AB
  8
DATA
  6
CONTINUOUS
 62
     7
 10
30.999999999999989
 20
115.25
 30
0.0
 11
29.499999999999989
 21
112.25
 31
0.0
  0
LINE
  5
AC
  8
DATA
  6
CONTINUOUS
 62
     7
 10
38.843145750507567
 20
106.5
 30
0.0
 11
57.999999999999993
 21
106.5
 31
0.0
  0
ARC
  5
AD
  8
DATA
  6
CONTINUOUS
 62
     7
 10
57.999999999999993
 20
109.0
 30
0.0
 40
2.5
 50
270.0
 51
90.0
  0
LINE
  5
AE
  8
DATA
  6
CONTINUOUS
 62
     7
 10
57.999999999999993
 20
111.5
 30
0.0
 11
38.843145750507567
 21
111.5
 31
0.0
  0
ARC
  5
AF
  8
DATA
  6
CONTINUOUS
 62
     7
 10
44.500000000000028
 20
109.0
 30
0.0
 40
6.5000000000000524
 50
160.52877936550979
 51
199.47122063449009
  0
ARC
  5
B0
  8
DATA
  6
CONTINUOUS
 62
     7
 10
38.843145750507567
 20
111.0
 30
0.0
 40
0.4999999999999433
 50
90.0
 51
160.5287793655182
  0
ARC
  5
B1
  8
DATA
  6
CONTINUOUS
 62
     7
 10
38.843145750507567
 20
106.9999999999999
 30
0.0
 40
0.4999999999999363
 50
199.4712206344818
 51
270.0
  0
CIRCLE
  5
B2
  8
DATA
  6
CONTINUOUS
 62
     7
 10
55.499999999999993
 20
125.0
 30
0.0
 40
3.999999999999968
  0
CIRCLE
  5
B3
  8
DATA
  6
CONTINUOUS
 62
     7
 10
55.499999999999993
 20
125.0
 30
0.0
 40
1.75
  0
CIRCLE
  5
B4
  8
DATA
  6
CONTINUOUS
 62
     7
 10
24.999999999999989
 20
140.0
 30
0.0
 40
5.9999999999999698
  0
CIRCLE
  5
B5
  8
DATA
  6
CONTINUOUS
 62
     7
 10
24.999999999999989
 20
140.0
 30
0.0
 40
6.9999999999999831
  0
CIRCLE
  5
B6
  8
DATA
  6
CONTINUOUS
 62
     7
 10
24.999999999999989
 20
140.0
 30
0.0
 40
8.5000000000000089
  0
CIRCLE
  5
B7
  8
DATA
  6
CONTINUOUS
 62
     7
 10
25.000000000000099
 20
140.0
 30
0.0
 40
8.0000000000000142
  0
LINE
  5
B8
  8
DATA
  6
CONTINUOUS
 62
     7
 10
25.12940952255126
 20
139.5170370868554
 30
0.0
 11
24.870590477448768
 21
140.48296291314449
 31
0.0
  0
LINE
  5
B9
  8
DATA
  6
CONTINUOUS
 62
     7
 10
24.870590477448768
 20
140.48296291314449
 30
0.0
 11
17.158291225887961
 21
138.4164585569016
 31
0.0
  0
LINE
  5
BA
  8
DATA
  6
CONTINUOUS
 62
     7
 10
25.12940952255126
 20
139.5170370868554
 30
0.0
 11
17.417110270990332
 21
137.45053273061251
 31
0.0
  0
LINE
  5
BB
  8
DATA
  6
CONTINUOUS
 62
     7
 10
41.84314575050756
 20
134.0
 30
0.0
 11
58.003145750507528
 21
134.0
 31
0.0
  0
ARC
  5
BC
  8
DATA
  6
CONTINUOUS
 62
     7
 10
57.999999999999993
 20
136.5
 30
0.0
 40
2.5
 50
270.0
 51
90.0
  0
LINE
  5
BD
  8
DATA
  6
CONTINUOUS
 62
     7
 10
58.003145750507528
 20
139.0
 30
0.0
 11
41.84314575050756
 21
139.0
 31
0.0
  0
ARC
  5
BE
  8
DATA
  6
CONTINUOUS
 62
     7
 10
47.499999999999993
 20
136.5
 30
0.0
 40
6.4999999999999982
 50
160.52877936550971
 51
199.47122063449041
  0
ARC
  5
BF
  8
DATA
  6
CONTINUOUS
 62
     7
 10
41.84314575050756
 20
138.5
 30
0.0
 40
0.4999999999999433
 50
90.0
 51
160.5287793655182
  0
ARC
  5
C0
  8
DATA
  6
CONTINUOUS
 62
     7
 10
41.84314575050756
 20
134.49999999999989
 30
0.0
 40
0.4999999999999363
 50
199.4712206344818
 51
270.0
  0
LINE
  5
C1
  8
DATA
  6
CONTINUOUS
 62
     7
 10
34.676295349746269
 20
137.541219071526
 30
0.0
 11
37.091109915468891
 21
136.89417145876979
 31
0.0
  0
CIRCLE
  5
C2
  8
DATA
  6
CONTINUOUS
 62
     7
 10
38.057035741758042
 20
136.63535241366731
 30
0.0
 40
1.0000000000000151
  0
LINE
  5
C3
  8
DATA
  6
CONTINUOUS
 62
     7
 10
34.609308051638479
 20
142.70878092847391
 30
0.0
 11
37.024122617361101
 21
143.3558285412303
 31
0.0
  0
CIRCLE
  5
C4
  8
DATA
  6
CONTINUOUS
 62
     7
 10
37.990048443650252
 20
143.61464758633281
 30
0.0
 40
0.9999999999999607
  0
LINE
  5
C5
  8
DATA
  6
CONTINUOUS
 62
     7
 10
31.967514421272298
 20
147.15052712316441
 30
0.0
 11
33.735281374238632
 21
148.91829407613079
 31
0.0
  0
CIRCLE
  5
C6
  8
DATA
  6
CONTINUOUS
 62
     7
 10
34.442388155425178
 20
149.6254008573174
 30
0.0
 40
1.0000000000000071
  0
LINE
  5
C7
  8
DATA
  6
CONTINUOUS
 62
     7
 10
27.45878092847407
 20
149.67629534974611
 30
0.0
 11
28.105828541230249
 21
152.09110991546879
 31
0.0
  0
CIRCLE
  5
C8
  8
DATA
  6
CONTINUOUS
 62
     7
 10
28.364647586332801
 20
153.05703574175789
 30
0.0
 40
1.0000000000000151
  0
LINE
  5
C9
  8
DATA
  6
CONTINUOUS
 62
     7
 10
22.291219071526129
 20
149.60930805163841
 30
0.0
 11
21.64417145876984
 21
152.024122617361
 31
0.0
  0
CIRCLE
  5
CA
  8
DATA
  6
CONTINUOUS
 62
     7
 10
21.385352413667292
 20
152.9900484436501
 30
0.0
 40
0.9999999999999607
  0
LINE
  5
CB
  8
DATA
  6
CONTINUOUS
 62
     7
 10
17.849472876835691
 20
146.9675144212722
 30
0.0
 11
16.081705923869311
 21
148.7352813742385
 31
0.0
  0
CIRCLE
  5
CC
  8
DATA
  6
CONTINUOUS
 62
     7
 10
15.374599142682699
 20
149.44238815542511
 30
0.0
 40
1.0000000000000071
  0
LINE
  5
CD
  8
DATA
  6
CONTINUOUS
 62
     7
 10
15.32370465025393
 20
142.45878092847391
 30
0.0
 11
12.908890084531309
 21
143.1058285412301
 31
0.0
  0
CIRCLE
  5
CE
  8
DATA
  6
CONTINUOUS
 62
     7
 10
11.942964258242149
 20
143.36464758633269
 30
0.0
 40
1.0000000000000151
  0
LINE
  5
CF
  8
DATA
  6
CONTINUOUS
 62
     7
 10
15.39069194836172
 20
137.291219071526
 30
0.0
 11
12.975877382639149
 21
136.6441714587697
 31
0.0
  0
CIRCLE
  5
D0
  8
DATA
  6
CONTINUOUS
 62
     7
 10
12.009951556349939
 20
136.38535241366711
 30
0.0
 40
0.9999999999999607
  0
ARC
  5
D1
  8
DATA
  6
CONTINUOUS
 62
     7
 10
24.999999999999989
 20
147.75
 30
0.0
 40
0.7499999999999869
 50
202.10740994449009
 51
337.89259005551003
  0
ARC
  5
D2
  8
DATA
  6
CONTINUOUS
 62
     7
 10
24.999999999999989
 20
148.5
 30
0.0
 40
1.0000000000000031
 50
212.9643873231546
 51
327.03561267684802
  0
LINE
  5
D3
  8
DATA
  6
CONTINUOUS
 62
     7
 10
25.69485997511411
 20
147.4677419354839
 30
0.0
 11
25.839008930917419
 21
147.95588235294119
 31
0.0
  0
LINE
  5
D4
  8
DATA
  6
CONTINUOUS
 62
     7
 10
24.305140024885858
 20
147.4677419354839
 30
0.0
 11
24.160991069082559
 21
147.95588235294119
 31
0.0
  0
ARC
  5
D5
  8
DATA
  6
CONTINUOUS
 62
     7
 10
24.999999999999989
 20
140.0000000000002
 30
0.0
 40
7.4999999999998481
 50
95.315962829902588
 51
114.6840371700993
  0
ARC
  5
D6
  8
DATA
  6
CONTINUOUS
 62
     7
 10
21.124999999999979
 20
146.71169687932939
 30
0.0
 40
0.7500000000000429
 50
232.10740994448901
 51
7.8925900555073554
  0
ARC
  5
D7
  8
DATA
  6
CONTINUOUS
 62
     7
 10
20.749999999999929
 20
147.36121593216771
 30
0.0
 40
1.000000000000006
 50
242.96438732315349
 51
357.0356126768458
  0
LINE
  5
D8
  8
DATA
  6
CONTINUOUS
 62
     7
 10
21.867895422779881
 20
146.8146842125924
 30
0.0
 11
21.748661871705838
 21
147.3095006926261
 31
0.0
  0
LINE
  5
D9
  8
DATA
  6
CONTINUOUS
 62
     7
 10
20.66436264173614
 20
146.1198242374783
 30
0.0
 11
20.29545577535286
 21
146.47049176170859
 31
0.0
  0
ARC
  5
DA
  8
DATA
  6
CONTINUOUS
 62
     7
 10
24.999999999999929
 20
140.00000000000011
 30
0.0
 40
7.4999999999998304
 50
125.3159628299033
 51
144.6840371700998
  0
ARC
  5
DB
  8
DATA
  6
CONTINUOUS
 62
     7
 10
18.288303120670591
 20
143.87499999999989
 30
0.0
 40
0.7500000000000268
 50
262.1074099444931
 51
37.892590055504122
  0
ARC
  5
DC
  8
DATA
  6
CONTINUOUS
 62
     7
 10
17.638784067832241
 20
144.24999999999989
 30
0.0
 40
1.000000000000022
 50
272.9643873231542
 51
27.035612676846519
  0
LINE
  5
DD
  8
DATA
  6
CONTINUOUS
 62
     7
 10
18.88017576252166
 20
144.33563735826371
 30
0.0
 11
18.529508238291321
 21
144.70454422464701
 31
0.0
  0
LINE
  5
DE
  8
DATA
  6
CONTINUOUS
 62
     7
 10
18.185315787407529
 20
143.13210457721999
 30
0.0
 11
17.690499307373891
 21
143.25133812829401
 31
0.0
  0
ARC
  5
DF
  8
DATA
  6
CONTINUOUS
 62
     7
 10
24.999999999999812
 20
140.0
 30
0.0
 40
7.4999999999997904
 50
155.31596282990239
 51
174.68403717009949
  0
ARC
  5
E0
  8
DATA
  6
CONTINUOUS
 62
     7
 10
17.250000000000039
 20
139.9999999999998
 30
0.0
 40
0.7500000000000084
 50
292.10740994449412
 51
67.892590055505892
  0
ARC
  5
E1
  8
DATA
  6
CONTINUOUS
 62
     7
 10
16.499999999999979
 20
139.9999999999998
 30
0.0
 40
1.0000000000000031
 50
302.96438732315471
 51
57.035612676845368
  0
LINE
  5
E2
  8
DATA
  6
CONTINUOUS
 62
     7
 10
17.532258064516199
 20
140.69485997511401
 30
0.0
 11
17.044117647058819
 21
140.83900893091729
 31
0.0
  0
LINE
  5
E3
  8
DATA
  6
CONTINUOUS
 62
     7
 10
17.532258064516199
 20
139.3051400248857
 30
0.0
 11
17.044117647058819
 21
139.1609910690824
 31
0.0
  0
ARC
  5
E4
  8
DATA
  6
CONTINUOUS
 62
     7
 10
24.999999999999879
 20
139.9999999999998
 30
0.0
 40
7.4999999999998481
 50
185.31596282990259
 51
204.68403717009929
  0
ARC
  5
E5
  8
DATA
  6
CONTINUOUS
 62
     7
 10
18.288303120670701
 20
136.1249999999998
 30
0.0
 40
0.7500000000000429
 50
322.10740994448912
 51
97.892590055507384
  0
ARC
  5
E6
  8
DATA
  6
CONTINUOUS
 62
     7
 10
17.638784067832361
 20
135.7499999999998
 30
0.0
 40
1.000000000000006
 50
332.9643873231534
 51
87.035612676845773
  0
LINE
  5
E7
  8
DATA
  6
CONTINUOUS
 62
     7
 10
18.185315787407649
 20
136.86789542277981
 30
0.0
 11
17.690499307374001
 21
136.74866187170571
 31
0.0
  0
LINE
  5
E8
  8
DATA
  6
CONTINUOUS
 62
     7
 10
18.88017576252177
 20
135.66436264173601
 30
0.0
 11
18.529508238291431
 21
135.29545577535271
 31
0.0
  0
ARC
  5
E9
  8
DATA
  6
CONTINUOUS
 62
     7
 10
24.999999999999929
 20
139.9999999999998
 30
0.0
 40
7.4999999999998304
 50
215.3159628299033
 51
234.68403717009991
  0
ARC
  5
EA
  8
DATA
  6
CONTINUOUS
 62
     7
 10
21.12500000000021
 20
133.28830312067049
 30
0.0
 40
0.7499999999999706
 50
352.10740994449282
 51
127.89259005551099
  0
ARC
  5
EB
  8
DATA
  6
CONTINUOUS
 62
     7
 10
20.75000000000016
 20
132.6387840678322
 30
0.0
 40
1.000000000000022
 50
2.9643873231542228
 51
117.0356126768465
  0
LINE
  5
EC
  8
DATA
  6
CONTINUOUS
 62
     7
 10
20.664362641736361
 20
133.8801757625215
 30
0.0
 11
20.295455775353091
 21
133.52950823829121
 31
0.0
  0
LINE
  5
ED
  8
DATA
  6
CONTINUOUS
 62
     7
 10
21.867895422780109
 20
133.1853157874074
 30
0.0
 11
21.748661871706069
 21
132.6904993073737
 31
0.0
  0
ARC
  5
EE
  8
DATA
  6
CONTINUOUS
 62
     7
 10
25.00000000000005
 20
139.99999999999969
 30
0.0
 40
7.499999999999817
 50
245.31596282990299
 51
264.6840371701
  0
ARC
  5
EF
  8
DATA
  6
CONTINUOUS
 62
     7
 10
25.00000000000027
 20
132.24999999999989
 30
0.0
 40
0.7499999999999869
 50
22.10740994449008
 51
157.89259005550991
  0
ARC
  5
F0
  8
DATA
  6
CONTINUOUS
 62
     7
 10
25.00000000000027
 20
131.4999999999998
 30
0.0
 40
1.0000000000000031
 50
32.964387323154646
 51
147.03561267684529
  0
LINE
  5
F1
  8
DATA
  6
CONTINUOUS
 62
     7
 10
24.30514002488615
 20
132.53225806451599
 30
0.0
 11
24.16099106908284
 21
132.0441176470587
 31
0.0
  0
LINE
  5
F2
  8
DATA
  6
CONTINUOUS
 62
     7
 10
25.694859975114401
 20
132.53225806451599
 30
0.0
 11
25.8390089309177
 21
132.0441176470587
 31
0.0
  0
ARC
  5
F3
  8
DATA
  6
CONTINUOUS
 62
     7
 10
25.00000000000021
 20
139.99999999999969
 30
0.0
 40
7.4999999999998481
 50
275.31596282990262
 51
294.68403717009932
  0
ARC
  5
F4
  8
DATA
  6
CONTINUOUS
 62
     7
 10
28.87500000000021
 20
133.28830312067049
 30
0.0
 40
0.7500000000000429
 50
52.107409944489042
 51
187.8925900555073
  0
ARC
  5
F5
  8
DATA
  6
CONTINUOUS
 62
     7
 10
29.25000000000027
 20
132.6387840678322
 30
0.0
 40
1.000000000000006
 50
62.964387323153488
 51
177.0356126768458
  0
LINE
  5
F6
  8
DATA
  6
CONTINUOUS
 62
     7
 10
28.132104577220321
 20
133.18531578740749
 30
0.0
 11
28.251338128294371
 21
132.6904993073739
 31
0.0
  0
LINE
  5
F7
  8
DATA
  6
CONTINUOUS
 62
     7
 10
29.335637358264069
 20
133.88017576252159
 30
0.0
 11
29.704544224647329
 21
133.5295082382913
 31
0.0
  0
ARC
  5
F8
  8
DATA
  6
CONTINUOUS
 62
     7
 10
25.00000000000033
 20
139.9999999999998
 30
0.0
 40
7.4999999999997984
 50
305.3159628299029
 51
324.68403717009971
  0
ARC
  5
F9
  8
DATA
  6
CONTINUOUS
 62
     7
 10
31.711696879329612
 20
136.12500000000011
 30
0.0
 40
0.7500000000000268
 50
82.107409944493241
 51
217.8925900555075
  0
ARC
  5
FA
  8
DATA
  6
CONTINUOUS
 62
     7
 10
32.361215932167951
 20
135.75000000000011
 30
0.0
 40
0.9999999999999658
 50
92.964387323154426
 51
207.0356126768464
  0
LINE
  5
FB
  8
DATA
  6
CONTINUOUS
 62
     7
 10
31.119824237478529
 20
135.66436264173629
 30
0.0
 11
31.470491761708889
 21
135.29545577535299
 31
0.0
  0
LINE
  5
FC
  8
DATA
  6
CONTINUOUS
 62
     7
 10
31.814684212592681
 20
136.86789542278001
 30
0.0
 11
32.309500692626322
 21
136.74866187170599
 31
0.0
  0
ARC
  5
FD
  8
DATA
  6
CONTINUOUS
 62
     7
 10
25.000000000000391
 20
140.0
 30
0.0
 40
7.4999999999997904
 50
335.31596282990239
 51
354.68403717009897
  0
ARC
  5
FE
  8
DATA
  6
CONTINUOUS
 62
     7
 10
32.750000000000163
 20
140.00000000000011
 30
0.0
 40
0.7499999999999869
 50
112.10740994449
 51
247.89259005550991
  0
ARC
  5
FF
  8
DATA
  6
CONTINUOUS
 62
     7
 10
33.500000000000213
 20
140.00000000000011
 30
0.0
 40
1.0000000000000031
 50
122.9643873231547
 51
237.03561267684529
  0
LINE
  5
100
  8
DATA
  6
CONTINUOUS
 62
     7
 10
32.467741935484057
 20
139.30514002488599
 30
0.0
 11
32.955882352941373
 21
139.16099106908271
 31
0.0
  0
LINE
  5
101
  8
DATA
  6
CONTINUOUS
 62
     7
 10
32.467741935484057
 20
140.69485997511421
 30
0.0
 11
32.955882352941373
 21
140.83900893091749
 31
0.0
  0
ARC
  5
102
  8
DATA
  6
CONTINUOUS
 62
     7
 10
25.00000000000033
 20
140.00000000000011
 30
0.0
 40
7.4999999999998481
 50
5.315962829902622
 51
24.68403717009933
  0
ARC
  5
103
  8
DATA
  6
CONTINUOUS
 62
     7
 10
31.711696879329491
 20
143.87500000000011
 30
0.0
 40
0.7500000000000429
 50
142.10740994448901
 51
277.8925900555073
  0
ARC
  5
104
  8
DATA
  6
CONTINUOUS
 62
     7
 10
32.361215932167838
 20
144.25000000000011
 30
0.0
 40
1.000000000000006
 50
152.96438732315349
 51
267.03561267684569
  0
LINE
  5
105
  8
DATA
  6
CONTINUOUS
 62
     7
 10
31.81468421259256
 20
143.13210457722019
 30
0.0
 11
32.309500692626202
 21
143.25133812829421
 31
0.0
  0
LINE
  5
106
  8
DATA
  6
CONTINUOUS
 62
     7
 10
31.119824237478429
 20
144.33563735826399
 30
0.0
 11
31.470491761708772
 21
144.70454422464721
 31
0.0
  0
ARC
  5
107
  8
DATA
  6
CONTINUOUS
 62
     7
 10
25.00000000000027
 20
140.0000000000002
 30
0.0
 40
7.4999999999997984
 50
35.315962829902922
 51
54.684037170099622
  0
ARC
  5
108
  8
DATA
  6
CONTINUOUS
 62
     7
 10
28.875000000000039
 20
146.71169687932951
 30
0.0
 40
0.7500000000000268
 50
172.1074099444933
 51
307.89259005550412
  0
ARC
  5
109
  8
DATA
  6
CONTINUOUS
 62
     7
 10
29.25000000000005
 20
147.3612159321678
 30
0.0
 40
1.000000000000022
 50
182.9643873231542
 51
297.0356126768466
  0
LINE
  5
10A
  8
DATA
  6
CONTINUOUS
 62
     7
 10
29.335637358263789
 20
146.11982423747841
 30
0.0
 11
29.704544224647108
 21
146.47049176170879
 31
0.0
  0
LINE
  5
10B
  8
DATA
  6
CONTINUOUS
 62
     7
 10
28.13210457722009
 20
146.81468421259251
 30
0.0
 11
28.25133812829408
 21
147.30950069262619
 31
0.0
  0
ARC
  5
10C
  8
DATA
  6
CONTINUOUS
 62
     7
 10
25.000000000000099
 20
140.00000000000031
 30
0.0
 40
7.499999999999817
 50
65.315962829903
 51
84.684037170099529
  0
LINE
  5
10D
  8
DATA
  6
CONTINUOUS
 62
     7
 10
41.84314575050756
 20
141.0
 30
0.0
 11
58.003145750507528
 21
141.0
 31
0.0
  0
ARC
  5
10E
  8
DATA
  6
CONTINUOUS
 62
     7
 10
57.999999999999993
 20
143.5
 30
0.0
 40
2.5
 50
270.0
 51
90.0
  0
LINE
  5
10F
  8
DATA
  6
CONTINUOUS
 62
     7
 10
58.003145750507528
 20
146.0
 30
0.0
 11
41.84314575050756
 21
146.0
 31
0.0
  0
ARC
  5
110
  8
DATA
  6
CONTINUOUS
 62
     7
 10
47.499999999999993
 20
143.5
 30
0.0
 40
6.4999999999999982
 50
160.52877936550971
 51
199.47122063449081
  0
ARC
  5
111
  8
DATA
  6
CONTINUOUS
 62
     7
 10
41.84314575050756
 20
145.5
 30
0.0
 40
0.5
 50
90.0
 51
160.52877936551209
  0
ARC
  5
112
  8
DATA
  6
CONTINUOUS
 62
     7
 10
41.84314575050756
 20
141.4999999999998
 30
0.0
 40
0.4999999999999363
 50
199.4712206344818
 51
270.0
  0
LINE
  5
113
  8
DATA
  6
CONTINUOUS
 62
     7
 10
37.843145750507681
 20
149.0
 30
0.0
 11
54.003145750507642
 21
149.0
 31
0.0
  0
ARC
  5
114
  8
DATA
  6
CONTINUOUS
 62
     7
 10
54.000000000000107
 20
151.5
 30
0.0
 40
2.5
 50
270.0
 51
90.0
  0
LINE
  5
115
  8
DATA
  6
CONTINUOUS
 62
     7
 10
54.003145750507642
 20
154.0
 30
0.0
 11
37.843145750507681
 21
154.0
 31
0.0
  0
ARC
  5
116
  8
DATA
  6
CONTINUOUS
 62
     7
 10
43.500000000000092
 20
151.5
 30
0.0
 40
6.4999999999999982
 50
160.52877936550971
 51
199.47122063449081
  0
ARC
  5
117
  8
DATA
  6
CONTINUOUS
 62
     7
 10
37.843145750507681
 20
153.5
 30
0.0
 40
0.5
 50
90.0
 51
160.52877936551209
  0
ARC
  5
118
  8
DATA
  6
CONTINUOUS
 62
     7
 10
37.843145750507681
 20
149.4999999999998
 30
0.0
 40
0.4999999999999363
 50
199.4712206344818
 51
270.0
  0
LINE
  5
119
  8
DATA
  6
CONTINUOUS
 62
     7
 10
30.343145750507681
 20
156.5
 30
0.0
 11
46.503145750507642
 21
156.5
 31
0.0
  0
ARC
  5
11A
  8
DATA
  6
CONTINUOUS
 62
     7
 10
46.500000000000107
 20
159.0
 30
0.0
 40
2.5
 50
270.0
 51
89.999999999998678
  0
LINE
  5
11B
  8
DATA
  6
CONTINUOUS
 62
     7
 10
46.503145750507642
 20
161.5
 30
0.0
 11
30.343145750507681
 21
161.5
 31
0.0
  0
ARC
  5
11C
  8
DATA
  6
CONTINUOUS
 62
     7
 10
36.000000000000092
 20
159.0
 30
0.0
 40
6.4999999999999982
 50
160.52877936550971
 51
199.47122063449081
  0
ARC
  5
11D
  8
DATA
  6
CONTINUOUS
 62
     7
 10
30.343145750507681
 20
161.0
 30
0.0
 40
0.5
 50
90.0
 51
160.52877936551209
  0
ARC
  5
11E
  8
DATA
  6
CONTINUOUS
 62
     7
 10
30.343145750507681
 20
156.9999999999998
 30
0.0
 40
0.4999999999999363
 50
199.4712206344818
 51
270.0
  0
LINE
  5
11F
  8
DATA
  6
CONTINUOUS
 62
     7
 10
8.1568542494922962
 20
134.0
 30
0.0
 11
-8.0031457505076702
 21
134.0
 31
0.0
  0
ARC
  5
120
  8
DATA
  6
CONTINUOUS
 62
     7
 10
-8.0000000000001261
 20
136.5
 30
0.0
 40
2.500000000000056
 50
90.0
 51
270.0
  0
LINE
  5
121
  8
DATA
  6
CONTINUOUS
 62
     7
 10
-8.0031457505076702
 20
139.0
 30
0.0
 11
8.1568542494922962
 21
139.0
 31
0.0
  0
ARC
  5
122
  8
DATA
  6
CONTINUOUS
 62
     7
 10
2.4999999999998721
 20
136.5
 30
0.0
 40
6.4999999999999982
 50
340.52877936550971
 51
19.47122063449029
  0
ARC
  5
123
  8
DATA
  6
CONTINUOUS
 62
     7
 10
8.1568542494922962
 20
138.5
 30
0.0
 40
0.4999999999999363
 50
19.47122063448176
 51
90.0
  0
ARC
  5
124
  8
DATA
  6
CONTINUOUS
 62
     7
 10
8.1568542494922962
 20
134.49999999999989
 30
0.0
 40
0.4999999999999433
 50
270.0
 51
340.52877936551829
  0
LINE
  5
125
  8
DATA
  6
CONTINUOUS
 62
     7
 10
8.1568542494922962
 20
141.0
 30
0.0
 11
-8.0031457505076702
 21
141.0
 31
0.0
  0
ARC
  5
126
  8
DATA
  6
CONTINUOUS
 62
     7
 10
-8.0000000000001261
 20
143.5
 30
0.0
 40
2.5
 50
90.0
 51
270.0
  0
LINE
  5
127
  8
DATA
  6
CONTINUOUS
 62
     7
 10
-8.0031457505076702
 20
146.0
 30
0.0
 11
8.1568542494922962
 21
146.0
 31
0.0
  0
ARC
  5
128
  8
DATA
  6
CONTINUOUS
 62
     7
 10
2.4999999999998721
 20
143.5
 30
0.0
 40
6.5000000000000169
 50
340.52877936550919
 51
19.47122063449029
  0
ARC
  5
129
  8
DATA
  6
CONTINUOUS
 62
     7
 10
8.1568542494922962
 20
145.5
 30
0.0
 40
0.4999999999999554
 50
19.471220634487889
 51
90.0
  0
ARC
  5
12A
  8
DATA
  6
CONTINUOUS
 62
     7
 10
8.1568542494922962
 20
141.4999999999998
 30
0.0
 40
0.4999999999998864
 50
270.0
 51
340.52877936551829
  0
LINE
  5
12B
  8
DATA
  6
CONTINUOUS
 62
     7
 10
12.156854249492181
 20
149.0
 30
0.0
 11
-4.003145750507783
 21
149.0
 31
0.0
  0
ARC
  5
12C
  8
DATA
  6
CONTINUOUS
 62
     7
 10
-4.0000000000002407
 20
151.5
 30
0.0
 40
2.5
 50
90.0
 51
270.0
  0
LINE
  5
12D
  8
DATA
  6
CONTINUOUS
 62
     7
 10
-4.003145750507783
 20
154.0
 30
0.0
 11
12.156854249492181
 21
154.0
 31
0.0
  0
ARC
  5
12E
  8
DATA
  6
CONTINUOUS
 62
     7
 10
6.4999999999997584
 20
151.5
 30
0.0
 40
6.5000000000000169
 50
340.52877936550919
 51
19.47122063449029
  0
ARC
  5
12F
  8
DATA
  6
CONTINUOUS
 62
     7
 10
12.156854249492181
 20
153.5
 30
0.0
 40
0.4999999999999554
 50
19.471220634487889
 51
90.0
  0
ARC
  5
130
  8
DATA
  6
CONTINUOUS
 62
     7
 10
12.156854249492181
 20
149.4999999999998
 30
0.0
 40
0.4999999999998864
 50
270.0
 51
340.52877936551829
  0
LINE
  5
131
  8
DATA
  6
CONTINUOUS
 62
     7
 10
19.656854249492181
 20
156.5
 30
0.0
 11
3.4968542494922161
 21
156.5
 31
0.0
  0
ARC
  5
132
  8
DATA
  6
CONTINUOUS
 62
     7
 10
3.499999999999758
 20
159.0
 30
0.0
 40
2.5
 50
90.000000000001293
 51
270.0
  0
LINE
  5
133
  8
DATA
  6
CONTINUOUS
 62
     7
 10
3.4968542494922161
 20
161.5
 30
0.0
 11
19.656854249492181
 21
161.5
 31
0.0
  0
ARC
  5
134
  8
DATA
  6
CONTINUOUS
 62
     7
 10
13.99999999999975
 20
159.0
 30
0.0
 40
6.5000000000000169
 50
340.52877936550919
 51
19.47122063449029
  0
ARC
  5
135
  8
DATA
  6
CONTINUOUS
 62
     7
 10
19.656854249492181
 20
161.0
 30
0.0
 40
0.4999999999999554
 50
19.471220634487889
 51
90.0
  0
ARC
  5
136
  8
DATA
  6
CONTINUOUS
 62
     7
 10
19.656854249492181
 20
156.9999999999998
 30
0.0
 40
0.4999999999998864
 50
270.0
 51
340.52877936551829
  0
TEXT
  5
137
  8
DATA
 62
     7
 10
10.000000000000099
 20
91.572888888888869
 30
0.0
 40
2.4694444444444441
  1
BLU-6
 41
0.7
 11
10.000000000000099
 21
94.042333333333318
 31
0.0
 73
     3
  0
LINE
  5
138
  8
DATA
  6
CONTINUOUS
 62
     7
 10
-18.000000000000021
 20
4.171572875253843
 30
0.0
 11
-18.000000000000021
 21
0.0
 31
0.0
  0
LINE
  5
139
  8
DATA
  6
CONTINUOUS
 62
     7
 10
67.999999999999986
 20
4.171572875253843
 30
0.0
 11
67.999999999999986
 21
0.0
 31
0.0
  0
LINE
  5
13A
  8
DATA
  6
CONTINUOUS
 62
     7
 10
-18.000000000000021
 20
0.0
 30
0.0
 11
67.999999999999986
 21
0.0
 31
0.0
  0
LINE
  5
13B
  8
DATA
  6
CONTINUOUS
 62
     7
 10
-17.82035944224948
 20
5.0
 30
0.0
 11
67.820359442248929
 21
5.0
 31
0.0
  0
LINE
  5
13C
  8
DATA
  6
CONTINUOUS
 62
     7
 10
-13.171572875253799
 20
9.0
 30
0.0
 11
63.171572875253823
 21
9.0
 31
0.0
  0
LINE
  5
13D
  8
DATA
  6
CONTINUOUS
 62
     7
 10
18.09687087533397
 20
12.5
 30
0.0
 11
18.09687087533397
 21
9.0
 31
0.0
  0
LINE
  5
13E
  8
DATA
  6
CONTINUOUS
 62
     7
 10
25.897328439071931
 20
12.5
 30
0.0
 11
25.897328439071931
 21
9.0
 31
0.0
  0
LINE
  5
13F
  8
DATA
  6
CONTINUOUS
 62
     7
 10
18.09687087533397
 20
12.5
 30
0.0
 11
25.897328439071931
 21
12.5
 31
0.0
  0
LINE
  5
140
  8
DATA
  6
CONTINUOUS
 62
     7
 10
30.999999999999989
 20
25.0
 30
0.0
 11
30.999999999999989
 21
23.5
 31
0.0
  0
LINE
  5
141
  8
DATA
  6
CONTINUOUS
 62
     7
 10
18.999999999999979
 20
25.0
 30
0.0
 11
18.999999999999979
 21
23.5
 31
0.0
  0
LINE
  5
142
  8
DATA
  6
CONTINUOUS
 62
     7
 10
18.999999999999979
 20
25.0
 30
0.0
 11
30.999999999999989
 21
25.0
 31
0.0
  0
LINE
  5
143
  8
DATA
  6
CONTINUOUS
 62
     7
 10
17.999999999999979
 20
23.5
 30
0.0
 11
31.999999999999989
 21
23.5
 31
0.0
  0
LINE
  5
144
  8
DATA
  6
CONTINUOUS
 62
     7
 10
17.499999999999979
 20
9.0
 30
0.0
 11
32.499999999999993
 21
9.0
 31
0.0
  0
LINE
  5
145
  8
DATA
  6
CONTINUOUS
 62
     7
 10
17.499999999999979
 20
9.0
 30
0.0
 11
17.999999999999979
 21
23.5
 31
0.0
  0
LINE
  5
146
  8
DATA
  6
CONTINUOUS
 62
     7
 10
32.499999999999993
 20
9.0
 30
0.0
 11
31.999999999999989
 21
23.5
 31
0.0
  0
LINE
  5
147
  8
DATA
  6
CONTINUOUS
 62
     7
 10
-14.58578643762691
 20
8.4142135623731065
 30
0.0
 11
-17.41421356237306
 21
5.5857864376268926
 31
0.0
  0
LINE
  5
148
  8
DATA
  6
CONTINUOUS
 62
     7
 10
24.499999999999989
 20
23.5
 30
0.0
 11
25.499999999999989
 21
23.5
 31
0.0
  0
LINE
  5
149
  8
DATA
  6
CONTINUOUS
 62
     7
 10
23.249999999999989
 20
9.0
 30
0.0
 11
24.749999999999989
 21
9.0
 31
0.0
  0
LINE
  5
14A
  8
DATA
  6
CONTINUOUS
 62
     7
 10
24.31034482758621
 20
12.5
 30
0.0
 11
24.499999999999989
 21
23.5
 31
0.0
  0
LINE
  5
14B
  8
DATA
  6
CONTINUOUS
 62
     7
 10
25.689655172413829
 20
12.5
 30
0.0
 11
25.499999999999989
 21
23.5
 31
0.0
  0
LINE
  5
14C
  8
DATA
  6
CONTINUOUS
 62
     7
 10
28.251338128294371
 20
23.5
 30
0.0
 11
28.251338128294371
 21
9.0
 31
0.0
  0
LINE
  5
14D
  8
DATA
  6
CONTINUOUS
 62
     7
 10
29.249999999999989
 20
23.5
 30
0.0
 11
29.704544224647329
 21
9.0
 31
0.0
  0
LINE
  5
14E
  8
DATA
  6
CONTINUOUS
 62
     7
 10
31.499999999999989
 20
23.5
 30
0.0
 11
31.470491761708889
 21
9.0
 31
0.0
  0
LINE
  5
14F
  8
DATA
  6
CONTINUOUS
 62
     7
 10
31.809500692636771
 20
23.5
 30
0.0
 11
32.309500692636767
 21
9.0
 31
0.0
  0
LINE
  5
150
  8
DATA
  6
CONTINUOUS
 62
     7
 10
21.748661871705661
 20
23.5
 30
0.0
 11
21.748661871705661
 21
12.5
 31
0.0
  0
LINE
  5
151
  8
DATA
  6
CONTINUOUS
 62
     7
 10
20.749999999999979
 20
23.5
 30
0.0
 11
20.4051733468193
 21
12.5
 31
0.0
  0
LINE
  5
152
  8
DATA
  6
CONTINUOUS
 62
     7
 10
18.499999999999979
 20
23.5
 30
0.0
 11
18.522385560082949
 21
12.5
 31
0.0
  0
LINE
  5
153
  8
DATA
  6
CONTINUOUS
 62
     7
 10
18.19049930736325
 20
23.5
 30
0.0
 11
17.69049930736325
 21
9.0
 31
0.0
  0
ARC
  5
154
  8
DATA
  6
CONTINUOUS
 62
     7
 10
-16.000000000000021
 20
4.171572875253843
 30
0.0
 40
1.9999999999999361
 50
135.0
 51
180.0
  0
ARC
  5
155
  8
DATA
  6
CONTINUOUS
 62
     7
 10
-13.171572875253799
 20
7.0
 30
0.0
 40
2.0
 50
90.0
 51
135.0
  0
LINE
  5
156
  8
DATA
  6
CONTINUOUS
 62
     7
 10
64.585786437626936
 20
8.4142135623731065
 30
0.0
 11
67.414213562373092
 21
5.5857864376268926
 31
0.0
  0
ARC
  5
157
  8
DATA
  6
CONTINUOUS
 62
     7
 10
65.999999999999986
 20
4.171572875253843
 30
0.0
 40
2.0
 50
0.0
 51
44.999999999998799
  0
ARC
  5
158
  8
DATA
  6
CONTINUOUS
 62
     7
 10
63.171572875253823
 20
7.0
 30
0.0
 40
2.0000000000000151
 50
45.0
 51
90.0
  0
LINE
  5
159
  8
DATA
  6
CONTINUOUS
 62
     7
 10
2.4999999999999849
 20
-9.0
 30
0.0
 11
46.999999999999993
 21
-9.0
 31
0.0
  0
LINE
  5
15A
  8
DATA
  6
CONTINUOUS
 62
     7
 10
2.4999999999999849
 20
-7.5
 30
0.0
 11
46.999999999999993
 21
-7.5
 31
0.0
  0
LINE
  5
15B
  8
DATA
  6
CONTINUOUS
 62
     7
 10
2.4999999999999849
 20
-9.0
 30
0.0
 11
2.4999999999999849
 21
-7.5
 31
0.0
  0
LINE
  5
15C
  8
DATA
  6
CONTINUOUS
 62
     7
 10
46.999999999999993
 20
-7.5
 30
0.0
 11
46.999999999999993
 21
-9.0
 31
0.0
  0
LINE
  5
15D
  8
DATA
  6
CONTINUOUS
 62
     7
 10
46.999999999999993
 20
-7.5
 30
0.0
 11
46.999999999999993
 21
0.0
 31
0.0
  0
LINE
  5
15E
  8
DATA
  6
CONTINUOUS
 62
     7
 10
26.999999999999989
 20
-7.5
 30
0.0
 11
26.999999999999989
 21
0.0
 31
0.0
  0
LINE
  5
15F
  8
DATA
  6
CONTINUOUS
 62
     7
 10
46.499999999999993
 20
-6.0
 30
0.0
 11
42.499999999999993
 21
-6.0
 31
0.0
  0
LINE
  5
160
  8
DATA
  6
CONTINUOUS
 62
     7
 10
46.499999999999993
 20
-6.0
 30
0.0
 11
46.499999999999993
 21
0.0
 31
0.0
  0
LINE
  5
161
  8
DATA
  6
CONTINUOUS
 62
     7
 10
42.499999999999993
 20
-6.0
 30
0.0
 11
42.499999999999993
 21
0.0
 31
0.0
  0
LINE
  5
162
  8
DATA
  6
CONTINUOUS
 62
     7
 10
41.499999999999993
 20
-6.0
 30
0.0
 11
41.499999999999993
 21
0.0
 31
0.0
  0
LINE
  5
163
  8
DATA
  6
CONTINUOUS
 62
     7
 10
41.499999999999993
 20
-6.0
 30
0.0
 11
37.5
 21
-6.0
 31
0.0
  0
LINE
  5
164
  8
DATA
  6
CONTINUOUS
 62
     7
 10
37.5
 20
-6.0
 30
0.0
 11
37.5
 21
0.0
 31
0.0
  0
LINE
  5
165
  8
DATA
  6
CONTINUOUS
 62
     7
 10
36.499999999999993
 20
-6.0
 30
0.0
 11
36.499999999999993
 21
0.0
 31
0.0
  0
LINE
  5
166
  8
DATA
  6
CONTINUOUS
 62
     7
 10
36.499999999999993
 20
-6.0
 30
0.0
 11
32.499999999999993
 21
-6.0
 31
0.0
  0
LINE
  5
167
  8
DATA
  6
CONTINUOUS
 62
     7
 10
32.499999999999993
 20
-6.0
 30
0.0
 11
32.499999999999993
 21
0.0
 31
0.0
  0
LINE
  5
168
  8
DATA
  6
CONTINUOUS
 62
     7
 10
31.499999999999989
 20
-6.0
 30
0.0
 11
31.499999999999989
 21
0.0
 31
0.0
  0
LINE
  5
169
  8
DATA
  6
CONTINUOUS
 62
     7
 10
31.499999999999989
 20
-6.0
 30
0.0
 11
27.499999999999989
 21
-6.0
 31
0.0
  0
LINE
  5
16A
  8
DATA
  6
CONTINUOUS
 62
     7
 10
27.499999999999989
 20
-6.0
 30
0.0
 11
27.499999999999989
 21
0.0
 31
0.0
  0
LINE
  5
16B
  8
DATA
  6
CONTINUOUS
 62
     7
 10
43.499999999999993
 20
-5.5
 30
0.0
 11
45.499999999999993
 21
-5.5
 31
0.0
  0
LINE
  5
16C
  8
DATA
  6
CONTINUOUS
 62
     7
 10
45.499999999999993
 20
-5.5
 30
0.0
 11
45.499999999999993
 21
-3.5
 31
0.0
  0
LINE
  5
16D
  8
DATA
  6
CONTINUOUS
 62
     7
 10
45.499999999999993
 20
-3.5
 30
0.0
 11
43.499999999999993
 21
-3.5
 31
0.0
  0
LINE
  5
16E
  8
DATA
  6
CONTINUOUS
 62
     7
 10
43.499999999999993
 20
-3.5
 30
0.0
 11
43.499999999999993
 21
-5.5
 31
0.0
  0
LINE
  5
16F
  8
DATA
  6
CONTINUOUS
 62
     7
 10
38.5
 20
-3.5
 30
0.0
 11
40.499999999999993
 21
-3.5
 31
0.0
  0
LINE
  5
170
  8
DATA
  6
CONTINUOUS
 62
     7
 10
40.499999999999993
 20
-3.5
 30
0.0
 11
40.499999999999993
 21
-5.5
 31
0.0
  0
LINE
  5
171
  8
DATA
  6
CONTINUOUS
 62
     7
 10
40.499999999999993
 20
-5.5
 30
0.0
 11
38.5
 21
-5.5
 31
0.0
  0
LINE
  5
172
  8
DATA
  6
CONTINUOUS
 62
     7
 10
38.5
 20
-5.5
 30
0.0
 11
38.5
 21
-3.5
 31
0.0
  0
LINE
  5
173
  8
DATA
  6
CONTINUOUS
 62
     7
 10
33.499999999999993
 20
-5.5
 30
0.0
 11
35.499999999999993
 21
-5.5
 31
0.0
  0
LINE
  5
174
  8
DATA
  6
CONTINUOUS
 62
     7
 10
35.499999999999993
 20
-5.5
 30
0.0
 11
35.499999999999993
 21
-3.5
 31
0.0
  0
LINE
  5
175
  8
DATA
  6
CONTINUOUS
 62
     7
 10
35.499999999999993
 20
-3.5
 30
0.0
 11
33.499999999999993
 21
-3.5
 31
0.0
  0
LINE
  5
176
  8
DATA
  6
CONTINUOUS
 62
     7
 10
33.499999999999993
 20
-3.5
 30
0.0
 11
33.499999999999993
 21
-5.5
 31
0.0
  0
LINE
  5
177
  8
DATA
  6
CONTINUOUS
 62
     7
 10
30.499999999999989
 20
-5.5
 30
0.0
 11
28.499999999999989
 21
-5.5
 31
0.0
  0
LINE
  5
178
  8
DATA
  6
CONTINUOUS
 62
     7
 10
28.499999999999989
 20
-5.5
 30
0.0
 11
28.499999999999989
 21
-3.5
 31
0.0
  0
LINE
  5
179
  8
DATA
  6
CONTINUOUS
 62
     7
 10
28.499999999999989
 20
-3.5
 30
0.0
 11
30.499999999999989
 21
-3.5
 31
0.0
  0
LINE
  5
17A
  8
DATA
  6
CONTINUOUS
 62
     7
 10
30.499999999999989
 20
-3.5
 30
0.0
 11
30.499999999999989
 21
-5.5
 31
0.0
  0
LINE
  5
17B
  8
DATA
  6
CONTINUOUS
 62
     7
 10
26.65709965720292
 20
0.0
 30
0.0
 11
26.65709965720292
 21
-7.5
 31
0.0
  0
LINE
  5
17C
  8
DATA
  6
CONTINUOUS
 62
     7
 10
17.65709965720292
 20
0.0
 30
0.0
 11
17.65709965720292
 21
-7.5
 31
0.0
  0
LINE
  5
17D
  8
DATA
  6
CONTINUOUS
 62
     7
 10
3.4999999999999849
 20
-7.5
 30
0.0
 11
3.4999999999999849
 21
0.0
 31
0.0
  0
LINE
  5
17E
  8
DATA
  6
CONTINUOUS
 62
     7
 10
9.499999999999984
 20
-7.5
 30
0.0
 11
9.499999999999984
 21
0.0
 31
0.0
  0
LINE
  5
17F
  8
DATA
  6
CONTINUOUS
 62
     7
 10
145.82842712474621
 20
82.0
 30
0.0
 11
150.0
 21
82.0
 31
0.0
  0
LINE
  5
180
  8
DATA
  6
CONTINUOUS
 62
     7
 10
145.82842712474621
 20
168.0
 30
0.0
 11
150.0
 21
168.0
 31
0.0
  0
LINE
  5
181
  8
DATA
  6
CONTINUOUS
 62
     7
 10
150.0
 20
82.0
 30
0.0
 11
150.0
 21
168.0
 31
0.0
  0
LINE
  5
182
  8
DATA
  6
CONTINUOUS
 62
     7
 10
145.0
 20
82.179640557750545
 30
0.0
 11
145.0
 21
167.8203594422489
 31
0.0
  0
LINE
  5
183
  8
DATA
  6
CONTINUOUS
 62
     7
 10
141.0
 20
86.828427124746213
 30
0.0
 11
141.0
 21
163.17157287525379
 31
0.0
  0
LINE
  5
184
  8
DATA
  6
CONTINUOUS
 62
     7
 10
125.0
 20
146.0
 30
0.0
 11
126.5
 21
146.0
 31
0.0
  0
LINE
  5
185
  8
DATA
  6
CONTINUOUS
 62
     7
 10
125.0
 20
134.0
 30
0.0
 11
126.5
 21
134.0
 31
0.0
  0
LINE
  5
186
  8
DATA
  6
CONTINUOUS
 62
     7
 10
125.0
 20
134.0
 30
0.0
 11
125.0
 21
146.0
 31
0.0
  0
LINE
  5
187
  8
DATA
  6
CONTINUOUS
 62
     7
 10
126.5
 20
133.0
 30
0.0
 11
126.5
 21
147.0
 31
0.0
  0
LINE
  5
188
  8
DATA
  6
CONTINUOUS
 62
     7
 10
141.0
 20
132.5
 30
0.0
 11
141.0
 21
147.5
 31
0.0
  0
LINE
  5
189
  8
DATA
  6
CONTINUOUS
 62
     7
 10
141.0
 20
132.5
 30
0.0
 11
126.5
 21
133.0
 31
0.0
  0
LINE
  5
18A
  8
DATA
  6
CONTINUOUS
 62
     7
 10
141.0
 20
147.5
 30
0.0
 11
126.5
 21
147.0
 31
0.0
  0
LINE
  5
18B
  8
DATA
  6
CONTINUOUS
 62
     7
 10
141.58578643762681
 20
85.414213562373092
 30
0.0
 11
144.41421356237311
 21
82.585786437626908
 31
0.0
  0
LINE
  5
18C
  8
DATA
  6
CONTINUOUS
 62
     7
 10
126.5
 20
139.5
 30
0.0
 11
126.5
 21
140.5
 31
0.0
  0
LINE
  5
18D
  8
DATA
  6
CONTINUOUS
 62
     7
 10
141.0
 20
139.25
 30
0.0
 11
126.5
 21
139.5
 31
0.0
  0
LINE
  5
18E
  8
DATA
  6
CONTINUOUS
 62
     7
 10
141.0
 20
140.75
 30
0.0
 11
126.5
 21
140.5
 31
0.0
  0
LINE
  5
18F
  8
DATA
  6
CONTINUOUS
 62
     7
 10
126.5
 20
143.25133812829429
 30
0.0
 11
141.0
 21
143.25133812829429
 31
0.0
  0
LINE
  5
190
  8
DATA
  6
CONTINUOUS
 62
     7
 10
126.5
 20
144.25
 30
0.0
 11
141.0
 21
144.70454422464741
 31
0.0
  0
LINE
  5
191
  8
DATA
  6
CONTINUOUS
 62
     7
 10
126.5
 20
146.5
 30
0.0
 11
141.0
 21
146.4704917617089
 31
0.0
  0
LINE
  5
192
  8
DATA
  6
CONTINUOUS
 62
     7
 10
126.5
 20
146.80950069263679
 30
0.0
 11
141.0
 21
147.30950069263679
 31
0.0
  0
LINE
  5
193
  8
DATA
  6
CONTINUOUS
 62
     7
 10
126.5
 20
136.74866187170571
 30
0.0
 11
141.0
 21
136.74866187170571
 31
0.0
  0
LINE
  5
194
  8
DATA
  6
CONTINUOUS
 62
     7
 10
126.5
 20
135.75
 30
0.0
 11
141.0
 21
135.29545577535271
 31
0.0
  0
LINE
  5
195
  8
DATA
  6
CONTINUOUS
 62
     7
 10
126.5
 20
133.5
 30
0.0
 11
141.0
 21
133.5295082382911
 31
0.0
  0
LINE
  5
196
  8
DATA
  6
CONTINUOUS
 62
     7
 10
126.5
 20
133.19049930736321
 30
0.0
 11
141.0
 21
132.69049930736321
 31
0.0
  0
ARC
  5
197
  8
DATA
  6
CONTINUOUS
 62
     7
 10
145.82842712474621
 20
84.0
 30
0.0
 40
2.0000000000000151
 50
225.0
 51
270.0
  0
ARC
  5
198
  8
DATA
  6
CONTINUOUS
 62
     7
 10
143.0
 20
86.828427124746213
 30
0.0
 40
2.0
 50
180.0
 51
225.0
  0
LINE
  5
199
  8
DATA
  6
CONTINUOUS
 62
     7
 10
141.58578643762681
 20
164.58578643762681
 30
0.0
 11
144.41421356237311
 21
167.41421356237311
 31
0.0
  0
ARC
  5
19A
  8
DATA
  6
CONTINUOUS
 62
     7
 10
145.82842712474621
 20
166.0
 30
0.0
 40
2.0
 50
90.0
 51
135.0
  0
ARC
  5
19B
  8
DATA
  6
CONTINUOUS
 62
     7
 10
143.0
 20
163.17157287525379
 30
0.0
 40
2.0000000000000151
 50
135.0
 51
180.0
  0
LINE
  5
19C
  8
DATA
  6
CONTINUOUS
 62
     7
 10
159.0
 20
100.0
 30
0.0
 11
159.0
 21
150.5
 31
0.0
  0
LINE
  5
19D
  8
DATA
  6
CONTINUOUS
 62
     7
 10
157.5
 20
100.0
 30
0.0
 11
157.5
 21
150.5
 31
0.0
  0
LINE
  5
19E
  8
DATA
  6
CONTINUOUS
 62
     7
 10
159.0
 20
100.0
 30
0.0
 11
157.5
 21
100.0
 31
0.0
  0
LINE
  5
19F
  8
DATA
  6
CONTINUOUS
 62
     7
 10
157.5
 20
150.5
 30
0.0
 11
159.0
 21
150.5
 31
0.0
  0
LINE
  5
1A0
  8
DATA
  6
CONTINUOUS
 62
     7
 10
137.5
 20
116.89207572888679
 30
0.0
 11
141.0
 21
116.89207572888679
 31
0.0
  0
LINE
  5
1A1
  8
DATA
  6
CONTINUOUS
 62
     7
 10
137.5
 20
111.0
 30
0.0
 11
141.0
 21
111.0
 31
0.0
  0
LINE
  5
1A2
  8
DATA
  6
CONTINUOUS
 62
     7
 10
137.5
 20
106.89207572888679
 30
0.0
 11
141.0
 21
106.89207572888679
 31
0.0
  0
LINE
  5
1A3
  8
DATA
  6
CONTINUOUS
 62
     7
 10
137.5
 20
106.3973284390719
 30
0.0
 11
137.5
 21
106.89207572888679
 31
0.0
  0
LINE
  5
1A4
  8
DATA
  6
CONTINUOUS
 62
     7
 10
137.5
 20
111.0
 30
0.0
 11
137.5
 21
116.89207572888679
 31
0.0
  0
LINE
  5
1A5
  8
DATA
  6
CONTINUOUS
 62
     7
 10
137.5
 20
101.10792427111311
 30
0.0
 11
141.0
 21
101.10792427111311
 31
0.0
  0
LINE
  5
1A6
  8
DATA
  6
CONTINUOUS
 62
     7
 10
137.5
 20
106.89207572888679
 30
0.0
 11
137.5
 21
101.10792427111311
 31
0.0
  0
LINE
  5
1A7
  8
DATA
  6
CONTINUOUS
 62
     7
 10
157.5
 20
100.0
 30
0.0
 11
150.0
 21
100.0
 31
0.0
  0
LINE
  5
1A8
  8
DATA
  6
CONTINUOUS
 62
     7
 10
150.0
 20
121.0
 30
0.0
 11
157.5
 21
121.0
 31
0.0
  0
LINE
  5
1A9
  8
DATA
  6
CONTINUOUS
 62
     7
 10
150.5
 20
122.0
 30
0.0
 11
157.5
 21
122.0
 31
0.0
  0
LINE
  5
1AA
  8
DATA
  6
CONTINUOUS
 62
     7
 10
150.0
 20
128.0
 30
0.0
 11
157.5
 21
128.0
 31
0.0
  0
LINE
  5
1AB
  8
DATA
  6
CONTINUOUS
 62
     7
 10
150.0
 20
144.5
 30
0.0
 11
150.5
 21
144.5
 31
0.0
  0
LINE
  5
1AC
  8
DATA
  6
CONTINUOUS
 62
     7
 10
150.5
 20
131.0
 30
0.0
 11
150.5
 21
149.0
 31
0.0
  0
LINE
  5
1AD
  8
DATA
  6
CONTINUOUS
 62
     7
 10
150.5
 20
131.0
 30
0.0
 11
157.5
 21
131.0
 31
0.0
  0
LINE
  5
1AE
  8
DATA
  6
CONTINUOUS
 62
     7
 10
150.5
 20
149.0
 30
0.0
 11
157.5
 21
149.0
 31
0.0
  0
LINE
  5
1AF
  8
DATA
  6
CONTINUOUS
 62
     7
 10
3.7499999999999849
 20
-9.5
 30
0.0
 11
3.7499999999999849
 21
-11.0
 31
0.0
  0
LINE
  5
1B0
  8
DATA
  6
CONTINUOUS
 62
     7
 10
9.249999999999984
 20
-9.5
 30
0.0
 11
9.249999999999984
 21
-11.0
 31
0.0
  0
ARC
  5
1B1
  8
DATA
  6
CONTINUOUS
 62
     7
 10
4.2499999999999849
 20
-9.5
 30
0.0
 40
0.5
 50
90.0
 51
180.0
  0
ARC
  5
1B2
  8
DATA
  6
CONTINUOUS
 62
     7
 10
8.7499999999999876
 20
-9.5
 30
0.0
 40
0.5
 50
0.0
 51
90.0
  0
LINE
  5
1B3
  8
DATA
  6
CONTINUOUS
 62
     7
 10
8.7499999999999876
 20
-11.5
 30
0.0
 11
4.2499999999999849
 21
-11.5
 31
0.0
  0
ARC
  5
1B4
  8
DATA
  6
CONTINUOUS
 62
     7
 10
8.7499999999999876
 20
-11.0
 30
0.0
 40
0.5
 50
270.0
 51
0.0
  0
ARC
  5
1B5
  8
DATA
  6
CONTINUOUS
 62
     7
 10
4.2499999999999849
 20
-11.0
 30
0.0
 40
0.5
 50
180.0
 51
270.0
  0
LINE
  5
1B6
  8
DATA
  6
CONTINUOUS
 62
     7
 10
38.75
 20
-9.5
 30
0.0
 11
38.75
 21
-11.0
 31
0.0
  0
LINE
  5
1B7
  8
DATA
  6
CONTINUOUS
 62
     7
 10
44.249999999999993
 20
-9.5
 30
0.0
 11
44.249999999999993
 21
-11.0
 31
0.0
  0
ARC
  5
1B8
  8
DATA
  6
CONTINUOUS
 62
     7
 10
39.249999999999993
 20
-9.5
 30
0.0
 40
0.5
 50
90.0
 51
180.0
  0
ARC
  5
1B9
  8
DATA
  6
CONTINUOUS
 62
     7
 10
43.749999999999993
 20
-9.5
 30
0.0
 40
0.5
 50
0.0
 51
90.0
  0
LINE
  5
1BA
  8
DATA
  6
CONTINUOUS
 62
     7
 10
43.749999999999993
 20
-11.5
 30
0.0
 11
39.249999999999993
 21
-11.5
 31
0.0
  0
ARC
  5
1BB
  8
DATA
  6
CONTINUOUS
 62
     7
 10
43.749999999999993
 20
-11.0
 30
0.0
 40
0.5
 50
270.0
 51
0.0
  0
ARC
  5
1BC
  8
DATA
  6
CONTINUOUS
 62
     7
 10
39.249999999999993
 20
-11.0
 30
0.0
 40
0.5
 50
180.0
 51
270.0
  0
LINE
  5
1BD
  8
DATA
  6
CONTINUOUS
 62
     7
 10
159.5
 20
102.25
 30
0.0
 11
161.0
 21
102.25
 31
0.0
  0
LINE
  5
1BE
  8
DATA
  6
CONTINUOUS
 62
     7
 10
159.5
 20
107.75
 30
0.0
 11
161.0
 21
107.75
 31
0.0
  0
ARC
  5
1BF
  8
DATA
  6
CONTINUOUS
 62
     7
 10
159.5
 20
102.75
 30
0.0
 40
0.5
 50
180.0
 51
270.0
  0
ARC
  5
1C0
  8
DATA
  6
CONTINUOUS
 62
     7
 10
159.5
 20
107.25
 30
0.0
 40
0.5
 50
90.0
 51
180.0
  0
LINE
  5
1C1
  8
DATA
  6
CONTINUOUS
 62
     7
 10
161.5
 20
107.25
 30
0.0
 11
161.5
 21
102.75
 31
0.0
  0
ARC
  5
1C2
  8
DATA
  6
CONTINUOUS
 62
     7
 10
161.0
 20
107.25
 30
0.0
 40
0.5
 50
0.0
 51
90.0
  0
ARC
  5
1C3
  8
DATA
  6
CONTINUOUS
 62
     7
 10
161.0
 20
102.75
 30
0.0
 40
0.5
 50
270.0
 51
0.0
  0
LINE
  5
1C4
  8
DATA
  6
CONTINUOUS
 62
     7
 10
159.5
 20
122.25
 30
0.0
 11
161.0
 21
122.25
 31
0.0
  0
LINE
  5
1C5
  8
DATA
  6
CONTINUOUS
 62
     7
 10
159.5
 20
127.75
 30
0.0
 11
161.0
 21
127.75
 31
0.0
  0
ARC
  5
1C6
  8
DATA
  6
CONTINUOUS
 62
     7
 10
159.5
 20
122.75
 30
0.0
 40
0.5
 50
180.0
 51
270.0
  0
ARC
  5
1C7
  8
DATA
  6
CONTINUOUS
 62
     7
 10
159.5
 20
127.25
 30
0.0
 40
0.5
 50
90.0
 51
180.0
  0
LINE
  5
1C8
  8
DATA
  6
CONTINUOUS
 62
     7
 10
161.5
 20
127.25
 30
0.0
 11
161.5
 21
122.75
 31
0.0
  0
ARC
  5
1C9
  8
DATA
  6
CONTINUOUS
 62
     7
 10
161.0
 20
127.25
 30
0.0
 40
0.5
 50
0.0
 51
90.0
  0
ARC
  5
1CA
  8
DATA
  6
CONTINUOUS
 62
     7
 10
161.0
 20
122.75
 30
0.0
 40
0.5
 50
270.0
 51
0.0
  0
LINE
  5
1CB
  8
DATA
  6
CONTINUOUS
 62
     7
 10
159.5
 20
142.25
 30
0.0
 11
161.0
 21
142.25
 31
0.0
  0
LINE
  5
1CC
  8
DATA
  6
CONTINUOUS
 62
     7
 10
159.5
 20
147.75
 30
0.0
 11
161.0
 21
147.75
 31
0.0
  0
ARC
  5
1CD
  8
DATA
  6
CONTINUOUS
 62
     7
 10
159.5
 20
142.75
 30
0.0
 40
0.5
 50
180.0
 51
270.0
  0
ARC
  5
1CE
  8
DATA
  6
CONTINUOUS
 62
     7
 10
159.5
 20
147.25
 30
0.0
 40
0.5
 50
90.0
 51
180.0
  0
LINE
  5
1CF
  8
DATA
  6
CONTINUOUS
 62
     7
 10
161.5
 20
147.25
 30
0.0
 11
161.5
 21
142.75
 31
0.0
  0
ARC
  5
1D0
  8
DATA
  6
CONTINUOUS
 62
     7
 10
161.0
 20
147.25
 30
0.0
 40
0.5
 50
0.0
 51
90.0
  0
ARC
  5
1D1
  8
DATA
  6
CONTINUOUS
 62
     7
 10
161.0
 20
142.75
 30
0.0
 40
0.5
 50
270.0
 51
0.0
  0
LINE
  5
1D2
  8
DATA
  6
CONTINUOUS
 62
     7
 10
150.0
 20
135.5
 30
0.0
 11
150.5
 21
135.5
 31
0.0
  0
LINE
  5
1D3
  8
DATA
  6
CONTINUOUS
 62
     7
 10
151.5
 20
118.0
 30
0.0
 11
156.5
 21
118.0
 31
0.0
  0
LINE
  5
1D4
  8
DATA
  6
CONTINUOUS
 62
     7
 10
156.5
 20
118.0
 30
0.0
 11
156.5
 21
106.0
 31
0.0
  0
LINE
  5
1D5
  8
DATA
  6
CONTINUOUS
 62
     7
 10
156.5
 20
106.0
 30
0.0
 11
157.5
 21
106.0
 31
0.0
  0
LINE
  5
1D6
  8
DATA
  6
CONTINUOUS
 62
     7
 10
151.5
 20
118.0
 30
0.0
 11
151.5
 21
106.0
 31
0.0
  0
LINE
  5
1D7
  8
DATA
  6
CONTINUOUS
 62
     7
 10
151.5
 20
106.0
 30
0.0
 11
150.5
 21
106.0
 31
0.0
  0
LINE
  5
1D8
  8
DATA
  6
CONTINUOUS
 62
     7
 10
150.5
 20
106.0
 30
0.0
 11
150.0
 21
109.0
 31
0.0
  0
LINE
  5
1D9
  8
DATA
  6
CONTINUOUS
 62
     7
 10
150.0
 20
109.0
 30
0.0
 11
150.5
 21
109.0
 31
0.0
  0
LINE
  5
1DA
  8
DATA
  6
CONTINUOUS
 62
     7
 10
150.5
 20
109.0
 30
0.0
 11
150.5
 21
111.0
 31
0.0
  0
LINE
  5
1DB
  8
DATA
  6
CONTINUOUS
 62
     7
 10
150.5
 20
111.0
 30
0.0
 11
150.0
 21
111.0
 31
0.0
  0
LINE
  5
1DC
  8
DATA
  6
CONTINUOUS
 62
     7
 10
150.0
 20
113.0
 30
0.0
 11
150.5
 21
113.0
 31
0.0
  0
LINE
  5
1DD
  8
DATA
  6
CONTINUOUS
 62
     7
 10
150.5
 20
113.0
 30
0.0
 11
150.5
 21
122.0
 31
0.0
  0
ENDSEC
  0
EOF
