  0
SECTION
  2
HEADER
  9
$ACADVER
  1
AC1009
  9
$INSBASE
 10
0.0
 20
0.0
 30
0.0
  9
$EXTMIN
 10
29.989015033921529
 20
7.1438620221135798
 30
-0.0015258207003583
  9
$EXTMAX
 10
570.01739634668616
 20
810.02475112515378
 30
0.0000000349246037
  9
$LIMMIN
 10
0.0
 20
0.0
  9
$LIMMAX
 10
0.0
 20
0.0
  9
$ORTHOMODE
 70
     0
  9
$REGENMODE
 70
     1
  9
$FILLMODE
 70
     1
  9
$QTEXTMODE
 70
     0
  9
$MIRRTEXT
 70
     1
  9
$DRAGMODE
 70
     2
  9
$LTSCALE
 40
15.24
  9
$OSMODE
 70
   231
  9
$ATTMODE
 70
     1
  9
$TEXTSIZE
 40
0.0
  9
$TRACEWID
 40
1.0
  9
$TEXTSTYLE
  7
STANDARD
  9
$CLAYER
  8
DIMNSIONS
  9
$CELTYPE
  6
BYLAYER
  9
$CECOLOR
 62
   256
  9
$DIMSCALE
 40
1.0
  9
$DIMASZ
 40
0.18
  9
$DIMEXO
 40
0.0625
  9
$DIMDLI
 40
0.38
  9
$DIMRND
 40
0.0
  9
$DIMDLE
 40
0.0
  9
$DIMEXE
 40
0.18
  9
$DIMTP
 40
0.0
  9
$DIMTM
 40
0.0
  9
$DIMTXT
 40
0.18
  9
$DIMCEN
 40
0.09
  9
$DIMTSZ
 40
0.0
  9
$DIMTOL
 70
     0
  9
$DIMLIM
 70
     0
  9
$DIMTIH
 70
     1
  9
$DIMTOH
 70
     1
  9
$DIMSE1
 70
     0
  9
$DIMSE2
 70
     0
  9
$DIMTAD
 70
     0
  9
$DIMZIN
 70
     0
  9
$DIMBLK
  1

  9
$DIMASO
 70
     1
  9
$DIMSHO
 70
     1
  9
$DIMPOST
  1

  9
$DIMAPOST
  1

  9
$DIMALT
 70
     0
  9
$DIMALTD
 70
     2
  9
$DIMALTF
 40
25.399999999999999
  9
$DIMLFAC
 40
1.0
  9
$DIMTOFL
 70
     0
  9
$DIMTVP
 40
0.0
  9
$DIMTIX
 70
     0
  9
$DIMSOXD
 70
     0
  9
$DIMSAH
 70
     0
  9
$DIMBLK1
  1

  9
$DIMBLK2
  1

  9
$DIMSTYLE
  2
STANDARD
  9
$DIMCLRD
 70
     0
  9
$DIMCLRE
 70
     0
  9
$DIMCLRT
 70
     0
  9
$DIMTFAC
 40
1.0
  9
$DIMGAP
 40
0.09
  9
$LUNITS
 70
     2
  9
$LUPREC
 70
     4
  9
$SKETCHINC
 40
0.1
  9
$FILLETRAD
 40
0.0
  9
$AUNITS
 70
     0
  9
$AUPREC
 70
     0
  9
$MENU
  1
acad
  9
$ELEVATION
 40
0.0
  9
$PELEVATION
 40
0.0
  9
$THICKNESS
 40
0.0
  9
$LIMCHECK
 70
     0
  9
$BLIPMODE
 70
     0
  9
$CHAMFERA
 40
0.0
  9
$CHAMFERB
 40
0.0
  9
$SKPOLY
 70
     0
  9
$TDCREATE
 40
2454344.749166667
  9
$TDUPDATE
 40
2454344.7501136921
  9
$TDINDWG
 40
0.0003035069
  9
$TDUSRTIMER
 40
0.000301875
  9
$USRTIMER
 70
     1
  9
$ANGBASE
 50
0.0
  9
$ANGDIR
 70
     0
  9
$PDMODE
 70
     1
  9
$PDSIZE
 40
-2.0
  9
$PLINEWID
 40
0.0
  9
$COORDS
 70
     1
  9
$SPLFRAME
 70
     0
  9
$SPLINETYPE
 70
     6
  9
$SPLINESEGS
 70
     8
  9
$ATTDIA
 70
     0
  9
$ATTREQ
 70
     1
  9
$HANDLING
 70
     1
  9
$HANDSEED
  5
407
  9
$SURFTAB1
 70
     6
  9
$SURFTAB2
 70
     6
  9
$SURFTYPE
 70
     6
  9
$SURFU
 70
     6
  9
$SURFV
 70
     6
  9
$UCSNAME
  2

  9
$UCSORG
 10
0.0
 20
0.0
 30
0.0
  9
$UCSXDIR
 10
1.0
 20
0.0
 30
0.0
  9
$UCSYDIR
 10
0.0
 20
1.0
 30
0.0
  9
$PUCSNAME
  2

  9
$PUCSORG
 10
0.0
 20
0.0
 30
0.0
  9
$PUCSXDIR
 10
1.0
 20
0.0
 30
0.0
  9
$PUCSYDIR
 10
0.0
 20
1.0
 30
0.0
  9
$USERI1
 70
     0
  9
$USERI2
 70
     0
  9
$USERI3
 70
     0
  9
$USERI4
 70
     0
  9
$USERI5
 70
     0
  9
$USERR1
 40
0.0
  9
$USERR2
 40
0.0
  9
$USERR3
 40
0.0
  9
$USERR4
 40
0.0
  9
$USERR5
 40
0.0
  9
$WORLDVIEW
 70
     1
  9
$SHADEDGE
 70
     3
  9
$SHADEDIF
 70
    70
  9
$TILEMODE
 70
     1
  9
$MAXACTVP
 70
    64
  9
$PLIMCHECK
 70
     0
  9
$PEXTMIN
 10
1.0000000000000000E+020
 20
1.0000000000000000E+020
 30
1.0000000000000000E+020
  9
$PEXTMAX
 10
-1.0000000000000000E+020
 20
-1.0000000000000000E+020
 30
-1.0000000000000000E+020
  9
$PLIMMIN
 10
0.0
 20
0.0
  9
$PLIMMAX
 10
12.0
 20
9.0
  9
$UNITMODE
 70
     0
  9
$VISRETAIN
 70
     0
  9
$PLINEGEN
 70
     1
  9
$PSLTSCALE
 70
     0
  0
ENDSEC
  0
SECTION
  2
TABLES
  0
TABLE
  2
VPORT
 70
     1
  0
VPORT
  2
*ACTIVE
 70
     0
 10
0.0
 20
0.0
 11
1.0
 21
1.0
 12
300.00320569030379
 22
408.58430657363368
 13
0.0
 23
0.0
 14
1.0
 24
1.0
 15
0.0
 25
0.0
 16
0.0
 26
0.0
 36
1.0
 17
0.0
 27
0.0
 37
0.0
 40
809.54380104580434
 41
1.6703601108033239
 42
50.0
 43
0.0
 44
0.0
 50
0.0
 51
0.0
 71
     0
 72
  2000
 73
     1
 74
     1
 75
     0
 76
     0
 77
     0
 78
     0
  0
ENDTAB
  0
TABLE
  2
LTYPE
 70
    11
  0
LTYPE
  2
CONTINUOUS
 70
     0
  3
Solid line
 72
    65
 73
     0
 40
0.0
  0
ENDTAB
  0
TABLE
  2
LAYER
 70
     5
  0
LAYER
  2
0
 70
     0
 62
     7
  6
CONTINUOUS
  0
LAYER
  2
DIMNSIONS
 70
     0
 62
     7
  6
CONTINUOUS
  0
LAYER
  2
HIBINO-BASE
 70
     0
 62
     7
  6
CONTINUOUS
  0
LAYER
  2
SPEC
 70
     0
 62
     7
  6
CONTINUOUS
  0
LAYER
  2
DATA
 70
     0
 62
     7
  6
CONTINUOUS
  0
ENDTAB
  0
TABLE
  2
STYLE
 70
     2
  0
STYLE
  2
STANDARD
 70
     0
 40
0.0
 41
1.0
 50
0.0
 71
     0
 42
0.0
  3
txt
  4
BIGFONT.SHX
  0
ENDTAB
  0
TABLE
  2
VIEW
 70
     0
  0
ENDTAB
  0
TABLE
  2
UCS
 70
     0
  0
ENDTAB
  0
TABLE
  2
APPID
 70
     1
  0
APPID
  2
ACAD
 70
     0
  0
ENDTAB
  0
TABLE
  2
DIMSTYLE
 70
     1
  0
DIMSTYLE
  2
STANDARD
 70
     0
  3

  4

  5

  6

  7

 40
1.0
 41
0.18
 42
0.0625
 43
0.38
 44
0.18
 45
0.0
 46
0.0
 47
0.0
 48
0.0
140
0.18
141
0.09
142
0.0
143
25.399999999999999
144
1.0
145
0.0
146
1.0
147
0.09
 71
     0
 72
     0
 73
     1
 74
     1
 75
     0
 76
     0
 77
     0
 78
     0
170
     0
171
     2
172
     0
173
     0
174
     0
175
     0
176
     0
177
     0
178
     0
  0
ENDTAB
  0
ENDSEC
  0
SECTION
  2
BLOCKS
  0
BLOCK
  8
0
  2
$MODEL_SPACE
 70
     0
 10
0.0
 20
0.0
 30
0.0
  3
$MODEL_SPACE
  1

  0
ENDBLK
  5
362
  8
0
  0
BLOCK
 67
     1
  8
0
  2
$PAPER_SPACE
 70
     0
 10
0.0
 20
0.0
 30
0.0
  3
$PAPER_SPACE
  1

  0
ENDBLK
  5
35E
 67
     1
  8
0
  0
ENDSEC
  0
SECTION
  2
ENTITIES
  0
LINE
  5
2C
  8
HIBINO-BASE
  6
CONTINUOUS
 62
     7
 10
30.0
 20
810.0000299999997
 30
0.0
 11
570.0
 21
810.0000299999997
 31
0.0
  0
LINE
  5
2D
  8
HIBINO-BASE
  6
CONTINUOUS
 62
     7
 10
570.0
 20
29.99999999999995
 30
0.0
 11
30.0
 21
29.99999999999995
 31
0.0
  0
LINE
  5
2E
  8
HIBINO-BASE
  6
CONTINUOUS
 62
     7
 10
30.0
 20
29.99999999999995
 30
0.0
 11
30.0
 21
810.0000299999997
 31
0.0
  0
TEXT
  5
2F
  8
HIBINO-BASE
 62
     7
 10
51.552000000000021
 20
10.7739665999999
 30
0.0
 40
10.800132539062499
  1
Hibino Corporation
 41
0.7
 11
51.552000000000021
 21
21.574099139062401
 31
0.0
 73
     3
  0
LINE
  5
30
  8
HIBINO-BASE
  6
CONTINUOUS
 62
     7
 10
570.0
 20
810.0000299999997
 30
0.0
 11
570.0
 21
29.99999999999995
 31
0.0
  0
LINE
  5
31
  8
HIBINO-BASE
  6
CONTINUOUS
 62
     7
 10
300.0
 20
97.499999999999872
 30
0.0
 11
570.0
 21
97.499999999999872
 31
0.0
  0
LINE
  5
32
  8
HIBINO-BASE
  6
CONTINUOUS
 62
     7
 10
300.0
 20
29.99999999999995
 30
0.0
 11
300.0
 21
97.499999999999872
 31
0.0
  0
TEXT
  5
33
  8
HIBINO-BASE
 62
     7
 10
302.69999999999999
 20
89.399990399999922
 30
0.0
 40
5.4000778125000002
  1
NOTE
 41
0.7
 11
302.69999999999999
 21
94.800068212499909
 31
0.0
 73
     3
  0
LINE
  5
34
  8
HIBINO-BASE
  6
CONTINUOUS
 62
     7
 10
405.0
 20
29.99999999999995
 30
0.0
 11
405.0
 21
97.499999999999872
 31
0.0
  0
TEXT
  5
35
  8
HIBINO-BASE
 62
     7
 10
407.69999999999987
 20
89.399990399999922
 30
0.0
 40
5.4000778125000002
  1
TITLE
 41
0.7
 11
407.69999999999987
 21
94.800068212499909
 31
0.0
 73
     3
  0
TEXT
  5
36
  8
HIBINO-BASE
 62
     7
 10
450.2051699999999
 20
10.7739665999999
 30
0.0
 40
10.800132539062499
  1
ヒビノ株式会社
 41
0.7
 11
450.2051699999999
 21
21.574099139062401
 31
0.0
 73
     3
  0
LINE
  5
37
  8
HIBINO-BASE
  6
CONTINUOUS
 62
     7
 10
300.0
 20
59.999999999999929
 30
0.0
 11
570.0
 21
59.999999999999929
 31
0.0
  0
TEXT
  5
38
  8
HIBINO-BASE
 62
     7
 10
445.19999999999987
 20
52.068950399999892
 30
0.0
 40
5.4000778125000002
  1
DRAWN
 41
0.7
 11
445.19999999999987
 21
57.469028212499893
 31
0.0
 73
     3
  0
TEXT
  5
39
  8
HIBINO-BASE
 62
     7
 10
370.19999999999999
 20
52.068950399999892
 30
0.0
 40
5.4000778125000002
  1
DATE
 41
0.7
 11
370.19999999999999
 21
57.469028212499893
 31
0.0
 73
     3
  0
TEXT
  5
3A
  8
HIBINO-BASE
 62
     7
 10
303.30000000000001
 20
52.14163139999993
 30
0.0
 40
4.8865311328124994
  1
図面サイズ
 41
0.7
 11
303.30000000000001
 21
57.028162532812424
 31
0.0
 73
     3
  0
TEXT
  5
3B
  8
HIBINO-BASE
 62
     7
 10
340.19999999999999
 20
52.068950399999892
 30
0.0
 40
5.4000778125000002
  1
SCALE
 41
0.7
 11
340.19999999999999
 21
57.469028212499893
 31
0.0
 73
     3
  0
TEXT
  5
3C
  8
HIBINO-BASE
 62
     7
 10
407.69999999999987
 20
52.068950399999892
 30
0.0
 40
5.4000778125000002
  1
DESIGN
 41
0.7
 11
407.69999999999987
 21
57.469028212499893
 31
0.0
 73
     3
  0
TEXT
  5
3D
  8
HIBINO-BASE
 62
     7
 10
520.20000000000005
 20
52.068950399999892
 30
0.0
 40
5.4000778125000002
  1
DRAWING NO.
 41
0.7
 11
520.20000000000005
 21
57.469028212499893
 31
0.0
 73
     3
  0
TEXT
  5
3E
  8
HIBINO-BASE
 62
     7
 10
482.69999999999987
 20
52.068950399999892
 30
0.0
 40
5.4000778125000002
  1
CHECK
 41
0.7
 11
482.69999999999987
 21
57.469028212499893
 31
0.0
 73
     3
  0
LINE
  5
3F
  8
HIBINO-BASE
  6
CONTINUOUS
 62
     7
 10
343.125
 20
33.74999999999995
 30
0.0
 11
354.375
 21
44.999999999999929
 31
0.0
  0
TEXT
  5
40
  8
HIBINO-BASE
 62
     7
 10
341.25
 20
39.852842399999901
 30
0.0
 40
6.515359453124999
  1
1
 41
0.7
 11
341.25
 21
46.368201853124887
 31
0.0
 73
     3
  0
LINE
  5
41
  8
HIBINO-BASE
  6
CONTINUOUS
 62
     7
 10
337.5
 20
29.99999999999995
 30
0.0
 11
337.5
 21
59.999999999999929
 31
0.0
  0
LINE
  5
42
  8
HIBINO-BASE
  6
CONTINUOUS
 62
     7
 10
367.5
 20
29.99999999999995
 30
0.0
 11
367.5
 21
59.999999999999929
 31
0.0
  0
LINE
  5
43
  8
HIBINO-BASE
  6
CONTINUOUS
 62
     7
 10
442.49999999999989
 20
59.999999999999929
 30
0.0
 11
442.49999999999989
 21
29.99999999999995
 31
0.0
  0
LINE
  5
44
  8
HIBINO-BASE
  6
CONTINUOUS
 62
     7
 10
517.49999999999989
 20
59.999999999999929
 30
0.0
 11
517.49999999999989
 21
29.99999999999995
 31
0.0
  0
LINE
  5
45
  8
HIBINO-BASE
  6
CONTINUOUS
 62
     7
 10
480.0
 20
29.99999999999995
 30
0.0
 11
480.0
 21
59.999999999999929
 31
0.0
  0
TEXT
  5
46
  8
HIBINO-BASE
 62
     7
 10
311.73266999999998
 20
37.495368599999942
 30
0.0
 40
9.7730391796875011
  1
A4
 41
0.7
 11
311.73266999999998
 21
47.268407779687429
 31
0.0
 73
     3
  0
TEXT
  5
47
  8
HIBINO-BASE
 62
     7
 10
369.94124733260662
 20
38.01701039999994
 30
0.0
 40
5.4000778125000002
  1
'07.07.
 41
0.7
 11
369.94124733260662
 21
43.417088212499927
 31
0.0
 73
     3
  0
TEXT
  5
48
  8
HIBINO-BASE
 62
     7
 10
352.5
 20
34.227842399999901
 30
0.0
 40
6.515359453124999
  1
3
 41
0.7
 11
352.5
 21
40.743201853124887
 31
0.0
 73
     3
  0
TEXT
  5
49
  8
HIBINO-BASE
 62
     7
 10
444.95001035192979
 20
75.612998157368153
 30
0.0
 40
5.7009440104166647
  1
ウォールパネル
 41
0.7
 11
444.95001035192979
 21
81.31394216778483
 31
0.0
 73
     3
  0
TEXT
  5
4A
  8
HIBINO-BASE
 62
     7
 10
447.01743003310389
 20
38.590939999999918
 30
0.0
 40
4.8865234374999993
  1
N.Sasaki
 41
0.7
 11
447.01743003310389
 21
43.477463437499907
 31
0.0
 73
     3
  0
LINE
  5
4B
  8
SPEC
  6
CONTINUOUS
 62
     7
 10
52.500000000000021
 20
780.0000299999997
 30
0.0
 11
495.0
 21
780.0000299999997
 31
0.0
  0
LINE
  5
4C
  8
SPEC
  6
CONTINUOUS
 62
     7
 10
52.500000000000021
 20
768.75002999999981
 30
0.0
 11
495.0
 21
768.75002999999981
 31
0.0
  0
LINE
  5
4D
  8
SPEC
  6
CONTINUOUS
 62
     7
 10
52.500000000000021
 20
746.25002999999981
 30
0.0
 11
495.0
 21
746.25002999999981
 31
0.0
  0
LINE
  5
4E
  8
SPEC
  6
CONTINUOUS
 62
     7
 10
52.500000000000021
 20
757.50002999999981
 30
0.0
 11
495.0
 21
757.50002999999981
 31
0.0
  0
TEXT
  5
4F
  8
SPEC
 62
     7
 10
56.250000000000021
 20
784.17983999999979
 30
0.0
 40
7.3297851562499989
  1
仕様
 41
0.7
 11
56.250000000000021
 21
791.50962515624974
 31
0.0
 73
     3
  0
TEXT
  5
50
  8
SPEC
 62
     7
 10
152.53045139011761
 20
749.18368691710555
 30
0.0
 40
5.7009440104166647
  1
170×123×52.5mm
 41
0.7
 11
152.53045139011761
 21
754.88463092752215
 31
0.0
 73
     3
  0
TEXT
  5
51
  8
SPEC
 62
     7
 10
55.200000000000017
 20
749.26176629782685
 30
0.0
 40
5.7009440104166647
  1
寸法(W×H×D)
 41
0.7
 11
55.200000000000017
 21
754.96271030824357
 31
0.0
 73
     3
  0
TEXT
  5
52
  8
SPEC
 62
     7
 10
55.365645262427449
 20
771.72262350828476
 30
0.0
 40
5.7009440104166647
  1
形式
 41
0.7
 11
55.365645262427449
 21
777.42356751870136
 31
0.0
 73
     3
  0
TEXT
  5
53
  8
SPEC
 62
     7
 10
55.467364817207738
 20
737.96303935484286
 30
0.0
 40
5.7009440104166647
  1
重量
 41
0.7
 11
55.467364817207738
 21
743.66398336525958
 31
0.0
 73
     3
  0
TEXT
  5
54
  8
SPEC
 62
     7
 10
153.09249333889269
 20
737.66321665971759
 30
0.0
 40
5.7009440104166647
  1
408g
 41
0.7
 11
153.09249333889269
 21
743.36416067013431
 31
0.0
 73
     3
  0
TEXT
  5
55
  8
SPEC
 62
     7
 10
152.29135417035269
 20
771.75477082227508
 30
0.0
 40
5.7009440104166647
  1
ウォールパネル
 41
0.7
 11
152.29135417035269
 21
777.4557148326918
 31
0.0
 73
     3
  0
LINE
  5
56
  8
SPEC
  6
CONTINUOUS
 62
     7
 10
52.500000000000021
 20
735.0000299999997
 30
0.0
 11
495.0
 21
735.0000299999997
 31
0.0
  0
LINE
  5
57
  8
SPEC
  6
CONTINUOUS
 62
     7
 10
52.500000000000021
 20
780.0000299999997
 30
0.0
 11
52.500000000000021
 21
735.0000299999997
 31
0.0
  0
LINE
  5
58
  8
SPEC
  6
CONTINUOUS
 62
     7
 10
150.0
 20
780.0000299999997
 30
0.0
 11
150.0
 21
735.0000299999997
 31
0.0
  0
LINE
  5
59
  8
SPEC
  6
CONTINUOUS
 62
     7
 10
495.0
 20
780.0000299999997
 30
0.0
 11
495.0
 21
735.0000299999997
 31
0.0
  0
TEXT
  5
5A
  8
SPEC
 62
     7
 10
55.365645262427449
 20
760.47262350828476
 30
0.0
 40
5.7009440104166647
  1
コネクターの形状
 41
0.7
 11
55.365645262427449
 21
766.17356751870136
 31
0.0
 73
     3
  0
TEXT
  5
5B
  8
SPEC
 62
     7
 10
152.9914851762077
 20
760.27139382032362
 30
0.0
 40
5.7009440104166647
  1
RJ-45
 41
0.7
 11
152.9914851762077
 21
765.97233783074034
 31
0.0
 73
     3
  0
TEXT
  5
5C
  8
DIMNSIONS
 62
     7
 10
240.0
 20
66.8084699999999
 30
0.0
 40
7.3297851562499989
  1
(単位：mm)
 41
0.7
 11
240.0
 21
74.138255156249883
 31
0.0
 73
     3
  0
LINE
  5
5D
  8
DIMNSIONS
  6
CONTINUOUS
 62
     7
 10
173.40000002235169
 20
360.0
 30
0.0
 11
104.0000000223517
 21
360.0
 31
0.0
  0
LINE
  5
5E
  8
DIMNSIONS
  6
CONTINUOUS
 62
     7
 10
173.40000002235169
 20
412.5
 30
0.0
 11
104.0000000223517
 21
412.5
 31
0.0
  0
LINE
  5
5F
  8
DIMNSIONS
  6
CONTINUOUS
 62
     7
 10
110.0
 20
360.0
 30
0.0
 11
110.0
 21
412.5
 31
0.0
  0
LINE
  5
60
  8
DIMNSIONS
  6
CONTINUOUS
 62
     7
 10
110.0
 20
360.0
 30
0.0
 11
107.44778394209349
 21
369.52499999999998
 31
0.0
  0
LINE
  5
61
  8
DIMNSIONS
  6
CONTINUOUS
 62
     7
 10
110.0
 20
360.0
 30
0.0
 11
112.55221605790641
 21
369.52499999999998
 31
0.0
  0
LINE
  5
62
  8
DIMNSIONS
  6
CONTINUOUS
 62
     7
 10
110.0
 20
412.5
 30
0.0
 11
112.55221605790641
 21
402.97499999999991
 31
0.0
  0
LINE
  5
63
  8
DIMNSIONS
  6
CONTINUOUS
 62
     7
 10
110.0
 20
412.5
 30
0.0
 11
107.44778394209349
 21
402.97499999999991
 31
0.0
  0
TEXT
  5
64
  8
DIMNSIONS
 62
     7
 10
105.5183333445092
 20
375.66666666666657
 30
0.0
 40
8.1442057291666661
  1
52.5
 50
90.0
 41
0.7
 11
97.374127615342516
 21
375.66666666666657
 31
0.0
 73
     3
  0
LINE
  5
65
  8
DIMNSIONS
  6
CONTINUOUS
 62
     7
 10
173.34000002235169
 20
412.5
 30
0.0
 11
204.5
 21
412.5
 31
0.0
  0
LINE
  5
66
  8
DIMNSIONS
  6
CONTINUOUS
 62
     7
 10
291.14999999999998
 20
293.4499999776483
 30
0.0
 11
291.14999999999998
 21
335.99999997764832
 31
0.0
  0
LINE
  5
67
  8
DIMNSIONS
  6
CONTINUOUS
 62
     7
 10
198.84999999999999
 20
293.4499999776483
 30
0.0
 11
198.84999999999999
 21
335.99999997764832
 31
0.0
  0
LINE
  5
68
  8
DIMNSIONS
  6
CONTINUOUS
 62
     7
 10
291.14999999999998
 20
330.0
 30
0.0
 11
198.84999999999999
 21
330.0
 31
0.0
  0
LINE
  5
69
  8
DIMNSIONS
  6
CONTINUOUS
 62
     7
 10
291.14999999999998
 20
330.0
 30
0.0
 11
281.625
 21
327.44778394209362
 31
0.0
  0
LINE
  5
6A
  8
DIMNSIONS
  6
CONTINUOUS
 62
     7
 10
291.14999999999998
 20
330.0
 30
0.0
 11
281.625
 21
332.55221605790649
 31
0.0
  0
LINE
  5
6B
  8
DIMNSIONS
  6
CONTINUOUS
 62
     7
 10
198.84999999999999
 20
330.0
 30
0.0
 11
208.375
 21
332.55221605790649
 31
0.0
  0
LINE
  5
6C
  8
DIMNSIONS
  6
CONTINUOUS
 62
     7
 10
198.84999999999999
 20
330.0
 30
0.0
 11
208.375
 21
327.44778394209362
 31
0.0
  0
TEXT
  5
6D
  8
DIMNSIONS
 62
     7
 10
234.41666666666671
 20
334.4816666554907
 30
0.0
 40
8.1442057291666661
  1
92.3
 41
0.7
 11
234.41666666666671
 21
342.62587238465738
 31
0.0
 73
     3
  0
LINE
  5
6E
  8
DIMNSIONS
  6
CONTINUOUS
 62
     7
 10
158.82000002235171
 20
180.00324105044041
 30
0.0
 11
104.0000000223517
 21
180.00324105044041
 31
0.0
  0
LINE
  5
6F
  8
DIMNSIONS
  6
CONTINUOUS
 62
     7
 10
158.82000002235171
 20
303.0
 30
0.0
 11
104.0000000223517
 21
303.0
 31
0.0
  0
LINE
  5
70
  8
DIMNSIONS
  6
CONTINUOUS
 62
     7
 10
110.0
 20
180.00324105044041
 30
0.0
 11
110.0
 21
303.0
 31
0.0
  0
LINE
  5
71
  8
DIMNSIONS
  6
CONTINUOUS
 62
     7
 10
110.0
 20
180.00324105044041
 30
0.0
 11
107.44778394209349
 21
189.52824105044041
 31
0.0
  0
LINE
  5
72
  8
DIMNSIONS
  6
CONTINUOUS
 62
     7
 10
110.0
 20
180.00324105044041
 30
0.0
 11
112.55221605790641
 21
189.52824105044041
 31
0.0
  0
LINE
  5
73
  8
DIMNSIONS
  6
CONTINUOUS
 62
     7
 10
110.0
 20
303.0
 30
0.0
 11
112.55221605790641
 21
293.47500000000002
 31
0.0
  0
LINE
  5
74
  8
DIMNSIONS
  6
CONTINUOUS
 62
     7
 10
110.0
 20
303.0
 30
0.0
 11
107.44778394209349
 21
293.47500000000002
 31
0.0
  0
TEXT
  5
75
  8
DIMNSIONS
 62
     7
 10
105.5183333445092
 20
233.56412052522029
 30
0.0
 40
8.1442057291666661
  1
123
 50
90.0
 41
0.7
 11
97.374127615342573
 21
233.56412052522029
 31
0.0
 73
     3
  0
LINE
  5
76
  8
DIMNSIONS
  6
CONTINUOUS
 62
     7
 10
160.0
 20
179.00000002235171
 30
0.0
 11
160.0
 21
124.0000000223517
 31
0.0
  0
LINE
  5
77
  8
DIMNSIONS
  6
CONTINUOUS
 62
     7
 10
330.0
 20
179.00000002235171
 30
0.0
 11
330.0
 21
124.0000000223517
 31
0.0
  0
LINE
  5
78
  8
DIMNSIONS
  6
CONTINUOUS
 62
     7
 10
160.0
 20
130.0
 30
0.0
 11
330.0
 21
130.0
 31
0.0
  0
LINE
  5
79
  8
DIMNSIONS
  6
CONTINUOUS
 62
     7
 10
160.0
 20
130.0
 30
0.0
 11
169.52500000000001
 21
132.55221605790641
 31
0.0
  0
LINE
  5
7A
  8
DIMNSIONS
  6
CONTINUOUS
 62
     7
 10
160.0
 20
130.0
 30
0.0
 11
169.52500000000001
 21
127.44778394209349
 31
0.0
  0
LINE
  5
7B
  8
DIMNSIONS
  6
CONTINUOUS
 62
     7
 10
330.0
 20
130.0
 30
0.0
 11
320.47500000000002
 21
127.44778394209349
 31
0.0
  0
LINE
  5
7C
  8
DIMNSIONS
  6
CONTINUOUS
 62
     7
 10
330.0
 20
130.0
 30
0.0
 11
320.47500000000002
 21
132.55221605790641
 31
0.0
  0
TEXT
  5
7D
  8
DIMNSIONS
 62
     7
 10
237.0625
 20
134.48166665549081
 30
0.0
 40
8.1442057291666661
  1
170
 41
0.7
 11
237.0625
 21
142.62587238465741
 31
0.0
 73
     3
  0
LINE
  5
7E
  8
DIMNSIONS
  6
CONTINUOUS
 62
     7
 10
188.60000002235179
 20
199.80000000000001
 30
0.0
 11
124.0000000223517
 21
199.80000000000001
 31
0.0
  0
LINE
  5
7F
  8
DIMNSIONS
  6
CONTINUOUS
 62
     7
 10
188.60000002235179
 20
283.19999999999999
 30
0.0
 11
124.0000000223517
 21
283.19999999999999
 31
0.0
  0
LINE
  5
80
  8
DIMNSIONS
  6
CONTINUOUS
 62
     7
 10
130.0
 20
199.80000000000001
 30
0.0
 11
130.0
 21
283.19999999999999
 31
0.0
  0
LINE
  5
81
  8
DIMNSIONS
  6
CONTINUOUS
 62
     7
 10
130.0
 20
199.80000000000001
 30
0.0
 11
127.44778394209349
 21
209.32499999999999
 31
0.0
  0
LINE
  5
82
  8
DIMNSIONS
  6
CONTINUOUS
 62
     7
 10
130.0
 20
199.80000000000001
 30
0.0
 11
132.55221605790641
 21
209.32499999999999
 31
0.0
  0
LINE
  5
83
  8
DIMNSIONS
  6
CONTINUOUS
 62
     7
 10
130.0
 20
283.19999999999999
 30
0.0
 11
132.55221605790641
 21
273.67500000000001
 31
0.0
  0
LINE
  5
84
  8
DIMNSIONS
  6
CONTINUOUS
 62
     7
 10
130.0
 20
283.19999999999999
 30
0.0
 11
127.44778394209349
 21
273.67500000000001
 31
0.0
  0
TEXT
  5
85
  8
DIMNSIONS
 62
     7
 10
125.5183333445092
 20
230.91666666666671
 30
0.0
 40
8.1442057291666661
  1
83.4
 50
90.0
 41
0.7
 11
117.3741276153425
 21
230.91666666666671
 31
0.0
 73
     3
  0
LINE
  5
86
  8
DIMNSIONS
  6
CONTINUOUS
 62
     7
 10
176.0
 20
543.99999997764814
 30
0.0
 11
176.0
 21
585.99999997764826
 31
0.0
  0
LINE
  5
87
  8
DIMNSIONS
  6
CONTINUOUS
 62
     7
 10
314.0
 20
543.99999997764814
 30
0.0
 11
314.0
 21
585.99999997764826
 31
0.0
  0
LINE
  5
88
  8
DIMNSIONS
  6
CONTINUOUS
 62
     7
 10
176.0
 20
580.0
 30
0.0
 11
314.0
 21
580.0
 31
0.0
  0
LINE
  5
89
  8
DIMNSIONS
  6
CONTINUOUS
 62
     7
 10
176.0
 20
580.0
 30
0.0
 11
185.52500000000001
 21
582.55221605790632
 31
0.0
  0
LINE
  5
8A
  8
DIMNSIONS
  6
CONTINUOUS
 62
     7
 10
176.0
 20
580.0
 30
0.0
 11
185.52500000000001
 21
577.44778394209368
 31
0.0
  0
LINE
  5
8B
  8
DIMNSIONS
  6
CONTINUOUS
 62
     7
 10
314.0
 20
580.0
 30
0.0
 11
304.47500000000002
 21
577.44778394209368
 31
0.0
  0
LINE
  5
8C
  8
DIMNSIONS
  6
CONTINUOUS
 62
     7
 10
314.0
 20
580.0
 30
0.0
 11
304.47500000000002
 21
582.55221605790632
 31
0.0
  0
TEXT
  5
8D
  8
DIMNSIONS
 62
     7
 10
237.0625
 20
584.48166665549093
 30
0.0
 40
8.1442057291666661
  1
138
 41
0.7
 11
237.0625
 21
592.62587238465755
 31
0.0
 73
     3
  0
LINE
  5
8E
  8
DIMNSIONS
  6
CONTINUOUS
 62
     7
 10
170.00000002235171
 20
465.0
 30
0.0
 11
134.00000002235171
 21
465.0
 31
0.0
  0
LINE
  5
8F
  8
DIMNSIONS
  6
CONTINUOUS
 62
     7
 10
170.00000002235171
 20
538.0
 30
0.0
 11
134.00000002235171
 21
538.0
 31
0.0
  0
LINE
  5
90
  8
DIMNSIONS
  6
CONTINUOUS
 62
     7
 10
140.0
 20
465.0
 30
0.0
 11
140.0
 21
538.0
 31
0.0
  0
LINE
  5
91
  8
DIMNSIONS
  6
CONTINUOUS
 62
     7
 10
140.0
 20
465.0
 30
0.0
 11
137.44778394209351
 21
474.52499999999992
 31
0.0
  0
LINE
  5
92
  8
DIMNSIONS
  6
CONTINUOUS
 62
     7
 10
140.0
 20
465.0
 30
0.0
 11
142.55221605790641
 21
474.52499999999992
 31
0.0
  0
LINE
  5
93
  8
DIMNSIONS
  6
CONTINUOUS
 62
     7
 10
140.0
 20
538.0
 30
0.0
 11
142.55221605790641
 21
528.47500000000002
 31
0.0
  0
LINE
  5
94
  8
DIMNSIONS
  6
CONTINUOUS
 62
     7
 10
140.0
 20
538.0
 30
0.0
 11
137.44778394209351
 21
528.47500000000002
 31
0.0
  0
TEXT
  5
95
  8
DIMNSIONS
 62
     7
 10
135.51833334450919
 20
496.2083333333332
 30
0.0
 40
8.1442057291666661
  1
73
 50
90.0
 41
0.7
 11
127.3741276153425
 21
496.2083333333332
 31
0.0
 73
     3
  0
LINE
  5
96
  8
DIMNSIONS
  6
CONTINUOUS
 62
     7
 10
154.00000002235171
 20
388.0
 30
0.0
 11
124.0000000223517
 21
388.0
 31
0.0
  0
LINE
  5
97
  8
DIMNSIONS
  6
CONTINUOUS
 62
     7
 10
154.00000002235171
 20
360.0
 30
0.0
 11
124.0000000223517
 21
360.0
 31
0.0
  0
LINE
  5
98
  8
DIMNSIONS
  6
CONTINUOUS
 62
     7
 10
130.0
 20
388.0
 30
0.0
 11
130.0
 21
360.0
 31
0.0
  0
LINE
  5
99
  8
DIMNSIONS
  6
CONTINUOUS
 62
     7
 10
130.0
 20
388.0
 30
0.0
 11
132.55221605790641
 21
378.47500000000002
 31
0.0
  0
LINE
  5
9A
  8
DIMNSIONS
  6
CONTINUOUS
 62
     7
 10
130.0
 20
388.0
 30
0.0
 11
127.44778394209349
 21
378.47500000000002
 31
0.0
  0
LINE
  5
9B
  8
DIMNSIONS
  6
CONTINUOUS
 62
     7
 10
130.0
 20
360.0
 30
0.0
 11
127.44778394209349
 21
369.52499999999998
 31
0.0
  0
LINE
  5
9C
  8
DIMNSIONS
  6
CONTINUOUS
 62
     7
 10
130.0
 20
360.0
 30
0.0
 11
132.55221605790641
 21
369.52499999999998
 31
0.0
  0
TEXT
  5
9D
  8
DIMNSIONS
 62
     7
 10
125.5183333445092
 20
368.70833333333331
 30
0.0
 40
8.1442057291666661
  1
28
 50
90.0
 41
0.7
 11
117.3741276153425
 21
368.70833333333331
 31
0.0
 73
     3
  0
TEXT
  5
9E
  8
DATA
 62
     7
 10
441.30000000000001
 20
85.14266999999991
 30
0.0
 40
7.3297851562499989
  1
BSS
 41
0.7
 11
441.30000000000001
 21
92.472455156249907
 31
0.0
 73
     3
  0
TEXT
  5
9F
  8
DATA
 62
     7
 10
441.30000000000001
 20
64.158509999999936
 30
0.0
 40
7.3297851562499989
  1
BLU-8
 41
0.7
 11
441.30000000000001
 21
71.488295156249933
 31
0.0
 73
     3
  0
LINE
  5
A0
  8
DATA
  6
CONTINUOUS
 62
     7
 10
160.0
 20
185.0
 30
0.0
 11
160.0
 21
298.0
 31
0.0
  0
LINE
  5
A1
  8
DATA
  6
CONTINUOUS
 62
     7
 10
325.0
 20
180.0
 30
0.0
 11
165.0
 21
180.0
 31
0.0
  0
LINE
  5
A2
  8
DATA
  6
CONTINUOUS
 62
     7
 10
330.0
 20
298.0
 30
0.0
 11
330.0
 21
185.0
 31
0.0
  0
LINE
  5
A3
  8
DATA
  6
CONTINUOUS
 62
     7
 10
165.0
 20
303.0
 30
0.0
 11
325.0
 21
303.0
 31
0.0
  0
LINE
  5
A4
  8
DATA
  6
CONTINUOUS
 62
     7
 10
160.0
 20
388.0
 30
0.0
 11
330.0
 21
388.0
 31
0.0
  0
LINE
  5
A5
  8
DATA
  6
CONTINUOUS
 62
     7
 10
167.5
 20
188.69999999999999
 30
0.0
 11
167.5
 21
294.30000000000001
 31
0.0
  0
ARC
  5
A6
  8
DATA
  6
CONTINUOUS
 62
     7
 10
168.69999999999999
 20
188.69999999999999
 30
0.0
 40
1.199999999999988
 50
180.0
 51
270.0
  0
LINE
  5
A7
  8
DATA
  6
CONTINUOUS
 62
     7
 10
321.30000000000001
 20
187.5
 30
0.0
 11
168.69999999999999
 21
187.5
 31
0.0
  0
ARC
  5
A8
  8
DATA
  6
CONTINUOUS
 62
     7
 10
321.30000000000001
 20
188.69999999999999
 30
0.0
 40
1.199999999999988
 50
270.0
 51
0.0
  0
LINE
  5
A9
  8
DATA
  6
CONTINUOUS
 62
     7
 10
322.5
 20
294.30000000000001
 30
0.0
 11
322.5
 21
188.69999999999999
 31
0.0
  0
ARC
  5
AA
  8
DATA
  6
CONTINUOUS
 62
     7
 10
321.30000000000001
 20
294.30000000000001
 30
0.0
 40
1.200000000000002
 50
0.0
 51
89.999999999999844
  0
LINE
  5
AB
  8
DATA
  6
CONTINUOUS
 62
     7
 10
168.69999999999999
 20
295.5
 30
0.0
 11
321.30000000000001
 21
295.5
 31
0.0
  0
ARC
  5
AC
  8
DATA
  6
CONTINUOUS
 62
     7
 10
168.69999999999999
 20
294.30000000000013
 30
0.0
 40
1.19999999999996
 50
90.0
 51
180.0000000000021
  0
LINE
  5
AD
  8
DATA
  6
CONTINUOUS
 62
     7
 10
167.0
 20
188.19999999999999
 30
0.0
 11
167.0
 21
294.80000000000001
 31
0.0
  0
ARC
  5
AE
  8
DATA
  6
CONTINUOUS
 62
     7
 10
168.19999999999999
 20
188.19999999999999
 30
0.0
 40
1.199999999999988
 50
180.0
 51
270.0
  0
LINE
  5
AF
  8
DATA
  6
CONTINUOUS
 62
     7
 10
321.80000000000001
 20
187.0
 30
0.0
 11
168.19999999999999
 21
187.0
 31
0.0
  0
ARC
  5
B0
  8
DATA
  6
CONTINUOUS
 62
     7
 10
321.80000000000001
 20
188.19999999999999
 30
0.0
 40
1.199999999999988
 50
270.0
 51
0.0
  0
LINE
  5
B1
  8
DATA
  6
CONTINUOUS
 62
     7
 10
323.0
 20
294.80000000000001
 30
0.0
 11
323.0
 21
188.19999999999999
 31
0.0
  0
ARC
  5
B2
  8
DATA
  6
CONTINUOUS
 62
     7
 10
321.80000000000001
 20
294.80000000000001
 30
0.0
 40
1.200000000000002
 50
0.0
 51
89.999999999999844
  0
LINE
  5
B3
  8
DATA
  6
CONTINUOUS
 62
     7
 10
168.19999999999999
 20
296.0
 30
0.0
 11
321.80000000000001
 21
296.0
 31
0.0
  0
ARC
  5
B4
  8
DATA
  6
CONTINUOUS
 62
     7
 10
168.19999999999999
 20
294.80000000000001
 30
0.0
 40
1.199999999999988
 50
90.0
 51
180.00000000000071
  0
ARC
  5
B5
  8
DATA
  6
CONTINUOUS
 62
     7
 10
165.0
 20
298.0
 30
0.0
 40
5.0
 50
90.0
 51
180.0
  0
ARC
  5
B6
  8
DATA
  6
CONTINUOUS
 62
     7
 10
325.0
 20
298.0
 30
0.0
 40
5.0
 50
0.0
 51
90.0
  0
ARC
  5
B7
  8
DATA
  6
CONTINUOUS
 62
     7
 10
165.0
 20
185.0
 30
0.0
 40
5.0
 50
180.0
 51
270.0
  0
ARC
  5
B8
  8
DATA
  6
CONTINUOUS
 62
     7
 10
325.0
 20
185.0
 30
0.0
 40
5.0
 50
270.0
 51
0.0
  0
LINE
  5
B9
  8
DATA
  6
CONTINUOUS
 62
     7
 10
168.0
 20
189.19999999999999
 30
0.0
 11
168.0
 21
293.80000000000001
 31
0.0
  0
ARC
  5
BA
  8
DATA
  6
CONTINUOUS
 62
     7
 10
169.19999999999999
 20
189.19999999999999
 30
0.0
 40
1.199999999999988
 50
180.0
 51
270.0
  0
LINE
  5
BB
  8
DATA
  6
CONTINUOUS
 62
     7
 10
320.80000000000001
 20
188.0
 30
0.0
 11
169.19999999999999
 21
188.0
 31
0.0
  0
ARC
  5
BC
  8
DATA
  6
CONTINUOUS
 62
     7
 10
320.80000000000001
 20
189.19999999999999
 30
0.0
 40
1.199999999999988
 50
270.0
 51
0.0
  0
LINE
  5
BD
  8
DATA
  6
CONTINUOUS
 62
     7
 10
322.0
 20
293.80000000000001
 30
0.0
 11
322.0
 21
189.19999999999999
 31
0.0
  0
ARC
  5
BE
  8
DATA
  6
CONTINUOUS
 62
     7
 10
320.80000000000001
 20
293.80000000000001
 30
0.0
 40
1.200000000000002
 50
0.0
 51
89.999999999999844
  0
LINE
  5
BF
  8
DATA
  6
CONTINUOUS
 62
     7
 10
169.19999999999999
 20
295.0
 30
0.0
 11
320.80000000000001
 21
295.0
 31
0.0
  0
ARC
  5
C0
  8
DATA
  6
CONTINUOUS
 62
     7
 10
169.19999999999999
 20
293.80000000000001
 30
0.0
 40
1.199999999999988
 50
90.0
 51
180.00000000000071
  0
CIRCLE
  5
C1
  8
DATA
  6
CONTINUOUS
 62
     7
 10
198.84999999999999
 20
283.19999999999999
 30
0.0
 40
4.25
  0
CIRCLE
  5
C2
  8
DATA
  6
CONTINUOUS
 62
     7
 10
291.14999999999998
 20
283.19999999999999
 30
0.0
 40
4.25
  0
CIRCLE
  5
C3
  8
DATA
  6
CONTINUOUS
 62
     7
 10
198.84999999999999
 20
199.80000000000001
 30
0.0
 40
4.25
  0
CIRCLE
  5
C4
  8
DATA
  6
CONTINUOUS
 62
     7
 10
291.14999999999998
 20
199.80000000000001
 30
0.0
 40
4.25
  0
CIRCLE
  5
C5
  8
DATA
  6
CONTINUOUS
 62
     7
 10
198.84999999999999
 20
283.19999999999999
 30
0.0
 40
2.9000000000000048
  0
LINE
  5
C6
  8
DATA
  6
CONTINUOUS
 62
     7
 10
198.55000000000001
 20
281.44999999999999
 30
0.0
 11
198.55000000000001
 21
282.89999999999998
 31
0.0
  0
LINE
  5
C7
  8
DATA
  6
CONTINUOUS
 62
     7
 10
199.15000000000001
 20
281.44999999999999
 30
0.0
 11
198.55000000000001
 21
281.44999999999999
 31
0.0
  0
LINE
  5
C8
  8
DATA
  6
CONTINUOUS
 62
     7
 10
199.15000000000001
 20
282.89999999999998
 30
0.0
 11
199.15000000000001
 21
281.44999999999999
 31
0.0
  0
LINE
  5
C9
  8
DATA
  6
CONTINUOUS
 62
     7
 10
199.15000000000001
 20
284.94999999999999
 30
0.0
 11
199.15000000000001
 21
283.5
 31
0.0
  0
LINE
  5
CA
  8
DATA
  6
CONTINUOUS
 62
     7
 10
198.55000000000001
 20
284.94999999999999
 30
0.0
 11
199.15000000000001
 21
284.94999999999999
 31
0.0
  0
LINE
  5
CB
  8
DATA
  6
CONTINUOUS
 62
     7
 10
198.55000000000001
 20
283.5
 30
0.0
 11
198.55000000000001
 21
284.94999999999999
 31
0.0
  0
LINE
  5
CC
  8
DATA
  6
CONTINUOUS
 62
     7
 10
197.09999999999999
 20
283.5
 30
0.0
 11
198.55000000000001
 21
283.5
 31
0.0
  0
LINE
  5
CD
  8
DATA
  6
CONTINUOUS
 62
     7
 10
197.09999999999999
 20
282.89999999999998
 30
0.0
 11
197.09999999999999
 21
283.5
 31
0.0
  0
LINE
  5
CE
  8
DATA
  6
CONTINUOUS
 62
     7
 10
198.55000000000001
 20
282.89999999999998
 30
0.0
 11
197.09999999999999
 21
282.89999999999998
 31
0.0
  0
LINE
  5
CF
  8
DATA
  6
CONTINUOUS
 62
     7
 10
200.59999999999999
 20
282.89999999999998
 30
0.0
 11
199.15000000000001
 21
282.89999999999998
 31
0.0
  0
LINE
  5
D0
  8
DATA
  6
CONTINUOUS
 62
     7
 10
200.59999999999999
 20
283.5
 30
0.0
 11
200.59999999999999
 21
282.89999999999998
 31
0.0
  0
LINE
  5
D1
  8
DATA
  6
CONTINUOUS
 62
     7
 10
199.15000000000001
 20
283.5
 30
0.0
 11
200.59999999999999
 21
283.5
 31
0.0
  0
CIRCLE
  5
D2
  8
DATA
  6
CONTINUOUS
 62
     7
 10
291.15000000000009
 20
283.19999999999999
 30
0.0
 40
2.9000000000000048
  0
LINE
  5
D3
  8
DATA
  6
CONTINUOUS
 62
     7
 10
290.85000000000002
 20
281.44999999999999
 30
0.0
 11
290.85000000000002
 21
282.89999999999998
 31
0.0
  0
LINE
  5
D4
  8
DATA
  6
CONTINUOUS
 62
     7
 10
291.4500000000001
 20
281.44999999999999
 30
0.0
 11
290.85000000000002
 21
281.44999999999999
 31
0.0
  0
LINE
  5
D5
  8
DATA
  6
CONTINUOUS
 62
     7
 10
291.4500000000001
 20
282.89999999999998
 30
0.0
 11
291.4500000000001
 21
281.44999999999999
 31
0.0
  0
LINE
  5
D6
  8
DATA
  6
CONTINUOUS
 62
     7
 10
291.4500000000001
 20
284.94999999999999
 30
0.0
 11
291.4500000000001
 21
283.5
 31
0.0
  0
LINE
  5
D7
  8
DATA
  6
CONTINUOUS
 62
     7
 10
290.85000000000002
 20
284.94999999999999
 30
0.0
 11
291.4500000000001
 21
284.94999999999999
 31
0.0
  0
LINE
  5
D8
  8
DATA
  6
CONTINUOUS
 62
     7
 10
290.85000000000002
 20
283.5
 30
0.0
 11
290.85000000000002
 21
284.94999999999999
 31
0.0
  0
LINE
  5
D9
  8
DATA
  6
CONTINUOUS
 62
     7
 10
289.40000000000009
 20
283.5
 30
0.0
 11
290.85000000000002
 21
283.5
 31
0.0
  0
LINE
  5
DA
  8
DATA
  6
CONTINUOUS
 62
     7
 10
289.40000000000009
 20
282.89999999999998
 30
0.0
 11
289.40000000000009
 21
283.5
 31
0.0
  0
LINE
  5
DB
  8
DATA
  6
CONTINUOUS
 62
     7
 10
290.85000000000002
 20
282.89999999999998
 30
0.0
 11
289.40000000000009
 21
282.89999999999998
 31
0.0
  0
LINE
  5
DC
  8
DATA
  6
CONTINUOUS
 62
     7
 10
292.90000000000009
 20
282.89999999999998
 30
0.0
 11
291.4500000000001
 21
282.89999999999998
 31
0.0
  0
LINE
  5
DD
  8
DATA
  6
CONTINUOUS
 62
     7
 10
292.90000000000009
 20
283.5
 30
0.0
 11
292.90000000000009
 21
282.89999999999998
 31
0.0
  0
LINE
  5
DE
  8
DATA
  6
CONTINUOUS
 62
     7
 10
291.4500000000001
 20
283.5
 30
0.0
 11
292.90000000000009
 21
283.5
 31
0.0
  0
CIRCLE
  5
DF
  8
DATA
  6
CONTINUOUS
 62
     7
 10
198.84999999999999
 20
199.80000000000001
 30
0.0
 40
2.9000000000000048
  0
LINE
  5
E0
  8
DATA
  6
CONTINUOUS
 62
     7
 10
198.55000000000001
 20
198.05000000000001
 30
0.0
 11
198.55000000000001
 21
199.5
 31
0.0
  0
LINE
  5
E1
  8
DATA
  6
CONTINUOUS
 62
     7
 10
199.15000000000001
 20
198.05000000000001
 30
0.0
 11
198.55000000000001
 21
198.05000000000001
 31
0.0
  0
LINE
  5
E2
  8
DATA
  6
CONTINUOUS
 62
     7
 10
199.15000000000001
 20
199.5
 30
0.0
 11
199.15000000000001
 21
198.05000000000001
 31
0.0
  0
LINE
  5
E3
  8
DATA
  6
CONTINUOUS
 62
     7
 10
199.15000000000001
 20
201.55000000000001
 30
0.0
 11
199.15000000000001
 21
200.09999999999999
 31
0.0
  0
LINE
  5
E4
  8
DATA
  6
CONTINUOUS
 62
     7
 10
198.55000000000001
 20
201.55000000000001
 30
0.0
 11
199.15000000000001
 21
201.55000000000001
 31
0.0
  0
LINE
  5
E5
  8
DATA
  6
CONTINUOUS
 62
     7
 10
198.55000000000001
 20
200.09999999999999
 30
0.0
 11
198.55000000000001
 21
201.55000000000001
 31
0.0
  0
LINE
  5
E6
  8
DATA
  6
CONTINUOUS
 62
     7
 10
197.09999999999999
 20
200.09999999999999
 30
0.0
 11
198.55000000000001
 21
200.09999999999999
 31
0.0
  0
LINE
  5
E7
  8
DATA
  6
CONTINUOUS
 62
     7
 10
197.09999999999999
 20
199.5
 30
0.0
 11
197.09999999999999
 21
200.09999999999999
 31
0.0
  0
LINE
  5
E8
  8
DATA
  6
CONTINUOUS
 62
     7
 10
198.55000000000001
 20
199.5
 30
0.0
 11
197.09999999999999
 21
199.5
 31
0.0
  0
LINE
  5
E9
  8
DATA
  6
CONTINUOUS
 62
     7
 10
200.59999999999999
 20
199.5
 30
0.0
 11
199.15000000000001
 21
199.5
 31
0.0
  0
LINE
  5
EA
  8
DATA
  6
CONTINUOUS
 62
     7
 10
200.59999999999999
 20
200.09999999999999
 30
0.0
 11
200.59999999999999
 21
199.5
 31
0.0
  0
LINE
  5
EB
  8
DATA
  6
CONTINUOUS
 62
     7
 10
199.15000000000001
 20
200.09999999999999
 30
0.0
 11
200.59999999999999
 21
200.09999999999999
 31
0.0
  0
CIRCLE
  5
EC
  8
DATA
  6
CONTINUOUS
 62
     7
 10
291.15000000000009
 20
199.80000000000001
 30
0.0
 40
2.9000000000000048
  0
LINE
  5
ED
  8
DATA
  6
CONTINUOUS
 62
     7
 10
290.85000000000002
 20
198.05000000000001
 30
0.0
 11
290.85000000000002
 21
199.5
 31
0.0
  0
LINE
  5
EE
  8
DATA
  6
CONTINUOUS
 62
     7
 10
291.4500000000001
 20
198.05000000000001
 30
0.0
 11
290.85000000000002
 21
198.05000000000001
 31
0.0
  0
LINE
  5
EF
  8
DATA
  6
CONTINUOUS
 62
     7
 10
291.4500000000001
 20
199.5
 30
0.0
 11
291.4500000000001
 21
198.05000000000001
 31
0.0
  0
LINE
  5
F0
  8
DATA
  6
CONTINUOUS
 62
     7
 10
291.4500000000001
 20
201.55000000000001
 30
0.0
 11
291.4500000000001
 21
200.09999999999999
 31
0.0
  0
LINE
  5
F1
  8
DATA
  6
CONTINUOUS
 62
     7
 10
290.85000000000002
 20
201.55000000000001
 30
0.0
 11
291.4500000000001
 21
201.55000000000001
 31
0.0
  0
LINE
  5
F2
  8
DATA
  6
CONTINUOUS
 62
     7
 10
290.85000000000002
 20
200.09999999999999
 30
0.0
 11
290.85000000000002
 21
201.55000000000001
 31
0.0
  0
LINE
  5
F3
  8
DATA
  6
CONTINUOUS
 62
     7
 10
289.40000000000009
 20
200.09999999999999
 30
0.0
 11
290.85000000000002
 21
200.09999999999999
 31
0.0
  0
LINE
  5
F4
  8
DATA
  6
CONTINUOUS
 62
     7
 10
289.40000000000009
 20
199.5
 30
0.0
 11
289.40000000000009
 21
200.09999999999999
 31
0.0
  0
LINE
  5
F5
  8
DATA
  6
CONTINUOUS
 62
     7
 10
290.85000000000002
 20
199.5
 30
0.0
 11
289.40000000000009
 21
199.5
 31
0.0
  0
LINE
  5
F6
  8
DATA
  6
CONTINUOUS
 62
     7
 10
292.90000000000009
 20
199.5
 30
0.0
 11
291.4500000000001
 21
199.5
 31
0.0
  0
LINE
  5
F7
  8
DATA
  6
CONTINUOUS
 62
     7
 10
292.90000000000009
 20
200.09999999999999
 30
0.0
 11
292.90000000000009
 21
199.5
 31
0.0
  0
LINE
  5
F8
  8
DATA
  6
CONTINUOUS
 62
     7
 10
291.4500000000001
 20
200.09999999999999
 30
0.0
 11
292.90000000000009
 21
200.09999999999999
 31
0.0
  0
CIRCLE
  5
F9
  8
DATA
  6
CONTINUOUS
 62
     7
 10
213.0
 20
253.0
 30
0.0
 40
6.2999999999999972
  0
CIRCLE
  5
FA
  8
DATA
  6
CONTINUOUS
 62
     7
 10
213.0
 20
253.0
 30
0.0
 40
7.5
  0
CIRCLE
  5
FB
  8
DATA
  6
CONTINUOUS
 62
     7
 10
213.0
 20
253.0
 30
0.0
 40
6.6500000000000048
  0
CIRCLE
  5
FC
  8
DATA
  6
CONTINUOUS
 62
     7
 10
277.0
 20
253.0
 30
0.0
 40
6.2999999999999972
  0
CIRCLE
  5
FD
  8
DATA
  6
CONTINUOUS
 62
     7
 10
277.0
 20
253.0
 30
0.0
 40
7.5
  0
CIRCLE
  5
FE
  8
DATA
  6
CONTINUOUS
 62
     7
 10
277.0
 20
253.0
 30
0.0
 40
6.6500000000000048
  0
CIRCLE
  5
FF
  8
DATA
  6
CONTINUOUS
 62
     7
 10
245.0
 20
223.0
 30
0.0
 40
3.200000000000002
  0
CIRCLE
  5
100
  8
DATA
  6
CONTINUOUS
 62
     7
 10
216.0
 20
223.0
 30
0.0
 40
3.200000000000002
  0
CIRCLE
  5
101
  8
DATA
  6
CONTINUOUS
 62
     7
 10
187.0
 20
223.0
 30
0.0
 40
3.200000000000002
  0
CIRCLE
  5
102
  8
DATA
  6
CONTINUOUS
 62
     7
 10
274.0
 20
223.0
 30
0.0
 40
3.200000000000002
  0
CIRCLE
  5
103
  8
DATA
  6
CONTINUOUS
 62
     7
 10
303.0
 20
223.0
 30
0.0
 40
3.200000000000002
  0
ARC
  5
104
  8
DATA
  6
CONTINUOUS
 62
     7
 10
237.0
 20
213.0
 30
0.0
 40
2.5
 50
90.0
 51
270.0
  0
ARC
  5
105
  8
DATA
  6
CONTINUOUS
 62
     7
 10
253.0
 20
213.0
 30
0.0
 40
2.5
 50
270.0
 51
90.0
  0
LINE
  5
106
  8
DATA
  6
CONTINUOUS
 62
     7
 10
253.0
 20
215.5
 30
0.0
 11
237.0
 21
215.5
 31
0.0
  0
LINE
  5
107
  8
DATA
  6
CONTINUOUS
 62
     7
 10
253.0
 20
210.5
 30
0.0
 11
237.0
 21
210.5
 31
0.0
  0
ARC
  5
108
  8
DATA
  6
CONTINUOUS
 62
     7
 10
266.0
 20
213.0
 30
0.0
 40
2.5
 50
90.0
 51
270.0
  0
ARC
  5
109
  8
DATA
  6
CONTINUOUS
 62
     7
 10
282.0
 20
213.0
 30
0.0
 40
2.5
 50
270.0
 51
90.0
  0
LINE
  5
10A
  8
DATA
  6
CONTINUOUS
 62
     7
 10
282.0
 20
215.5
 30
0.0
 11
266.0
 21
215.5
 31
0.0
  0
LINE
  5
10B
  8
DATA
  6
CONTINUOUS
 62
     7
 10
282.0
 20
210.5
 30
0.0
 11
266.0
 21
210.5
 31
0.0
  0
ARC
  5
10C
  8
DATA
  6
CONTINUOUS
 62
     7
 10
295.0
 20
213.0
 30
0.0
 40
2.5
 50
90.0
 51
270.0
  0
ARC
  5
10D
  8
DATA
  6
CONTINUOUS
 62
     7
 10
311.0
 20
213.0
 30
0.0
 40
2.5
 50
270.0
 51
90.0
  0
LINE
  5
10E
  8
DATA
  6
CONTINUOUS
 62
     7
 10
311.0
 20
215.5
 30
0.0
 11
295.0
 21
215.5
 31
0.0
  0
LINE
  5
10F
  8
DATA
  6
CONTINUOUS
 62
     7
 10
311.0
 20
210.5
 30
0.0
 11
295.0
 21
210.5
 31
0.0
  0
ARC
  5
110
  8
DATA
  6
CONTINUOUS
 62
     7
 10
208.0
 20
213.0
 30
0.0
 40
2.5
 50
90.0
 51
270.0
  0
ARC
  5
111
  8
DATA
  6
CONTINUOUS
 62
     7
 10
224.0
 20
213.0
 30
0.0
 40
2.5
 50
270.0
 51
90.0
  0
LINE
  5
112
  8
DATA
  6
CONTINUOUS
 62
     7
 10
224.0
 20
215.5
 30
0.0
 11
208.0
 21
215.5
 31
0.0
  0
LINE
  5
113
  8
DATA
  6
CONTINUOUS
 62
     7
 10
224.0
 20
210.5
 30
0.0
 11
208.0
 21
210.5
 31
0.0
  0
ARC
  5
114
  8
DATA
  6
CONTINUOUS
 62
     7
 10
179.0
 20
213.0
 30
0.0
 40
2.5
 50
90.0
 51
270.0
  0
ARC
  5
115
  8
DATA
  6
CONTINUOUS
 62
     7
 10
195.0
 20
213.0
 30
0.0
 40
2.5
 50
270.0
 51
90.0
  0
LINE
  5
116
  8
DATA
  6
CONTINUOUS
 62
     7
 10
195.0
 20
215.5
 30
0.0
 11
179.0
 21
215.5
 31
0.0
  0
LINE
  5
117
  8
DATA
  6
CONTINUOUS
 62
     7
 10
195.0
 20
210.5
 30
0.0
 11
179.0
 21
210.5
 31
0.0
  0
TEXT
  5
118
  8
DATA
 62
     7
 10
296.77493607450202
 20
211.423312877174
 30
0.0
 40
3.2576822916666659
  1
LOCATE
 41
0.7
 11
296.77493607450202
 21
214.6809951688407
 31
0.0
 73
     3
  0
TEXT
  5
119
  8
DATA
 62
     7
 10
185.92650020305589
 20
221.45483305167519
 30
0.0
 40
3.2576822916666659
  1
1
 41
0.7
 11
185.92650020305589
 21
224.71251534334189
 31
0.0
 73
     3
  0
TEXT
  5
11A
  8
DATA
 62
     7
 10
214.92650020305589
 20
221.45483305167519
 30
0.0
 40
3.2576822916666659
  1
2
 41
0.7
 11
214.92650020305589
 21
224.71251534334189
 31
0.0
 73
     3
  0
TEXT
  5
11B
  8
DATA
 62
     7
 10
243.92650020305589
 20
221.45483305167519
 30
0.0
 40
3.2576822916666659
  1
3
 41
0.7
 11
243.92650020305589
 21
224.71251534334189
 31
0.0
 73
     3
  0
TEXT
  5
11C
  8
DATA
 62
     7
 10
272.92650020305592
 20
221.45483305167519
 30
0.0
 40
3.2576822916666659
  1
4
 41
0.7
 11
272.92650020305592
 21
224.71251534334189
 31
0.0
 73
     3
  0
LINE
  5
11D
  8
DATA
  6
CONTINUOUS
 62
     7
 10
304.94934807509679
 20
224.10198137033171
 30
0.0
 11
303.89934807509678
 21
224.85198137033171
 31
0.0
  0
LINE
  5
11E
  8
DATA
  6
CONTINUOUS
 62
     7
 10
303.89934807509678
 20
223.35198137033171
 30
0.0
 11
304.94934807509679
 21
224.10198137033171
 31
0.0
  0
LINE
  5
11F
  8
DATA
  6
CONTINUOUS
 62
     7
 10
301.3847141000054
 20
224.45198137033171
 30
0.0
 11
303.89934807509678
 21
224.45198137033171
 31
0.0
  0
LINE
  5
120
  8
DATA
  6
CONTINUOUS
 62
     7
 10
303.89934807509678
 20
223.75198137033169
 30
0.0
 11
301.3847141000054
 21
223.75198137033169
 31
0.0
  0
LINE
  5
121
  8
DATA
  6
CONTINUOUS
 62
     7
 10
303.89934807509678
 20
223.35198137033171
 30
0.0
 11
303.89934807509678
 21
223.75198137033169
 31
0.0
  0
LINE
  5
122
  8
DATA
  6
CONTINUOUS
 62
     7
 10
303.89934807509678
 20
224.45198137033171
 30
0.0
 11
303.89934807509678
 21
224.864968233334
 31
0.0
  0
LINE
  5
123
  8
DATA
  6
CONTINUOUS
 62
     7
 10
301.3847141000054
 20
224.45198137033171
 30
0.0
 11
301.3847141000054
 21
223.75198137033169
 31
0.0
  0
LINE
  5
124
  8
DATA
  6
CONTINUOUS
 62
     7
 10
301.3847141000054
 20
221.885031766666
 30
0.0
 11
302.43471410000552
 21
222.63503176666609
 31
0.0
  0
LINE
  5
125
  8
DATA
  6
CONTINUOUS
 62
     7
 10
302.43471410000552
 20
221.135031766666
 30
0.0
 11
301.3847141000054
 21
221.885031766666
 31
0.0
  0
LINE
  5
126
  8
DATA
  6
CONTINUOUS
 62
     7
 10
304.94934807509679
 20
222.235031766666
 30
0.0
 11
302.43471410000552
 21
222.235031766666
 31
0.0
  0
LINE
  5
127
  8
DATA
  6
CONTINUOUS
 62
     7
 10
302.43471410000552
 20
221.53503176666601
 30
0.0
 11
304.94934807509679
 21
221.53503176666601
 31
0.0
  0
LINE
  5
128
  8
DATA
  6
CONTINUOUS
 62
     7
 10
302.43471410000552
 20
221.135031766666
 30
0.0
 11
302.43471410000552
 21
221.53503176666601
 31
0.0
  0
LINE
  5
129
  8
DATA
  6
CONTINUOUS
 62
     7
 10
302.43471410000552
 20
222.235031766666
 30
0.0
 11
302.43471410000552
 21
222.6480186296684
 31
0.0
  0
LINE
  5
12A
  8
DATA
  6
CONTINUOUS
 62
     7
 10
304.94934807509679
 20
222.235031766666
 30
0.0
 11
304.94934807509679
 21
221.53503176666601
 31
0.0
  0
ARC
  5
12B
  8
DATA
  6
CONTINUOUS
 62
     7
 10
182.9558151073692
 20
258.48338895157917
 30
0.0
 40
2.5
 50
90.0
 51
270.0
  0
ARC
  5
12C
  8
DATA
  6
CONTINUOUS
 62
     7
 10
198.9558151073692
 20
258.48338895157917
 30
0.0
 40
2.5
 50
270.0
 51
90.0
  0
LINE
  5
12D
  8
DATA
  6
CONTINUOUS
 62
     7
 10
198.9558151073692
 20
260.98338895157917
 30
0.0
 11
182.9558151073692
 21
260.98338895157917
 31
0.0
  0
LINE
  5
12E
  8
DATA
  6
CONTINUOUS
 62
     7
 10
198.9558151073692
 20
255.9833889515792
 30
0.0
 11
182.9558151073692
 21
255.9833889515792
 31
0.0
  0
ARC
  5
12F
  8
DATA
  6
CONTINUOUS
 62
     7
 10
182.9558151073692
 20
247.5166110484208
 30
0.0
 40
2.5
 50
90.0
 51
270.0
  0
ARC
  5
130
  8
DATA
  6
CONTINUOUS
 62
     7
 10
198.9558151073692
 20
247.5166110484208
 30
0.0
 40
2.5
 50
270.0
 51
90.0
  0
LINE
  5
131
  8
DATA
  6
CONTINUOUS
 62
     7
 10
198.9558151073692
 20
245.0166110484208
 30
0.0
 11
182.9558151073692
 21
245.0166110484208
 31
0.0
  0
LINE
  5
132
  8
DATA
  6
CONTINUOUS
 62
     7
 10
198.9558151073692
 20
250.0166110484208
 30
0.0
 11
182.9558151073692
 21
250.0166110484208
 31
0.0
  0
ARC
  5
133
  8
DATA
  6
CONTINUOUS
 62
     7
 10
243.04418489263071
 20
258.48338895157917
 30
0.0
 40
2.5
 50
270.0
 51
90.0
  0
ARC
  5
134
  8
DATA
  6
CONTINUOUS
 62
     7
 10
227.04418489263071
 20
258.48338895157917
 30
0.0
 40
2.5
 50
90.0
 51
270.0
  0
LINE
  5
135
  8
DATA
  6
CONTINUOUS
 62
     7
 10
227.04418489263071
 20
260.98338895157917
 30
0.0
 11
243.04418489263071
 21
260.98338895157917
 31
0.0
  0
LINE
  5
136
  8
DATA
  6
CONTINUOUS
 62
     7
 10
227.04418489263071
 20
255.9833889515792
 30
0.0
 11
243.04418489263071
 21
255.9833889515792
 31
0.0
  0
ARC
  5
137
  8
DATA
  6
CONTINUOUS
 62
     7
 10
243.04418489263071
 20
247.5166110484208
 30
0.0
 40
2.5
 50
270.0
 51
90.0
  0
ARC
  5
138
  8
DATA
  6
CONTINUOUS
 62
     7
 10
227.04418489263071
 20
247.5166110484208
 30
0.0
 40
2.5
 50
90.0
 51
270.0
  0
LINE
  5
139
  8
DATA
  6
CONTINUOUS
 62
     7
 10
227.04418489263071
 20
245.0166110484208
 30
0.0
 11
243.04418489263071
 21
245.0166110484208
 31
0.0
  0
LINE
  5
13A
  8
DATA
  6
CONTINUOUS
 62
     7
 10
227.04418489263071
 20
250.0166110484208
 30
0.0
 11
243.04418489263071
 21
250.0166110484208
 31
0.0
  0
ARC
  5
13B
  8
DATA
  6
CONTINUOUS
 62
     7
 10
191.089370913686
 20
266.9611296505264
 30
0.0
 40
2.5
 50
90.0
 51
270.0
  0
ARC
  5
13C
  8
DATA
  6
CONTINUOUS
 62
     7
 10
207.089370913686
 20
266.9611296505264
 30
0.0
 40
2.5
 50
270.0
 51
90.0
  0
LINE
  5
13D
  8
DATA
  6
CONTINUOUS
 62
     7
 10
207.089370913686
 20
269.4611296505264
 30
0.0
 11
191.089370913686
 21
269.4611296505264
 31
0.0
  0
LINE
  5
13E
  8
DATA
  6
CONTINUOUS
 62
     7
 10
207.089370913686
 20
264.4611296505264
 30
0.0
 11
191.089370913686
 21
264.4611296505264
 31
0.0
  0
ARC
  5
13F
  8
DATA
  6
CONTINUOUS
 62
     7
 10
234.910629086314
 20
266.9611296505264
 30
0.0
 40
2.5
 50
270.0
 51
90.0
  0
ARC
  5
140
  8
DATA
  6
CONTINUOUS
 62
     7
 10
218.910629086314
 20
266.9611296505264
 30
0.0
 40
2.5
 50
90.0
 51
270.0
  0
LINE
  5
141
  8
DATA
  6
CONTINUOUS
 62
     7
 10
218.910629086314
 20
269.4611296505264
 30
0.0
 11
234.910629086314
 21
269.4611296505264
 31
0.0
  0
LINE
  5
142
  8
DATA
  6
CONTINUOUS
 62
     7
 10
218.910629086314
 20
264.4611296505264
 30
0.0
 11
234.910629086314
 21
264.4611296505264
 31
0.0
  0
ARC
  5
143
  8
DATA
  6
CONTINUOUS
 62
     7
 10
191.089370913686
 20
239.0388703494736
 30
0.0
 40
2.5
 50
90.0
 51
270.0
  0
ARC
  5
144
  8
DATA
  6
CONTINUOUS
 62
     7
 10
207.089370913686
 20
239.0388703494736
 30
0.0
 40
2.5
 50
270.0
 51
90.0
  0
LINE
  5
145
  8
DATA
  6
CONTINUOUS
 62
     7
 10
207.089370913686
 20
236.5388703494736
 30
0.0
 11
191.089370913686
 21
236.5388703494736
 31
0.0
  0
LINE
  5
146
  8
DATA
  6
CONTINUOUS
 62
     7
 10
207.089370913686
 20
241.5388703494736
 30
0.0
 11
191.089370913686
 21
241.5388703494736
 31
0.0
  0
ARC
  5
147
  8
DATA
  6
CONTINUOUS
 62
     7
 10
234.910629086314
 20
239.0388703494736
 30
0.0
 40
2.5
 50
270.0
 51
90.0
  0
ARC
  5
148
  8
DATA
  6
CONTINUOUS
 62
     7
 10
218.910629086314
 20
239.0388703494736
 30
0.0
 40
2.5
 50
90.0
 51
270.0
  0
LINE
  5
149
  8
DATA
  6
CONTINUOUS
 62
     7
 10
218.910629086314
 20
236.5388703494736
 30
0.0
 11
234.910629086314
 21
236.5388703494736
 31
0.0
  0
LINE
  5
14A
  8
DATA
  6
CONTINUOUS
 62
     7
 10
218.910629086314
 20
241.5388703494736
 30
0.0
 11
234.910629086314
 21
241.5388703494736
 31
0.0
  0
ARC
  5
14B
  8
DATA
  6
CONTINUOUS
 62
     7
 10
284.91062908631397
 20
239.0388703494736
 30
0.0
 40
2.5
 50
270.0
 51
90.0
  0
ARC
  5
14C
  8
DATA
  6
CONTINUOUS
 62
     7
 10
268.91062908631397
 20
239.0388703494736
 30
0.0
 40
2.5
 50
90.0
 51
270.0
  0
LINE
  5
14D
  8
DATA
  6
CONTINUOUS
 62
     7
 10
268.91062908631397
 20
236.5388703494736
 30
0.0
 11
284.91062908631397
 21
236.5388703494736
 31
0.0
  0
LINE
  5
14E
  8
DATA
  6
CONTINUOUS
 62
     7
 10
268.91062908631397
 20
241.5388703494736
 30
0.0
 11
284.91062908631397
 21
241.5388703494736
 31
0.0
  0
ARC
  5
14F
  8
DATA
  6
CONTINUOUS
 62
     7
 10
277.90505341305538
 20
252.66987649918681
 30
0.0
 40
12.99999999999995
 50
77.44691380775744
 51
119.4742331453608
  0
ARC
  5
150
  8
DATA
  6
CONTINUOUS
 62
     7
 10
282.25824657738571
 20
252.13639198981861
 30
0.0
 40
16.000000000000071
 50
90.999285952235198
 51
132.21006016173021
  0
LINE
  5
151
  8
DATA
  6
CONTINUOUS
 62
     7
 10
280.73052654815928
 20
265.3591121563415
 30
0.0
 11
281.97920744379343
 21
268.13395859108402
 31
0.0
  0
LINE
  5
152
  8
DATA
  6
CONTINUOUS
 62
     7
 10
299.25
 20
237.5990754405195
 30
0.0
 11
299.25
 21
273.2000000000001
 31
0.0
  0
LINE
  5
153
  8
DATA
  6
CONTINUOUS
 62
     7
 10
305.75
 20
236.5990754405195
 30
0.0
 11
300.25
 21
236.5990754405195
 31
0.0
  0
LINE
  5
154
  8
DATA
  6
CONTINUOUS
 62
     7
 10
306.75
 20
273.2000000000001
 30
0.0
 11
306.75
 21
237.5990754405195
 31
0.0
  0
LINE
  5
155
  8
DATA
  6
CONTINUOUS
 62
     7
 10
302.5
 20
240.39907544051951
 30
0.0
 11
303.5
 21
240.39907544051951
 31
0.0
  0
LINE
  5
156
  8
DATA
  6
CONTINUOUS
 62
     7
 10
303.5
 20
238.39907544051951
 30
0.0
 11
302.5
 21
238.39907544051951
 31
0.0
  0
ARC
  5
157
  8
DATA
  6
CONTINUOUS
 62
     7
 10
302.5
 20
239.39907544051951
 30
0.0
 40
1.0
 50
90.0
 51
270.0
  0
ARC
  5
158
  8
DATA
  6
CONTINUOUS
 62
     7
 10
303.5
 20
239.39907544051951
 30
0.0
 40
1.0
 50
270.0
 51
90.0
  0
LINE
  5
159
  8
DATA
  6
CONTINUOUS
 62
     7
 10
302.5
 20
244.39907544051951
 30
0.0
 11
303.5
 21
244.39907544051951
 31
0.0
  0
LINE
  5
15A
  8
DATA
  6
CONTINUOUS
 62
     7
 10
303.5
 20
242.39907544051951
 30
0.0
 11
302.5
 21
242.39907544051951
 31
0.0
  0
ARC
  5
15B
  8
DATA
  6
CONTINUOUS
 62
     7
 10
302.5
 20
243.39907544051951
 30
0.0
 40
1.0
 50
90.0
 51
270.0
  0
ARC
  5
15C
  8
DATA
  6
CONTINUOUS
 62
     7
 10
303.5
 20
243.39907544051951
 30
0.0
 40
1.0
 50
270.0
 51
90.0
  0
LINE
  5
15D
  8
DATA
  6
CONTINUOUS
 62
     7
 10
302.5
 20
248.39907544051951
 30
0.0
 11
303.5
 21
248.39907544051951
 31
0.0
  0
LINE
  5
15E
  8
DATA
  6
CONTINUOUS
 62
     7
 10
303.5
 20
246.39907544051951
 30
0.0
 11
302.5
 21
246.39907544051951
 31
0.0
  0
ARC
  5
15F
  8
DATA
  6
CONTINUOUS
 62
     7
 10
302.5
 20
247.39907544051951
 30
0.0
 40
1.0
 50
90.0
 51
270.0
  0
ARC
  5
160
  8
DATA
  6
CONTINUOUS
 62
     7
 10
303.5
 20
247.39907544051951
 30
0.0
 40
1.0
 50
270.0
 51
90.0
  0
LINE
  5
161
  8
DATA
  6
CONTINUOUS
 62
     7
 10
302.5
 20
252.39907544051951
 30
0.0
 11
303.5
 21
252.39907544051951
 31
0.0
  0
LINE
  5
162
  8
DATA
  6
CONTINUOUS
 62
     7
 10
303.5
 20
250.39907544051951
 30
0.0
 11
302.5
 21
250.39907544051951
 31
0.0
  0
ARC
  5
163
  8
DATA
  6
CONTINUOUS
 62
     7
 10
302.5
 20
251.39907544051951
 30
0.0
 40
1.0
 50
90.0
 51
270.0
  0
ARC
  5
164
  8
DATA
  6
CONTINUOUS
 62
     7
 10
303.5
 20
251.39907544051951
 30
0.0
 40
1.0
 50
270.0
 51
90.0
  0
LINE
  5
165
  8
DATA
  6
CONTINUOUS
 62
     7
 10
302.5
 20
256.39907544051948
 30
0.0
 11
303.5
 21
256.39907544051948
 31
0.0
  0
LINE
  5
166
  8
DATA
  6
CONTINUOUS
 62
     7
 10
303.5
 20
254.39907544051951
 30
0.0
 11
302.5
 21
254.39907544051951
 31
0.0
  0
ARC
  5
167
  8
DATA
  6
CONTINUOUS
 62
     7
 10
302.5
 20
255.39907544051951
 30
0.0
 40
1.0
 50
90.0
 51
270.0
  0
ARC
  5
168
  8
DATA
  6
CONTINUOUS
 62
     7
 10
303.5
 20
255.39907544051951
 30
0.0
 40
1.0
 50
270.0
 51
90.0
  0
LINE
  5
169
  8
DATA
  6
CONTINUOUS
 62
     7
 10
302.5
 20
260.39907544051948
 30
0.0
 11
303.5
 21
260.39907544051948
 31
0.0
  0
LINE
  5
16A
  8
DATA
  6
CONTINUOUS
 62
     7
 10
303.5
 20
258.39907544051948
 30
0.0
 11
302.5
 21
258.39907544051948
 31
0.0
  0
ARC
  5
16B
  8
DATA
  6
CONTINUOUS
 62
     7
 10
302.5
 20
259.39907544051948
 30
0.0
 40
1.0
 50
90.0
 51
270.0
  0
ARC
  5
16C
  8
DATA
  6
CONTINUOUS
 62
     7
 10
303.5
 20
259.39907544051948
 30
0.0
 40
1.0
 50
270.0
 51
90.0
  0
LINE
  5
16D
  8
DATA
  6
CONTINUOUS
 62
     7
 10
302.5
 20
264.39907544051948
 30
0.0
 11
303.5
 21
264.39907544051948
 31
0.0
  0
LINE
  5
16E
  8
DATA
  6
CONTINUOUS
 62
     7
 10
303.5
 20
262.39907544051948
 30
0.0
 11
302.5
 21
262.39907544051948
 31
0.0
  0
ARC
  5
16F
  8
DATA
  6
CONTINUOUS
 62
     7
 10
302.5
 20
263.39907544051948
 30
0.0
 40
1.0
 50
90.0
 51
270.0
  0
ARC
  5
170
  8
DATA
  6
CONTINUOUS
 62
     7
 10
303.5
 20
263.39907544051948
 30
0.0
 40
1.0
 50
270.0
 51
90.0
  0
LINE
  5
171
  8
DATA
  6
CONTINUOUS
 62
     7
 10
302.5
 20
268.39907544051948
 30
0.0
 11
303.5
 21
268.39907544051948
 31
0.0
  0
LINE
  5
172
  8
DATA
  6
CONTINUOUS
 62
     7
 10
303.5
 20
266.39907544051948
 30
0.0
 11
302.5
 21
266.39907544051948
 31
0.0
  0
ARC
  5
173
  8
DATA
  6
CONTINUOUS
 62
     7
 10
302.5
 20
267.39907544051948
 30
0.0
 40
1.0
 50
90.0
 51
270.0
  0
ARC
  5
174
  8
DATA
  6
CONTINUOUS
 62
     7
 10
303.5
 20
267.39907544051948
 30
0.0
 40
1.0
 50
270.0
 51
90.0
  0
LINE
  5
175
  8
DATA
  6
CONTINUOUS
 62
     7
 10
302.5
 20
272.39907544051948
 30
0.0
 11
303.5
 21
272.39907544051948
 31
0.0
  0
LINE
  5
176
  8
DATA
  6
CONTINUOUS
 62
     7
 10
303.5
 20
270.39907544051948
 30
0.0
 11
302.5
 21
270.39907544051948
 31
0.0
  0
ARC
  5
177
  8
DATA
  6
CONTINUOUS
 62
     7
 10
302.5
 20
271.39907544051948
 30
0.0
 40
1.0
 50
90.0
 51
270.0
  0
ARC
  5
178
  8
DATA
  6
CONTINUOUS
 62
     7
 10
303.5
 20
271.39907544051948
 30
0.0
 40
1.0
 50
270.0
 51
90.0
  0
LINE
  5
179
  8
DATA
  6
CONTINUOUS
 62
     7
 10
300.25
 20
274.19999999999999
 30
0.0
 11
305.75
 21
274.19999999999999
 31
0.0
  0
ARC
  5
17A
  8
DATA
  6
CONTINUOUS
 62
     7
 10
300.25
 20
273.2000000000001
 30
0.0
 40
1.0
 50
90.0
 51
180.0
  0
ARC
  5
17B
  8
DATA
  6
CONTINUOUS
 62
     7
 10
305.75
 20
273.2000000000001
 30
0.0
 40
1.0
 50
0.0
 51
90.0
  0
ARC
  5
17C
  8
DATA
  6
CONTINUOUS
 62
     7
 10
300.25
 20
237.5990754405195
 30
0.0
 40
1.0
 50
180.0
 51
270.0
  0
ARC
  5
17D
  8
DATA
  6
CONTINUOUS
 62
     7
 10
305.75
 20
237.5990754405195
 30
0.0
 40
1.0
 50
270.0
 51
0.0
  0
LINE
  5
17E
  8
DATA
  6
CONTINUOUS
 62
     7
 10
160.0
 20
388.0
 30
0.0
 11
160.0
 21
390.89999999999998
 31
0.0
  0
LINE
  5
17F
  8
DATA
  6
CONTINUOUS
 62
     7
 10
330.0
 20
388.0
 30
0.0
 11
330.0
 21
390.89999999999998
 31
0.0
  0
LINE
  5
180
  8
DATA
  6
CONTINUOUS
 62
     7
 10
167.0
 20
395.75
 30
0.0
 11
323.0
 21
395.75
 31
0.0
  0
LINE
  5
181
  8
DATA
  6
CONTINUOUS
 62
     7
 10
179.1999999999999
 20
360.0
 30
0.0
 11
182.80000000000001
 21
360.0
 31
0.0
  0
LINE
  5
182
  8
DATA
  6
CONTINUOUS
 62
     7
 10
176.0
 20
362.0
 30
0.0
 11
314.0
 21
362.0
 31
0.0
  0
ARC
  5
183
  8
DATA
  6
CONTINUOUS
 62
     7
 10
179.1999999999999
 20
361.5
 30
0.0
 40
1.5
 50
180.0
 51
270.0
  0
ARC
  5
184
  8
DATA
  6
CONTINUOUS
 62
     7
 10
182.80000000000001
 20
361.5
 30
0.0
 40
1.5
 50
270.0
 51
0.0
  0
LINE
  5
185
  8
DATA
  6
CONTINUOUS
 62
     7
 10
177.69999999999999
 20
361.5
 30
0.0
 11
177.69999999999999
 21
362.0
 31
0.0
  0
LINE
  5
186
  8
DATA
  6
CONTINUOUS
 62
     7
 10
184.30000000000001
 20
361.5
 30
0.0
 11
184.30000000000001
 21
362.00999999999999
 31
0.0
  0
LINE
  5
187
  8
DATA
  6
CONTINUOUS
 62
     7
 10
293.19999999999999
 20
360.0
 30
0.0
 11
296.7999999999999
 21
360.0
 31
0.0
  0
ARC
  5
188
  8
DATA
  6
CONTINUOUS
 62
     7
 10
293.19999999999999
 20
361.5
 30
0.0
 40
1.5
 50
180.0
 51
270.0
  0
ARC
  5
189
  8
DATA
  6
CONTINUOUS
 62
     7
 10
296.7999999999999
 20
361.5
 30
0.0
 40
1.5
 50
270.0
 51
0.0
  0
LINE
  5
18A
  8
DATA
  6
CONTINUOUS
 62
     7
 10
291.69999999999999
 20
361.5
 30
0.0
 11
291.69999999999999
 21
362.0
 31
0.0
  0
LINE
  5
18B
  8
DATA
  6
CONTINUOUS
 62
     7
 10
298.2999999999999
 20
361.5
 30
0.0
 11
298.2999999999999
 21
362.00999999999999
 31
0.0
  0
LINE
  5
18C
  8
DATA
  6
CONTINUOUS
 62
     7
 10
245.0
 20
378.0
 30
0.0
 11
278.0
 21
378.0
 31
0.0
  0
LINE
  5
18D
  8
DATA
  6
CONTINUOUS
 62
     7
 10
278.0
 20
378.0
 30
0.0
 11
278.0
 21
362.0
 31
0.0
  0
LINE
  5
18E
  8
DATA
  6
CONTINUOUS
 62
     7
 10
245.0
 20
378.0
 30
0.0
 11
245.0
 21
362.0
 31
0.0
  0
LINE
  5
18F
  8
DATA
  6
CONTINUOUS
 62
     7
 10
197.34999999999999
 20
379.0
 30
0.0
 11
197.34999999999999
 21
386.0
 31
0.0
  0
LINE
  5
190
  8
DATA
  6
CONTINUOUS
 62
     7
 10
200.34999999999999
 20
379.0
 30
0.0
 11
200.34999999999999
 21
386.0
 31
0.0
  0
LINE
  5
191
  8
DATA
  6
CONTINUOUS
 62
     7
 10
197.34999999999999
 20
379.0
 30
0.0
 11
200.34999999999999
 21
379.0
 31
0.0
  0
LINE
  5
192
  8
DATA
  6
CONTINUOUS
 62
     7
 10
245.0
 20
362.80000000000001
 30
0.0
 11
278.0
 21
362.80000000000001
 31
0.0
  0
LINE
  5
193
  8
DATA
  6
CONTINUOUS
 62
     7
 10
259.49999999999972
 20
364.46249999999998
 30
0.0
 11
259.49999999999972
 21
376.46249999999998
 31
0.0
  0
LINE
  5
194
  8
DATA
  6
CONTINUOUS
 62
     7
 10
274.50000000000028
 20
364.46249999999998
 30
0.0
 11
259.49999999999972
 21
364.46249999999998
 31
0.0
  0
LINE
  5
195
  8
DATA
  6
CONTINUOUS
 62
     7
 10
274.50000000000028
 20
376.46249999999998
 30
0.0
 11
274.50000000000028
 21
364.46249999999998
 31
0.0
  0
LINE
  5
196
  8
DATA
  6
CONTINUOUS
 62
     7
 10
259.49999999999972
 20
376.46249999999998
 30
0.0
 11
274.50000000000028
 21
376.46249999999998
 31
0.0
  0
LINE
  5
197
  8
DATA
  6
CONTINUOUS
 62
     7
 10
260.99999999999972
 20
374.16250000000008
 30
0.0
 11
273.0
 21
374.16250000000008
 31
0.0
  0
LINE
  5
198
  8
DATA
  6
CONTINUOUS
 62
     7
 10
263.69999999999987
 20
365.5125000000001
 30
0.0
 11
270.30000000000001
 21
365.5125000000001
 31
0.0
  0
LINE
  5
199
  8
DATA
  6
CONTINUOUS
 62
     7
 10
263.69999999999987
 20
365.5125000000001
 30
0.0
 11
263.69999999999987
 21
367.96249999999998
 31
0.0
  0
LINE
  5
19A
  8
DATA
  6
CONTINUOUS
 62
     7
 10
270.30000000000001
 20
365.5125000000001
 30
0.0
 11
270.30000000000001
 21
367.96249999999998
 31
0.0
  0
LINE
  5
19B
  8
DATA
  6
CONTINUOUS
 62
     7
 10
263.69999999999987
 20
367.96249999999998
 30
0.0
 11
260.99999999999972
 21
367.96249999999998
 31
0.0
  0
LINE
  5
19C
  8
DATA
  6
CONTINUOUS
 62
     7
 10
270.30000000000001
 20
367.96249999999998
 30
0.0
 11
273.0
 21
367.96249999999998
 31
0.0
  0
LINE
  5
19D
  8
DATA
  6
CONTINUOUS
 62
     7
 10
260.99999999999972
 20
374.16250000000008
 30
0.0
 11
260.99999999999972
 21
367.96249999999998
 31
0.0
  0
LINE
  5
19E
  8
DATA
  6
CONTINUOUS
 62
     7
 10
273.0
 20
374.16250000000008
 30
0.0
 11
273.0
 21
367.96249999999998
 31
0.0
  0
LINE
  5
19F
  8
DATA
  6
CONTINUOUS
 62
     7
 10
247.0057154720198
 20
369.2451262382757
 30
0.0
 11
247.0057154720198
 21
376.18438577010198
 31
0.0
  0
LINE
  5
1A0
  8
DATA
  6
CONTINUOUS
 62
     7
 10
255.5112865684828
 20
370.27865281705169
 30
0.0
 11
257.02698991727829
 21
370.27865281705169
 31
0.0
  0
LINE
  5
1A1
  8
DATA
  6
CONTINUOUS
 62
     7
 10
255.5112865684828
 20
369.4421337652667
 30
0.0
 11
255.5112865684828
 21
370.27865281705169
 31
0.0
  0
LINE
  5
1A2
  8
DATA
  6
CONTINUOUS
 62
     7
 10
253.5425676326644
 20
369.4421337652667
 30
0.0
 11
255.5112865684828
 21
369.4421337652667
 31
0.0
  0
LINE
  5
1A3
  8
DATA
  6
CONTINUOUS
 62
     7
 10
253.5425676326644
 20
370.27865281705169
 30
0.0
 11
253.5425676326644
 21
369.4421337652667
 31
0.0
  0
LINE
  5
1A4
  8
DATA
  6
CONTINUOUS
 62
     7
 10
250.51116093507321
 20
370.27865281705169
 30
0.0
 11
253.5425676326644
 21
370.27865281705169
 31
0.0
  0
LINE
  5
1A5
  8
DATA
  6
CONTINUOUS
 62
     7
 10
250.51116093507321
 20
369.4421337652667
 30
0.0
 11
250.51116093507321
 21
370.27865281705169
 31
0.0
  0
LINE
  5
1A6
  8
DATA
  6
CONTINUOUS
 62
     7
 10
248.54278108277839
 20
369.4421337652667
 30
0.0
 11
250.51116093507321
 21
369.4421337652667
 31
0.0
  0
LINE
  5
1A7
  8
DATA
  6
CONTINUOUS
 62
     7
 10
248.54278108277839
 20
370.27865281705169
 30
0.0
 11
248.54278108277839
 21
369.4421337652667
 31
0.0
  0
LINE
  5
1A8
  8
DATA
  6
CONTINUOUS
 62
     7
 10
247.02673865045961
 20
370.27865281705169
 30
0.0
 11
248.54278108277839
 21
370.27865281705169
 31
0.0
  0
LINE
  5
1A9
  8
DATA
  6
CONTINUOUS
 62
     7
 10
257.02698991727829
 20
369.2451262382757
 30
0.0
 11
247.02673865045961
 21
369.2451262382757
 31
0.0
  0
LINE
  5
1AA
  8
DATA
  6
CONTINUOUS
 62
     7
 10
257.02698991727829
 20
369.2451262382757
 30
0.0
 11
247.02673865045961
 21
369.2451262382757
 31
0.0
  0
POLYLINE
  5
1AB
  8
DATA
  6
CONTINUOUS
 62
     7
 66
     1
 10
0.0
 20
0.0
 30
0.0
 70
   129
  0
VERTEX
  5
37F
  8
DATA
  6
CONTINUOUS
 62
     7
 10
249.0347912749713
 20
372.93638947205392
 30
0.0
  0
VERTEX
  5
380
  8
DATA
  6
CONTINUOUS
 62
     7
 10
250.0191507428803
 20
372.93638947205392
 30
0.0
  0
VERTEX
  5
381
  8
DATA
  6
CONTINUOUS
 62
     7
 10
250.0191507428803
 20
371.95203000414477
 30
0.0
  0
VERTEX
  5
382
  8
DATA
  6
CONTINUOUS
 62
     7
 10
249.0347912749713
 20
371.95203000414477
 30
0.0
  0
VERTEX
  5
383
  8
DATA
  6
CONTINUOUS
 62
     7
 10
249.0347912749713
 20
372.93638947205392
 30
0.0
  0
SEQEND
  5
384
  8
DATA
  6
CONTINUOUS
 62
     7
  0
POLYLINE
  5
1B2
  8
DATA
  6
CONTINUOUS
 62
     7
 66
     1
 10
0.0
 20
0.0
 30
0.0
 70
   129
  0
VERTEX
  5
385
  8
DATA
  6
CONTINUOUS
 62
     7
 10
254.0349169083805
 20
372.93638947205392
 30
0.0
  0
VERTEX
  5
386
  8
DATA
  6
CONTINUOUS
 62
     7
 10
255.01893729276659
 20
372.93638947205392
 30
0.0
  0
VERTEX
  5
387
  8
DATA
  6
CONTINUOUS
 62
     7
 10
255.01893729276659
 20
371.95203000414477
 30
0.0
  0
VERTEX
  5
388
  8
DATA
  6
CONTINUOUS
 62
     7
 10
254.0349169083805
 20
371.95203000414477
 30
0.0
  0
VERTEX
  5
389
  8
DATA
  6
CONTINUOUS
 62
     7
 10
254.0349169083805
 20
372.93638947205392
 30
0.0
  0
SEQEND
  5
38A
  8
DATA
  6
CONTINUOUS
 62
     7
  0
ARC
  5
1B9
  8
DATA
  6
CONTINUOUS
 62
     7
 10
254.5269271005736
 20
372.44468199070047
 30
0.0
 40
3.739703779401482
 50
48.047141244819777
 51
131.95285875518019
  0
ARC
  5
1BA
  8
DATA
  6
CONTINUOUS
 62
     7
 10
249.5162898779443
 20
372.41720701875403
 30
0.0
 40
3.7671787513480259
 50
48.207600377215719
 51
131.79239962278399
  0
ARC
  5
1BB
  8
DATA
  6
CONTINUOUS
 62
     7
 10
254.5269271005736
 20
372.37893135001298
 30
0.0
 40
4.5532183596709874
 50
56.696355838467838
 51
123.30364416153211
  0
ARC
  5
1BC
  8
DATA
  6
CONTINUOUS
 62
     7
 10
249.5162898779443
 20
372.34371317658599
 30
0.0
 40
4.5884365330979326
 50
56.828120668239592
 51
123.1718793317601
  0
LINE
  5
1BD
  8
DATA
  6
CONTINUOUS
 62
     7
 10
257.02698991727829
 20
376.1843857701021
 30
0.0
 11
257.02698991727829
 21
369.2451262382757
 31
0.0
  0
LINE
  5
1BE
  8
DATA
  6
CONTINUOUS
 62
     7
 10
247.02673865045961
 20
369.2451262382757
 30
0.0
 11
247.0057154720198
 21
369.2451262382757
 31
0.0
  0
LINE
  5
1BF
  8
DATA
  6
CONTINUOUS
 62
     7
 10
196.15000000000001
 20
386.0
 30
0.0
 11
201.55000000000001
 21
386.0
 31
0.0
  0
LINE
  5
1C0
  8
DATA
  6
CONTINUOUS
 62
     7
 10
201.55000000000001
 20
388.0
 30
0.0
 11
201.55000000000001
 21
386.0
 31
0.0
  0
LINE
  5
1C1
  8
DATA
  6
CONTINUOUS
 62
     7
 10
196.15000000000001
 20
386.0
 30
0.0
 11
196.15000000000001
 21
388.0
 31
0.0
  0
LINE
  5
1C2
  8
DATA
  6
CONTINUOUS
 62
     7
 10
198.84999999999999
 20
386.0
 30
0.0
 11
198.84999999999999
 21
388.0
 31
0.0
  0
LINE
  5
1C3
  8
DATA
  6
CONTINUOUS
 62
     7
 10
197.34999999999999
 20
385.55366972477071
 30
0.0
 11
199.29599999999991
 21
386.0
 31
0.0
  0
LINE
  5
1C4
  8
DATA
  6
CONTINUOUS
 62
     7
 10
197.34999999999999
 20
384.75366972477059
 30
0.0
 11
200.34999999999999
 21
385.44174311926599
 31
0.0
  0
LINE
  5
1C5
  8
DATA
  6
CONTINUOUS
 62
     7
 10
197.34999999999999
 20
383.95366972477052
 30
0.0
 11
200.34999999999999
 21
384.64174311926621
 31
0.0
  0
LINE
  5
1C6
  8
DATA
  6
CONTINUOUS
 62
     7
 10
197.34999999999999
 20
383.15366972477068
 30
0.0
 11
200.34999999999999
 21
383.84174311926603
 31
0.0
  0
LINE
  5
1C7
  8
DATA
  6
CONTINUOUS
 62
     7
 10
197.34999999999999
 20
382.35366972477073
 30
0.0
 11
200.34999999999999
 21
383.04174311926607
 31
0.0
  0
LINE
  5
1C8
  8
DATA
  6
CONTINUOUS
 62
     7
 10
197.34999999999999
 20
381.5536697247706
 30
0.0
 11
200.34999999999999
 21
382.24174311926612
 31
0.0
  0
LINE
  5
1C9
  8
DATA
  6
CONTINUOUS
 62
     7
 10
197.34999999999999
 20
380.7536697247707
 30
0.0
 11
200.34999999999999
 21
381.44174311926599
 31
0.0
  0
LINE
  5
1CA
  8
DATA
  6
CONTINUOUS
 62
     7
 10
197.34999999999999
 20
379.95366972477058
 30
0.0
 11
200.34999999999999
 21
380.64174311926621
 31
0.0
  0
LINE
  5
1CB
  8
DATA
  6
CONTINUOUS
 62
     7
 10
197.34999999999999
 20
379.15366972477068
 30
0.0
 11
200.34999999999999
 21
379.84174311926603
 31
0.0
  0
LINE
  5
1CC
  8
DATA
  6
CONTINUOUS
 62
     7
 10
289.65000000000009
 20
379.0
 30
0.0
 11
289.65000000000009
 21
386.0
 31
0.0
  0
LINE
  5
1CD
  8
DATA
  6
CONTINUOUS
 62
     7
 10
292.65000000000009
 20
379.0
 30
0.0
 11
292.65000000000009
 21
386.0
 31
0.0
  0
LINE
  5
1CE
  8
DATA
  6
CONTINUOUS
 62
     7
 10
289.65000000000009
 20
379.0
 30
0.0
 11
292.65000000000009
 21
379.0
 31
0.0
  0
LINE
  5
1CF
  8
DATA
  6
CONTINUOUS
 62
     7
 10
288.4500000000001
 20
386.0
 30
0.0
 11
293.85000000000002
 21
386.0
 31
0.0
  0
LINE
  5
1D0
  8
DATA
  6
CONTINUOUS
 62
     7
 10
293.85000000000002
 20
388.0
 30
0.0
 11
293.85000000000002
 21
386.0
 31
0.0
  0
LINE
  5
1D1
  8
DATA
  6
CONTINUOUS
 62
     7
 10
288.4500000000001
 20
386.0
 30
0.0
 11
288.4500000000001
 21
388.0
 31
0.0
  0
LINE
  5
1D2
  8
DATA
  6
CONTINUOUS
 62
     7
 10
291.15000000000009
 20
386.0
 30
0.0
 11
291.15000000000009
 21
388.0
 31
0.0
  0
LINE
  5
1D3
  8
DATA
  6
CONTINUOUS
 62
     7
 10
289.65000000000009
 20
385.55366972477071
 30
0.0
 11
291.59599999999989
 21
386.0
 31
0.0
  0
LINE
  5
1D4
  8
DATA
  6
CONTINUOUS
 62
     7
 10
289.65000000000009
 20
384.75366972477059
 30
0.0
 11
292.65000000000009
 21
385.44174311926599
 31
0.0
  0
LINE
  5
1D5
  8
DATA
  6
CONTINUOUS
 62
     7
 10
289.65000000000009
 20
383.95366972477052
 30
0.0
 11
292.65000000000009
 21
384.64174311926621
 31
0.0
  0
LINE
  5
1D6
  8
DATA
  6
CONTINUOUS
 62
     7
 10
289.65000000000009
 20
383.15366972477068
 30
0.0
 11
292.65000000000009
 21
383.84174311926603
 31
0.0
  0
LINE
  5
1D7
  8
DATA
  6
CONTINUOUS
 62
     7
 10
289.65000000000009
 20
382.35366972477073
 30
0.0
 11
292.65000000000009
 21
383.04174311926607
 31
0.0
  0
LINE
  5
1D8
  8
DATA
  6
CONTINUOUS
 62
     7
 10
289.65000000000009
 20
381.5536697247706
 30
0.0
 11
292.65000000000009
 21
382.24174311926612
 31
0.0
  0
LINE
  5
1D9
  8
DATA
  6
CONTINUOUS
 62
     7
 10
289.65000000000009
 20
380.7536697247707
 30
0.0
 11
292.65000000000009
 21
381.44174311926599
 31
0.0
  0
LINE
  5
1DA
  8
DATA
  6
CONTINUOUS
 62
     7
 10
289.65000000000009
 20
379.95366972477058
 30
0.0
 11
292.65000000000009
 21
380.64174311926621
 31
0.0
  0
LINE
  5
1DB
  8
DATA
  6
CONTINUOUS
 62
     7
 10
289.65000000000009
 20
379.15366972477068
 30
0.0
 11
292.65000000000009
 21
379.84174311926603
 31
0.0
  0
LINE
  5
1DC
  8
DATA
  6
CONTINUOUS
 62
     7
 10
183.80000000000001
 20
399.25
 30
0.0
 11
190.19999999999999
 21
399.25
 31
0.0
  0
LINE
  5
1DD
  8
DATA
  6
CONTINUOUS
 62
     7
 10
183.80000000000001
 20
399.25
 30
0.0
 11
183.80000000000001
 21
395.75
 31
0.0
  0
LINE
  5
1DE
  8
DATA
  6
CONTINUOUS
 62
     7
 10
190.19999999999999
 20
399.25
 30
0.0
 11
190.19999999999999
 21
395.75
 31
0.0
  0
LINE
  5
1DF
  8
DATA
  6
CONTINUOUS
 62
     7
 10
212.80000000000001
 20
399.25
 30
0.0
 11
219.19999999999999
 21
399.25
 31
0.0
  0
LINE
  5
1E0
  8
DATA
  6
CONTINUOUS
 62
     7
 10
212.80000000000001
 20
399.25
 30
0.0
 11
212.80000000000001
 21
395.75
 31
0.0
  0
LINE
  5
1E1
  8
DATA
  6
CONTINUOUS
 62
     7
 10
219.19999999999999
 20
399.25
 30
0.0
 11
219.19999999999999
 21
395.75
 31
0.0
  0
LINE
  5
1E2
  8
DATA
  6
CONTINUOUS
 62
     7
 10
241.80000000000001
 20
399.25
 30
0.0
 11
248.19999999999999
 21
399.25
 31
0.0
  0
LINE
  5
1E3
  8
DATA
  6
CONTINUOUS
 62
     7
 10
241.80000000000001
 20
399.25
 30
0.0
 11
241.80000000000001
 21
395.75
 31
0.0
  0
LINE
  5
1E4
  8
DATA
  6
CONTINUOUS
 62
     7
 10
248.19999999999999
 20
399.25
 30
0.0
 11
248.19999999999999
 21
395.75
 31
0.0
  0
LINE
  5
1E5
  8
DATA
  6
CONTINUOUS
 62
     7
 10
270.80000000000001
 20
399.25
 30
0.0
 11
277.19999999999999
 21
399.25
 31
0.0
  0
LINE
  5
1E6
  8
DATA
  6
CONTINUOUS
 62
     7
 10
270.80000000000001
 20
399.25
 30
0.0
 11
270.80000000000001
 21
395.75
 31
0.0
  0
LINE
  5
1E7
  8
DATA
  6
CONTINUOUS
 62
     7
 10
277.19999999999999
 20
399.25
 30
0.0
 11
277.19999999999999
 21
395.75
 31
0.0
  0
LINE
  5
1E8
  8
DATA
  6
CONTINUOUS
 62
     7
 10
299.80000000000001
 20
399.25
 30
0.0
 11
306.19999999999999
 21
399.25
 31
0.0
  0
LINE
  5
1E9
  8
DATA
  6
CONTINUOUS
 62
     7
 10
299.80000000000001
 20
399.25
 30
0.0
 11
299.80000000000001
 21
395.75
 31
0.0
  0
LINE
  5
1EA
  8
DATA
  6
CONTINUOUS
 62
     7
 10
306.19999999999999
 20
399.25
 30
0.0
 11
306.19999999999999
 21
395.75
 31
0.0
  0
LINE
  5
1EB
  8
DATA
  6
CONTINUOUS
 62
     7
 10
206.69999999999999
 20
412.5
 30
0.0
 11
219.30000000000001
 21
412.5
 31
0.0
  0
LINE
  5
1EC
  8
DATA
  6
CONTINUOUS
 62
     7
 10
206.69999999999999
 20
412.5
 30
0.0
 11
206.69999999999999
 21
411.5
 31
0.0
  0
LINE
  5
1ED
  8
DATA
  6
CONTINUOUS
 62
     7
 10
219.30000000000001
 20
412.5
 30
0.0
 11
219.30000000000001
 21
411.5
 31
0.0
  0
LINE
  5
1EE
  8
DATA
  6
CONTINUOUS
 62
     7
 10
206.34999999999999
 20
411.5
 30
0.0
 11
219.65000000000001
 21
411.5
 31
0.0
  0
LINE
  5
1EF
  8
DATA
  6
CONTINUOUS
 62
     7
 10
206.34999999999999
 20
411.5
 30
0.0
 11
205.59554849764751
 21
395.75
 31
0.0
  0
LINE
  5
1F0
  8
DATA
  6
CONTINUOUS
 62
     7
 10
220.4375
 20
395.75
 30
0.0
 11
219.65000000000001
 21
411.5
 31
0.0
  0
LINE
  5
1F1
  8
DATA
  6
CONTINUOUS
 62
     7
 10
214.0
 20
411.5
 30
0.0
 11
214.0
 21
399.25
 31
0.0
  0
LINE
  5
1F2
  8
DATA
  6
CONTINUOUS
 62
     7
 10
212.0
 20
395.75
 30
0.0
 11
212.0
 21
411.5
 31
0.0
  0
LINE
  5
1F3
  8
DATA
  6
CONTINUOUS
 62
     7
 10
217.7329715874607
 20
411.5
 30
0.0
 11
218.1607510137346
 21
399.25
 31
0.0
  0
LINE
  5
1F4
  8
DATA
  6
CONTINUOUS
 62
     7
 10
216.15953192513689
 20
399.25
 30
0.0
 11
215.73175249886299
 21
411.5
 31
0.0
  0
LINE
  5
1F5
  8
DATA
  6
CONTINUOUS
 62
     7
 10
210.2682475011369
 20
411.5
 30
0.0
 11
209.71824538164191
 21
395.75
 31
0.0
  0
LINE
  5
1F6
  8
DATA
  6
CONTINUOUS
 62
     7
 10
207.71702629304431
 20
395.75
 30
0.0
 11
208.2670284125393
 21
411.5
 31
0.0
  0
LINE
  5
1F7
  8
DATA
  6
CONTINUOUS
 62
     7
 10
270.69999999999999
 20
412.5
 30
0.0
 11
283.30000000000001
 21
412.5
 31
0.0
  0
LINE
  5
1F8
  8
DATA
  6
CONTINUOUS
 62
     7
 10
270.69999999999999
 20
412.5
 30
0.0
 11
270.69999999999999
 21
411.5
 31
0.0
  0
LINE
  5
1F9
  8
DATA
  6
CONTINUOUS
 62
     7
 10
283.30000000000001
 20
412.5
 30
0.0
 11
283.30000000000001
 21
411.5
 31
0.0
  0
LINE
  5
1FA
  8
DATA
  6
CONTINUOUS
 62
     7
 10
270.35000000000002
 20
411.5
 30
0.0
 11
283.65000000000009
 21
411.5
 31
0.0
  0
LINE
  5
1FB
  8
DATA
  6
CONTINUOUS
 62
     7
 10
270.35000000000002
 20
411.5
 30
0.0
 11
269.59554849764748
 21
395.75
 31
0.0
  0
LINE
  5
1FC
  8
DATA
  6
CONTINUOUS
 62
     7
 10
284.4375
 20
395.75
 30
0.0
 11
283.64999999999998
 21
411.5
 31
0.0
  0
LINE
  5
1FD
  8
DATA
  6
CONTINUOUS
 62
     7
 10
278.0
 20
411.5
 30
0.0
 11
278.0
 21
395.75
 31
0.0
  0
LINE
  5
1FE
  8
DATA
  6
CONTINUOUS
 62
     7
 10
276.0
 20
399.25
 30
0.0
 11
276.0
 21
411.5
 31
0.0
  0
LINE
  5
1FF
  8
DATA
  6
CONTINUOUS
 62
     7
 10
281.73297158746072
 20
411.5
 30
0.0
 11
282.2829737069556
 21
395.75
 31
0.0
  0
LINE
  5
200
  8
DATA
  6
CONTINUOUS
 62
     7
 10
280.28175461835809
 20
395.75
 30
0.0
 11
279.73175249886299
 21
411.5
 31
0.0
  0
LINE
  5
201
  8
DATA
  6
CONTINUOUS
 62
     7
 10
274.2682475011369
 20
411.5
 30
0.0
 11
273.840468074863
 21
399.25
 31
0.0
  0
LINE
  5
202
  8
DATA
  6
CONTINUOUS
 62
     7
 10
271.83924898626537
 20
399.25
 30
0.0
 11
272.26702841253928
 21
411.5
 31
0.0
  0
LINE
  5
203
  8
DATA
  6
CONTINUOUS
 62
     7
 10
160.0
 20
390.89999999999998
 30
0.0
 11
330.0
 21
390.89999999999998
 31
0.0
  0
LINE
  5
204
  8
DATA
  6
CONTINUOUS
 62
     7
 10
160.0
 20
390.89999999999998
 30
0.0
 11
167.0
 21
395.75
 31
0.0
  0
LINE
  5
205
  8
DATA
  6
CONTINUOUS
 62
     7
 10
330.0
 20
390.89999999999998
 30
0.0
 11
323.0
 21
395.75
 31
0.0
  0
LINE
  5
206
  8
DATA
  6
CONTINUOUS
 62
     7
 10
160.0
 20
445.0
 30
0.0
 11
160.0
 21
558.0
 31
0.0
  0
LINE
  5
207
  8
DATA
  6
CONTINUOUS
 62
     7
 10
325.0
 20
440.0
 30
0.0
 11
165.0
 21
440.0
 31
0.0
  0
LINE
  5
208
  8
DATA
  6
CONTINUOUS
 62
     7
 10
330.0
 20
558.0
 30
0.0
 11
330.0
 21
445.0
 31
0.0
  0
LINE
  5
209
  8
DATA
  6
CONTINUOUS
 62
     7
 10
165.0
 20
563.0
 30
0.0
 11
325.0
 21
563.0
 31
0.0
  0
ARC
  5
20A
  8
DATA
  6
CONTINUOUS
 62
     7
 10
165.0
 20
558.0
 30
0.0
 40
5.0
 50
90.0
 51
180.0
  0
ARC
  5
20B
  8
DATA
  6
CONTINUOUS
 62
     7
 10
325.0
 20
558.0
 30
0.0
 40
5.0
 50
0.0
 51
90.0
  0
ARC
  5
20C
  8
DATA
  6
CONTINUOUS
 62
     7
 10
165.0
 20
445.0
 30
0.0
 40
5.0
 50
180.0
 51
270.0
  0
ARC
  5
20D
  8
DATA
  6
CONTINUOUS
 62
     7
 10
325.0
 20
445.0
 30
0.0
 40
5.0
 50
270.0
 51
0.0
  0
LINE
  5
20E
  8
DATA
  6
CONTINUOUS
 62
     7
 10
176.0
 20
465.0
 30
0.0
 11
176.0
 21
538.0
 31
0.0
  0
LINE
  5
20F
  8
DATA
  6
CONTINUOUS
 62
     7
 10
314.0
 20
465.0
 30
0.0
 11
314.0
 21
538.0
 31
0.0
  0
LINE
  5
210
  8
DATA
  6
CONTINUOUS
 62
     7
 10
176.0
 20
538.0
 30
0.0
 11
314.0
 21
538.0
 31
0.0
  0
LINE
  5
211
  8
DATA
  6
CONTINUOUS
 62
     7
 10
314.0
 20
465.0
 30
0.0
 11
176.0
 21
465.0
 31
0.0
  0
LINE
  5
212
  8
DATA
  6
CONTINUOUS
 62
     7
 10
278.0
 20
518.0
 30
0.0
 11
278.0
 21
538.0
 31
0.0
  0
LINE
  5
213
  8
DATA
  6
CONTINUOUS
 62
     7
 10
245.0
 20
518.0
 30
0.0
 11
278.0
 21
518.0
 31
0.0
  0
LINE
  5
214
  8
DATA
  6
CONTINUOUS
 62
     7
 10
245.0
 20
538.0
 30
0.0
 11
245.0
 21
518.0
 31
0.0
  0
LINE
  5
215
  8
DATA
  6
CONTINUOUS
 62
     7
 10
259.49999999999972
 20
519.0
 30
0.0
 11
274.50000000000028
 21
519.0
 31
0.0
  0
LINE
  5
216
  8
DATA
  6
CONTINUOUS
 62
     7
 10
259.49999999999972
 20
519.0
 30
0.0
 11
259.49999999999972
 21
518.0
 31
0.0
  0
LINE
  5
217
  8
DATA
  6
CONTINUOUS
 62
     7
 10
274.50000000000028
 20
519.0
 30
0.0
 11
274.50000000000028
 21
518.0
 31
0.0
  0
LINE
  5
218
  8
DATA
  6
CONTINUOUS
 62
     7
 10
247.0057154720198
 20
519.33571815978326
 30
0.0
 11
257.02698991727829
 21
519.33571815978326
 31
0.0
  0
LINE
  5
219
  8
DATA
  6
CONTINUOUS
 62
     7
 10
247.0057154720198
 20
519.33571815978326
 30
0.0
 11
247.0057154720198
 21
518.0
 31
0.0
  0
LINE
  5
21A
  8
DATA
  6
CONTINUOUS
 62
     7
 10
257.02698991727829
 20
519.33571815978326
 30
0.0
 11
257.02698991727829
 21
518.0
 31
0.0
  0
CIRCLE
  5
21B
  8
DATA
  6
CONTINUOUS
 62
     7
 10
198.84999999999999
 20
459.7999999999999
 30
0.0
 40
1.5
  0
CIRCLE
  5
21C
  8
DATA
  6
CONTINUOUS
 62
     7
 10
291.14999999999998
 20
459.7999999999999
 30
0.0
 40
1.5
  0
CIRCLE
  5
21D
  8
DATA
  6
CONTINUOUS
 62
     7
 10
198.84999999999999
 20
543.20000000000005
 30
0.0
 40
1.5
  0
CIRCLE
  5
21E
  8
DATA
  6
CONTINUOUS
 62
     7
 10
291.14999999999998
 20
543.20000000000005
 30
0.0
 40
1.5
  0
POLYLINE
  5
21F
  8
DATA
  6
CONTINUOUS
 62
     7
 66
     1
 10
0.0
 20
0.0
 30
0.0
 70
     1
  0
VERTEX
  5
38B
  8
DATA
  6
CONTINUOUS
 62
     7
 10
199.05385186031839
 20
546.31101983584892
 30
0.0
  0
VERTEX
  5
38C
  8
DATA
  6
CONTINUOUS
 62
     7
 10
196.25770372063661
 20
544.93205080756888
 30
0.0
  0
VERTEX
  5
38D
  8
DATA
  6
CONTINUOUS
 62
     7
 10
196.05385186031839
 20
541.82103097172001
 30
0.0
  0
VERTEX
  5
38E
  8
DATA
  6
CONTINUOUS
 62
     7
 10
198.64614813968171
 20
540.08898016415105
 30
0.0
  0
VERTEX
  5
38F
  8
DATA
  6
CONTINUOUS
 62
     7
 10
201.4422962793634
 20
541.46794919243098
 30
0.0
  0
VERTEX
  5
390
  8
DATA
  6
CONTINUOUS
 62
     7
 10
201.64614813968171
 20
544.5789690282802
 30
0.0
  0
SEQEND
  5
391
  8
DATA
  6
CONTINUOUS
 62
     7
  0
POLYLINE
  5
228
  8
DATA
  6
CONTINUOUS
 62
     7
 66
     1
 10
0.0
 20
0.0
 30
0.0
 70
     1
  0
VERTEX
  5
392
  8
DATA
  6
CONTINUOUS
 62
     7
 10
291.35385186031829
 20
546.31101983584892
 30
0.0
  0
VERTEX
  5
393
  8
DATA
  6
CONTINUOUS
 62
     7
 10
288.55770372063671
 20
544.93205080756888
 30
0.0
  0
VERTEX
  5
394
  8
DATA
  6
CONTINUOUS
 62
     7
 10
288.3538518603184
 20
541.82103097172001
 30
0.0
  0
VERTEX
  5
395
  8
DATA
  6
CONTINUOUS
 62
     7
 10
290.94614813968172
 20
540.08898016415105
 30
0.0
  0
VERTEX
  5
396
  8
DATA
  6
CONTINUOUS
 62
     7
 10
293.7422962793633
 20
541.46794919243098
 30
0.0
  0
VERTEX
  5
397
  8
DATA
  6
CONTINUOUS
 62
     7
 10
293.94614813968172
 20
544.5789690282802
 30
0.0
  0
SEQEND
  5
398
  8
DATA
  6
CONTINUOUS
 62
     7
  0
POLYLINE
  5
231
  8
DATA
  6
CONTINUOUS
 62
     7
 66
     1
 10
0.0
 20
0.0
 30
0.0
 70
     1
  0
VERTEX
  5
399
  8
DATA
  6
CONTINUOUS
 62
     7
 10
291.35385186031829
 20
462.911019835849
 30
0.0
  0
VERTEX
  5
39A
  8
DATA
  6
CONTINUOUS
 62
     7
 10
288.55770372063671
 20
461.53205080756891
 30
0.0
  0
VERTEX
  5
39B
  8
DATA
  6
CONTINUOUS
 62
     7
 10
288.3538518603184
 20
458.42103097171997
 30
0.0
  0
VERTEX
  5
39C
  8
DATA
  6
CONTINUOUS
 62
     7
 10
290.94614813968172
 20
456.68898016415108
 30
0.0
  0
VERTEX
  5
39D
  8
DATA
  6
CONTINUOUS
 62
     7
 10
293.7422962793633
 20
458.06794919243112
 30
0.0
  0
VERTEX
  5
39E
  8
DATA
  6
CONTINUOUS
 62
     7
 10
293.94614813968172
 20
461.17896902828011
 30
0.0
  0
SEQEND
  5
39F
  8
DATA
  6
CONTINUOUS
 62
     7
  0
POLYLINE
  5
23A
  8
DATA
  6
CONTINUOUS
 62
     7
 66
     1
 10
0.0
 20
0.0
 30
0.0
 70
     1
  0
VERTEX
  5
3A0
  8
DATA
  6
CONTINUOUS
 62
     7
 10
199.05385186031839
 20
462.911019835849
 30
0.0
  0
VERTEX
  5
3A1
  8
DATA
  6
CONTINUOUS
 62
     7
 10
196.25770372063661
 20
461.53205080756891
 30
0.0
  0
VERTEX
  5
3A2
  8
DATA
  6
CONTINUOUS
 62
     7
 10
196.05385186031839
 20
458.42103097171997
 30
0.0
  0
VERTEX
  5
3A3
  8
DATA
  6
CONTINUOUS
 62
     7
 10
198.64614813968171
 20
456.68898016415108
 30
0.0
  0
VERTEX
  5
3A4
  8
DATA
  6
CONTINUOUS
 62
     7
 10
201.4422962793634
 20
458.06794919243112
 30
0.0
  0
VERTEX
  5
3A5
  8
DATA
  6
CONTINUOUS
 62
     7
 10
201.64614813968171
 20
461.17896902828011
 30
0.0
  0
SEQEND
  5
3A6
  8
DATA
  6
CONTINUOUS
 62
     7
  0
CIRCLE
  5
243
  8
DATA
  6
CONTINUOUS
 62
     7
 10
181.0
 20
532.0
 30
0.0
 40
3.2999999999999958
  0
POLYLINE
  5
244
  8
DATA
  6
CONTINUOUS
 62
     7
 66
     1
 10
0.0
 20
0.0
 30
0.0
  0
VERTEX
  5
3A7
  8
DATA
  6
CONTINUOUS
 62
     7
 10
181.30000000000001
 20
531.70000000000005
 30
0.0
  0
VERTEX
  5
3A8
  8
DATA
  6
CONTINUOUS
 62
     7
 10
181.30000000000001
 20
530.25
 30
0.0
  0
VERTEX
  5
3A9
  8
DATA
  6
CONTINUOUS
 62
     7
 10
180.69999999999999
 20
530.25
 30
0.0
  0
VERTEX
  5
3AA
  8
DATA
  6
CONTINUOUS
 62
     7
 10
180.69999999999999
 20
531.70000000000005
 30
0.0
  0
SEQEND
  5
3AB
  8
DATA
  6
CONTINUOUS
 62
     7
  0
POLYLINE
  5
24B
  8
DATA
  6
CONTINUOUS
 62
     7
 66
     1
 10
0.0
 20
0.0
 30
0.0
  0
VERTEX
  5
3AC
  8
DATA
  6
CONTINUOUS
 62
     7
 10
180.69999999999999
 20
532.29999999999995
 30
0.0
  0
VERTEX
  5
3AD
  8
DATA
  6
CONTINUOUS
 62
     7
 10
180.69999999999999
 20
533.75
 30
0.0
  0
VERTEX
  5
3AE
  8
DATA
  6
CONTINUOUS
 62
     7
 10
181.30000000000001
 20
533.75
 30
0.0
  0
VERTEX
  5
3AF
  8
DATA
  6
CONTINUOUS
 62
     7
 10
181.30000000000001
 20
532.29999999999995
 30
0.0
  0
SEQEND
  5
3B0
  8
DATA
  6
CONTINUOUS
 62
     7
  0
POLYLINE
  5
252
  8
DATA
  6
CONTINUOUS
 62
     7
 66
     1
 10
0.0
 20
0.0
 30
0.0
  0
VERTEX
  5
3B1
  8
DATA
  6
CONTINUOUS
 62
     7
 10
180.69999999999999
 20
531.70000000000005
 30
0.0
  0
VERTEX
  5
3B2
  8
DATA
  6
CONTINUOUS
 62
     7
 10
179.25
 20
531.70000000000005
 30
0.0
  0
VERTEX
  5
3B3
  8
DATA
  6
CONTINUOUS
 62
     7
 10
179.25
 20
532.29999999999995
 30
0.0
  0
VERTEX
  5
3B4
  8
DATA
  6
CONTINUOUS
 62
     7
 10
180.69999999999999
 20
532.29999999999995
 30
0.0
  0
SEQEND
  5
3B5
  8
DATA
  6
CONTINUOUS
 62
     7
  0
POLYLINE
  5
259
  8
DATA
  6
CONTINUOUS
 62
     7
 66
     1
 10
0.0
 20
0.0
 30
0.0
  0
VERTEX
  5
3B6
  8
DATA
  6
CONTINUOUS
 62
     7
 10
181.30000000000001
 20
532.29999999999995
 30
0.0
  0
VERTEX
  5
3B7
  8
DATA
  6
CONTINUOUS
 62
     7
 10
182.75
 20
532.29999999999995
 30
0.0
  0
VERTEX
  5
3B8
  8
DATA
  6
CONTINUOUS
 62
     7
 10
182.75
 20
531.70000000000005
 30
0.0
  0
VERTEX
  5
3B9
  8
DATA
  6
CONTINUOUS
 62
     7
 10
181.30000000000001
 20
531.70000000000005
 30
0.0
  0
SEQEND
  5
3BA
  8
DATA
  6
CONTINUOUS
 62
     7
  0
CIRCLE
  5
260
  8
DATA
  6
CONTINUOUS
 62
     7
 10
181.0
 20
471.0
 30
0.0
 40
3.2999999999999958
  0
POLYLINE
  5
261
  8
DATA
  6
CONTINUOUS
 62
     7
 66
     1
 10
0.0
 20
0.0
 30
0.0
  0
VERTEX
  5
3BB
  8
DATA
  6
CONTINUOUS
 62
     7
 10
181.30000000000001
 20
470.69999999999987
 30
0.0
  0
VERTEX
  5
3BC
  8
DATA
  6
CONTINUOUS
 62
     7
 10
181.30000000000001
 20
469.24999999999989
 30
0.0
  0
VERTEX
  5
3BD
  8
DATA
  6
CONTINUOUS
 62
     7
 10
180.69999999999999
 20
469.24999999999989
 30
0.0
  0
VERTEX
  5
3BE
  8
DATA
  6
CONTINUOUS
 62
     7
 10
180.69999999999999
 20
470.69999999999987
 30
0.0
  0
SEQEND
  5
3BF
  8
DATA
  6
CONTINUOUS
 62
     7
  0
POLYLINE
  5
268
  8
DATA
  6
CONTINUOUS
 62
     7
 66
     1
 10
0.0
 20
0.0
 30
0.0
  0
VERTEX
  5
3C0
  8
DATA
  6
CONTINUOUS
 62
     7
 10
180.69999999999999
 20
471.30000000000001
 30
0.0
  0
VERTEX
  5
3C1
  8
DATA
  6
CONTINUOUS
 62
     7
 10
180.69999999999999
 20
472.75
 30
0.0
  0
VERTEX
  5
3C2
  8
DATA
  6
CONTINUOUS
 62
     7
 10
181.30000000000001
 20
472.75
 30
0.0
  0
VERTEX
  5
3C3
  8
DATA
  6
CONTINUOUS
 62
     7
 10
181.30000000000001
 20
471.30000000000001
 30
0.0
  0
SEQEND
  5
3C4
  8
DATA
  6
CONTINUOUS
 62
     7
  0
POLYLINE
  5
26F
  8
DATA
  6
CONTINUOUS
 62
     7
 66
     1
 10
0.0
 20
0.0
 30
0.0
  0
VERTEX
  5
3C5
  8
DATA
  6
CONTINUOUS
 62
     7
 10
180.69999999999999
 20
470.69999999999987
 30
0.0
  0
VERTEX
  5
3C6
  8
DATA
  6
CONTINUOUS
 62
     7
 10
179.25
 20
470.69999999999987
 30
0.0
  0
VERTEX
  5
3C7
  8
DATA
  6
CONTINUOUS
 62
     7
 10
179.25
 20
471.30000000000001
 30
0.0
  0
VERTEX
  5
3C8
  8
DATA
  6
CONTINUOUS
 62
     7
 10
180.69999999999999
 20
471.30000000000001
 30
0.0
  0
SEQEND
  5
3C9
  8
DATA
  6
CONTINUOUS
 62
     7
  0
POLYLINE
  5
276
  8
DATA
  6
CONTINUOUS
 62
     7
 66
     1
 10
0.0
 20
0.0
 30
0.0
  0
VERTEX
  5
3CA
  8
DATA
  6
CONTINUOUS
 62
     7
 10
181.30000000000001
 20
471.30000000000001
 30
0.0
  0
VERTEX
  5
3CB
  8
DATA
  6
CONTINUOUS
 62
     7
 10
182.75
 20
471.30000000000001
 30
0.0
  0
VERTEX
  5
3CC
  8
DATA
  6
CONTINUOUS
 62
     7
 10
182.75
 20
470.69999999999987
 30
0.0
  0
VERTEX
  5
3CD
  8
DATA
  6
CONTINUOUS
 62
     7
 10
181.30000000000001
 20
470.69999999999987
 30
0.0
  0
SEQEND
  5
3CE
  8
DATA
  6
CONTINUOUS
 62
     7
  0
CIRCLE
  5
27D
  8
DATA
  6
CONTINUOUS
 62
     7
 10
295.0
 20
471.0
 30
0.0
 40
3.2999999999999958
  0
POLYLINE
  5
27E
  8
DATA
  6
CONTINUOUS
 62
     7
 66
     1
 10
0.0
 20
0.0
 30
0.0
  0
VERTEX
  5
3CF
  8
DATA
  6
CONTINUOUS
 62
     7
 10
295.2999999999999
 20
470.69999999999987
 30
0.0
  0
VERTEX
  5
3D0
  8
DATA
  6
CONTINUOUS
 62
     7
 10
295.2999999999999
 20
469.24999999999989
 30
0.0
  0
VERTEX
  5
3D1
  8
DATA
  6
CONTINUOUS
 62
     7
 10
294.69999999999999
 20
469.24999999999989
 30
0.0
  0
VERTEX
  5
3D2
  8
DATA
  6
CONTINUOUS
 62
     7
 10
294.69999999999999
 20
470.69999999999987
 30
0.0
  0
SEQEND
  5
3D3
  8
DATA
  6
CONTINUOUS
 62
     7
  0
POLYLINE
  5
285
  8
DATA
  6
CONTINUOUS
 62
     7
 66
     1
 10
0.0
 20
0.0
 30
0.0
  0
VERTEX
  5
3D4
  8
DATA
  6
CONTINUOUS
 62
     7
 10
294.69999999999999
 20
471.30000000000001
 30
0.0
  0
VERTEX
  5
3D5
  8
DATA
  6
CONTINUOUS
 62
     7
 10
294.69999999999999
 20
472.75
 30
0.0
  0
VERTEX
  5
3D6
  8
DATA
  6
CONTINUOUS
 62
     7
 10
295.2999999999999
 20
472.75
 30
0.0
  0
VERTEX
  5
3D7
  8
DATA
  6
CONTINUOUS
 62
     7
 10
295.2999999999999
 20
471.30000000000001
 30
0.0
  0
SEQEND
  5
3D8
  8
DATA
  6
CONTINUOUS
 62
     7
  0
POLYLINE
  5
28C
  8
DATA
  6
CONTINUOUS
 62
     7
 66
     1
 10
0.0
 20
0.0
 30
0.0
  0
VERTEX
  5
3D9
  8
DATA
  6
CONTINUOUS
 62
     7
 10
294.69999999999999
 20
470.69999999999987
 30
0.0
  0
VERTEX
  5
3DA
  8
DATA
  6
CONTINUOUS
 62
     7
 10
293.25
 20
470.69999999999987
 30
0.0
  0
VERTEX
  5
3DB
  8
DATA
  6
CONTINUOUS
 62
     7
 10
293.25
 20
471.30000000000001
 30
0.0
  0
VERTEX
  5
3DC
  8
DATA
  6
CONTINUOUS
 62
     7
 10
294.69999999999999
 20
471.30000000000001
 30
0.0
  0
SEQEND
  5
3DD
  8
DATA
  6
CONTINUOUS
 62
     7
  0
POLYLINE
  5
293
  8
DATA
  6
CONTINUOUS
 62
     7
 66
     1
 10
0.0
 20
0.0
 30
0.0
  0
VERTEX
  5
3DE
  8
DATA
  6
CONTINUOUS
 62
     7
 10
295.2999999999999
 20
471.30000000000001
 30
0.0
  0
VERTEX
  5
3DF
  8
DATA
  6
CONTINUOUS
 62
     7
 10
296.75
 20
471.30000000000001
 30
0.0
  0
VERTEX
  5
3E0
  8
DATA
  6
CONTINUOUS
 62
     7
 10
296.75
 20
470.69999999999987
 30
0.0
  0
VERTEX
  5
3E1
  8
DATA
  6
CONTINUOUS
 62
     7
 10
295.2999999999999
 20
470.69999999999987
 30
0.0
  0
SEQEND
  5
3E2
  8
DATA
  6
CONTINUOUS
 62
     7
  0
CIRCLE
  5
29A
  8
DATA
  6
CONTINUOUS
 62
     7
 10
295.0
 20
532.0
 30
0.0
 40
3.2999999999999958
  0
POLYLINE
  5
29B
  8
DATA
  6
CONTINUOUS
 62
     7
 66
     1
 10
0.0
 20
0.0
 30
0.0
  0
VERTEX
  5
3E3
  8
DATA
  6
CONTINUOUS
 62
     7
 10
295.2999999999999
 20
531.70000000000005
 30
0.0
  0
VERTEX
  5
3E4
  8
DATA
  6
CONTINUOUS
 62
     7
 10
295.2999999999999
 20
530.25
 30
0.0
  0
VERTEX
  5
3E5
  8
DATA
  6
CONTINUOUS
 62
     7
 10
294.69999999999999
 20
530.25
 30
0.0
  0
VERTEX
  5
3E6
  8
DATA
  6
CONTINUOUS
 62
     7
 10
294.69999999999999
 20
531.70000000000005
 30
0.0
  0
SEQEND
  5
3E7
  8
DATA
  6
CONTINUOUS
 62
     7
  0
POLYLINE
  5
2A2
  8
DATA
  6
CONTINUOUS
 62
     7
 66
     1
 10
0.0
 20
0.0
 30
0.0
  0
VERTEX
  5
3E8
  8
DATA
  6
CONTINUOUS
 62
     7
 10
294.69999999999999
 20
532.29999999999995
 30
0.0
  0
VERTEX
  5
3E9
  8
DATA
  6
CONTINUOUS
 62
     7
 10
294.69999999999999
 20
533.75
 30
0.0
  0
VERTEX
  5
3EA
  8
DATA
  6
CONTINUOUS
 62
     7
 10
295.2999999999999
 20
533.75
 30
0.0
  0
VERTEX
  5
3EB
  8
DATA
  6
CONTINUOUS
 62
     7
 10
295.2999999999999
 20
532.29999999999995
 30
0.0
  0
SEQEND
  5
3EC
  8
DATA
  6
CONTINUOUS
 62
     7
  0
POLYLINE
  5
2A9
  8
DATA
  6
CONTINUOUS
 62
     7
 66
     1
 10
0.0
 20
0.0
 30
0.0
  0
VERTEX
  5
3ED
  8
DATA
  6
CONTINUOUS
 62
     7
 10
294.69999999999999
 20
531.70000000000005
 30
0.0
  0
VERTEX
  5
3EE
  8
DATA
  6
CONTINUOUS
 62
     7
 10
293.25
 20
531.70000000000005
 30
0.0
  0
VERTEX
  5
3EF
  8
DATA
  6
CONTINUOUS
 62
     7
 10
293.25
 20
532.29999999999995
 30
0.0
  0
VERTEX
  5
3F0
  8
DATA
  6
CONTINUOUS
 62
     7
 10
294.69999999999999
 20
532.29999999999995
 30
0.0
  0
SEQEND
  5
3F1
  8
DATA
  6
CONTINUOUS
 62
     7
  0
POLYLINE
  5
2B0
  8
DATA
  6
CONTINUOUS
 62
     7
 66
     1
 10
0.0
 20
0.0
 30
0.0
  0
VERTEX
  5
3F2
  8
DATA
  6
CONTINUOUS
 62
     7
 10
295.2999999999999
 20
532.29999999999995
 30
0.0
  0
VERTEX
  5
3F3
  8
DATA
  6
CONTINUOUS
 62
     7
 10
296.75
 20
532.29999999999995
 30
0.0
  0
VERTEX
  5
3F4
  8
DATA
  6
CONTINUOUS
 62
     7
 10
296.75
 20
531.70000000000005
 30
0.0
  0
VERTEX
  5
3F5
  8
DATA
  6
CONTINUOUS
 62
     7
 10
295.2999999999999
 20
531.70000000000005
 30
0.0
  0
SEQEND
  5
3F6
  8
DATA
  6
CONTINUOUS
 62
     7
  0
LINE
  5
2B7
  8
DATA
  6
CONTINUOUS
 62
     7
 10
164.5
 20
449.5
 30
0.0
 11
164.5
 21
553.5
 31
0.0
  0
ARC
  5
2B8
  8
DATA
  6
CONTINUOUS
 62
     7
 10
169.5
 20
449.5
 30
0.0
 40
5.0
 50
180.0
 51
270.0
  0
LINE
  5
2B9
  8
DATA
  6
CONTINUOUS
 62
     7
 10
320.5
 20
444.5
 30
0.0
 11
169.5
 21
444.5
 31
0.0
  0
ARC
  5
2BA
  8
DATA
  6
CONTINUOUS
 62
     7
 10
320.5
 20
449.5
 30
0.0
 40
4.999999999999992
 50
270.0
 51
0.0000000000001137
  0
LINE
  5
2BB
  8
DATA
  6
CONTINUOUS
 62
     7
 10
325.5
 20
553.5
 30
0.0
 11
325.5
 21
449.5
 31
0.0
  0
ARC
  5
2BC
  8
DATA
  6
CONTINUOUS
 62
     7
 10
320.5
 20
553.5
 30
0.0
 40
5.0
 50
0.0
 51
90.0
  0
LINE
  5
2BD
  8
DATA
  6
CONTINUOUS
 62
     7
 10
169.5
 20
558.49999999999989
 30
0.0
 11
320.5
 21
558.49999999999989
 31
0.0
  0
ARC
  5
2BE
  8
DATA
  6
CONTINUOUS
 62
     7
 10
169.5
 20
553.5
 30
0.0
 40
5.0
 50
90.0
 51
180.0
  0
LINE
  5
2BF
  8
DATA
  6
CONTINUOUS
 62
     7
 10
429.99999999983999
 20
296.0
 30
0.0
 11
429.99999999983999
 21
187.0
 31
0.0
  0
LINE
  5
2C0
  8
DATA
  6
CONTINUOUS
 62
     7
 10
463.74999999983987
 20
278.0
 30
0.0
 11
463.74999999983987
 21
205.0
 31
0.0
  0
LINE
  5
2C1
  8
DATA
  6
CONTINUOUS
 62
     7
 10
434.84999999984001
 20
303.0
 30
0.0
 11
434.84999999984001
 21
180.0
 31
0.0
  0
LINE
  5
2C2
  8
DATA
  6
CONTINUOUS
 62
     7
 10
437.74999999983987
 20
303.0
 30
0.0
 11
437.74999999983987
 21
180.0
 31
0.0
  0
LINE
  5
2C3
  8
DATA
  6
CONTINUOUS
 62
     7
 10
429.99999999983999
 20
296.0
 30
0.0
 11
434.84999999984001
 21
303.0
 31
0.0
  0
LINE
  5
2C4
  8
DATA
  6
CONTINUOUS
 62
     7
 10
434.84999999984001
 20
303.0
 30
0.0
 11
437.74999999983987
 21
303.0
 31
0.0
  0
LINE
  5
2C5
  8
DATA
  6
CONTINUOUS
 62
     7
 10
434.84999999984001
 20
180.0
 30
0.0
 11
429.99999999983999
 21
187.0
 31
0.0
  0
LINE
  5
2C6
  8
DATA
  6
CONTINUOUS
 62
     7
 10
434.84999999984001
 20
180.0
 30
0.0
 11
437.74999999983987
 21
180.0
 31
0.0
  0
LINE
  5
2C7
  8
DATA
  6
CONTINUOUS
 62
     7
 10
465.74999999983999
 20
269.69892059500143
 30
0.0
 11
465.74999999983999
 21
273.29892059500139
 31
0.0
  0
ARC
  5
2C8
  8
DATA
  6
CONTINUOUS
 62
     7
 10
464.24999999983987
 20
269.69892059500143
 30
0.0
 40
1.5
 50
270.0
 51
0.0
  0
ARC
  5
2C9
  8
DATA
  6
CONTINUOUS
 62
     7
 10
464.24999999983987
 20
273.29892059500139
 30
0.0
 40
1.5
 50
0.0
 51
90.0
  0
LINE
  5
2CA
  8
DATA
  6
CONTINUOUS
 62
     7
 10
464.24999999983987
 20
268.19892059500143
 30
0.0
 11
463.74999999983987
 21
268.19892059500143
 31
0.0
  0
LINE
  5
2CB
  8
DATA
  6
CONTINUOUS
 62
     7
 10
464.24999999983987
 20
274.79892059500139
 30
0.0
 11
463.73999999983999
 21
274.79892059500139
 31
0.0
  0
LINE
  5
2CC
  8
DATA
  6
CONTINUOUS
 62
     7
 10
465.74999999983999
 20
209.69892059500151
 30
0.0
 11
465.74999999983999
 21
213.2989205950015
 31
0.0
  0
ARC
  5
2CD
  8
DATA
  6
CONTINUOUS
 62
     7
 10
464.24999999983987
 20
209.69892059500151
 30
0.0
 40
1.5
 50
270.0
 51
0.0
  0
ARC
  5
2CE
  8
DATA
  6
CONTINUOUS
 62
     7
 10
464.24999999983987
 20
213.2989205950015
 30
0.0
 40
1.5
 50
0.0
 51
90.0
  0
LINE
  5
2CF
  8
DATA
  6
CONTINUOUS
 62
     7
 10
464.24999999983987
 20
208.1989205950014
 30
0.0
 11
463.74999999983987
 21
208.1989205950014
 31
0.0
  0
LINE
  5
2D0
  8
DATA
  6
CONTINUOUS
 62
     7
 10
464.24999999983987
 20
214.7989205950015
 30
0.0
 11
463.73999999983999
 21
214.7989205950015
 31
0.0
  0
LINE
  5
2D1
  8
DATA
  6
CONTINUOUS
 62
     7
 10
446.75
 20
198.30000000000001
 30
0.0
 11
439.75
 21
198.30000000000001
 31
0.0
  0
LINE
  5
2D2
  8
DATA
  6
CONTINUOUS
 62
     7
 10
446.75
 20
201.30000000000001
 30
0.0
 11
439.75
 21
201.30000000000001
 31
0.0
  0
LINE
  5
2D3
  8
DATA
  6
CONTINUOUS
 62
     7
 10
446.75
 20
198.30000000000001
 30
0.0
 11
446.75
 21
201.30000000000001
 31
0.0
  0
LINE
  5
2D4
  8
DATA
  6
CONTINUOUS
 62
     7
 10
439.75
 20
197.09999999999999
 30
0.0
 11
439.75
 21
202.5
 31
0.0
  0
LINE
  5
2D5
  8
DATA
  6
CONTINUOUS
 62
     7
 10
437.75
 20
202.5
 30
0.0
 11
439.75
 21
202.5
 31
0.0
  0
LINE
  5
2D6
  8
DATA
  6
CONTINUOUS
 62
     7
 10
439.75
 20
197.09999999999999
 30
0.0
 11
437.75
 21
197.09999999999999
 31
0.0
  0
LINE
  5
2D7
  8
DATA
  6
CONTINUOUS
 62
     7
 10
439.75
 20
199.80000000000001
 30
0.0
 11
437.75
 21
199.80000000000001
 31
0.0
  0
LINE
  5
2D8
  8
DATA
  6
CONTINUOUS
 62
     7
 10
440.19633027522929
 20
198.30000000000001
 30
0.0
 11
439.75
 21
200.2459999999999
 31
0.0
  0
LINE
  5
2D9
  8
DATA
  6
CONTINUOUS
 62
     7
 10
440.99633027522941
 20
198.30000000000001
 30
0.0
 11
440.30825688073401
 21
201.30000000000001
 31
0.0
  0
LINE
  5
2DA
  8
DATA
  6
CONTINUOUS
 62
     7
 10
441.79633027522931
 20
198.30000000000001
 30
0.0
 11
441.10825688073402
 21
201.30000000000001
 31
0.0
  0
LINE
  5
2DB
  8
DATA
  6
CONTINUOUS
 62
     7
 10
442.59633027522921
 20
198.30000000000001
 30
0.0
 11
441.90825688073397
 21
201.30000000000001
 31
0.0
  0
LINE
  5
2DC
  8
DATA
  6
CONTINUOUS
 62
     7
 10
443.39633027522927
 20
198.30000000000001
 30
0.0
 11
442.70825688073398
 21
201.30000000000001
 31
0.0
  0
LINE
  5
2DD
  8
DATA
  6
CONTINUOUS
 62
     7
 10
444.19633027522929
 20
198.30000000000001
 30
0.0
 11
443.50825688073388
 21
201.30000000000001
 31
0.0
  0
LINE
  5
2DE
  8
DATA
  6
CONTINUOUS
 62
     7
 10
444.9963302752293
 20
198.30000000000001
 30
0.0
 11
444.30825688073401
 21
201.30000000000001
 31
0.0
  0
LINE
  5
2DF
  8
DATA
  6
CONTINUOUS
 62
     7
 10
445.79633027522931
 20
198.30000000000001
 30
0.0
 11
445.10825688073402
 21
201.30000000000001
 31
0.0
  0
LINE
  5
2E0
  8
DATA
  6
CONTINUOUS
 62
     7
 10
446.59633027522921
 20
198.30000000000001
 30
0.0
 11
445.90825688073397
 21
201.30000000000001
 31
0.0
  0
LINE
  5
2E1
  8
DATA
  6
CONTINUOUS
 62
     7
 10
446.75
 20
281.7000000000001
 30
0.0
 11
439.75
 21
281.7000000000001
 31
0.0
  0
LINE
  5
2E2
  8
DATA
  6
CONTINUOUS
 62
     7
 10
446.75
 20
284.7000000000001
 30
0.0
 11
439.75
 21
284.7000000000001
 31
0.0
  0
LINE
  5
2E3
  8
DATA
  6
CONTINUOUS
 62
     7
 10
446.75
 20
281.7000000000001
 30
0.0
 11
446.75
 21
284.7000000000001
 31
0.0
  0
LINE
  5
2E4
  8
DATA
  6
CONTINUOUS
 62
     7
 10
439.75
 20
280.5
 30
0.0
 11
439.75
 21
285.90000000000009
 31
0.0
  0
LINE
  5
2E5
  8
DATA
  6
CONTINUOUS
 62
     7
 10
437.75
 20
285.90000000000009
 30
0.0
 11
439.75
 21
285.90000000000009
 31
0.0
  0
LINE
  5
2E6
  8
DATA
  6
CONTINUOUS
 62
     7
 10
439.75
 20
280.5
 30
0.0
 11
437.75
 21
280.5
 31
0.0
  0
LINE
  5
2E7
  8
DATA
  6
CONTINUOUS
 62
     7
 10
439.75
 20
283.2000000000001
 30
0.0
 11
437.75
 21
283.2000000000001
 31
0.0
  0
LINE
  5
2E8
  8
DATA
  6
CONTINUOUS
 62
     7
 10
440.19633027522929
 20
281.7000000000001
 30
0.0
 11
439.75
 21
283.6459999999999
 31
0.0
  0
LINE
  5
2E9
  8
DATA
  6
CONTINUOUS
 62
     7
 10
440.99633027522941
 20
281.7000000000001
 30
0.0
 11
440.30825688073401
 21
284.7000000000001
 31
0.0
  0
LINE
  5
2EA
  8
DATA
  6
CONTINUOUS
 62
     7
 10
441.79633027522931
 20
281.7000000000001
 30
0.0
 11
441.10825688073402
 21
284.7000000000001
 31
0.0
  0
LINE
  5
2EB
  8
DATA
  6
CONTINUOUS
 62
     7
 10
442.59633027522921
 20
281.7000000000001
 30
0.0
 11
441.90825688073397
 21
284.7000000000001
 31
0.0
  0
LINE
  5
2EC
  8
DATA
  6
CONTINUOUS
 62
     7
 10
443.39633027522927
 20
281.7000000000001
 30
0.0
 11
442.70825688073398
 21
284.7000000000001
 31
0.0
  0
LINE
  5
2ED
  8
DATA
  6
CONTINUOUS
 62
     7
 10
444.19633027522929
 20
281.7000000000001
 30
0.0
 11
443.50825688073388
 21
284.7000000000001
 31
0.0
  0
LINE
  5
2EE
  8
DATA
  6
CONTINUOUS
 62
     7
 10
444.9963302752293
 20
281.7000000000001
 30
0.0
 11
444.30825688073401
 21
284.7000000000001
 31
0.0
  0
LINE
  5
2EF
  8
DATA
  6
CONTINUOUS
 62
     7
 10
445.79633027522931
 20
281.7000000000001
 30
0.0
 11
445.10825688073402
 21
284.7000000000001
 31
0.0
  0
LINE
  5
2F0
  8
DATA
  6
CONTINUOUS
 62
     7
 10
446.59633027522921
 20
281.7000000000001
 30
0.0
 11
445.90825688073397
 21
284.7000000000001
 31
0.0
  0
LINE
  5
2F1
  8
DATA
  6
CONTINUOUS
 62
     7
 10
426.49999999983999
 20
226.19999999999999
 30
0.0
 11
429.99999999983999
 21
226.19999999999999
 31
0.0
  0
LINE
  5
2F2
  8
DATA
  6
CONTINUOUS
 62
     7
 10
426.49999999983999
 20
219.80000000000001
 30
0.0
 11
429.99999999983999
 21
219.80000000000001
 31
0.0
  0
LINE
  5
2F3
  8
DATA
  6
CONTINUOUS
 62
     7
 10
426.49999999983999
 20
219.80000000000001
 30
0.0
 11
426.49999999983999
 21
226.19999999999999
 31
0.0
  0
LINE
  5
2F4
  8
DATA
  6
CONTINUOUS
 62
     7
 10
176.0
 20
362.0
 30
0.0
 11
176.0
 21
388.0
 31
0.0
  0
LINE
  5
2F5
  8
DATA
  6
CONTINUOUS
 62
     7
 10
314.0
 20
362.0
 30
0.0
 11
314.0
 21
388.0
 31
0.0
  0
LINE
  5
2F6
  8
DATA
  6
CONTINUOUS
 62
     7
 10
463.74999999983987
 20
278.0
 30
0.0
 11
437.74999999983987
 21
278.0
 31
0.0
  0
LINE
  5
2F7
  8
DATA
  6
CONTINUOUS
 62
     7
 10
463.74999999983987
 20
205.0
 30
0.0
 11
437.75
 21
205.0
 31
0.0
  0
LINE
  5
2F8
  8
DATA
  6
CONTINUOUS
 62
     7
 10
413.25560329510478
 20
246.67479132469191
 30
0.0
 11
413.25560329510478
 21
259.27479132469188
 31
0.0
  0
LINE
  5
2F9
  8
DATA
  6
CONTINUOUS
 62
     7
 10
413.25560329510478
 20
246.67479132469191
 30
0.0
 11
414.25560329510478
 21
246.67479132469191
 31
0.0
  0
LINE
  5
2FA
  8
DATA
  6
CONTINUOUS
 62
     7
 10
413.25560329510478
 20
259.27479132469188
 30
0.0
 11
414.25560329510478
 21
259.27479132469188
 31
0.0
  0
LINE
  5
2FB
  8
DATA
  6
CONTINUOUS
 62
     7
 10
414.25560329510478
 20
246.32479132469189
 30
0.0
 11
414.25560329510478
 21
259.6247913246919
 31
0.0
  0
LINE
  5
2FC
  8
DATA
  6
CONTINUOUS
 62
     7
 10
414.25560329510478
 20
246.32479132469189
 30
0.0
 11
430.00560329510569
 21
245.57033982233929
 31
0.0
  0
LINE
  5
2FD
  8
DATA
  6
CONTINUOUS
 62
     7
 10
430.00560329510569
 20
260.41229132469192
 30
0.0
 11
414.25560329510478
 21
259.6247913246919
 31
0.0
  0
LINE
  5
2FE
  8
DATA
  6
CONTINUOUS
 62
     7
 10
430.00560329510569
 20
251.97479132469189
 30
0.0
 11
414.25560329510478
 21
251.97479132469189
 31
0.0
  0
LINE
  5
2FF
  8
DATA
  6
CONTINUOUS
 62
     7
 10
414.25560329510478
 20
250.24303882582879
 30
0.0
 11
430.00560329510569
 21
249.69303670633391
 31
0.0
  0
LINE
  5
300
  8
DATA
  6
CONTINUOUS
 62
     7
 10
430.00560329510569
 20
247.69181761773609
 30
0.0
 11
414.25560329510478
 21
248.2418197372312
 31
0.0
  0
LINE
  5
301
  8
DATA
  6
CONTINUOUS
 62
     7
 10
414.25560329510478
 20
257.70776291215248
 30
0.0
 11
429.99999999983999
 21
258.2665898050563
 31
0.0
  0
LINE
  5
302
  8
DATA
  6
CONTINUOUS
 62
     7
 10
414.25560329510478
 20
255.70654382355499
 30
0.0
 11
429.99999999983999
 21
256.22225471334468
 31
0.0
  0
LINE
  5
303
  8
DATA
  6
CONTINUOUS
 62
     7
 10
414.25560329510478
 20
253.97479132469189
 30
0.0
 11
429.99999999983999
 21
253.97479132469189
 31
0.0
  0
LINE
  5
304
  8
DATA
  6
CONTINUOUS
 62
     7
 10
245.0
 20
537.20000000000005
 30
0.0
 11
278.0
 21
537.20000000000005
 31
0.0
  0
TEXT
  5
305
  8
DATA
 62
     7
 10
291.7739404277483
 20
516.87029378649083
 30
0.0
 40
2.8504720052083319
  1
Ethernet
 50
180.0
 41
0.7
 11
291.7739404277483
 21
514.01982178128253
 31
0.0
 73
     3
  0
TEXT
  5
306
  8
DATA
 62
     7
 10
244.4954994087353
 20
514.80924763494113
 30
0.0
 40
2.8504720052083319
  1
12-48V
 50
180.0
 41
0.7
 11
244.4954994087353
 21
511.95877562973271
 31
0.0
 73
     3
  0
TEXT
  5
307
  8
DATA
 62
     7
 10
244.4954994087353
 20
518.51341430160755
 30
0.0
 40
2.8504720052083319
  1
 DCin
 50
180.0
 41
0.7
 11
244.4954994087353
 21
515.66294229639936
 31
0.0
 73
     3
  0
LINE
  5
308
  8
DATA
  6
CONTINUOUS
 62
     7
 10
247.0
 20
514.08199512778594
 30
0.0
 11
256.94999999999999
 21
514.08199512778594
 31
0.0
  0
LINE
  5
309
  8
DATA
  6
CONTINUOUS
 62
     7
 10
259.49999999999972
 20
514.08199512778594
 30
0.0
 11
274.50000000000028
 21
514.08199512778594
 31
0.0
  0
LINE
  5
30A
  8
DATA
  6
CONTINUOUS
 62
     7
 10
259.49999999999972
 20
516.90986250464766
 30
0.0
 11
259.49999999999972
 21
514.08199512778594
 31
0.0
  0
LINE
  5
30B
  8
DATA
  6
CONTINUOUS
 62
     7
 10
274.50000000000028
 20
516.90986250464766
 30
0.0
 11
274.50000000000028
 21
514.08199512778594
 31
0.0
  0
LINE
  5
30C
  8
DATA
  6
CONTINUOUS
 62
     7
 10
247.0
 20
516.90986250464766
 30
0.0
 11
247.0
 21
514.08199512778594
 31
0.0
  0
LINE
  5
30D
  8
DATA
  6
CONTINUOUS
 62
     7
 10
256.94999999999999
 20
516.90986250464766
 30
0.0
 11
256.94999999999999
 21
514.08199512778594
 31
0.0
  0
TEXT
  5
30E
  8
DATA
 62
     7
 10
253.0785237675716
 20
513.73171841541739
 30
0.0
 40
4.072102864583333
  1
+
 41
0.7
 11
253.0785237675716
 21
517.80382128000076
 31
0.0
 73
     3
  0
TEXT
  5
30F
  8
DATA
 62
     7
 10
248.3340942149261
 20
513.75348187323311
 30
0.0
 40
4.072102864583333
  1
-
 41
0.7
 11
248.3340942149261
 21
517.82558473781648
 31
0.0
 73
     3
  0
LINE
  5
310
  8
DATA
  6
CONTINUOUS
 62
     7
 10
402.88183248058732
 20
535.20495425238846
 30
0.0
 11
402.88183248058732
 21
515.18128995078087
 31
0.0
  0
LINE
  5
311
  8
DATA
  6
CONTINUOUS
 62
     7
 10
501.88183248058698
 20
535.20495425238846
 30
0.0
 11
402.88183248058732
 21
535.20495425238846
 31
0.0
  0
LINE
  5
312
  8
DATA
  6
CONTINUOUS
 62
     7
 10
501.88183248058698
 20
515.18128995078087
 30
0.0
 11
501.88183248058698
 21
535.20495425238846
 31
0.0
  0
LINE
  5
313
  8
DATA
  6
CONTINUOUS
 62
     7
 10
458.38183248058772
 20
532.20495425238869
 30
0.0
 11
440.88183248058709
 21
532.20495425238869
 31
0.0
  0
LINE
  5
314
  8
DATA
  6
CONTINUOUS
 62
     7
 10
430.88183248058709
 20
532.20495425238869
 30
0.0
 11
413.38183248058652
 21
532.20495425238869
 31
0.0
  0
LINE
  5
315
  8
DATA
  6
CONTINUOUS
 62
     7
 10
458.38183248058772
 20
532.20495425238869
 30
0.0
 11
458.38183248058772
 21
535.20495425238846
 31
0.0
  0
LINE
  5
316
  8
DATA
  6
CONTINUOUS
 62
     7
 10
413.38183248058652
 20
532.20495425238869
 30
0.0
 11
413.38183248058652
 21
535.20495425238846
 31
0.0
  0
LINE
  5
317
  8
DATA
  6
CONTINUOUS
 62
     7
 10
495.8646860645274
 20
531.19779977303824
 30
0.0
 11
465.80086272875201
 21
531.19779977303824
 31
0.0
  0
LINE
  5
318
  8
DATA
  6
CONTINUOUS
 62
     7
 10
495.8646860645274
 20
531.19779977303824
 30
0.0
 11
495.8646860645274
 21
535.20495425238846
 31
0.0
  0
LINE
  5
319
  8
DATA
  6
CONTINUOUS
 62
     7
 10
465.80086272875201
 20
531.19779977303824
 30
0.0
 11
465.80086272875201
 21
535.20495425238846
 31
0.0
  0
TEXT
  5
31A
  8
DATA
 62
     7
 10
361.56001119734231
 20
537.67682982192127
 30
0.0
 40
8.1442057291666661
  1
Ethernet
 41
0.7
 11
361.56001119734231
 21
545.82103555108779
 31
0.0
 73
     3
  0
TEXT
  5
31B
  8
DATA
 62
     7
 10
503.39533425438111
 20
543.85996827657095
 30
0.0
 40
8.1442057291666661
  1
12-48V
 41
0.7
 11
503.39533425438111
 21
552.0041740057377
 31
0.0
 73
     3
  0
TEXT
  5
31C
  8
DATA
 62
     7
 10
503.39533425438111
 20
533.27663494323758
 30
0.0
 40
8.1442057291666661
  1
 DCin
 41
0.7
 11
503.39533425438111
 21
541.42084067240432
 31
0.0
 73
     3
  0
LINE
  5
31D
  8
DATA
  6
CONTINUOUS
 62
     7
 10
495.88183248058681
 20
546.95896886903074
 30
0.0
 11
466.0318324805869
 21
546.95896886903074
 31
0.0
  0
LINE
  5
31E
  8
DATA
  6
CONTINUOUS
 62
     7
 10
458.38183248058772
 20
546.95896886903074
 30
0.0
 11
413.38183248058652
 21
546.95896886903074
 31
0.0
  0
LINE
  5
31F
  8
DATA
  6
CONTINUOUS
 62
     7
 10
458.38183248058772
 20
538.47536673844525
 30
0.0
 11
458.38183248058772
 21
546.95896886903074
 31
0.0
  0
LINE
  5
320
  8
DATA
  6
CONTINUOUS
 62
     7
 10
413.38183248058652
 20
538.47536673844525
 30
0.0
 11
413.38183248058652
 21
546.95896886903074
 31
0.0
  0
LINE
  5
321
  8
DATA
  6
CONTINUOUS
 62
     7
 10
495.88183248058681
 20
538.47536673844525
 30
0.0
 11
495.88183248058681
 21
546.95896886903074
 31
0.0
  0
LINE
  5
322
  8
DATA
  6
CONTINUOUS
 62
     7
 10
466.0318324805869
 20
538.47536673844525
 30
0.0
 11
466.0318324805869
 21
546.95896886903074
 31
0.0
  0
TEXT
  5
323
  8
DATA
 62
     7
 10
477.64626117787242
 20
546.45319957064839
 30
0.0
 40
12.21630859375
  1
+
 50
180.0
 41
0.7
 11
477.64626117787242
 21
534.23689097689839
 31
0.0
 73
     3
  0
TEXT
  5
324
  8
DATA
 62
     7
 10
491.87954983580858
 20
546.38790919720168
 30
0.0
 40
12.21630859375
  1
-
 50
180.0
 41
0.7
 11
491.87954983580858
 21
534.17160060345168
 31
0.0
 73
     3
  0
TEXT
  5
325
  8
DATA
 62
     7
 10
415.43569124399721
 20
563.0230399120295
 30
0.0
 40
8.1442057291666661
  1
コネクタ－拡大図
 41
0.7
 11
415.43569124399721
 21
571.16724564119625
 31
0.0
 73
     3
  0
LINE
  5
326
  8
DATA
  6
CONTINUOUS
 62
     7
 10
440.88183248058709
 20
535.20495425238846
 30
0.0
 11
440.88183248058709
 21
532.20495425238869
 31
0.0
  0
LINE
  5
327
  8
DATA
  6
CONTINUOUS
 62
     7
 10
430.88183248058709
 20
532.20495425238869
 30
0.0
 11
430.88183248058709
 21
535.20495425238846
 31
0.0
  0
LINE
  5
328
  8
DATA
  6
CONTINUOUS
 62
     7
 10
412.33916961610208
 20
560.0
 30
0.0
 11
502.33916961610203
 21
560.0
 31
0.0
  0
ENDSEC
  0
EOF
