  0
SECTION
  2
HEADER
  9
$ACADVER
  1
AC1015
  9
$ACADMAINTVER
 70
    20
  9
$DWGCODEPAGE
  3
ANSI_932
  9
$INSBASE
 10
0.0
 20
0.0
 30
0.0
  9
$EXTMIN
 10
-450.0274637248687
 20
-673.9823081977779
 30
-0.0011016349165587
  9
$EXTMAX
 10
450.0274679158201
 20
664.1680137850417
 30
0.0000000252153853
  9
$LIMMIN
 10
0.0
 20
0.0
  9
$LIMMAX
 10
0.0
 20
0.0
  9
$ORTHOMODE
 70
     0
  9
$REGENMODE
 70
     1
  9
$FILLMODE
 70
     1
  9
$QTEXTMODE
 70
     0
  9
$MIRRTEXT
 70
     1
  9
$LTSCALE
 40
25.4
  9
$ATTMODE
 70
     1
  9
$TEXTSIZE
 40
0.0
  9
$TRACEWID
 40
1.0
  9
$TEXTSTYLE
  7
STANDARD
  9
$CLAYER
  8
DATA
  9
$CELTYPE
  6
ByLayer
  9
$CECOLOR
 62
   256
  9
$CELTSCALE
 40
1.0
  9
$DISPSILH
 70
     0
  9
$DIMSCALE
 40
1.0
  9
$DIMASZ
 40
0.18
  9
$DIMEXO
 40
0.0625
  9
$DIMDLI
 40
0.38
  9
$DIMRND
 40
0.0
  9
$DIMDLE
 40
0.0
  9
$DIMEXE
 40
0.18
  9
$DIMTP
 40
0.0
  9
$DIMTM
 40
0.0
  9
$DIMTXT
 40
0.18
  9
$DIMCEN
 40
0.09
  9
$DIMTSZ
 40
0.0
  9
$DIMTOL
 70
     0
  9
$DIMLIM
 70
     0
  9
$DIMTIH
 70
     1
  9
$DIMTOH
 70
     1
  9
$DIMSE1
 70
     0
  9
$DIMSE2
 70
     0
  9
$DIMTAD
 70
     0
  9
$DIMZIN
 70
     0
  9
$DIMBLK
  1

  9
$DIMASO
 70
     1
  9
$DIMSHO
 70
     1
  9
$DIMPOST
  1

  9
$DIMAPOST
  1

  9
$DIMALT
 70
     0
  9
$DIMALTD
 70
     2
  9
$DIMALTF
 40
25.4
  9
$DIMLFAC
 40
1.0
  9
$DIMTOFL
 70
     0
  9
$DIMTVP
 40
0.0
  9
$DIMTIX
 70
     0
  9
$DIMSOXD
 70
     0
  9
$DIMSAH
 70
     0
  9
$DIMBLK1
  1

  9
$DIMBLK2
  1

  9
$DIMSTYLE
  2
STANDARD
  9
$DIMCLRD
 70
     0
  9
$DIMCLRE
 70
     0
  9
$DIMCLRT
 70
     0
  9
$DIMTFAC
 40
1.0
  9
$DIMGAP
 40
0.09
  9
$DIMJUST
 70
     0
  9
$DIMSD1
 70
     0
  9
$DIMSD2
 70
     0
  9
$DIMTOLJ
 70
     1
  9
$DIMTZIN
 70
     0
  9
$DIMALTZ
 70
     0
  9
$DIMALTTZ
 70
     0
  9
$DIMUPT
 70
     0
  9
$DIMDEC
 70
     4
  9
$DIMTDEC
 70
     4
  9
$DIMALTU
 70
     2
  9
$DIMALTTD
 70
     2
  9
$DIMTXSTY
  7
STANDARD
  9
$DIMAUNIT
 70
     0
  9
$DIMADEC
 70
     0
  9
$DIMALTRND
 40
0.0
  9
$DIMAZIN
 70
     0
  9
$DIMDSEP
 70
    46
  9
$DIMATFIT
 70
     3
  9
$DIMFRAC
 70
     0
  9
$DIMLDRBLK
  1

  9
$DIMLUNIT
 70
     2
  9
$DIMLWD
 70
    -2
  9
$DIMLWE
 70
    -2
  9
$DIMTMOVE
 70
     0
  9
$LUNITS
 70
     2
  9
$LUPREC
 70
     4
  9
$SKETCHINC
 40
0.1
  9
$FILLETRAD
 40
0.0
  9
$AUNITS
 70
     0
  9
$AUPREC
 70
     0
  9
$MENU
  1
acad
  9
$ELEVATION
 40
0.0
  9
$PELEVATION
 40
0.0
  9
$THICKNESS
 40
0.0
  9
$LIMCHECK
 70
     0
  9
$CHAMFERA
 40
0.0
  9
$CHAMFERB
 40
0.0
  9
$CHAMFERC
 40
0.0
  9
$CHAMFERD
 40
0.0
  9
$SKPOLY
 70
     0
  9
$TDCREATE
 40
2458360.577060186
  9
$TDUCREATE
 40
2458360.202060186
  9
$TDUPDATE
 40
2458360.600243056
  9
$TDUUPDATE
 40
2458360.225243056
  9
$TDINDWG
 40
0.0004050926
  9
$TDUSRTIMER
 40
0.0004050926
  9
$USRTIMER
 70
     1
  9
$ANGBASE
 50
0.0
  9
$ANGDIR
 70
     0
  9
$PDMODE
 70
     1
  9
$PDSIZE
 40
-2.0
  9
$PLINEWID
 40
0.0
  9
$SPLFRAME
 70
     0
  9
$SPLINETYPE
 70
     6
  9
$SPLINESEGS
 70
     8
  9
$HANDSEED
  5
479
  9
$SURFTAB1
 70
     6
  9
$SURFTAB2
 70
     6
  9
$SURFTYPE
 70
     6
  9
$SURFU
 70
     6
  9
$SURFV
 70
     6
  9
$UCSBASE
  2

  9
$UCSNAME
  2

  9
$UCSORG
 10
0.0
 20
0.0
 30
0.0
  9
$UCSXDIR
 10
1.0
 20
0.0
 30
0.0
  9
$UCSYDIR
 10
0.0
 20
1.0
 30
0.0
  9
$UCSORTHOREF
  2

  9
$UCSORTHOVIEW
 70
     0
  9
$UCSORGTOP
 10
0.0
 20
0.0
 30
0.0
  9
$UCSORGBOTTOM
 10
0.0
 20
0.0
 30
0.0
  9
$UCSORGLEFT
 10
0.0
 20
0.0
 30
0.0
  9
$UCSORGRIGHT
 10
0.0
 20
0.0
 30
0.0
  9
$UCSORGFRONT
 10
0.0
 20
0.0
 30
0.0
  9
$UCSORGBACK
 10
0.0
 20
0.0
 30
0.0
  9
$PUCSBASE
  2

  9
$PUCSNAME
  2

  9
$PUCSORG
 10
0.0
 20
0.0
 30
0.0
  9
$PUCSXDIR
 10
1.0
 20
0.0
 30
0.0
  9
$PUCSYDIR
 10
0.0
 20
1.0
 30
0.0
  9
$PUCSORTHOREF
  2

  9
$PUCSORTHOVIEW
 70
     0
  9
$PUCSORGTOP
 10
0.0
 20
0.0
 30
0.0
  9
$PUCSORGBOTTOM
 10
0.0
 20
0.0
 30
0.0
  9
$PUCSORGLEFT
 10
0.0
 20
0.0
 30
0.0
  9
$PUCSORGRIGHT
 10
0.0
 20
0.0
 30
0.0
  9
$PUCSORGFRONT
 10
0.0
 20
0.0
 30
0.0
  9
$PUCSORGBACK
 10
0.0
 20
0.0
 30
0.0
  9
$USERI1
 70
     0
  9
$USERI2
 70
     0
  9
$USERI3
 70
     0
  9
$USERI4
 70
     0
  9
$USERI5
 70
     0
  9
$USERR1
 40
0.0
  9
$USERR2
 40
0.0
  9
$USERR3
 40
0.0
  9
$USERR4
 40
0.0
  9
$USERR5
 40
0.0
  9
$WORLDVIEW
 70
     1
  9
$SHADEDGE
 70
     3
  9
$SHADEDIF
 70
    70
  9
$TILEMODE
 70
     1
  9
$MAXACTVP
 70
    64
  9
$PINSBASE
 10
0.0
 20
0.0
 30
0.0
  9
$PLIMCHECK
 70
     0
  9
$PEXTMIN
 10
1.000000000000000E+20
 20
1.000000000000000E+20
 30
1.000000000000000E+20
  9
$PEXTMAX
 10
-1.000000000000000E+20
 20
-1.000000000000000E+20
 30
-1.000000000000000E+20
  9
$PLIMMIN
 10
0.0
 20
0.0
  9
$PLIMMAX
 10
12.0
 20
9.0
  9
$UNITMODE
 70
     0
  9
$VISRETAIN
 70
     0
  9
$PLINEGEN
 70
     1
  9
$PSLTSCALE
 70
     0
  9
$TREEDEPTH
 70
  3020
  9
$CMLSTYLE
  2
Standard
  9
$CMLJUST
 70
     0
  9
$CMLSCALE
 40
1.0
  9
$PROXYGRAPHICS
 70
     1
  9
$MEASUREMENT
 70
     0
  9
$CELWEIGHT
370
    -1
  9
$ENDCAPS
280
     0
  9
$JOINSTYLE
280
     0
  9
$LWDISPLAY
290
     0
  9
$INSUNITS
 70
     0
  9
$HYPERLINKBASE
  1

  9
$STYLESHEET
  1

  9
$XEDIT
290
     1
  9
$CEPSNTYPE
380
     0
  9
$PSTYLEMODE
290
     1
  9
$FINGERPRINTGUID
  2
{BF2A8356-B85D-DF47-928F-A12AC72EA1FA}
  9
$VERSIONGUID
  2
{118C016C-A210-1947-BAEE-59F41DA55E85}
  9
$EXTNAMES
290
     1
  9
$PSVPSCALE
 40
0.0
  9
$OLESTARTUP
290
     0
  0
ENDSEC
  0
SECTION
  2
CLASSES
  0
CLASS
  1
ACDBDICTIONARYWDFLT
  2
AcDbDictionaryWithDefault
  3
ObjectDBX Classes
 90
        0
280
     0
281
     0
  0
CLASS
  1
MATERIAL
  2
AcDbMaterial
  3
ObjectDBX Classes
 90
     1153
280
     0
281
     0
  0
CLASS
  1
VISUALSTYLE
  2
AcDbVisualStyle
  3
ObjectDBX Classes
 90
     4095
280
     0
281
     0
  0
CLASS
  1
SCALE
  2
AcDbScale
  3
ObjectDBX Classes
 90
     1153
280
     0
281
     0
  0
CLASS
  1
TABLESTYLE
  2
AcDbTableStyle
  3
ObjectDBX Classes
 90
     4095
280
     0
281
     0
  0
CLASS
  1
MLEADERSTYLE
  2
AcDbMLeaderStyle
  3
ACDB_MLEADERSTYLE_CLASS
 90
     4095
280
     0
281
     0
  0
CLASS
  1
ACDBSECTIONVIEWSTYLE
  2
AcDbSectionViewStyle
  3
ObjectDBX Classes
 90
     1025
280
     0
281
     0
  0
CLASS
  1
ACDBDETAILVIEWSTYLE
  2
AcDbDetailViewStyle
  3
ObjectDBX Classes
 90
     1025
280
     0
281
     0
  0
CLASS
  1
DICTIONARYVAR
  2
AcDbDictionaryVar
  3
ObjectDBX Classes
 90
        0
280
     0
281
     0
  0
CLASS
  1
CELLSTYLEMAP
  2
AcDbCellStyleMap
  3
ObjectDBX Classes
 90
     1152
280
     0
281
     0
  0
CLASS
  1
ACDBPLACEHOLDER
  2
AcDbPlaceHolder
  3
ObjectDBX Classes
 90
        0
280
     0
281
     0
  0
CLASS
  1
LAYOUT
  2
AcDbLayout
  3
ObjectDBX Classes
 90
        0
280
     0
281
     0
  0
ENDSEC
  0
SECTION
  2
TABLES
  0
TABLE
  2
VPORT
  5
3A2
330
0
100
AcDbSymbolTable
 70
     1
  0
VPORT
  5
40E
330
3A2
100
AcDbSymbolTableRecord
100
AcDbViewportTableRecord
  2
*ACTIVE
 70
     0
 10
0.0
 20
0.0
 11
1.0
 21
1.0
 12
0.0000020954755655
 22
-4.907147206368108
 13
0.0
 23
0.0
 14
1.0
 24
1.0
 15
0.0
 25
0.0
 16
0.0
 26
0.0
 36
1.0
 17
0.0
 27
0.0
 37
0.0
 40
1345.489354827332
 41
2.323879231473009
 42
50.0
 43
0.0
 44
0.0
 50
0.0
 51
0.0
 71
     0
 72
  2000
 73
     1
 74
     1
 75
     0
 76
     0
 77
     0
 78
     0
281
     0
 65
     1
110
0.0
120
0.0
130
0.0
111
1.0
121
0.0
131
0.0
112
0.0
122
1.0
132
0.0
 79
     0
146
0.0
1001
ACAD_NAV_VCDISPLAY
1070
     3
  0
ENDTAB
  0
TABLE
  2
LTYPE
  5
39F
330
0
100
AcDbSymbolTable
 70
    11
  0
LTYPE
  5
3F4
330
39F
100
AcDbSymbolTableRecord
100
AcDbLinetypeTableRecord
  2
ByBlock
 70
     0
  3

 72
    65
 73
     0
 40
0.0
  0
LTYPE
  5
3F5
330
39F
100
AcDbSymbolTableRecord
100
AcDbLinetypeTableRecord
  2
ByLayer
 70
     0
  3

 72
    65
 73
     0
 40
0.0
  0
LTYPE
  5
3F6
330
39F
100
AcDbSymbolTableRecord
100
AcDbLinetypeTableRecord
  2
CONTINUOUS
 70
     0
  3
Solid line
 72
    65
 73
     0
 40
0.0
  0
ENDTAB
  0
TABLE
  2
LAYER
  5
39C
330
0
100
AcDbSymbolTable
 70
     5
  0
LAYER
  5
3EE
102
{ACAD_XDICTIONARY
360
423
102
}
330
39C
100
AcDbSymbolTableRecord
100
AcDbLayerTableRecord
  2
0
 70
     0
 62
     7
  6
CONTINUOUS
370
    -3
390
3A9
  0
LAYER
  5
40D
102
{ACAD_XDICTIONARY
360
425
102
}
330
39C
100
AcDbSymbolTableRecord
100
AcDbLayerTableRecord
  2
DATA
 70
     0
 62
     7
  6
CONTINUOUS
370
    -3
390
3A9
  0
LAYER
  5
419
102
{ACAD_XDICTIONARY
360
427
102
}
330
39C
100
AcDbSymbolTableRecord
100
AcDbLayerTableRecord
  2
HIBINO-BASE
 70
     0
 62
     7
  6
CONTINUOUS
370
    -3
390
3A9
  0
LAYER
  5
41A
102
{ACAD_XDICTIONARY
360
429
102
}
330
39C
100
AcDbSymbolTableRecord
100
AcDbLayerTableRecord
  2
SPEC
 70
     0
 62
     7
  6
CONTINUOUS
370
    -3
390
3A9
  0
LAYER
  5
41B
102
{ACAD_XDICTIONARY
360
42B
102
}
330
39C
100
AcDbSymbolTableRecord
100
AcDbLayerTableRecord
  2
DIMNSIONS
 70
     0
 62
     7
  6
CONTINUOUS
370
    -3
390
3A9
  0
ENDTAB
  0
TABLE
  2
STYLE
  5
39D
330
0
100
AcDbSymbolTable
 70
     3
  0
STYLE
  5
3EF
330
39D
100
AcDbSymbolTableRecord
100
AcDbTextStyleTableRecord
  2
STANDARD
 70
     0
 40
0.0
 41
1.0
 50
0.0
 71
     0
 42
0.0
  3
txt
  4
BIGFONT.SHX
  0
STYLE
  5
41C
330
39D
100
AcDbSymbolTableRecord
100
AcDbTextStyleTableRecord
  2
_______
 70
     0
 40
0.0
 41
1.0
 50
0.0
 71
     0
 42
0.0
  3

  4
ＭＳ ゴシック
  0
ENDTAB
  0
TABLE
  2
VIEW
  5
3A0
330
0
100
AcDbSymbolTable
 70
     0
  0
ENDTAB
  0
TABLE
  2
UCS
  5
3A1
330
0
100
AcDbSymbolTable
 70
     0
  0
ENDTAB
  0
TABLE
  2
APPID
  5
3A3
330
0
100
AcDbSymbolTable
 70
     4
  0
APPID
  5
3F0
330
3A3
100
AcDbSymbolTableRecord
100
AcDbRegAppTableRecord
  2
ACAD
 70
     0
  0
APPID
  5
3F7
330
3A3
100
AcDbSymbolTableRecord
100
AcDbRegAppTableRecord
  2
AcadAnnotative
 70
     0
  0
APPID
  5
437
330
3A3
100
AcDbSymbolTableRecord
100
AcDbRegAppTableRecord
  2
ACAD_NAV_VCDISPLAY
 70
     0
  0
APPID
  5
470
330
3A3
100
AcDbSymbolTableRecord
100
AcDbRegAppTableRecord
  2
ACAD_MLEADERVER
 70
     0
  0
ENDTAB
  0
TABLE
  2
DIMSTYLE
  5
3A4
330
0
100
AcDbSymbolTable
 70
     2
100
AcDbDimStyleTable
 71
     0
  0
DIMSTYLE
105
3F1
330
3A4
100
AcDbSymbolTableRecord
100
AcDbDimStyleTableRecord
  2
STANDARD
 70
     0
279
     2
340
3EF
  0
ENDTAB
  0
TABLE
  2
BLOCK_RECORD
  5
39B
330
0
100
AcDbSymbolTable
 70
     1
  0
BLOCK_RECORD
  5
409
330
39B
100
AcDbSymbolTableRecord
100
AcDbBlockTableRecord
  2
*Model_Space
340
40C
  0
BLOCK_RECORD
  5
405
330
39B
100
AcDbSymbolTableRecord
100
AcDbBlockTableRecord
  2
*Paper_Space
340
408
  0
BLOCK_RECORD
  5
420
330
39B
100
AcDbSymbolTableRecord
100
AcDbBlockTableRecord
  2
____
340
0
102
{BLKREFS
331
85
102
}
  0
ENDTAB
  0
ENDSEC
  0
SECTION
  2
BLOCKS
  0
BLOCK
  5
40A
330
409
100
AcDbEntity
  8
0
100
AcDbBlockBegin
  2
*Model_Space
 70
     0
 10
0.0
 20
0.0
 30
0.0
  3
*Model_Space
  1

  0
ENDBLK
  5
40B
330
409
100
AcDbEntity
  8
0
100
AcDbBlockEnd
  0
BLOCK
  5
406
330
405
100
AcDbEntity
 67
     1
  8
0
100
AcDbBlockBegin
  2
*Paper_Space
 70
     0
 10
0.0
 20
0.0
 30
0.0
  3
*Paper_Space
  1

  0
ENDBLK
  5
407
330
405
100
AcDbEntity
 67
     1
  8
0
100
AcDbBlockEnd
  0
BLOCK
  5
2D
330
420
100
AcDbEntity
  8
SPEC
100
AcDbBlockBegin
  2
____
 70
     0
 10
0.0
 20
0.0
 30
0.0
  3
____
  1

  0
TEXT
  5
2E
330
420
100
AcDbEntity
  8
0
 62
     7
100
AcDbText
 10
-408.4089372217425
 20
338.3945942552377
 30
0.0
 40
9.501573350694446
  1
寸法(W×H×D)
  7
_______
 11
-408.4089372217425
 21
347.8961676059321
 31
0.0
100
AcDbText
 73
     3
  0
ENDBLK
  5
2F
330
420
100
AcDbEntity
  8
SPEC
100
AcDbBlockEnd
  0
ENDSEC
  0
SECTION
  2
ENTITIES
  0
LINE
  5
30
330
409
100
AcDbEntity
  8
HIBINO-BASE
  6
Continuous
 62
     7
100
AcDbLine
 10
-450.0
 20
664.1272599999999
 30
0.0
 11
450.0
 21
664.1272599999999
 31
0.0
  0
LINE
  5
31
330
409
100
AcDbEntity
  8
HIBINO-BASE
  6
Continuous
 62
     7
100
AcDbLine
 10
450.0
 20
-635.8727399999998
 30
0.0
 11
-450.0
 21
-635.8727399999998
 31
0.0
  0
LINE
  5
32
330
409
100
AcDbEntity
  8
HIBINO-BASE
  6
Continuous
 62
     7
100
AcDbLine
 10
-450.0
 20
-635.8727399999998
 30
0.0
 11
-450.0
 21
664.1272599999999
 31
0.0
  0
LINE
  5
33
330
409
100
AcDbEntity
  8
HIBINO-BASE
  6
Continuous
 62
     7
100
AcDbLine
 10
450.0
 20
664.1272599999999
 30
0.0
 11
450.0
 21
-635.8727399999998
 31
0.0
  0
LINE
  5
34
330
409
100
AcDbEntity
  8
HIBINO-BASE
  6
Continuous
 62
     7
100
AcDbLine
 10
0.0000000000000711
 20
-523.3727399999998
 30
0.0
 11
450.0
 21
-523.3727399999998
 31
0.0
  0
LINE
  5
35
330
409
100
AcDbEntity
  8
HIBINO-BASE
  6
Continuous
 62
     7
100
AcDbLine
 10
0.0000000000000711
 20
-635.8727399999998
 30
0.0
 11
0.0000000000000711
 21
-523.3727399999998
 31
0.0
  0
TEXT
  5
36
330
409
100
AcDbEntity
  8
HIBINO-BASE
 62
     7
100
AcDbText
 10
4.500000000000099
 20
-535.9162066666664
 30
0.0
 40
8.144205729166666
  1
NOTE
 41
0.7
 11
4.5000000000001
 21
-527.7720009374998
 31
0.0
100
AcDbText
 73
     3
  0
LINE
  5
37
330
409
100
AcDbEntity
  8
HIBINO-BASE
  6
Continuous
 62
     7
100
AcDbLine
 10
175.0000000000001
 20
-635.8727399999998
 30
0.0
 11
175.0000000000001
 21
-523.3727399999998
 31
0.0
  0
TEXT
  5
38
330
409
100
AcDbEntity
  8
HIBINO-BASE
 62
     7
100
AcDbText
 10
179.4999999999999
 20
-535.9162066666664
 30
0.0
 40
8.144205729166666
  1
TITLE
 41
0.7
 11
179.4999999999999
 21
-527.7720009374998
 31
0.0
100
AcDbText
 73
     3
  0
LINE
  5
39
330
409
100
AcDbEntity
  8
HIBINO-BASE
  6
Continuous
 62
     7
100
AcDbLine
 10
0.0000000000000711
 20
-585.8727399999998
 30
0.0
 11
450.0
 21
-585.8727399999998
 31
0.0
  0
TEXT
  5
3A
330
409
100
AcDbEntity
  8
HIBINO-BASE
 62
     7
100
AcDbText
 10
242.0
 20
-598.1346066666666
 30
0.0
 40
8.144205729166666
  1
DRAWN
 41
0.7
 11
242.0
 21
-589.9904009374999
 31
0.0
100
AcDbText
 73
     3
  0
TEXT
  5
3B
330
409
100
AcDbEntity
  8
HIBINO-BASE
 62
     7
100
AcDbText
 10
116.9999999999999
 20
-598.1346066666666
 30
0.0
 40
8.144205729166666
  1
DATE
 41
0.7
 11
116.9999999999999
 21
-589.9904009374999
 31
0.0
100
AcDbText
 73
     3
  0
TEXT
  5
3C
330
409
100
AcDbEntity
  8
HIBINO-BASE
 62
     7
100
AcDbText
 10
66.99999999999995
 20
-598.1346066666666
 30
0.0
 40
8.144205729166666
  1
SCALE
 41
0.7
 11
66.99999999999995
 21
-589.9904009374999
 31
0.0
100
AcDbText
 73
     3
  0
TEXT
  5
3D
330
409
100
AcDbEntity
  8
HIBINO-BASE
 62
     7
100
AcDbText
 10
179.4999999999999
 20
-598.1346066666666
 30
0.0
 40
8.144205729166666
  1
DESIGN
 41
0.7
 11
179.4999999999999
 21
-589.9904009374999
 31
0.0
100
AcDbText
 73
     3
  0
TEXT
  5
3E
330
409
100
AcDbEntity
  8
HIBINO-BASE
 62
     7
100
AcDbText
 10
367.0
 20
-598.1346066666666
 30
0.0
 40
8.144205729166666
  1
DRAWING NO.
 41
0.7
 11
367.0
 21
-589.9904009374999
 31
0.0
100
AcDbText
 73
     3
  0
TEXT
  5
3F
330
409
100
AcDbEntity
  8
HIBINO-BASE
 62
     7
100
AcDbText
 10
304.4999999999999
 20
-598.1346066666666
 30
0.0
 40
8.144205729166666
  1
CHECK
 41
0.7
 11
304.4999999999999
 21
-589.9904009374999
 31
0.0
100
AcDbText
 73
     3
  0
LINE
  5
40
330
409
100
AcDbEntity
  8
HIBINO-BASE
  6
Continuous
 62
     7
100
AcDbLine
 10
71.87500000000007
 20
-629.6227399999998
 30
0.0
 11
90.62500000000007
 21
-610.8727399999998
 31
0.0
  0
TEXT
  5
41
330
409
100
AcDbEntity
  8
HIBINO-BASE
 62
     7
100
AcDbText
 10
68.75000000000007
 20
-616.4174566666664
 30
0.0
 40
8.144205729166666
  1
1
 41
0.7
 11
68.75000000000007
 21
-608.2732509374998
 31
0.0
100
AcDbText
 73
     3
  0
LINE
  5
42
330
409
100
AcDbEntity
  8
HIBINO-BASE
  6
Continuous
 62
     7
100
AcDbLine
 10
62.50000000000007
 20
-635.8727399999998
 30
0.0
 11
62.50000000000007
 21
-585.8727399999998
 31
0.0
  0
LINE
  5
43
330
409
100
AcDbEntity
  8
HIBINO-BASE
  6
Continuous
 62
     7
100
AcDbLine
 10
112.4999999999999
 20
-635.8727399999998
 30
0.0
 11
112.4999999999999
 21
-585.8727399999998
 31
0.0
  0
LINE
  5
44
330
409
100
AcDbEntity
  8
HIBINO-BASE
  6
Continuous
 62
     7
100
AcDbLine
 10
237.5
 20
-585.8727399999998
 30
0.0
 11
237.5
 21
-635.8727399999998
 31
0.0
  0
LINE
  5
45
330
409
100
AcDbEntity
  8
HIBINO-BASE
  6
Continuous
 62
     7
100
AcDbLine
 10
362.5
 20
-585.8727399999998
 30
0.0
 11
362.5
 21
-635.8727399999998
 31
0.0
  0
LINE
  5
46
330
409
100
AcDbEntity
  8
HIBINO-BASE
  6
Continuous
 62
     7
100
AcDbLine
 10
300.0
 20
-635.8727399999998
 30
0.0
 11
300.0
 21
-585.8727399999998
 31
0.0
  0
TEXT
  5
47
330
409
100
AcDbEntity
  8
HIBINO-BASE
 62
     7
100
AcDbText
 10
116.7827
 20
-621.5545066666662
 30
0.0
 40
8.144205729166666
  1
'18.09.
 41
0.7
 11
116.7827
 21
-613.4103009374996
 31
0.0
100
AcDbText
 73
     3
  0
TEXT
  5
48
330
409
100
AcDbEntity
  8
HIBINO-BASE
 62
     7
100
AcDbText
 10
87.50000000000005
 20
-625.7924566666664
 30
0.0
 40
8.144205729166666
  1
5
 41
0.7
 11
87.50000000000005
 21
-617.6482509374998
 31
0.0
100
AcDbText
 73
     3
  0
TEXT
  5
49
330
409
100
AcDbEntity
  8
HIBINO-BASE
 62
     7
100
AcDbText
 10
245.0290500551731
 20
-621.5545066666662
 30
0.0
 40
8.144205729166666
  1
N.Sasaki
 41
0.7
 11
245.0290500551731
 21
-613.4103009374996
 31
0.0
100
AcDbText
 73
     3
  0
TEXT
  5
4A
330
409
100
AcDbEntity
  8
HIBINO-BASE
 62
     7
100
AcDbText
 10
19.41666666666684
 20
-625.9927399999999
 30
0.0
 40
16.28841145833333
  1
A4
 41
0.7
 11
19.41666666666684
 21
-609.7043285416665
 31
0.0
100
AcDbText
 73
     3
  0
TEXT
  5
4B
330
409
100
AcDbEntity
  8
HIBINO-BASE
 62
     7
100
AcDbText
 10
4.791666666666642
 20
-598.9700149999997
 30
0.0
 40
8.144205729166666
  1
PAPER SIZE
 41
0.7
 11
4.791666666666643
 21
-590.8258092708331
 31
0.0
100
AcDbText
 73
     3
  0
TEXT
  5
4C
330
409
100
AcDbEntity
  8
HIBINO-BASE
 62
     7
100
AcDbText
 10
-414.0799999999999
 20
-667.9161289999998
 30
0.0
 40
18.00022089843749
  1
Hibino Corporation
 41
0.7
 11
-414.0799999999999
 21
-649.9159081015623
 31
0.0
100
AcDbText
 73
     3
  0
TEXT
  5
4D
330
409
100
AcDbEntity
  8
HIBINO-BASE
 62
     7
100
AcDbText
 10
250.34195
 20
-667.9161289999998
 30
0.0
 40
18.00022089843749
  1
ヒビノ株式会社
 41
0.7
 11
250.34195
 21
-649.9159081015623
 31
0.0
100
AcDbText
 73
     3
  0
TEXT
  5
4E
330
409
100
AcDbEntity
  8
SPEC
 62
     7
100
AcDbText
 10
-406.25
 20
621.0936100000002
 30
0.0
 40
12.21630859375
  1
仕様
 41
0.7
 11
-406.25
 21
633.3099185937502
 31
0.0
100
AcDbText
 73
     3
  0
LINE
  5
4F
330
409
100
AcDbEntity
  8
SPEC
  6
Continuous
 62
     7
100
AcDbLine
 10
-412.5
 20
614.1272600000002
 30
0.0
 11
325.0
 21
614.1272600000002
 31
0.0
  0
LINE
  5
50
330
409
100
AcDbEntity
  8
SPEC
  6
Continuous
 62
     7
100
AcDbLine
 10
-325.0
 20
595.3772600000002
 30
0.0
 11
325.0
 21
595.3772600000002
 31
0.0
  0
LINE
  5
51
330
409
100
AcDbEntity
  8
SPEC
  6
Continuous
 62
     7
100
AcDbLine
 10
-325.0
 20
557.8772600000002
 30
0.0
 11
325.0
 21
557.8772600000002
 31
0.0
  0
LINE
  5
52
330
409
100
AcDbEntity
  8
SPEC
  6
Continuous
 62
     7
100
AcDbLine
 10
-325.0
 20
576.6272600000002
 30
0.0
 11
325.0
 21
576.6272600000002
 31
0.0
  0
TEXT
  5
53
330
409
100
AcDbEntity
  8
SPEC
 62
     7
100
AcDbText
 10
-170.4917500386409
 20
599.3816866241615
 30
0.0
 40
9.501556249999998
  1
8ch
 41
0.7
 11
-170.4917500386409
 21
608.8832428741615
 31
0.0
100
AcDbText
 73
     3
  0
LINE
  5
54
330
409
100
AcDbEntity
  8
SPEC
  6
Continuous
 62
     7
100
AcDbLine
 10
-412.5
 20
614.1272600000002
 30
0.0
 11
-412.5
 21
295.3772600000002
 31
0.0
  0
LINE
  5
55
330
409
100
AcDbEntity
  8
SPEC
  6
Continuous
 62
     7
100
AcDbLine
 10
325.0
 20
614.1272600000002
 30
0.0
 11
325.0
 21
295.3772600000002
 31
0.0
  0
TEXT
  5
56
330
409
100
AcDbEntity
  8
SPEC
 62
     7
100
AcDbText
 10
-408.6320150425818
 20
599.9041703729889
 30
0.0
 40
9.501556249999998
  1
アナログ出力
 41
0.7
 11
-408.6320150425818
 21
609.4057266229889
 31
0.0
100
AcDbText
 73
     3
  0
TEXT
  5
57
330
409
100
AcDbEntity
  8
SPEC
 62
     7
100
AcDbText
 10
-170.5724250397925
 20
581.003348875938
 30
0.0
 40
9.501556249999998
  1
ユーロブロック・電子バランス
 41
0.7
 11
-170.5724250397925
 21
590.504905125938
 31
0.0
100
AcDbText
 73
     3
  0
LINE
  5
58
330
409
100
AcDbEntity
  8
SPEC
  6
Continuous
 62
     7
100
AcDbLine
 10
-325.0
 20
539.1272600000002
 30
0.0
 11
325.0
 21
539.1272600000002
 31
0.0
  0
LINE
  5
59
330
409
100
AcDbEntity
  8
SPEC
  6
Continuous
 62
     7
100
AcDbLine
 10
-325.0
 20
520.3772600000002
 30
0.0
 11
325.0
 21
520.3772600000002
 31
0.0
  0
LINE
  5
5A
330
409
100
AcDbEntity
  8
SPEC
  6
Continuous
 62
     7
100
AcDbLine
 10
-325.0
 20
501.6272600000001
 30
0.0
 11
325.0
 21
501.6272600000001
 31
0.0
  0
LINE
  5
5B
330
409
100
AcDbEntity
  8
SPEC
  6
Continuous
 62
     7
100
AcDbLine
 10
-325.0
 20
482.8772600000001
 30
0.0
 11
325.0
 21
482.8772600000001
 31
0.0
  0
LINE
  5
5C
330
409
100
AcDbEntity
  8
SPEC
  6
Continuous
 62
     7
100
AcDbLine
 10
-412.5
 20
464.1272600000001
 30
0.0
 11
325.0
 21
464.1272600000001
 31
0.0
  0
LINE
  5
5D
330
409
100
AcDbEntity
  8
SPEC
  6
Continuous
 62
     7
100
AcDbLine
 10
-325.0
 20
445.3772600000001
 30
0.0
 11
325.0
 21
445.3772600000001
 31
0.0
  0
LINE
  5
5E
330
409
100
AcDbEntity
  8
SPEC
  6
Continuous
 62
     7
100
AcDbLine
 10
-325.0
 20
426.6272600000001
 30
0.0
 11
325.0
 21
426.6272600000001
 31
0.0
  0
LINE
  5
5F
330
409
100
AcDbEntity
  8
SPEC
  6
Continuous
 62
     7
100
AcDbLine
 10
-325.0
 20
407.8772600000001
 30
0.0
 11
325.0
 21
407.8772600000001
 31
0.0
  0
TEXT
  5
60
330
409
100
AcDbEntity
  8
SPEC
 62
     7
100
AcDbText
 10
-321.0556552946446
 20
600.437110394036
 30
0.0
 40
9.501556249999998
  1
チャンネル数
 41
0.7
 11
-321.0556552946446
 21
609.938666644036
 31
0.0
100
AcDbText
 73
     3
  0
LINE
  5
61
330
409
100
AcDbEntity
  8
SPEC
  6
Continuous
 62
     7
100
AcDbLine
 10
-325.0
 20
614.1272600000002
 30
0.0
 11
-325.0
 21
370.3772600000001
 31
0.0
  0
LINE
  5
62
330
409
100
AcDbEntity
  8
SPEC
  6
Continuous
 62
     7
100
AcDbLine
 10
-175.0
 20
614.1272600000002
 30
0.0
 11
-175.0
 21
295.3772600000002
 31
0.0
  0
TEXT
  5
63
330
409
100
AcDbEntity
  8
SPEC
 62
     7
100
AcDbText
 10
-320.7075204589881
 20
580.9723974309608
 30
0.0
 40
9.501556249999998
  1
端子・形式
 41
0.7
 11
-320.7075204589881
 21
590.4739536809607
 31
0.0
100
AcDbText
 73
     3
  0
TEXT
  5
64
330
409
100
AcDbEntity
  8
SPEC
 62
     7
100
AcDbText
 10
-320.5208271332015
 20
563.3957260558572
 30
0.0
 40
9.501556249999998
  1
最大出力レベル
 41
0.7
 11
-320.5208271332015
 21
572.8972823058573
 31
0.0
100
AcDbText
 73
     3
  0
TEXT
  5
65
330
409
100
AcDbEntity
  8
SPEC
 62
     7
100
AcDbText
 10
-321.9380490352692
 20
543.9717055861156
 30
0.0
 40
9.501556249999998
  1
周波数特性
 41
0.7
 11
-321.9380490352692
 21
553.4732618361156
 31
0.0
100
AcDbText
 73
     3
  0
TEXT
  5
66
330
409
100
AcDbEntity
  8
SPEC
 62
     7
100
AcDbText
 10
-321.3795073154449
 20
525.551226089701
 30
0.0
 40
9.501573350694446
  1
THD
 41
0.7
 11
-321.3795073154449
 21
535.0527994403954
 31
0.0
100
AcDbText
 73
     3
  0
TEXT
  5
67
330
409
100
AcDbEntity
  8
SPEC
 62
     7
100
AcDbText
 10
-320.7164913430722
 20
506.5924424042472
 30
0.0
 40
9.501573350694446
  1
ダイナミツクレンジ
 41
0.7
 11
-320.7164913430722
 21
516.0940157549417
 31
0.0
100
AcDbText
 73
     3
  0
TEXT
  5
68
330
409
100
AcDbEntity
  8
SPEC
 62
     7
100
AcDbText
 10
-320.0268683768138
 20
469.7970441916459
 30
0.0
 40
9.501573350694446
  1
D/Aレイテンシー
 41
0.7
 11
-320.0268683768138
 21
479.2986175423403
 31
0.0
100
AcDbText
 73
     3
  0
TEXT
  5
69
330
409
100
AcDbEntity
  8
SPEC
 62
     7
100
AcDbText
 10
-169.6528184652898
 20
562.6554903616226
 30
0.0
 40
9.501556249999998
  1
+19dBu
 41
0.7
 11
-169.6528184652898
 21
572.1570466116227
 31
0.0
100
AcDbText
 73
     3
  0
TEXT
  5
6A
330
409
100
AcDbEntity
  8
SPEC
 62
     7
100
AcDbText
 10
-170.2821318541214
 20
543.9356653621508
 30
0.0
 40
9.501556249999998
  1
20Hz～20kHz(+0.5dB/-1dB)
 41
0.7
 11
-170.2821318541214
 21
553.4372216121507
 31
0.0
100
AcDbText
 73
     3
  0
TEXT
  5
6B
330
409
100
AcDbEntity
  8
SPEC
 62
     7
100
AcDbText
 10
-170.2452439959072
 20
506.4325360009111
 30
0.0
 40
9.501573350694446
  1
108dB(22Hz～22kHz、アンウェイト)
 41
0.7
 11
-170.2452439959072
 21
515.9341093516055
 31
0.0
100
AcDbText
 73
     3
  0
TEXT
  5
6C
330
409
100
AcDbEntity
  8
SPEC
 62
     7
100
AcDbText
 10
-320.7164913430722
 20
487.8424424042471
 30
0.0
 40
9.501573350694446
  1
クロストーク
 41
0.7
 11
-320.7164913430722
 21
497.3440157549416
 31
0.0
100
AcDbText
 73
     3
  0
TEXT
  5
6D
330
409
100
AcDbEntity
  8
SPEC
 62
     7
100
AcDbText
 10
-170.2452439959072
 20
487.6825360009108
 30
0.0
 40
9.501573350694446
  1
-75dB以下
 41
0.7
 11
-170.2452439959072
 21
497.1841093516052
 31
0.0
100
AcDbText
 73
     3
  0
TEXT
  5
6E
330
409
100
AcDbEntity
  8
SPEC
 62
     7
100
AcDbText
 10
-408.0458192943621
 20
450.3534077796507
 30
0.0
 40
9.501573350694446
  1
BLU link
 41
0.7
 11
-408.0458192943621
 21
459.8549811303451
 31
0.0
100
AcDbText
 73
     3
  0
TEXT
  5
6F
330
409
100
AcDbEntity
  8
SPEC
 62
     7
100
AcDbText
 10
-170.2340959983753
 20
524.7989485402615
 30
0.0
 40
9.501573350694446
  1
0.01%%%以下(20Hz～20kHz、+10dBu)
 41
0.7
 11
-170.2340959983753
 21
534.300521890956
 31
0.0
100
AcDbText
 73
     3
  0
TEXT
  5
70
330
409
100
AcDbEntity
  8
SPEC
 62
     7
100
AcDbText
 10
-170.2991406001936
 20
469.4086635500022
 30
0.0
 40
9.501573350694446
  1
0.58ms(48kHz)
 41
0.7
 11
-170.2991406001936
 21
478.9102369006966
 31
0.0
100
AcDbText
 73
     3
  0
TEXT
  5
71
330
409
100
AcDbEntity
  8
SPEC
 62
     7
100
AcDbText
 10
-320.6222832683771
 20
450.0072893966239
 30
0.0
 40
9.501573350694446
  1
バス数
 41
0.7
 11
-320.6222832683771
 21
459.5088627473183
 31
0.0
100
AcDbText
 73
     3
  0
TEXT
  5
72
330
409
100
AcDbEntity
  8
SPEC
 62
     7
100
AcDbText
 10
-320.5876489377585
 20
431.7321383081331
 30
0.0
 40
9.501573350694446
  1
端子・形式
 41
0.7
 11
-320.5876489377585
 21
441.2337116588276
 31
0.0
100
AcDbText
 73
     3
  0
TEXT
  5
73
330
409
100
AcDbEntity
  8
SPEC
 62
     7
100
AcDbText
 10
-320.5060165600281
 20
413.0914446494263
 30
0.0
 40
9.501573350694446
  1
最大伝送距離
 41
0.7
 11
-320.5060165600281
 21
422.5930180001208
 31
0.0
100
AcDbText
 73
     3
  0
TEXT
  5
74
330
409
100
AcDbEntity
  8
SPEC
 62
     7
100
AcDbText
 10
-320.4243841822977
 20
394.4507509907196
 30
0.0
 40
9.501573350694446
  1
最大ノード数
 41
0.7
 11
-320.4243841822977
 21
403.952324341414
 31
0.0
100
AcDbText
 73
     3
  0
TEXT
  5
75
330
409
100
AcDbEntity
  8
SPEC
 62
     7
100
AcDbText
 10
-320.3427518045675
 20
375.8100573320128
 30
0.0
 40
9.501573350694446
  1
パススルーレイテンシー
 41
0.7
 11
-320.3427518045675
 21
385.3116306827073
 31
0.0
100
AcDbText
 73
     3
  0
TEXT
  5
76
330
409
100
AcDbEntity
  8
SPEC
 62
     7
100
AcDbText
 10
-170.5965063465924
 20
450.4614907917625
 30
0.0
 40
9.501573350694446
  1
カスケードバス最大256ch
 41
0.7
 11
-170.5965063465924
 21
459.9630641424569
 31
0.0
100
AcDbText
 73
     3
  0
TEXT
  5
77
330
409
100
AcDbEntity
  8
SPEC
 62
     7
100
AcDbText
 10
-170.9971979505103
 20
431.707393072062
 30
0.0
 40
9.501573350694446
  1
RJ-45×2
 41
0.7
 11
-170.9971979505103
 21
441.2089664227564
 31
0.0
100
AcDbText
 73
     3
  0
TEXT
  5
78
330
409
100
AcDbEntity
  8
SPEC
 62
     7
100
AcDbText
 10
-170.6376368611399
 20
412.9968105012975
 30
0.0
 40
9.501573350694446
  1
100m(CAT5eケーブル)
 41
0.7
 11
-170.6376368611399
 21
422.498383851992
 31
0.0
100
AcDbText
 73
     3
  0
TEXT
  5
79
330
409
100
AcDbEntity
  8
SPEC
 62
     7
100
AcDbText
 10
-170.4269314144794
 20
394.0588790983987
 30
0.0
 40
9.501573350694446
  1
60
 41
0.7
 11
-170.4269314144794
 21
403.5604524490931
 31
0.0
100
AcDbText
 73
     3
  0
TEXT
  5
7A
330
409
100
AcDbEntity
  8
SPEC
 62
     7
100
AcDbText
 10
-171.1385592313468
 20
375.4898830954863
 30
0.0
 40
9.501573350694446
  1
0.08ms(48kHz)
 41
0.7
 11
-171.1385592313468
 21
384.9914564461808
 31
0.0
100
AcDbText
 73
     3
  0
LINE
  5
7B
330
409
100
AcDbEntity
  8
SPEC
  6
Continuous
 62
     7
100
AcDbLine
 10
-325.0
 20
389.1272600000002
 30
0.0
 11
325.0
 21
389.1272600000002
 31
0.0
  0
TEXT
  5
7C
330
409
100
AcDbEntity
  8
SPEC
 62
     7
100
AcDbText
 10
-408.3407810181188
 20
319.5851986548495
 30
0.0
 40
9.501573350694446
  1
質量
 41
0.7
 11
-408.3407810181188
 21
329.0867720055439
 31
0.0
100
AcDbText
 73
     3
  0
TEXT
  5
7D
330
409
100
AcDbEntity
  8
SPEC
 62
     7
100
AcDbText
 10
-170.7434424310656
 20
337.8734069779976
 30
0.0
 40
9.501573350694446
  1
219×42×195mm(除突起部）
 41
0.7
 11
-170.7434424310656
 21
347.374980328692
 31
0.0
100
AcDbText
 73
     3
  0
TEXT
  5
7E
330
409
100
AcDbEntity
  8
SPEC
 62
     7
100
AcDbText
 10
-170.3796164867199
 20
319.7307996378352
 30
0.0
 40
9.501573350694446
  1
1.4kg
 41
0.7
 11
-170.3796164867199
 21
329.2323729885296
 31
0.0
100
AcDbText
 73
     3
  0
LINE
  5
7F
330
409
100
AcDbEntity
  8
SPEC
  6
Continuous
 62
     7
100
AcDbLine
 10
-412.5
 20
370.3772600000001
 30
0.0
 11
325.0
 21
370.3772600000001
 31
0.0
  0
LINE
  5
80
330
409
100
AcDbEntity
  8
SPEC
  6
Continuous
 62
     7
100
AcDbLine
 10
-412.5
 20
351.6272600000001
 30
0.0
 11
325.0
 21
351.6272600000001
 31
0.0
  0
LINE
  5
81
330
409
100
AcDbEntity
  8
SPEC
  6
Continuous
 62
     7
100
AcDbLine
 10
-412.5
 20
332.8772600000002
 30
0.0
 11
325.0
 21
332.8772600000002
 31
0.0
  0
LINE
  5
82
330
409
100
AcDbEntity
  8
SPEC
  6
Continuous
 62
     7
100
AcDbLine
 10
-412.5
 20
314.1272600000002
 30
0.0
 11
325.0
 21
314.1272600000002
 31
0.0
  0
TEXT
  5
83
330
409
100
AcDbEntity
  8
SPEC
 62
     7
100
AcDbText
 10
-408.4099161255738
 20
356.8709794258004
 30
0.0
 40
9.501573350694446
  1
電源
 41
0.7
 11
-408.4099161255738
 21
366.3725527764949
 31
0.0
100
AcDbText
 73
     3
  0
TEXT
  5
84
330
409
100
AcDbEntity
  8
SPEC
 62
     7
100
AcDbText
 10
-171.1385592313468
 20
356.7398830954863
 30
0.0
 40
9.501573350694446
  1
DC12V(19W)、電源アダプター(AC100V、50/60Hz)
 41
0.7
 11
-171.1385592313468
 21
366.2414564461808
 31
0.0
100
AcDbText
 73
     3
  0
INSERT
  5
85
330
409
100
AcDbEntity
  8
SPEC
 62
     7
100
AcDbBlockReference
  2
____
 10
0.0
 20
0.0
 30
0.0
  0
TEXT
  5
86
330
409
100
AcDbEntity
  8
SPEC
 62
     7
100
AcDbText
 10
-408.3407810181188
 20
300.8351986548495
 30
0.0
 40
9.501573350694446
  1
付属品
 41
0.7
 11
-408.3407810181188
 21
310.3367720055439
 31
0.0
100
AcDbText
 73
     3
  0
LINE
  5
87
330
409
100
AcDbEntity
  8
SPEC
  6
Continuous
 62
     7
100
AcDbLine
 10
-412.5
 20
295.3772600000002
 30
0.0
 11
325.0
 21
295.3772600000002
 31
0.0
  0
TEXT
  5
88
330
409
100
AcDbEntity
  8
SPEC
 62
     7
100
AcDbText
 10
-170.3796164867199
 20
300.9807996378352
 30
0.0
 40
9.501573350694446
  1
電源アダプター
 41
0.7
 11
-170.3796164867199
 21
310.4823729885296
 31
0.0
100
AcDbText
 73
     3
  0
TEXT
  5
89
330
409
100
AcDbEntity
  8
DIMNSIONS
 62
     7
100
AcDbText
 10
-99.99999999999996
 20
-574.5252899999996
 30
0.0
 40
12.21630859375
  1
(単位：mm)
 41
0.7
 11
-99.99999999999996
 21
-562.3089814062496
 31
0.0
100
AcDbText
 73
     3
  0
LINE
  5
8A
330
409
100
AcDbEntity
  8
DIMNSIONS
  6
Continuous
 62
     7
100
AcDbLine
 10
-200.0
 20
-407.5
 30
0.0
 11
-200.0
 21
-430.0
 31
0.0
  0
LINE
  5
8B
330
409
100
AcDbEntity
  8
DIMNSIONS
  6
Continuous
 62
     7
100
AcDbLine
 10
19.0
 20
-407.5
 30
0.0
 11
19.0
 21
-430.0
 31
0.0
  0
LINE
  5
8C
330
409
100
AcDbEntity
  8
DIMNSIONS
  6
Continuous
 62
     7
100
AcDbLine
 10
-200.0
 20
-425.0
 30
0.0
 11
19.0
 21
-425.0
 31
0.0
  0
LINE
  5
8D
330
409
100
AcDbEntity
  8
DIMNSIONS
  6
Continuous
 62
     7
100
AcDbLine
 10
-200.0
 20
-425.0
 30
0.0
 11
-190.0006103515625
 21
-422.3206716188971
 31
0.0
  0
LINE
  5
8E
330
409
100
AcDbEntity
  8
DIMNSIONS
  6
Continuous
 62
     7
100
AcDbLine
 10
-200.0
 20
-425.0
 30
0.0
 11
-190.0006103515625
 21
-427.6793283811029
 31
0.0
  0
LINE
  5
8F
330
409
100
AcDbEntity
  8
DIMNSIONS
  6
Continuous
 62
     7
100
AcDbLine
 10
19.0
 20
-425.0
 30
0.0
 11
9.000610351562501
 21
-427.6793283811029
 31
0.0
  0
LINE
  5
90
330
409
100
AcDbEntity
  8
DIMNSIONS
  6
Continuous
 62
     7
100
AcDbLine
 10
19.0
 20
-425.0
 30
0.0
 11
9.0006103515625
 21
-422.3206716188971
 31
0.0
  0
TEXT
  5
91
330
409
100
AcDbEntity
  8
DIMNSIONS
 62
     7
100
AcDbText
 10
-103.7291666666667
 20
-420.5305555555555
 30
0.0
 40
13.57367621527778
  1
219
 41
0.7
 11
-103.7291666666667
 21
-406.9568793402778
 31
0.0
100
AcDbText
 73
     3
  0
LINE
  5
92
330
409
100
AcDbEntity
  8
DIMNSIONS
  6
Continuous
 62
     7
100
AcDbLine
 10
-207.5
 20
-400.0
 30
0.0
 11
-217.5
 21
-400.0
 31
0.0
  0
LINE
  5
93
330
409
100
AcDbEntity
  8
DIMNSIONS
  6
Continuous
 62
     7
100
AcDbLine
 10
-207.5
 20
-358.0
 30
0.0
 11
-217.5
 21
-358.0
 31
0.0
  0
LINE
  5
94
330
409
100
AcDbEntity
  8
DIMNSIONS
  6
Continuous
 62
     7
100
AcDbLine
 10
-212.5
 20
-400.0
 30
0.0
 11
-212.5
 21
-358.0
 31
0.0
  0
LINE
  5
95
330
409
100
AcDbEntity
  8
DIMNSIONS
  6
Continuous
 62
     7
100
AcDbLine
 10
-212.5
 20
-400.0
 30
0.0
 11
-215.1793283811029
 21
-390.0006103515625
 31
0.0
  0
LINE
  5
96
330
409
100
AcDbEntity
  8
DIMNSIONS
  6
Continuous
 62
     7
100
AcDbLine
 10
-212.5
 20
-400.0
 30
0.0
 11
-209.820671618897
 21
-390.0006103515625
 31
0.0
  0
LINE
  5
97
330
409
100
AcDbEntity
  8
DIMNSIONS
  6
Continuous
 62
     7
100
AcDbLine
 10
-212.5
 20
-358.0
 30
0.0
 11
-209.820671618897
 21
-367.9993896484375
 31
0.0
  0
LINE
  5
98
330
409
100
AcDbEntity
  8
DIMNSIONS
  6
Continuous
 62
     7
100
AcDbLine
 10
-212.5
 20
-358.0
 30
0.0
 11
-215.1793283811029
 21
-367.9993896484375
 31
0.0
  0
TEXT
  5
99
330
409
100
AcDbEntity
  8
DIMNSIONS
 62
     7
100
AcDbText
 10
-216.9694444444444
 20
-396.6388888888888
 30
0.0
 40
13.57367621527778
  1
42.0
 50
90.0
 41
0.7
 11
-230.5431206597222
 21
-396.6388888888888
 31
0.0
100
AcDbText
 73
     3
  0
LINE
  5
9A
330
409
100
AcDbEntity
  8
DIMNSIONS
  6
Continuous
 62
     7
100
AcDbLine
 10
-207.5
 20
-350.0
 30
0.0
 11
-217.5
 21
-350.0
 31
0.0
  0
LINE
  5
9B
330
409
100
AcDbEntity
  8
DIMNSIONS
  6
Continuous
 62
     7
100
AcDbLine
 10
-207.5
 20
-155.0
 30
0.0
 11
-217.5
 21
-155.0
 31
0.0
  0
LINE
  5
9C
330
409
100
AcDbEntity
  8
DIMNSIONS
  6
Continuous
 62
     7
100
AcDbLine
 10
-212.5
 20
-350.0
 30
0.0
 11
-212.5
 21
-155.0
 31
0.0
  0
LINE
  5
9D
330
409
100
AcDbEntity
  8
DIMNSIONS
  6
Continuous
 62
     7
100
AcDbLine
 10
-212.5
 20
-350.0
 30
0.0
 11
-215.1793283811029
 21
-340.0006103515625
 31
0.0
  0
LINE
  5
9E
330
409
100
AcDbEntity
  8
DIMNSIONS
  6
Continuous
 62
     7
100
AcDbLine
 10
-212.5
 20
-350.0
 30
0.0
 11
-209.820671618897
 21
-340.0006103515625
 31
0.0
  0
LINE
  5
9F
330
409
100
AcDbEntity
  8
DIMNSIONS
  6
Continuous
 62
     7
100
AcDbLine
 10
-212.5
 20
-155.0
 30
0.0
 11
-209.820671618897
 21
-164.9993896484375
 31
0.0
  0
LINE
  5
A0
330
409
100
AcDbEntity
  8
DIMNSIONS
  6
Continuous
 62
     7
100
AcDbLine
 10
-212.5
 20
-155.0
 30
0.0
 11
-215.1793283811029
 21
-164.9993896484375
 31
0.0
  0
TEXT
  5
A1
330
409
100
AcDbEntity
  8
DIMNSIONS
 62
     7
100
AcDbText
 10
-216.9694444444444
 20
-265.7291666666667
 30
0.0
 40
13.57367621527778
  1
195
 50
90.0
 41
0.7
 11
-230.5431206597222
 21
-265.7291666666667
 31
0.0
100
AcDbText
 73
     3
  0
TEXT
  5
A2
330
409
100
AcDbEntity
  8
DATA
 62
     7
100
AcDbText
 10
-437.5
 20
-596.4913511111109
 30
0.0
 40
9.501573350694446
  1
※仕様及び外観は予告なく変更されることがあります。
 41
0.7
 11
-437.5
 21
-586.9897777604164
 31
0.0
100
AcDbText
 73
     3
  0
TEXT
  5
A3
330
409
100
AcDbEntity
  8
DATA
 62
     7
100
AcDbText
 10
-437.5
 20
-608.8385733333328
 30
0.0
 40
9.501573350694446
  1
　また、同一商品でも若干の個体差があることがあります。ご了承ください。
 41
0.7
 11
-437.5
 21
-599.3369999826384
 31
0.0
100
AcDbText
 73
     3
  0
LINE
  5
A4
330
409
100
AcDbEntity
  8
DATA
  6
Continuous
 62
     7
100
AcDbLine
 10
-200.0
 20
-400.0
 30
0.0
 11
-200.0
 21
-358.0
 31
0.0
  0
LINE
  5
A5
330
409
100
AcDbEntity
  8
DATA
  6
Continuous
 62
     7
100
AcDbLine
 10
19.0
 20
-400.0
 30
0.0
 11
-200.0
 21
-400.0
 31
0.0
  0
LINE
  5
A6
330
409
100
AcDbEntity
  8
DATA
  6
Continuous
 62
     7
100
AcDbLine
 10
19.0
 20
-358.0
 30
0.0
 11
19.0
 21
-400.0
 31
0.0
  0
LINE
  5
A7
330
409
100
AcDbEntity
  8
DATA
  6
Continuous
 62
     7
100
AcDbLine
 10
-200.0
 20
-358.0
 30
0.0
 11
19.0
 21
-358.0
 31
0.0
  0
LINE
  5
A8
330
409
100
AcDbEntity
  8
DATA
  6
Continuous
 62
     7
100
AcDbLine
 10
-200.0
 20
-350.0
 30
0.0
 11
-200.0
 21
-155.0
 31
0.0
  0
LINE
  5
A9
330
409
100
AcDbEntity
  8
DATA
  6
Continuous
 62
     7
100
AcDbLine
 10
19.0
 20
-350.0
 30
0.0
 11
-200.0
 21
-350.0
 31
0.0
  0
LINE
  5
AA
330
409
100
AcDbEntity
  8
DATA
  6
Continuous
 62
     7
100
AcDbLine
 10
19.0
 20
-155.0
 30
0.0
 11
19.0
 21
-350.0
 31
0.0
  0
LINE
  5
AB
330
409
100
AcDbEntity
  8
DATA
  6
Continuous
 62
     7
100
AcDbLine
 10
-200.0
 20
-155.0
 30
0.0
 11
19.0
 21
-155.0
 31
0.0
  0
LINE
  5
AC
330
409
100
AcDbEntity
  8
DATA
  6
Continuous
 62
     7
100
AcDbLine
 10
-50.0
 20
-364.0
 30
0.0
 11
-114.7490157327752
 21
-364.0
 31
0.0
  0
ARC
  5
AD
330
409
100
AcDbEntity
  8
DATA
  6
Continuous
 62
     7
100
AcDbCircle
 10
-50.0
 20
-379.0
 30
0.0
 40
15.0
100
AcDbArc
 50
270.0
 51
90.0
  0
ARC
  5
AE
330
409
100
AcDbEntity
  8
DATA
  6
Continuous
 62
     7
100
AcDbCircle
 10
-83.0
 20
-379.0
 30
0.0
 40
38.9999999999999
100
AcDbArc
 50
164.1733798681276
 51
195.8266201318723
  0
ARC
  5
AF
330
409
100
AcDbEntity
  8
DATA
  6
Continuous
 62
     7
100
AcDbCircle
 10
-114.7490157327752
 20
-370.0
 30
0.0
 40
6.0
100
AcDbArc
 50
90.0
 51
164.1733798681272
  0
ARC
  5
B0
330
409
100
AcDbEntity
  8
DATA
  6
Continuous
 62
     7
100
AcDbCircle
 10
-114.7490157327752
 20
-388.0
 30
0.0
 40
5.999999999999779
100
AcDbArc
 50
195.8266201318728
 51
270.0
  0
LINE
  5
B1
330
409
100
AcDbEntity
  8
DATA
  6
Continuous
 62
     7
100
AcDbLine
 10
-114.7490157327752
 20
-394.0
 30
0.0
 11
-50.0
 21
-394.0
 31
0.0
  0
LINE
  5
B2
330
409
100
AcDbEntity
  8
DATA
  6
Continuous
 62
     7
100
AcDbLine
 10
19.0
 20
-385.0
 30
0.0
 11
-36.25227291513239
 21
-385.0
 31
0.0
  0
LINE
  5
B3
330
409
100
AcDbEntity
  8
DATA
  6
Continuous
 62
     7
100
AcDbLine
 10
-121.5356977359954
 20
-385.0
 30
0.0
 11
-126.643268013177
 21
-385.0
 31
0.0
  0
LINE
  5
B4
330
409
100
AcDbEntity
  8
DATA
  6
Continuous
 62
     7
100
AcDbLine
 10
-172.2195444572929
 20
-385.0
 30
0.0
 11
-200.0
 21
-385.0
 31
0.0
  0
LINE
  5
B5
330
409
100
AcDbEntity
  8
DATA
  6
Continuous
 62
     7
100
AcDbLine
 10
-200.0
 20
-373.0
 30
0.0
 11
-172.2195444572929
 21
-373.0
 31
0.0
  0
LINE
  5
B6
330
409
100
AcDbEntity
  8
DATA
  6
Continuous
 62
     7
100
AcDbLine
 10
-126.643268013177
 20
-373.0
 30
0.0
 11
-121.5356977359954
 21
-373.0
 31
0.0
  0
LINE
  5
B7
330
409
100
AcDbEntity
  8
DATA
  6
Continuous
 62
     7
100
AcDbLine
 10
-36.25227291513239
 20
-373.0
 30
0.0
 11
19.0
 21
-373.0
 31
0.0
  0
TEXT
  5
B8
330
409
100
AcDbEntity
  8
DATA
 62
     7
100
AcDbText
 10
-141.956250336435
 20
-376.9555
 30
0.0
 40
2.44326171875
  1
BLU-BOB
 41
0.7
 11
-141.956250336435
 21
-374.51223828125
 31
0.0
100
AcDbText
 73
     3
  0
CIRCLE
  5
B9
330
409
100
AcDbEntity
  8
DATA
  6
Continuous
 62
     7
100
AcDbCircle
 10
-42.93659626687667
 20
-377.9604251257629
 30
0.0
 40
1.25
  0
TEXT
  5
BA
330
409
100
AcDbEntity
  8
DATA
 62
     7
100
AcDbText
 10
-45.86284124177768
 20
-374.9750456851111
 30
0.0
 40
2.1891625
  1
Power
 41
0.7
 11
-45.86284124177768
 21
-373.8804644351112
 31
0.0
100
AcDbText
 73
     2
  0
ARC
  5
BB
330
409
100
AcDbEntity
  8
DATA
  6
Continuous
 62
     7
100
AcDbCircle
 10
-110.1980853788993
 20
-379.8832252869592
 30
0.0
 40
1.120000000000004
100
AcDbArc
 50
90.0
 51
270.0
  0
ARC
  5
BC
330
409
100
AcDbEntity
  8
DATA
  6
Continuous
 62
     7
100
AcDbCircle
 10
-109.8019146211006
 20
-379.8832252869592
 30
0.0
 40
1.120000000000004
100
AcDbArc
 50
270.0
 51
90.0
  0
LINE
  5
BD
330
409
100
AcDbEntity
  8
DATA
  6
Continuous
 62
     7
100
AcDbLine
 10
-110.1980853788993
 20
-378.7632252869593
 30
0.0
 11
-109.8019146211006
 21
-378.7632252869593
 31
0.0
  0
LINE
  5
BE
330
409
100
AcDbEntity
  8
DATA
  6
Continuous
 62
     7
100
AcDbLine
 10
-110.1980853788993
 20
-381.0032252869592
 30
0.0
 11
-109.8019146211006
 21
-381.0032252869592
 31
0.0
  0
LINE
  5
BF
330
409
100
AcDbEntity
  8
DATA
  6
Continuous
 62
     7
100
AcDbLine
 10
19.0
 20
-345.0
 30
0.0
 11
-200.0
 21
-345.0
 31
0.0
  0
LINE
  5
C0
330
409
100
AcDbEntity
  8
DATA
  6
Continuous
 62
     7
100
AcDbLine
 10
19.0
 20
-348.5
 30
0.0
 11
-200.0
 21
-348.5
 31
0.0
  0
CIRCLE
  5
C1
330
409
100
AcDbEntity
  8
DATA
  6
Continuous
 62
     7
100
AcDbCircle
 10
-150.5
 20
-338.0
 30
0.0
 40
2.700000000000045
  0
LINE
  5
C2
330
409
100
AcDbEntity
  8
DATA
  6
Continuous
 62
     7
100
AcDbLine
 10
-152.0390648526656
 20
-338.0
 30
0.0
 11
-148.9609351473343
 21
-338.0
 31
0.0
  0
LINE
  5
C3
330
409
100
AcDbEntity
  8
DATA
  6
Continuous
 62
     7
100
AcDbLine
 10
-150.5
 20
-339.5390648526658
 30
0.0
 11
-150.5
 21
-336.4609351473343
 31
0.0
  0
CIRCLE
  5
C4
330
409
100
AcDbEntity
  8
DATA
  6
Continuous
 62
     7
100
AcDbCircle
 10
-30.5
 20
-338.0
 30
0.0
 40
2.700000000000045
  0
LINE
  5
C5
330
409
100
AcDbEntity
  8
DATA
  6
Continuous
 62
     7
100
AcDbLine
 10
-28.96093514733434
 20
-338.0
 30
0.0
 11
-32.03906485266566
 21
-338.0
 31
0.0
  0
LINE
  5
C6
330
409
100
AcDbEntity
  8
DATA
  6
Continuous
 62
     7
100
AcDbLine
 10
-30.5
 20
-339.5390648526658
 30
0.0
 11
-30.5
 21
-336.4609351473343
 31
0.0
  0
LINE
  5
C7
330
409
100
AcDbEntity
  8
DATA
  6
Continuous
 62
     7
100
AcDbLine
 10
19.00000000000728
 20
-112.0127274974906
 30
0.0
 11
19.00000000000728
 21
-137.5
 31
0.0
  0
LINE
  5
C8
330
409
100
AcDbEntity
  8
DATA
  6
Continuous
 62
     7
100
AcDbLine
 10
-199.9999999999927
 20
-95.50000000000004
 30
0.0
 11
19.00000000000728
 21
-95.50000000000004
 31
0.0
  0
LINE
  5
C9
330
409
100
AcDbEntity
  8
DATA
  6
Continuous
 62
     7
100
AcDbLine
 10
-199.9999999999927
 20
-137.5
 30
0.0
 11
-199.9999999999927
 21
-95.50000000000004
 31
0.0
  0
LINE
  5
CA
330
409
100
AcDbEntity
  8
DATA
  6
Continuous
 62
     7
100
AcDbLine
 10
19.00000000000728
 20
-137.5
 30
0.0
 11
-199.9999999999927
 21
-137.5
 31
0.0
  0
LINE
  5
CB
330
409
100
AcDbEntity
  8
DATA
  6
Continuous
 62
     7
100
AcDbLine
 10
-198.9999999999927
 20
-124.4681233177313
 30
0.0
 11
-198.9999999999927
 21
-98.00000000000004
 31
0.0
  0
LINE
  5
CC
330
409
100
AcDbEntity
  8
DATA
  6
Continuous
 62
     7
100
AcDbLine
 10
-197.4999999999927
 20
-96.50000000000005
 30
0.0
 11
16.50000000000727
 21
-96.50000000000005
 31
0.0
  0
LINE
  5
CD
330
409
100
AcDbEntity
  8
DATA
  6
Continuous
 62
     7
100
AcDbLine
 10
-185.4999999999927
 20
-111.4999999999948
 30
0.0
 11
-155.4999999999927
 21
-111.4999999999948
 31
0.0
  0
LINE
  5
CE
330
409
100
AcDbEntity
  8
DATA
  6
Continuous
 62
     7
100
AcDbLine
 10
-185.4999999999927
 20
-110.4999999999948
 30
0.0
 11
-183.9999999999927
 21
-110.4999999999948
 31
0.0
  0
LINE
  5
CF
330
409
100
AcDbEntity
  8
DATA
  6
Continuous
 62
     7
100
AcDbLine
 10
-183.9999999999927
 20
-110.4999999999948
 30
0.0
 11
-184.4999999999927
 21
-111.4999999999948
 31
0.0
  0
LINE
  5
D0
330
409
100
AcDbEntity
  8
DATA
  6
Continuous
 62
     7
100
AcDbLine
 10
-181.4999999999927
 20
-111.4999999999948
 30
0.0
 11
-181.9999999999927
 21
-110.4999999999948
 31
0.0
  0
LINE
  5
D1
330
409
100
AcDbEntity
  8
DATA
  6
Continuous
 62
     7
100
AcDbLine
 10
-181.9999999999927
 20
-110.4999999999948
 30
0.0
 11
-178.9999999999927
 21
-110.4999999999948
 31
0.0
  0
LINE
  5
D2
330
409
100
AcDbEntity
  8
DATA
  6
Continuous
 62
     7
100
AcDbLine
 10
-178.9999999999927
 20
-110.4999999999948
 30
0.0
 11
-179.4999999999927
 21
-111.4999999999948
 31
0.0
  0
LINE
  5
D3
330
409
100
AcDbEntity
  8
DATA
  6
Continuous
 62
     7
100
AcDbLine
 10
-176.4999999999927
 20
-111.4999999999948
 30
0.0
 11
-176.9999999999927
 21
-110.4999999999948
 31
0.0
  0
LINE
  5
D4
330
409
100
AcDbEntity
  8
DATA
  6
Continuous
 62
     7
100
AcDbLine
 10
-176.9999999999927
 20
-110.4999999999948
 30
0.0
 11
-173.9999999999927
 21
-110.4999999999948
 31
0.0
  0
LINE
  5
D5
330
409
100
AcDbEntity
  8
DATA
  6
Continuous
 62
     7
100
AcDbLine
 10
-173.9999999999927
 20
-110.4999999999948
 30
0.0
 11
-174.4999999999927
 21
-111.4999999999948
 31
0.0
  0
LINE
  5
D6
330
409
100
AcDbEntity
  8
DATA
  6
Continuous
 62
     7
100
AcDbLine
 10
-171.4999999999927
 20
-111.4999999999948
 30
0.0
 11
-171.9999999999927
 21
-110.4999999999948
 31
0.0
  0
LINE
  5
D7
330
409
100
AcDbEntity
  8
DATA
  6
Continuous
 62
     7
100
AcDbLine
 10
-171.9999999999927
 20
-110.4999999999948
 30
0.0
 11
-168.9999999999927
 21
-110.4999999999948
 31
0.0
  0
LINE
  5
D8
330
409
100
AcDbEntity
  8
DATA
  6
Continuous
 62
     7
100
AcDbLine
 10
-168.9999999999927
 20
-110.4999999999948
 30
0.0
 11
-169.4999999999927
 21
-111.4999999999948
 31
0.0
  0
LINE
  5
D9
330
409
100
AcDbEntity
  8
DATA
  6
Continuous
 62
     7
100
AcDbLine
 10
-166.4999999999927
 20
-111.4999999999948
 30
0.0
 11
-166.9999999999927
 21
-110.4999999999948
 31
0.0
  0
LINE
  5
DA
330
409
100
AcDbEntity
  8
DATA
  6
Continuous
 62
     7
100
AcDbLine
 10
-166.9999999999927
 20
-110.4999999999948
 30
0.0
 11
-163.9999999999927
 21
-110.4999999999948
 31
0.0
  0
LINE
  5
DB
330
409
100
AcDbEntity
  8
DATA
  6
Continuous
 62
     7
100
AcDbLine
 10
-163.9999999999927
 20
-110.4999999999948
 30
0.0
 11
-164.4999999999927
 21
-111.4999999999948
 31
0.0
  0
LINE
  5
DC
330
409
100
AcDbEntity
  8
DATA
  6
Continuous
 62
     7
100
AcDbLine
 10
-161.4999999999927
 20
-111.4999999999948
 30
0.0
 11
-161.9999999999927
 21
-110.4999999999948
 31
0.0
  0
LINE
  5
DD
330
409
100
AcDbEntity
  8
DATA
  6
Continuous
 62
     7
100
AcDbLine
 10
-161.9999999999927
 20
-110.4999999999948
 30
0.0
 11
-158.9999999999927
 21
-110.4999999999948
 31
0.0
  0
LINE
  5
DE
330
409
100
AcDbEntity
  8
DATA
  6
Continuous
 62
     7
100
AcDbLine
 10
-158.9999999999927
 20
-110.4999999999948
 30
0.0
 11
-159.4999999999927
 21
-111.4999999999948
 31
0.0
  0
LINE
  5
DF
330
409
100
AcDbEntity
  8
DATA
  6
Continuous
 62
     7
100
AcDbLine
 10
-155.4999999999927
 20
-110.4999999999948
 30
0.0
 11
-156.9999999999927
 21
-110.4999999999948
 31
0.0
  0
LINE
  5
E0
330
409
100
AcDbEntity
  8
DATA
  6
Continuous
 62
     7
100
AcDbLine
 10
-156.9999999999927
 20
-110.4999999999948
 30
0.0
 11
-156.4999999999927
 21
-111.4999999999948
 31
0.0
  0
LWPOLYLINE
  5
E1
330
409
100
AcDbEntity
  8
DATA
  6
Continuous
 62
     7
100
AcDbPolyline
 90
        4
 70
     1
 43
0.0
 10
-183.4999999999927
 20
-106.9999999999948
 10
-182.4999999999927
 20
-106.9999999999948
 10
-182.4999999999927
 20
-107.9999999999949
 10
-183.4999999999927
 20
-107.9999999999949
  0
LWPOLYLINE
  5
E8
330
409
100
AcDbEntity
  8
DATA
  6
Continuous
 62
     7
100
AcDbPolyline
 90
        4
 70
     1
 43
0.0
 10
-178.4999999999927
 20
-106.9999999999948
 10
-177.4999999999927
 20
-106.9999999999948
 10
-177.4999999999927
 20
-107.9999999999949
 10
-178.4999999999927
 20
-107.9999999999949
  0
LWPOLYLINE
  5
EF
330
409
100
AcDbEntity
  8
DATA
  6
Continuous
 62
     7
100
AcDbPolyline
 90
        4
 70
     1
 43
0.0
 10
-173.4999999999927
 20
-106.9999999999948
 10
-172.4999999999927
 20
-106.9999999999948
 10
-172.4999999999927
 20
-107.9999999999949
 10
-173.4999999999927
 20
-107.9999999999949
  0
LWPOLYLINE
  5
F6
330
409
100
AcDbEntity
  8
DATA
  6
Continuous
 62
     7
100
AcDbPolyline
 90
        4
 70
     1
 43
0.0
 10
-168.4999999999929
 20
-106.9999999999948
 10
-167.4999999999927
 20
-106.9999999999948
 10
-167.4999999999927
 20
-107.9999999999949
 10
-168.4999999999929
 20
-107.9999999999949
  0
LWPOLYLINE
  5
FD
330
409
100
AcDbEntity
  8
DATA
  6
Continuous
 62
     7
100
AcDbPolyline
 90
        4
 70
     1
 43
0.0
 10
-163.4999999999929
 20
-106.9999999999948
 10
-162.4999999999927
 20
-106.9999999999948
 10
-162.4999999999927
 20
-107.9999999999949
 10
-163.4999999999929
 20
-107.9999999999949
  0
LWPOLYLINE
  5
104
330
409
100
AcDbEntity
  8
DATA
  6
Continuous
 62
     7
100
AcDbPolyline
 90
        4
 70
     1
 43
0.0
 10
-158.4999999999929
 20
-106.9999999999948
 10
-157.4999999999927
 20
-106.9999999999948
 10
-157.4999999999927
 20
-107.9999999999949
 10
-158.4999999999929
 20
-107.9999999999949
  0
LINE
  5
10B
330
409
100
AcDbEntity
  8
DATA
  6
Continuous
 62
     7
100
AcDbLine
 10
-185.4999999999927
 20
-111.9999999999949
 30
0.0
 11
-185.4999999999927
 21
-103.4999999999948
 31
0.0
  0
ARC
  5
10C
330
409
100
AcDbEntity
  8
DATA
  6
Continuous
 62
     7
100
AcDbCircle
 10
-182.9999999999927
 20
-108.1249999999948
 30
0.0
 40
3.625
100
AcDbArc
 50
46.39718102729637
 51
133.6028189727036
  0
ARC
  5
10D
330
409
100
AcDbEntity
  8
DATA
  6
Continuous
 62
     7
100
AcDbCircle
 10
-177.9999999999927
 20
-108.1249999999948
 30
0.0
 40
3.625
100
AcDbArc
 50
46.39718102729637
 51
133.6028189727036
  0
ARC
  5
10E
330
409
100
AcDbEntity
  8
DATA
  6
Continuous
 62
     7
100
AcDbCircle
 10
-172.9999999999927
 20
-108.1249999999948
 30
0.0
 40
3.625
100
AcDbArc
 50
46.39718102729637
 51
133.6028189727036
  0
ARC
  5
10F
330
409
100
AcDbEntity
  8
DATA
  6
Continuous
 62
     7
100
AcDbCircle
 10
-167.9999999999927
 20
-108.1249999999948
 30
0.0
 40
3.625
100
AcDbArc
 50
46.39718102729637
 51
133.6028189727036
  0
ARC
  5
110
330
409
100
AcDbEntity
  8
DATA
  6
Continuous
 62
     7
100
AcDbCircle
 10
-162.9999999999927
 20
-108.1249999999948
 30
0.0
 40
3.625
100
AcDbArc
 50
46.39718102729637
 51
133.6028189727036
  0
ARC
  5
111
330
409
100
AcDbEntity
  8
DATA
  6
Continuous
 62
     7
100
AcDbCircle
 10
-157.9999999999927
 20
-108.1249999999948
 30
0.0
 40
3.625
100
AcDbArc
 50
46.39718102729637
 51
133.6028189727036
  0
LINE
  5
112
330
409
100
AcDbEntity
  8
DATA
  6
Continuous
 62
     7
100
AcDbLine
 10
-155.4999999999927
 20
-103.4999999999948
 30
0.0
 11
-155.4999999999927
 21
-111.9999999999949
 31
0.0
  0
ARC
  5
113
330
409
100
AcDbEntity
  8
DATA
  6
Continuous
 62
     7
100
AcDbCircle
 10
-182.9999999999927
 20
-107.6249999999948
 30
0.0
 40
3.625
100
AcDbArc
 50
46.39718102729637
 51
133.6028189727036
  0
ARC
  5
114
330
409
100
AcDbEntity
  8
DATA
  6
Continuous
 62
     7
100
AcDbCircle
 10
-177.9999999999927
 20
-107.6249999999948
 30
0.0
 40
3.625
100
AcDbArc
 50
46.39718102729637
 51
133.6028189727036
  0
ARC
  5
115
330
409
100
AcDbEntity
  8
DATA
  6
Continuous
 62
     7
100
AcDbCircle
 10
-172.9999999999927
 20
-107.6249999999948
 30
0.0
 40
3.625
100
AcDbArc
 50
46.39718102729637
 51
133.6028189727036
  0
ARC
  5
116
330
409
100
AcDbEntity
  8
DATA
  6
Continuous
 62
     7
100
AcDbCircle
 10
-167.9999999999927
 20
-107.6249999999948
 30
0.0
 40
3.625
100
AcDbArc
 50
46.39718102729637
 51
133.6028189727036
  0
ARC
  5
117
330
409
100
AcDbEntity
  8
DATA
  6
Continuous
 62
     7
100
AcDbCircle
 10
-162.9999999999927
 20
-107.6249999999948
 30
0.0
 40
3.625
100
AcDbArc
 50
46.39718102729637
 51
133.6028189727036
  0
ARC
  5
118
330
409
100
AcDbEntity
  8
DATA
  6
Continuous
 62
     7
100
AcDbCircle
 10
-157.9999999999927
 20
-107.6249999999948
 30
0.0
 40
3.625
100
AcDbArc
 50
46.39718102729637
 51
133.6028189727036
  0
LINE
  5
119
330
409
100
AcDbEntity
  8
DATA
  6
Continuous
 62
     7
100
AcDbLine
 10
-185.4999999999927
 20
-111.9999999999949
 30
0.0
 11
-155.4999999999927
 21
-111.9999999999949
 31
0.0
  0
TEXT
  5
11A
330
409
100
AcDbEntity
  8
DATA
 62
     7
100
AcDbText
 10
-181.9999999999927
 20
-99.14769990531816
 30
0.0
 40
2.693359375
  1
-
 50
180.0
 41
0.7
 11
-181.9999999999927
 21
-101.8410592803181
 31
0.0
100
AcDbText
 73
     3
  0
TEXT
  5
11B
330
409
100
AcDbEntity
  8
DATA
 62
     7
100
AcDbText
 10
-177.1249999999927
 20
-99.14769990531816
 30
0.0
 40
2.693359375
  1
+
 50
180.0
 41
0.7
 11
-177.1249999999927
 21
-101.8410592803181
 31
0.0
100
AcDbText
 73
     3
  0
TEXT
  5
11C
330
409
100
AcDbEntity
  8
DATA
 62
     7
100
AcDbText
 10
-171.9999999999927
 20
-99.14769990531816
 30
0.0
 40
2.693359375
  1
S
 50
180.0
 41
0.7
 11
-171.9999999999927
 21
-101.8410592803181
 31
0.0
100
AcDbText
 73
     3
  0
TEXT
  5
11D
330
409
100
AcDbEntity
  8
DATA
 62
     7
100
AcDbText
 10
-167.1249999999927
 20
-99.14769990531816
 30
0.0
 40
2.693359375
  1
-
 50
180.0
 41
0.7
 11
-167.1249999999927
 21
-101.8410592803181
 31
0.0
100
AcDbText
 73
     3
  0
TEXT
  5
11E
330
409
100
AcDbEntity
  8
DATA
 62
     7
100
AcDbText
 10
-162.2499999999927
 20
-99.14769990531816
 30
0.0
 40
2.693359375
  1
+
 50
180.0
 41
0.7
 11
-162.2499999999927
 21
-101.8410592803181
 31
0.0
100
AcDbText
 73
     3
  0
TEXT
  5
11F
330
409
100
AcDbEntity
  8
DATA
 62
     7
100
AcDbText
 10
-157.1249999999927
 20
-99.14769990531816
 30
0.0
 40
2.693359375
  1
S
 50
180.0
 41
0.7
 11
-157.1249999999927
 21
-101.8410592803181
 31
0.0
100
AcDbText
 73
     3
  0
LINE
  5
120
330
409
100
AcDbEntity
  8
DATA
  6
Continuous
 62
     7
100
AcDbLine
 10
-185.4999999999927
 20
-101.7826999053181
 30
0.0
 11
-185.4999999999927
 21
-98.28269990531818
 31
0.0
  0
LINE
  5
121
330
409
100
AcDbEntity
  8
DATA
  6
Continuous
 62
     7
100
AcDbLine
 10
-185.4999999999927
 20
-98.40769990531818
 30
0.0
 11
-155.4999999999927
 21
-98.40769990531818
 31
0.0
  0
LINE
  5
122
330
409
100
AcDbEntity
  8
DATA
  6
Continuous
 62
     7
100
AcDbLine
 10
-155.4999999999927
 20
-98.40769990531818
 30
0.0
 11
-155.4999999999927
 21
-101.9076999053181
 31
0.0
  0
TEXT
  5
123
330
409
100
AcDbEntity
  8
DATA
 62
     7
100
AcDbText
 10
-176.9517447864165
 20
-120.881210093209
 30
0.0
 40
4.343576388888889
  1
1
 50
180.0
 41
0.7
 11
-176.9517447864165
 21
-125.2247864820978
 31
0.0
100
AcDbText
 73
     3
  0
LINE
  5
124
330
409
100
AcDbEntity
  8
DATA
  6
Continuous
 62
     7
100
AcDbLine
 10
-185.4999999999927
 20
-103.4999999999948
 30
0.0
 11
-155.4999999999927
 21
-103.4999999999948
 31
0.0
  0
LINE
  5
125
330
409
100
AcDbEntity
  8
DATA
  6
Continuous
 62
     7
100
AcDbLine
 10
-152.9999999999927
 20
-111.4999999999948
 30
0.0
 11
-122.9999999999927
 21
-111.4999999999948
 31
0.0
  0
LINE
  5
126
330
409
100
AcDbEntity
  8
DATA
  6
Continuous
 62
     7
100
AcDbLine
 10
-152.9999999999927
 20
-110.4999999999948
 30
0.0
 11
-151.4999999999927
 21
-110.4999999999948
 31
0.0
  0
LINE
  5
127
330
409
100
AcDbEntity
  8
DATA
  6
Continuous
 62
     7
100
AcDbLine
 10
-151.4999999999927
 20
-110.4999999999948
 30
0.0
 11
-151.9999999999927
 21
-111.4999999999948
 31
0.0
  0
LINE
  5
128
330
409
100
AcDbEntity
  8
DATA
  6
Continuous
 62
     7
100
AcDbLine
 10
-148.9999999999927
 20
-111.4999999999948
 30
0.0
 11
-149.4999999999927
 21
-110.4999999999948
 31
0.0
  0
LINE
  5
129
330
409
100
AcDbEntity
  8
DATA
  6
Continuous
 62
     7
100
AcDbLine
 10
-149.4999999999927
 20
-110.4999999999948
 30
0.0
 11
-146.4999999999927
 21
-110.4999999999948
 31
0.0
  0
LINE
  5
12A
330
409
100
AcDbEntity
  8
DATA
  6
Continuous
 62
     7
100
AcDbLine
 10
-146.4999999999927
 20
-110.4999999999948
 30
0.0
 11
-146.9999999999927
 21
-111.4999999999948
 31
0.0
  0
LINE
  5
12B
330
409
100
AcDbEntity
  8
DATA
  6
Continuous
 62
     7
100
AcDbLine
 10
-143.9999999999927
 20
-111.4999999999948
 30
0.0
 11
-144.4999999999927
 21
-110.4999999999948
 31
0.0
  0
LINE
  5
12C
330
409
100
AcDbEntity
  8
DATA
  6
Continuous
 62
     7
100
AcDbLine
 10
-144.4999999999927
 20
-110.4999999999948
 30
0.0
 11
-141.4999999999927
 21
-110.4999999999948
 31
0.0
  0
LINE
  5
12D
330
409
100
AcDbEntity
  8
DATA
  6
Continuous
 62
     7
100
AcDbLine
 10
-141.4999999999927
 20
-110.4999999999948
 30
0.0
 11
-141.9999999999927
 21
-111.4999999999948
 31
0.0
  0
LINE
  5
12E
330
409
100
AcDbEntity
  8
DATA
  6
Continuous
 62
     7
100
AcDbLine
 10
-138.9999999999927
 20
-111.4999999999948
 30
0.0
 11
-139.4999999999927
 21
-110.4999999999948
 31
0.0
  0
LINE
  5
12F
330
409
100
AcDbEntity
  8
DATA
  6
Continuous
 62
     7
100
AcDbLine
 10
-139.4999999999927
 20
-110.4999999999948
 30
0.0
 11
-136.4999999999927
 21
-110.4999999999948
 31
0.0
  0
LINE
  5
130
330
409
100
AcDbEntity
  8
DATA
  6
Continuous
 62
     7
100
AcDbLine
 10
-136.4999999999927
 20
-110.4999999999948
 30
0.0
 11
-136.9999999999927
 21
-111.4999999999948
 31
0.0
  0
LINE
  5
131
330
409
100
AcDbEntity
  8
DATA
  6
Continuous
 62
     7
100
AcDbLine
 10
-133.9999999999927
 20
-111.4999999999948
 30
0.0
 11
-134.4999999999927
 21
-110.4999999999948
 31
0.0
  0
LINE
  5
132
330
409
100
AcDbEntity
  8
DATA
  6
Continuous
 62
     7
100
AcDbLine
 10
-134.4999999999927
 20
-110.4999999999948
 30
0.0
 11
-131.4999999999927
 21
-110.4999999999948
 31
0.0
  0
LINE
  5
133
330
409
100
AcDbEntity
  8
DATA
  6
Continuous
 62
     7
100
AcDbLine
 10
-131.4999999999927
 20
-110.4999999999948
 30
0.0
 11
-131.9999999999927
 21
-111.4999999999948
 31
0.0
  0
LINE
  5
134
330
409
100
AcDbEntity
  8
DATA
  6
Continuous
 62
     7
100
AcDbLine
 10
-128.9999999999927
 20
-111.4999999999948
 30
0.0
 11
-129.4999999999927
 21
-110.4999999999948
 31
0.0
  0
LINE
  5
135
330
409
100
AcDbEntity
  8
DATA
  6
Continuous
 62
     7
100
AcDbLine
 10
-129.4999999999927
 20
-110.4999999999948
 30
0.0
 11
-126.4999999999927
 21
-110.4999999999948
 31
0.0
  0
LINE
  5
136
330
409
100
AcDbEntity
  8
DATA
  6
Continuous
 62
     7
100
AcDbLine
 10
-126.4999999999927
 20
-110.4999999999948
 30
0.0
 11
-126.9999999999927
 21
-111.4999999999948
 31
0.0
  0
LINE
  5
137
330
409
100
AcDbEntity
  8
DATA
  6
Continuous
 62
     7
100
AcDbLine
 10
-122.9999999999927
 20
-110.4999999999948
 30
0.0
 11
-124.4999999999927
 21
-110.4999999999948
 31
0.0
  0
LINE
  5
138
330
409
100
AcDbEntity
  8
DATA
  6
Continuous
 62
     7
100
AcDbLine
 10
-124.4999999999927
 20
-110.4999999999948
 30
0.0
 11
-123.9999999999927
 21
-111.4999999999948
 31
0.0
  0
LWPOLYLINE
  5
139
330
409
100
AcDbEntity
  8
DATA
  6
Continuous
 62
     7
100
AcDbPolyline
 90
        4
 70
     1
 43
0.0
 10
-150.9999999999927
 20
-106.9999999999948
 10
-149.9999999999927
 20
-106.9999999999948
 10
-149.9999999999927
 20
-107.9999999999949
 10
-150.9999999999927
 20
-107.9999999999949
  0
LWPOLYLINE
  5
140
330
409
100
AcDbEntity
  8
DATA
  6
Continuous
 62
     7
100
AcDbPolyline
 90
        4
 70
     1
 43
0.0
 10
-145.9999999999927
 20
-106.9999999999948
 10
-144.9999999999927
 20
-106.9999999999948
 10
-144.9999999999927
 20
-107.9999999999949
 10
-145.9999999999927
 20
-107.9999999999949
  0
LWPOLYLINE
  5
147
330
409
100
AcDbEntity
  8
DATA
  6
Continuous
 62
     7
100
AcDbPolyline
 90
        4
 70
     1
 43
0.0
 10
-140.9999999999927
 20
-106.9999999999948
 10
-139.9999999999927
 20
-106.9999999999948
 10
-139.9999999999927
 20
-107.9999999999949
 10
-140.9999999999927
 20
-107.9999999999949
  0
LWPOLYLINE
  5
14E
330
409
100
AcDbEntity
  8
DATA
  6
Continuous
 62
     7
100
AcDbPolyline
 90
        4
 70
     1
 43
0.0
 10
-135.9999999999929
 20
-106.9999999999948
 10
-134.9999999999927
 20
-106.9999999999948
 10
-134.9999999999927
 20
-107.9999999999949
 10
-135.9999999999929
 20
-107.9999999999949
  0
LWPOLYLINE
  5
155
330
409
100
AcDbEntity
  8
DATA
  6
Continuous
 62
     7
100
AcDbPolyline
 90
        4
 70
     1
 43
0.0
 10
-130.9999999999929
 20
-106.9999999999948
 10
-129.9999999999927
 20
-106.9999999999948
 10
-129.9999999999927
 20
-107.9999999999949
 10
-130.9999999999929
 20
-107.9999999999949
  0
LWPOLYLINE
  5
15C
330
409
100
AcDbEntity
  8
DATA
  6
Continuous
 62
     7
100
AcDbPolyline
 90
        4
 70
     1
 43
0.0
 10
-125.9999999999929
 20
-106.9999999999948
 10
-124.9999999999927
 20
-106.9999999999948
 10
-124.9999999999927
 20
-107.9999999999949
 10
-125.9999999999929
 20
-107.9999999999949
  0
LINE
  5
163
330
409
100
AcDbEntity
  8
DATA
  6
Continuous
 62
     7
100
AcDbLine
 10
-152.9999999999927
 20
-111.9999999999949
 30
0.0
 11
-152.9999999999927
 21
-103.4999999999948
 31
0.0
  0
ARC
  5
164
330
409
100
AcDbEntity
  8
DATA
  6
Continuous
 62
     7
100
AcDbCircle
 10
-150.4999999999927
 20
-108.1249999999948
 30
0.0
 40
3.625
100
AcDbArc
 50
46.39718102729637
 51
133.6028189727036
  0
ARC
  5
165
330
409
100
AcDbEntity
  8
DATA
  6
Continuous
 62
     7
100
AcDbCircle
 10
-145.4999999999927
 20
-108.1249999999948
 30
0.0
 40
3.625
100
AcDbArc
 50
46.39718102729637
 51
133.6028189727036
  0
ARC
  5
166
330
409
100
AcDbEntity
  8
DATA
  6
Continuous
 62
     7
100
AcDbCircle
 10
-140.4999999999927
 20
-108.1249999999948
 30
0.0
 40
3.625
100
AcDbArc
 50
46.39718102729637
 51
133.6028189727036
  0
ARC
  5
167
330
409
100
AcDbEntity
  8
DATA
  6
Continuous
 62
     7
100
AcDbCircle
 10
-135.4999999999927
 20
-108.1249999999948
 30
0.0
 40
3.625
100
AcDbArc
 50
46.39718102729637
 51
133.6028189727036
  0
ARC
  5
168
330
409
100
AcDbEntity
  8
DATA
  6
Continuous
 62
     7
100
AcDbCircle
 10
-130.4999999999927
 20
-108.1249999999948
 30
0.0
 40
3.625
100
AcDbArc
 50
46.39718102729637
 51
133.6028189727036
  0
ARC
  5
169
330
409
100
AcDbEntity
  8
DATA
  6
Continuous
 62
     7
100
AcDbCircle
 10
-125.4999999999927
 20
-108.1249999999948
 30
0.0
 40
3.625
100
AcDbArc
 50
46.39718102729637
 51
133.6028189727036
  0
LINE
  5
16A
330
409
100
AcDbEntity
  8
DATA
  6
Continuous
 62
     7
100
AcDbLine
 10
-122.9999999999927
 20
-103.4999999999948
 30
0.0
 11
-122.9999999999927
 21
-111.9999999999949
 31
0.0
  0
ARC
  5
16B
330
409
100
AcDbEntity
  8
DATA
  6
Continuous
 62
     7
100
AcDbCircle
 10
-150.4999999999927
 20
-107.6249999999948
 30
0.0
 40
3.625
100
AcDbArc
 50
46.39718102729637
 51
133.6028189727036
  0
ARC
  5
16C
330
409
100
AcDbEntity
  8
DATA
  6
Continuous
 62
     7
100
AcDbCircle
 10
-145.4999999999927
 20
-107.6249999999948
 30
0.0
 40
3.625
100
AcDbArc
 50
46.39718102729637
 51
133.6028189727036
  0
ARC
  5
16D
330
409
100
AcDbEntity
  8
DATA
  6
Continuous
 62
     7
100
AcDbCircle
 10
-140.4999999999927
 20
-107.6249999999948
 30
0.0
 40
3.625
100
AcDbArc
 50
46.39718102729637
 51
133.6028189727036
  0
ARC
  5
16E
330
409
100
AcDbEntity
  8
DATA
  6
Continuous
 62
     7
100
AcDbCircle
 10
-135.4999999999927
 20
-107.6249999999948
 30
0.0
 40
3.625
100
AcDbArc
 50
46.39718102729637
 51
133.6028189727036
  0
ARC
  5
16F
330
409
100
AcDbEntity
  8
DATA
  6
Continuous
 62
     7
100
AcDbCircle
 10
-130.4999999999927
 20
-107.6249999999948
 30
0.0
 40
3.625
100
AcDbArc
 50
46.39718102729637
 51
133.6028189727036
  0
ARC
  5
170
330
409
100
AcDbEntity
  8
DATA
  6
Continuous
 62
     7
100
AcDbCircle
 10
-125.4999999999927
 20
-107.6249999999948
 30
0.0
 40
3.625
100
AcDbArc
 50
46.39718102729637
 51
133.6028189727036
  0
LINE
  5
171
330
409
100
AcDbEntity
  8
DATA
  6
Continuous
 62
     7
100
AcDbLine
 10
-152.9999999999927
 20
-111.9999999999949
 30
0.0
 11
-122.9999999999927
 21
-111.9999999999949
 31
0.0
  0
TEXT
  5
172
330
409
100
AcDbEntity
  8
DATA
 62
     7
100
AcDbText
 10
-149.4999999999927
 20
-99.14769990531816
 30
0.0
 40
2.693359375
  1
-
 50
180.0
 41
0.7
 11
-149.4999999999927
 21
-101.8410592803181
 31
0.0
100
AcDbText
 73
     3
  0
TEXT
  5
173
330
409
100
AcDbEntity
  8
DATA
 62
     7
100
AcDbText
 10
-144.6249999999927
 20
-99.14769990531816
 30
0.0
 40
2.693359375
  1
+
 50
180.0
 41
0.7
 11
-144.6249999999927
 21
-101.8410592803181
 31
0.0
100
AcDbText
 73
     3
  0
TEXT
  5
174
330
409
100
AcDbEntity
  8
DATA
 62
     7
100
AcDbText
 10
-139.4999999999927
 20
-99.14769990531816
 30
0.0
 40
2.693359375
  1
S
 50
180.0
 41
0.7
 11
-139.4999999999927
 21
-101.8410592803181
 31
0.0
100
AcDbText
 73
     3
  0
TEXT
  5
175
330
409
100
AcDbEntity
  8
DATA
 62
     7
100
AcDbText
 10
-134.6249999999927
 20
-99.14769990531816
 30
0.0
 40
2.693359375
  1
-
 50
180.0
 41
0.7
 11
-134.6249999999927
 21
-101.8410592803181
 31
0.0
100
AcDbText
 73
     3
  0
TEXT
  5
176
330
409
100
AcDbEntity
  8
DATA
 62
     7
100
AcDbText
 10
-129.7499999999927
 20
-99.14769990531816
 30
0.0
 40
2.693359375
  1
+
 50
180.0
 41
0.7
 11
-129.7499999999927
 21
-101.8410592803181
 31
0.0
100
AcDbText
 73
     3
  0
TEXT
  5
177
330
409
100
AcDbEntity
  8
DATA
 62
     7
100
AcDbText
 10
-124.6249999999927
 20
-99.14769990531816
 30
0.0
 40
2.693359375
  1
S
 50
180.0
 41
0.7
 11
-124.6249999999927
 21
-101.8410592803181
 31
0.0
100
AcDbText
 73
     3
  0
LINE
  5
178
330
409
100
AcDbEntity
  8
DATA
  6
Continuous
 62
     7
100
AcDbLine
 10
-152.9999999999927
 20
-101.7826999053181
 30
0.0
 11
-152.9999999999927
 21
-98.28269990531818
 31
0.0
  0
LINE
  5
179
330
409
100
AcDbEntity
  8
DATA
  6
Continuous
 62
     7
100
AcDbLine
 10
-152.9999999999927
 20
-98.40769990531818
 30
0.0
 11
-122.9999999999927
 21
-98.40769990531818
 31
0.0
  0
LINE
  5
17A
330
409
100
AcDbEntity
  8
DATA
  6
Continuous
 62
     7
100
AcDbLine
 10
-122.9999999999927
 20
-98.40769990531818
 30
0.0
 11
-122.9999999999927
 21
-101.9076999053181
 31
0.0
  0
LINE
  5
17B
330
409
100
AcDbEntity
  8
DATA
  6
Continuous
 62
     7
100
AcDbLine
 10
-152.9999999999927
 20
-103.4999999999948
 30
0.0
 11
-122.9999999999927
 21
-103.4999999999948
 31
0.0
  0
LINE
  5
17C
330
409
100
AcDbEntity
  8
DATA
  6
Continuous
 62
     7
100
AcDbLine
 10
-120.4999999999927
 20
-111.4999999999948
 30
0.0
 11
-90.4999999999927
 21
-111.4999999999948
 31
0.0
  0
LINE
  5
17D
330
409
100
AcDbEntity
  8
DATA
  6
Continuous
 62
     7
100
AcDbLine
 10
-120.4999999999927
 20
-110.4999999999948
 30
0.0
 11
-118.9999999999927
 21
-110.4999999999948
 31
0.0
  0
LINE
  5
17E
330
409
100
AcDbEntity
  8
DATA
  6
Continuous
 62
     7
100
AcDbLine
 10
-118.9999999999927
 20
-110.4999999999948
 30
0.0
 11
-119.4999999999927
 21
-111.4999999999948
 31
0.0
  0
LINE
  5
17F
330
409
100
AcDbEntity
  8
DATA
  6
Continuous
 62
     7
100
AcDbLine
 10
-116.4999999999927
 20
-111.4999999999948
 30
0.0
 11
-116.9999999999927
 21
-110.4999999999948
 31
0.0
  0
LINE
  5
180
330
409
100
AcDbEntity
  8
DATA
  6
Continuous
 62
     7
100
AcDbLine
 10
-116.9999999999927
 20
-110.4999999999948
 30
0.0
 11
-113.9999999999927
 21
-110.4999999999948
 31
0.0
  0
LINE
  5
181
330
409
100
AcDbEntity
  8
DATA
  6
Continuous
 62
     7
100
AcDbLine
 10
-113.9999999999927
 20
-110.4999999999948
 30
0.0
 11
-114.4999999999927
 21
-111.4999999999948
 31
0.0
  0
LINE
  5
182
330
409
100
AcDbEntity
  8
DATA
  6
Continuous
 62
     7
100
AcDbLine
 10
-111.4999999999927
 20
-111.4999999999948
 30
0.0
 11
-111.9999999999927
 21
-110.4999999999948
 31
0.0
  0
LINE
  5
183
330
409
100
AcDbEntity
  8
DATA
  6
Continuous
 62
     7
100
AcDbLine
 10
-111.9999999999927
 20
-110.4999999999948
 30
0.0
 11
-108.9999999999927
 21
-110.4999999999948
 31
0.0
  0
LINE
  5
184
330
409
100
AcDbEntity
  8
DATA
  6
Continuous
 62
     7
100
AcDbLine
 10
-108.9999999999927
 20
-110.4999999999948
 30
0.0
 11
-109.4999999999927
 21
-111.4999999999948
 31
0.0
  0
LINE
  5
185
330
409
100
AcDbEntity
  8
DATA
  6
Continuous
 62
     7
100
AcDbLine
 10
-106.4999999999927
 20
-111.4999999999948
 30
0.0
 11
-106.9999999999927
 21
-110.4999999999948
 31
0.0
  0
LINE
  5
186
330
409
100
AcDbEntity
  8
DATA
  6
Continuous
 62
     7
100
AcDbLine
 10
-106.9999999999927
 20
-110.4999999999948
 30
0.0
 11
-103.9999999999927
 21
-110.4999999999948
 31
0.0
  0
LINE
  5
187
330
409
100
AcDbEntity
  8
DATA
  6
Continuous
 62
     7
100
AcDbLine
 10
-103.9999999999927
 20
-110.4999999999948
 30
0.0
 11
-104.4999999999927
 21
-111.4999999999948
 31
0.0
  0
LINE
  5
188
330
409
100
AcDbEntity
  8
DATA
  6
Continuous
 62
     7
100
AcDbLine
 10
-101.4999999999927
 20
-111.4999999999948
 30
0.0
 11
-101.9999999999927
 21
-110.4999999999948
 31
0.0
  0
LINE
  5
189
330
409
100
AcDbEntity
  8
DATA
  6
Continuous
 62
     7
100
AcDbLine
 10
-101.9999999999927
 20
-110.4999999999948
 30
0.0
 11
-98.99999999999272
 21
-110.4999999999948
 31
0.0
  0
LINE
  5
18A
330
409
100
AcDbEntity
  8
DATA
  6
Continuous
 62
     7
100
AcDbLine
 10
-98.99999999999272
 20
-110.4999999999948
 30
0.0
 11
-99.4999999999927
 21
-111.4999999999948
 31
0.0
  0
LINE
  5
18B
330
409
100
AcDbEntity
  8
DATA
  6
Continuous
 62
     7
100
AcDbLine
 10
-96.49999999999272
 20
-111.4999999999948
 30
0.0
 11
-96.9999999999927
 21
-110.4999999999948
 31
0.0
  0
LINE
  5
18C
330
409
100
AcDbEntity
  8
DATA
  6
Continuous
 62
     7
100
AcDbLine
 10
-96.9999999999927
 20
-110.4999999999948
 30
0.0
 11
-93.99999999999272
 21
-110.4999999999948
 31
0.0
  0
LINE
  5
18D
330
409
100
AcDbEntity
  8
DATA
  6
Continuous
 62
     7
100
AcDbLine
 10
-93.99999999999272
 20
-110.4999999999948
 30
0.0
 11
-94.4999999999927
 21
-111.4999999999948
 31
0.0
  0
LINE
  5
18E
330
409
100
AcDbEntity
  8
DATA
  6
Continuous
 62
     7
100
AcDbLine
 10
-90.4999999999927
 20
-110.4999999999948
 30
0.0
 11
-91.9999999999927
 21
-110.4999999999948
 31
0.0
  0
LINE
  5
18F
330
409
100
AcDbEntity
  8
DATA
  6
Continuous
 62
     7
100
AcDbLine
 10
-91.9999999999927
 20
-110.4999999999948
 30
0.0
 11
-91.49999999999272
 21
-111.4999999999948
 31
0.0
  0
LWPOLYLINE
  5
190
330
409
100
AcDbEntity
  8
DATA
  6
Continuous
 62
     7
100
AcDbPolyline
 90
        4
 70
     1
 43
0.0
 10
-118.4999999999927
 20
-106.9999999999948
 10
-117.4999999999927
 20
-106.9999999999948
 10
-117.4999999999927
 20
-107.9999999999949
 10
-118.4999999999927
 20
-107.9999999999949
  0
LWPOLYLINE
  5
197
330
409
100
AcDbEntity
  8
DATA
  6
Continuous
 62
     7
100
AcDbPolyline
 90
        4
 70
     1
 43
0.0
 10
-113.4999999999927
 20
-106.9999999999948
 10
-112.4999999999927
 20
-106.9999999999948
 10
-112.4999999999927
 20
-107.9999999999949
 10
-113.4999999999927
 20
-107.9999999999949
  0
LWPOLYLINE
  5
19E
330
409
100
AcDbEntity
  8
DATA
  6
Continuous
 62
     7
100
AcDbPolyline
 90
        4
 70
     1
 43
0.0
 10
-108.4999999999927
 20
-106.9999999999948
 10
-107.4999999999927
 20
-106.9999999999948
 10
-107.4999999999927
 20
-107.9999999999949
 10
-108.4999999999927
 20
-107.9999999999949
  0
LWPOLYLINE
  5
1A5
330
409
100
AcDbEntity
  8
DATA
  6
Continuous
 62
     7
100
AcDbPolyline
 90
        4
 70
     1
 43
0.0
 10
-103.4999999999929
 20
-106.9999999999948
 10
-102.4999999999927
 20
-106.9999999999948
 10
-102.4999999999927
 20
-107.9999999999949
 10
-103.4999999999929
 20
-107.9999999999949
  0
LWPOLYLINE
  5
1AC
330
409
100
AcDbEntity
  8
DATA
  6
Continuous
 62
     7
100
AcDbPolyline
 90
        4
 70
     1
 43
0.0
 10
-98.49999999999297
 20
-106.9999999999948
 10
-97.49999999999271
 20
-106.9999999999948
 10
-97.49999999999271
 20
-107.9999999999949
 10
-98.49999999999297
 20
-107.9999999999949
  0
LWPOLYLINE
  5
1B3
330
409
100
AcDbEntity
  8
DATA
  6
Continuous
 62
     7
100
AcDbPolyline
 90
        4
 70
     1
 43
0.0
 10
-93.49999999999296
 20
-106.9999999999948
 10
-92.49999999999271
 20
-106.9999999999948
 10
-92.49999999999271
 20
-107.9999999999949
 10
-93.49999999999296
 20
-107.9999999999949
  0
LINE
  5
1BA
330
409
100
AcDbEntity
  8
DATA
  6
Continuous
 62
     7
100
AcDbLine
 10
-120.4999999999927
 20
-111.9999999999949
 30
0.0
 11
-120.4999999999927
 21
-103.4999999999948
 31
0.0
  0
ARC
  5
1BB
330
409
100
AcDbEntity
  8
DATA
  6
Continuous
 62
     7
100
AcDbCircle
 10
-117.9999999999927
 20
-108.1249999999948
 30
0.0
 40
3.625
100
AcDbArc
 50
46.39718102729637
 51
133.6028189727036
  0
ARC
  5
1BC
330
409
100
AcDbEntity
  8
DATA
  6
Continuous
 62
     7
100
AcDbCircle
 10
-112.9999999999927
 20
-108.1249999999948
 30
0.0
 40
3.625
100
AcDbArc
 50
46.39718102729637
 51
133.6028189727036
  0
ARC
  5
1BD
330
409
100
AcDbEntity
  8
DATA
  6
Continuous
 62
     7
100
AcDbCircle
 10
-107.9999999999927
 20
-108.1249999999948
 30
0.0
 40
3.625
100
AcDbArc
 50
46.39718102729637
 51
133.6028189727036
  0
ARC
  5
1BE
330
409
100
AcDbEntity
  8
DATA
  6
Continuous
 62
     7
100
AcDbCircle
 10
-102.9999999999927
 20
-108.1249999999948
 30
0.0
 40
3.625
100
AcDbArc
 50
46.39718102729637
 51
133.6028189727036
  0
ARC
  5
1BF
330
409
100
AcDbEntity
  8
DATA
  6
Continuous
 62
     7
100
AcDbCircle
 10
-97.99999999999272
 20
-108.1249999999948
 30
0.0
 40
3.625
100
AcDbArc
 50
46.39718102729637
 51
133.6028189727036
  0
ARC
  5
1C0
330
409
100
AcDbEntity
  8
DATA
  6
Continuous
 62
     7
100
AcDbCircle
 10
-92.9999999999927
 20
-108.1249999999948
 30
0.0
 40
3.625
100
AcDbArc
 50
46.39718102729637
 51
133.6028189727036
  0
LINE
  5
1C1
330
409
100
AcDbEntity
  8
DATA
  6
Continuous
 62
     7
100
AcDbLine
 10
-90.4999999999927
 20
-103.4999999999948
 30
0.0
 11
-90.4999999999927
 21
-111.9999999999949
 31
0.0
  0
ARC
  5
1C2
330
409
100
AcDbEntity
  8
DATA
  6
Continuous
 62
     7
100
AcDbCircle
 10
-117.9999999999927
 20
-107.6249999999948
 30
0.0
 40
3.625
100
AcDbArc
 50
46.39718102729637
 51
133.6028189727036
  0
ARC
  5
1C3
330
409
100
AcDbEntity
  8
DATA
  6
Continuous
 62
     7
100
AcDbCircle
 10
-112.9999999999927
 20
-107.6249999999948
 30
0.0
 40
3.625
100
AcDbArc
 50
46.39718102729637
 51
133.6028189727036
  0
ARC
  5
1C4
330
409
100
AcDbEntity
  8
DATA
  6
Continuous
 62
     7
100
AcDbCircle
 10
-107.9999999999927
 20
-107.6249999999948
 30
0.0
 40
3.625
100
AcDbArc
 50
46.39718102729637
 51
133.6028189727036
  0
ARC
  5
1C5
330
409
100
AcDbEntity
  8
DATA
  6
Continuous
 62
     7
100
AcDbCircle
 10
-102.9999999999927
 20
-107.6249999999948
 30
0.0
 40
3.625
100
AcDbArc
 50
46.39718102729637
 51
133.6028189727036
  0
ARC
  5
1C6
330
409
100
AcDbEntity
  8
DATA
  6
Continuous
 62
     7
100
AcDbCircle
 10
-97.99999999999272
 20
-107.6249999999948
 30
0.0
 40
3.625
100
AcDbArc
 50
46.39718102729637
 51
133.6028189727036
  0
ARC
  5
1C7
330
409
100
AcDbEntity
  8
DATA
  6
Continuous
 62
     7
100
AcDbCircle
 10
-92.9999999999927
 20
-107.6249999999948
 30
0.0
 40
3.625
100
AcDbArc
 50
46.39718102729637
 51
133.6028189727036
  0
LINE
  5
1C8
330
409
100
AcDbEntity
  8
DATA
  6
Continuous
 62
     7
100
AcDbLine
 10
-120.4999999999927
 20
-111.9999999999949
 30
0.0
 11
-90.4999999999927
 21
-111.9999999999949
 31
0.0
  0
TEXT
  5
1C9
330
409
100
AcDbEntity
  8
DATA
 62
     7
100
AcDbText
 10
-116.9999999999927
 20
-99.14769990531816
 30
0.0
 40
2.693359375
  1
-
 50
180.0
 41
0.7
 11
-116.9999999999927
 21
-101.8410592803181
 31
0.0
100
AcDbText
 73
     3
  0
TEXT
  5
1CA
330
409
100
AcDbEntity
  8
DATA
 62
     7
100
AcDbText
 10
-112.1249999999927
 20
-99.14769990531816
 30
0.0
 40
2.693359375
  1
+
 50
180.0
 41
0.7
 11
-112.1249999999927
 21
-101.8410592803181
 31
0.0
100
AcDbText
 73
     3
  0
TEXT
  5
1CB
330
409
100
AcDbEntity
  8
DATA
 62
     7
100
AcDbText
 10
-106.9999999999927
 20
-99.14769990531816
 30
0.0
 40
2.693359375
  1
S
 50
180.0
 41
0.7
 11
-106.9999999999927
 21
-101.8410592803181
 31
0.0
100
AcDbText
 73
     3
  0
TEXT
  5
1CC
330
409
100
AcDbEntity
  8
DATA
 62
     7
100
AcDbText
 10
-102.1249999999927
 20
-99.14769990531816
 30
0.0
 40
2.693359375
  1
-
 50
180.0
 41
0.7
 11
-102.1249999999927
 21
-101.8410592803181
 31
0.0
100
AcDbText
 73
     3
  0
TEXT
  5
1CD
330
409
100
AcDbEntity
  8
DATA
 62
     7
100
AcDbText
 10
-97.24999999999271
 20
-99.14769990531816
 30
0.0
 40
2.693359375
  1
+
 50
180.0
 41
0.7
 11
-97.24999999999271
 21
-101.8410592803181
 31
0.0
100
AcDbText
 73
     3
  0
TEXT
  5
1CE
330
409
100
AcDbEntity
  8
DATA
 62
     7
100
AcDbText
 10
-92.12499999999272
 20
-99.14769990531816
 30
0.0
 40
2.693359375
  1
S
 50
180.0
 41
0.7
 11
-92.12499999999272
 21
-101.8410592803181
 31
0.0
100
AcDbText
 73
     3
  0
LINE
  5
1CF
330
409
100
AcDbEntity
  8
DATA
  6
Continuous
 62
     7
100
AcDbLine
 10
-120.4999999999927
 20
-101.7826999053181
 30
0.0
 11
-120.4999999999927
 21
-98.28269990531818
 31
0.0
  0
LINE
  5
1D0
330
409
100
AcDbEntity
  8
DATA
  6
Continuous
 62
     7
100
AcDbLine
 10
-120.4999999999927
 20
-98.40769990531818
 30
0.0
 11
-90.4999999999927
 21
-98.40769990531818
 31
0.0
  0
LINE
  5
1D1
330
409
100
AcDbEntity
  8
DATA
  6
Continuous
 62
     7
100
AcDbLine
 10
-90.4999999999927
 20
-98.40769990531818
 30
0.0
 11
-90.4999999999927
 21
-101.9076999053181
 31
0.0
  0
LINE
  5
1D2
330
409
100
AcDbEntity
  8
DATA
  6
Continuous
 62
     7
100
AcDbLine
 10
-120.4999999999927
 20
-103.4999999999948
 30
0.0
 11
-90.4999999999927
 21
-103.4999999999948
 31
0.0
  0
LINE
  5
1D3
330
409
100
AcDbEntity
  8
DATA
  6
Continuous
 62
     7
100
AcDbLine
 10
-87.9999999999927
 20
-111.4999999999948
 30
0.0
 11
-57.99999999999272
 21
-111.4999999999948
 31
0.0
  0
LINE
  5
1D4
330
409
100
AcDbEntity
  8
DATA
  6
Continuous
 62
     7
100
AcDbLine
 10
-87.9999999999927
 20
-110.4999999999948
 30
0.0
 11
-86.49999999999272
 21
-110.4999999999948
 31
0.0
  0
LINE
  5
1D5
330
409
100
AcDbEntity
  8
DATA
  6
Continuous
 62
     7
100
AcDbLine
 10
-86.49999999999272
 20
-110.4999999999948
 30
0.0
 11
-86.9999999999927
 21
-111.4999999999948
 31
0.0
  0
LINE
  5
1D6
330
409
100
AcDbEntity
  8
DATA
  6
Continuous
 62
     7
100
AcDbLine
 10
-83.99999999999272
 20
-111.4999999999948
 30
0.0
 11
-84.49999999999272
 21
-110.4999999999948
 31
0.0
  0
LINE
  5
1D7
330
409
100
AcDbEntity
  8
DATA
  6
Continuous
 62
     7
100
AcDbLine
 10
-84.49999999999272
 20
-110.4999999999948
 30
0.0
 11
-81.49999999999272
 21
-110.4999999999948
 31
0.0
  0
LINE
  5
1D8
330
409
100
AcDbEntity
  8
DATA
  6
Continuous
 62
     7
100
AcDbLine
 10
-81.49999999999272
 20
-110.4999999999948
 30
0.0
 11
-81.99999999999272
 21
-111.4999999999948
 31
0.0
  0
LINE
  5
1D9
330
409
100
AcDbEntity
  8
DATA
  6
Continuous
 62
     7
100
AcDbLine
 10
-78.99999999999272
 20
-111.4999999999948
 30
0.0
 11
-79.49999999999272
 21
-110.4999999999948
 31
0.0
  0
LINE
  5
1DA
330
409
100
AcDbEntity
  8
DATA
  6
Continuous
 62
     7
100
AcDbLine
 10
-79.49999999999272
 20
-110.4999999999948
 30
0.0
 11
-76.49999999999272
 21
-110.4999999999948
 31
0.0
  0
LINE
  5
1DB
330
409
100
AcDbEntity
  8
DATA
  6
Continuous
 62
     7
100
AcDbLine
 10
-76.49999999999272
 20
-110.4999999999948
 30
0.0
 11
-76.99999999999272
 21
-111.4999999999948
 31
0.0
  0
LINE
  5
1DC
330
409
100
AcDbEntity
  8
DATA
  6
Continuous
 62
     7
100
AcDbLine
 10
-73.99999999999272
 20
-111.4999999999948
 30
0.0
 11
-74.49999999999272
 21
-110.4999999999948
 31
0.0
  0
LINE
  5
1DD
330
409
100
AcDbEntity
  8
DATA
  6
Continuous
 62
     7
100
AcDbLine
 10
-74.49999999999272
 20
-110.4999999999948
 30
0.0
 11
-71.49999999999272
 21
-110.4999999999948
 31
0.0
  0
LINE
  5
1DE
330
409
100
AcDbEntity
  8
DATA
  6
Continuous
 62
     7
100
AcDbLine
 10
-71.49999999999272
 20
-110.4999999999948
 30
0.0
 11
-71.99999999999272
 21
-111.4999999999948
 31
0.0
  0
LINE
  5
1DF
330
409
100
AcDbEntity
  8
DATA
  6
Continuous
 62
     7
100
AcDbLine
 10
-68.99999999999272
 20
-111.4999999999948
 30
0.0
 11
-69.49999999999272
 21
-110.4999999999948
 31
0.0
  0
LINE
  5
1E0
330
409
100
AcDbEntity
  8
DATA
  6
Continuous
 62
     7
100
AcDbLine
 10
-69.49999999999272
 20
-110.4999999999948
 30
0.0
 11
-66.49999999999272
 21
-110.4999999999948
 31
0.0
  0
LINE
  5
1E1
330
409
100
AcDbEntity
  8
DATA
  6
Continuous
 62
     7
100
AcDbLine
 10
-66.49999999999272
 20
-110.4999999999948
 30
0.0
 11
-66.99999999999272
 21
-111.4999999999948
 31
0.0
  0
LINE
  5
1E2
330
409
100
AcDbEntity
  8
DATA
  6
Continuous
 62
     7
100
AcDbLine
 10
-63.99999999999272
 20
-111.4999999999948
 30
0.0
 11
-64.49999999999272
 21
-110.4999999999948
 31
0.0
  0
LINE
  5
1E3
330
409
100
AcDbEntity
  8
DATA
  6
Continuous
 62
     7
100
AcDbLine
 10
-64.49999999999272
 20
-110.4999999999948
 30
0.0
 11
-61.49999999999272
 21
-110.4999999999948
 31
0.0
  0
LINE
  5
1E4
330
409
100
AcDbEntity
  8
DATA
  6
Continuous
 62
     7
100
AcDbLine
 10
-61.49999999999272
 20
-110.4999999999948
 30
0.0
 11
-61.99999999999272
 21
-111.4999999999948
 31
0.0
  0
LINE
  5
1E5
330
409
100
AcDbEntity
  8
DATA
  6
Continuous
 62
     7
100
AcDbLine
 10
-57.99999999999272
 20
-110.4999999999948
 30
0.0
 11
-59.49999999999272
 21
-110.4999999999948
 31
0.0
  0
LINE
  5
1E6
330
409
100
AcDbEntity
  8
DATA
  6
Continuous
 62
     7
100
AcDbLine
 10
-59.49999999999272
 20
-110.4999999999948
 30
0.0
 11
-58.99999999999272
 21
-111.4999999999948
 31
0.0
  0
LWPOLYLINE
  5
1E7
330
409
100
AcDbEntity
  8
DATA
  6
Continuous
 62
     7
100
AcDbPolyline
 90
        4
 70
     1
 43
0.0
 10
-85.99999999999271
 20
-106.9999999999948
 10
-84.99999999999273
 20
-106.9999999999948
 10
-84.99999999999273
 20
-107.9999999999949
 10
-85.99999999999271
 20
-107.9999999999949
  0
LWPOLYLINE
  5
1EE
330
409
100
AcDbEntity
  8
DATA
  6
Continuous
 62
     7
100
AcDbPolyline
 90
        4
 70
     1
 43
0.0
 10
-80.99999999999273
 20
-106.9999999999948
 10
-79.99999999999272
 20
-106.9999999999948
 10
-79.99999999999272
 20
-107.9999999999949
 10
-80.99999999999273
 20
-107.9999999999949
  0
LWPOLYLINE
  5
1F5
330
409
100
AcDbEntity
  8
DATA
  6
Continuous
 62
     7
100
AcDbPolyline
 90
        4
 70
     1
 43
0.0
 10
-75.99999999999273
 20
-106.9999999999948
 10
-74.99999999999272
 20
-106.9999999999948
 10
-74.99999999999272
 20
-107.9999999999949
 10
-75.99999999999273
 20
-107.9999999999949
  0
LWPOLYLINE
  5
1FC
330
409
100
AcDbEntity
  8
DATA
  6
Continuous
 62
     7
100
AcDbPolyline
 90
        4
 70
     1
 43
0.0
 10
-70.99999999999295
 20
-106.9999999999948
 10
-69.99999999999272
 20
-106.9999999999948
 10
-69.99999999999272
 20
-107.9999999999949
 10
-70.99999999999295
 20
-107.9999999999949
  0
LWPOLYLINE
  5
203
330
409
100
AcDbEntity
  8
DATA
  6
Continuous
 62
     7
100
AcDbPolyline
 90
        4
 70
     1
 43
0.0
 10
-65.99999999999295
 20
-106.9999999999948
 10
-64.99999999999272
 20
-106.9999999999948
 10
-64.99999999999272
 20
-107.9999999999949
 10
-65.99999999999295
 20
-107.9999999999949
  0
LWPOLYLINE
  5
20A
330
409
100
AcDbEntity
  8
DATA
  6
Continuous
 62
     7
100
AcDbPolyline
 90
        4
 70
     1
 43
0.0
 10
-60.99999999999295
 20
-106.9999999999948
 10
-59.99999999999272
 20
-106.9999999999948
 10
-59.99999999999272
 20
-107.9999999999949
 10
-60.99999999999295
 20
-107.9999999999949
  0
LINE
  5
211
330
409
100
AcDbEntity
  8
DATA
  6
Continuous
 62
     7
100
AcDbLine
 10
-87.9999999999927
 20
-111.9999999999949
 30
0.0
 11
-87.9999999999927
 21
-103.4999999999948
 31
0.0
  0
ARC
  5
212
330
409
100
AcDbEntity
  8
DATA
  6
Continuous
 62
     7
100
AcDbCircle
 10
-85.49999999999272
 20
-108.1249999999948
 30
0.0
 40
3.625
100
AcDbArc
 50
46.39718102729637
 51
133.6028189727036
  0
ARC
  5
213
330
409
100
AcDbEntity
  8
DATA
  6
Continuous
 62
     7
100
AcDbCircle
 10
-80.49999999999272
 20
-108.1249999999948
 30
0.0
 40
3.625
100
AcDbArc
 50
46.39718102729637
 51
133.6028189727036
  0
ARC
  5
214
330
409
100
AcDbEntity
  8
DATA
  6
Continuous
 62
     7
100
AcDbCircle
 10
-75.49999999999272
 20
-108.1249999999948
 30
0.0
 40
3.625
100
AcDbArc
 50
46.39718102729637
 51
133.6028189727036
  0
ARC
  5
215
330
409
100
AcDbEntity
  8
DATA
  6
Continuous
 62
     7
100
AcDbCircle
 10
-70.49999999999272
 20
-108.1249999999948
 30
0.0
 40
3.625
100
AcDbArc
 50
46.39718102729637
 51
133.6028189727036
  0
ARC
  5
216
330
409
100
AcDbEntity
  8
DATA
  6
Continuous
 62
     7
100
AcDbCircle
 10
-65.49999999999272
 20
-108.1249999999948
 30
0.0
 40
3.625
100
AcDbArc
 50
46.39718102729637
 51
133.6028189727036
  0
ARC
  5
217
330
409
100
AcDbEntity
  8
DATA
  6
Continuous
 62
     7
100
AcDbCircle
 10
-60.49999999999272
 20
-108.1249999999948
 30
0.0
 40
3.625
100
AcDbArc
 50
46.39718102729637
 51
133.6028189727036
  0
LINE
  5
218
330
409
100
AcDbEntity
  8
DATA
  6
Continuous
 62
     7
100
AcDbLine
 10
-57.99999999999272
 20
-103.4999999999948
 30
0.0
 11
-57.99999999999272
 21
-111.9999999999949
 31
0.0
  0
ARC
  5
219
330
409
100
AcDbEntity
  8
DATA
  6
Continuous
 62
     7
100
AcDbCircle
 10
-85.49999999999272
 20
-107.6249999999948
 30
0.0
 40
3.625
100
AcDbArc
 50
46.39718102729637
 51
133.6028189727036
  0
ARC
  5
21A
330
409
100
AcDbEntity
  8
DATA
  6
Continuous
 62
     7
100
AcDbCircle
 10
-80.49999999999272
 20
-107.6249999999948
 30
0.0
 40
3.625
100
AcDbArc
 50
46.39718102729637
 51
133.6028189727036
  0
ARC
  5
21B
330
409
100
AcDbEntity
  8
DATA
  6
Continuous
 62
     7
100
AcDbCircle
 10
-75.49999999999272
 20
-107.6249999999948
 30
0.0
 40
3.625
100
AcDbArc
 50
46.39718102729637
 51
133.6028189727036
  0
ARC
  5
21C
330
409
100
AcDbEntity
  8
DATA
  6
Continuous
 62
     7
100
AcDbCircle
 10
-70.49999999999272
 20
-107.6249999999948
 30
0.0
 40
3.625
100
AcDbArc
 50
46.39718102729637
 51
133.6028189727036
  0
ARC
  5
21D
330
409
100
AcDbEntity
  8
DATA
  6
Continuous
 62
     7
100
AcDbCircle
 10
-65.49999999999272
 20
-107.6249999999948
 30
0.0
 40
3.625
100
AcDbArc
 50
46.39718102729637
 51
133.6028189727036
  0
ARC
  5
21E
330
409
100
AcDbEntity
  8
DATA
  6
Continuous
 62
     7
100
AcDbCircle
 10
-60.49999999999272
 20
-107.6249999999948
 30
0.0
 40
3.625
100
AcDbArc
 50
46.39718102729637
 51
133.6028189727036
  0
LINE
  5
21F
330
409
100
AcDbEntity
  8
DATA
  6
Continuous
 62
     7
100
AcDbLine
 10
-87.9999999999927
 20
-111.9999999999949
 30
0.0
 11
-57.99999999999272
 21
-111.9999999999949
 31
0.0
  0
TEXT
  5
220
330
409
100
AcDbEntity
  8
DATA
 62
     7
100
AcDbText
 10
-84.49999999999272
 20
-99.14769990531816
 30
0.0
 40
2.693359375
  1
-
 50
180.0
 41
0.7
 11
-84.49999999999272
 21
-101.8410592803181
 31
0.0
100
AcDbText
 73
     3
  0
TEXT
  5
221
330
409
100
AcDbEntity
  8
DATA
 62
     7
100
AcDbText
 10
-79.62499999999272
 20
-99.14769990531816
 30
0.0
 40
2.693359375
  1
+
 50
180.0
 41
0.7
 11
-79.62499999999272
 21
-101.8410592803181
 31
0.0
100
AcDbText
 73
     3
  0
TEXT
  5
222
330
409
100
AcDbEntity
  8
DATA
 62
     7
100
AcDbText
 10
-74.49999999999272
 20
-99.14769990531816
 30
0.0
 40
2.693359375
  1
S
 50
180.0
 41
0.7
 11
-74.49999999999272
 21
-101.8410592803181
 31
0.0
100
AcDbText
 73
     3
  0
TEXT
  5
223
330
409
100
AcDbEntity
  8
DATA
 62
     7
100
AcDbText
 10
-69.62499999999272
 20
-99.14769990531816
 30
0.0
 40
2.693359375
  1
-
 50
180.0
 41
0.7
 11
-69.62499999999272
 21
-101.8410592803181
 31
0.0
100
AcDbText
 73
     3
  0
TEXT
  5
224
330
409
100
AcDbEntity
  8
DATA
 62
     7
100
AcDbText
 10
-64.74999999999273
 20
-99.14769990531816
 30
0.0
 40
2.693359375
  1
+
 50
180.0
 41
0.7
 11
-64.74999999999273
 21
-101.8410592803181
 31
0.0
100
AcDbText
 73
     3
  0
TEXT
  5
225
330
409
100
AcDbEntity
  8
DATA
 62
     7
100
AcDbText
 10
-59.62499999999272
 20
-99.14769990531816
 30
0.0
 40
2.693359375
  1
S
 50
180.0
 41
0.7
 11
-59.62499999999272
 21
-101.8410592803181
 31
0.0
100
AcDbText
 73
     3
  0
LINE
  5
226
330
409
100
AcDbEntity
  8
DATA
  6
Continuous
 62
     7
100
AcDbLine
 10
-87.9999999999927
 20
-101.7826999053181
 30
0.0
 11
-87.9999999999927
 21
-98.28269990531818
 31
0.0
  0
LINE
  5
227
330
409
100
AcDbEntity
  8
DATA
  6
Continuous
 62
     7
100
AcDbLine
 10
-87.9999999999927
 20
-98.40769990531818
 30
0.0
 11
-57.99999999999272
 21
-98.40769990531818
 31
0.0
  0
LINE
  5
228
330
409
100
AcDbEntity
  8
DATA
  6
Continuous
 62
     7
100
AcDbLine
 10
-57.99999999999272
 20
-98.40769990531818
 30
0.0
 11
-57.99999999999272
 21
-101.9076999053181
 31
0.0
  0
LINE
  5
229
330
409
100
AcDbEntity
  8
DATA
  6
Continuous
 62
     7
100
AcDbLine
 10
-87.9999999999927
 20
-103.4999999999948
 30
0.0
 11
-57.99999999999272
 21
-103.4999999999948
 31
0.0
  0
TEXT
  5
22A
330
409
100
AcDbEntity
  8
DATA
 62
     7
100
AcDbText
 10
-161.3480849216512
 20
-120.8822049718655
 30
0.0
 40
4.343576388888889
  1
2
 50
180.0
 41
0.7
 11
-161.3480849216512
 21
-125.2257813607544
 31
0.0
100
AcDbText
 73
     3
  0
LINE
  5
22B
330
409
100
AcDbEntity
  8
DATA
  6
Continuous
 62
     7
100
AcDbLine
 10
14.50000000000727
 20
-131.5
 30
0.0
 11
-4.499999999992723
 21
-131.5
 31
0.0
  0
LINE
  5
22C
330
409
100
AcDbEntity
  8
DATA
  6
Continuous
 62
     7
100
AcDbLine
 10
-11.49999999999272
 20
-131.5
 30
0.0
 11
-169.4999999999927
 21
-131.5
 31
0.0
  0
LINE
  5
22D
330
409
100
AcDbEntity
  8
DATA
  6
Continuous
 62
     7
100
AcDbLine
 10
-176.4999999999927
 20
-131.5
 30
0.0
 11
-195.4999999999927
 21
-131.5
 31
0.0
  0
LINE
  5
22E
330
409
100
AcDbEntity
  8
DATA
  6
Continuous
 62
     7
100
AcDbLine
 10
-197.4999999999927
 20
-125.9
 30
0.0
 11
-198.9999999999927
 21
-125.9
 31
0.0
  0
ARC
  5
22F
330
409
100
AcDbEntity
  8
DATA
  6
Continuous
 62
     7
100
AcDbCircle
 10
-195.4999999999927
 20
-133.5
 30
0.0
 40
2.0
100
AcDbArc
 50
90.0
 51
180.0
  0
LINE
  5
230
330
409
100
AcDbEntity
  8
DATA
  6
Continuous
 62
     7
100
AcDbLine
 10
-197.4999999999927
 20
-125.9
 30
0.0
 11
-197.4999999999927
 21
-136.4944103301283
 31
0.0
  0
ARC
  5
231
330
409
100
AcDbEntity
  8
DATA
  6
Continuous
 62
     7
100
AcDbCircle
 10
-197.4999999999927
 20
-98.00000000000004
 30
0.0
 40
1.5
100
AcDbArc
 50
90.0
 51
180.0
  0
LINE
  5
232
330
409
100
AcDbEntity
  8
DATA
  6
Continuous
 62
     7
100
AcDbLine
 10
-197.9999999999927
 20
-123.9822027716755
 30
0.0
 11
-197.9999999999927
 21
-97.78187042444486
 31
0.0
  0
LINE
  5
233
330
409
100
AcDbEntity
  8
DATA
  6
Continuous
 62
     7
100
AcDbLine
 10
-196.4999999999927
 20
-125.6565185583477
 30
0.0
 11
-196.4999999999927
 21
-131.7679491924311
 31
0.0
  0
LINE
  5
234
330
409
100
AcDbEntity
  8
DATA
  6
Continuous
 62
     7
100
AcDbLine
 10
-197.2999999999928
 20
-132.6282202112918
 30
0.0
 11
-197.2999999999928
 21
-126.2579091642637
 31
0.0
  0
LINE
  5
235
330
409
100
AcDbEntity
  8
DATA
  6
Continuous
 62
     7
100
AcDbLine
 10
-197.6500000052082
 20
-125.6516913725812
 30
0.0
 11
-198.6499999947773
 21
-125.0743411094138
 31
0.0
  0
LINE
  5
236
330
409
100
AcDbEntity
  8
DATA
  6
Continuous
 62
     7
100
AcDbLine
 10
-196.8500000052081
 20
-125.0503007666652
 30
0.0
 11
-197.6499999999928
 21
-124.5884205543246
 31
0.0
  0
LINE
  5
237
330
409
100
AcDbEntity
  8
DATA
  6
Continuous
 62
     7
100
AcDbLine
 10
-198.9999999999927
 20
-124.4681233177313
 30
0.0
 11
-198.9999999999927
 21
-137.5
 31
0.0
  0
LINE
  5
238
330
409
100
AcDbEntity
  8
DATA
  6
Continuous
 62
     7
100
AcDbLine
 10
19.00000000000728
 20
-137.5
 30
0.0
 11
19.00000000000728
 21
-95.50000000000004
 31
0.0
  0
LINE
  5
239
330
409
100
AcDbEntity
  8
DATA
  6
Continuous
 62
     7
100
AcDbLine
 10
18.00000000000727
 20
-124.4681233177313
 30
0.0
 11
18.00000000000727
 21
-98.00000000000004
 31
0.0
  0
LINE
  5
23A
330
409
100
AcDbEntity
  8
DATA
  6
Continuous
 62
     7
100
AcDbLine
 10
16.50000000000727
 20
-125.9
 30
0.0
 11
18.00000000000727
 21
-125.9
 31
0.0
  0
ARC
  5
23B
330
409
100
AcDbEntity
  8
DATA
  6
Continuous
 62
     7
100
AcDbCircle
 10
14.50000000000727
 20
-133.5
 30
0.0
 40
2.0
100
AcDbArc
 50
0.0
 51
90.0
  0
LINE
  5
23C
330
409
100
AcDbEntity
  8
DATA
  6
Continuous
 62
     7
100
AcDbLine
 10
16.50000000000727
 20
-125.9
 30
0.0
 11
16.50000000000727
 21
-136.4944103301283
 31
0.0
  0
ARC
  5
23D
330
409
100
AcDbEntity
  8
DATA
  6
Continuous
 62
     7
100
AcDbCircle
 10
16.50000000000727
 20
-98.00000000000004
 30
0.0
 40
1.5
100
AcDbArc
 50
0.0
 51
90.0
  0
LINE
  5
23E
330
409
100
AcDbEntity
  8
DATA
  6
Continuous
 62
     7
100
AcDbLine
 10
17.00000000000727
 20
-123.9822027656533
 30
0.0
 11
17.00000000000727
 21
-97.78187042444486
 31
0.0
  0
LINE
  5
23F
330
409
100
AcDbEntity
  8
DATA
  6
Continuous
 62
     7
100
AcDbLine
 10
15.50000000000727
 20
-125.6565185583477
 30
0.0
 11
15.50000000000727
 21
-131.7679491924311
 31
0.0
  0
LINE
  5
240
330
409
100
AcDbEntity
  8
DATA
  6
Continuous
 62
     7
100
AcDbLine
 10
16.30000000000723
 20
-132.6282202112918
 30
0.0
 11
16.30000000000723
 21
-126.2579091642636
 31
0.0
  0
LINE
  5
241
330
409
100
AcDbEntity
  8
DATA
  6
Continuous
 62
     7
100
AcDbLine
 10
16.65000000522264
 20
-125.6516913725812
 30
0.0
 11
17.64999999479187
 21
-125.0743411094138
 31
0.0
  0
LINE
  5
242
330
409
100
AcDbEntity
  8
DATA
  6
Continuous
 62
     7
100
AcDbLine
 10
15.85000000522268
 20
-125.0503007666652
 30
0.0
 11
16.64999999479187
 21
-124.5884205573357
 31
0.0
  0
LINE
  5
243
330
409
100
AcDbEntity
  8
DATA
  6
Continuous
 62
     7
100
AcDbLine
 10
18.00000000000727
 20
-124.4681233177313
 30
0.0
 11
18.00000000000727
 21
-137.5
 31
0.0
  0
ARC
  5
244
330
409
100
AcDbEntity
  8
DATA
  6
Continuous
 62
     7
100
AcDbCircle
 10
-197.2999999999928
 20
-123.9822027716755
 30
0.0
 40
0.6999999999999318
100
AcDbArc
 50
180.0
 51
239.9999999999985
  0
ARC
  5
245
330
409
100
AcDbEntity
  8
DATA
  6
Continuous
 62
     7
100
AcDbCircle
 10
-197.2000000104235
 20
-125.6565185583477
 30
0.0
 40
0.7000000104308129
100
AcDbArc
 50
0.0
 51
60.00000000000053
  0
ARC
  5
246
330
409
100
AcDbEntity
  8
DATA
  6
Continuous
 62
     7
100
AcDbCircle
 10
-198.2999999895619
 20
-124.4681233177313
 30
0.0
 40
0.7000000104308129
100
AcDbArc
 50
180.0
 51
240.0000000000004
  0
ARC
  5
247
330
409
100
AcDbEntity
  8
DATA
  6
Continuous
 62
     7
100
AcDbCircle
 10
-198.0000000104235
 20
-126.2579091642637
 30
0.0
 40
0.7000000104308129
100
AcDbArc
 50
0.0
 51
60.00000000000053
  0
ARC
  5
248
330
409
100
AcDbEntity
  8
DATA
  6
Continuous
 62
     7
100
AcDbCircle
 10
16.29999998957646
 20
-123.9822027656533
 30
0.0
 40
0.7000000104308234
100
AcDbArc
 50
299.9999999999996
 51
0.0
  0
ARC
  5
249
330
409
100
AcDbEntity
  8
DATA
  6
Continuous
 62
     7
100
AcDbCircle
 10
16.20000001043808
 20
-125.6565185583477
 30
0.0
 40
0.7000000104308234
100
AcDbArc
 50
119.9999999999995
 51
180.0
  0
ARC
  5
24A
330
409
100
AcDbEntity
  8
DATA
  6
Continuous
 62
     7
100
AcDbCircle
 10
17.29999998957646
 20
-124.4681233177313
 30
0.0
 40
0.7000000104308234
100
AcDbArc
 50
299.9999999999996
 51
0.0
  0
ARC
  5
24B
330
409
100
AcDbEntity
  8
DATA
  6
Continuous
 62
     7
100
AcDbCircle
 10
17.00000001043804
 20
-126.2579091642637
 30
0.0
 40
0.7000000104308234
100
AcDbArc
 50
119.9999999999995
 51
179.9999999999976
  0
LINE
  5
24C
330
409
100
AcDbEntity
  8
DATA
  6
Continuous
 62
     7
100
AcDbLine
 10
-6.920864360984523
 20
-110.8929307261491
 30
0.0
 11
2.920864360998848
 21
-110.8929307261491
 31
0.0
  0
LINE
  5
24D
330
409
100
AcDbEntity
  8
DATA
  6
Continuous
 62
     7
100
AcDbLine
 10
-6.920864360984523
 20
-109.8929307261491
 30
0.0
 11
-5.579135639001152
 21
-109.8929307261491
 31
0.0
  0
LINE
  5
24E
330
409
100
AcDbEntity
  8
DATA
  6
Continuous
 62
     7
100
AcDbLine
 10
-5.579135639001152
 20
-109.8929307261491
 30
0.0
 11
-6.079135639001152
 21
-110.8929307261491
 31
0.0
  0
LINE
  5
24F
330
409
100
AcDbEntity
  8
DATA
  6
Continuous
 62
     7
100
AcDbLine
 10
-3.079135639001151
 20
-110.8929307261491
 30
0.0
 11
-3.579135639001151
 21
-109.8929307261491
 31
0.0
  0
LINE
  5
250
330
409
100
AcDbEntity
  8
DATA
  6
Continuous
 62
     7
100
AcDbLine
 10
-3.579135639001151
 20
-109.8929307261491
 30
0.0
 11
-0.5791356390011515
 21
-109.8929307261491
 31
0.0
  0
LINE
  5
251
330
409
100
AcDbEntity
  8
DATA
  6
Continuous
 62
     7
100
AcDbLine
 10
-0.5791356390011515
 20
-109.8929307261491
 30
0.0
 11
-1.079135639001151
 21
-110.8929307261491
 31
0.0
  0
LINE
  5
252
330
409
100
AcDbEntity
  8
DATA
  6
Continuous
 62
     7
100
AcDbLine
 10
2.920864360998848
 20
-109.8929307261491
 30
0.0
 11
1.420864360998848
 21
-109.8929307261491
 31
0.0
  0
LINE
  5
253
330
409
100
AcDbEntity
  8
DATA
  6
Continuous
 62
     7
100
AcDbLine
 10
1.420864360998848
 20
-109.8929307261491
 30
0.0
 11
1.920864360998848
 21
-110.8929307261491
 31
0.0
  0
LWPOLYLINE
  5
254
330
409
100
AcDbEntity
  8
DATA
  6
Continuous
 62
     7
100
AcDbPolyline
 90
        4
 70
     1
 43
0.0
 10
-5.079135639001152
 20
-106.3929307261491
 10
-4.079135639001152
 20
-106.3929307261491
 10
-4.079135639001152
 20
-107.3929307261491
 10
-5.079135639001152
 20
-107.3929307261491
  0
LWPOLYLINE
  5
25B
330
409
100
AcDbEntity
  8
DATA
  6
Continuous
 62
     7
100
AcDbPolyline
 90
        4
 70
     1
 43
0.0
 10
-0.0791356390011515
 20
-106.3929307261491
 10
0.9208643609988483
 20
-106.3929307261491
 10
0.9208643609988483
 20
-107.3929307261491
 10
-0.0791356390011515
 20
-107.3929307261491
  0
ARC
  5
262
330
409
100
AcDbEntity
  8
DATA
  6
Continuous
 62
     7
100
AcDbCircle
 10
-4.579135639001152
 20
-107.5179307261491
 30
0.0
 40
3.625
100
AcDbArc
 50
46.39718102729637
 51
130.240252918261
  0
ARC
  5
263
330
409
100
AcDbEntity
  8
DATA
  6
Continuous
 62
     7
100
AcDbCircle
 10
0.4208643609988485
 20
-107.5179307261491
 30
0.0
 40
3.625
100
AcDbArc
 50
46.39718102729637
 51
133.6028189727036
  0
LINE
  5
264
330
409
100
AcDbEntity
  8
DATA
  6
Continuous
 62
     7
100
AcDbLine
 10
2.920864360998848
 20
-102.8929307261492
 30
0.0
 11
2.920864360998848
 21
-111.3929307261491
 31
0.0
  0
ARC
  5
265
330
409
100
AcDbEntity
  8
DATA
  6
Continuous
 62
     7
100
AcDbCircle
 10
-4.579135639001152
 20
-107.0179307261491
 30
0.0
 40
3.625
100
AcDbArc
 50
46.39718102729637
 51
130.240252918261
  0
ARC
  5
266
330
409
100
AcDbEntity
  8
DATA
  6
Continuous
 62
     7
100
AcDbCircle
 10
0.4208643609988485
 20
-107.0179307261491
 30
0.0
 40
3.625
100
AcDbArc
 50
46.39718102729637
 51
133.6028189727036
  0
LINE
  5
267
330
409
100
AcDbEntity
  8
DATA
  6
Continuous
 62
     7
100
AcDbLine
 10
-6.920864360984523
 20
-111.3929307261491
 30
0.0
 11
2.920864360998848
 21
-111.3929307261491
 31
0.0
  0
LINE
  5
268
330
409
100
AcDbEntity
  8
DATA
  6
Continuous
 62
     7
100
AcDbLine
 10
-6.920864360984523
 20
-102.8929307261492
 30
0.0
 11
2.920864360998848
 21
-102.8929307261492
 31
0.0
  0
LINE
  5
269
330
409
100
AcDbEntity
  8
DATA
  6
Continuous
 62
     7
100
AcDbLine
 10
-6.920864360984523
 20
-102.8929307261492
 30
0.0
 11
-6.920864360984523
 21
-111.3929307261491
 31
0.0
  0
LWPOLYLINE
  5
26A
330
409
100
AcDbEntity
  8
DATA
  6
Continuous
 62
     7
100
AcDbPolyline
 90
        4
 70
     1
 43
0.0
 10
-26.66462492927144
 20
-103.5021195474218
 10
-11.16462492927144
 20
-103.5021195474218
 10
-11.16462492927144
 20
-128.5021195474218
 10
-26.66462492927144
 20
-128.5021195474218
  0
LINE
  5
271
330
409
100
AcDbEntity
  8
DATA
  6
Continuous
 62
     7
100
AcDbLine
 10
-15.66462492927144
 20
-127.0021195474217
 30
0.0
 11
-15.66462492927144
 21
-126.0021195474218
 31
0.0
  0
LINE
  5
272
330
409
100
AcDbEntity
  8
DATA
  6
Continuous
 62
     7
100
AcDbLine
 10
-15.66462492927144
 20
-126.0021195474218
 30
0.0
 11
-12.66462492927144
 21
-126.0021195474218
 31
0.0
  0
LINE
  5
273
330
409
100
AcDbEntity
  8
DATA
  6
Continuous
 62
     7
100
AcDbLine
 10
-12.66462492927144
 20
-126.0021195474218
 30
0.0
 11
-12.66462492927144
 21
-118.5021195474217
 31
0.0
  0
LINE
  5
274
330
409
100
AcDbEntity
  8
DATA
  6
Continuous
 62
     7
100
AcDbLine
 10
-22.16462492927144
 20
-127.0021195474217
 30
0.0
 11
-22.16462492927144
 21
-126.0021195474218
 31
0.0
  0
LINE
  5
275
330
409
100
AcDbEntity
  8
DATA
  6
Continuous
 62
     7
100
AcDbLine
 10
-22.16462492927144
 20
-126.0021195474218
 30
0.0
 11
-25.16462492927144
 21
-126.0021195474218
 31
0.0
  0
LINE
  5
276
330
409
100
AcDbEntity
  8
DATA
  6
Continuous
 62
     7
100
AcDbLine
 10
-25.16462492927144
 20
-126.0021195474218
 30
0.0
 11
-25.16462492927144
 21
-118.5021195474217
 31
0.0
  0
LINE
  5
277
330
409
100
AcDbEntity
  8
DATA
  6
Continuous
 62
     7
100
AcDbLine
 10
-12.66462492927144
 20
-118.5021195474217
 30
0.0
 11
-25.16462492927144
 21
-118.5021195474217
 31
0.0
  0
LINE
  5
278
330
409
100
AcDbEntity
  8
DATA
  6
Continuous
 62
     7
100
AcDbLine
 10
-22.41462492927144
 20
-126.2521195474218
 30
0.0
 11
-25.16462492927144
 21
-126.2521195474218
 31
0.0
  0
LINE
  5
279
330
409
100
AcDbEntity
  8
DATA
  6
Continuous
 62
     7
100
AcDbLine
 10
-22.41462492927144
 20
-126.2521195474218
 30
0.0
 11
-22.41462492927144
 21
-127.2521195474218
 31
0.0
  0
LINE
  5
27A
330
409
100
AcDbEntity
  8
DATA
  6
Continuous
 62
     7
100
AcDbLine
 10
-25.16462492927144
 20
-126.2521195474218
 30
0.0
 11
-25.16462492927144
 21
-127.2521195474218
 31
0.0
  0
LINE
  5
27B
330
409
100
AcDbEntity
  8
DATA
  6
Continuous
 62
     7
100
AcDbLine
 10
-25.16462492927144
 20
-127.2521195474218
 30
0.0
 11
-22.41462492927144
 21
-127.2521195474218
 31
0.0
  0
LINE
  5
27C
330
409
100
AcDbEntity
  8
DATA
  6
Continuous
 62
     7
100
AcDbLine
 10
-15.41462492927144
 20
-126.2521195474218
 30
0.0
 11
-12.66462492927144
 21
-126.2521195474218
 31
0.0
  0
LINE
  5
27D
330
409
100
AcDbEntity
  8
DATA
  6
Continuous
 62
     7
100
AcDbLine
 10
-15.41462492927144
 20
-126.2521195474218
 30
0.0
 11
-15.41462492927144
 21
-127.2521195474218
 31
0.0
  0
LINE
  5
27E
330
409
100
AcDbEntity
  8
DATA
  6
Continuous
 62
     7
100
AcDbLine
 10
-12.66462492927144
 20
-126.2521195474218
 30
0.0
 11
-12.66462492927144
 21
-127.2521195474218
 31
0.0
  0
LINE
  5
27F
330
409
100
AcDbEntity
  8
DATA
  6
Continuous
 62
     7
100
AcDbLine
 10
-12.66462492927144
 20
-127.2521195474218
 30
0.0
 11
-15.41462492927144
 21
-127.2521195474218
 31
0.0
  0
LINE
  5
280
330
409
100
AcDbEntity
  8
DATA
  6
Continuous
 62
     7
100
AcDbLine
 10
-22.16462492927144
 20
-127.0021195474217
 30
0.0
 11
-21.16462492927144
 21
-127.0021195474217
 31
0.0
  0
LINE
  5
281
330
409
100
AcDbEntity
  8
DATA
  6
Continuous
 62
     7
100
AcDbLine
 10
-15.66462492927144
 20
-127.0021195474217
 30
0.0
 11
-16.66462492927144
 21
-127.0021195474217
 31
0.0
  0
LINE
  5
282
330
409
100
AcDbEntity
  8
DATA
  6
Continuous
 62
     7
100
AcDbLine
 10
-16.66462492927144
 20
-127.0021195474217
 30
0.0
 11
-16.66462492927144
 21
-128.0021195474217
 31
0.0
  0
LINE
  5
283
330
409
100
AcDbEntity
  8
DATA
  6
Continuous
 62
     7
100
AcDbLine
 10
-21.16462492927144
 20
-127.0021195474217
 30
0.0
 11
-21.16462492927144
 21
-128.0021195474217
 31
0.0
  0
LINE
  5
284
330
409
100
AcDbEntity
  8
DATA
  6
Continuous
 62
     7
100
AcDbLine
 10
-21.16462492927144
 20
-128.0021195474217
 30
0.0
 11
-16.66462492927144
 21
-128.0021195474217
 31
0.0
  0
LINE
  5
285
330
409
100
AcDbEntity
  8
DATA
  6
Continuous
 62
     7
100
AcDbLine
 10
-11.16462492927144
 20
-115.0021195474217
 30
0.0
 11
-26.66462492927144
 21
-115.0021195474217
 31
0.0
  0
LINE
  5
286
330
409
100
AcDbEntity
  8
DATA
  6
Continuous
 62
     7
100
AcDbLine
 10
-22.16462492927144
 20
-105.0021195474217
 30
0.0
 11
-22.16462492927144
 21
-106.0021195474217
 31
0.0
  0
LINE
  5
287
330
409
100
AcDbEntity
  8
DATA
  6
Continuous
 62
     7
100
AcDbLine
 10
-22.16462492927144
 20
-106.0021195474217
 30
0.0
 11
-25.16462492927144
 21
-106.0021195474217
 31
0.0
  0
LINE
  5
288
330
409
100
AcDbEntity
  8
DATA
  6
Continuous
 62
     7
100
AcDbLine
 10
-25.16462492927144
 20
-106.0021195474217
 30
0.0
 11
-25.16462492927144
 21
-113.5021195474217
 31
0.0
  0
LINE
  5
289
330
409
100
AcDbEntity
  8
DATA
  6
Continuous
 62
     7
100
AcDbLine
 10
-15.66462492927144
 20
-105.0021195474217
 30
0.0
 11
-15.66462492927144
 21
-106.0021195474217
 31
0.0
  0
LINE
  5
28A
330
409
100
AcDbEntity
  8
DATA
  6
Continuous
 62
     7
100
AcDbLine
 10
-15.66462492927144
 20
-106.0021195474217
 30
0.0
 11
-12.66462492927144
 21
-106.0021195474217
 31
0.0
  0
LINE
  5
28B
330
409
100
AcDbEntity
  8
DATA
  6
Continuous
 62
     7
100
AcDbLine
 10
-12.66462492927144
 20
-106.0021195474217
 30
0.0
 11
-12.66462492927144
 21
-113.5021195474217
 31
0.0
  0
LINE
  5
28C
330
409
100
AcDbEntity
  8
DATA
  6
Continuous
 62
     7
100
AcDbLine
 10
-25.16462492927144
 20
-113.5021195474217
 30
0.0
 11
-12.66462492927144
 21
-113.5021195474217
 31
0.0
  0
LINE
  5
28D
330
409
100
AcDbEntity
  8
DATA
  6
Continuous
 62
     7
100
AcDbLine
 10
-15.41462492927144
 20
-105.7521195474217
 30
0.0
 11
-12.66462492927144
 21
-105.7521195474217
 31
0.0
  0
LINE
  5
28E
330
409
100
AcDbEntity
  8
DATA
  6
Continuous
 62
     7
100
AcDbLine
 10
-15.41462492927144
 20
-105.7521195474217
 30
0.0
 11
-15.41462492927144
 21
-104.7521195474218
 31
0.0
  0
LINE
  5
28F
330
409
100
AcDbEntity
  8
DATA
  6
Continuous
 62
     7
100
AcDbLine
 10
-12.66462492927144
 20
-105.7521195474217
 30
0.0
 11
-12.66462492927144
 21
-104.7521195474218
 31
0.0
  0
LINE
  5
290
330
409
100
AcDbEntity
  8
DATA
  6
Continuous
 62
     7
100
AcDbLine
 10
-12.66462492927144
 20
-104.7521195474218
 30
0.0
 11
-15.41462492927144
 21
-104.7521195474218
 31
0.0
  0
LINE
  5
291
330
409
100
AcDbEntity
  8
DATA
  6
Continuous
 62
     7
100
AcDbLine
 10
-22.41462492927144
 20
-105.7521195474217
 30
0.0
 11
-25.16462492927144
 21
-105.7521195474217
 31
0.0
  0
LINE
  5
292
330
409
100
AcDbEntity
  8
DATA
  6
Continuous
 62
     7
100
AcDbLine
 10
-22.41462492927144
 20
-105.7521195474217
 30
0.0
 11
-22.41462492927144
 21
-104.7521195474218
 31
0.0
  0
LINE
  5
293
330
409
100
AcDbEntity
  8
DATA
  6
Continuous
 62
     7
100
AcDbLine
 10
-25.16462492927144
 20
-105.7521195474217
 30
0.0
 11
-25.16462492927144
 21
-104.7521195474218
 31
0.0
  0
LINE
  5
294
330
409
100
AcDbEntity
  8
DATA
  6
Continuous
 62
     7
100
AcDbLine
 10
-25.16462492927144
 20
-104.7521195474218
 30
0.0
 11
-22.41462492927144
 21
-104.7521195474218
 31
0.0
  0
LINE
  5
295
330
409
100
AcDbEntity
  8
DATA
  6
Continuous
 62
     7
100
AcDbLine
 10
-15.66462492927144
 20
-105.0021195474217
 30
0.0
 11
-16.66462492927144
 21
-105.0021195474217
 31
0.0
  0
LINE
  5
296
330
409
100
AcDbEntity
  8
DATA
  6
Continuous
 62
     7
100
AcDbLine
 10
-22.16462492927144
 20
-105.0021195474217
 30
0.0
 11
-21.16462492927144
 21
-105.0021195474217
 31
0.0
  0
LINE
  5
297
330
409
100
AcDbEntity
  8
DATA
  6
Continuous
 62
     7
100
AcDbLine
 10
-21.16462492927144
 20
-105.0021195474217
 30
0.0
 11
-21.16462492927144
 21
-104.0021195474218
 31
0.0
  0
LINE
  5
298
330
409
100
AcDbEntity
  8
DATA
  6
Continuous
 62
     7
100
AcDbLine
 10
-16.66462492927144
 20
-105.0021195474217
 30
0.0
 11
-16.66462492927144
 21
-104.0021195474218
 31
0.0
  0
LINE
  5
299
330
409
100
AcDbEntity
  8
DATA
  6
Continuous
 62
     7
100
AcDbLine
 10
-16.66462492927144
 20
-104.0021195474218
 30
0.0
 11
-21.16462492927144
 21
-104.0021195474218
 31
0.0
  0
LINE
  5
29A
330
409
100
AcDbEntity
  8
DATA
  6
Continuous
 62
     7
100
AcDbLine
 10
-26.66462492927144
 20
-117.0021195474217
 30
0.0
 11
-11.16462492927144
 21
-117.0021195474217
 31
0.0
  0
TEXT
  5
29B
330
409
100
AcDbEntity
  8
DATA
 62
     7
100
AcDbText
 10
6.470466272404792
 20
-123.8933169646353
 30
0.0
 40
2.1546875
  1
>BLU link>IN
 50
180.0
 41
0.7
 11
6.470466272404792
 21
-126.0480044646353
 31
0.0
100
AcDbText
 73
     3
  0
LINE
  5
29C
330
409
100
AcDbEntity
  8
DATA
  6
Continuous
 62
     7
100
AcDbLine
 10
-33.2338029226828
 20
-103.4999999999948
 30
0.0
 11
-33.2338029226828
 21
-113.2999999999949
 31
0.0
  0
LINE
  5
29D
330
409
100
AcDbEntity
  8
DATA
  6
Continuous
 62
     7
100
AcDbLine
 10
-49.93380292268285
 20
-103.4999999999948
 30
0.0
 11
-33.2338029226828
 21
-103.4999999999948
 31
0.0
  0
LINE
  5
29E
330
409
100
AcDbEntity
  8
DATA
  6
Continuous
 62
     7
100
AcDbLine
 10
-49.93380292268285
 20
-113.2999999999949
 30
0.0
 11
-49.93380292268285
 21
-103.4999999999948
 31
0.0
  0
LINE
  5
29F
330
409
100
AcDbEntity
  8
DATA
  6
Continuous
 62
     7
100
AcDbLine
 10
-33.2338029226828
 20
-113.2999999999949
 30
0.0
 11
-49.93380292268285
 21
-113.2999999999949
 31
0.0
  0
LWPOLYLINE
  5
2A0
330
409
100
AcDbEntity
  8
DATA
  6
Continuous
 62
     7
100
AcDbPolyline
 90
        4
 70
     1
 43
0.0
 10
-35.92601929240414
 20
-106.9999999999948
 10
-34.52601929240405
 20
-106.9999999999948
 10
-34.52601929240405
 20
-110.3999999999949
 10
-35.92601929240414
 20
-110.3999999999949
  0
LWPOLYLINE
  5
2A7
330
409
100
AcDbEntity
  8
DATA
  6
Continuous
 62
     7
100
AcDbPolyline
 90
        4
 70
     1
 43
0.0
 10
-38.42601929240414
 20
-106.9999999999948
 10
-37.02601929240405
 20
-106.9999999999948
 10
-37.02601929240405
 20
-110.3999999999949
 10
-38.42601929240414
 20
-110.3999999999949
  0
LWPOLYLINE
  5
2AE
330
409
100
AcDbEntity
  8
DATA
  6
Continuous
 62
     7
100
AcDbPolyline
 90
        4
 70
     1
 43
0.0
 10
-40.92601929240413
 20
-106.9999999999948
 10
-39.52601929240405
 20
-106.9999999999948
 10
-39.52601929240405
 20
-110.3999999999949
 10
-40.92601929240413
 20
-110.3999999999949
  0
LWPOLYLINE
  5
2B5
330
409
100
AcDbEntity
  8
DATA
  6
Continuous
 62
     7
100
AcDbPolyline
 90
        4
 70
     1
 43
0.0
 10
-43.42601929240413
 20
-106.9999999999948
 10
-42.02601929240404
 20
-106.9999999999948
 10
-42.02601929240404
 20
-110.3999999999949
 10
-43.42601929240413
 20
-110.3999999999949
  0
LWPOLYLINE
  5
2BC
330
409
100
AcDbEntity
  8
DATA
  6
Continuous
 62
     7
100
AcDbPolyline
 90
        4
 70
     1
 43
0.0
 10
-45.92601929240413
 20
-106.9999999999948
 10
-44.52601929240405
 20
-106.9999999999948
 10
-44.52601929240405
 20
-110.3999999999949
 10
-45.92601929240413
 20
-110.3999999999949
  0
LWPOLYLINE
  5
2C3
330
409
100
AcDbEntity
  8
DATA
  6
Continuous
 62
     7
100
AcDbPolyline
 90
        4
 70
     1
 43
0.0
 10
-48.42601929240413
 20
-106.9999999999948
 10
-47.02601929240405
 20
-106.9999999999948
 10
-47.02601929240405
 20
-110.3999999999949
 10
-48.42601929240413
 20
-110.3999999999949
  0
TEXT
  5
2CA
330
409
100
AcDbEntity
  8
DATA
 62
     7
100
AcDbText
 10
-33.77499999668135
 20
-111.57
 30
0.0
 40
1.3466796875
  1
ON
 50
180.0
 41
0.7
 11
-33.77499999668135
 21
-112.9166796875
 31
0.0
100
AcDbText
 73
     3
  0
TEXT
  5
2CB
330
409
100
AcDbEntity
  8
DATA
 62
     7
100
AcDbText
 10
-34.78781297088608
 20
-104.6333712631583
 30
0.0
 40
1.3466796875
  1
1
 50
180.0
 41
0.7
 11
-34.78781297088608
 21
-105.9800509506582
 31
0.0
100
AcDbText
 73
     3
  0
TEXT
  5
2CC
330
409
100
AcDbEntity
  8
DATA
 62
     7
100
AcDbText
 10
-37.28781297088608
 20
-104.6333712631583
 30
0.0
 40
1.3466796875
  1
2
 50
180.0
 41
0.7
 11
-37.28781297088608
 21
-105.9800509506582
 31
0.0
100
AcDbText
 73
     3
  0
TEXT
  5
2CD
330
409
100
AcDbEntity
  8
DATA
 62
     7
100
AcDbText
 10
-39.78781297088608
 20
-104.6333712631583
 30
0.0
 40
1.3466796875
  1
3
 50
180.0
 41
0.7
 11
-39.78781297088608
 21
-105.9800509506582
 31
0.0
100
AcDbText
 73
     3
  0
TEXT
  5
2CE
330
409
100
AcDbEntity
  8
DATA
 62
     7
100
AcDbText
 10
-42.28781297088608
 20
-104.6333712631583
 30
0.0
 40
1.3466796875
  1
4
 50
180.0
 41
0.7
 11
-42.28781297088608
 21
-105.9800509506582
 31
0.0
100
AcDbText
 73
     3
  0
TEXT
  5
2CF
330
409
100
AcDbEntity
  8
DATA
 62
     7
100
AcDbText
 10
-44.78781297088608
 20
-104.6333712631583
 30
0.0
 40
1.3466796875
  1
5
 50
180.0
 41
0.7
 11
-44.78781297088608
 21
-105.9800509506582
 31
0.0
100
AcDbText
 73
     3
  0
TEXT
  5
2D0
330
409
100
AcDbEntity
  8
DATA
 62
     7
100
AcDbText
 10
-47.28781297088608
 20
-104.6333712631583
 30
0.0
 40
1.3466796875
  1
6
 50
180.0
 41
0.7
 11
-47.28781297088608
 21
-105.9800509506582
 31
0.0
100
AcDbText
 73
     3
  0
TEXT
  5
2D1
330
409
100
AcDbEntity
  8
DATA
 62
     7
100
AcDbText
 10
1.255582593710415
 20
-98.29000000000004
 30
0.0
 40
2.693359375
  1
+
 50
180.0
 41
0.7
 11
1.255582593710414
 21
-100.983359375
 31
0.0
100
AcDbText
 73
     3
  0
TEXT
  5
2D2
330
409
100
AcDbEntity
  8
DATA
 62
     7
100
AcDbText
 10
-3.744417406289584
 20
-98.29000000000004
 30
0.0
 40
2.693359375
  1
-
 50
180.0
 41
0.7
 11
-3.744417406289585
 21
-100.983359375
 31
0.0
100
AcDbText
 73
     3
  0
TEXT
  5
2D3
330
409
100
AcDbEntity
  8
DATA
 62
     7
100
AcDbText
 10
2.286299833085877
 20
-116.1735657683239
 30
0.0
 40
2.693359375
  1
12VDC
 50
180.0
 41
0.7
 11
2.286299833085877
 21
-118.8669251433239
 31
0.0
100
AcDbText
 73
     3
  0
TEXT
  5
2D4
330
409
100
AcDbEntity
  8
DATA
 62
     7
100
AcDbText
 10
0.5145135801458314
 20
-112.6044022934087
 30
0.0
 40
2.693359375
  1
15W
 50
180.0
 41
0.7
 11
0.514513580145831
 21
-115.2977616684087
 31
0.0
100
AcDbText
 73
     3
  0
TEXT
  5
2D5
330
409
100
AcDbEntity
  8
DATA
 62
     7
100
AcDbText
 10
-31.84670896292892
 20
-124.0016089100094
 30
0.0
 40
2.1546875
  1
<BLU link<OUT
 50
180.0
 41
0.7
 11
-31.84670896292892
 21
-126.1562964100094
 31
0.0
100
AcDbText
 73
     3
  0
LINE
  5
2D6
330
409
100
AcDbEntity
  8
DATA
  6
Continuous
 62
     7
100
AcDbLine
 10
-26.95467459482256
 20
-109.7521195474218
 30
0.0
 11
-28.96839642726059
 21
-109.7521195474218
 31
0.0
  0
LINE
  5
2D7
330
409
100
AcDbEntity
  8
DATA
  6
Continuous
 62
     7
100
AcDbLine
 10
-28.96839642726059
 20
-109.7521195474218
 30
0.0
 11
-28.96839642726059
 21
-125.0232992838811
 31
0.0
  0
LINE
  5
2D8
330
409
100
AcDbEntity
  8
DATA
  6
Continuous
 62
     7
100
AcDbLine
 10
-28.96839642726059
 20
-125.0232992838811
 30
0.0
 11
-30.998744086118
 21
-125.0232992838811
 31
0.0
  0
TEXT
  5
2D9
330
409
100
AcDbEntity
  8
DATA
 62
     7
100
AcDbText
 10
-36.42932645376481
 20
-117.6281971931872
 30
0.0
 40
2.1546875
  1
CHANNEL
 50
180.0
 41
0.7
 11
-36.42932645376481
 21
-119.7828846931872
 31
0.0
100
AcDbText
 73
     3
  0
TEXT
  5
2DA
330
409
100
AcDbEntity
  8
DATA
 62
     7
100
AcDbText
 10
-36.93570122105575
 20
-114.5176093369719
 30
0.0
 40
2.1546875
  1
SELECT
 50
180.0
 41
0.7
 11
-36.93570122105575
 21
-116.6722968369719
 31
0.0
100
AcDbText
 73
     3
  0
CIRCLE
  5
2DB
330
409
100
AcDbEntity
  8
DATA
  6
Continuous
 62
     7
100
AcDbCircle
 10
-7.999999999992723
 20
-131.5
 30
0.0
 40
2.5
  0
LINE
  5
2DC
330
409
100
AcDbEntity
  8
DATA
  6
Continuous
 62
     7
100
AcDbLine
 10
-6.770915982825953
 20
-131.5
 30
0.0
 11
-9.229084017159721
 21
-131.5
 31
0.0
  0
LINE
  5
2DD
330
409
100
AcDbEntity
  8
DATA
  6
Continuous
 62
     7
100
AcDbLine
 10
-7.999999999992723
 20
-130.2709159828331
 30
0.0
 11
-7.999999999992723
 21
-132.7290840171669
 31
0.0
  0
ARC
  5
2DE
330
409
100
AcDbEntity
  8
DATA
  6
Continuous
 62
     7
100
AcDbCircle
 10
-7.999999999992723
 20
-131.7222167102334
 30
0.0
 40
3.507047228981519
100
AcDbArc
 50
3.632860869283088
 51
176.3671391307169
  0
CIRCLE
  5
2DF
330
409
100
AcDbEntity
  8
DATA
  6
Continuous
 62
     7
100
AcDbCircle
 10
-172.9999999999927
 20
-131.5
 30
0.0
 40
2.5
  0
LINE
  5
2E0
330
409
100
AcDbEntity
  8
DATA
  6
Continuous
 62
     7
100
AcDbLine
 10
-171.7709159828259
 20
-131.5
 30
0.0
 11
-174.2290840171597
 21
-131.5
 31
0.0
  0
LINE
  5
2E1
330
409
100
AcDbEntity
  8
DATA
  6
Continuous
 62
     7
100
AcDbLine
 10
-172.9999999999927
 20
-130.2709159828331
 30
0.0
 11
-172.9999999999927
 21
-132.7290840171669
 31
0.0
  0
ARC
  5
2E2
330
409
100
AcDbEntity
  8
DATA
  6
Continuous
 62
     7
100
AcDbCircle
 10
-172.9999999999927
 20
-131.7222167102334
 30
0.0
 40
3.507047228981519
100
AcDbArc
 50
3.632860869283088
 51
176.3671391307169
  0
ARC
  5
2E3
330
409
100
AcDbEntity
  8
DATA
  6
Continuous
 62
     7
100
AcDbCircle
 10
-154.3037497519378
 20
-379.0
 30
0.0
 40
28.30374975193788
100
AcDbArc
 50
341.5692238680914
 51
18.43077613190855
  0
ARC
  5
2E4
330
409
100
AcDbEntity
  8
DATA
  6
Continuous
 62
     7
100
AcDbCircle
 10
-163.0
 20
-379.0
 30
0.0
 40
11.0
100
AcDbArc
 50
90.0
 51
270.0
  0
LINE
  5
2E5
330
409
100
AcDbEntity
  8
DATA
  6
Continuous
 62
     7
100
AcDbLine
 10
-163.0
 20
-390.0
 30
0.0
 11
-130.297922302989
 21
-390.0
 31
0.0
  0
LINE
  5
2E6
330
409
100
AcDbEntity
  8
DATA
  6
Continuous
 62
     7
100
AcDbLine
 10
-130.297922302989
 20
-368.0
 30
0.0
 11
-163.0
 21
-368.0
 31
0.0
  0
ARC
  5
2E7
330
409
100
AcDbEntity
  8
DATA
  6
Continuous
 62
     7
100
AcDbCircle
 10
-130.297922302989
 20
-370.9999999999999
 30
0.0
 40
2.999999999999796
100
AcDbArc
 50
18.43077613190654
 51
90.0
  0
ARC
  5
2E8
330
409
100
AcDbEntity
  8
DATA
  6
Continuous
 62
     7
100
AcDbCircle
 10
-130.297922302989
 20
-387.0000000000002
 30
0.0
 40
2.999999999999772
100
AcDbArc
 50
270.0
 51
341.5692238680954
  0
LINE
  5
2E9
330
409
100
AcDbEntity
  8
DATA
  6
Continuous
 62
     7
100
AcDbLine
 10
-185.500000000007
 20
-152.0
 30
0.0
 11
-185.500000000007
 21
-155.0
 31
0.0
  0
LINE
  5
2EA
330
409
100
AcDbEntity
  8
DATA
  6
Continuous
 62
     7
100
AcDbLine
 10
-155.5000000000072
 20
-152.0
 30
0.0
 11
-155.5000000000072
 21
-155.0
 31
0.0
  0
LINE
  5
2EB
330
409
100
AcDbEntity
  8
DATA
  6
Continuous
 62
     7
100
AcDbLine
 10
-185.500000000007
 20
-152.0
 30
0.0
 11
-155.5000000000072
 21
-152.0
 31
0.0
  0
LINE
  5
2EC
330
409
100
AcDbEntity
  8
DATA
  6
Continuous
 62
     7
100
AcDbLine
 10
-153.000000000007
 20
-152.0
 30
0.0
 11
-153.000000000007
 21
-155.0
 31
0.0
  0
LINE
  5
2ED
330
409
100
AcDbEntity
  8
DATA
  6
Continuous
 62
     7
100
AcDbLine
 10
-123.0000000000073
 20
-152.0
 30
0.0
 11
-123.0000000000073
 21
-155.0
 31
0.0
  0
LINE
  5
2EE
330
409
100
AcDbEntity
  8
DATA
  6
Continuous
 62
     7
100
AcDbLine
 10
-153.000000000007
 20
-152.0
 30
0.0
 11
-123.0000000000073
 21
-152.0
 31
0.0
  0
LINE
  5
2EF
330
409
100
AcDbEntity
  8
DATA
  6
Continuous
 62
     7
100
AcDbLine
 10
-120.500000000007
 20
-152.0
 30
0.0
 11
-120.500000000007
 21
-155.0
 31
0.0
  0
LINE
  5
2F0
330
409
100
AcDbEntity
  8
DATA
  6
Continuous
 62
     7
100
AcDbLine
 10
-90.50000000000729
 20
-152.0
 30
0.0
 11
-90.50000000000729
 21
-155.0
 31
0.0
  0
LINE
  5
2F1
330
409
100
AcDbEntity
  8
DATA
  6
Continuous
 62
     7
100
AcDbLine
 10
-120.500000000007
 20
-152.0
 30
0.0
 11
-90.50000000000729
 21
-152.0
 31
0.0
  0
LINE
  5
2F2
330
409
100
AcDbEntity
  8
DATA
  6
Continuous
 62
     7
100
AcDbLine
 10
-88.00000000000705
 20
-152.0
 30
0.0
 11
-88.00000000000705
 21
-155.0
 31
0.0
  0
LINE
  5
2F3
330
409
100
AcDbEntity
  8
DATA
  6
Continuous
 62
     7
100
AcDbLine
 10
-58.00000000000728
 20
-152.0
 30
0.0
 11
-58.00000000000728
 21
-155.0
 31
0.0
  0
LINE
  5
2F4
330
409
100
AcDbEntity
  8
DATA
  6
Continuous
 62
     7
100
AcDbLine
 10
-88.00000000000705
 20
-152.0
 30
0.0
 11
-58.00000000000728
 21
-152.0
 31
0.0
  0
LINE
  5
2F5
330
409
100
AcDbEntity
  8
DATA
  6
Continuous
 62
     7
100
AcDbLine
 10
-6.920864360998848
 20
-151.0
 30
0.0
 11
-6.920864360998848
 21
-155.0
 31
0.0
  0
LINE
  5
2F6
330
409
100
AcDbEntity
  8
DATA
  6
Continuous
 62
     7
100
AcDbLine
 10
2.920864360984523
 20
-151.0
 30
0.0
 11
2.920864360984523
 21
-155.0
 31
0.0
  0
LINE
  5
2F7
330
409
100
AcDbEntity
  8
DATA
  6
Continuous
 62
     7
100
AcDbLine
 10
-6.920864360998848
 20
-151.0
 30
0.0
 11
2.920864360984523
 21
-151.0
 31
0.0
  0
LINE
  5
2F8
330
409
100
AcDbEntity
  8
DATA
  6
Continuous
 62
     7
100
AcDbLine
 10
-26.66462492928599
 20
-154.0
 30
0.0
 11
-26.66462492928599
 21
-155.0
 31
0.0
  0
LINE
  5
2F9
330
409
100
AcDbEntity
  8
DATA
  6
Continuous
 62
     7
100
AcDbLine
 10
-11.16462492928599
 20
-154.0
 30
0.0
 11
-11.16462492928599
 21
-155.0
 31
0.0
  0
LINE
  5
2FA
330
409
100
AcDbEntity
  8
DATA
  6
Continuous
 62
     7
100
AcDbLine
 10
-26.66462492928599
 20
-154.0
 30
0.0
 11
-11.16462492928599
 21
-154.0
 31
0.0
  0
LINE
  5
2FB
330
409
100
AcDbEntity
  8
DATA
  6
Continuous
 62
     7
100
AcDbLine
 10
-48.42601929241846
 20
-154.5
 30
0.0
 11
-48.42601929241846
 21
-155.0
 31
0.0
  0
LINE
  5
2FC
330
409
100
AcDbEntity
  8
DATA
  6
Continuous
 62
     7
100
AcDbLine
 10
-47.02601929241836
 20
-154.5
 30
0.0
 11
-47.02601929241836
 21
-155.0
 31
0.0
  0
LINE
  5
2FD
330
409
100
AcDbEntity
  8
DATA
  6
Continuous
 62
     7
100
AcDbLine
 10
-48.42601929241846
 20
-154.5
 30
0.0
 11
-47.02601929241836
 21
-154.5
 31
0.0
  0
LINE
  5
2FE
330
409
100
AcDbEntity
  8
DATA
  6
Continuous
 62
     7
100
AcDbLine
 10
-45.92601929241846
 20
-154.5
 30
0.0
 11
-45.92601929241846
 21
-155.0
 31
0.0
  0
LINE
  5
2FF
330
409
100
AcDbEntity
  8
DATA
  6
Continuous
 62
     7
100
AcDbLine
 10
-44.52601929241836
 20
-154.5
 30
0.0
 11
-44.52601929241836
 21
-155.0
 31
0.0
  0
LINE
  5
300
330
409
100
AcDbEntity
  8
DATA
  6
Continuous
 62
     7
100
AcDbLine
 10
-45.92601929241846
 20
-154.5
 30
0.0
 11
-44.52601929241836
 21
-154.5
 31
0.0
  0
LINE
  5
301
330
409
100
AcDbEntity
  8
DATA
  6
Continuous
 62
     7
100
AcDbLine
 10
-43.42601929241845
 20
-154.5
 30
0.0
 11
-43.42601929241845
 21
-155.0
 31
0.0
  0
LINE
  5
302
330
409
100
AcDbEntity
  8
DATA
  6
Continuous
 62
     7
100
AcDbLine
 10
-42.02601929241836
 20
-154.5
 30
0.0
 11
-42.02601929241836
 21
-155.0
 31
0.0
  0
LINE
  5
303
330
409
100
AcDbEntity
  8
DATA
  6
Continuous
 62
     7
100
AcDbLine
 10
-43.42601929241845
 20
-154.5
 30
0.0
 11
-42.02601929241836
 21
-154.5
 31
0.0
  0
LINE
  5
304
330
409
100
AcDbEntity
  8
DATA
  6
Continuous
 62
     7
100
AcDbLine
 10
-40.92601929241845
 20
-154.5
 30
0.0
 11
-40.92601929241845
 21
-155.0
 31
0.0
  0
LINE
  5
305
330
409
100
AcDbEntity
  8
DATA
  6
Continuous
 62
     7
100
AcDbLine
 10
-39.52601929241837
 20
-154.5
 30
0.0
 11
-39.52601929241837
 21
-155.0
 31
0.0
  0
LINE
  5
306
330
409
100
AcDbEntity
  8
DATA
  6
Continuous
 62
     7
100
AcDbLine
 10
-40.92601929241845
 20
-154.5
 30
0.0
 11
-39.52601929241837
 21
-154.5
 31
0.0
  0
LINE
  5
307
330
409
100
AcDbEntity
  8
DATA
  6
Continuous
 62
     7
100
AcDbLine
 10
-38.42601929241845
 20
-154.5
 30
0.0
 11
-38.42601929241845
 21
-155.0
 31
0.0
  0
LINE
  5
308
330
409
100
AcDbEntity
  8
DATA
  6
Continuous
 62
     7
100
AcDbLine
 10
-37.02601929241837
 20
-154.5
 30
0.0
 11
-37.02601929241837
 21
-155.0
 31
0.0
  0
LINE
  5
309
330
409
100
AcDbEntity
  8
DATA
  6
Continuous
 62
     7
100
AcDbLine
 10
-38.42601929241845
 20
-154.5
 30
0.0
 11
-37.02601929241837
 21
-154.5
 31
0.0
  0
LINE
  5
30A
330
409
100
AcDbEntity
  8
DATA
  6
Continuous
 62
     7
100
AcDbLine
 10
-35.92601929241845
 20
-154.5
 30
0.0
 11
-35.92601929241845
 21
-155.0
 31
0.0
  0
LINE
  5
30B
330
409
100
AcDbEntity
  8
DATA
  6
Continuous
 62
     7
100
AcDbLine
 10
-34.52601929241837
 20
-154.5
 30
0.0
 11
-34.52601929241837
 21
-155.0
 31
0.0
  0
LINE
  5
30C
330
409
100
AcDbEntity
  8
DATA
  6
Continuous
 62
     7
100
AcDbLine
 10
-35.92601929241845
 20
-154.5
 30
0.0
 11
-34.52601929241837
 21
-154.5
 31
0.0
  0
LINE
  5
30D
330
409
100
AcDbEntity
  8
DATA
  6
Continuous
 62
     7
100
AcDbLine
 10
39.0
 20
-400.0
 30
0.0
 11
42.5
 21
-400.0
 31
0.0
  0
LINE
  5
30E
330
409
100
AcDbEntity
  8
DATA
  6
Continuous
 62
     7
100
AcDbLine
 10
39.0
 20
-358.0
 30
0.0
 11
230.5000000000003
 21
-358.0
 31
0.0
  0
LINE
  5
30F
330
409
100
AcDbEntity
  8
DATA
  6
Continuous
 62
     7
100
AcDbLine
 10
37.5
 20
-385.0000000000001
 30
0.0
 11
37.5
 21
-373.0
 31
0.0
  0
LINE
  5
310
330
409
100
AcDbEntity
  8
DATA
  6
Continuous
 62
     7
100
AcDbLine
 10
232.5000000000002
 20
-364.0
 30
0.0
 11
232.5000000000002
 21
-360.0
 31
0.0
  0
LINE
  5
311
330
409
100
AcDbEntity
  8
DATA
  6
Continuous
 62
     7
100
AcDbLine
 10
39.0
 20
-400.0
 30
0.0
 11
39.0
 21
-358.0
 31
0.0
  0
LINE
  5
312
330
409
100
AcDbEntity
  8
DATA
  6
Continuous
 62
     7
100
AcDbLine
 10
42.5
 20
-368.0
 30
0.0
 11
42.5
 21
-358.0
 31
0.0
  0
LINE
  5
313
330
409
100
AcDbEntity
  8
DATA
  6
Continuous
 62
     7
100
AcDbLine
 10
44.5
 20
-370.0
 30
0.0
 11
229.3000000000001
 21
-370.0
 31
0.0
  0
ARC
  5
314
330
409
100
AcDbEntity
  8
DATA
  6
Continuous
 62
     7
100
AcDbCircle
 10
44.5
 20
-368.0
 30
0.0
 40
2.0
100
AcDbArc
 50
180.0
 51
270.0
  0
LINE
  5
315
330
409
100
AcDbEntity
  8
DATA
  6
Continuous
 62
     7
100
AcDbLine
 10
42.5
 20
-368.0
 30
0.0
 11
42.5
 21
-400.0
 31
0.0
  0
LINE
  5
316
330
409
100
AcDbEntity
  8
DATA
  6
Continuous
 62
     7
100
AcDbLine
 10
42.5
 20
-399.0
 30
0.0
 11
230.1000000000001
 21
-399.0
 31
0.0
  0
LINE
  5
317
330
409
100
AcDbEntity
  8
DATA
  6
Continuous
 62
     7
100
AcDbLine
 10
231.3000000000001
 20
-359.1999999999999
 30
0.0
 11
231.3000000000001
 21
-368.0
 31
0.0
  0
ARC
  5
318
330
409
100
AcDbEntity
  8
DATA
  6
Continuous
 62
     7
100
AcDbCircle
 10
230.1000000000001
 20
-397.8
 30
0.0
 40
1.200000000000045
100
AcDbArc
 50
270.0
 51
359.9999999999947
  0
ARC
  5
319
330
409
100
AcDbEntity
  8
DATA
  6
Continuous
 62
     7
100
AcDbCircle
 10
229.3000000000001
 20
-368.0
 30
0.0
 40
2.0
100
AcDbArc
 50
270.0
 51
0.0
  0
LINE
  5
31A
330
409
100
AcDbEntity
  8
DATA
  6
Continuous
 62
     7
100
AcDbLine
 10
231.3000000000001
 20
-397.8000000000001
 30
0.0
 11
231.3000000000001
 21
-368.0
 31
0.0
  0
LINE
  5
31B
330
409
100
AcDbEntity
  8
DATA
  6
Continuous
 62
     7
100
AcDbLine
 10
231.3000000000001
 20
-364.0
 30
0.0
 11
232.5000000000002
 21
-364.0
 31
0.0
  0
ARC
  5
31C
330
409
100
AcDbEntity
  8
DATA
  6
Continuous
 62
     7
100
AcDbCircle
 10
230.5000000000003
 20
-360.0
 30
0.0
 40
2.0
100
AcDbArc
 50
0.0
 51
90.0
  0
CIRCLE
  5
31D
330
409
100
AcDbEntity
  8
DATA
  6
Continuous
 62
     7
100
AcDbCircle
 10
50.0
 20
-375.0
 30
0.0
 40
2.5
  0
LINE
  5
31E
330
409
100
AcDbEntity
  8
DATA
  6
Continuous
 62
     7
100
AcDbLine
 10
51.22908401716699
 20
-375.0
 30
0.0
 11
48.77091598283322
 21
-375.0
 31
0.0
  0
LINE
  5
31F
330
409
100
AcDbEntity
  8
DATA
  6
Continuous
 62
     7
100
AcDbLine
 10
50.0
 20
-373.7709159828331
 30
0.0
 11
50.0
 21
-376.2290840171669
 31
0.0
  0
LINE
  5
320
330
409
100
AcDbEntity
  8
DATA
  6
Continuous
 62
     7
100
AcDbLine
 10
95.0
 20
-377.5
 30
0.0
 11
107.0
 21
-377.5
 31
0.0
  0
LINE
  5
321
330
409
100
AcDbEntity
  8
DATA
  6
Continuous
 62
     7
100
AcDbLine
 10
95.0
 20
-374.5
 30
0.0
 11
107.0
 21
-374.5
 31
0.0
  0
ARC
  5
322
330
409
100
AcDbEntity
  8
DATA
  6
Continuous
 62
     7
100
AcDbCircle
 10
95.0
 20
-376.0
 30
0.0
 40
1.5
100
AcDbArc
 50
90.0
 51
270.0
  0
ARC
  5
323
330
409
100
AcDbEntity
  8
DATA
  6
Continuous
 62
     7
100
AcDbCircle
 10
107.0
 20
-376.0
 30
0.0
 40
1.5
100
AcDbArc
 50
270.0
 51
90.0
  0
LINE
  5
324
330
409
100
AcDbEntity
  8
DATA
  6
Continuous
 62
     7
100
AcDbLine
 10
95.0
 20
-390.5
 30
0.0
 11
107.0
 21
-390.5
 31
0.0
  0
LINE
  5
325
330
409
100
AcDbEntity
  8
DATA
  6
Continuous
 62
     7
100
AcDbLine
 10
95.0
 20
-387.5
 30
0.0
 11
107.0
 21
-387.5
 31
0.0
  0
ARC
  5
326
330
409
100
AcDbEntity
  8
DATA
  6
Continuous
 62
     7
100
AcDbCircle
 10
95.0
 20
-389.0
 30
0.0
 40
1.5
100
AcDbArc
 50
90.0
 51
270.0
  0
ARC
  5
327
330
409
100
AcDbEntity
  8
DATA
  6
Continuous
 62
     7
100
AcDbCircle
 10
107.0
 20
-389.0
 30
0.0
 40
1.5
100
AcDbArc
 50
270.0
 51
90.0
  0
LINE
  5
328
330
409
100
AcDbEntity
  8
DATA
  6
Continuous
 62
     7
100
AcDbLine
 10
114.0
 20
-377.5
 30
0.0
 11
126.0
 21
-377.5
 31
0.0
  0
LINE
  5
329
330
409
100
AcDbEntity
  8
DATA
  6
Continuous
 62
     7
100
AcDbLine
 10
114.0
 20
-374.5
 30
0.0
 11
126.0
 21
-374.5
 31
0.0
  0
ARC
  5
32A
330
409
100
AcDbEntity
  8
DATA
  6
Continuous
 62
     7
100
AcDbCircle
 10
114.0
 20
-376.0
 30
0.0
 40
1.5
100
AcDbArc
 50
90.0
 51
270.0
  0
ARC
  5
32B
330
409
100
AcDbEntity
  8
DATA
  6
Continuous
 62
     7
100
AcDbCircle
 10
126.0
 20
-376.0
 30
0.0
 40
1.5
100
AcDbArc
 50
270.0
 51
90.0
  0
LINE
  5
32C
330
409
100
AcDbEntity
  8
DATA
  6
Continuous
 62
     7
100
AcDbLine
 10
114.0
 20
-390.5
 30
0.0
 11
126.0
 21
-390.5
 31
0.0
  0
LINE
  5
32D
330
409
100
AcDbEntity
  8
DATA
  6
Continuous
 62
     7
100
AcDbLine
 10
114.0
 20
-387.5
 30
0.0
 11
126.0
 21
-387.5
 31
0.0
  0
ARC
  5
32E
330
409
100
AcDbEntity
  8
DATA
  6
Continuous
 62
     7
100
AcDbCircle
 10
114.0
 20
-389.0
 30
0.0
 40
1.5
100
AcDbArc
 50
90.0
 51
270.0
  0
ARC
  5
32F
330
409
100
AcDbEntity
  8
DATA
  6
Continuous
 62
     7
100
AcDbCircle
 10
126.0
 20
-389.0
 30
0.0
 40
1.5
100
AcDbArc
 50
270.0
 51
90.0
  0
LINE
  5
330
330
409
100
AcDbEntity
  8
DATA
  6
Continuous
 62
     7
100
AcDbLine
 10
133.0
 20
-377.5
 30
0.0
 11
145.0
 21
-377.5
 31
0.0
  0
LINE
  5
331
330
409
100
AcDbEntity
  8
DATA
  6
Continuous
 62
     7
100
AcDbLine
 10
133.0
 20
-374.5
 30
0.0
 11
145.0
 21
-374.5
 31
0.0
  0
ARC
  5
332
330
409
100
AcDbEntity
  8
DATA
  6
Continuous
 62
     7
100
AcDbCircle
 10
133.0
 20
-376.0
 30
0.0
 40
1.5
100
AcDbArc
 50
90.0
 51
270.0
  0
ARC
  5
333
330
409
100
AcDbEntity
  8
DATA
  6
Continuous
 62
     7
100
AcDbCircle
 10
145.0
 20
-376.0
 30
0.0
 40
1.5
100
AcDbArc
 50
270.0
 51
90.0
  0
LINE
  5
334
330
409
100
AcDbEntity
  8
DATA
  6
Continuous
 62
     7
100
AcDbLine
 10
133.0
 20
-390.5
 30
0.0
 11
145.0
 21
-390.5
 31
0.0
  0
LINE
  5
335
330
409
100
AcDbEntity
  8
DATA
  6
Continuous
 62
     7
100
AcDbLine
 10
133.0
 20
-387.5
 30
0.0
 11
145.0
 21
-387.5
 31
0.0
  0
ARC
  5
336
330
409
100
AcDbEntity
  8
DATA
  6
Continuous
 62
     7
100
AcDbCircle
 10
133.0
 20
-389.0
 30
0.0
 40
1.5
100
AcDbArc
 50
90.0
 51
270.0
  0
ARC
  5
337
330
409
100
AcDbEntity
  8
DATA
  6
Continuous
 62
     7
100
AcDbCircle
 10
145.0
 20
-389.0
 30
0.0
 40
1.5
100
AcDbArc
 50
270.0
 51
90.0
  0
LINE
  5
338
330
409
100
AcDbEntity
  8
DATA
  6
Continuous
 62
     7
100
AcDbLine
 10
152.0
 20
-377.5
 30
0.0
 11
164.0
 21
-377.5
 31
0.0
  0
LINE
  5
339
330
409
100
AcDbEntity
  8
DATA
  6
Continuous
 62
     7
100
AcDbLine
 10
152.0
 20
-374.5
 30
0.0
 11
164.0
 21
-374.5
 31
0.0
  0
ARC
  5
33A
330
409
100
AcDbEntity
  8
DATA
  6
Continuous
 62
     7
100
AcDbCircle
 10
152.0
 20
-376.0
 30
0.0
 40
1.5
100
AcDbArc
 50
90.0
 51
270.0
  0
ARC
  5
33B
330
409
100
AcDbEntity
  8
DATA
  6
Continuous
 62
     7
100
AcDbCircle
 10
164.0
 20
-376.0
 30
0.0
 40
1.5
100
AcDbArc
 50
270.0
 51
90.0
  0
LINE
  5
33C
330
409
100
AcDbEntity
  8
DATA
  6
Continuous
 62
     7
100
AcDbLine
 10
152.0
 20
-390.5
 30
0.0
 11
164.0
 21
-390.5
 31
0.0
  0
LINE
  5
33D
330
409
100
AcDbEntity
  8
DATA
  6
Continuous
 62
     7
100
AcDbLine
 10
152.0
 20
-387.5
 30
0.0
 11
164.0
 21
-387.5
 31
0.0
  0
ARC
  5
33E
330
409
100
AcDbEntity
  8
DATA
  6
Continuous
 62
     7
100
AcDbCircle
 10
152.0
 20
-389.0
 30
0.0
 40
1.5
100
AcDbArc
 50
90.0
 51
270.0
  0
ARC
  5
33F
330
409
100
AcDbEntity
  8
DATA
  6
Continuous
 62
     7
100
AcDbCircle
 10
164.0
 20
-389.0
 30
0.0
 40
1.5
100
AcDbArc
 50
270.0
 51
90.0
  0
LINE
  5
340
330
409
100
AcDbEntity
  8
DATA
  6
Continuous
 62
     7
100
AcDbLine
 10
37.5
 20
-373.0
 30
0.0
 11
39.0
 21
-358.0
 31
0.0
  0
LINE
  5
341
330
409
100
AcDbEntity
  8
DATA
  6
Continuous
 62
     7
100
AcDbLine
 10
37.5
 20
-385.0
 30
0.0
 11
39.0
 21
-400.0
 31
0.0
  0
LINE
  5
342
330
409
100
AcDbEntity
  8
DATA
  6
Continuous
 62
     7
100
AcDbLine
 10
236.5000000000002
 20
-384.1070692738472
 30
0.0
 11
231.3000000000001
 21
-384.1070692738472
 31
0.0
  0
LINE
  5
343
330
409
100
AcDbEntity
  8
DATA
  6
Continuous
 62
     7
100
AcDbLine
 10
236.5000000000002
 20
-392.6070692738472
 30
0.0
 11
231.3000000000001
 21
-392.6070692738472
 31
0.0
  0
LINE
  5
344
330
409
100
AcDbEntity
  8
DATA
  6
Continuous
 62
     7
100
AcDbLine
 10
236.5000000000002
 20
-384.1070692738472
 30
0.0
 11
236.5000000000002
 21
-392.6070692738473
 31
0.0
  0
LINE
  5
345
330
409
100
AcDbEntity
  8
DATA
  6
Continuous
 62
     7
100
AcDbLine
 10
232.3000000000002
 20
-366.9978804525745
 30
0.0
 11
231.3000000000001
 21
-366.9978804525745
 31
0.0
  0
LINE
  5
346
330
409
100
AcDbEntity
  8
DATA
  6
Continuous
 62
     7
100
AcDbLine
 10
232.3000000000002
 20
-384.1070692738472
 30
0.0
 11
232.3000000000002
 21
-366.9978804525745
 31
0.0
  0
LINE
  5
347
330
409
100
AcDbEntity
  8
DATA
  6
Continuous
 62
     7
100
AcDbLine
 10
234.3000000000002
 20
-383.5000000000014
 30
0.0
 11
232.3000000000002
 21
-383.5000000000014
 31
0.0
  0
LINE
  5
348
330
409
100
AcDbEntity
  8
DATA
  6
Continuous
 62
     7
100
AcDbLine
 10
234.3000000000002
 20
-384.1070692738472
 30
0.0
 11
234.3000000000002
 21
-383.5000000000014
 31
0.0
  0
ARC
  5
349
330
409
100
AcDbEntity
  8
DATA
  6
Continuous
 62
     7
100
AcDbCircle
 10
-103.1980853788993
 20
-379.8832252869592
 30
0.0
 40
1.120000000000004
100
AcDbArc
 50
90.0
 51
270.0
  0
ARC
  5
34A
330
409
100
AcDbEntity
  8
DATA
  6
Continuous
 62
     7
100
AcDbCircle
 10
-102.8019146211006
 20
-379.8832252869592
 30
0.0
 40
1.120000000000004
100
AcDbArc
 50
270.0
 51
90.0
  0
LINE
  5
34B
330
409
100
AcDbEntity
  8
DATA
  6
Continuous
 62
     7
100
AcDbLine
 10
-103.1980853788993
 20
-378.7632252869593
 30
0.0
 11
-102.8019146211006
 21
-378.7632252869593
 31
0.0
  0
LINE
  5
34C
330
409
100
AcDbEntity
  8
DATA
  6
Continuous
 62
     7
100
AcDbLine
 10
-103.1980853788993
 20
-381.0032252869592
 30
0.0
 11
-102.8019146211006
 21
-381.0032252869592
 31
0.0
  0
ARC
  5
34D
330
409
100
AcDbEntity
  8
DATA
  6
Continuous
 62
     7
100
AcDbCircle
 10
-96.19808537889937
 20
-379.8832252869592
 30
0.0
 40
1.120000000000004
100
AcDbArc
 50
90.0
 51
270.0
  0
ARC
  5
34E
330
409
100
AcDbEntity
  8
DATA
  6
Continuous
 62
     7
100
AcDbCircle
 10
-95.80191462110063
 20
-379.8832252869592
 30
0.0
 40
1.120000000000004
100
AcDbArc
 50
270.0
 51
90.0
  0
LINE
  5
34F
330
409
100
AcDbEntity
  8
DATA
  6
Continuous
 62
     7
100
AcDbLine
 10
-96.19808537889937
 20
-378.7632252869593
 30
0.0
 11
-95.80191462110063
 21
-378.7632252869593
 31
0.0
  0
LINE
  5
350
330
409
100
AcDbEntity
  8
DATA
  6
Continuous
 62
     7
100
AcDbLine
 10
-96.19808537889937
 20
-381.0032252869592
 30
0.0
 11
-95.80191462110063
 21
-381.0032252869592
 31
0.0
  0
ARC
  5
351
330
409
100
AcDbEntity
  8
DATA
  6
Continuous
 62
     7
100
AcDbCircle
 10
-89.19808537889934
 20
-379.8832252869592
 30
0.0
 40
1.120000000000004
100
AcDbArc
 50
90.0
 51
270.0
  0
ARC
  5
352
330
409
100
AcDbEntity
  8
DATA
  6
Continuous
 62
     7
100
AcDbCircle
 10
-88.80191462110065
 20
-379.8832252869592
 30
0.0
 40
1.120000000000004
100
AcDbArc
 50
270.0
 51
90.0
  0
LINE
  5
353
330
409
100
AcDbEntity
  8
DATA
  6
Continuous
 62
     7
100
AcDbLine
 10
-89.19808537889934
 20
-378.7632252869593
 30
0.0
 11
-88.80191462110065
 21
-378.7632252869593
 31
0.0
  0
LINE
  5
354
330
409
100
AcDbEntity
  8
DATA
  6
Continuous
 62
     7
100
AcDbLine
 10
-89.19808537889934
 20
-381.0032252869592
 30
0.0
 11
-88.80191462110065
 21
-381.0032252869592
 31
0.0
  0
ARC
  5
355
330
409
100
AcDbEntity
  8
DATA
  6
Continuous
 62
     7
100
AcDbCircle
 10
-82.19808537889935
 20
-379.8832252869592
 30
0.0
 40
1.120000000000004
100
AcDbArc
 50
90.0
 51
270.0
  0
ARC
  5
356
330
409
100
AcDbEntity
  8
DATA
  6
Continuous
 62
     7
100
AcDbCircle
 10
-81.80191462110064
 20
-379.8832252869592
 30
0.0
 40
1.120000000000004
100
AcDbArc
 50
270.0
 51
90.0
  0
LINE
  5
357
330
409
100
AcDbEntity
  8
DATA
  6
Continuous
 62
     7
100
AcDbLine
 10
-82.19808537889935
 20
-378.7632252869593
 30
0.0
 11
-81.80191462110064
 21
-378.7632252869593
 31
0.0
  0
LINE
  5
358
330
409
100
AcDbEntity
  8
DATA
  6
Continuous
 62
     7
100
AcDbLine
 10
-82.19808537889935
 20
-381.0032252869592
 30
0.0
 11
-81.80191462110064
 21
-381.0032252869592
 31
0.0
  0
ARC
  5
359
330
409
100
AcDbEntity
  8
DATA
  6
Continuous
 62
     7
100
AcDbCircle
 10
-75.19808537889935
 20
-379.8832252869592
 30
0.0
 40
1.120000000000004
100
AcDbArc
 50
90.0
 51
270.0
  0
ARC
  5
35A
330
409
100
AcDbEntity
  8
DATA
  6
Continuous
 62
     7
100
AcDbCircle
 10
-74.80191462110065
 20
-379.8832252869592
 30
0.0
 40
1.120000000000004
100
AcDbArc
 50
270.0
 51
90.0
  0
LINE
  5
35B
330
409
100
AcDbEntity
  8
DATA
  6
Continuous
 62
     7
100
AcDbLine
 10
-75.19808537889935
 20
-378.7632252869593
 30
0.0
 11
-74.80191462110065
 21
-378.7632252869593
 31
0.0
  0
LINE
  5
35C
330
409
100
AcDbEntity
  8
DATA
  6
Continuous
 62
     7
100
AcDbLine
 10
-75.19808537889935
 20
-381.0032252869592
 30
0.0
 11
-74.80191462110065
 21
-381.0032252869592
 31
0.0
  0
ARC
  5
35D
330
409
100
AcDbEntity
  8
DATA
  6
Continuous
 62
     7
100
AcDbCircle
 10
-68.19808537889935
 20
-379.8832252869592
 30
0.0
 40
1.120000000000004
100
AcDbArc
 50
90.0
 51
270.0
  0
ARC
  5
35E
330
409
100
AcDbEntity
  8
DATA
  6
Continuous
 62
     7
100
AcDbCircle
 10
-67.80191462110065
 20
-379.8832252869592
 30
0.0
 40
1.120000000000004
100
AcDbArc
 50
270.0
 51
90.0
  0
LINE
  5
35F
330
409
100
AcDbEntity
  8
DATA
  6
Continuous
 62
     7
100
AcDbLine
 10
-68.19808537889935
 20
-378.7632252869593
 30
0.0
 11
-67.80191462110065
 21
-378.7632252869593
 31
0.0
  0
LINE
  5
360
330
409
100
AcDbEntity
  8
DATA
  6
Continuous
 62
     7
100
AcDbLine
 10
-68.19808537889935
 20
-381.0032252869592
 30
0.0
 11
-67.80191462110065
 21
-381.0032252869592
 31
0.0
  0
ARC
  5
361
330
409
100
AcDbEntity
  8
DATA
  6
Continuous
 62
     7
100
AcDbCircle
 10
-61.19808537889936
 20
-379.8832252869592
 30
0.0
 40
1.120000000000004
100
AcDbArc
 50
90.0
 51
270.0
  0
ARC
  5
362
330
409
100
AcDbEntity
  8
DATA
  6
Continuous
 62
     7
100
AcDbCircle
 10
-60.80191462110065
 20
-379.8832252869592
 30
0.0
 40
1.120000000000004
100
AcDbArc
 50
270.0
 51
90.0
  0
LINE
  5
363
330
409
100
AcDbEntity
  8
DATA
  6
Continuous
 62
     7
100
AcDbLine
 10
-61.19808537889936
 20
-378.7632252869593
 30
0.0
 11
-60.80191462110065
 21
-378.7632252869593
 31
0.0
  0
LINE
  5
364
330
409
100
AcDbEntity
  8
DATA
  6
Continuous
 62
     7
100
AcDbLine
 10
-61.19808537889936
 20
-381.0032252869592
 30
0.0
 11
-60.80191462110065
 21
-381.0032252869592
 31
0.0
  0
TEXT
  5
365
330
409
100
AcDbEntity
  8
DATA
 62
     7
100
AcDbText
 10
-111.0560587196319
 20
-385.9055000000001
 30
0.0
 40
2.44326171875
  1
1
 41
0.7
 11
-111.0560587196319
 21
-383.4622382812501
 31
0.0
100
AcDbText
 73
     3
  0
TEXT
  5
366
330
409
100
AcDbEntity
  8
DATA
 62
     7
100
AcDbText
 10
-104.0560587196319
 20
-385.9055000000001
 30
0.0
 40
2.44326171875
  1
2
 41
0.7
 11
-104.0560587196319
 21
-383.4622382812501
 31
0.0
100
AcDbText
 73
     3
  0
TEXT
  5
367
330
409
100
AcDbEntity
  8
DATA
 62
     7
100
AcDbText
 10
-97.05605871963188
 20
-385.9055000000001
 30
0.0
 40
2.44326171875
  1
3
 41
0.7
 11
-97.05605871963188
 21
-383.4622382812501
 31
0.0
100
AcDbText
 73
     3
  0
TEXT
  5
368
330
409
100
AcDbEntity
  8
DATA
 62
     7
100
AcDbText
 10
-90.05605871963188
 20
-385.9055000000001
 30
0.0
 40
2.44326171875
  1
4
 41
0.7
 11
-90.05605871963188
 21
-383.4622382812501
 31
0.0
100
AcDbText
 73
     3
  0
TEXT
  5
369
330
409
100
AcDbEntity
  8
DATA
 62
     7
100
AcDbText
 10
-83.05605871963189
 20
-385.9055000000001
 30
0.0
 40
2.44326171875
  1
5
 41
0.7
 11
-83.05605871963189
 21
-383.4622382812501
 31
0.0
100
AcDbText
 73
     3
  0
TEXT
  5
36A
330
409
100
AcDbEntity
  8
DATA
 62
     7
100
AcDbText
 10
-76.05605871963189
 20
-385.9055000000001
 30
0.0
 40
2.44326171875
  1
6
 41
0.7
 11
-76.05605871963189
 21
-383.4622382812501
 31
0.0
100
AcDbText
 73
     3
  0
TEXT
  5
36B
330
409
100
AcDbEntity
  8
DATA
 62
     7
100
AcDbText
 10
-69.05605871963189
 20
-385.9055000000001
 30
0.0
 40
2.44326171875
  1
7
 41
0.7
 11
-69.05605871963189
 21
-383.4622382812501
 31
0.0
100
AcDbText
 73
     3
  0
TEXT
  5
36C
330
409
100
AcDbEntity
  8
DATA
 62
     7
100
AcDbText
 10
-62.05605871963189
 20
-385.9055000000001
 30
0.0
 40
2.44326171875
  1
8
 41
0.7
 11
-62.05605871963189
 21
-383.4622382812501
 31
0.0
100
AcDbText
 73
     3
  0
TEXT
  5
36D
330
409
100
AcDbEntity
  8
DATA
 62
     7
100
AcDbText
 10
-90.29184908882758
 20
-374.8826963967983
 30
0.0
 40
2.44326171875
  1
Signal
 41
0.7
 11
-90.29184908882758
 21
-372.4394346780483
 31
0.0
100
AcDbText
 73
     3
  0
LINE
  5
36E
330
409
100
AcDbEntity
  8
DATA
  6
Continuous
 62
     7
100
AcDbLine
 10
-155.4999999999927
 20
-117.4999999999948
 30
0.0
 11
-169.7499999999927
 21
-117.4999999999948
 31
0.0
  0
LINE
  5
36F
330
409
100
AcDbEntity
  8
DATA
  6
Continuous
 62
     7
100
AcDbLine
 10
-171.2499999999927
 20
-117.4999999999948
 30
0.0
 11
-185.4999999999927
 21
-117.4999999999948
 31
0.0
  0
LINE
  5
370
330
409
100
AcDbEntity
  8
DATA
  6
Continuous
 62
     7
100
AcDbLine
 10
-185.4999999999927
 20
-112.7757168175009
 30
0.0
 11
-185.4999999999927
 21
-117.4999999999948
 31
0.0
  0
LINE
  5
371
330
409
100
AcDbEntity
  8
DATA
  6
Continuous
 62
     7
100
AcDbLine
 10
-155.4999999999927
 20
-112.7757168175009
 30
0.0
 11
-155.4999999999927
 21
-117.4999999999948
 31
0.0
  0
LINE
  5
372
330
409
100
AcDbEntity
  8
DATA
  6
Continuous
 62
     7
100
AcDbLine
 10
-169.7499999999927
 20
-112.7757168175009
 30
0.0
 11
-169.7499999999927
 21
-117.4999999999948
 31
0.0
  0
LINE
  5
373
330
409
100
AcDbEntity
  8
DATA
  6
Continuous
 62
     7
100
AcDbLine
 10
-171.2499999999927
 20
-112.7757168175009
 30
0.0
 11
-171.2499999999927
 21
-117.4999999999948
 31
0.0
  0
LINE
  5
374
330
409
100
AcDbEntity
  8
DATA
  6
Continuous
 62
     7
100
AcDbLine
 10
-162.6249999999927
 20
-117.4999999999948
 30
0.0
 11
-162.6249999999927
 21
-120.4484862814128
 31
0.0
  0
LINE
  5
375
330
409
100
AcDbEntity
  8
DATA
  6
Continuous
 62
     7
100
AcDbLine
 10
-178.3749999999927
 20
-117.4999999999948
 30
0.0
 11
-178.3749999999927
 21
-120.4484862814128
 31
0.0
  0
TEXT
  5
376
330
409
100
AcDbEntity
  8
DATA
 62
     7
100
AcDbText
 10
-144.4517447864166
 20
-120.881210093209
 30
0.0
 40
4.343576388888889
  1
3
 50
180.0
 41
0.7
 11
-144.4517447864166
 21
-125.2247864820978
 31
0.0
100
AcDbText
 73
     3
  0
TEXT
  5
377
330
409
100
AcDbEntity
  8
DATA
 62
     7
100
AcDbText
 10
-128.8480849216512
 20
-120.8822049718655
 30
0.0
 40
4.343576388888889
  1
4
 50
180.0
 41
0.7
 11
-128.8480849216512
 21
-125.2257813607544
 31
0.0
100
AcDbText
 73
     3
  0
LINE
  5
378
330
409
100
AcDbEntity
  8
DATA
  6
Continuous
 62
     7
100
AcDbLine
 10
-122.9999999999927
 20
-117.4999999999948
 30
0.0
 11
-137.2499999999927
 21
-117.4999999999948
 31
0.0
  0
LINE
  5
379
330
409
100
AcDbEntity
  8
DATA
  6
Continuous
 62
     7
100
AcDbLine
 10
-138.7499999999927
 20
-117.4999999999948
 30
0.0
 11
-152.9999999999927
 21
-117.4999999999948
 31
0.0
  0
LINE
  5
37A
330
409
100
AcDbEntity
  8
DATA
  6
Continuous
 62
     7
100
AcDbLine
 10
-152.9999999999927
 20
-112.7757168175009
 30
0.0
 11
-152.9999999999927
 21
-117.4999999999948
 31
0.0
  0
LINE
  5
37B
330
409
100
AcDbEntity
  8
DATA
  6
Continuous
 62
     7
100
AcDbLine
 10
-122.9999999999927
 20
-112.7757168175009
 30
0.0
 11
-122.9999999999927
 21
-117.4999999999948
 31
0.0
  0
LINE
  5
37C
330
409
100
AcDbEntity
  8
DATA
  6
Continuous
 62
     7
100
AcDbLine
 10
-137.2499999999927
 20
-112.7757168175009
 30
0.0
 11
-137.2499999999927
 21
-117.4999999999948
 31
0.0
  0
LINE
  5
37D
330
409
100
AcDbEntity
  8
DATA
  6
Continuous
 62
     7
100
AcDbLine
 10
-138.7499999999927
 20
-112.7757168175009
 30
0.0
 11
-138.7499999999927
 21
-117.4999999999948
 31
0.0
  0
LINE
  5
37E
330
409
100
AcDbEntity
  8
DATA
  6
Continuous
 62
     7
100
AcDbLine
 10
-130.1249999999927
 20
-117.4999999999948
 30
0.0
 11
-130.1249999999927
 21
-120.4484862814128
 31
0.0
  0
LINE
  5
37F
330
409
100
AcDbEntity
  8
DATA
  6
Continuous
 62
     7
100
AcDbLine
 10
-145.8749999999927
 20
-117.4999999999948
 30
0.0
 11
-145.8749999999927
 21
-120.4484862814128
 31
0.0
  0
TEXT
  5
380
330
409
100
AcDbEntity
  8
DATA
 62
     7
100
AcDbText
 10
-111.9517447864166
 20
-120.881210093209
 30
0.0
 40
4.343576388888889
  1
5
 50
180.0
 41
0.7
 11
-111.9517447864166
 21
-125.2247864820978
 31
0.0
100
AcDbText
 73
     3
  0
TEXT
  5
381
330
409
100
AcDbEntity
  8
DATA
 62
     7
100
AcDbText
 10
-96.3480849216512
 20
-120.8822049718655
 30
0.0
 40
4.343576388888889
  1
6
 50
180.0
 41
0.7
 11
-96.3480849216512
 21
-125.2257813607544
 31
0.0
100
AcDbText
 73
     3
  0
LINE
  5
382
330
409
100
AcDbEntity
  8
DATA
  6
Continuous
 62
     7
100
AcDbLine
 10
-90.4999999999927
 20
-117.4999999999948
 30
0.0
 11
-104.7499999999927
 21
-117.4999999999948
 31
0.0
  0
LINE
  5
383
330
409
100
AcDbEntity
  8
DATA
  6
Continuous
 62
     7
100
AcDbLine
 10
-106.2499999999927
 20
-117.4999999999948
 30
0.0
 11
-120.4999999999927
 21
-117.4999999999948
 31
0.0
  0
LINE
  5
384
330
409
100
AcDbEntity
  8
DATA
  6
Continuous
 62
     7
100
AcDbLine
 10
-120.4999999999927
 20
-112.7757168175009
 30
0.0
 11
-120.4999999999927
 21
-117.4999999999948
 31
0.0
  0
LINE
  5
385
330
409
100
AcDbEntity
  8
DATA
  6
Continuous
 62
     7
100
AcDbLine
 10
-90.4999999999927
 20
-112.7757168175009
 30
0.0
 11
-90.4999999999927
 21
-117.4999999999948
 31
0.0
  0
LINE
  5
386
330
409
100
AcDbEntity
  8
DATA
  6
Continuous
 62
     7
100
AcDbLine
 10
-104.7499999999927
 20
-112.7757168175009
 30
0.0
 11
-104.7499999999927
 21
-117.4999999999948
 31
0.0
  0
LINE
  5
387
330
409
100
AcDbEntity
  8
DATA
  6
Continuous
 62
     7
100
AcDbLine
 10
-106.2499999999927
 20
-112.7757168175009
 30
0.0
 11
-106.2499999999927
 21
-117.4999999999948
 31
0.0
  0
LINE
  5
388
330
409
100
AcDbEntity
  8
DATA
  6
Continuous
 62
     7
100
AcDbLine
 10
-97.6249999999927
 20
-117.4999999999948
 30
0.0
 11
-97.6249999999927
 21
-120.4484862814128
 31
0.0
  0
LINE
  5
389
330
409
100
AcDbEntity
  8
DATA
  6
Continuous
 62
     7
100
AcDbLine
 10
-113.3749999999927
 20
-117.4999999999948
 30
0.0
 11
-113.3749999999927
 21
-120.4484862814128
 31
0.0
  0
TEXT
  5
38A
330
409
100
AcDbEntity
  8
DATA
 62
     7
100
AcDbText
 10
-79.45174478641661
 20
-120.881210093209
 30
0.0
 40
4.343576388888889
  1
7
 50
180.0
 41
0.7
 11
-79.45174478641661
 21
-125.2247864820978
 31
0.0
100
AcDbText
 73
     3
  0
TEXT
  5
38B
330
409
100
AcDbEntity
  8
DATA
 62
     7
100
AcDbText
 10
-63.84808492165121
 20
-120.8822049718655
 30
0.0
 40
4.343576388888889
  1
8
 50
180.0
 41
0.7
 11
-63.84808492165121
 21
-125.2257813607544
 31
0.0
100
AcDbText
 73
     3
  0
LINE
  5
38C
330
409
100
AcDbEntity
  8
DATA
  6
Continuous
 62
     7
100
AcDbLine
 10
-57.99999999999272
 20
-117.4999999999948
 30
0.0
 11
-72.24999999999273
 21
-117.4999999999948
 31
0.0
  0
LINE
  5
38D
330
409
100
AcDbEntity
  8
DATA
  6
Continuous
 62
     7
100
AcDbLine
 10
-73.74999999999272
 20
-117.4999999999948
 30
0.0
 11
-87.9999999999927
 21
-117.4999999999948
 31
0.0
  0
LINE
  5
38E
330
409
100
AcDbEntity
  8
DATA
  6
Continuous
 62
     7
100
AcDbLine
 10
-87.9999999999927
 20
-112.7757168175009
 30
0.0
 11
-87.9999999999927
 21
-117.4999999999948
 31
0.0
  0
LINE
  5
38F
330
409
100
AcDbEntity
  8
DATA
  6
Continuous
 62
     7
100
AcDbLine
 10
-57.99999999999272
 20
-112.7757168175009
 30
0.0
 11
-57.99999999999272
 21
-117.4999999999948
 31
0.0
  0
LINE
  5
390
330
409
100
AcDbEntity
  8
DATA
  6
Continuous
 62
     7
100
AcDbLine
 10
-72.24999999999273
 20
-112.7757168175009
 30
0.0
 11
-72.24999999999273
 21
-117.4999999999948
 31
0.0
  0
LINE
  5
391
330
409
100
AcDbEntity
  8
DATA
  6
Continuous
 62
     7
100
AcDbLine
 10
-73.74999999999272
 20
-112.7757168175009
 30
0.0
 11
-73.74999999999272
 21
-117.4999999999948
 31
0.0
  0
LINE
  5
392
330
409
100
AcDbEntity
  8
DATA
  6
Continuous
 62
     7
100
AcDbLine
 10
-65.12499999999272
 20
-117.4999999999948
 30
0.0
 11
-65.12499999999272
 21
-120.4484862814128
 31
0.0
  0
LINE
  5
393
330
409
100
AcDbEntity
  8
DATA
  6
Continuous
 62
     7
100
AcDbLine
 10
-80.87499999999272
 20
-117.4999999999948
 30
0.0
 11
-80.87499999999272
 21
-120.4484862814128
 31
0.0
  0
CIRCLE
  5
394
330
409
100
AcDbEntity
  8
DATA
  6
Continuous
 62
     7
100
AcDbCircle
 10
87.0
 20
-388.0
 30
0.0
 40
2.799999999999954
  0
CIRCLE
  5
395
330
409
100
AcDbEntity
  8
DATA
  6
Continuous
 62
     7
100
AcDbCircle
 10
182.5
 20
-388.0
 30
0.0
 40
2.800000000000181
  0
TEXT
  5
396
330
409
100
AcDbEntity
  8
DATA
 62
     7
100
AcDbText
 10
250.0
 20
-580.2182899999995
 30
0.0
 40
12.21630859375
  1
BLU-BOB1
 41
0.7
 11
250.0
 21
-568.0019814062496
 31
0.0
100
AcDbText
 73
     3
  0
TEXT
  5
397
330
409
100
AcDbEntity
  8
DATA
 62
     7
100
AcDbText
 10
237.5
 20
-561.9880649999998
 30
0.0
 40
9.501573350694446
  1
出力エキスパンダー
 41
0.7
 11
237.5
 21
-552.4864916493054
 31
0.0
100
AcDbText
 73
     3
  0
TEXT
  5
398
330
409
100
AcDbEntity
  8
DATA
 62
     7
100
AcDbText
 10
250.0
 20
-543.9682899999996
 30
0.0
 40
12.21630859375
  1
BSS AUDIO
 41
0.7
 11
250.0
 21
-531.7519814062497
 31
0.0
100
AcDbText
 73
     3
  0
ENDSEC
  0
SECTION
  2
OBJECTS
  0
DICTIONARY
  5
3A6
330
0
100
AcDbDictionary
281
     1
  3
ACAD_CIP_PREVIOUS_PRODUCT_INFO
350
422
  3
ACAD_COLOR
350
3FC
  3
ACAD_DETAILVIEWSTYLE
350
403
  3
ACAD_GROUP
350
3A7
  3
ACAD_LAYOUT
350
3FB
  3
ACAD_MATERIAL
350
3AA
  3
ACAD_MLEADERSTYLE
350
3FF
  3
ACAD_MLINESTYLE
350
3F8
  3
ACAD_PLOTSETTINGS
350
3FA
  3
ACAD_PLOTSTYLENAME
350
3A8
  3
ACAD_SCALELIST
350
3DC
  3
ACAD_SECTIONVIEWSTYLE
350
401
  3
ACAD_TABLESTYLE
350
3FD
  3
ACAD_VISUALSTYLE
350
3C3
  3
ACDB_RECOMPOSE_DATA
350
43A
  3
AcDbVariableDictionary
350
42D
  3
DWGPROPS
350
43B
  0
DICTIONARY
  5
423
330
3EE
100
AcDbDictionary
280
     1
281
     1
  3
ADSK_XREC_LAYER_RECONCILED
360
424
  0
DICTIONARY
  5
425
330
40D
100
AcDbDictionary
280
     1
281
     1
  3
ADSK_XREC_LAYER_RECONCILED
360
426
  0
DICTIONARY
  5
427
330
419
100
AcDbDictionary
280
     1
281
     1
  3
ADSK_XREC_LAYER_RECONCILED
360
428
  0
DICTIONARY
  5
429
330
41A
100
AcDbDictionary
280
     1
281
     1
  3
ADSK_XREC_LAYER_RECONCILED
360
42A
  0
DICTIONARY
  5
42B
330
41B
100
AcDbDictionary
280
     1
281
     1
  3
ADSK_XREC_LAYER_RECONCILED
360
42C
  0
XRECORD
  5
422
102
{ACAD_REACTORS
330
3A6
102
}
330
3A6
100
AcDbXrecord
280
     1
300
ACDLT
300
2019
300
ACDLT_F_S
  0
DICTIONARY
  5
3FC
102
{ACAD_REACTORS
330
3A6
102
}
330
3A6
100
AcDbDictionary
281
     1
  0
DICTIONARY
  5
403
102
{ACAD_REACTORS
330
3A6
102
}
330
3A6
100
AcDbDictionary
281
     1
  3
Imperial24
350
404
  0
DICTIONARY
  5
3A7
102
{ACAD_REACTORS
330
3A6
102
}
330
3A6
100
AcDbDictionary
281
     1
  0
DICTIONARY
  5
3FB
102
{ACAD_REACTORS
330
3A6
102
}
330
3A6
100
AcDbDictionary
281
     1
  3
Model
350
40C
  3
レイアウト1
350
408
  0
DICTIONARY
  5
3AA
102
{ACAD_REACTORS
330
3A6
102
}
330
3A6
100
AcDbDictionary
281
     1
  3
ByBlock
350
3B3
  3
ByLayer
350
3AB
  3
Global
350
3BB
  0
DICTIONARY
  5
3FF
102
{ACAD_REACTORS
330
3A6
102
}
330
3A6
100
AcDbDictionary
281
     1
  3
Standard
350
400
  0
DICTIONARY
  5
3F8
102
{ACAD_REACTORS
330
3A6
102
}
330
3A6
100
AcDbDictionary
281
     1
  3
Standard
350
3F9
  0
DICTIONARY
  5
3FA
102
{ACAD_REACTORS
330
3A6
102
}
330
3A6
100
AcDbDictionary
281
     1
  0
ACDBDICTIONARYWDFLT
  5
3A8
102
{ACAD_REACTORS
330
3A6
102
}
330
3A6
100
AcDbDictionary
281
     1
  3
Normal
350
3A9
100
AcDbDictionaryWithDefault
340
3A9
  0
DICTIONARY
  5
3DC
102
{ACAD_REACTORS
330
3A6
102
}
330
3A6
100
AcDbDictionary
281
     1
  3
A0
350
3DD
  3
A1
350
3DE
  3
A2
350
3DF
  3
A3
350
3E0
  3
A4
350
3E1
  3
A5
350
3E2
  3
A6
350
3E3
  3
A7
350
3E4
  3
A8
350
3E5
  3
A9
350
3E6
  3
B0
350
3E7
  3
B1
350
3E8
  3
B2
350
3E9
  3
B3
350
3EA
  3
B4
350
3EB
  3
B5
350
3EC
  3
B6
350
3ED
  0
DICTIONARY
  5
401
102
{ACAD_REACTORS
330
3A6
102
}
330
3A6
100
AcDbDictionary
281
     1
  3
Imperial24
350
402
  0
DICTIONARY
  5
3FD
102
{ACAD_REACTORS
330
3A6
102
}
330
3A6
100
AcDbDictionary
281
     1
  3
Standard
350
3FE
  0
DICTIONARY
  5
3C3
102
{ACAD_REACTORS
330
3A6
102
}
330
3A6
100
AcDbDictionary
281
     1
  3
2dWireframe
350
3C9
  3
Basic
350
3C8
  3
Brighten
350
3CF
  3
ColorChange
350
3D3
  3
Conceptual
350
3CC
  3
Dim
350
3CE
  3
EdgeColorOff
350
3DB
  3
Facepattern
350
3D2
  3
Flat
350
3C4
  3
FlatWithEdges
350
3C5
  3
Gouraud
350
3C6
  3
GouraudWithEdges
350
3C7
  3
Hidden
350
3CB
  3
JitterOff
350
3D9
  3
Linepattern
350
3D1
  3
OverhangOff
350
3DA
  3
Realistic
350
3CD
  3
Shaded
350
3D8
  3
Shaded with edges
350
3D7
  3
Shades of Gray
350
3D4
  3
Sketchy
350
3D5
  3
Thicken
350
3D0
  3
Wireframe
350
3CA
  3
X-Ray
350
3D6
  0
XRECORD
  5
43A
102
{ACAD_REACTORS
330
3A6
102
}
330
3A6
100
AcDbXrecord
280
     1
 90
        1
330
3FE
  0
DICTIONARY
  5
42D
102
{ACAD_REACTORS
330
3A6
102
}
330
3A6
100
AcDbDictionary
281
     1
  3
CANNOSCALE
350
432
  3
CMLEADERSTYLE
350
42F
  3
CTABLESTYLE
350
42E
  3
CVIEWDETAILSTYLE
350
430
  3
CVIEWSECTIONSTYLE
350
431
  3
DIMASSOC
350
435
  3
INDEXCTL
350
434
  3
SORTENTS
350
433
  3
XCLIPFRAME
350
436
  0
XRECORD
  5
43B
102
{ACAD_REACTORS
330
3A6
102
}
330
3A6
100
AcDbXrecord
280
     1
  1
DWGPROPS COOKIE
  2

  3

  4

  6

  7

  8
sasaki_n
  9

300
=
301
=
302
=
303
=
304
=
305
=
306
=
307
=
308
=
309
=
 40
0.0004050925925926
 41
2458360.577060186
 42
2458360.600243056
  1

 90
        0
  0
XRECORD
  5
424
102
{ACAD_REACTORS
330
423
102
}
330
423
100
AcDbXrecord
280
     1
290
     1
  0
XRECORD
  5
426
102
{ACAD_REACTORS
330
425
102
}
330
425
100
AcDbXrecord
280
     1
290
     1
  0
XRECORD
  5
428
102
{ACAD_REACTORS
330
427
102
}
330
427
100
AcDbXrecord
280
     1
290
     1
  0
XRECORD
  5
42A
102
{ACAD_REACTORS
330
429
102
}
330
429
100
AcDbXrecord
280
     1
290
     1
  0
XRECORD
  5
42C
102
{ACAD_REACTORS
330
42B
102
}
330
42B
100
AcDbXrecord
280
     1
290
     1
  0
ACDBDETAILVIEWSTYLE
  5
404
102
{ACAD_XDICTIONARY
360
473
102
}
102
{ACAD_REACTORS
330
403
102
}
330
403
100
AcDbModelDocViewStyle
 70
     0
  3
Imperial24
290
     0
100
AcDbDetailViewStyle
 70
     0
 71
     0
 90
        3
 71
     1
340
3EF
 40
0.24
340
0
 40
0.24
300

 40
0.36
280
     3
 71
     2
340
3F6
 90
       25
 71
     3
340
3EF
 40
0.24
 90
        1
 40
0.75
 90
        1
300
%<\AcVar ViewType \f "%tc1">% %<\AcVar ViewDetailId>%\PSCALE %<\AcVar ViewScale \f "%sn">%
 71
     4
340
3F6
 90
       25
340
3F6
 90
       25
280
     0
  0
LAYOUT
  5
40C
102
{ACAD_XDICTIONARY
360
477
102
}
102
{ACAD_REACTORS
330
3FB
102
}
330
3FB
100
AcDbPlotSettings
  1

  2
DocuPrint 3000-3
  4

  6

 40
0.0
 41
0.0
 42
0.0
 43
0.0
 44
0.0
 45
0.0
 46
0.0
 47
0.0
 48
0.0
 49
0.0
140
0.0
141
0.0
142
1.0
143
1.0
 70
  1712
 72
     0
 73
     0
 74
     0
  7

 75
     0
147
1.0
148
0.0
149
0.0
100
AcDbLayout
  1
Model
 70
     1
 71
     0
 10
0.0
 20
0.0
 11
12.0
 21
9.0
 12
0.0
 22
0.0
 32
0.0
 14
0.0
 24
0.0
 34
0.0
 15
0.0
 25
0.0
 35
0.0
146
0.0
 13
0.0
 23
0.0
 33
0.0
 16
1.0
 26
0.0
 36
0.0
 17
0.0
 27
1.0
 37
0.0
 76
     0
330
409
331
40E
  0
LAYOUT
  5
408
102
{ACAD_XDICTIONARY
360
475
102
}
102
{ACAD_REACTORS
330
3FB
102
}
330
3FB
100
AcDbPlotSettings
  1

  2
DocuPrint 3000-3
  4

  6

 40
0.0
 41
0.0
 42
0.0
 43
0.0
 44
0.0
 45
0.0
 46
0.0
 47
0.0
 48
0.0
 49
0.0
140
0.0
141
0.0
142
1.0
143
1.0
 70
   688
 72
     0
 73
     0
 74
     5
  7

 75
    16
147
1.0
148
0.0
149
0.0
100
AcDbLayout
  1
レイアウト1
 70
     0
 71
     1
 10
0.0
 20
0.0
 11
12.0
 21
9.0
 12
0.0
 22
0.0
 32
0.0
 14
1.000000000000000E+20
 24
1.000000000000000E+20
 34
1.000000000000000E+20
 15
-1.000000000000000E+20
 25
-1.000000000000000E+20
 35
-1.000000000000000E+20
146
0.0
 13
0.0
 23
0.0
 33
0.0
 16
1.0
 26
0.0
 36
0.0
 17
0.0
 27
1.0
 37
0.0
 76
     0
330
405
  0
MATERIAL
  5
3B3
102
{ACAD_XDICTIONARY
360
3B4
102
}
102
{ACAD_REACTORS
330
3AA
102
}
330
3AA
100
AcDbMaterial
  1
ByBlock
 72
     0
 43
0.0208333333333333
 43
0.0
 43
0.0
 43
0.0
 43
0.0
 43
0.0208333333333333
 43
0.0
 43
0.0
 43
0.0
 43
0.0
 43
1.0
 43
0.0
 43
0.0
 43
0.0
 43
0.0
 43
1.0
 77
     0
 47
0.0208333333333333
 47
0.0
 47
0.0
 47
0.0
 47
0.0
 47
0.0208333333333333
 47
0.0
 47
0.0
 47
0.0
 47
0.0
 47
1.0
 47
0.0
 47
0.0
 47
0.0
 47
0.0
 47
1.0
171
     0
 49
0.0208333333333333
 49
0.0
 49
0.0
 49
0.0
 49
0.0
 49
0.0208333333333333
 49
0.0
 49
0.0
 49
0.0
 49
0.0
 49
1.0
 49
0.0
 49
0.0
 49
0.0
 49
0.0
 49
1.0
175
     0
142
0.0208333333333333
142
0.0
142
0.0
142
0.0
142
0.0
142
0.0208333333333333
142
0.0
142
0.0
142
0.0
142
0.0
142
1.0
142
0.0
142
0.0
142
0.0
142
0.0
142
1.0
179
     0
144
0.0208333333333333
144
0.0
144
0.0
144
0.0
144
0.0
144
0.0208333333333333
144
0.0
144
0.0
144
0.0
144
0.0
144
1.0
144
0.0
144
0.0
144
0.0
144
0.0
144
1.0
147
0.0208333333333333
147
0.0
147
0.0
147
0.0
147
0.0
147
0.0208333333333333
147
0.0
147
0.0
147
0.0
147
0.0
147
1.0
147
0.0
147
0.0
147
0.0
147
0.0
147
1.0
  0
MATERIAL
  5
3AB
102
{ACAD_XDICTIONARY
360
3AC
102
}
102
{ACAD_REACTORS
330
3AA
102
}
330
3AA
100
AcDbMaterial
  1
ByLayer
 72
     0
 43
0.0208333333333333
 43
0.0
 43
0.0
 43
0.0
 43
0.0
 43
0.0208333333333333
 43
0.0
 43
0.0
 43
0.0
 43
0.0
 43
1.0
 43
0.0
 43
0.0
 43
0.0
 43
0.0
 43
1.0
 77
     0
 47
0.0208333333333333
 47
0.0
 47
0.0
 47
0.0
 47
0.0
 47
0.0208333333333333
 47
0.0
 47
0.0
 47
0.0
 47
0.0
 47
1.0
 47
0.0
 47
0.0
 47
0.0
 47
0.0
 47
1.0
171
     0
 49
0.0208333333333333
 49
0.0
 49
0.0
 49
0.0
 49
0.0
 49
0.0208333333333333
 49
0.0
 49
0.0
 49
0.0
 49
0.0
 49
1.0
 49
0.0
 49
0.0
 49
0.0
 49
0.0
 49
1.0
175
     0
142
0.0208333333333333
142
0.0
142
0.0
142
0.0
142
0.0
142
0.0208333333333333
142
0.0
142
0.0
142
0.0
142
0.0
142
1.0
142
0.0
142
0.0
142
0.0
142
0.0
142
1.0
179
     0
144
0.0208333333333333
144
0.0
144
0.0
144
0.0
144
0.0
144
0.0208333333333333
144
0.0
144
0.0
144
0.0
144
0.0
144
1.0
144
0.0
144
0.0
144
0.0
144
0.0
144
1.0
147
0.0208333333333333
147
0.0
147
0.0
147
0.0
147
0.0
147
0.0208333333333333
147
0.0
147
0.0
147
0.0
147
0.0
147
1.0
147
0.0
147
0.0
147
0.0
147
0.0
147
1.0
  0
MATERIAL
  5
3BB
102
{ACAD_XDICTIONARY
360
3BC
102
}
102
{ACAD_REACTORS
330
3AA
102
}
330
3AA
100
AcDbMaterial
  1
Global
 72
     0
 43
0.0208333333333333
 43
0.0
 43
0.0
 43
0.0
 43
0.0
 43
0.0208333333333333
 43
0.0
 43
0.0
 43
0.0
 43
0.0
 43
1.0
 43
0.0
 43
0.0
 43
0.0
 43
0.0
 43
1.0
 77
     0
 47
0.0208333333333333
 47
0.0
 47
0.0
 47
0.0
 47
0.0
 47
0.0208333333333333
 47
0.0
 47
0.0
 47
0.0
 47
0.0
 47
1.0
 47
0.0
 47
0.0
 47
0.0
 47
0.0
 47
1.0
171
     0
 49
0.0208333333333333
 49
0.0
 49
0.0
 49
0.0
 49
0.0
 49
0.0208333333333333
 49
0.0
 49
0.0
 49
0.0
 49
0.0
 49
1.0
 49
0.0
 49
0.0
 49
0.0
 49
0.0
 49
1.0
175
     0
142
0.0208333333333333
142
0.0
142
0.0
142
0.0
142
0.0
142
0.0208333333333333
142
0.0
142
0.0
142
0.0
142
0.0
142
1.0
142
0.0
142
0.0
142
0.0
142
0.0
142
1.0
179
     0
144
0.0208333333333333
144
0.0
144
0.0
144
0.0
144
0.0
144
0.0208333333333333
144
0.0
144
0.0
144
0.0
144
0.0
144
1.0
144
0.0
144
0.0
144
0.0
144
0.0
144
1.0
147
0.0208333333333333
147
0.0
147
0.0
147
0.0
147
0.0
147
0.0208333333333333
147
0.0
147
0.0
147
0.0
147
0.0
147
1.0
147
0.0
147
0.0
147
0.0
147
0.0
147
1.0
  0
MLEADERSTYLE
  5
400
102
{ACAD_REACTORS
330
3FF
102
}
330
3FF
100
AcDbMLeaderStyle
170
     2
171
     1
172
     0
 90
        2
 40
0.0
 41
0.0
173
     1
 91
-1056964608
340
3F4
 92
       -2
290
     1
 42
0.09
291
     1
 43
0.36
  3
Standard
 44
0.18
300

342
3EF
174
     1
178
     6
175
     1
176
     0
 93
-1056964608
 45
0.18
292
     0
297
     0
 46
0.18
 94
-1056964608
 47
1.0
 49
1.0
140
1.0
293
     1
141
0.0
294
     1
177
     0
142
1.0
295
     0
296
     0
143
0.125
1001
ACAD_MLEADERVER
1070
     2
  0
MLINESTYLE
  5
3F9
102
{ACAD_REACTORS
330
3F8
102
}
330
3F8
100
AcDbMlineStyle
  2
STANDARD
 70
     0
  3

 62
   256
 51
90.0
 52
90.0
 71
     2
 49
0.5
 62
   256
  6
BYLAYER
 49
-0.5
 62
   256
  6
BYLAYER
  0
ACDBPLACEHOLDER
  5
3A9
102
{ACAD_REACTORS
330
3A8
102
}
330
3A8
  0
SCALE
  5
3DD
102
{ACAD_REACTORS
330
3DC
102
}
330
3DC
100
AcDbScale
 70
     0
300
1:1
140
1.0
141
1.0
290
     1
  0
SCALE
  5
3DE
102
{ACAD_REACTORS
330
3DC
102
}
330
3DC
100
AcDbScale
 70
     0
300
1/128" = 1'-0"
140
0.0078125
141
12.0
290
     0
  0
SCALE
  5
3DF
102
{ACAD_REACTORS
330
3DC
102
}
330
3DC
100
AcDbScale
 70
     0
300
1/64" = 1'-0"
140
0.015625
141
12.0
290
     0
  0
SCALE
  5
3E0
102
{ACAD_REACTORS
330
3DC
102
}
330
3DC
100
AcDbScale
 70
     0
300
1/32" = 1'-0"
140
0.03125
141
12.0
290
     0
  0
SCALE
  5
3E1
102
{ACAD_REACTORS
330
3DC
102
}
330
3DC
100
AcDbScale
 70
     0
300
1/16" = 1'-0"
140
0.0625
141
12.0
290
     0
  0
SCALE
  5
3E2
102
{ACAD_REACTORS
330
3DC
102
}
330
3DC
100
AcDbScale
 70
     0
300
3/32" = 1'-0"
140
0.09375
141
12.0
290
     0
  0
SCALE
  5
3E3
102
{ACAD_REACTORS
330
3DC
102
}
330
3DC
100
AcDbScale
 70
     0
300
1/8" = 1'-0"
140
0.125
141
12.0
290
     0
  0
SCALE
  5
3E4
102
{ACAD_REACTORS
330
3DC
102
}
330
3DC
100
AcDbScale
 70
     0
300
3/16" = 1'-0"
140
0.1875
141
12.0
290
     0
  0
SCALE
  5
3E5
102
{ACAD_REACTORS
330
3DC
102
}
330
3DC
100
AcDbScale
 70
     0
300
1/4" = 1'-0"
140
0.25
141
12.0
290
     0
  0
SCALE
  5
3E6
102
{ACAD_REACTORS
330
3DC
102
}
330
3DC
100
AcDbScale
 70
     0
300
3/8" = 1'-0"
140
0.375
141
12.0
290
     0
  0
SCALE
  5
3E7
102
{ACAD_REACTORS
330
3DC
102
}
330
3DC
100
AcDbScale
 70
     0
300
1/2" = 1'-0"
140
0.5
141
12.0
290
     0
  0
SCALE
  5
3E8
102
{ACAD_REACTORS
330
3DC
102
}
330
3DC
100
AcDbScale
 70
     0
300
3/4" = 1'-0"
140
0.75
141
12.0
290
     0
  0
SCALE
  5
3E9
102
{ACAD_REACTORS
330
3DC
102
}
330
3DC
100
AcDbScale
 70
     0
300
1" = 1'-0"
140
1.0
141
12.0
290
     0
  0
SCALE
  5
3EA
102
{ACAD_REACTORS
330
3DC
102
}
330
3DC
100
AcDbScale
 70
     0
300
1-1/2" = 1'-0"
140
1.5
141
12.0
290
     0
  0
SCALE
  5
3EB
102
{ACAD_REACTORS
330
3DC
102
}
330
3DC
100
AcDbScale
 70
     0
300
3" = 1'-0"
140
3.0
141
12.0
290
     0
  0
SCALE
  5
3EC
102
{ACAD_REACTORS
330
3DC
102
}
330
3DC
100
AcDbScale
 70
     0
300
6" = 1'-0"
140
6.0
141
12.0
290
     0
  0
SCALE
  5
3ED
102
{ACAD_REACTORS
330
3DC
102
}
330
3DC
100
AcDbScale
 70
     0
300
1'-0" = 1'-0"
140
12.0
141
12.0
290
     0
  0
ACDBSECTIONVIEWSTYLE
  5
402
102
{ACAD_XDICTIONARY
360
471
102
}
102
{ACAD_REACTORS
330
401
102
}
330
401
100
AcDbModelDocViewStyle
 70
     0
  3
Imperial24
290
     0
100
AcDbSectionViewStyle
 70
     0
 71
     0
 90
       78
 71
     1
340
3EF
 40
0.24
340
0
340
0
 40
0.24
300
I, O, Q, S, X, Z
 40
0.48
 90
        3
 40
0.18
 90
        1
 71
     2
340
3F6
 90
       25
340
3F6
 90
       50
 40
0.24
 40
0.0
 40
0.24
 71
     3
340
3EF
 40
0.24
 90
        1
 40
0.75
 90
        1
300
%<\AcVar ViewType \f "%tc1">% %<\AcVar ViewSectionStartId>%-%<\AcVar ViewSectionEndId>%\PSCALE %<\AcVar ViewScale \f "%sn">%
 71
     4
300
ANSI31
 40
1.0
 90
        0
290
     0
290
     0
 90
        6
 40
0.0
 40
1.570796326794896
 40
0.2617993877991494
 40
1.308996938995747
 40
-0.2617993877991494
 40
1.832595714594046
  0
TABLESTYLE
  5
3FE
102
{ACAD_XDICTIONARY
360
438
102
}
102
{ACAD_REACTORS
330
3FD
102
}
330
3FD
100
AcDbTableStyle
  3
Standard
 70
     0
 71
     0
 40
0.06
 41
0.06
280
     0
281
     0
  7
STANDARD
140
0.18
170
     2
 62
     0
 63
     7
283
     0
274
    -2
284
     1
 64
     0
275
    -2
285
     1
 65
     0
276
    -2
286
     1
 66
     0
277
    -2
287
     1
 67
     0
278
    -2
288
     1
 68
     0
279
    -2
289
     1
 69
     0
  7
STANDARD
140
0.25
170
     5
 62
     0
 63
     7
283
     0
274
    -2
284
     1
 64
     0
275
    -2
285
     1
 65
     0
276
    -2
286
     1
 66
     0
277
    -2
287
     1
 67
     0
278
    -2
288
     1
 68
     0
279
    -2
289
     1
 69
     0
  7
STANDARD
140
0.18
170
     5
 62
     0
 63
     7
283
     0
274
    -2
284
     1
 64
     0
275
    -2
285
     1
 65
     0
276
    -2
286
     1
 66
     0
277
    -2
287
     1
 67
     0
278
    -2
288
     1
 68
     0
279
    -2
289
     1
 69
     0
  0
VISUALSTYLE
  5
3C9
102
{ACAD_XDICTIONARY
360
449
102
}
102
{ACAD_REACTORS
330
3C3
102
}
330
3C3
100
AcDbVisualStyle
  2
2dWireframe
 70
     4
 71
     0
 72
     2
 73
     0
 90
        0
 40
-0.6
 41
-30.0
 62
     5
 63
     7
 74
     1
 91
        4
 64
     7
 65
   257
 75
     1
175
     1
 42
1.0
 92
        0
 66
   257
 43
1.0
 76
     1
 77
     6
 78
     2
 67
     7
 79
     5
170
     0
171
     0
290
     0
174
     0
 93
        1
 44
0.0
173
     0
291
     0
 45
0.0
1001
ACAD
1000
AcDbSavedByObjectVersion
1070
     0
  0
VISUALSTYLE
  5
3C8
102
{ACAD_XDICTIONARY
360
447
102
}
102
{ACAD_REACTORS
330
3C3
102
}
330
3C3
100
AcDbVisualStyle
  2
Basic
 70
     7
 71
     1
 72
     0
 73
     1
 90
        0
 40
-0.6
 41
-30.0
 62
     5
 63
     7
 74
     0
 91
        4
 64
     7
 65
   257
 75
     1
175
     1
 42
1.0
 92
        8
 66
     7
 43
1.0
 76
     1
 77
     6
 78
     2
 67
     7
 79
     5
170
     0
171
     0
290
     0
174
     0
 93
        1
 44
0.0
173
     0
291
     1
 45
0.0
1001
ACAD
1000
AcDbSavedByObjectVersion
1070
     0
  0
VISUALSTYLE
  5
3CF
102
{ACAD_XDICTIONARY
360
455
102
}
102
{ACAD_REACTORS
330
3C3
102
}
330
3C3
100
AcDbVisualStyle
  2
Brighten
 70
    12
 71
     2
 72
     2
 73
     0
 90
        0
 40
-0.6
 41
-30.0
 62
     5
 63
     7
 74
     1
 91
        4
 64
     7
 65
   257
 75
     1
175
     1
 42
1.0
 92
        8
 66
     7
 43
1.0
 76
     1
 77
     6
 78
     2
 67
     7
 79
     5
170
     0
171
     0
290
     0
174
     0
 93
        1
 44
50.0
173
     0
291
     1
 45
0.0
1001
ACAD
1000
AcDbSavedByObjectVersion
1070
     0
  0
VISUALSTYLE
  5
3D3
102
{ACAD_XDICTIONARY
360
45D
102
}
102
{ACAD_REACTORS
330
3C3
102
}
330
3C3
100
AcDbVisualStyle
  2
ColorChange
 70
    16
 71
     2
 72
     2
 73
     3
 90
        0
 40
-0.6
 41
-30.0
 62
     5
 63
     8
 74
     1
 91
        4
 64
     7
 65
   257
 75
     1
175
     1
 42
1.0
 92
        8
 66
     8
 43
1.0
 76
     1
 77
     6
 78
     2
 67
     7
 79
     5
170
     0
171
     0
290
     0
174
     0
 93
        1
 44
0.0
173
     0
291
     1
 45
0.0
1001
ACAD
1000
AcDbSavedByObjectVersion
1070
     0
  0
VISUALSTYLE
  5
3CC
102
{ACAD_XDICTIONARY
360
44F
102
}
102
{ACAD_REACTORS
330
3C3
102
}
330
3C3
100
AcDbVisualStyle
  2
Conceptual
 70
     9
 71
     3
 72
     2
 73
     0
 90
        0
 40
-0.6
 41
-30.0
 62
     5
 63
     7
 74
     2
 91
        2
 64
     7
 65
   257
 75
     1
175
     1
 42
179.0
 92
        8
 66
     7
 43
1.0
 76
     1
 77
     6
 78
     2
 67
     7
 79
     3
170
     0
171
     0
290
     0
174
     0
 93
        1
 44
0.0
173
     0
291
     0
 45
0.0
1001
ACAD
1000
AcDbSavedByObjectVersion
1070
     0
  0
VISUALSTYLE
  5
3CE
102
{ACAD_XDICTIONARY
360
453
102
}
102
{ACAD_REACTORS
330
3C3
102
}
330
3C3
100
AcDbVisualStyle
  2
Dim
 70
    11
 71
     2
 72
     2
 73
     0
 90
        0
 40
-0.6
 41
-30.0
 62
     5
 63
     7
 74
     1
 91
        4
 64
     7
 65
   257
 75
     1
175
     1
 42
1.0
 92
        8
 66
     7
 43
1.0
 76
     1
 77
     6
 78
     2
 67
     7
 79
     5
170
     0
171
     0
290
     0
174
     0
 93
        1
 44
-50.0
173
     0
291
     1
 45
0.0
1001
ACAD
1000
AcDbSavedByObjectVersion
1070
     0
  0
VISUALSTYLE
  5
3DB
102
{ACAD_XDICTIONARY
360
46D
102
}
102
{ACAD_REACTORS
330
3C3
102
}
330
3C3
100
AcDbVisualStyle
  2
EdgeColorOff
 70
    22
 71
     2
 72
     2
 73
     0
 90
        0
 40
-0.6
 41
-30.0
 62
     5
 63
     7
 74
     1
 91
        4
 64
     7
 65
   257
 75
     1
175
     1
 42
1.0
 92
        8
 66
     7
 43
1.0
 76
     1
 77
     6
 78
     2
 67
     7
 79
     5
170
     0
171
     0
290
     0
174
     0
 93
        1
 44
0.0
173
     0
291
     1
 45
0.0
1001
ACAD
1000
AcDbSavedByObjectVersion
1070
     0
  0
VISUALSTYLE
  5
3D2
102
{ACAD_XDICTIONARY
360
45B
102
}
102
{ACAD_REACTORS
330
3C3
102
}
330
3C3
100
AcDbVisualStyle
  2
Facepattern
 70
    15
 71
     2
 72
     2
 73
     0
 90
        0
 40
-0.6
 41
-30.0
 62
     5
 63
     7
 74
     1
 91
        4
 64
     7
 65
   257
 75
     1
175
     1
 42
1.0
 92
        8
 66
     7
 43
1.0
 76
     1
 77
     6
 78
     2
 67
     7
 79
     5
170
     0
171
     0
290
     0
174
     0
 93
        1
 44
0.0
173
     0
291
     1
 45
0.0
1001
ACAD
1000
AcDbSavedByObjectVersion
1070
     0
  0
VISUALSTYLE
  5
3C4
102
{ACAD_XDICTIONARY
360
43F
102
}
102
{ACAD_REACTORS
330
3C3
102
}
330
3C3
100
AcDbVisualStyle
  2
Flat
 70
     0
 71
     2
 72
     1
 73
     1
 90
        2
 40
-0.6
 41
30.0
 62
     5
 63
     7
 74
     0
 91
        0
 64
     7
 65
   257
 75
     1
175
     1
 42
1.0
 92
        8
 66
     7
 43
1.0
 76
     1
 77
     6
 78
     2
 67
     7
 79
     5
170
     0
171
     0
290
     0
174
     0
 93
       13
 44
0.0
173
     0
291
     1
 45
0.0
1001
ACAD
1000
AcDbSavedByObjectVersion
1070
     0
  0
VISUALSTYLE
  5
3C5
102
{ACAD_XDICTIONARY
360
441
102
}
102
{ACAD_REACTORS
330
3C3
102
}
330
3C3
100
AcDbVisualStyle
  2
FlatWithEdges
 70
     1
 71
     2
 72
     1
 73
     1
 90
        2
 40
-0.6
 41
30.0
 62
     5
 63
     7
 74
     1
 91
        0
 64
     7
 65
   257
 75
     1
175
     1
 42
1.0
 92
        0
 66
   257
 43
1.0
 76
     1
 77
     6
 78
     2
 67
     7
 79
     5
170
     0
171
     0
290
     0
174
     0
 93
       13
 44
0.0
173
     0
291
     1
 45
0.0
1001
ACAD
1000
AcDbSavedByObjectVersion
1070
     0
  0
VISUALSTYLE
  5
3C6
102
{ACAD_XDICTIONARY
360
443
102
}
102
{ACAD_REACTORS
330
3C3
102
}
330
3C3
100
AcDbVisualStyle
  2
Gouraud
 70
     2
 71
     2
 72
     2
 73
     1
 90
        2
 40
-0.6
 41
30.0
 62
     5
 63
     7
 74
     0
 91
        0
 64
     7
 65
   257
 75
     1
175
     1
 42
1.0
 92
        0
 66
     7
 43
1.0
 76
     1
 77
     6
 78
     2
 67
     7
 79
     5
170
     0
171
     0
290
     0
174
     0
 93
       13
 44
0.0
173
     0
291
     1
 45
0.0
1001
ACAD
1000
AcDbSavedByObjectVersion
1070
     0
  0
VISUALSTYLE
  5
3C7
102
{ACAD_XDICTIONARY
360
445
102
}
102
{ACAD_REACTORS
330
3C3
102
}
330
3C3
100
AcDbVisualStyle
  2
GouraudWithEdges
 70
     3
 71
     2
 72
     2
 73
     1
 90
        2
 40
-0.6
 41
30.0
 62
     5
 63
     7
 74
     1
 91
        0
 64
     7
 65
   257
 75
     1
175
     1
 42
1.0
 92
        0
 66
   257
 43
1.0
 76
     1
 77
     6
 78
     2
 67
     7
 79
     5
170
     0
171
     0
290
     0
174
     0
 93
       13
 44
0.0
173
     0
291
     1
 45
0.0
1001
ACAD
1000
AcDbSavedByObjectVersion
1070
     0
  0
VISUALSTYLE
  5
3CB
102
{ACAD_XDICTIONARY
360
44D
102
}
102
{ACAD_REACTORS
330
3C3
102
}
330
3C3
100
AcDbVisualStyle
  2
Hidden
 70
     6
 71
     1
 72
     2
 73
     2
 90
        0
 40
-0.6
 41
-30.0
 62
     5
 63
     7
 74
     2
 91
        2
 64
     7
 65
   257
 75
     2
175
     1
 42
40.0
 92
        0
 66
   257
 43
1.0
 76
     1
 77
     6
 78
     2
 67
     7
 79
     3
170
     0
171
     0
290
     0
174
     0
 93
        1
 44
0.0
173
     0
291
     0
 45
0.0
1001
ACAD
1000
AcDbSavedByObjectVersion
1070
     0
  0
VISUALSTYLE
  5
3D9
102
{ACAD_XDICTIONARY
360
469
102
}
102
{ACAD_REACTORS
330
3C3
102
}
330
3C3
100
AcDbVisualStyle
  2
JitterOff
 70
    20
 71
     2
 72
     2
 73
     0
 90
        0
 40
-0.6
 41
-30.0
 62
     5
 63
     7
 74
     1
 91
        4
 64
     7
 65
   257
 75
     1
175
     1
 42
1.0
 92
       10
 66
     7
 43
1.0
 76
     1
 77
     6
 78
     2
 67
     7
 79
     5
170
     0
171
     0
290
     0
174
     0
 93
        1
 44
0.0
173
     0
291
     1
 45
0.0
1001
ACAD
1000
AcDbSavedByObjectVersion
1070
     0
  0
VISUALSTYLE
  5
3D1
102
{ACAD_XDICTIONARY
360
459
102
}
102
{ACAD_REACTORS
330
3C3
102
}
330
3C3
100
AcDbVisualStyle
  2
Linepattern
 70
    14
 71
     2
 72
     2
 73
     0
 90
        0
 40
-0.6
 41
-30.0
 62
     5
 63
     7
 74
     1
 91
        4
 64
     7
 65
   257
 75
     7
175
     7
 42
1.0
 92
        8
 66
     7
 43
1.0
 76
     1
 77
     6
 78
     2
 67
     7
 79
     5
170
     0
171
     0
290
     0
174
     0
 93
        1
 44
0.0
173
     0
291
     1
 45
0.0
1001
ACAD
1000
AcDbSavedByObjectVersion
1070
     0
  0
VISUALSTYLE
  5
3DA
102
{ACAD_XDICTIONARY
360
46B
102
}
102
{ACAD_REACTORS
330
3C3
102
}
330
3C3
100
AcDbVisualStyle
  2
OverhangOff
 70
    21
 71
     2
 72
     2
 73
     0
 90
        0
 40
-0.6
 41
-30.0
 62
     5
 63
     7
 74
     1
 91
        4
 64
     7
 65
   257
 75
     1
175
     1
 42
1.0
 92
        9
 66
     7
 43
1.0
 76
     1
 77
     6
 78
     2
 67
     7
 79
     5
170
     0
171
     0
290
     0
174
     0
 93
        1
 44
0.0
173
     0
291
     1
 45
0.0
1001
ACAD
1000
AcDbSavedByObjectVersion
1070
     0
  0
VISUALSTYLE
  5
3CD
102
{ACAD_XDICTIONARY
360
451
102
}
102
{ACAD_REACTORS
330
3C3
102
}
330
3C3
100
AcDbVisualStyle
  2
Realistic
 70
     8
 71
     2
 72
     3
 73
     0
 90
        2
 40
-0.6
 41
30.0
 62
     5
 63
     7
 74
     0
 91
        0
 64
     7
 65
   257
 75
     1
175
     1
 42
1.0
 92
        8
 66
   257
 43
1.0
 76
     1
 77
     6
 78
     2
 67
     7
 79
     3
170
     0
171
     0
290
     0
174
     0
 93
       13
 44
0.0
173
     0
291
     0
 45
0.0
1001
ACAD
1000
AcDbSavedByObjectVersion
1070
     0
  0
VISUALSTYLE
  5
3D8
102
{ACAD_XDICTIONARY
360
467
102
}
102
{ACAD_REACTORS
330
3C3
102
}
330
3C3
100
AcDbVisualStyle
  2
Shaded
 70
    27
 71
     2
 72
     2
 73
     1
 90
        2
 40
-0.6
 41
30.0
 62
     5
 63
     7
 74
     0
 91
        4
 64
     7
 65
   257
 75
     1
175
     1
 42
1.0
 92
        8
 66
   257
 43
1.0
 76
     1
 77
     6
 78
     2
 67
     8
 79
     3
170
     0
171
     0
290
     0
174
     0
 93
        5
 44
0.0
173
     0
291
     0
 45
0.0
1001
ACAD
1000
AcDbSavedByObjectVersion
1070
     0
  0
VISUALSTYLE
  5
3D7
102
{ACAD_XDICTIONARY
360
465
102
}
102
{ACAD_REACTORS
330
3C3
102
}
330
3C3
100
AcDbVisualStyle
  2
Shaded with edges
 70
    26
 71
     2
 72
     2
 73
     1
 90
        2
 40
-0.6
 41
30.0
 62
     5
 63
     7
 74
     1
 91
        2
 64
     7
 65
   257
 75
     2
175
     1
 42
1.0
 92
        8
 66
   257
 43
1.0
 76
     1
 77
     6
 78
     2
 67
     7
 79
     3
170
     0
171
     0
290
     0
174
     0
 93
        5
 44
0.0
173
     0
291
     0
 45
0.0
1001
ACAD
1000
AcDbSavedByObjectVersion
1070
     0
  0
VISUALSTYLE
  5
3D4
102
{ACAD_XDICTIONARY
360
45F
102
}
102
{ACAD_REACTORS
330
3C3
102
}
330
3C3
100
AcDbVisualStyle
  2
Shades of Gray
 70
    23
 71
     2
 72
     2
 73
     3
 90
        0
 40
-0.6
 41
-30.0
 62
     5
 63
     7
 74
     2
 91
        2
 64
     7
 65
     7
 75
     1
175
     1
 42
40.0
 92
        8
 66
     7
 43
1.0
 76
     1
 77
     6
 78
     2
 67
     7
 79
     3
170
     0
171
     0
290
     0
174
     0
 93
        1
 44
0.0
173
     0
291
     0
 45
0.0
1001
ACAD
1000
AcDbSavedByObjectVersion
1070
     0
  0
VISUALSTYLE
  5
3D5
102
{ACAD_XDICTIONARY
360
461
102
}
102
{ACAD_REACTORS
330
3C3
102
}
330
3C3
100
AcDbVisualStyle
  2
Sketchy
 70
    24
 71
     1
 72
     2
 73
     2
 90
        0
 40
-0.6
 41
-30.0
 62
     5
 63
     7
 74
     2
 91
        2
 64
     7
 65
     7
 75
     1
175
     1
 42
40.0
 92
       11
 66
     7
 43
1.0
 76
     1
 77
     6
 78
     2
 67
     7
 79
     6
170
     0
171
     0
290
     0
174
     0
 93
        1
 44
0.0
173
     0
291
     0
 45
0.0
1001
ACAD
1000
AcDbSavedByObjectVersion
1070
     0
  0
VISUALSTYLE
  5
3D0
102
{ACAD_XDICTIONARY
360
457
102
}
102
{ACAD_REACTORS
330
3C3
102
}
330
3C3
100
AcDbVisualStyle
  2
Thicken
 70
    13
 71
     2
 72
     2
 73
     0
 90
        0
 40
-0.6
 41
-30.0
 62
     5
 63
     7
 74
     1
 91
        4
 64
     7
 65
   257
 75
     1
175
     1
 42
1.0
 92
       12
 66
     7
 43
1.0
 76
     1
 77
     6
 78
     2
 67
     7
 79
     5
170
     0
171
     0
290
     0
174
     0
 93
        1
 44
0.0
173
     0
291
     1
 45
0.0
1001
ACAD
1000
AcDbSavedByObjectVersion
1070
     0
  0
VISUALSTYLE
  5
3CA
102
{ACAD_XDICTIONARY
360
44B
102
}
102
{ACAD_REACTORS
330
3C3
102
}
330
3C3
100
AcDbVisualStyle
  2
Wireframe
 70
     5
 71
     0
 72
     2
 73
     0
 90
        0
 40
-0.6
 41
-30.0
 62
     5
 63
     7
 74
     1
 91
        4
 64
     7
 65
   257
 75
     1
175
     1
 42
1.0
 92
        0
 66
   257
 43
1.0
 76
     1
 77
     6
 78
     2
 67
     7
 79
     3
170
     0
171
     0
290
     0
174
     0
 93
        1
 44
0.0
173
     0
291
     0
 45
0.0
1001
ACAD
1000
AcDbSavedByObjectVersion
1070
     0
  0
VISUALSTYLE
  5
3D6
102
{ACAD_XDICTIONARY
360
463
102
}
102
{ACAD_REACTORS
330
3C3
102
}
330
3C3
100
AcDbVisualStyle
  2
X-Ray
 70
    25
 71
     2
 72
     2
 73
     1
 90
        1
 40
0.5
 41
-30.0
 62
     5
 63
     7
 74
     1
 91
        0
 64
     7
 65
   257
 75
     1
175
     1
 42
1.0
 92
        8
 66
     7
 43
1.0
 76
     1
 77
     6
 78
     2
 67
     7
 79
     3
170
     0
171
     0
290
     0
174
     0
 93
       13
 44
0.0
173
     0
291
     0
 45
0.0
1001
ACAD
1000
AcDbSavedByObjectVersion
1070
     0
  0
DICTIONARYVAR
  5
432
102
{ACAD_REACTORS
330
42D
102
}
330
42D
100
DictionaryVariables
280
     0
  1
1:1
  0
DICTIONARYVAR
  5
42F
102
{ACAD_REACTORS
330
42D
102
}
330
42D
100
DictionaryVariables
280
     0
  1
STANDARD
  0
DICTIONARYVAR
  5
42E
102
{ACAD_REACTORS
330
42D
102
}
330
42D
100
DictionaryVariables
280
     0
  1
STANDARD
  0
DICTIONARYVAR
  5
430
102
{ACAD_REACTORS
330
42D
102
}
330
42D
100
DictionaryVariables
280
     0
  1
Imperial24
  0
DICTIONARYVAR
  5
431
102
{ACAD_REACTORS
330
42D
102
}
330
42D
100
DictionaryVariables
280
     0
  1
Imperial24
  0
DICTIONARYVAR
  5
435
102
{ACAD_REACTORS
330
42D
102
}
330
42D
100
DictionaryVariables
280
     0
  1
1
  0
DICTIONARYVAR
  5
434
102
{ACAD_REACTORS
330
42D
102
}
330
42D
100
DictionaryVariables
280
     0
  1
0
  0
DICTIONARYVAR
  5
433
102
{ACAD_REACTORS
330
42D
102
}
330
42D
100
DictionaryVariables
280
     0
  1
127
  0
DICTIONARYVAR
  5
436
102
{ACAD_REACTORS
330
42D
102
}
330
42D
100
DictionaryVariables
280
     0
  1
2
  0
DICTIONARY
  5
473
330
404
100
AcDbDictionary
280
     1
281
     1
  3
ACAD_XREC_ROUNDTRIP
360
474
  0
DICTIONARY
  5
477
330
40C
100
AcDbDictionary
280
     1
281
     1
  3
ACAD_XREC_ROUNDTRIP
360
478
  0
DICTIONARY
  5
475
330
408
100
AcDbDictionary
280
     1
281
     1
  3
ACAD_XREC_ROUNDTRIP
360
476
  0
DICTIONARY
  5
3B4
330
3B3
100
AcDbDictionary
280
     1
281
     1
  3
ACAD_XREC_ROUNDTRIP
360
43D
  3
BUMPTILE
360
3B6
  3
DIFFUSETILE
360
3B5
  3
OPACITYTILE
360
3B9
  3
REFLECTIONTILE
360
3B8
  3
REFRACTIONTILE
360
3BA
  3
SPECULARTILE
360
3B7
  0
DICTIONARY
  5
3AC
330
3AB
100
AcDbDictionary
280
     1
281
     1
  3
ACAD_XREC_ROUNDTRIP
360
43C
  3
BUMPTILE
360
3AE
  3
DIFFUSETILE
360
3AD
  3
OPACITYTILE
360
3B1
  3
REFLECTIONTILE
360
3B0
  3
REFRACTIONTILE
360
3B2
  3
SPECULARTILE
360
3AF
  0
DICTIONARY
  5
3BC
330
3BB
100
AcDbDictionary
280
     1
281
     1
  3
ACAD_XREC_ROUNDTRIP
360
43E
  3
BUMPTILE
360
3BE
  3
DIFFUSETILE
360
3BD
  3
OPACITYTILE
360
3C1
  3
REFLECTIONTILE
360
3C0
  3
REFRACTIONTILE
360
3C2
  3
SPECULARTILE
360
3BF
  0
DICTIONARY
  5
471
330
402
100
AcDbDictionary
280
     1
281
     1
  3
ACAD_XREC_ROUNDTRIP
360
472
  0
DICTIONARY
  5
438
330
3FE
100
AcDbDictionary
280
     1
281
     1
  3
ACAD_ROUNDTRIP_2008_TABLESTYLE_CELLSTYLEMAP
360
439
  3
ACAD_XREC_ROUNDTRIP
360
46F
  0
DICTIONARY
  5
449
330
3C9
100
AcDbDictionary
280
     1
281
     1
  3
ACAD_XREC_ROUNDTRIP
360
44A
  0
DICTIONARY
  5
447
330
3C8
100
AcDbDictionary
280
     1
281
     1
  3
ACAD_XREC_ROUNDTRIP
360
448
  0
DICTIONARY
  5
455
330
3CF
100
AcDbDictionary
280
     1
281
     1
  3
ACAD_XREC_ROUNDTRIP
360
456
  0
DICTIONARY
  5
45D
330
3D3
100
AcDbDictionary
280
     1
281
     1
  3
ACAD_XREC_ROUNDTRIP
360
45E
  0
DICTIONARY
  5
44F
330
3CC
100
AcDbDictionary
280
     1
281
     1
  3
ACAD_XREC_ROUNDTRIP
360
450
  0
DICTIONARY
  5
453
330
3CE
100
AcDbDictionary
280
     1
281
     1
  3
ACAD_XREC_ROUNDTRIP
360
454
  0
DICTIONARY
  5
46D
330
3DB
100
AcDbDictionary
280
     1
281
     1
  3
ACAD_XREC_ROUNDTRIP
360
46E
  0
DICTIONARY
  5
45B
330
3D2
100
AcDbDictionary
280
     1
281
     1
  3
ACAD_XREC_ROUNDTRIP
360
45C
  0
DICTIONARY
  5
43F
330
3C4
100
AcDbDictionary
280
     1
281
     1
  3
ACAD_XREC_ROUNDTRIP
360
440
  0
DICTIONARY
  5
441
330
3C5
100
AcDbDictionary
280
     1
281
     1
  3
ACAD_XREC_ROUNDTRIP
360
442
  0
DICTIONARY
  5
443
330
3C6
100
AcDbDictionary
280
     1
281
     1
  3
ACAD_XREC_ROUNDTRIP
360
444
  0
DICTIONARY
  5
445
330
3C7
100
AcDbDictionary
280
     1
281
     1
  3
ACAD_XREC_ROUNDTRIP
360
446
  0
DICTIONARY
  5
44D
330
3CB
100
AcDbDictionary
280
     1
281
     1
  3
ACAD_XREC_ROUNDTRIP
360
44E
  0
DICTIONARY
  5
469
330
3D9
100
AcDbDictionary
280
     1
281
     1
  3
ACAD_XREC_ROUNDTRIP
360
46A
  0
DICTIONARY
  5
459
330
3D1
100
AcDbDictionary
280
     1
281
     1
  3
ACAD_XREC_ROUNDTRIP
360
45A
  0
DICTIONARY
  5
46B
330
3DA
100
AcDbDictionary
280
     1
281
     1
  3
ACAD_XREC_ROUNDTRIP
360
46C
  0
DICTIONARY
  5
451
330
3CD
100
AcDbDictionary
280
     1
281
     1
  3
ACAD_XREC_ROUNDTRIP
360
452
  0
DICTIONARY
  5
467
330
3D8
100
AcDbDictionary
280
     1
281
     1
  3
ACAD_XREC_ROUNDTRIP
360
468
  0
DICTIONARY
  5
465
330
3D7
100
AcDbDictionary
280
     1
281
     1
  3
ACAD_XREC_ROUNDTRIP
360
466
  0
DICTIONARY
  5
45F
330
3D4
100
AcDbDictionary
280
     1
281
     1
  3
ACAD_XREC_ROUNDTRIP
360
460
  0
DICTIONARY
  5
461
330
3D5
100
AcDbDictionary
280
     1
281
     1
  3
ACAD_XREC_ROUNDTRIP
360
462
  0
DICTIONARY
  5
457
330
3D0
100
AcDbDictionary
280
     1
281
     1
  3
ACAD_XREC_ROUNDTRIP
360
458
  0
DICTIONARY
  5
44B
330
3CA
100
AcDbDictionary
280
     1
281
     1
  3
ACAD_XREC_ROUNDTRIP
360
44C
  0
DICTIONARY
  5
463
330
3D6
100
AcDbDictionary
280
     1
281
     1
  3
ACAD_XREC_ROUNDTRIP
360
464
  0
XRECORD
  5
474
102
{ACAD_REACTORS
330
473
102
}
330
473
100
AcDbXrecord
280
     1
102
DISPLAYNAME
  1
Imperial24
102
FLAGS
 90
        0
  0
XRECORD
  5
478
102
{ACAD_REACTORS
330
477
102
}
330
477
100
AcDbXrecord
280
     1
102
SHADEPLOT
 70
     0
102
SHADEPLOTRESLEVEL
 70
     2
102
SHADEPLOTCUSTOMDPI
 70
   300
  0
XRECORD
  5
476
102
{ACAD_REACTORS
330
475
102
}
330
475
100
AcDbXrecord
280
     1
102
SHADEPLOT
 70
     0
102
SHADEPLOTRESLEVEL
 70
     2
102
SHADEPLOTCUSTOMDPI
 70
   300
  0
XRECORD
  5
43D
102
{ACAD_REACTORS
330
3B4
102
}
330
3B4
100
AcDbXrecord
280
     1
102
MATERIAL
148
0.0
149
0.0
149
0.0
 93
        0
 94
      127
282
     0
 72
     0
 77
     0
171
     0
175
     0
179
     0
273
     0
  0
XRECORD
  5
3B6
102
{ACAD_REACTORS
330
3B4
102
}
330
3B4
100
AcDbXrecord
280
     1
270
     1
271
     1
  0
XRECORD
  5
3B5
102
{ACAD_REACTORS
330
3B4
102
}
330
3B4
100
AcDbXrecord
280
     1
270
     1
271
     1
  0
XRECORD
  5
3B9
102
{ACAD_REACTORS
330
3B4
102
}
330
3B4
100
AcDbXrecord
280
     1
270
     1
271
     1
  0
XRECORD
  5
3B8
102
{ACAD_REACTORS
330
3B4
102
}
330
3B4
100
AcDbXrecord
280
     1
270
     1
271
     1
  0
XRECORD
  5
3BA
102
{ACAD_REACTORS
330
3B4
102
}
330
3B4
100
AcDbXrecord
280
     1
270
     1
271
     1
  0
XRECORD
  5
3B7
102
{ACAD_REACTORS
330
3B4
102
}
330
3B4
100
AcDbXrecord
280
     1
270
     1
271
     1
  0
XRECORD
  5
43C
102
{ACAD_REACTORS
330
3AC
102
}
330
3AC
100
AcDbXrecord
280
     1
102
MATERIAL
148
0.0
149
0.0
149
0.0
 93
        0
 94
      127
282
     0
 72
     0
 77
     0
171
     0
175
     0
179
     0
273
     0
  0
XRECORD
  5
3AE
102
{ACAD_REACTORS
330
3AC
102
}
330
3AC
100
AcDbXrecord
280
     1
270
     1
271
     1
  0
XRECORD
  5
3AD
102
{ACAD_REACTORS
330
3AC
102
}
330
3AC
100
AcDbXrecord
280
     1
270
     1
271
     1
  0
XRECORD
  5
3B1
102
{ACAD_REACTORS
330
3AC
102
}
330
3AC
100
AcDbXrecord
280
     1
270
     1
271
     1
  0
XRECORD
  5
3B0
102
{ACAD_REACTORS
330
3AC
102
}
330
3AC
100
AcDbXrecord
280
     1
270
     1
271
     1
  0
XRECORD
  5
3B2
102
{ACAD_REACTORS
330
3AC
102
}
330
3AC
100
AcDbXrecord
280
     1
270
     1
271
     1
  0
XRECORD
  5
3AF
102
{ACAD_REACTORS
330
3AC
102
}
330
3AC
100
AcDbXrecord
280
     1
270
     1
271
     1
  0
XRECORD
  5
43E
102
{ACAD_REACTORS
330
3BC
102
}
330
3BC
100
AcDbXrecord
280
     1
102
MATERIAL
148
0.0
149
0.0
149
0.0
 93
        0
 94
      127
282
     0
 72
     0
 77
     0
171
     0
175
     0
179
     0
273
     0
  0
XRECORD
  5
3BE
102
{ACAD_REACTORS
330
3BC
102
}
330
3BC
100
AcDbXrecord
280
     1
270
     1
271
     1
  0
XRECORD
  5
3BD
102
{ACAD_REACTORS
330
3BC
102
}
330
3BC
100
AcDbXrecord
280
     1
270
     1
271
     1
  0
XRECORD
  5
3C1
102
{ACAD_REACTORS
330
3BC
102
}
330
3BC
100
AcDbXrecord
280
     1
270
     1
271
     1
  0
XRECORD
  5
3C0
102
{ACAD_REACTORS
330
3BC
102
}
330
3BC
100
AcDbXrecord
280
     1
270
     1
271
     1
  0
XRECORD
  5
3C2
102
{ACAD_REACTORS
330
3BC
102
}
330
3BC
100
AcDbXrecord
280
     1
270
     1
271
     1
  0
XRECORD
  5
3BF
102
{ACAD_REACTORS
330
3BC
102
}
330
3BC
100
AcDbXrecord
280
     1
270
     1
271
     1
  0
XRECORD
  5
472
102
{ACAD_REACTORS
330
471
102
}
330
471
100
AcDbXrecord
280
     1
102
DISPLAYNAME
  1
Imperial24
102
FLAGS
 90
        0
  0
CELLSTYLEMAP
  5
439
102
{ACAD_REACTORS
330
438
102
}
330
438
100
AcDbCellStyleMap
 90
        3
300
CELLSTYLE
  1
TABLEFORMAT_BEGIN
 90
        5
170
     1
 91
        0
 92
    32768
 62
   257
 93
        1
300
CONTENTFORMAT
  1
CONTENTFORMAT_BEGIN
 90
        0
 91
        0
 92
      512
 93
        0
300

 40
0.0
140
1.0
 94
        5
 62
     0
340
3EF
144
0.25
309
CONTENTFORMAT_END
171
     0
 94
        0
309
TABLEFORMAT_END
  1
CELLSTYLE_BEGIN
 90
        1
 91
        1
300
_TITLE
309
CELLSTYLE_END
300
CELLSTYLE
  1
TABLEFORMAT_BEGIN
 90
        5
170
     1
 91
        0
 92
        0
 62
   257
 93
        1
300
CONTENTFORMAT
  1
CONTENTFORMAT_BEGIN
 90
        0
 91
        0
 92
      512
 93
        0
300

 40
0.0
140
1.0
 94
        5
 62
     0
340
3EF
144
0.18
309
CONTENTFORMAT_END
171
     0
 94
        0
309
TABLEFORMAT_END
  1
CELLSTYLE_BEGIN
 90
        2
 91
        1
300
_HEADER
309
CELLSTYLE_END
300
CELLSTYLE
  1
TABLEFORMAT_BEGIN
 90
        5
170
     1
 91
        0
 92
        0
 62
   257
 93
        1
300
CONTENTFORMAT
  1
CONTENTFORMAT_BEGIN
 90
        0
 91
        0
 92
      512
 93
        0
300

 40
0.0
140
1.0
 94
        2
 62
     0
340
3EF
144
0.18
309
CONTENTFORMAT_END
171
     0
 94
        0
309
TABLEFORMAT_END
  1
CELLSTYLE_BEGIN
 90
        3
 91
        2
300
_DATA
309
CELLSTYLE_END
  0
XRECORD
  5
46F
102
{ACAD_REACTORS
330
438
102
}
330
438
100
AcDbXrecord
280
     1
102
ACAD_ROUNDTRIP_PRE2007_TABLESTYLE
 90
      512
 91
        0
  1

 92
      512
 93
        0
  2

 94
      512
 95
        0
  3

  0
XRECORD
  5
44A
102
{ACAD_REACTORS
330
449
102
}
330
449
100
AcDbXrecord
280
     1
102
RTVSPost2010Prop28
280
     1
102
RTVSPost2010PropOp28
 70
     1
102
RTVSPost2010Prop29
280
     1
102
RTVSPost2010PropOp29
 70
     1
102
RTVSPost2010Prop30
280
     0
102
RTVSPost2010PropOp30
 70
     1
102
RTVSPost2010Prop31
280
     0
102
RTVSPost2010PropOp31
 70
     1
102
RTVSPost2010Prop32
280
     0
102
RTVSPost2010PropOp32
 70
     1
102
RTVSPost2010Prop33
280
     0
102
RTVSPost2010PropOp33
 70
     1
102
RTVSPost2010Prop34
280
     0
102
RTVSPost2010PropOp34
 70
     1
102
RTVSPost2010Prop35
280
     0
102
RTVSPost2010PropOp35
 70
     1
102
RTVSPost2010Prop36
280
     0
102
RTVSPost2010PropOp36
 70
     1
102
RTVSPost2010Prop37
 90
       50
102
RTVSPost2010PropOp37
 70
     1
102
RTVSPost2010Prop38
140
0.0
102
RTVSPost2010PropOp38
 70
     1
102
RTVSPost2010Prop39
140
1.0
102
RTVSPost2010PropOp39
 70
     1
102
RTVSPost2010Prop40
 90
        0
102
RTVSPost2010PropOp40
 70
     1
102
RTVSPost2010Prop41ColorIndex
 90
       18
102
RTVSPost2010Prop41ColorRGB
 90
        0
102
RTVSPost2010PropOp41
 70
     1
102
RTVSPost2010Prop42
 90
       50
102
RTVSPost2010PropOp42
 70
     1
102
RTVSPost2010Prop43
 90
        3
102
RTVSPost2010PropOp43
 70
     1
102
RTVSPost2010Prop44ColorIndex
 90
        5
102
RTVSPost2010Prop44ColorRGB
 90
      255
102
RTVSPost2010PropOp44
 70
     1
102
RTVSPost2010Prop45
280
     0
102
RTVSPost2010PropOp45
 70
     1
102
RTVSPost2010Prop46
 90
       50
102
RTVSPost2010PropOp46
 70
     1
102
RTVSPost2010Prop47
 90
       50
102
RTVSPost2010PropOp47
 70
     1
102
RTVSPost2010Prop48
 90
       50
102
RTVSPost2010PropOp48
 70
     1
102
RTVSPost2010Prop49
280
     0
102
RTVSPost2010PropOp49
 70
     1
102
RTVSPost2010Prop50
 90
       50
102
RTVSPost2010PropOp50
 70
     1
102
RTVSPost2010Prop51ColorIndex
 90
      256
102
RTVSPost2010Prop51ColorRGB
 90
-16777216
102
RTVSPost2010PropOp51
 70
     0
102
RTVSPost2010Prop52
140
1.0
102
RTVSPost2010PropOp52
 70
     0
102
RTVSPost2010Prop53
 90
        2
102
RTVSPost2010PropOp53
 70
     1
102
RTVSPost2010Prop54
  1
strokes_ogs.tif
102
RTVSPost2010PropOp54
 70
     1
102
RTVSPost2010Prop55
280
     0
102
RTVSPost2010PropOp55
 70
     1
102
RTVSPost2010Prop56
140
1.0
102
RTVSPost2010PropOp56
 70
     1
102
RTVSPost2010Prop57
140
1.0
102
RTVSPost2010PropOp57
 70
     1
102
RTVSPropertyOp0
 70
     1
102
RTVSPropertyOp1
 70
     1
102
RTVSPropertyOp2
 70
     1
102
RTVSPropertyOp3
 70
     1
102
RTVSPropertyOp4
 70
     1
102
RTVSPropertyOp5
 70
     1
102
RTVSPropertyOp6
 70
     1
102
RTVSPropertyOp7
 70
     1
102
RTVSPropertyOp8
 70
     1
102
RTVSPropertyOp9
 70
     1
102
RTVSPropertyOp10
 70
     1
102
RTVSPropertyOp11
 70
     1
102
RTVSPropertyOp12
 70
     1
102
RTVSPropertyOp13
 70
     1
102
RTVSPropertyOp14
 70
     1
102
RTVSPropertyOp15
 70
     1
102
RTVSPropertyOp16
 70
     1
102
RTVSPropertyOp17
 70
     1
102
RTVSPropertyOp18
 70
     1
102
RTVSPropertyOp19
 70
     1
102
RTVSPropertyOp20
 70
     1
102
RTVSPropertyOp21
 70
     1
102
RTVSPropertyOp22
 70
     1
102
RTVSPropertyOp23
 70
     1
102
RTVSPropertyOp24
 70
     1
102
RTVSPropertyOp25
 70
     1
102
RTVSPropertyOp26
 70
     1
102
RTVSPropertyOp27
 70
     1
102
RTVSPropertyOp28
 70
     1
102
RTVSPropertyOp29
 70
     1
102
RTVSPropertyOp30
 70
     1
102
RTVSPropertyOp31
 70
     1
102
RTVSPropertyOp32
 70
     1
102
RTVSPropertyOp33
 70
     1
102
RTVSPropertyOp34
 70
     1
102
RTVSPropertyOp35
 70
     1
102
RTVSPropertyOp36
 70
     1
102
RTVSPropertyOp37
 70
     1
102
RTVSPropertyOp38
 70
     1
102
RTVSPropertyOp39
 70
     1
102
RTVSPropertyOp40
 70
     1
102
RTVSPropertyOp41
 70
     1
102
RTVSPropertyOp42
 70
     1
102
RTVSPropertyOp43
 70
     1
102
RTVSPropertyOp44
 70
     1
102
RTVSPropertyOp45
 70
     1
102
RTVSPropertyOp46
 70
     1
102
RTVSPropertyOp47
 70
     1
102
RTVSPropertyOp48
 70
     1
102
RTVSPropertyOp49
 70
     1
102
RTVSPropertyOp50
 70
     1
102
RTVSPropertyOp51
 70
     0
102
RTVSPropertyOp52
 70
     0
102
RTVSPropertyOp53
 70
     1
102
RTVSPropertyOp54
 70
     1
102
RTVSPropertyOp55
 70
     1
102
RTVSPropertyOp56
 70
     1
102
RTVSPropertyOp57
 70
     1
102
RTVSPropertyOp58
 70
     1
102
RTVSPropertyOp59
 70
     1
102
RTVSPropertyOp60
 70
     1
102
RTVSPropertyOp61
 70
     1
102
RTVSPropertyOp62
 70
     1
  0
XRECORD
  5
448
102
{ACAD_REACTORS
330
447
102
}
330
447
100
AcDbXrecord
280
     1
102
RTVSPost2010Prop28
280
     0
102
RTVSPost2010PropOp28
 70
     1
102
RTVSPost2010Prop29
280
     1
102
RTVSPost2010PropOp29
 70
     1
102
RTVSPost2010Prop30
280
     1
102
RTVSPost2010PropOp30
 70
     1
102
RTVSPost2010Prop31
280
     0
102
RTVSPost2010PropOp31
 70
     1
102
RTVSPost2010Prop32
280
     0
102
RTVSPost2010PropOp32
 70
     1
102
RTVSPost2010Prop33
280
     0
102
RTVSPost2010PropOp33
 70
     1
102
RTVSPost2010Prop34
280
     0
102
RTVSPost2010PropOp34
 70
     1
102
RTVSPost2010Prop35
280
     0
102
RTVSPost2010PropOp35
 70
     1
102
RTVSPost2010Prop36
280
     0
102
RTVSPost2010PropOp36
 70
     1
102
RTVSPost2010Prop37
 90
       50
102
RTVSPost2010PropOp37
 70
     1
102
RTVSPost2010Prop38
140
0.0
102
RTVSPost2010PropOp38
 70
     1
102
RTVSPost2010Prop39
140
1.0
102
RTVSPost2010PropOp39
 70
     1
102
RTVSPost2010Prop40
 90
        0
102
RTVSPost2010PropOp40
 70
     1
102
RTVSPost2010Prop41ColorIndex
 90
       18
102
RTVSPost2010Prop41ColorRGB
 90
        0
102
RTVSPost2010PropOp41
 70
     1
102
RTVSPost2010Prop42
 90
       50
102
RTVSPost2010PropOp42
 70
     1
102
RTVSPost2010Prop43
 90
        3
102
RTVSPost2010PropOp43
 70
     1
102
RTVSPost2010Prop44ColorIndex
 90
        5
102
RTVSPost2010Prop44ColorRGB
 90
      255
102
RTVSPost2010PropOp44
 70
     1
102
RTVSPost2010Prop45
280
     0
102
RTVSPost2010PropOp45
 70
     1
102
RTVSPost2010Prop46
 90
       50
102
RTVSPost2010PropOp46
 70
     1
102
RTVSPost2010Prop47
 90
       50
102
RTVSPost2010PropOp47
 70
     1
102
RTVSPost2010Prop48
 90
       50
102
RTVSPost2010PropOp48
 70
     1
102
RTVSPost2010Prop49
280
     0
102
RTVSPost2010PropOp49
 70
     1
102
RTVSPost2010Prop50
 90
       50
102
RTVSPost2010PropOp50
 70
     1
102
RTVSPost2010Prop51ColorIndex
 90
      256
102
RTVSPost2010Prop51ColorRGB
 90
-16777216
102
RTVSPost2010PropOp51
 70
     0
102
RTVSPost2010Prop52
140
1.0
102
RTVSPost2010PropOp52
 70
     0
102
RTVSPost2010Prop53
 90
        2
102
RTVSPost2010PropOp53
 70
     1
102
RTVSPost2010Prop54
  1
strokes_ogs.tif
102
RTVSPost2010PropOp54
 70
     1
102
RTVSPost2010Prop55
280
     0
102
RTVSPost2010PropOp55
 70
     1
102
RTVSPost2010Prop56
140
1.0
102
RTVSPost2010PropOp56
 70
     1
102
RTVSPost2010Prop57
140
1.0
102
RTVSPost2010PropOp57
 70
     1
102
RTVSPropertyOp0
 70
     1
102
RTVSPropertyOp1
 70
     1
102
RTVSPropertyOp2
 70
     1
102
RTVSPropertyOp3
 70
     1
102
RTVSPropertyOp4
 70
     1
102
RTVSPropertyOp5
 70
     1
102
RTVSPropertyOp6
 70
     1
102
RTVSPropertyOp7
 70
     1
102
RTVSPropertyOp8
 70
     1
102
RTVSPropertyOp9
 70
     1
102
RTVSPropertyOp10
 70
     1
102
RTVSPropertyOp11
 70
     1
102
RTVSPropertyOp12
 70
     1
102
RTVSPropertyOp13
 70
     1
102
RTVSPropertyOp14
 70
     1
102
RTVSPropertyOp15
 70
     1
102
RTVSPropertyOp16
 70
     1
102
RTVSPropertyOp17
 70
     1
102
RTVSPropertyOp18
 70
     1
102
RTVSPropertyOp19
 70
     1
102
RTVSPropertyOp20
 70
     1
102
RTVSPropertyOp21
 70
     1
102
RTVSPropertyOp22
 70
     1
102
RTVSPropertyOp23
 70
     1
102
RTVSPropertyOp24
 70
     1
102
RTVSPropertyOp25
 70
     1
102
RTVSPropertyOp26
 70
     1
102
RTVSPropertyOp27
 70
     1
102
RTVSPropertyOp28
 70
     1
102
RTVSPropertyOp29
 70
     1
102
RTVSPropertyOp30
 70
     1
102
RTVSPropertyOp31
 70
     1
102
RTVSPropertyOp32
 70
     1
102
RTVSPropertyOp33
 70
     1
102
RTVSPropertyOp34
 70
     1
102
RTVSPropertyOp35
 70
     1
102
RTVSPropertyOp36
 70
     1
102
RTVSPropertyOp37
 70
     1
102
RTVSPropertyOp38
 70
     1
102
RTVSPropertyOp39
 70
     1
102
RTVSPropertyOp40
 70
     1
102
RTVSPropertyOp41
 70
     1
102
RTVSPropertyOp42
 70
     1
102
RTVSPropertyOp43
 70
     1
102
RTVSPropertyOp44
 70
     1
102
RTVSPropertyOp45
 70
     1
102
RTVSPropertyOp46
 70
     1
102
RTVSPropertyOp47
 70
     1
102
RTVSPropertyOp48
 70
     1
102
RTVSPropertyOp49
 70
     1
102
RTVSPropertyOp50
 70
     1
102
RTVSPropertyOp51
 70
     0
102
RTVSPropertyOp52
 70
     0
102
RTVSPropertyOp53
 70
     1
102
RTVSPropertyOp54
 70
     1
102
RTVSPropertyOp55
 70
     1
102
RTVSPropertyOp56
 70
     1
102
RTVSPropertyOp57
 70
     1
102
RTVSPropertyOp58
 70
     1
102
RTVSPropertyOp59
 70
     1
102
RTVSPropertyOp60
 70
     1
102
RTVSPropertyOp61
 70
     1
102
RTVSPropertyOp62
 70
     1
  0
XRECORD
  5
456
102
{ACAD_REACTORS
330
455
102
}
330
455
100
AcDbXrecord
280
     1
102
RTVSPost2010Prop28
280
     0
102
RTVSPost2010PropOp28
 70
     1
102
RTVSPost2010Prop29
280
     1
102
RTVSPost2010PropOp29
 70
     1
102
RTVSPost2010Prop30
280
     1
102
RTVSPost2010PropOp30
 70
     1
102
RTVSPost2010Prop31
280
     0
102
RTVSPost2010PropOp31
 70
     1
102
RTVSPost2010Prop32
280
     0
102
RTVSPost2010PropOp32
 70
     1
102
RTVSPost2010Prop33
280
     0
102
RTVSPost2010PropOp33
 70
     1
102
RTVSPost2010Prop34
280
     0
102
RTVSPost2010PropOp34
 70
     1
102
RTVSPost2010Prop35
280
     0
102
RTVSPost2010PropOp35
 70
     1
102
RTVSPost2010Prop36
280
     0
102
RTVSPost2010PropOp36
 70
     1
102
RTVSPost2010Prop37
 90
       50
102
RTVSPost2010PropOp37
 70
     1
102
RTVSPost2010Prop38
140
0.0
102
RTVSPost2010PropOp38
 70
     1
102
RTVSPost2010Prop39
140
1.0
102
RTVSPost2010PropOp39
 70
     1
102
RTVSPost2010Prop40
 90
        0
102
RTVSPost2010PropOp40
 70
     1
102
RTVSPost2010Prop41ColorIndex
 90
       18
102
RTVSPost2010Prop41ColorRGB
 90
        0
102
RTVSPost2010PropOp41
 70
     1
102
RTVSPost2010Prop42
 90
       50
102
RTVSPost2010PropOp42
 70
     1
102
RTVSPost2010Prop43
 90
        3
102
RTVSPost2010PropOp43
 70
     1
102
RTVSPost2010Prop44ColorIndex
 90
        5
102
RTVSPost2010Prop44ColorRGB
 90
      255
102
RTVSPost2010PropOp44
 70
     1
102
RTVSPost2010Prop45
280
     0
102
RTVSPost2010PropOp45
 70
     1
102
RTVSPost2010Prop46
 90
       50
102
RTVSPost2010PropOp46
 70
     1
102
RTVSPost2010Prop47
 90
       50
102
RTVSPost2010PropOp47
 70
     1
102
RTVSPost2010Prop48
 90
       50
102
RTVSPost2010PropOp48
 70
     1
102
RTVSPost2010Prop49
280
     0
102
RTVSPost2010PropOp49
 70
     1
102
RTVSPost2010Prop50
 90
       50
102
RTVSPost2010PropOp50
 70
     1
102
RTVSPost2010Prop51ColorIndex
 90
      256
102
RTVSPost2010Prop51ColorRGB
 90
-16777216
102
RTVSPost2010PropOp51
 70
     0
102
RTVSPost2010Prop52
140
1.0
102
RTVSPost2010PropOp52
 70
     0
102
RTVSPost2010Prop53
 90
        2
102
RTVSPost2010PropOp53
 70
     1
102
RTVSPost2010Prop54
  1
strokes_ogs.tif
102
RTVSPost2010PropOp54
 70
     1
102
RTVSPost2010Prop55
280
     0
102
RTVSPost2010PropOp55
 70
     1
102
RTVSPost2010Prop56
140
1.0
102
RTVSPost2010PropOp56
 70
     1
102
RTVSPost2010Prop57
140
1.0
102
RTVSPost2010PropOp57
 70
     1
102
RTVSPropertyOp0
 70
     1
102
RTVSPropertyOp1
 70
     1
102
RTVSPropertyOp2
 70
     1
102
RTVSPropertyOp3
 70
     1
102
RTVSPropertyOp4
 70
     1
102
RTVSPropertyOp5
 70
     1
102
RTVSPropertyOp6
 70
     1
102
RTVSPropertyOp7
 70
     1
102
RTVSPropertyOp8
 70
     1
102
RTVSPropertyOp9
 70
     1
102
RTVSPropertyOp10
 70
     1
102
RTVSPropertyOp11
 70
     1
102
RTVSPropertyOp12
 70
     1
102
RTVSPropertyOp13
 70
     1
102
RTVSPropertyOp14
 70
     1
102
RTVSPropertyOp15
 70
     1
102
RTVSPropertyOp16
 70
     1
102
RTVSPropertyOp17
 70
     1
102
RTVSPropertyOp18
 70
     1
102
RTVSPropertyOp19
 70
     1
102
RTVSPropertyOp20
 70
     1
102
RTVSPropertyOp21
 70
     1
102
RTVSPropertyOp22
 70
     1
102
RTVSPropertyOp23
 70
     1
102
RTVSPropertyOp24
 70
     1
102
RTVSPropertyOp25
 70
     1
102
RTVSPropertyOp26
 70
     1
102
RTVSPropertyOp27
 70
     1
102
RTVSPropertyOp28
 70
     1
102
RTVSPropertyOp29
 70
     1
102
RTVSPropertyOp30
 70
     1
102
RTVSPropertyOp31
 70
     1
102
RTVSPropertyOp32
 70
     1
102
RTVSPropertyOp33
 70
     1
102
RTVSPropertyOp34
 70
     1
102
RTVSPropertyOp35
 70
     1
102
RTVSPropertyOp36
 70
     1
102
RTVSPropertyOp37
 70
     1
102
RTVSPropertyOp38
 70
     1
102
RTVSPropertyOp39
 70
     1
102
RTVSPropertyOp40
 70
     1
102
RTVSPropertyOp41
 70
     1
102
RTVSPropertyOp42
 70
     1
102
RTVSPropertyOp43
 70
     1
102
RTVSPropertyOp44
 70
     1
102
RTVSPropertyOp45
 70
     1
102
RTVSPropertyOp46
 70
     1
102
RTVSPropertyOp47
 70
     1
102
RTVSPropertyOp48
 70
     1
102
RTVSPropertyOp49
 70
     1
102
RTVSPropertyOp50
 70
     1
102
RTVSPropertyOp51
 70
     0
102
RTVSPropertyOp52
 70
     0
102
RTVSPropertyOp53
 70
     1
102
RTVSPropertyOp54
 70
     1
102
RTVSPropertyOp55
 70
     1
102
RTVSPropertyOp56
 70
     1
102
RTVSPropertyOp57
 70
     1
102
RTVSPropertyOp58
 70
     1
102
RTVSPropertyOp59
 70
     1
102
RTVSPropertyOp60
 70
     1
102
RTVSPropertyOp61
 70
     1
102
RTVSPropertyOp62
 70
     1
  0
XRECORD
  5
45E
102
{ACAD_REACTORS
330
45D
102
}
330
45D
100
AcDbXrecord
280
     1
102
RTVSPost2010Prop28
280
     0
102
RTVSPost2010PropOp28
 70
     1
102
RTVSPost2010Prop29
280
     1
102
RTVSPost2010PropOp29
 70
     1
102
RTVSPost2010Prop30
280
     1
102
RTVSPost2010PropOp30
 70
     1
102
RTVSPost2010Prop31
280
     0
102
RTVSPost2010PropOp31
 70
     1
102
RTVSPost2010Prop32
280
     0
102
RTVSPost2010PropOp32
 70
     1
102
RTVSPost2010Prop33
280
     0
102
RTVSPost2010PropOp33
 70
     1
102
RTVSPost2010Prop34
280
     0
102
RTVSPost2010PropOp34
 70
     1
102
RTVSPost2010Prop35
280
     0
102
RTVSPost2010PropOp35
 70
     1
102
RTVSPost2010Prop36
280
     0
102
RTVSPost2010PropOp36
 70
     1
102
RTVSPost2010Prop37
 90
       50
102
RTVSPost2010PropOp37
 70
     1
102
RTVSPost2010Prop38
140
0.0
102
RTVSPost2010PropOp38
 70
     1
102
RTVSPost2010Prop39
140
1.0
102
RTVSPost2010PropOp39
 70
     1
102
RTVSPost2010Prop40
 90
        0
102
RTVSPost2010PropOp40
 70
     1
102
RTVSPost2010Prop41ColorIndex
 90
       18
102
RTVSPost2010Prop41ColorRGB
 90
        0
102
RTVSPost2010PropOp41
 70
     1
102
RTVSPost2010Prop42
 90
       50
102
RTVSPost2010PropOp42
 70
     1
102
RTVSPost2010Prop43
 90
        3
102
RTVSPost2010PropOp43
 70
     1
102
RTVSPost2010Prop44ColorIndex
 90
        5
102
RTVSPost2010Prop44ColorRGB
 90
      255
102
RTVSPost2010PropOp44
 70
     1
102
RTVSPost2010Prop45
280
     0
102
RTVSPost2010PropOp45
 70
     1
102
RTVSPost2010Prop46
 90
       50
102
RTVSPost2010PropOp46
 70
     1
102
RTVSPost2010Prop47
 90
       50
102
RTVSPost2010PropOp47
 70
     1
102
RTVSPost2010Prop48
 90
       50
102
RTVSPost2010PropOp48
 70
     1
102
RTVSPost2010Prop49
280
     0
102
RTVSPost2010PropOp49
 70
     1
102
RTVSPost2010Prop50
 90
       50
102
RTVSPost2010PropOp50
 70
     1
102
RTVSPost2010Prop51ColorIndex
 90
      256
102
RTVSPost2010Prop51ColorRGB
 90
-16777216
102
RTVSPost2010PropOp51
 70
     0
102
RTVSPost2010Prop52
140
1.0
102
RTVSPost2010PropOp52
 70
     0
102
RTVSPost2010Prop53
 90
        2
102
RTVSPost2010PropOp53
 70
     1
102
RTVSPost2010Prop54
  1
strokes_ogs.tif
102
RTVSPost2010PropOp54
 70
     1
102
RTVSPost2010Prop55
280
     0
102
RTVSPost2010PropOp55
 70
     1
102
RTVSPost2010Prop56
140
1.0
102
RTVSPost2010PropOp56
 70
     1
102
RTVSPost2010Prop57
140
1.0
102
RTVSPost2010PropOp57
 70
     1
102
RTVSPropertyOp0
 70
     1
102
RTVSPropertyOp1
 70
     1
102
RTVSPropertyOp2
 70
     1
102
RTVSPropertyOp3
 70
     1
102
RTVSPropertyOp4
 70
     1
102
RTVSPropertyOp5
 70
     1
102
RTVSPropertyOp6
 70
     1
102
RTVSPropertyOp7
 70
     1
102
RTVSPropertyOp8
 70
     1
102
RTVSPropertyOp9
 70
     1
102
RTVSPropertyOp10
 70
     1
102
RTVSPropertyOp11
 70
     1
102
RTVSPropertyOp12
 70
     1
102
RTVSPropertyOp13
 70
     1
102
RTVSPropertyOp14
 70
     1
102
RTVSPropertyOp15
 70
     1
102
RTVSPropertyOp16
 70
     1
102
RTVSPropertyOp17
 70
     1
102
RTVSPropertyOp18
 70
     1
102
RTVSPropertyOp19
 70
     1
102
RTVSPropertyOp20
 70
     1
102
RTVSPropertyOp21
 70
     1
102
RTVSPropertyOp22
 70
     1
102
RTVSPropertyOp23
 70
     1
102
RTVSPropertyOp24
 70
     1
102
RTVSPropertyOp25
 70
     1
102
RTVSPropertyOp26
 70
     1
102
RTVSPropertyOp27
 70
     1
102
RTVSPropertyOp28
 70
     1
102
RTVSPropertyOp29
 70
     1
102
RTVSPropertyOp30
 70
     1
102
RTVSPropertyOp31
 70
     1
102
RTVSPropertyOp32
 70
     1
102
RTVSPropertyOp33
 70
     1
102
RTVSPropertyOp34
 70
     1
102
RTVSPropertyOp35
 70
     1
102
RTVSPropertyOp36
 70
     1
102
RTVSPropertyOp37
 70
     1
102
RTVSPropertyOp38
 70
     1
102
RTVSPropertyOp39
 70
     1
102
RTVSPropertyOp40
 70
     1
102
RTVSPropertyOp41
 70
     1
102
RTVSPropertyOp42
 70
     1
102
RTVSPropertyOp43
 70
     1
102
RTVSPropertyOp44
 70
     1
102
RTVSPropertyOp45
 70
     1
102
RTVSPropertyOp46
 70
     1
102
RTVSPropertyOp47
 70
     1
102
RTVSPropertyOp48
 70
     1
102
RTVSPropertyOp49
 70
     1
102
RTVSPropertyOp50
 70
     1
102
RTVSPropertyOp51
 70
     0
102
RTVSPropertyOp52
 70
     0
102
RTVSPropertyOp53
 70
     1
102
RTVSPropertyOp54
 70
     1
102
RTVSPropertyOp55
 70
     1
102
RTVSPropertyOp56
 70
     1
102
RTVSPropertyOp57
 70
     1
102
RTVSPropertyOp58
 70
     1
102
RTVSPropertyOp59
 70
     1
102
RTVSPropertyOp60
 70
     1
102
RTVSPropertyOp61
 70
     1
102
RTVSPropertyOp62
 70
     1
  0
XRECORD
  5
450
102
{ACAD_REACTORS
330
44F
102
}
330
44F
100
AcDbXrecord
280
     1
102
RTVSPost2010Prop28
280
     0
102
RTVSPost2010PropOp28
 70
     1
102
RTVSPost2010Prop29
280
     1
102
RTVSPost2010PropOp29
 70
     1
102
RTVSPost2010Prop30
280
     1
102
RTVSPost2010PropOp30
 70
     1
102
RTVSPost2010Prop31
280
     0
102
RTVSPost2010PropOp31
 70
     1
102
RTVSPost2010Prop32
280
     0
102
RTVSPost2010PropOp32
 70
     1
102
RTVSPost2010Prop33
280
     0
102
RTVSPost2010PropOp33
 70
     1
102
RTVSPost2010Prop34
280
     0
102
RTVSPost2010PropOp34
 70
     1
102
RTVSPost2010Prop35
280
     0
102
RTVSPost2010PropOp35
 70
     1
102
RTVSPost2010Prop36
280
     0
102
RTVSPost2010PropOp36
 70
     1
102
RTVSPost2010Prop37
 90
       50
102
RTVSPost2010PropOp37
 70
     1
102
RTVSPost2010Prop38
140
0.0
102
RTVSPost2010PropOp38
 70
     1
102
RTVSPost2010Prop39
140
1.0
102
RTVSPost2010PropOp39
 70
     1
102
RTVSPost2010Prop40
 90
        0
102
RTVSPost2010PropOp40
 70
     1
102
RTVSPost2010Prop41ColorIndex
 90
       18
102
RTVSPost2010Prop41ColorRGB
 90
        0
102
RTVSPost2010PropOp41
 70
     1
102
RTVSPost2010Prop42
 90
       50
102
RTVSPost2010PropOp42
 70
     1
102
RTVSPost2010Prop43
 90
        3
102
RTVSPost2010PropOp43
 70
     1
102
RTVSPost2010Prop44ColorIndex
 90
        5
102
RTVSPost2010Prop44ColorRGB
 90
      255
102
RTVSPost2010PropOp44
 70
     1
102
RTVSPost2010Prop45
280
     0
102
RTVSPost2010PropOp45
 70
     1
102
RTVSPost2010Prop46
 90
       50
102
RTVSPost2010PropOp46
 70
     1
102
RTVSPost2010Prop47
 90
       50
102
RTVSPost2010PropOp47
 70
     1
102
RTVSPost2010Prop48
 90
       50
102
RTVSPost2010PropOp48
 70
     1
102
RTVSPost2010Prop49
280
     0
102
RTVSPost2010PropOp49
 70
     1
102
RTVSPost2010Prop50
 90
       50
102
RTVSPost2010PropOp50
 70
     1
102
RTVSPost2010Prop51ColorIndex
 90
      256
102
RTVSPost2010Prop51ColorRGB
 90
-16777216
102
RTVSPost2010PropOp51
 70
     0
102
RTVSPost2010Prop52
140
1.0
102
RTVSPost2010PropOp52
 70
     0
102
RTVSPost2010Prop53
 90
        2
102
RTVSPost2010PropOp53
 70
     1
102
RTVSPost2010Prop54
  1
strokes_ogs.tif
102
RTVSPost2010PropOp54
 70
     1
102
RTVSPost2010Prop55
280
     0
102
RTVSPost2010PropOp55
 70
     1
102
RTVSPost2010Prop56
140
1.0
102
RTVSPost2010PropOp56
 70
     1
102
RTVSPost2010Prop57
140
1.0
102
RTVSPost2010PropOp57
 70
     1
102
RTVSPropertyOp0
 70
     1
102
RTVSPropertyOp1
 70
     1
102
RTVSPropertyOp2
 70
     1
102
RTVSPropertyOp3
 70
     1
102
RTVSPropertyOp4
 70
     1
102
RTVSPropertyOp5
 70
     1
102
RTVSPropertyOp6
 70
     1
102
RTVSPropertyOp7
 70
     1
102
RTVSPropertyOp8
 70
     1
102
RTVSPropertyOp9
 70
     1
102
RTVSPropertyOp10
 70
     1
102
RTVSPropertyOp11
 70
     1
102
RTVSPropertyOp12
 70
     1
102
RTVSPropertyOp13
 70
     1
102
RTVSPropertyOp14
 70
     1
102
RTVSPropertyOp15
 70
     1
102
RTVSPropertyOp16
 70
     1
102
RTVSPropertyOp17
 70
     1
102
RTVSPropertyOp18
 70
     1
102
RTVSPropertyOp19
 70
     1
102
RTVSPropertyOp20
 70
     1
102
RTVSPropertyOp21
 70
     1
102
RTVSPropertyOp22
 70
     1
102
RTVSPropertyOp23
 70
     1
102
RTVSPropertyOp24
 70
     1
102
RTVSPropertyOp25
 70
     1
102
RTVSPropertyOp26
 70
     1
102
RTVSPropertyOp27
 70
     1
102
RTVSPropertyOp28
 70
     1
102
RTVSPropertyOp29
 70
     1
102
RTVSPropertyOp30
 70
     1
102
RTVSPropertyOp31
 70
     1
102
RTVSPropertyOp32
 70
     1
102
RTVSPropertyOp33
 70
     1
102
RTVSPropertyOp34
 70
     1
102
RTVSPropertyOp35
 70
     1
102
RTVSPropertyOp36
 70
     1
102
RTVSPropertyOp37
 70
     1
102
RTVSPropertyOp38
 70
     1
102
RTVSPropertyOp39
 70
     1
102
RTVSPropertyOp40
 70
     1
102
RTVSPropertyOp41
 70
     1
102
RTVSPropertyOp42
 70
     1
102
RTVSPropertyOp43
 70
     1
102
RTVSPropertyOp44
 70
     1
102
RTVSPropertyOp45
 70
     1
102
RTVSPropertyOp46
 70
     1
102
RTVSPropertyOp47
 70
     1
102
RTVSPropertyOp48
 70
     1
102
RTVSPropertyOp49
 70
     1
102
RTVSPropertyOp50
 70
     1
102
RTVSPropertyOp51
 70
     0
102
RTVSPropertyOp52
 70
     0
102
RTVSPropertyOp53
 70
     1
102
RTVSPropertyOp54
 70
     1
102
RTVSPropertyOp55
 70
     1
102
RTVSPropertyOp56
 70
     1
102
RTVSPropertyOp57
 70
     1
102
RTVSPropertyOp58
 70
     1
102
RTVSPropertyOp59
 70
     1
102
RTVSPropertyOp60
 70
     1
102
RTVSPropertyOp61
 70
     1
102
RTVSPropertyOp62
 70
     1
  0
XRECORD
  5
454
102
{ACAD_REACTORS
330
453
102
}
330
453
100
AcDbXrecord
280
     1
102
RTVSPost2010Prop28
280
     0
102
RTVSPost2010PropOp28
 70
     1
102
RTVSPost2010Prop29
280
     1
102
RTVSPost2010PropOp29
 70
     1
102
RTVSPost2010Prop30
280
     1
102
RTVSPost2010PropOp30
 70
     1
102
RTVSPost2010Prop31
280
     0
102
RTVSPost2010PropOp31
 70
     1
102
RTVSPost2010Prop32
280
     0
102
RTVSPost2010PropOp32
 70
     1
102
RTVSPost2010Prop33
280
     0
102
RTVSPost2010PropOp33
 70
     1
102
RTVSPost2010Prop34
280
     0
102
RTVSPost2010PropOp34
 70
     1
102
RTVSPost2010Prop35
280
     0
102
RTVSPost2010PropOp35
 70
     1
102
RTVSPost2010Prop36
280
     0
102
RTVSPost2010PropOp36
 70
     1
102
RTVSPost2010Prop37
 90
       50
102
RTVSPost2010PropOp37
 70
     1
102
RTVSPost2010Prop38
140
0.0
102
RTVSPost2010PropOp38
 70
     1
102
RTVSPost2010Prop39
140
1.0
102
RTVSPost2010PropOp39
 70
     1
102
RTVSPost2010Prop40
 90
        0
102
RTVSPost2010PropOp40
 70
     1
102
RTVSPost2010Prop41ColorIndex
 90
       18
102
RTVSPost2010Prop41ColorRGB
 90
        0
102
RTVSPost2010PropOp41
 70
     1
102
RTVSPost2010Prop42
 90
       50
102
RTVSPost2010PropOp42
 70
     1
102
RTVSPost2010Prop43
 90
        3
102
RTVSPost2010PropOp43
 70
     1
102
RTVSPost2010Prop44ColorIndex
 90
        5
102
RTVSPost2010Prop44ColorRGB
 90
      255
102
RTVSPost2010PropOp44
 70
     1
102
RTVSPost2010Prop45
280
     0
102
RTVSPost2010PropOp45
 70
     1
102
RTVSPost2010Prop46
 90
       50
102
RTVSPost2010PropOp46
 70
     1
102
RTVSPost2010Prop47
 90
       50
102
RTVSPost2010PropOp47
 70
     1
102
RTVSPost2010Prop48
 90
       50
102
RTVSPost2010PropOp48
 70
     1
102
RTVSPost2010Prop49
280
     0
102
RTVSPost2010PropOp49
 70
     1
102
RTVSPost2010Prop50
 90
       50
102
RTVSPost2010PropOp50
 70
     1
102
RTVSPost2010Prop51ColorIndex
 90
      256
102
RTVSPost2010Prop51ColorRGB
 90
-16777216
102
RTVSPost2010PropOp51
 70
     0
102
RTVSPost2010Prop52
140
1.0
102
RTVSPost2010PropOp52
 70
     0
102
RTVSPost2010Prop53
 90
        2
102
RTVSPost2010PropOp53
 70
     1
102
RTVSPost2010Prop54
  1
strokes_ogs.tif
102
RTVSPost2010PropOp54
 70
     1
102
RTVSPost2010Prop55
280
     0
102
RTVSPost2010PropOp55
 70
     1
102
RTVSPost2010Prop56
140
1.0
102
RTVSPost2010PropOp56
 70
     1
102
RTVSPost2010Prop57
140
1.0
102
RTVSPost2010PropOp57
 70
     1
102
RTVSPropertyOp0
 70
     1
102
RTVSPropertyOp1
 70
     1
102
RTVSPropertyOp2
 70
     1
102
RTVSPropertyOp3
 70
     1
102
RTVSPropertyOp4
 70
     1
102
RTVSPropertyOp5
 70
     1
102
RTVSPropertyOp6
 70
     1
102
RTVSPropertyOp7
 70
     1
102
RTVSPropertyOp8
 70
     1
102
RTVSPropertyOp9
 70
     1
102
RTVSPropertyOp10
 70
     1
102
RTVSPropertyOp11
 70
     1
102
RTVSPropertyOp12
 70
     1
102
RTVSPropertyOp13
 70
     1
102
RTVSPropertyOp14
 70
     1
102
RTVSPropertyOp15
 70
     1
102
RTVSPropertyOp16
 70
     1
102
RTVSPropertyOp17
 70
     1
102
RTVSPropertyOp18
 70
     1
102
RTVSPropertyOp19
 70
     1
102
RTVSPropertyOp20
 70
     1
102
RTVSPropertyOp21
 70
     1
102
RTVSPropertyOp22
 70
     1
102
RTVSPropertyOp23
 70
     1
102
RTVSPropertyOp24
 70
     1
102
RTVSPropertyOp25
 70
     1
102
RTVSPropertyOp26
 70
     1
102
RTVSPropertyOp27
 70
     1
102
RTVSPropertyOp28
 70
     1
102
RTVSPropertyOp29
 70
     1
102
RTVSPropertyOp30
 70
     1
102
RTVSPropertyOp31
 70
     1
102
RTVSPropertyOp32
 70
     1
102
RTVSPropertyOp33
 70
     1
102
RTVSPropertyOp34
 70
     1
102
RTVSPropertyOp35
 70
     1
102
RTVSPropertyOp36
 70
     1
102
RTVSPropertyOp37
 70
     1
102
RTVSPropertyOp38
 70
     1
102
RTVSPropertyOp39
 70
     1
102
RTVSPropertyOp40
 70
     1
102
RTVSPropertyOp41
 70
     1
102
RTVSPropertyOp42
 70
     1
102
RTVSPropertyOp43
 70
     1
102
RTVSPropertyOp44
 70
     1
102
RTVSPropertyOp45
 70
     1
102
RTVSPropertyOp46
 70
     1
102
RTVSPropertyOp47
 70
     1
102
RTVSPropertyOp48
 70
     1
102
RTVSPropertyOp49
 70
     1
102
RTVSPropertyOp50
 70
     1
102
RTVSPropertyOp51
 70
     0
102
RTVSPropertyOp52
 70
     0
102
RTVSPropertyOp53
 70
     1
102
RTVSPropertyOp54
 70
     1
102
RTVSPropertyOp55
 70
     1
102
RTVSPropertyOp56
 70
     1
102
RTVSPropertyOp57
 70
     1
102
RTVSPropertyOp58
 70
     1
102
RTVSPropertyOp59
 70
     1
102
RTVSPropertyOp60
 70
     1
102
RTVSPropertyOp61
 70
     1
102
RTVSPropertyOp62
 70
     1
  0
XRECORD
  5
46E
102
{ACAD_REACTORS
330
46D
102
}
330
46D
100
AcDbXrecord
280
     1
102
RTVSPost2010Prop28
280
     0
102
RTVSPost2010PropOp28
 70
     1
102
RTVSPost2010Prop29
280
     1
102
RTVSPost2010PropOp29
 70
     1
102
RTVSPost2010Prop30
280
     1
102
RTVSPost2010PropOp30
 70
     1
102
RTVSPost2010Prop31
280
     0
102
RTVSPost2010PropOp31
 70
     1
102
RTVSPost2010Prop32
280
     0
102
RTVSPost2010PropOp32
 70
     1
102
RTVSPost2010Prop33
280
     0
102
RTVSPost2010PropOp33
 70
     1
102
RTVSPost2010Prop34
280
     0
102
RTVSPost2010PropOp34
 70
     1
102
RTVSPost2010Prop35
280
     0
102
RTVSPost2010PropOp35
 70
     1
102
RTVSPost2010Prop36
280
     0
102
RTVSPost2010PropOp36
 70
     1
102
RTVSPost2010Prop37
 90
       50
102
RTVSPost2010PropOp37
 70
     0
102
RTVSPost2010Prop38
140
0.0
102
RTVSPost2010PropOp38
 70
     0
102
RTVSPost2010Prop39
140
1.0
102
RTVSPost2010PropOp39
 70
     0
102
RTVSPost2010Prop40
 90
        0
102
RTVSPost2010PropOp40
 70
     0
102
RTVSPost2010Prop41ColorIndex
 90
       18
102
RTVSPost2010Prop41ColorRGB
 90
        0
102
RTVSPost2010PropOp41
 70
     0
102
RTVSPost2010Prop42
 90
       50
102
RTVSPost2010PropOp42
 70
     0
102
RTVSPost2010Prop43
 90
        3
102
RTVSPost2010PropOp43
 70
     0
102
RTVSPost2010Prop44ColorIndex
 90
        5
102
RTVSPost2010Prop44ColorRGB
 90
      255
102
RTVSPost2010PropOp44
 70
     0
102
RTVSPost2010Prop45
280
     0
102
RTVSPost2010PropOp45
 70
     1
102
RTVSPost2010Prop46
 90
       50
102
RTVSPost2010PropOp46
 70
     0
102
RTVSPost2010Prop47
 90
       50
102
RTVSPost2010PropOp47
 70
     0
102
RTVSPost2010Prop48
 90
       50
102
RTVSPost2010PropOp48
 70
     0
102
RTVSPost2010Prop49
280
     0
102
RTVSPost2010PropOp49
 70
     1
102
RTVSPost2010Prop50
 90
       50
102
RTVSPost2010PropOp50
 70
     0
102
RTVSPost2010Prop51ColorIndex
 90
      256
102
RTVSPost2010Prop51ColorRGB
 90
-16777216
102
RTVSPost2010PropOp51
 70
     0
102
RTVSPost2010Prop52
140
1.0
102
RTVSPost2010PropOp52
 70
     0
102
RTVSPost2010Prop53
 90
        2
102
RTVSPost2010PropOp53
 70
     0
102
RTVSPost2010Prop54
  1
strokes_ogs.tif
102
RTVSPost2010PropOp54
 70
     0
102
RTVSPost2010Prop55
280
     0
102
RTVSPost2010PropOp55
 70
     1
102
RTVSPost2010Prop56
140
1.0
102
RTVSPost2010PropOp56
 70
     0
102
RTVSPost2010Prop57
140
1.0
102
RTVSPost2010PropOp57
 70
     0
102
RTVSPropertyOp0
 70
     0
102
RTVSPropertyOp1
 70
     0
102
RTVSPropertyOp2
 70
     0
102
RTVSPropertyOp3
 70
     0
102
RTVSPropertyOp4
 70
     0
102
RTVSPropertyOp5
 70
     0
102
RTVSPropertyOp6
 70
     0
102
RTVSPropertyOp7
 70
     0
102
RTVSPropertyOp8
 70
     0
102
RTVSPropertyOp9
 70
     0
102
RTVSPropertyOp10
 70
     0
102
RTVSPropertyOp11
 70
     0
102
RTVSPropertyOp12
 70
     0
102
RTVSPropertyOp13
 70
     0
102
RTVSPropertyOp14
 70
     2
102
RTVSPropertyOp15
 70
     0
102
RTVSPropertyOp16
 70
     0
102
RTVSPropertyOp17
 70
     0
102
RTVSPropertyOp18
 70
     0
102
RTVSPropertyOp19
 70
     0
102
RTVSPropertyOp20
 70
     0
102
RTVSPropertyOp21
 70
     0
102
RTVSPropertyOp22
 70
     0
102
RTVSPropertyOp23
 70
     0
102
RTVSPropertyOp24
 70
     0
102
RTVSPropertyOp25
 70
     0
102
RTVSPropertyOp26
 70
     0
102
RTVSPropertyOp27
 70
     0
102
RTVSPropertyOp28
 70
     1
102
RTVSPropertyOp29
 70
     1
102
RTVSPropertyOp30
 70
     1
102
RTVSPropertyOp31
 70
     1
102
RTVSPropertyOp32
 70
     1
102
RTVSPropertyOp33
 70
     1
102
RTVSPropertyOp34
 70
     1
102
RTVSPropertyOp35
 70
     1
102
RTVSPropertyOp36
 70
     1
102
RTVSPropertyOp37
 70
     0
102
RTVSPropertyOp38
 70
     0
102
RTVSPropertyOp39
 70
     0
102
RTVSPropertyOp40
 70
     0
102
RTVSPropertyOp41
 70
     0
102
RTVSPropertyOp42
 70
     0
102
RTVSPropertyOp43
 70
     0
102
RTVSPropertyOp44
 70
     0
102
RTVSPropertyOp45
 70
     1
102
RTVSPropertyOp46
 70
     0
102
RTVSPropertyOp47
 70
     0
102
RTVSPropertyOp48
 70
     0
102
RTVSPropertyOp49
 70
     1
102
RTVSPropertyOp50
 70
     0
102
RTVSPropertyOp51
 70
     0
102
RTVSPropertyOp52
 70
     0
102
RTVSPropertyOp53
 70
     0
102
RTVSPropertyOp54
 70
     0
102
RTVSPropertyOp55
 70
     1
102
RTVSPropertyOp56
 70
     0
102
RTVSPropertyOp57
 70
     0
102
RTVSPropertyOp58
 70
     0
102
RTVSPropertyOp59
 70
     0
102
RTVSPropertyOp60
 70
     0
102
RTVSPropertyOp61
 70
     0
102
RTVSPropertyOp62
 70
     0
  0
XRECORD
  5
45C
102
{ACAD_REACTORS
330
45B
102
}
330
45B
100
AcDbXrecord
280
     1
102
RTVSPost2010Prop28
280
     0
102
RTVSPost2010PropOp28
 70
     1
102
RTVSPost2010Prop29
280
     1
102
RTVSPost2010PropOp29
 70
     1
102
RTVSPost2010Prop30
280
     1
102
RTVSPost2010PropOp30
 70
     1
102
RTVSPost2010Prop31
280
     0
102
RTVSPost2010PropOp31
 70
     1
102
RTVSPost2010Prop32
280
     0
102
RTVSPost2010PropOp32
 70
     1
102
RTVSPost2010Prop33
280
     0
102
RTVSPost2010PropOp33
 70
     1
102
RTVSPost2010Prop34
280
     0
102
RTVSPost2010PropOp34
 70
     1
102
RTVSPost2010Prop35
280
     0
102
RTVSPost2010PropOp35
 70
     1
102
RTVSPost2010Prop36
280
     0
102
RTVSPost2010PropOp36
 70
     1
102
RTVSPost2010Prop37
 90
       50
102
RTVSPost2010PropOp37
 70
     1
102
RTVSPost2010Prop38
140
0.0
102
RTVSPost2010PropOp38
 70
     1
102
RTVSPost2010Prop39
140
1.0
102
RTVSPost2010PropOp39
 70
     1
102
RTVSPost2010Prop40
 90
        0
102
RTVSPost2010PropOp40
 70
     1
102
RTVSPost2010Prop41ColorIndex
 90
       18
102
RTVSPost2010Prop41ColorRGB
 90
        0
102
RTVSPost2010PropOp41
 70
     1
102
RTVSPost2010Prop42
 90
       50
102
RTVSPost2010PropOp42
 70
     1
102
RTVSPost2010Prop43
 90
        3
102
RTVSPost2010PropOp43
 70
     1
102
RTVSPost2010Prop44ColorIndex
 90
        5
102
RTVSPost2010Prop44ColorRGB
 90
      255
102
RTVSPost2010PropOp44
 70
     1
102
RTVSPost2010Prop45
280
     0
102
RTVSPost2010PropOp45
 70
     1
102
RTVSPost2010Prop46
 90
       50
102
RTVSPost2010PropOp46
 70
     1
102
RTVSPost2010Prop47
 90
       50
102
RTVSPost2010PropOp47
 70
     1
102
RTVSPost2010Prop48
 90
       50
102
RTVSPost2010PropOp48
 70
     1
102
RTVSPost2010Prop49
280
     0
102
RTVSPost2010PropOp49
 70
     1
102
RTVSPost2010Prop50
 90
       50
102
RTVSPost2010PropOp50
 70
     1
102
RTVSPost2010Prop51ColorIndex
 90
      256
102
RTVSPost2010Prop51ColorRGB
 90
-16777216
102
RTVSPost2010PropOp51
 70
     0
102
RTVSPost2010Prop52
140
1.0
102
RTVSPost2010PropOp52
 70
     0
102
RTVSPost2010Prop53
 90
        2
102
RTVSPost2010PropOp53
 70
     1
102
RTVSPost2010Prop54
  1
strokes_ogs.tif
102
RTVSPost2010PropOp54
 70
     1
102
RTVSPost2010Prop55
280
     0
102
RTVSPost2010PropOp55
 70
     1
102
RTVSPost2010Prop56
140
1.0
102
RTVSPost2010PropOp56
 70
     1
102
RTVSPost2010Prop57
140
1.0
102
RTVSPost2010PropOp57
 70
     1
102
RTVSPropertyOp0
 70
     1
102
RTVSPropertyOp1
 70
     1
102
RTVSPropertyOp2
 70
     1
102
RTVSPropertyOp3
 70
     1
102
RTVSPropertyOp4
 70
     1
102
RTVSPropertyOp5
 70
     1
102
RTVSPropertyOp6
 70
     1
102
RTVSPropertyOp7
 70
     1
102
RTVSPropertyOp8
 70
     1
102
RTVSPropertyOp9
 70
     1
102
RTVSPropertyOp10
 70
     1
102
RTVSPropertyOp11
 70
     1
102
RTVSPropertyOp12
 70
     1
102
RTVSPropertyOp13
 70
     1
102
RTVSPropertyOp14
 70
     1
102
RTVSPropertyOp15
 70
     1
102
RTVSPropertyOp16
 70
     1
102
RTVSPropertyOp17
 70
     1
102
RTVSPropertyOp18
 70
     1
102
RTVSPropertyOp19
 70
     1
102
RTVSPropertyOp20
 70
     1
102
RTVSPropertyOp21
 70
     1
102
RTVSPropertyOp22
 70
     1
102
RTVSPropertyOp23
 70
     1
102
RTVSPropertyOp24
 70
     1
102
RTVSPropertyOp25
 70
     1
102
RTVSPropertyOp26
 70
     1
102
RTVSPropertyOp27
 70
     1
102
RTVSPropertyOp28
 70
     1
102
RTVSPropertyOp29
 70
     1
102
RTVSPropertyOp30
 70
     1
102
RTVSPropertyOp31
 70
     1
102
RTVSPropertyOp32
 70
     1
102
RTVSPropertyOp33
 70
     1
102
RTVSPropertyOp34
 70
     1
102
RTVSPropertyOp35
 70
     1
102
RTVSPropertyOp36
 70
     1
102
RTVSPropertyOp37
 70
     1
102
RTVSPropertyOp38
 70
     1
102
RTVSPropertyOp39
 70
     1
102
RTVSPropertyOp40
 70
     1
102
RTVSPropertyOp41
 70
     1
102
RTVSPropertyOp42
 70
     1
102
RTVSPropertyOp43
 70
     1
102
RTVSPropertyOp44
 70
     1
102
RTVSPropertyOp45
 70
     1
102
RTVSPropertyOp46
 70
     1
102
RTVSPropertyOp47
 70
     1
102
RTVSPropertyOp48
 70
     1
102
RTVSPropertyOp49
 70
     1
102
RTVSPropertyOp50
 70
     1
102
RTVSPropertyOp51
 70
     0
102
RTVSPropertyOp52
 70
     0
102
RTVSPropertyOp53
 70
     1
102
RTVSPropertyOp54
 70
     1
102
RTVSPropertyOp55
 70
     1
102
RTVSPropertyOp56
 70
     1
102
RTVSPropertyOp57
 70
     1
102
RTVSPropertyOp58
 70
     1
102
RTVSPropertyOp59
 70
     1
102
RTVSPropertyOp60
 70
     1
102
RTVSPropertyOp61
 70
     1
102
RTVSPropertyOp62
 70
     1
  0
XRECORD
  5
440
102
{ACAD_REACTORS
330
43F
102
}
330
43F
100
AcDbXrecord
280
     1
102
RTVSPost2010Prop28
280
     0
102
RTVSPost2010PropOp28
 70
     1
102
RTVSPost2010Prop29
280
     1
102
RTVSPost2010PropOp29
 70
     1
102
RTVSPost2010Prop30
280
     1
102
RTVSPost2010PropOp30
 70
     1
102
RTVSPost2010Prop31
280
     0
102
RTVSPost2010PropOp31
 70
     1
102
RTVSPost2010Prop32
280
     0
102
RTVSPost2010PropOp32
 70
     1
102
RTVSPost2010Prop33
280
     0
102
RTVSPost2010PropOp33
 70
     1
102
RTVSPost2010Prop34
280
     0
102
RTVSPost2010PropOp34
 70
     1
102
RTVSPost2010Prop35
280
     0
102
RTVSPost2010PropOp35
 70
     1
102
RTVSPost2010Prop36
280
     0
102
RTVSPost2010PropOp36
 70
     1
102
RTVSPost2010Prop37
 90
       50
102
RTVSPost2010PropOp37
 70
     1
102
RTVSPost2010Prop38
140
0.0
102
RTVSPost2010PropOp38
 70
     1
102
RTVSPost2010Prop39
140
1.0
102
RTVSPost2010PropOp39
 70
     1
102
RTVSPost2010Prop40
 90
        0
102
RTVSPost2010PropOp40
 70
     1
102
RTVSPost2010Prop41ColorIndex
 90
       18
102
RTVSPost2010Prop41ColorRGB
 90
        0
102
RTVSPost2010PropOp41
 70
     1
102
RTVSPost2010Prop42
 90
       50
102
RTVSPost2010PropOp42
 70
     1
102
RTVSPost2010Prop43
 90
        3
102
RTVSPost2010PropOp43
 70
     1
102
RTVSPost2010Prop44ColorIndex
 90
        5
102
RTVSPost2010Prop44ColorRGB
 90
      255
102
RTVSPost2010PropOp44
 70
     1
102
RTVSPost2010Prop45
280
     0
102
RTVSPost2010PropOp45
 70
     1
102
RTVSPost2010Prop46
 90
       50
102
RTVSPost2010PropOp46
 70
     1
102
RTVSPost2010Prop47
 90
       50
102
RTVSPost2010PropOp47
 70
     1
102
RTVSPost2010Prop48
 90
       50
102
RTVSPost2010PropOp48
 70
     1
102
RTVSPost2010Prop49
280
     0
102
RTVSPost2010PropOp49
 70
     1
102
RTVSPost2010Prop50
 90
       50
102
RTVSPost2010PropOp50
 70
     1
102
RTVSPost2010Prop51ColorIndex
 90
      256
102
RTVSPost2010Prop51ColorRGB
 90
-16777216
102
RTVSPost2010PropOp51
 70
     0
102
RTVSPost2010Prop52
140
1.0
102
RTVSPost2010PropOp52
 70
     0
102
RTVSPost2010Prop53
 90
        2
102
RTVSPost2010PropOp53
 70
     1
102
RTVSPost2010Prop54
  1
strokes_ogs.tif
102
RTVSPost2010PropOp54
 70
     1
102
RTVSPost2010Prop55
280
     0
102
RTVSPost2010PropOp55
 70
     1
102
RTVSPost2010Prop56
140
1.0
102
RTVSPost2010PropOp56
 70
     1
102
RTVSPost2010Prop57
140
1.0
102
RTVSPost2010PropOp57
 70
     1
102
RTVSPropertyOp0
 70
     1
102
RTVSPropertyOp1
 70
     1
102
RTVSPropertyOp2
 70
     1
102
RTVSPropertyOp3
 70
     1
102
RTVSPropertyOp4
 70
     1
102
RTVSPropertyOp5
 70
     1
102
RTVSPropertyOp6
 70
     1
102
RTVSPropertyOp7
 70
     1
102
RTVSPropertyOp8
 70
     1
102
RTVSPropertyOp9
 70
     1
102
RTVSPropertyOp10
 70
     1
102
RTVSPropertyOp11
 70
     1
102
RTVSPropertyOp12
 70
     1
102
RTVSPropertyOp13
 70
     1
102
RTVSPropertyOp14
 70
     1
102
RTVSPropertyOp15
 70
     1
102
RTVSPropertyOp16
 70
     1
102
RTVSPropertyOp17
 70
     1
102
RTVSPropertyOp18
 70
     1
102
RTVSPropertyOp19
 70
     1
102
RTVSPropertyOp20
 70
     1
102
RTVSPropertyOp21
 70
     1
102
RTVSPropertyOp22
 70
     1
102
RTVSPropertyOp23
 70
     1
102
RTVSPropertyOp24
 70
     1
102
RTVSPropertyOp25
 70
     1
102
RTVSPropertyOp26
 70
     1
102
RTVSPropertyOp27
 70
     1
102
RTVSPropertyOp28
 70
     1
102
RTVSPropertyOp29
 70
     1
102
RTVSPropertyOp30
 70
     1
102
RTVSPropertyOp31
 70
     1
102
RTVSPropertyOp32
 70
     1
102
RTVSPropertyOp33
 70
     1
102
RTVSPropertyOp34
 70
     1
102
RTVSPropertyOp35
 70
     1
102
RTVSPropertyOp36
 70
     1
102
RTVSPropertyOp37
 70
     1
102
RTVSPropertyOp38
 70
     1
102
RTVSPropertyOp39
 70
     1
102
RTVSPropertyOp40
 70
     1
102
RTVSPropertyOp41
 70
     1
102
RTVSPropertyOp42
 70
     1
102
RTVSPropertyOp43
 70
     1
102
RTVSPropertyOp44
 70
     1
102
RTVSPropertyOp45
 70
     1
102
RTVSPropertyOp46
 70
     1
102
RTVSPropertyOp47
 70
     1
102
RTVSPropertyOp48
 70
     1
102
RTVSPropertyOp49
 70
     1
102
RTVSPropertyOp50
 70
     1
102
RTVSPropertyOp51
 70
     0
102
RTVSPropertyOp52
 70
     0
102
RTVSPropertyOp53
 70
     1
102
RTVSPropertyOp54
 70
     1
102
RTVSPropertyOp55
 70
     1
102
RTVSPropertyOp56
 70
     1
102
RTVSPropertyOp57
 70
     1
102
RTVSPropertyOp58
 70
     1
102
RTVSPropertyOp59
 70
     1
102
RTVSPropertyOp60
 70
     1
102
RTVSPropertyOp61
 70
     1
102
RTVSPropertyOp62
 70
     1
  0
XRECORD
  5
442
102
{ACAD_REACTORS
330
441
102
}
330
441
100
AcDbXrecord
280
     1
102
RTVSPost2010Prop28
280
     0
102
RTVSPost2010PropOp28
 70
     1
102
RTVSPost2010Prop29
280
     1
102
RTVSPost2010PropOp29
 70
     1
102
RTVSPost2010Prop30
280
     1
102
RTVSPost2010PropOp30
 70
     1
102
RTVSPost2010Prop31
280
     0
102
RTVSPost2010PropOp31
 70
     1
102
RTVSPost2010Prop32
280
     0
102
RTVSPost2010PropOp32
 70
     1
102
RTVSPost2010Prop33
280
     0
102
RTVSPost2010PropOp33
 70
     1
102
RTVSPost2010Prop34
280
     0
102
RTVSPost2010PropOp34
 70
     1
102
RTVSPost2010Prop35
280
     0
102
RTVSPost2010PropOp35
 70
     1
102
RTVSPost2010Prop36
280
     0
102
RTVSPost2010PropOp36
 70
     1
102
RTVSPost2010Prop37
 90
       50
102
RTVSPost2010PropOp37
 70
     1
102
RTVSPost2010Prop38
140
0.0
102
RTVSPost2010PropOp38
 70
     1
102
RTVSPost2010Prop39
140
1.0
102
RTVSPost2010PropOp39
 70
     1
102
RTVSPost2010Prop40
 90
        0
102
RTVSPost2010PropOp40
 70
     1
102
RTVSPost2010Prop41ColorIndex
 90
       18
102
RTVSPost2010Prop41ColorRGB
 90
        0
102
RTVSPost2010PropOp41
 70
     1
102
RTVSPost2010Prop42
 90
       50
102
RTVSPost2010PropOp42
 70
     1
102
RTVSPost2010Prop43
 90
        3
102
RTVSPost2010PropOp43
 70
     1
102
RTVSPost2010Prop44ColorIndex
 90
        5
102
RTVSPost2010Prop44ColorRGB
 90
      255
102
RTVSPost2010PropOp44
 70
     1
102
RTVSPost2010Prop45
280
     0
102
RTVSPost2010PropOp45
 70
     1
102
RTVSPost2010Prop46
 90
       50
102
RTVSPost2010PropOp46
 70
     1
102
RTVSPost2010Prop47
 90
       50
102
RTVSPost2010PropOp47
 70
     1
102
RTVSPost2010Prop48
 90
       50
102
RTVSPost2010PropOp48
 70
     1
102
RTVSPost2010Prop49
280
     0
102
RTVSPost2010PropOp49
 70
     1
102
RTVSPost2010Prop50
 90
       50
102
RTVSPost2010PropOp50
 70
     1
102
RTVSPost2010Prop51ColorIndex
 90
      256
102
RTVSPost2010Prop51ColorRGB
 90
-16777216
102
RTVSPost2010PropOp51
 70
     0
102
RTVSPost2010Prop52
140
1.0
102
RTVSPost2010PropOp52
 70
     0
102
RTVSPost2010Prop53
 90
        2
102
RTVSPost2010PropOp53
 70
     1
102
RTVSPost2010Prop54
  1
strokes_ogs.tif
102
RTVSPost2010PropOp54
 70
     1
102
RTVSPost2010Prop55
280
     0
102
RTVSPost2010PropOp55
 70
     1
102
RTVSPost2010Prop56
140
1.0
102
RTVSPost2010PropOp56
 70
     1
102
RTVSPost2010Prop57
140
1.0
102
RTVSPost2010PropOp57
 70
     1
102
RTVSPropertyOp0
 70
     1
102
RTVSPropertyOp1
 70
     1
102
RTVSPropertyOp2
 70
     1
102
RTVSPropertyOp3
 70
     1
102
RTVSPropertyOp4
 70
     1
102
RTVSPropertyOp5
 70
     1
102
RTVSPropertyOp6
 70
     1
102
RTVSPropertyOp7
 70
     1
102
RTVSPropertyOp8
 70
     1
102
RTVSPropertyOp9
 70
     1
102
RTVSPropertyOp10
 70
     1
102
RTVSPropertyOp11
 70
     1
102
RTVSPropertyOp12
 70
     1
102
RTVSPropertyOp13
 70
     1
102
RTVSPropertyOp14
 70
     1
102
RTVSPropertyOp15
 70
     1
102
RTVSPropertyOp16
 70
     1
102
RTVSPropertyOp17
 70
     1
102
RTVSPropertyOp18
 70
     1
102
RTVSPropertyOp19
 70
     1
102
RTVSPropertyOp20
 70
     1
102
RTVSPropertyOp21
 70
     1
102
RTVSPropertyOp22
 70
     1
102
RTVSPropertyOp23
 70
     1
102
RTVSPropertyOp24
 70
     1
102
RTVSPropertyOp25
 70
     1
102
RTVSPropertyOp26
 70
     1
102
RTVSPropertyOp27
 70
     1
102
RTVSPropertyOp28
 70
     1
102
RTVSPropertyOp29
 70
     1
102
RTVSPropertyOp30
 70
     1
102
RTVSPropertyOp31
 70
     1
102
RTVSPropertyOp32
 70
     1
102
RTVSPropertyOp33
 70
     1
102
RTVSPropertyOp34
 70
     1
102
RTVSPropertyOp35
 70
     1
102
RTVSPropertyOp36
 70
     1
102
RTVSPropertyOp37
 70
     1
102
RTVSPropertyOp38
 70
     1
102
RTVSPropertyOp39
 70
     1
102
RTVSPropertyOp40
 70
     1
102
RTVSPropertyOp41
 70
     1
102
RTVSPropertyOp42
 70
     1
102
RTVSPropertyOp43
 70
     1
102
RTVSPropertyOp44
 70
     1
102
RTVSPropertyOp45
 70
     1
102
RTVSPropertyOp46
 70
     1
102
RTVSPropertyOp47
 70
     1
102
RTVSPropertyOp48
 70
     1
102
RTVSPropertyOp49
 70
     1
102
RTVSPropertyOp50
 70
     1
102
RTVSPropertyOp51
 70
     0
102
RTVSPropertyOp52
 70
     0
102
RTVSPropertyOp53
 70
     1
102
RTVSPropertyOp54
 70
     1
102
RTVSPropertyOp55
 70
     1
102
RTVSPropertyOp56
 70
     1
102
RTVSPropertyOp57
 70
     1
102
RTVSPropertyOp58
 70
     1
102
RTVSPropertyOp59
 70
     1
102
RTVSPropertyOp60
 70
     1
102
RTVSPropertyOp61
 70
     1
102
RTVSPropertyOp62
 70
     1
  0
XRECORD
  5
444
102
{ACAD_REACTORS
330
443
102
}
330
443
100
AcDbXrecord
280
     1
102
RTVSPost2010Prop28
280
     0
102
RTVSPost2010PropOp28
 70
     1
102
RTVSPost2010Prop29
280
     1
102
RTVSPost2010PropOp29
 70
     1
102
RTVSPost2010Prop30
280
     1
102
RTVSPost2010PropOp30
 70
     1
102
RTVSPost2010Prop31
280
     0
102
RTVSPost2010PropOp31
 70
     1
102
RTVSPost2010Prop32
280
     0
102
RTVSPost2010PropOp32
 70
     1
102
RTVSPost2010Prop33
280
     0
102
RTVSPost2010PropOp33
 70
     1
102
RTVSPost2010Prop34
280
     0
102
RTVSPost2010PropOp34
 70
     1
102
RTVSPost2010Prop35
280
     0
102
RTVSPost2010PropOp35
 70
     1
102
RTVSPost2010Prop36
280
     0
102
RTVSPost2010PropOp36
 70
     1
102
RTVSPost2010Prop37
 90
       50
102
RTVSPost2010PropOp37
 70
     1
102
RTVSPost2010Prop38
140
0.0
102
RTVSPost2010PropOp38
 70
     1
102
RTVSPost2010Prop39
140
1.0
102
RTVSPost2010PropOp39
 70
     1
102
RTVSPost2010Prop40
 90
        0
102
RTVSPost2010PropOp40
 70
     1
102
RTVSPost2010Prop41ColorIndex
 90
       18
102
RTVSPost2010Prop41ColorRGB
 90
        0
102
RTVSPost2010PropOp41
 70
     1
102
RTVSPost2010Prop42
 90
       50
102
RTVSPost2010PropOp42
 70
     1
102
RTVSPost2010Prop43
 90
        3
102
RTVSPost2010PropOp43
 70
     1
102
RTVSPost2010Prop44ColorIndex
 90
        5
102
RTVSPost2010Prop44ColorRGB
 90
      255
102
RTVSPost2010PropOp44
 70
     1
102
RTVSPost2010Prop45
280
     0
102
RTVSPost2010PropOp45
 70
     1
102
RTVSPost2010Prop46
 90
       50
102
RTVSPost2010PropOp46
 70
     1
102
RTVSPost2010Prop47
 90
       50
102
RTVSPost2010PropOp47
 70
     1
102
RTVSPost2010Prop48
 90
       50
102
RTVSPost2010PropOp48
 70
     1
102
RTVSPost2010Prop49
280
     0
102
RTVSPost2010PropOp49
 70
     1
102
RTVSPost2010Prop50
 90
       50
102
RTVSPost2010PropOp50
 70
     1
102
RTVSPost2010Prop51ColorIndex
 90
      256
102
RTVSPost2010Prop51ColorRGB
 90
-16777216
102
RTVSPost2010PropOp51
 70
     0
102
RTVSPost2010Prop52
140
1.0
102
RTVSPost2010PropOp52
 70
     0
102
RTVSPost2010Prop53
 90
        2
102
RTVSPost2010PropOp53
 70
     1
102
RTVSPost2010Prop54
  1
strokes_ogs.tif
102
RTVSPost2010PropOp54
 70
     1
102
RTVSPost2010Prop55
280
     0
102
RTVSPost2010PropOp55
 70
     1
102
RTVSPost2010Prop56
140
1.0
102
RTVSPost2010PropOp56
 70
     1
102
RTVSPost2010Prop57
140
1.0
102
RTVSPost2010PropOp57
 70
     1
102
RTVSPropertyOp0
 70
     1
102
RTVSPropertyOp1
 70
     1
102
RTVSPropertyOp2
 70
     1
102
RTVSPropertyOp3
 70
     1
102
RTVSPropertyOp4
 70
     1
102
RTVSPropertyOp5
 70
     1
102
RTVSPropertyOp6
 70
     1
102
RTVSPropertyOp7
 70
     1
102
RTVSPropertyOp8
 70
     1
102
RTVSPropertyOp9
 70
     1
102
RTVSPropertyOp10
 70
     1
102
RTVSPropertyOp11
 70
     1
102
RTVSPropertyOp12
 70
     1
102
RTVSPropertyOp13
 70
     1
102
RTVSPropertyOp14
 70
     1
102
RTVSPropertyOp15
 70
     1
102
RTVSPropertyOp16
 70
     1
102
RTVSPropertyOp17
 70
     1
102
RTVSPropertyOp18
 70
     1
102
RTVSPropertyOp19
 70
     1
102
RTVSPropertyOp20
 70
     1
102
RTVSPropertyOp21
 70
     1
102
RTVSPropertyOp22
 70
     1
102
RTVSPropertyOp23
 70
     1
102
RTVSPropertyOp24
 70
     1
102
RTVSPropertyOp25
 70
     1
102
RTVSPropertyOp26
 70
     1
102
RTVSPropertyOp27
 70
     1
102
RTVSPropertyOp28
 70
     1
102
RTVSPropertyOp29
 70
     1
102
RTVSPropertyOp30
 70
     1
102
RTVSPropertyOp31
 70
     1
102
RTVSPropertyOp32
 70
     1
102
RTVSPropertyOp33
 70
     1
102
RTVSPropertyOp34
 70
     1
102
RTVSPropertyOp35
 70
     1
102
RTVSPropertyOp36
 70
     1
102
RTVSPropertyOp37
 70
     1
102
RTVSPropertyOp38
 70
     1
102
RTVSPropertyOp39
 70
     1
102
RTVSPropertyOp40
 70
     1
102
RTVSPropertyOp41
 70
     1
102
RTVSPropertyOp42
 70
     1
102
RTVSPropertyOp43
 70
     1
102
RTVSPropertyOp44
 70
     1
102
RTVSPropertyOp45
 70
     1
102
RTVSPropertyOp46
 70
     1
102
RTVSPropertyOp47
 70
     1
102
RTVSPropertyOp48
 70
     1
102
RTVSPropertyOp49
 70
     1
102
RTVSPropertyOp50
 70
     1
102
RTVSPropertyOp51
 70
     0
102
RTVSPropertyOp52
 70
     0
102
RTVSPropertyOp53
 70
     1
102
RTVSPropertyOp54
 70
     1
102
RTVSPropertyOp55
 70
     1
102
RTVSPropertyOp56
 70
     1
102
RTVSPropertyOp57
 70
     1
102
RTVSPropertyOp58
 70
     1
102
RTVSPropertyOp59
 70
     1
102
RTVSPropertyOp60
 70
     1
102
RTVSPropertyOp61
 70
     1
102
RTVSPropertyOp62
 70
     1
  0
XRECORD
  5
446
102
{ACAD_REACTORS
330
445
102
}
330
445
100
AcDbXrecord
280
     1
102
RTVSPost2010Prop28
280
     0
102
RTVSPost2010PropOp28
 70
     1
102
RTVSPost2010Prop29
280
     1
102
RTVSPost2010PropOp29
 70
     1
102
RTVSPost2010Prop30
280
     1
102
RTVSPost2010PropOp30
 70
     1
102
RTVSPost2010Prop31
280
     0
102
RTVSPost2010PropOp31
 70
     1
102
RTVSPost2010Prop32
280
     0
102
RTVSPost2010PropOp32
 70
     1
102
RTVSPost2010Prop33
280
     0
102
RTVSPost2010PropOp33
 70
     1
102
RTVSPost2010Prop34
280
     0
102
RTVSPost2010PropOp34
 70
     1
102
RTVSPost2010Prop35
280
     0
102
RTVSPost2010PropOp35
 70
     1
102
RTVSPost2010Prop36
280
     0
102
RTVSPost2010PropOp36
 70
     1
102
RTVSPost2010Prop37
 90
       50
102
RTVSPost2010PropOp37
 70
     1
102
RTVSPost2010Prop38
140
0.0
102
RTVSPost2010PropOp38
 70
     1
102
RTVSPost2010Prop39
140
1.0
102
RTVSPost2010PropOp39
 70
     1
102
RTVSPost2010Prop40
 90
        0
102
RTVSPost2010PropOp40
 70
     1
102
RTVSPost2010Prop41ColorIndex
 90
       18
102
RTVSPost2010Prop41ColorRGB
 90
        0
102
RTVSPost2010PropOp41
 70
     1
102
RTVSPost2010Prop42
 90
       50
102
RTVSPost2010PropOp42
 70
     1
102
RTVSPost2010Prop43
 90
        3
102
RTVSPost2010PropOp43
 70
     1
102
RTVSPost2010Prop44ColorIndex
 90
        5
102
RTVSPost2010Prop44ColorRGB
 90
      255
102
RTVSPost2010PropOp44
 70
     1
102
RTVSPost2010Prop45
280
     0
102
RTVSPost2010PropOp45
 70
     1
102
RTVSPost2010Prop46
 90
       50
102
RTVSPost2010PropOp46
 70
     1
102
RTVSPost2010Prop47
 90
       50
102
RTVSPost2010PropOp47
 70
     1
102
RTVSPost2010Prop48
 90
       50
102
RTVSPost2010PropOp48
 70
     1
102
RTVSPost2010Prop49
280
     0
102
RTVSPost2010PropOp49
 70
     1
102
RTVSPost2010Prop50
 90
       50
102
RTVSPost2010PropOp50
 70
     1
102
RTVSPost2010Prop51ColorIndex
 90
      256
102
RTVSPost2010Prop51ColorRGB
 90
-16777216
102
RTVSPost2010PropOp51
 70
     0
102
RTVSPost2010Prop52
140
1.0
102
RTVSPost2010PropOp52
 70
     0
102
RTVSPost2010Prop53
 90
        2
102
RTVSPost2010PropOp53
 70
     1
102
RTVSPost2010Prop54
  1
strokes_ogs.tif
102
RTVSPost2010PropOp54
 70
     1
102
RTVSPost2010Prop55
280
     0
102
RTVSPost2010PropOp55
 70
     1
102
RTVSPost2010Prop56
140
1.0
102
RTVSPost2010PropOp56
 70
     1
102
RTVSPost2010Prop57
140
1.0
102
RTVSPost2010PropOp57
 70
     1
102
RTVSPropertyOp0
 70
     1
102
RTVSPropertyOp1
 70
     1
102
RTVSPropertyOp2
 70
     1
102
RTVSPropertyOp3
 70
     1
102
RTVSPropertyOp4
 70
     1
102
RTVSPropertyOp5
 70
     1
102
RTVSPropertyOp6
 70
     1
102
RTVSPropertyOp7
 70
     1
102
RTVSPropertyOp8
 70
     1
102
RTVSPropertyOp9
 70
     1
102
RTVSPropertyOp10
 70
     1
102
RTVSPropertyOp11
 70
     1
102
RTVSPropertyOp12
 70
     1
102
RTVSPropertyOp13
 70
     1
102
RTVSPropertyOp14
 70
     1
102
RTVSPropertyOp15
 70
     1
102
RTVSPropertyOp16
 70
     1
102
RTVSPropertyOp17
 70
     1
102
RTVSPropertyOp18
 70
     1
102
RTVSPropertyOp19
 70
     1
102
RTVSPropertyOp20
 70
     1
102
RTVSPropertyOp21
 70
     1
102
RTVSPropertyOp22
 70
     1
102
RTVSPropertyOp23
 70
     1
102
RTVSPropertyOp24
 70
     1
102
RTVSPropertyOp25
 70
     1
102
RTVSPropertyOp26
 70
     1
102
RTVSPropertyOp27
 70
     1
102
RTVSPropertyOp28
 70
     1
102
RTVSPropertyOp29
 70
     1
102
RTVSPropertyOp30
 70
     1
102
RTVSPropertyOp31
 70
     1
102
RTVSPropertyOp32
 70
     1
102
RTVSPropertyOp33
 70
     1
102
RTVSPropertyOp34
 70
     1
102
RTVSPropertyOp35
 70
     1
102
RTVSPropertyOp36
 70
     1
102
RTVSPropertyOp37
 70
     1
102
RTVSPropertyOp38
 70
     1
102
RTVSPropertyOp39
 70
     1
102
RTVSPropertyOp40
 70
     1
102
RTVSPropertyOp41
 70
     1
102
RTVSPropertyOp42
 70
     1
102
RTVSPropertyOp43
 70
     1
102
RTVSPropertyOp44
 70
     1
102
RTVSPropertyOp45
 70
     1
102
RTVSPropertyOp46
 70
     1
102
RTVSPropertyOp47
 70
     1
102
RTVSPropertyOp48
 70
     1
102
RTVSPropertyOp49
 70
     1
102
RTVSPropertyOp50
 70
     1
102
RTVSPropertyOp51
 70
     0
102
RTVSPropertyOp52
 70
     0
102
RTVSPropertyOp53
 70
     1
102
RTVSPropertyOp54
 70
     1
102
RTVSPropertyOp55
 70
     1
102
RTVSPropertyOp56
 70
     1
102
RTVSPropertyOp57
 70
     1
102
RTVSPropertyOp58
 70
     1
102
RTVSPropertyOp59
 70
     1
102
RTVSPropertyOp60
 70
     1
102
RTVSPropertyOp61
 70
     1
102
RTVSPropertyOp62
 70
     1
  0
XRECORD
  5
44E
102
{ACAD_REACTORS
330
44D
102
}
330
44D
100
AcDbXrecord
280
     1
102
RTVSPost2010Prop28
280
     0
102
RTVSPost2010PropOp28
 70
     1
102
RTVSPost2010Prop29
280
     1
102
RTVSPost2010PropOp29
 70
     1
102
RTVSPost2010Prop30
280
     1
102
RTVSPost2010PropOp30
 70
     1
102
RTVSPost2010Prop31
280
     0
102
RTVSPost2010PropOp31
 70
     1
102
RTVSPost2010Prop32
280
     0
102
RTVSPost2010PropOp32
 70
     1
102
RTVSPost2010Prop33
280
     0
102
RTVSPost2010PropOp33
 70
     1
102
RTVSPost2010Prop34
280
     0
102
RTVSPost2010PropOp34
 70
     1
102
RTVSPost2010Prop35
280
     0
102
RTVSPost2010PropOp35
 70
     1
102
RTVSPost2010Prop36
280
     0
102
RTVSPost2010PropOp36
 70
     1
102
RTVSPost2010Prop37
 90
       50
102
RTVSPost2010PropOp37
 70
     1
102
RTVSPost2010Prop38
140
0.0
102
RTVSPost2010PropOp38
 70
     1
102
RTVSPost2010Prop39
140
1.0
102
RTVSPost2010PropOp39
 70
     1
102
RTVSPost2010Prop40
 90
        0
102
RTVSPost2010PropOp40
 70
     1
102
RTVSPost2010Prop41ColorIndex
 90
       18
102
RTVSPost2010Prop41ColorRGB
 90
        0
102
RTVSPost2010PropOp41
 70
     1
102
RTVSPost2010Prop42
 90
       50
102
RTVSPost2010PropOp42
 70
     1
102
RTVSPost2010Prop43
 90
        3
102
RTVSPost2010PropOp43
 70
     1
102
RTVSPost2010Prop44ColorIndex
 90
        5
102
RTVSPost2010Prop44ColorRGB
 90
      255
102
RTVSPost2010PropOp44
 70
     1
102
RTVSPost2010Prop45
280
     0
102
RTVSPost2010PropOp45
 70
     1
102
RTVSPost2010Prop46
 90
       50
102
RTVSPost2010PropOp46
 70
     1
102
RTVSPost2010Prop47
 90
       50
102
RTVSPost2010PropOp47
 70
     1
102
RTVSPost2010Prop48
 90
       50
102
RTVSPost2010PropOp48
 70
     1
102
RTVSPost2010Prop49
280
     0
102
RTVSPost2010PropOp49
 70
     1
102
RTVSPost2010Prop50
 90
       50
102
RTVSPost2010PropOp50
 70
     1
102
RTVSPost2010Prop51ColorIndex
 90
      256
102
RTVSPost2010Prop51ColorRGB
 90
-16777216
102
RTVSPost2010PropOp51
 70
     0
102
RTVSPost2010Prop52
140
1.0
102
RTVSPost2010PropOp52
 70
     0
102
RTVSPost2010Prop53
 90
        2
102
RTVSPost2010PropOp53
 70
     1
102
RTVSPost2010Prop54
  1
strokes_ogs.tif
102
RTVSPost2010PropOp54
 70
     1
102
RTVSPost2010Prop55
280
     0
102
RTVSPost2010PropOp55
 70
     1
102
RTVSPost2010Prop56
140
1.0
102
RTVSPost2010PropOp56
 70
     1
102
RTVSPost2010Prop57
140
1.0
102
RTVSPost2010PropOp57
 70
     1
102
RTVSPropertyOp0
 70
     1
102
RTVSPropertyOp1
 70
     1
102
RTVSPropertyOp2
 70
     1
102
RTVSPropertyOp3
 70
     1
102
RTVSPropertyOp4
 70
     1
102
RTVSPropertyOp5
 70
     1
102
RTVSPropertyOp6
 70
     1
102
RTVSPropertyOp7
 70
     1
102
RTVSPropertyOp8
 70
     1
102
RTVSPropertyOp9
 70
     1
102
RTVSPropertyOp10
 70
     1
102
RTVSPropertyOp11
 70
     1
102
RTVSPropertyOp12
 70
     1
102
RTVSPropertyOp13
 70
     1
102
RTVSPropertyOp14
 70
     1
102
RTVSPropertyOp15
 70
     1
102
RTVSPropertyOp16
 70
     1
102
RTVSPropertyOp17
 70
     1
102
RTVSPropertyOp18
 70
     1
102
RTVSPropertyOp19
 70
     1
102
RTVSPropertyOp20
 70
     1
102
RTVSPropertyOp21
 70
     1
102
RTVSPropertyOp22
 70
     1
102
RTVSPropertyOp23
 70
     1
102
RTVSPropertyOp24
 70
     1
102
RTVSPropertyOp25
 70
     1
102
RTVSPropertyOp26
 70
     1
102
RTVSPropertyOp27
 70
     1
102
RTVSPropertyOp28
 70
     1
102
RTVSPropertyOp29
 70
     1
102
RTVSPropertyOp30
 70
     1
102
RTVSPropertyOp31
 70
     1
102
RTVSPropertyOp32
 70
     1
102
RTVSPropertyOp33
 70
     1
102
RTVSPropertyOp34
 70
     1
102
RTVSPropertyOp35
 70
     1
102
RTVSPropertyOp36
 70
     1
102
RTVSPropertyOp37
 70
     1
102
RTVSPropertyOp38
 70
     1
102
RTVSPropertyOp39
 70
     1
102
RTVSPropertyOp40
 70
     1
102
RTVSPropertyOp41
 70
     1
102
RTVSPropertyOp42
 70
     1
102
RTVSPropertyOp43
 70
     1
102
RTVSPropertyOp44
 70
     1
102
RTVSPropertyOp45
 70
     1
102
RTVSPropertyOp46
 70
     1
102
RTVSPropertyOp47
 70
     1
102
RTVSPropertyOp48
 70
     1
102
RTVSPropertyOp49
 70
     1
102
RTVSPropertyOp50
 70
     1
102
RTVSPropertyOp51
 70
     0
102
RTVSPropertyOp52
 70
     0
102
RTVSPropertyOp53
 70
     1
102
RTVSPropertyOp54
 70
     1
102
RTVSPropertyOp55
 70
     1
102
RTVSPropertyOp56
 70
     1
102
RTVSPropertyOp57
 70
     1
102
RTVSPropertyOp58
 70
     1
102
RTVSPropertyOp59
 70
     1
102
RTVSPropertyOp60
 70
     1
102
RTVSPropertyOp61
 70
     1
102
RTVSPropertyOp62
 70
     1
  0
XRECORD
  5
46A
102
{ACAD_REACTORS
330
469
102
}
330
469
100
AcDbXrecord
280
     1
102
RTVSPost2010Prop28
280
     0
102
RTVSPost2010PropOp28
 70
     1
102
RTVSPost2010Prop29
280
     1
102
RTVSPost2010PropOp29
 70
     1
102
RTVSPost2010Prop30
280
     1
102
RTVSPost2010PropOp30
 70
     1
102
RTVSPost2010Prop31
280
     0
102
RTVSPost2010PropOp31
 70
     1
102
RTVSPost2010Prop32
280
     0
102
RTVSPost2010PropOp32
 70
     1
102
RTVSPost2010Prop33
280
     0
102
RTVSPost2010PropOp33
 70
     1
102
RTVSPost2010Prop34
280
     0
102
RTVSPost2010PropOp34
 70
     1
102
RTVSPost2010Prop35
280
     0
102
RTVSPost2010PropOp35
 70
     1
102
RTVSPost2010Prop36
280
     0
102
RTVSPost2010PropOp36
 70
     1
102
RTVSPost2010Prop37
 90
       50
102
RTVSPost2010PropOp37
 70
     0
102
RTVSPost2010Prop38
140
0.0
102
RTVSPost2010PropOp38
 70
     0
102
RTVSPost2010Prop39
140
1.0
102
RTVSPost2010PropOp39
 70
     0
102
RTVSPost2010Prop40
 90
        0
102
RTVSPost2010PropOp40
 70
     0
102
RTVSPost2010Prop41ColorIndex
 90
       18
102
RTVSPost2010Prop41ColorRGB
 90
        0
102
RTVSPost2010PropOp41
 70
     0
102
RTVSPost2010Prop42
 90
       50
102
RTVSPost2010PropOp42
 70
     0
102
RTVSPost2010Prop43
 90
        3
102
RTVSPost2010PropOp43
 70
     0
102
RTVSPost2010Prop44ColorIndex
 90
        5
102
RTVSPost2010Prop44ColorRGB
 90
      255
102
RTVSPost2010PropOp44
 70
     0
102
RTVSPost2010Prop45
280
     0
102
RTVSPost2010PropOp45
 70
     1
102
RTVSPost2010Prop46
 90
       50
102
RTVSPost2010PropOp46
 70
     0
102
RTVSPost2010Prop47
 90
       50
102
RTVSPost2010PropOp47
 70
     0
102
RTVSPost2010Prop48
 90
       50
102
RTVSPost2010PropOp48
 70
     0
102
RTVSPost2010Prop49
280
     0
102
RTVSPost2010PropOp49
 70
     1
102
RTVSPost2010Prop50
 90
       50
102
RTVSPost2010PropOp50
 70
     0
102
RTVSPost2010Prop51ColorIndex
 90
      256
102
RTVSPost2010Prop51ColorRGB
 90
-16777216
102
RTVSPost2010PropOp51
 70
     0
102
RTVSPost2010Prop52
140
1.0
102
RTVSPost2010PropOp52
 70
     0
102
RTVSPost2010Prop53
 90
        2
102
RTVSPost2010PropOp53
 70
     0
102
RTVSPost2010Prop54
  1
strokes_ogs.tif
102
RTVSPost2010PropOp54
 70
     0
102
RTVSPost2010Prop55
280
     0
102
RTVSPost2010PropOp55
 70
     1
102
RTVSPost2010Prop56
140
1.0
102
RTVSPost2010PropOp56
 70
     0
102
RTVSPost2010Prop57
140
1.0
102
RTVSPost2010PropOp57
 70
     0
102
RTVSPropertyOp0
 70
     0
102
RTVSPropertyOp1
 70
     0
102
RTVSPropertyOp2
 70
     0
102
RTVSPropertyOp3
 70
     0
102
RTVSPropertyOp4
 70
     0
102
RTVSPropertyOp5
 70
     0
102
RTVSPropertyOp6
 70
     0
102
RTVSPropertyOp7
 70
     0
102
RTVSPropertyOp8
 70
     0
102
RTVSPropertyOp9
 70
     0
102
RTVSPropertyOp10
 70
     0
102
RTVSPropertyOp11
 70
     0
102
RTVSPropertyOp12
 70
     0
102
RTVSPropertyOp13
 70
     0
102
RTVSPropertyOp14
 70
     2
102
RTVSPropertyOp15
 70
     0
102
RTVSPropertyOp16
 70
     0
102
RTVSPropertyOp17
 70
     0
102
RTVSPropertyOp18
 70
     0
102
RTVSPropertyOp19
 70
     0
102
RTVSPropertyOp20
 70
     0
102
RTVSPropertyOp21
 70
     0
102
RTVSPropertyOp22
 70
     0
102
RTVSPropertyOp23
 70
     0
102
RTVSPropertyOp24
 70
     0
102
RTVSPropertyOp25
 70
     0
102
RTVSPropertyOp26
 70
     0
102
RTVSPropertyOp27
 70
     0
102
RTVSPropertyOp28
 70
     1
102
RTVSPropertyOp29
 70
     1
102
RTVSPropertyOp30
 70
     1
102
RTVSPropertyOp31
 70
     1
102
RTVSPropertyOp32
 70
     1
102
RTVSPropertyOp33
 70
     1
102
RTVSPropertyOp34
 70
     1
102
RTVSPropertyOp35
 70
     1
102
RTVSPropertyOp36
 70
     1
102
RTVSPropertyOp37
 70
     0
102
RTVSPropertyOp38
 70
     0
102
RTVSPropertyOp39
 70
     0
102
RTVSPropertyOp40
 70
     0
102
RTVSPropertyOp41
 70
     0
102
RTVSPropertyOp42
 70
     0
102
RTVSPropertyOp43
 70
     0
102
RTVSPropertyOp44
 70
     0
102
RTVSPropertyOp45
 70
     1
102
RTVSPropertyOp46
 70
     0
102
RTVSPropertyOp47
 70
     0
102
RTVSPropertyOp48
 70
     0
102
RTVSPropertyOp49
 70
     1
102
RTVSPropertyOp50
 70
     0
102
RTVSPropertyOp51
 70
     0
102
RTVSPropertyOp52
 70
     0
102
RTVSPropertyOp53
 70
     0
102
RTVSPropertyOp54
 70
     0
102
RTVSPropertyOp55
 70
     1
102
RTVSPropertyOp56
 70
     0
102
RTVSPropertyOp57
 70
     0
102
RTVSPropertyOp58
 70
     0
102
RTVSPropertyOp59
 70
     0
102
RTVSPropertyOp60
 70
     0
102
RTVSPropertyOp61
 70
     0
102
RTVSPropertyOp62
 70
     0
  0
XRECORD
  5
45A
102
{ACAD_REACTORS
330
459
102
}
330
459
100
AcDbXrecord
280
     1
102
RTVSPost2010Prop28
280
     0
102
RTVSPost2010PropOp28
 70
     1
102
RTVSPost2010Prop29
280
     1
102
RTVSPost2010PropOp29
 70
     1
102
RTVSPost2010Prop30
280
     1
102
RTVSPost2010PropOp30
 70
     1
102
RTVSPost2010Prop31
280
     0
102
RTVSPost2010PropOp31
 70
     1
102
RTVSPost2010Prop32
280
     0
102
RTVSPost2010PropOp32
 70
     1
102
RTVSPost2010Prop33
280
     0
102
RTVSPost2010PropOp33
 70
     1
102
RTVSPost2010Prop34
280
     0
102
RTVSPost2010PropOp34
 70
     1
102
RTVSPost2010Prop35
280
     0
102
RTVSPost2010PropOp35
 70
     1
102
RTVSPost2010Prop36
280
     0
102
RTVSPost2010PropOp36
 70
     1
102
RTVSPost2010Prop37
 90
       50
102
RTVSPost2010PropOp37
 70
     1
102
RTVSPost2010Prop38
140
0.0
102
RTVSPost2010PropOp38
 70
     1
102
RTVSPost2010Prop39
140
1.0
102
RTVSPost2010PropOp39
 70
     1
102
RTVSPost2010Prop40
 90
        0
102
RTVSPost2010PropOp40
 70
     1
102
RTVSPost2010Prop41ColorIndex
 90
       18
102
RTVSPost2010Prop41ColorRGB
 90
        0
102
RTVSPost2010PropOp41
 70
     1
102
RTVSPost2010Prop42
 90
       50
102
RTVSPost2010PropOp42
 70
     1
102
RTVSPost2010Prop43
 90
        3
102
RTVSPost2010PropOp43
 70
     1
102
RTVSPost2010Prop44ColorIndex
 90
        5
102
RTVSPost2010Prop44ColorRGB
 90
      255
102
RTVSPost2010PropOp44
 70
     1
102
RTVSPost2010Prop45
280
     0
102
RTVSPost2010PropOp45
 70
     1
102
RTVSPost2010Prop46
 90
       50
102
RTVSPost2010PropOp46
 70
     1
102
RTVSPost2010Prop47
 90
       50
102
RTVSPost2010PropOp47
 70
     1
102
RTVSPost2010Prop48
 90
       50
102
RTVSPost2010PropOp48
 70
     1
102
RTVSPost2010Prop49
280
     0
102
RTVSPost2010PropOp49
 70
     1
102
RTVSPost2010Prop50
 90
       50
102
RTVSPost2010PropOp50
 70
     1
102
RTVSPost2010Prop51ColorIndex
 90
      256
102
RTVSPost2010Prop51ColorRGB
 90
-16777216
102
RTVSPost2010PropOp51
 70
     0
102
RTVSPost2010Prop52
140
1.0
102
RTVSPost2010PropOp52
 70
     0
102
RTVSPost2010Prop53
 90
        2
102
RTVSPost2010PropOp53
 70
     1
102
RTVSPost2010Prop54
  1
strokes_ogs.tif
102
RTVSPost2010PropOp54
 70
     1
102
RTVSPost2010Prop55
280
     0
102
RTVSPost2010PropOp55
 70
     1
102
RTVSPost2010Prop56
140
1.0
102
RTVSPost2010PropOp56
 70
     1
102
RTVSPost2010Prop57
140
1.0
102
RTVSPost2010PropOp57
 70
     1
102
RTVSPropertyOp0
 70
     1
102
RTVSPropertyOp1
 70
     1
102
RTVSPropertyOp2
 70
     1
102
RTVSPropertyOp3
 70
     1
102
RTVSPropertyOp4
 70
     1
102
RTVSPropertyOp5
 70
     1
102
RTVSPropertyOp6
 70
     1
102
RTVSPropertyOp7
 70
     1
102
RTVSPropertyOp8
 70
     1
102
RTVSPropertyOp9
 70
     1
102
RTVSPropertyOp10
 70
     1
102
RTVSPropertyOp11
 70
     1
102
RTVSPropertyOp12
 70
     1
102
RTVSPropertyOp13
 70
     1
102
RTVSPropertyOp14
 70
     1
102
RTVSPropertyOp15
 70
     1
102
RTVSPropertyOp16
 70
     1
102
RTVSPropertyOp17
 70
     1
102
RTVSPropertyOp18
 70
     1
102
RTVSPropertyOp19
 70
     1
102
RTVSPropertyOp20
 70
     1
102
RTVSPropertyOp21
 70
     1
102
RTVSPropertyOp22
 70
     1
102
RTVSPropertyOp23
 70
     1
102
RTVSPropertyOp24
 70
     1
102
RTVSPropertyOp25
 70
     1
102
RTVSPropertyOp26
 70
     1
102
RTVSPropertyOp27
 70
     1
102
RTVSPropertyOp28
 70
     1
102
RTVSPropertyOp29
 70
     1
102
RTVSPropertyOp30
 70
     1
102
RTVSPropertyOp31
 70
     1
102
RTVSPropertyOp32
 70
     1
102
RTVSPropertyOp33
 70
     1
102
RTVSPropertyOp34
 70
     1
102
RTVSPropertyOp35
 70
     1
102
RTVSPropertyOp36
 70
     1
102
RTVSPropertyOp37
 70
     1
102
RTVSPropertyOp38
 70
     1
102
RTVSPropertyOp39
 70
     1
102
RTVSPropertyOp40
 70
     1
102
RTVSPropertyOp41
 70
     1
102
RTVSPropertyOp42
 70
     1
102
RTVSPropertyOp43
 70
     1
102
RTVSPropertyOp44
 70
     1
102
RTVSPropertyOp45
 70
     1
102
RTVSPropertyOp46
 70
     1
102
RTVSPropertyOp47
 70
     1
102
RTVSPropertyOp48
 70
     1
102
RTVSPropertyOp49
 70
     1
102
RTVSPropertyOp50
 70
     1
102
RTVSPropertyOp51
 70
     0
102
RTVSPropertyOp52
 70
     0
102
RTVSPropertyOp53
 70
     1
102
RTVSPropertyOp54
 70
     1
102
RTVSPropertyOp55
 70
     1
102
RTVSPropertyOp56
 70
     1
102
RTVSPropertyOp57
 70
     1
102
RTVSPropertyOp58
 70
     1
102
RTVSPropertyOp59
 70
     1
102
RTVSPropertyOp60
 70
     1
102
RTVSPropertyOp61
 70
     1
102
RTVSPropertyOp62
 70
     1
  0
XRECORD
  5
46C
102
{ACAD_REACTORS
330
46B
102
}
330
46B
100
AcDbXrecord
280
     1
102
RTVSPost2010Prop28
280
     0
102
RTVSPost2010PropOp28
 70
     1
102
RTVSPost2010Prop29
280
     1
102
RTVSPost2010PropOp29
 70
     1
102
RTVSPost2010Prop30
280
     1
102
RTVSPost2010PropOp30
 70
     1
102
RTVSPost2010Prop31
280
     0
102
RTVSPost2010PropOp31
 70
     1
102
RTVSPost2010Prop32
280
     0
102
RTVSPost2010PropOp32
 70
     1
102
RTVSPost2010Prop33
280
     0
102
RTVSPost2010PropOp33
 70
     1
102
RTVSPost2010Prop34
280
     0
102
RTVSPost2010PropOp34
 70
     1
102
RTVSPost2010Prop35
280
     0
102
RTVSPost2010PropOp35
 70
     1
102
RTVSPost2010Prop36
280
     0
102
RTVSPost2010PropOp36
 70
     1
102
RTVSPost2010Prop37
 90
       50
102
RTVSPost2010PropOp37
 70
     0
102
RTVSPost2010Prop38
140
0.0
102
RTVSPost2010PropOp38
 70
     0
102
RTVSPost2010Prop39
140
1.0
102
RTVSPost2010PropOp39
 70
     0
102
RTVSPost2010Prop40
 90
        0
102
RTVSPost2010PropOp40
 70
     0
102
RTVSPost2010Prop41ColorIndex
 90
       18
102
RTVSPost2010Prop41ColorRGB
 90
        0
102
RTVSPost2010PropOp41
 70
     0
102
RTVSPost2010Prop42
 90
       50
102
RTVSPost2010PropOp42
 70
     0
102
RTVSPost2010Prop43
 90
        3
102
RTVSPost2010PropOp43
 70
     0
102
RTVSPost2010Prop44ColorIndex
 90
        5
102
RTVSPost2010Prop44ColorRGB
 90
      255
102
RTVSPost2010PropOp44
 70
     0
102
RTVSPost2010Prop45
280
     0
102
RTVSPost2010PropOp45
 70
     1
102
RTVSPost2010Prop46
 90
       50
102
RTVSPost2010PropOp46
 70
     0
102
RTVSPost2010Prop47
 90
       50
102
RTVSPost2010PropOp47
 70
     0
102
RTVSPost2010Prop48
 90
       50
102
RTVSPost2010PropOp48
 70
     0
102
RTVSPost2010Prop49
280
     0
102
RTVSPost2010PropOp49
 70
     1
102
RTVSPost2010Prop50
 90
       50
102
RTVSPost2010PropOp50
 70
     0
102
RTVSPost2010Prop51ColorIndex
 90
      256
102
RTVSPost2010Prop51ColorRGB
 90
-16777216
102
RTVSPost2010PropOp51
 70
     0
102
RTVSPost2010Prop52
140
1.0
102
RTVSPost2010PropOp52
 70
     0
102
RTVSPost2010Prop53
 90
        2
102
RTVSPost2010PropOp53
 70
     0
102
RTVSPost2010Prop54
  1
strokes_ogs.tif
102
RTVSPost2010PropOp54
 70
     0
102
RTVSPost2010Prop55
280
     0
102
RTVSPost2010PropOp55
 70
     1
102
RTVSPost2010Prop56
140
1.0
102
RTVSPost2010PropOp56
 70
     0
102
RTVSPost2010Prop57
140
1.0
102
RTVSPost2010PropOp57
 70
     0
102
RTVSPropertyOp0
 70
     0
102
RTVSPropertyOp1
 70
     0
102
RTVSPropertyOp2
 70
     0
102
RTVSPropertyOp3
 70
     0
102
RTVSPropertyOp4
 70
     0
102
RTVSPropertyOp5
 70
     0
102
RTVSPropertyOp6
 70
     0
102
RTVSPropertyOp7
 70
     0
102
RTVSPropertyOp8
 70
     0
102
RTVSPropertyOp9
 70
     0
102
RTVSPropertyOp10
 70
     0
102
RTVSPropertyOp11
 70
     0
102
RTVSPropertyOp12
 70
     0
102
RTVSPropertyOp13
 70
     0
102
RTVSPropertyOp14
 70
     2
102
RTVSPropertyOp15
 70
     0
102
RTVSPropertyOp16
 70
     0
102
RTVSPropertyOp17
 70
     0
102
RTVSPropertyOp18
 70
     0
102
RTVSPropertyOp19
 70
     0
102
RTVSPropertyOp20
 70
     0
102
RTVSPropertyOp21
 70
     0
102
RTVSPropertyOp22
 70
     0
102
RTVSPropertyOp23
 70
     0
102
RTVSPropertyOp24
 70
     0
102
RTVSPropertyOp25
 70
     0
102
RTVSPropertyOp26
 70
     0
102
RTVSPropertyOp27
 70
     0
102
RTVSPropertyOp28
 70
     1
102
RTVSPropertyOp29
 70
     1
102
RTVSPropertyOp30
 70
     1
102
RTVSPropertyOp31
 70
     1
102
RTVSPropertyOp32
 70
     1
102
RTVSPropertyOp33
 70
     1
102
RTVSPropertyOp34
 70
     1
102
RTVSPropertyOp35
 70
     1
102
RTVSPropertyOp36
 70
     1
102
RTVSPropertyOp37
 70
     0
102
RTVSPropertyOp38
 70
     0
102
RTVSPropertyOp39
 70
     0
102
RTVSPropertyOp40
 70
     0
102
RTVSPropertyOp41
 70
     0
102
RTVSPropertyOp42
 70
     0
102
RTVSPropertyOp43
 70
     0
102
RTVSPropertyOp44
 70
     0
102
RTVSPropertyOp45
 70
     1
102
RTVSPropertyOp46
 70
     0
102
RTVSPropertyOp47
 70
     0
102
RTVSPropertyOp48
 70
     0
102
RTVSPropertyOp49
 70
     1
102
RTVSPropertyOp50
 70
     0
102
RTVSPropertyOp51
 70
     0
102
RTVSPropertyOp52
 70
     0
102
RTVSPropertyOp53
 70
     0
102
RTVSPropertyOp54
 70
     0
102
RTVSPropertyOp55
 70
     1
102
RTVSPropertyOp56
 70
     0
102
RTVSPropertyOp57
 70
     0
102
RTVSPropertyOp58
 70
     0
102
RTVSPropertyOp59
 70
     0
102
RTVSPropertyOp60
 70
     0
102
RTVSPropertyOp61
 70
     0
102
RTVSPropertyOp62
 70
     0
  0
XRECORD
  5
452
102
{ACAD_REACTORS
330
451
102
}
330
451
100
AcDbXrecord
280
     1
102
RTVSPost2010Prop28
280
     0
102
RTVSPost2010PropOp28
 70
     1
102
RTVSPost2010Prop29
280
     1
102
RTVSPost2010PropOp29
 70
     1
102
RTVSPost2010Prop30
280
     1
102
RTVSPost2010PropOp30
 70
     1
102
RTVSPost2010Prop31
280
     0
102
RTVSPost2010PropOp31
 70
     1
102
RTVSPost2010Prop32
280
     0
102
RTVSPost2010PropOp32
 70
     1
102
RTVSPost2010Prop33
280
     0
102
RTVSPost2010PropOp33
 70
     1
102
RTVSPost2010Prop34
280
     0
102
RTVSPost2010PropOp34
 70
     1
102
RTVSPost2010Prop35
280
     0
102
RTVSPost2010PropOp35
 70
     1
102
RTVSPost2010Prop36
280
     0
102
RTVSPost2010PropOp36
 70
     1
102
RTVSPost2010Prop37
 90
       50
102
RTVSPost2010PropOp37
 70
     1
102
RTVSPost2010Prop38
140
0.0
102
RTVSPost2010PropOp38
 70
     1
102
RTVSPost2010Prop39
140
1.0
102
RTVSPost2010PropOp39
 70
     1
102
RTVSPost2010Prop40
 90
        0
102
RTVSPost2010PropOp40
 70
     1
102
RTVSPost2010Prop41ColorIndex
 90
       18
102
RTVSPost2010Prop41ColorRGB
 90
        0
102
RTVSPost2010PropOp41
 70
     1
102
RTVSPost2010Prop42
 90
       50
102
RTVSPost2010PropOp42
 70
     1
102
RTVSPost2010Prop43
 90
        3
102
RTVSPost2010PropOp43
 70
     1
102
RTVSPost2010Prop44ColorIndex
 90
        5
102
RTVSPost2010Prop44ColorRGB
 90
      255
102
RTVSPost2010PropOp44
 70
     1
102
RTVSPost2010Prop45
280
     0
102
RTVSPost2010PropOp45
 70
     1
102
RTVSPost2010Prop46
 90
       50
102
RTVSPost2010PropOp46
 70
     1
102
RTVSPost2010Prop47
 90
       50
102
RTVSPost2010PropOp47
 70
     1
102
RTVSPost2010Prop48
 90
       50
102
RTVSPost2010PropOp48
 70
     1
102
RTVSPost2010Prop49
280
     0
102
RTVSPost2010PropOp49
 70
     1
102
RTVSPost2010Prop50
 90
       50
102
RTVSPost2010PropOp50
 70
     1
102
RTVSPost2010Prop51ColorIndex
 90
      256
102
RTVSPost2010Prop51ColorRGB
 90
-16777216
102
RTVSPost2010PropOp51
 70
     0
102
RTVSPost2010Prop52
140
1.0
102
RTVSPost2010PropOp52
 70
     0
102
RTVSPost2010Prop53
 90
        2
102
RTVSPost2010PropOp53
 70
     1
102
RTVSPost2010Prop54
  1
strokes_ogs.tif
102
RTVSPost2010PropOp54
 70
     1
102
RTVSPost2010Prop55
280
     0
102
RTVSPost2010PropOp55
 70
     1
102
RTVSPost2010Prop56
140
1.0
102
RTVSPost2010PropOp56
 70
     1
102
RTVSPost2010Prop57
140
1.0
102
RTVSPost2010PropOp57
 70
     1
102
RTVSPropertyOp0
 70
     1
102
RTVSPropertyOp1
 70
     1
102
RTVSPropertyOp2
 70
     1
102
RTVSPropertyOp3
 70
     1
102
RTVSPropertyOp4
 70
     1
102
RTVSPropertyOp5
 70
     1
102
RTVSPropertyOp6
 70
     1
102
RTVSPropertyOp7
 70
     1
102
RTVSPropertyOp8
 70
     1
102
RTVSPropertyOp9
 70
     1
102
RTVSPropertyOp10
 70
     1
102
RTVSPropertyOp11
 70
     1
102
RTVSPropertyOp12
 70
     1
102
RTVSPropertyOp13
 70
     1
102
RTVSPropertyOp14
 70
     1
102
RTVSPropertyOp15
 70
     1
102
RTVSPropertyOp16
 70
     1
102
RTVSPropertyOp17
 70
     1
102
RTVSPropertyOp18
 70
     1
102
RTVSPropertyOp19
 70
     1
102
RTVSPropertyOp20
 70
     1
102
RTVSPropertyOp21
 70
     1
102
RTVSPropertyOp22
 70
     1
102
RTVSPropertyOp23
 70
     1
102
RTVSPropertyOp24
 70
     1
102
RTVSPropertyOp25
 70
     1
102
RTVSPropertyOp26
 70
     1
102
RTVSPropertyOp27
 70
     1
102
RTVSPropertyOp28
 70
     1
102
RTVSPropertyOp29
 70
     1
102
RTVSPropertyOp30
 70
     1
102
RTVSPropertyOp31
 70
     1
102
RTVSPropertyOp32
 70
     1
102
RTVSPropertyOp33
 70
     1
102
RTVSPropertyOp34
 70
     1
102
RTVSPropertyOp35
 70
     1
102
RTVSPropertyOp36
 70
     1
102
RTVSPropertyOp37
 70
     1
102
RTVSPropertyOp38
 70
     1
102
RTVSPropertyOp39
 70
     1
102
RTVSPropertyOp40
 70
     1
102
RTVSPropertyOp41
 70
     1
102
RTVSPropertyOp42
 70
     1
102
RTVSPropertyOp43
 70
     1
102
RTVSPropertyOp44
 70
     1
102
RTVSPropertyOp45
 70
     1
102
RTVSPropertyOp46
 70
     1
102
RTVSPropertyOp47
 70
     1
102
RTVSPropertyOp48
 70
     1
102
RTVSPropertyOp49
 70
     1
102
RTVSPropertyOp50
 70
     1
102
RTVSPropertyOp51
 70
     0
102
RTVSPropertyOp52
 70
     0
102
RTVSPropertyOp53
 70
     1
102
RTVSPropertyOp54
 70
     1
102
RTVSPropertyOp55
 70
     1
102
RTVSPropertyOp56
 70
     1
102
RTVSPropertyOp57
 70
     1
102
RTVSPropertyOp58
 70
     1
102
RTVSPropertyOp59
 70
     1
102
RTVSPropertyOp60
 70
     1
102
RTVSPropertyOp61
 70
     1
102
RTVSPropertyOp62
 70
     1
  0
XRECORD
  5
468
102
{ACAD_REACTORS
330
467
102
}
330
467
100
AcDbXrecord
280
     1
102
RTVSPost2010Prop28
280
     0
102
RTVSPost2010PropOp28
 70
     1
102
RTVSPost2010Prop29
280
     1
102
RTVSPost2010PropOp29
 70
     1
102
RTVSPost2010Prop30
280
     1
102
RTVSPost2010PropOp30
 70
     1
102
RTVSPost2010Prop31
280
     0
102
RTVSPost2010PropOp31
 70
     1
102
RTVSPost2010Prop32
280
     0
102
RTVSPost2010PropOp32
 70
     1
102
RTVSPost2010Prop33
280
     0
102
RTVSPost2010PropOp33
 70
     1
102
RTVSPost2010Prop34
280
     0
102
RTVSPost2010PropOp34
 70
     1
102
RTVSPost2010Prop35
280
     0
102
RTVSPost2010PropOp35
 70
     1
102
RTVSPost2010Prop36
280
     0
102
RTVSPost2010PropOp36
 70
     1
102
RTVSPost2010Prop37
 90
       50
102
RTVSPost2010PropOp37
 70
     1
102
RTVSPost2010Prop38
140
0.0
102
RTVSPost2010PropOp38
 70
     1
102
RTVSPost2010Prop39
140
1.0
102
RTVSPost2010PropOp39
 70
     1
102
RTVSPost2010Prop40
 90
        0
102
RTVSPost2010PropOp40
 70
     1
102
RTVSPost2010Prop41ColorIndex
 90
       18
102
RTVSPost2010Prop41ColorRGB
 90
        0
102
RTVSPost2010PropOp41
 70
     1
102
RTVSPost2010Prop42
 90
       50
102
RTVSPost2010PropOp42
 70
     1
102
RTVSPost2010Prop43
 90
        3
102
RTVSPost2010PropOp43
 70
     1
102
RTVSPost2010Prop44ColorIndex
 90
        5
102
RTVSPost2010Prop44ColorRGB
 90
      255
102
RTVSPost2010PropOp44
 70
     1
102
RTVSPost2010Prop45
280
     0
102
RTVSPost2010PropOp45
 70
     1
102
RTVSPost2010Prop46
 90
       50
102
RTVSPost2010PropOp46
 70
     1
102
RTVSPost2010Prop47
 90
       50
102
RTVSPost2010PropOp47
 70
     1
102
RTVSPost2010Prop48
 90
       50
102
RTVSPost2010PropOp48
 70
     1
102
RTVSPost2010Prop49
280
     0
102
RTVSPost2010PropOp49
 70
     1
102
RTVSPost2010Prop50
 90
       50
102
RTVSPost2010PropOp50
 70
     1
102
RTVSPost2010Prop51ColorIndex
 90
      256
102
RTVSPost2010Prop51ColorRGB
 90
-16777216
102
RTVSPost2010PropOp51
 70
     0
102
RTVSPost2010Prop52
140
1.0
102
RTVSPost2010PropOp52
 70
     0
102
RTVSPost2010Prop53
 90
        2
102
RTVSPost2010PropOp53
 70
     1
102
RTVSPost2010Prop54
  1
strokes_ogs.tif
102
RTVSPost2010PropOp54
 70
     1
102
RTVSPost2010Prop55
280
     0
102
RTVSPost2010PropOp55
 70
     1
102
RTVSPost2010Prop56
140
1.0
102
RTVSPost2010PropOp56
 70
     1
102
RTVSPost2010Prop57
140
1.0
102
RTVSPost2010PropOp57
 70
     1
102
RTVSPropertyOp0
 70
     1
102
RTVSPropertyOp1
 70
     1
102
RTVSPropertyOp2
 70
     1
102
RTVSPropertyOp3
 70
     1
102
RTVSPropertyOp4
 70
     1
102
RTVSPropertyOp5
 70
     1
102
RTVSPropertyOp6
 70
     1
102
RTVSPropertyOp7
 70
     1
102
RTVSPropertyOp8
 70
     1
102
RTVSPropertyOp9
 70
     1
102
RTVSPropertyOp10
 70
     1
102
RTVSPropertyOp11
 70
     1
102
RTVSPropertyOp12
 70
     1
102
RTVSPropertyOp13
 70
     1
102
RTVSPropertyOp14
 70
     1
102
RTVSPropertyOp15
 70
     1
102
RTVSPropertyOp16
 70
     1
102
RTVSPropertyOp17
 70
     1
102
RTVSPropertyOp18
 70
     1
102
RTVSPropertyOp19
 70
     1
102
RTVSPropertyOp20
 70
     1
102
RTVSPropertyOp21
 70
     1
102
RTVSPropertyOp22
 70
     1
102
RTVSPropertyOp23
 70
     1
102
RTVSPropertyOp24
 70
     1
102
RTVSPropertyOp25
 70
     1
102
RTVSPropertyOp26
 70
     1
102
RTVSPropertyOp27
 70
     1
102
RTVSPropertyOp28
 70
     1
102
RTVSPropertyOp29
 70
     1
102
RTVSPropertyOp30
 70
     1
102
RTVSPropertyOp31
 70
     1
102
RTVSPropertyOp32
 70
     1
102
RTVSPropertyOp33
 70
     1
102
RTVSPropertyOp34
 70
     1
102
RTVSPropertyOp35
 70
     1
102
RTVSPropertyOp36
 70
     1
102
RTVSPropertyOp37
 70
     1
102
RTVSPropertyOp38
 70
     1
102
RTVSPropertyOp39
 70
     1
102
RTVSPropertyOp40
 70
     1
102
RTVSPropertyOp41
 70
     1
102
RTVSPropertyOp42
 70
     1
102
RTVSPropertyOp43
 70
     1
102
RTVSPropertyOp44
 70
     1
102
RTVSPropertyOp45
 70
     1
102
RTVSPropertyOp46
 70
     1
102
RTVSPropertyOp47
 70
     1
102
RTVSPropertyOp48
 70
     1
102
RTVSPropertyOp49
 70
     1
102
RTVSPropertyOp50
 70
     1
102
RTVSPropertyOp51
 70
     0
102
RTVSPropertyOp52
 70
     0
102
RTVSPropertyOp53
 70
     1
102
RTVSPropertyOp54
 70
     1
102
RTVSPropertyOp55
 70
     1
102
RTVSPropertyOp56
 70
     1
102
RTVSPropertyOp57
 70
     1
102
RTVSPropertyOp58
 70
     1
102
RTVSPropertyOp59
 70
     1
102
RTVSPropertyOp60
 70
     1
102
RTVSPropertyOp61
 70
     1
102
RTVSPropertyOp62
 70
     1
  0
XRECORD
  5
466
102
{ACAD_REACTORS
330
465
102
}
330
465
100
AcDbXrecord
280
     1
102
RTVSPost2010Prop28
280
     0
102
RTVSPost2010PropOp28
 70
     1
102
RTVSPost2010Prop29
280
     1
102
RTVSPost2010PropOp29
 70
     1
102
RTVSPost2010Prop30
280
     1
102
RTVSPost2010PropOp30
 70
     1
102
RTVSPost2010Prop31
280
     0
102
RTVSPost2010PropOp31
 70
     1
102
RTVSPost2010Prop32
280
     0
102
RTVSPost2010PropOp32
 70
     1
102
RTVSPost2010Prop33
280
     0
102
RTVSPost2010PropOp33
 70
     1
102
RTVSPost2010Prop34
280
     0
102
RTVSPost2010PropOp34
 70
     1
102
RTVSPost2010Prop35
280
     0
102
RTVSPost2010PropOp35
 70
     1
102
RTVSPost2010Prop36
280
     0
102
RTVSPost2010PropOp36
 70
     1
102
RTVSPost2010Prop37
 90
       50
102
RTVSPost2010PropOp37
 70
     1
102
RTVSPost2010Prop38
140
0.0
102
RTVSPost2010PropOp38
 70
     1
102
RTVSPost2010Prop39
140
1.0
102
RTVSPost2010PropOp39
 70
     1
102
RTVSPost2010Prop40
 90
        0
102
RTVSPost2010PropOp40
 70
     1
102
RTVSPost2010Prop41ColorIndex
 90
       18
102
RTVSPost2010Prop41ColorRGB
 90
        0
102
RTVSPost2010PropOp41
 70
     1
102
RTVSPost2010Prop42
 90
       50
102
RTVSPost2010PropOp42
 70
     1
102
RTVSPost2010Prop43
 90
        3
102
RTVSPost2010PropOp43
 70
     1
102
RTVSPost2010Prop44ColorIndex
 90
        5
102
RTVSPost2010Prop44ColorRGB
 90
      255
102
RTVSPost2010PropOp44
 70
     1
102
RTVSPost2010Prop45
280
     0
102
RTVSPost2010PropOp45
 70
     1
102
RTVSPost2010Prop46
 90
       50
102
RTVSPost2010PropOp46
 70
     1
102
RTVSPost2010Prop47
 90
       50
102
RTVSPost2010PropOp47
 70
     1
102
RTVSPost2010Prop48
 90
       50
102
RTVSPost2010PropOp48
 70
     1
102
RTVSPost2010Prop49
280
     0
102
RTVSPost2010PropOp49
 70
     1
102
RTVSPost2010Prop50
 90
       50
102
RTVSPost2010PropOp50
 70
     1
102
RTVSPost2010Prop51ColorIndex
 90
      256
102
RTVSPost2010Prop51ColorRGB
 90
-16777216
102
RTVSPost2010PropOp51
 70
     0
102
RTVSPost2010Prop52
140
1.0
102
RTVSPost2010PropOp52
 70
     0
102
RTVSPost2010Prop53
 90
        2
102
RTVSPost2010PropOp53
 70
     1
102
RTVSPost2010Prop54
  1
strokes_ogs.tif
102
RTVSPost2010PropOp54
 70
     1
102
RTVSPost2010Prop55
280
     0
102
RTVSPost2010PropOp55
 70
     1
102
RTVSPost2010Prop56
140
1.0
102
RTVSPost2010PropOp56
 70
     1
102
RTVSPost2010Prop57
140
1.0
102
RTVSPost2010PropOp57
 70
     1
102
RTVSPropertyOp0
 70
     1
102
RTVSPropertyOp1
 70
     1
102
RTVSPropertyOp2
 70
     1
102
RTVSPropertyOp3
 70
     1
102
RTVSPropertyOp4
 70
     1
102
RTVSPropertyOp5
 70
     1
102
RTVSPropertyOp6
 70
     1
102
RTVSPropertyOp7
 70
     1
102
RTVSPropertyOp8
 70
     1
102
RTVSPropertyOp9
 70
     1
102
RTVSPropertyOp10
 70
     1
102
RTVSPropertyOp11
 70
     1
102
RTVSPropertyOp12
 70
     1
102
RTVSPropertyOp13
 70
     1
102
RTVSPropertyOp14
 70
     1
102
RTVSPropertyOp15
 70
     1
102
RTVSPropertyOp16
 70
     1
102
RTVSPropertyOp17
 70
     1
102
RTVSPropertyOp18
 70
     1
102
RTVSPropertyOp19
 70
     1
102
RTVSPropertyOp20
 70
     1
102
RTVSPropertyOp21
 70
     1
102
RTVSPropertyOp22
 70
     1
102
RTVSPropertyOp23
 70
     1
102
RTVSPropertyOp24
 70
     1
102
RTVSPropertyOp25
 70
     1
102
RTVSPropertyOp26
 70
     1
102
RTVSPropertyOp27
 70
     1
102
RTVSPropertyOp28
 70
     1
102
RTVSPropertyOp29
 70
     1
102
RTVSPropertyOp30
 70
     1
102
RTVSPropertyOp31
 70
     1
102
RTVSPropertyOp32
 70
     1
102
RTVSPropertyOp33
 70
     1
102
RTVSPropertyOp34
 70
     1
102
RTVSPropertyOp35
 70
     1
102
RTVSPropertyOp36
 70
     1
102
RTVSPropertyOp37
 70
     1
102
RTVSPropertyOp38
 70
     1
102
RTVSPropertyOp39
 70
     1
102
RTVSPropertyOp40
 70
     1
102
RTVSPropertyOp41
 70
     1
102
RTVSPropertyOp42
 70
     1
102
RTVSPropertyOp43
 70
     1
102
RTVSPropertyOp44
 70
     1
102
RTVSPropertyOp45
 70
     1
102
RTVSPropertyOp46
 70
     1
102
RTVSPropertyOp47
 70
     1
102
RTVSPropertyOp48
 70
     1
102
RTVSPropertyOp49
 70
     1
102
RTVSPropertyOp50
 70
     1
102
RTVSPropertyOp51
 70
     0
102
RTVSPropertyOp52
 70
     0
102
RTVSPropertyOp53
 70
     1
102
RTVSPropertyOp54
 70
     1
102
RTVSPropertyOp55
 70
     1
102
RTVSPropertyOp56
 70
     1
102
RTVSPropertyOp57
 70
     1
102
RTVSPropertyOp58
 70
     1
102
RTVSPropertyOp59
 70
     1
102
RTVSPropertyOp60
 70
     1
102
RTVSPropertyOp61
 70
     1
102
RTVSPropertyOp62
 70
     1
  0
XRECORD
  5
460
102
{ACAD_REACTORS
330
45F
102
}
330
45F
100
AcDbXrecord
280
     1
102
RTVSPost2010Prop28
280
     0
102
RTVSPost2010PropOp28
 70
     1
102
RTVSPost2010Prop29
280
     1
102
RTVSPost2010PropOp29
 70
     1
102
RTVSPost2010Prop30
280
     1
102
RTVSPost2010PropOp30
 70
     1
102
RTVSPost2010Prop31
280
     0
102
RTVSPost2010PropOp31
 70
     1
102
RTVSPost2010Prop32
280
     0
102
RTVSPost2010PropOp32
 70
     1
102
RTVSPost2010Prop33
280
     0
102
RTVSPost2010PropOp33
 70
     1
102
RTVSPost2010Prop34
280
     0
102
RTVSPost2010PropOp34
 70
     1
102
RTVSPost2010Prop35
280
     0
102
RTVSPost2010PropOp35
 70
     1
102
RTVSPost2010Prop36
280
     0
102
RTVSPost2010PropOp36
 70
     1
102
RTVSPost2010Prop37
 90
       50
102
RTVSPost2010PropOp37
 70
     1
102
RTVSPost2010Prop38
140
0.0
102
RTVSPost2010PropOp38
 70
     1
102
RTVSPost2010Prop39
140
1.0
102
RTVSPost2010PropOp39
 70
     1
102
RTVSPost2010Prop40
 90
        0
102
RTVSPost2010PropOp40
 70
     1
102
RTVSPost2010Prop41ColorIndex
 90
       18
102
RTVSPost2010Prop41ColorRGB
 90
        0
102
RTVSPost2010PropOp41
 70
     1
102
RTVSPost2010Prop42
 90
       50
102
RTVSPost2010PropOp42
 70
     1
102
RTVSPost2010Prop43
 90
        3
102
RTVSPost2010PropOp43
 70
     1
102
RTVSPost2010Prop44ColorIndex
 90
        5
102
RTVSPost2010Prop44ColorRGB
 90
      255
102
RTVSPost2010PropOp44
 70
     1
102
RTVSPost2010Prop45
280
     0
102
RTVSPost2010PropOp45
 70
     1
102
RTVSPost2010Prop46
 90
       50
102
RTVSPost2010PropOp46
 70
     1
102
RTVSPost2010Prop47
 90
       50
102
RTVSPost2010PropOp47
 70
     1
102
RTVSPost2010Prop48
 90
       50
102
RTVSPost2010PropOp48
 70
     1
102
RTVSPost2010Prop49
280
     0
102
RTVSPost2010PropOp49
 70
     1
102
RTVSPost2010Prop50
 90
       50
102
RTVSPost2010PropOp50
 70
     1
102
RTVSPost2010Prop51ColorIndex
 90
      256
102
RTVSPost2010Prop51ColorRGB
 90
-16777216
102
RTVSPost2010PropOp51
 70
     0
102
RTVSPost2010Prop52
140
1.0
102
RTVSPost2010PropOp52
 70
     0
102
RTVSPost2010Prop53
 90
        2
102
RTVSPost2010PropOp53
 70
     1
102
RTVSPost2010Prop54
  1
strokes_ogs.tif
102
RTVSPost2010PropOp54
 70
     1
102
RTVSPost2010Prop55
280
     0
102
RTVSPost2010PropOp55
 70
     1
102
RTVSPost2010Prop56
140
1.0
102
RTVSPost2010PropOp56
 70
     1
102
RTVSPost2010Prop57
140
1.0
102
RTVSPost2010PropOp57
 70
     1
102
RTVSPropertyOp0
 70
     1
102
RTVSPropertyOp1
 70
     1
102
RTVSPropertyOp2
 70
     1
102
RTVSPropertyOp3
 70
     1
102
RTVSPropertyOp4
 70
     1
102
RTVSPropertyOp5
 70
     1
102
RTVSPropertyOp6
 70
     1
102
RTVSPropertyOp7
 70
     1
102
RTVSPropertyOp8
 70
     1
102
RTVSPropertyOp9
 70
     1
102
RTVSPropertyOp10
 70
     1
102
RTVSPropertyOp11
 70
     1
102
RTVSPropertyOp12
 70
     1
102
RTVSPropertyOp13
 70
     1
102
RTVSPropertyOp14
 70
     1
102
RTVSPropertyOp15
 70
     1
102
RTVSPropertyOp16
 70
     1
102
RTVSPropertyOp17
 70
     1
102
RTVSPropertyOp18
 70
     1
102
RTVSPropertyOp19
 70
     1
102
RTVSPropertyOp20
 70
     1
102
RTVSPropertyOp21
 70
     1
102
RTVSPropertyOp22
 70
     1
102
RTVSPropertyOp23
 70
     1
102
RTVSPropertyOp24
 70
     1
102
RTVSPropertyOp25
 70
     1
102
RTVSPropertyOp26
 70
     1
102
RTVSPropertyOp27
 70
     1
102
RTVSPropertyOp28
 70
     1
102
RTVSPropertyOp29
 70
     1
102
RTVSPropertyOp30
 70
     1
102
RTVSPropertyOp31
 70
     1
102
RTVSPropertyOp32
 70
     1
102
RTVSPropertyOp33
 70
     1
102
RTVSPropertyOp34
 70
     1
102
RTVSPropertyOp35
 70
     1
102
RTVSPropertyOp36
 70
     1
102
RTVSPropertyOp37
 70
     1
102
RTVSPropertyOp38
 70
     1
102
RTVSPropertyOp39
 70
     1
102
RTVSPropertyOp40
 70
     1
102
RTVSPropertyOp41
 70
     1
102
RTVSPropertyOp42
 70
     1
102
RTVSPropertyOp43
 70
     1
102
RTVSPropertyOp44
 70
     1
102
RTVSPropertyOp45
 70
     1
102
RTVSPropertyOp46
 70
     1
102
RTVSPropertyOp47
 70
     1
102
RTVSPropertyOp48
 70
     1
102
RTVSPropertyOp49
 70
     1
102
RTVSPropertyOp50
 70
     1
102
RTVSPropertyOp51
 70
     0
102
RTVSPropertyOp52
 70
     0
102
RTVSPropertyOp53
 70
     1
102
RTVSPropertyOp54
 70
     1
102
RTVSPropertyOp55
 70
     1
102
RTVSPropertyOp56
 70
     1
102
RTVSPropertyOp57
 70
     1
102
RTVSPropertyOp58
 70
     1
102
RTVSPropertyOp59
 70
     1
102
RTVSPropertyOp60
 70
     1
102
RTVSPropertyOp61
 70
     1
102
RTVSPropertyOp62
 70
     1
  0
XRECORD
  5
462
102
{ACAD_REACTORS
330
461
102
}
330
461
100
AcDbXrecord
280
     1
102
RTVSPost2010Prop28
280
     0
102
RTVSPost2010PropOp28
 70
     1
102
RTVSPost2010Prop29
280
     1
102
RTVSPost2010PropOp29
 70
     1
102
RTVSPost2010Prop30
280
     1
102
RTVSPost2010PropOp30
 70
     1
102
RTVSPost2010Prop31
280
     0
102
RTVSPost2010PropOp31
 70
     1
102
RTVSPost2010Prop32
280
     0
102
RTVSPost2010PropOp32
 70
     1
102
RTVSPost2010Prop33
280
     0
102
RTVSPost2010PropOp33
 70
     1
102
RTVSPost2010Prop34
280
     0
102
RTVSPost2010PropOp34
 70
     1
102
RTVSPost2010Prop35
280
     0
102
RTVSPost2010PropOp35
 70
     1
102
RTVSPost2010Prop36
280
     0
102
RTVSPost2010PropOp36
 70
     1
102
RTVSPost2010Prop37
 90
       50
102
RTVSPost2010PropOp37
 70
     1
102
RTVSPost2010Prop38
140
0.0
102
RTVSPost2010PropOp38
 70
     1
102
RTVSPost2010Prop39
140
1.0
102
RTVSPost2010PropOp39
 70
     1
102
RTVSPost2010Prop40
 90
        0
102
RTVSPost2010PropOp40
 70
     1
102
RTVSPost2010Prop41ColorIndex
 90
       18
102
RTVSPost2010Prop41ColorRGB
 90
        0
102
RTVSPost2010PropOp41
 70
     1
102
RTVSPost2010Prop42
 90
       50
102
RTVSPost2010PropOp42
 70
     1
102
RTVSPost2010Prop43
 90
        3
102
RTVSPost2010PropOp43
 70
     1
102
RTVSPost2010Prop44ColorIndex
 90
        5
102
RTVSPost2010Prop44ColorRGB
 90
      255
102
RTVSPost2010PropOp44
 70
     1
102
RTVSPost2010Prop45
280
     0
102
RTVSPost2010PropOp45
 70
     1
102
RTVSPost2010Prop46
 90
       50
102
RTVSPost2010PropOp46
 70
     1
102
RTVSPost2010Prop47
 90
       50
102
RTVSPost2010PropOp47
 70
     1
102
RTVSPost2010Prop48
 90
       50
102
RTVSPost2010PropOp48
 70
     1
102
RTVSPost2010Prop49
280
     0
102
RTVSPost2010PropOp49
 70
     1
102
RTVSPost2010Prop50
 90
       50
102
RTVSPost2010PropOp50
 70
     1
102
RTVSPost2010Prop51ColorIndex
 90
      256
102
RTVSPost2010Prop51ColorRGB
 90
-16777216
102
RTVSPost2010PropOp51
 70
     0
102
RTVSPost2010Prop52
140
1.0
102
RTVSPost2010PropOp52
 70
     0
102
RTVSPost2010Prop53
 90
        2
102
RTVSPost2010PropOp53
 70
     1
102
RTVSPost2010Prop54
  1
strokes_ogs.tif
102
RTVSPost2010PropOp54
 70
     1
102
RTVSPost2010Prop55
280
     0
102
RTVSPost2010PropOp55
 70
     1
102
RTVSPost2010Prop56
140
1.0
102
RTVSPost2010PropOp56
 70
     1
102
RTVSPost2010Prop57
140
1.0
102
RTVSPost2010PropOp57
 70
     1
102
RTVSPropertyOp0
 70
     1
102
RTVSPropertyOp1
 70
     1
102
RTVSPropertyOp2
 70
     1
102
RTVSPropertyOp3
 70
     1
102
RTVSPropertyOp4
 70
     1
102
RTVSPropertyOp5
 70
     1
102
RTVSPropertyOp6
 70
     1
102
RTVSPropertyOp7
 70
     1
102
RTVSPropertyOp8
 70
     1
102
RTVSPropertyOp9
 70
     1
102
RTVSPropertyOp10
 70
     1
102
RTVSPropertyOp11
 70
     1
102
RTVSPropertyOp12
 70
     1
102
RTVSPropertyOp13
 70
     1
102
RTVSPropertyOp14
 70
     1
102
RTVSPropertyOp15
 70
     1
102
RTVSPropertyOp16
 70
     1
102
RTVSPropertyOp17
 70
     1
102
RTVSPropertyOp18
 70
     1
102
RTVSPropertyOp19
 70
     1
102
RTVSPropertyOp20
 70
     1
102
RTVSPropertyOp21
 70
     1
102
RTVSPropertyOp22
 70
     1
102
RTVSPropertyOp23
 70
     1
102
RTVSPropertyOp24
 70
     1
102
RTVSPropertyOp25
 70
     1
102
RTVSPropertyOp26
 70
     1
102
RTVSPropertyOp27
 70
     1
102
RTVSPropertyOp28
 70
     1
102
RTVSPropertyOp29
 70
     1
102
RTVSPropertyOp30
 70
     1
102
RTVSPropertyOp31
 70
     1
102
RTVSPropertyOp32
 70
     1
102
RTVSPropertyOp33
 70
     1
102
RTVSPropertyOp34
 70
     1
102
RTVSPropertyOp35
 70
     1
102
RTVSPropertyOp36
 70
     1
102
RTVSPropertyOp37
 70
     1
102
RTVSPropertyOp38
 70
     1
102
RTVSPropertyOp39
 70
     1
102
RTVSPropertyOp40
 70
     1
102
RTVSPropertyOp41
 70
     1
102
RTVSPropertyOp42
 70
     1
102
RTVSPropertyOp43
 70
     1
102
RTVSPropertyOp44
 70
     1
102
RTVSPropertyOp45
 70
     1
102
RTVSPropertyOp46
 70
     1
102
RTVSPropertyOp47
 70
     1
102
RTVSPropertyOp48
 70
     1
102
RTVSPropertyOp49
 70
     1
102
RTVSPropertyOp50
 70
     1
102
RTVSPropertyOp51
 70
     0
102
RTVSPropertyOp52
 70
     0
102
RTVSPropertyOp53
 70
     1
102
RTVSPropertyOp54
 70
     1
102
RTVSPropertyOp55
 70
     1
102
RTVSPropertyOp56
 70
     1
102
RTVSPropertyOp57
 70
     1
102
RTVSPropertyOp58
 70
     1
102
RTVSPropertyOp59
 70
     1
102
RTVSPropertyOp60
 70
     1
102
RTVSPropertyOp61
 70
     1
102
RTVSPropertyOp62
 70
     1
  0
XRECORD
  5
458
102
{ACAD_REACTORS
330
457
102
}
330
457
100
AcDbXrecord
280
     1
102
RTVSPost2010Prop28
280
     0
102
RTVSPost2010PropOp28
 70
     1
102
RTVSPost2010Prop29
280
     1
102
RTVSPost2010PropOp29
 70
     1
102
RTVSPost2010Prop30
280
     1
102
RTVSPost2010PropOp30
 70
     1
102
RTVSPost2010Prop31
280
     0
102
RTVSPost2010PropOp31
 70
     1
102
RTVSPost2010Prop32
280
     0
102
RTVSPost2010PropOp32
 70
     1
102
RTVSPost2010Prop33
280
     0
102
RTVSPost2010PropOp33
 70
     1
102
RTVSPost2010Prop34
280
     0
102
RTVSPost2010PropOp34
 70
     1
102
RTVSPost2010Prop35
280
     0
102
RTVSPost2010PropOp35
 70
     1
102
RTVSPost2010Prop36
280
     0
102
RTVSPost2010PropOp36
 70
     1
102
RTVSPost2010Prop37
 90
       50
102
RTVSPost2010PropOp37
 70
     1
102
RTVSPost2010Prop38
140
0.0
102
RTVSPost2010PropOp38
 70
     1
102
RTVSPost2010Prop39
140
1.0
102
RTVSPost2010PropOp39
 70
     1
102
RTVSPost2010Prop40
 90
        0
102
RTVSPost2010PropOp40
 70
     1
102
RTVSPost2010Prop41ColorIndex
 90
       18
102
RTVSPost2010Prop41ColorRGB
 90
        0
102
RTVSPost2010PropOp41
 70
     1
102
RTVSPost2010Prop42
 90
       50
102
RTVSPost2010PropOp42
 70
     1
102
RTVSPost2010Prop43
 90
        3
102
RTVSPost2010PropOp43
 70
     1
102
RTVSPost2010Prop44ColorIndex
 90
        5
102
RTVSPost2010Prop44ColorRGB
 90
      255
102
RTVSPost2010PropOp44
 70
     1
102
RTVSPost2010Prop45
280
     0
102
RTVSPost2010PropOp45
 70
     1
102
RTVSPost2010Prop46
 90
       50
102
RTVSPost2010PropOp46
 70
     1
102
RTVSPost2010Prop47
 90
       50
102
RTVSPost2010PropOp47
 70
     1
102
RTVSPost2010Prop48
 90
       50
102
RTVSPost2010PropOp48
 70
     1
102
RTVSPost2010Prop49
280
     0
102
RTVSPost2010PropOp49
 70
     1
102
RTVSPost2010Prop50
 90
       50
102
RTVSPost2010PropOp50
 70
     1
102
RTVSPost2010Prop51ColorIndex
 90
      256
102
RTVSPost2010Prop51ColorRGB
 90
-16777216
102
RTVSPost2010PropOp51
 70
     0
102
RTVSPost2010Prop52
140
1.0
102
RTVSPost2010PropOp52
 70
     0
102
RTVSPost2010Prop53
 90
        2
102
RTVSPost2010PropOp53
 70
     1
102
RTVSPost2010Prop54
  1
strokes_ogs.tif
102
RTVSPost2010PropOp54
 70
     1
102
RTVSPost2010Prop55
280
     0
102
RTVSPost2010PropOp55
 70
     1
102
RTVSPost2010Prop56
140
1.0
102
RTVSPost2010PropOp56
 70
     1
102
RTVSPost2010Prop57
140
1.0
102
RTVSPost2010PropOp57
 70
     1
102
RTVSPropertyOp0
 70
     1
102
RTVSPropertyOp1
 70
     1
102
RTVSPropertyOp2
 70
     1
102
RTVSPropertyOp3
 70
     1
102
RTVSPropertyOp4
 70
     1
102
RTVSPropertyOp5
 70
     1
102
RTVSPropertyOp6
 70
     1
102
RTVSPropertyOp7
 70
     1
102
RTVSPropertyOp8
 70
     1
102
RTVSPropertyOp9
 70
     1
102
RTVSPropertyOp10
 70
     1
102
RTVSPropertyOp11
 70
     1
102
RTVSPropertyOp12
 70
     1
102
RTVSPropertyOp13
 70
     1
102
RTVSPropertyOp14
 70
     1
102
RTVSPropertyOp15
 70
     1
102
RTVSPropertyOp16
 70
     1
102
RTVSPropertyOp17
 70
     1
102
RTVSPropertyOp18
 70
     1
102
RTVSPropertyOp19
 70
     1
102
RTVSPropertyOp20
 70
     1
102
RTVSPropertyOp21
 70
     1
102
RTVSPropertyOp22
 70
     1
102
RTVSPropertyOp23
 70
     1
102
RTVSPropertyOp24
 70
     1
102
RTVSPropertyOp25
 70
     1
102
RTVSPropertyOp26
 70
     1
102
RTVSPropertyOp27
 70
     1
102
RTVSPropertyOp28
 70
     1
102
RTVSPropertyOp29
 70
     1
102
RTVSPropertyOp30
 70
     1
102
RTVSPropertyOp31
 70
     1
102
RTVSPropertyOp32
 70
     1
102
RTVSPropertyOp33
 70
     1
102
RTVSPropertyOp34
 70
     1
102
RTVSPropertyOp35
 70
     1
102
RTVSPropertyOp36
 70
     1
102
RTVSPropertyOp37
 70
     1
102
RTVSPropertyOp38
 70
     1
102
RTVSPropertyOp39
 70
     1
102
RTVSPropertyOp40
 70
     1
102
RTVSPropertyOp41
 70
     1
102
RTVSPropertyOp42
 70
     1
102
RTVSPropertyOp43
 70
     1
102
RTVSPropertyOp44
 70
     1
102
RTVSPropertyOp45
 70
     1
102
RTVSPropertyOp46
 70
     1
102
RTVSPropertyOp47
 70
     1
102
RTVSPropertyOp48
 70
     1
102
RTVSPropertyOp49
 70
     1
102
RTVSPropertyOp50
 70
     1
102
RTVSPropertyOp51
 70
     0
102
RTVSPropertyOp52
 70
     0
102
RTVSPropertyOp53
 70
     1
102
RTVSPropertyOp54
 70
     1
102
RTVSPropertyOp55
 70
     1
102
RTVSPropertyOp56
 70
     1
102
RTVSPropertyOp57
 70
     1
102
RTVSPropertyOp58
 70
     1
102
RTVSPropertyOp59
 70
     1
102
RTVSPropertyOp60
 70
     1
102
RTVSPropertyOp61
 70
     1
102
RTVSPropertyOp62
 70
     1
  0
XRECORD
  5
44C
102
{ACAD_REACTORS
330
44B
102
}
330
44B
100
AcDbXrecord
280
     1
102
RTVSPost2010Prop28
280
     0
102
RTVSPost2010PropOp28
 70
     1
102
RTVSPost2010Prop29
280
     1
102
RTVSPost2010PropOp29
 70
     1
102
RTVSPost2010Prop30
280
     1
102
RTVSPost2010PropOp30
 70
     1
102
RTVSPost2010Prop31
280
     0
102
RTVSPost2010PropOp31
 70
     1
102
RTVSPost2010Prop32
280
     0
102
RTVSPost2010PropOp32
 70
     1
102
RTVSPost2010Prop33
280
     0
102
RTVSPost2010PropOp33
 70
     1
102
RTVSPost2010Prop34
280
     0
102
RTVSPost2010PropOp34
 70
     1
102
RTVSPost2010Prop35
280
     0
102
RTVSPost2010PropOp35
 70
     1
102
RTVSPost2010Prop36
280
     0
102
RTVSPost2010PropOp36
 70
     1
102
RTVSPost2010Prop37
 90
       50
102
RTVSPost2010PropOp37
 70
     1
102
RTVSPost2010Prop38
140
0.0
102
RTVSPost2010PropOp38
 70
     1
102
RTVSPost2010Prop39
140
1.0
102
RTVSPost2010PropOp39
 70
     1
102
RTVSPost2010Prop40
 90
        0
102
RTVSPost2010PropOp40
 70
     1
102
RTVSPost2010Prop41ColorIndex
 90
       18
102
RTVSPost2010Prop41ColorRGB
 90
        0
102
RTVSPost2010PropOp41
 70
     1
102
RTVSPost2010Prop42
 90
       50
102
RTVSPost2010PropOp42
 70
     1
102
RTVSPost2010Prop43
 90
        3
102
RTVSPost2010PropOp43
 70
     1
102
RTVSPost2010Prop44ColorIndex
 90
        5
102
RTVSPost2010Prop44ColorRGB
 90
      255
102
RTVSPost2010PropOp44
 70
     1
102
RTVSPost2010Prop45
280
     0
102
RTVSPost2010PropOp45
 70
     1
102
RTVSPost2010Prop46
 90
       50
102
RTVSPost2010PropOp46
 70
     1
102
RTVSPost2010Prop47
 90
       50
102
RTVSPost2010PropOp47
 70
     1
102
RTVSPost2010Prop48
 90
       50
102
RTVSPost2010PropOp48
 70
     1
102
RTVSPost2010Prop49
280
     0
102
RTVSPost2010PropOp49
 70
     1
102
RTVSPost2010Prop50
 90
       50
102
RTVSPost2010PropOp50
 70
     1
102
RTVSPost2010Prop51ColorIndex
 90
      256
102
RTVSPost2010Prop51ColorRGB
 90
-16777216
102
RTVSPost2010PropOp51
 70
     0
102
RTVSPost2010Prop52
140
1.0
102
RTVSPost2010PropOp52
 70
     0
102
RTVSPost2010Prop53
 90
        2
102
RTVSPost2010PropOp53
 70
     1
102
RTVSPost2010Prop54
  1
strokes_ogs.tif
102
RTVSPost2010PropOp54
 70
     1
102
RTVSPost2010Prop55
280
     0
102
RTVSPost2010PropOp55
 70
     1
102
RTVSPost2010Prop56
140
1.0
102
RTVSPost2010PropOp56
 70
     1
102
RTVSPost2010Prop57
140
1.0
102
RTVSPost2010PropOp57
 70
     1
102
RTVSPropertyOp0
 70
     1
102
RTVSPropertyOp1
 70
     1
102
RTVSPropertyOp2
 70
     1
102
RTVSPropertyOp3
 70
     1
102
RTVSPropertyOp4
 70
     1
102
RTVSPropertyOp5
 70
     1
102
RTVSPropertyOp6
 70
     1
102
RTVSPropertyOp7
 70
     1
102
RTVSPropertyOp8
 70
     1
102
RTVSPropertyOp9
 70
     1
102
RTVSPropertyOp10
 70
     1
102
RTVSPropertyOp11
 70
     1
102
RTVSPropertyOp12
 70
     1
102
RTVSPropertyOp13
 70
     1
102
RTVSPropertyOp14
 70
     1
102
RTVSPropertyOp15
 70
     1
102
RTVSPropertyOp16
 70
     1
102
RTVSPropertyOp17
 70
     1
102
RTVSPropertyOp18
 70
     1
102
RTVSPropertyOp19
 70
     1
102
RTVSPropertyOp20
 70
     1
102
RTVSPropertyOp21
 70
     1
102
RTVSPropertyOp22
 70
     1
102
RTVSPropertyOp23
 70
     1
102
RTVSPropertyOp24
 70
     1
102
RTVSPropertyOp25
 70
     1
102
RTVSPropertyOp26
 70
     1
102
RTVSPropertyOp27
 70
     1
102
RTVSPropertyOp28
 70
     1
102
RTVSPropertyOp29
 70
     1
102
RTVSPropertyOp30
 70
     1
102
RTVSPropertyOp31
 70
     1
102
RTVSPropertyOp32
 70
     1
102
RTVSPropertyOp33
 70
     1
102
RTVSPropertyOp34
 70
     1
102
RTVSPropertyOp35
 70
     1
102
RTVSPropertyOp36
 70
     1
102
RTVSPropertyOp37
 70
     1
102
RTVSPropertyOp38
 70
     1
102
RTVSPropertyOp39
 70
     1
102
RTVSPropertyOp40
 70
     1
102
RTVSPropertyOp41
 70
     1
102
RTVSPropertyOp42
 70
     1
102
RTVSPropertyOp43
 70
     1
102
RTVSPropertyOp44
 70
     1
102
RTVSPropertyOp45
 70
     1
102
RTVSPropertyOp46
 70
     1
102
RTVSPropertyOp47
 70
     1
102
RTVSPropertyOp48
 70
     1
102
RTVSPropertyOp49
 70
     1
102
RTVSPropertyOp50
 70
     1
102
RTVSPropertyOp51
 70
     0
102
RTVSPropertyOp52
 70
     0
102
RTVSPropertyOp53
 70
     1
102
RTVSPropertyOp54
 70
     1
102
RTVSPropertyOp55
 70
     1
102
RTVSPropertyOp56
 70
     1
102
RTVSPropertyOp57
 70
     1
102
RTVSPropertyOp58
 70
     1
102
RTVSPropertyOp59
 70
     1
102
RTVSPropertyOp60
 70
     1
102
RTVSPropertyOp61
 70
     1
102
RTVSPropertyOp62
 70
     1
  0
XRECORD
  5
464
102
{ACAD_REACTORS
330
463
102
}
330
463
100
AcDbXrecord
280
     1
102
RTVSPost2010Prop28
280
     0
102
RTVSPost2010PropOp28
 70
     1
102
RTVSPost2010Prop29
280
     1
102
RTVSPost2010PropOp29
 70
     1
102
RTVSPost2010Prop30
280
     1
102
RTVSPost2010PropOp30
 70
     1
102
RTVSPost2010Prop31
280
     0
102
RTVSPost2010PropOp31
 70
     1
102
RTVSPost2010Prop32
280
     0
102
RTVSPost2010PropOp32
 70
     1
102
RTVSPost2010Prop33
280
     0
102
RTVSPost2010PropOp33
 70
     1
102
RTVSPost2010Prop34
280
     0
102
RTVSPost2010PropOp34
 70
     1
102
RTVSPost2010Prop35
280
     0
102
RTVSPost2010PropOp35
 70
     1
102
RTVSPost2010Prop36
280
     0
102
RTVSPost2010PropOp36
 70
     1
102
RTVSPost2010Prop37
 90
       50
102
RTVSPost2010PropOp37
 70
     1
102
RTVSPost2010Prop38
140
0.0
102
RTVSPost2010PropOp38
 70
     1
102
RTVSPost2010Prop39
140
1.0
102
RTVSPost2010PropOp39
 70
     1
102
RTVSPost2010Prop40
 90
        0
102
RTVSPost2010PropOp40
 70
     1
102
RTVSPost2010Prop41ColorIndex
 90
       18
102
RTVSPost2010Prop41ColorRGB
 90
        0
102
RTVSPost2010PropOp41
 70
     1
102
RTVSPost2010Prop42
 90
       50
102
RTVSPost2010PropOp42
 70
     1
102
RTVSPost2010Prop43
 90
        3
102
RTVSPost2010PropOp43
 70
     1
102
RTVSPost2010Prop44ColorIndex
 90
        5
102
RTVSPost2010Prop44ColorRGB
 90
      255
102
RTVSPost2010PropOp44
 70
     1
102
RTVSPost2010Prop45
280
     0
102
RTVSPost2010PropOp45
 70
     1
102
RTVSPost2010Prop46
 90
       50
102
RTVSPost2010PropOp46
 70
     1
102
RTVSPost2010Prop47
 90
       50
102
RTVSPost2010PropOp47
 70
     1
102
RTVSPost2010Prop48
 90
       50
102
RTVSPost2010PropOp48
 70
     1
102
RTVSPost2010Prop49
280
     0
102
RTVSPost2010PropOp49
 70
     1
102
RTVSPost2010Prop50
 90
       50
102
RTVSPost2010PropOp50
 70
     1
102
RTVSPost2010Prop51ColorIndex
 90
      256
102
RTVSPost2010Prop51ColorRGB
 90
-16777216
102
RTVSPost2010PropOp51
 70
     0
102
RTVSPost2010Prop52
140
1.0
102
RTVSPost2010PropOp52
 70
     0
102
RTVSPost2010Prop53
 90
        2
102
RTVSPost2010PropOp53
 70
     1
102
RTVSPost2010Prop54
  1
strokes_ogs.tif
102
RTVSPost2010PropOp54
 70
     1
102
RTVSPost2010Prop55
280
     0
102
RTVSPost2010PropOp55
 70
     1
102
RTVSPost2010Prop56
140
1.0
102
RTVSPost2010PropOp56
 70
     1
102
RTVSPost2010Prop57
140
1.0
102
RTVSPost2010PropOp57
 70
     1
102
RTVSPropertyOp0
 70
     1
102
RTVSPropertyOp1
 70
     1
102
RTVSPropertyOp2
 70
     1
102
RTVSPropertyOp3
 70
     1
102
RTVSPropertyOp4
 70
     1
102
RTVSPropertyOp5
 70
     1
102
RTVSPropertyOp6
 70
     1
102
RTVSPropertyOp7
 70
     1
102
RTVSPropertyOp8
 70
     1
102
RTVSPropertyOp9
 70
     1
102
RTVSPropertyOp10
 70
     1
102
RTVSPropertyOp11
 70
     1
102
RTVSPropertyOp12
 70
     1
102
RTVSPropertyOp13
 70
     1
102
RTVSPropertyOp14
 70
     1
102
RTVSPropertyOp15
 70
     1
102
RTVSPropertyOp16
 70
     1
102
RTVSPropertyOp17
 70
     1
102
RTVSPropertyOp18
 70
     1
102
RTVSPropertyOp19
 70
     1
102
RTVSPropertyOp20
 70
     1
102
RTVSPropertyOp21
 70
     1
102
RTVSPropertyOp22
 70
     1
102
RTVSPropertyOp23
 70
     1
102
RTVSPropertyOp24
 70
     1
102
RTVSPropertyOp25
 70
     1
102
RTVSPropertyOp26
 70
     1
102
RTVSPropertyOp27
 70
     1
102
RTVSPropertyOp28
 70
     1
102
RTVSPropertyOp29
 70
     1
102
RTVSPropertyOp30
 70
     1
102
RTVSPropertyOp31
 70
     1
102
RTVSPropertyOp32
 70
     1
102
RTVSPropertyOp33
 70
     1
102
RTVSPropertyOp34
 70
     1
102
RTVSPropertyOp35
 70
     1
102
RTVSPropertyOp36
 70
     1
102
RTVSPropertyOp37
 70
     1
102
RTVSPropertyOp38
 70
     1
102
RTVSPropertyOp39
 70
     1
102
RTVSPropertyOp40
 70
     1
102
RTVSPropertyOp41
 70
     1
102
RTVSPropertyOp42
 70
     1
102
RTVSPropertyOp43
 70
     1
102
RTVSPropertyOp44
 70
     1
102
RTVSPropertyOp45
 70
     1
102
RTVSPropertyOp46
 70
     1
102
RTVSPropertyOp47
 70
     1
102
RTVSPropertyOp48
 70
     1
102
RTVSPropertyOp49
 70
     1
102
RTVSPropertyOp50
 70
     1
102
RTVSPropertyOp51
 70
     0
102
RTVSPropertyOp52
 70
     0
102
RTVSPropertyOp53
 70
     1
102
RTVSPropertyOp54
 70
     1
102
RTVSPropertyOp55
 70
     1
102
RTVSPropertyOp56
 70
     1
102
RTVSPropertyOp57
 70
     1
102
RTVSPropertyOp58
 70
     1
102
RTVSPropertyOp59
 70
     1
102
RTVSPropertyOp60
 70
     1
102
RTVSPropertyOp61
 70
     1
102
RTVSPropertyOp62
 70
     1
  0
ENDSEC
  0
EOF
