  0
SECTION
  2
HEADER
  9
$ACADVER
  1
AC1009
  9
$INSBASE
 10
0.0
 20
0.0
 30
0.0
  9
$EXTMIN
 10
-575.04119558730315
 20
-867.37377437613566
 30
-0.0015258207003583
  9
$EXTMAX
 10
775.04120187373019
 20
1138.0179281775629
 30
0.0000000349246037
  9
$LIMMIN
 10
0.0
 20
0.0
  9
$LIMMAX
 10
0.0
 20
0.0
  9
$ORTHOMODE
 70
     0
  9
$REGENMODE
 70
     1
  9
$FILLMODE
 70
     1
  9
$QTEXTMODE
 70
     0
  9
$MIRRTEXT
 70
     1
  9
$DRAGMODE
 70
     2
  9
$LTSCALE
 40
38.100000000000001
  9
$OSMODE
 70
   167
  9
$ATTMODE
 70
     1
  9
$TEXTSIZE
 40
0.0
  9
$TRACEWID
 40
1.0
  9
$TEXTSTYLE
  7
STANDARD
  9
$CLAYER
  8
DATA
  9
$CELTYPE
  6
CONTINUOUS
  9
$CECOLOR
 62
   256
  9
$DIMSCALE
 40
1.0
  9
$DIMASZ
 40
0.18
  9
$DIMEXO
 40
0.0625
  9
$DIMDLI
 40
0.38
  9
$DIMRND
 40
0.0
  9
$DIMDLE
 40
0.0
  9
$DIMEXE
 40
0.18
  9
$DIMTP
 40
0.0
  9
$DIMTM
 40
0.0
  9
$DIMTXT
 40
0.18
  9
$DIMCEN
 40
0.09
  9
$DIMTSZ
 40
0.0
  9
$DIMTOL
 70
     0
  9
$DIMLIM
 70
     0
  9
$DIMTIH
 70
     1
  9
$DIMTOH
 70
     1
  9
$DIMSE1
 70
     0
  9
$DIMSE2
 70
     0
  9
$DIMTAD
 70
     0
  9
$DIMZIN
 70
     0
  9
$DIMBLK
  1

  9
$DIMASO
 70
     1
  9
$DIMSHO
 70
     1
  9
$DIMPOST
  1

  9
$DIMAPOST
  1

  9
$DIMALT
 70
     0
  9
$DIMALTD
 70
     2
  9
$DIMALTF
 40
25.399999999999999
  9
$DIMLFAC
 40
1.0
  9
$DIMTOFL
 70
     0
  9
$DIMTVP
 40
0.0
  9
$DIMTIX
 70
     0
  9
$DIMSOXD
 70
     0
  9
$DIMSAH
 70
     0
  9
$DIMBLK1
  1

  9
$DIMBLK2
  1

  9
$DIMSTYLE
  2
STANDARD
  9
$DIMCLRD
 70
     0
  9
$DIMCLRE
 70
     0
  9
$DIMCLRT
 70
     0
  9
$DIMTFAC
 40
1.0
  9
$DIMGAP
 40
0.09
  9
$LUNITS
 70
     2
  9
$LUPREC
 70
     4
  9
$SKETCHINC
 40
0.1
  9
$FILLETRAD
 40
0.0
  9
$AUNITS
 70
     0
  9
$AUPREC
 70
     0
  9
$MENU
  1
acad
  9
$ELEVATION
 40
0.0
  9
$PELEVATION
 40
0.0
  9
$THICKNESS
 40
0.0
  9
$LIMCHECK
 70
     0
  9
$BLIPMODE
 70
     0
  9
$CHAMFERA
 40
0.0
  9
$CHAMFERB
 40
0.0
  9
$SKPOLY
 70
     0
  9
$TDCREATE
 40
2452739.7688657409
  9
$TDUPDATE
 40
2452739.7980203698
  9
$TDINDWG
 40
0.0002753472
  9
$TDUSRTIMER
 40
0.0002753472
  9
$USRTIMER
 70
     1
  9
$ANGBASE
 50
0.0
  9
$ANGDIR
 70
     0
  9
$PDMODE
 70
     1
  9
$PDSIZE
 40
-2.0
  9
$PLINEWID
 40
0.0
  9
$COORDS
 70
     0
  9
$SPLFRAME
 70
     0
  9
$SPLINETYPE
 70
     6
  9
$SPLINESEGS
 70
     8
  9
$ATTDIA
 70
     0
  9
$ATTREQ
 70
     1
  9
$HANDLING
 70
     1
  9
$HANDSEED
  5
7D9
  9
$SURFTAB1
 70
     6
  9
$SURFTAB2
 70
     6
  9
$SURFTYPE
 70
     6
  9
$SURFU
 70
     6
  9
$SURFV
 70
     6
  9
$UCSNAME
  2

  9
$UCSORG
 10
0.0
 20
0.0
 30
0.0
  9
$UCSXDIR
 10
1.0
 20
0.0
 30
0.0
  9
$UCSYDIR
 10
0.0
 20
1.0
 30
0.0
  9
$PUCSNAME
  2

  9
$PUCSORG
 10
0.0
 20
0.0
 30
0.0
  9
$PUCSXDIR
 10
1.0
 20
0.0
 30
0.0
  9
$PUCSYDIR
 10
0.0
 20
1.0
 30
0.0
  9
$USERI1
 70
     0
  9
$USERI2
 70
     0
  9
$USERI3
 70
     0
  9
$USERI4
 70
     0
  9
$USERI5
 70
     0
  9
$USERR1
 40
0.0
  9
$USERR2
 40
0.0
  9
$USERR3
 40
0.0
  9
$USERR4
 40
0.0
  9
$USERR5
 40
0.0
  9
$WORLDVIEW
 70
     1
  9
$SHADEDGE
 70
     3
  9
$SHADEDIF
 70
    70
  9
$TILEMODE
 70
     1
  9
$MAXACTVP
 70
    16
  9
$PLIMCHECK
 70
     0
  9
$PEXTMIN
 10
1.0000000000000000E+020
 20
1.0000000000000000E+020
 30
1.0000000000000000E+020
  9
$PEXTMAX
 10
-1.0000000000000000E+020
 20
-1.0000000000000000E+020
 30
-1.0000000000000000E+020
  9
$PLIMMIN
 10
0.0
 20
0.0
  9
$PLIMMAX
 10
12.0
 20
9.0
  9
$UNITMODE
 70
     0
  9
$VISRETAIN
 70
     0
  9
$PLINEGEN
 70
     1
  9
$PSLTSCALE
 70
     0
  0
ENDSEC
  0
SECTION
  2
TABLES
  0
TABLE
  2
VPORT
 70
     2
  0
VPORT
  2
*ACTIVE
 70
     0
 10
0.0
 20
0.0
 11
1.0
 21
1.0
 12
100.0000031432136
 22
135.32207690071391
 13
0.0
 23
0.0
 14
1.0
 24
1.0
 15
0.0
 25
0.0
 16
0.0
 26
0.0
 36
1.0
 17
0.0
 27
0.0
 37
0.0
 40
2026.9550541940609
 41
1.703770197486534
 42
50.0
 43
0.0
 44
0.0
 50
0.0
 51
0.0
 71
     0
 72
   100
 73
     1
 74
     1
 75
     0
 76
     0
 77
     0
 78
     0
  0
ENDTAB
  0
TABLE
  2
LTYPE
 70
    11
  0
LTYPE
  2
CONTINUOUS
 70
     0
  3
Solid line
 72
    65
 73
     0
 40
0.0
  0
LTYPE
  2
STYLE_01
 70
     0
  3

 72
    65
 73
     2
 40
0.4166412353515625
 49
0.208282470703125
 49
-0.2083587646484375
  0
LTYPE
  2
STYLE_02
 70
     0
  3

 72
    65
 73
     2
 40
0.694427490234375
 49
0.4860687255859375
 49
-0.2083587646484375
  0
LTYPE
  2
STYLE_03
 70
     0
  3

 72
    65
 73
     2
 40
1.25
 49
1.0416412353515621
 49
-0.2083587646484375
  0
LTYPE
  2
STYLE_04
 70
     0
  3

 72
    65
 73
     2
 40
1.5277099609375
 49
1.319427490234375
 49
-0.208282470703125
  0
LTYPE
  2
STYLE_05
 70
     0
  3

 72
    65
 73
     2
 40
0.208282470703125
 49
0.069427490234375
 49
-0.13885498046875
  0
LTYPE
  2
STYLE_06
 70
     0
  3

 72
    65
 73
     4
 40
1.0416412353515621
 49
0.625
 49
-0.208282470703125
 49
0.069427490234375
 49
-0.1389312744140625
  0
LTYPE
  2
STYLE_07
 70
     0
  3

 72
    65
 73
     6
 40
1.875
 49
0.625
 49
-0.208282470703125
 49
0.625
 49
-0.2083587646484375
 49
0.069427490234375
 49
-0.1389312744140625
  0
LTYPE
  2
STYLE_08
 70
     0
  3

 72
    65
 73
     6
 40
1.25
 49
0.625
 49
-0.208282470703125
 49
0.069427490234375
 49
-0.1389312744140625
 49
0.069427490234375
 49
-0.1389312744140625
  0
LTYPE
  2
STYLE_09
 70
     0
  3

 72
    65
 73
     4
 40
5.0
 49
3.75
 49
-0.2777862548828125
 49
0.694427490234375
 49
-0.2777862548828125
  0
LTYPE
  2
STYLE_10
 70
     0
  3

 72
    65
 73
     6
 40
5.9375
 49
3.75
 49
-0.2777862548828125
 49
0.694427490234375
 49
-0.2777862548828125
 49
0.625
 49
-0.3125
  0
ENDTAB
  0
TABLE
  2
LAYER
 70
     5
  0
LAYER
  2
0
 70
     0
 62
     7
  6
CONTINUOUS
  0
LAYER
  2
HIBINO-BASE
 70
     0
 62
     7
  6
CONTINUOUS
  0
LAYER
  2
SPEC
 70
     0
 62
     7
  6
CONTINUOUS
  0
LAYER
  2
DIMNSIONS
 70
     0
 62
     7
  6
CONTINUOUS
  0
LAYER
  2
DATA
 70
     0
 62
     7
  6
CONTINUOUS
  0
ENDTAB
  0
TABLE
  2
STYLE
 70
     2
  0
STYLE
  2
STANDARD
 70
     0
 40
0.0
 41
1.0
 50
0.0
 71
     0
 42
0.0
  3
txt
  4
BIGFONT.SHX
  0
ENDTAB
  0
TABLE
  2
VIEW
 70
     0
  0
ENDTAB
  0
TABLE
  2
UCS
 70
     0
  0
ENDTAB
  0
TABLE
  2
APPID
 70
     1
  0
APPID
  2
ACAD
 70
     0
  0
ENDTAB
  0
TABLE
  2
DIMSTYLE
 70
     1
  0
DIMSTYLE
  2
STANDARD
 70
     0
  3

  4

  5

  6

  7

 40
1.0
 41
0.18
 42
0.0625
 43
0.38
 44
0.18
 45
0.0
 46
0.0
 47
0.0
 48
0.0
140
0.18
141
0.09
142
0.0
143
25.399999999999999
144
1.0
145
0.0
146
1.0
147
0.09
 71
     0
 72
     0
 73
     1
 74
     1
 75
     0
 76
     0
 77
     0
 78
     0
170
     0
171
     2
172
     0
173
     0
174
     0
175
     0
176
     0
177
     0
178
     0
  0
ENDTAB
  0
ENDSEC
  0
SECTION
  2
BLOCKS
  0
BLOCK
  8
0
  2
$MODEL_SPACE
 70
     0
 10
0.0
 20
0.0
 30
0.0
  3
$MODEL_SPACE
  1

  0
ENDBLK
  5
570
  8
0
  0
BLOCK
 67
     1
  8
0
  2
$PAPER_SPACE
 70
     0
 10
0.0
 20
0.0
 30
0.0
  3
$PAPER_SPACE
  1

  0
ENDBLK
  5
56C
 67
     1
  8
0
  0
ENDSEC
  0
SECTION
  2
ENTITIES
  0
LINE
  5
2C
  8
HIBINO-BASE
  6
CONTINUOUS
 62
     7
 10
-574.99999999999989
 20
1137.9567975
 30
0.0
 11
775.0
 21
1137.9567975
 31
0.0
  0
LINE
  5
2D
  8
HIBINO-BASE
  6
CONTINUOUS
 62
     7
 10
775.0
 20
-812.04320250000012
 30
0.0
 11
-574.99999999999989
 21
-812.04320250000012
 31
0.0
  0
LINE
  5
2E
  8
HIBINO-BASE
  6
CONTINUOUS
 62
     7
 10
-574.99999999999989
 20
-812.04320250000012
 30
0.0
 11
-574.99999999999989
 21
1137.9567975
 31
0.0
  0
TEXT
  5
2F
  8
HIBINO-BASE
  6
CONTINUOUS
 62
     7
 10
-521.11999999999978
 20
-858.00308249999989
 30
0.0
 40
28.069379999999988
  1
Hibino Corporation
 41
0.85
 11
-521.11999999999978
 21
-829.93370249999987
 31
0.0
 73
     3
  0
LINE
  5
30
  8
HIBINO-BASE
  6
CONTINUOUS
 62
     7
 10
775.0
 20
1137.9567975
 30
0.0
 11
775.0
 21
-812.04320250000012
 31
0.0
  0
LINE
  5
31
  8
HIBINO-BASE
  6
CONTINUOUS
 62
     7
 10
100.0
 20
-643.29320250000001
 30
0.0
 11
775.0
 21
-643.29320250000001
 31
0.0
  0
LINE
  5
32
  8
HIBINO-BASE
  6
CONTINUOUS
 62
     7
 10
100.0
 20
-812.04320250000012
 30
0.0
 11
100.0
 21
-643.29320250000001
 31
0.0
  0
TEXT
  5
33
  8
HIBINO-BASE
  6
CONTINUOUS
 62
     7
 10
106.75
 20
-661.15590250000002
 30
0.0
 40
12.69999999999999
  1
NOTE
 41
0.85
 11
106.75
 21
-648.45590249999998
 31
0.0
 73
     3
  0
LINE
  5
34
  8
HIBINO-BASE
  6
CONTINUOUS
 62
     7
 10
362.5
 20
-812.04320250000012
 30
0.0
 11
362.5
 21
-643.29320250000001
 31
0.0
  0
TEXT
  5
35
  8
HIBINO-BASE
  6
CONTINUOUS
 62
     7
 10
369.24999999999989
 20
-661.15590250000002
 30
0.0
 40
12.69999999999999
  1
TITLE
 41
0.85
 11
369.24999999999989
 21
-648.45590249999998
 31
0.0
 73
     3
  0
TEXT
  5
36
  8
HIBINO-BASE
  6
CONTINUOUS
 62
     7
 10
475.512925
 20
-858.00308249999989
 30
0.0
 40
28.069379999999988
  1
ヒビノ株式会社
 41
0.85
 11
475.512925
 21
-829.93370249999987
 31
0.0
 73
     3
  0
LINE
  5
37
  8
HIBINO-BASE
  6
CONTINUOUS
 62
     7
 10
100.0
 20
-737.04320250000001
 30
0.0
 11
775.0
 21
-737.04320250000001
 31
0.0
  0
TEXT
  5
38
  8
HIBINO-BASE
  6
CONTINUOUS
 62
     7
 10
463.0
 20
-754.4835025000001
 30
0.0
 40
12.69999999999999
  1
DRAWN
 41
0.85
 11
463.0
 21
-741.78350250000005
 31
0.0
 73
     3
  0
TEXT
  5
39
  8
HIBINO-BASE
  6
CONTINUOUS
 62
     7
 10
275.49999999999989
 20
-754.4835025000001
 30
0.0
 40
12.69999999999999
  1
DATE
 41
0.85
 11
275.49999999999989
 21
-741.78350250000005
 31
0.0
 73
     3
  0
TEXT
  5
3A
  8
HIBINO-BASE
  6
CONTINUOUS
 62
     7
 10
108.25
 20
-755.73662249999984
 30
0.0
 40
12.70002
  1
図面サイズ
 41
0.85
 11
108.25
 21
-743.03660249999984
 31
0.0
 73
     3
  0
TEXT
  5
3B
  8
HIBINO-BASE
  6
CONTINUOUS
 62
     7
 10
200.49999999999989
 20
-754.4835025000001
 30
0.0
 40
12.69999999999999
  1
SCALE
 41
0.85
 11
200.49999999999989
 21
-741.78350250000005
 31
0.0
 73
     3
  0
TEXT
  5
3C
  8
HIBINO-BASE
  6
CONTINUOUS
 62
     7
 10
369.24999999999989
 20
-754.4835025000001
 30
0.0
 40
12.69999999999999
  1
DESIGN
 41
0.85
 11
369.24999999999989
 21
-741.78350250000005
 31
0.0
 73
     3
  0
TEXT
  5
3D
  8
HIBINO-BASE
  6
CONTINUOUS
 62
     7
 10
650.49999999999989
 20
-754.4835025000001
 30
0.0
 40
12.69999999999999
  1
DRAWING NO.
 41
0.85
 11
650.49999999999989
 21
-741.78350250000005
 31
0.0
 73
     3
  0
TEXT
  5
3E
  8
HIBINO-BASE
  6
CONTINUOUS
 62
     7
 10
556.74999999999989
 20
-754.4835025000001
 30
0.0
 40
12.69999999999999
  1
CHECK
 41
0.85
 11
556.74999999999989
 21
-741.78350250000005
 31
0.0
 73
     3
  0
LINE
  5
3F
  8
HIBINO-BASE
  6
CONTINUOUS
 62
     7
 10
207.8125
 20
-802.66820250000012
 30
0.0
 11
235.9375
 21
-774.54320250000001
 31
0.0
  0
TEXT
  5
40
  8
HIBINO-BASE
  6
CONTINUOUS
 62
     7
 10
203.125
 20
-781.90777750000007
 30
0.0
 40
12.69999999999999
  1
1
 41
0.85
 11
203.125
 21
-769.20777750000002
 31
0.0
 73
     3
  0
LINE
  5
41
  8
HIBINO-BASE
  6
CONTINUOUS
 62
     7
 10
193.75
 20
-812.04320250000012
 30
0.0
 11
193.75
 21
-737.04320250000001
 31
0.0
  0
LINE
  5
42
  8
HIBINO-BASE
  6
CONTINUOUS
 62
     7
 10
268.74999999999989
 20
-812.04320250000012
 30
0.0
 11
268.74999999999989
 21
-737.04320250000001
 31
0.0
  0
LINE
  5
43
  8
HIBINO-BASE
  6
CONTINUOUS
 62
     7
 10
456.25
 20
-737.04320250000001
 30
0.0
 11
456.25
 21
-812.04320250000012
 31
0.0
  0
LINE
  5
44
  8
HIBINO-BASE
  6
CONTINUOUS
 62
     7
 10
643.75
 20
-737.04320250000001
 30
0.0
 11
643.75
 21
-812.04320250000012
 31
0.0
  0
LINE
  5
45
  8
HIBINO-BASE
  6
CONTINUOUS
 62
     7
 10
549.99999999999989
 20
-812.04320250000012
 30
0.0
 11
549.99999999999989
 21
-737.04320250000001
 31
0.0
  0
TEXT
  5
46
  8
HIBINO-BASE
  6
CONTINUOUS
 62
     7
 10
275.17405000000002
 20
-789.61335250000025
 30
0.0
 40
12.69999999999999
  1
'00.01.
 41
0.85
 11
275.17405000000002
 21
-776.91335250000009
 31
0.0
 73
     3
  0
TEXT
  5
47
  8
HIBINO-BASE
  6
CONTINUOUS
 62
     7
 10
231.25
 20
-795.97027750000007
 30
0.0
 40
12.69999999999999
  1
7.5
 41
0.85
 11
231.25
 21
-783.27027750000002
 31
0.0
 73
     3
  0
TEXT
  5
48
  8
HIBINO-BASE
  6
CONTINUOUS
 62
     7
 10
467.54357508275967
 20
-789.61335250000025
 30
0.0
 40
12.69999999999999
  1
N.Sasaki
 41
0.85
 11
467.54357508275967
 21
-776.91335250000009
 31
0.0
 73
     3
  0
TEXT
  5
49
  8
HIBINO-BASE
  6
CONTINUOUS
 62
     7
 10
129.12500000000011
 20
-795.31820249999998
 30
0.0
 40
25.399999999999991
  1
A4
 41
0.85
 11
129.12500000000011
 21
-769.91820249999989
 31
0.0
 73
     3
  0
LINE
  5
4A
  8
SPEC
  6
CONTINUOUS
 62
     7
 10
-518.74999999999989
 20
1062.9567974999991
 30
0.0
 11
625.0
 21
1062.9567974999991
 31
0.0
  0
LINE
  5
4B
  8
SPEC
  6
CONTINUOUS
 62
     7
 10
-518.74999999999989
 20
1034.8317974999991
 30
0.0
 11
625.0
 21
1034.8317974999991
 31
0.0
  0
LINE
  5
4C
  8
SPEC
  6
CONTINUOUS
 62
     7
 10
-518.74999999999989
 20
781.70679749999965
 30
0.0
 11
625.0
 21
781.70679749999965
 31
0.0
  0
LINE
  5
4D
  8
SPEC
  6
CONTINUOUS
 62
     7
 10
-518.74999999999989
 20
725.45679749999965
 30
0.0
 11
625.0
 21
725.45679749999965
 31
0.0
  0
LINE
  5
4E
  8
SPEC
  6
CONTINUOUS
 62
     7
 10
-518.74999999999989
 20
753.58179749999965
 30
0.0
 11
625.0
 21
753.58179749999965
 31
0.0
  0
LINE
  5
4F
  8
SPEC
  6
CONTINUOUS
 62
     7
 10
-518.74999999999989
 20
669.20679749999977
 30
0.0
 11
625.0
 21
669.20679749999977
 31
0.0
  0
LINE
  5
50
  8
SPEC
  6
CONTINUOUS
 62
     7
 10
-518.74999999999989
 20
584.83179749999977
 30
0.0
 11
625.0
 21
584.83179749999977
 31
0.0
  0
LINE
  5
51
  8
SPEC
  6
CONTINUOUS
 62
     7
 10
-518.74999999999989
 20
641.08179749999977
 30
0.0
 11
625.0
 21
641.08179749999977
 31
0.0
  0
LINE
  5
52
  8
SPEC
  6
CONTINUOUS
 62
     7
 10
-518.74999999999989
 20
1062.9567974999991
 30
0.0
 11
-518.74999999999989
 21
387.95679749999988
 31
0.0
  0
TEXT
  5
53
  8
SPEC
  6
CONTINUOUS
 62
     7
 10
-509.37499999999989
 20
1074.8350724999989
 30
0.0
 40
19.050000000000001
  1
仕様
 41
0.85
 11
-509.37499999999989
 21
1093.8850724999991
 31
0.0
 73
     3
  0
LINE
  5
54
  8
SPEC
  6
CONTINUOUS
 62
     7
 10
-274.99999999999989
 20
1062.9567974999991
 30
0.0
 11
-274.99999999999989
 21
387.95679749999971
 31
0.0
  0
LINE
  5
55
  8
SPEC
  6
CONTINUOUS
 62
     7
 10
-518.74999999999989
 20
894.20679749999965
 30
0.0
 11
625.0
 21
894.20679749999965
 31
0.0
  0
LINE
  5
56
  8
SPEC
  6
CONTINUOUS
 62
     7
 10
-518.74999999999989
 20
866.08179749999965
 30
0.0
 11
625.0
 21
866.08179749999965
 31
0.0
  0
LINE
  5
57
  8
SPEC
  6
CONTINUOUS
 62
     7
 10
-518.74999999999989
 20
837.95679749999965
 30
0.0
 11
625.0
 21
837.95679749999965
 31
0.0
  0
LINE
  5
58
  8
SPEC
  6
CONTINUOUS
 62
     7
 10
-518.74999999999989
 20
697.33179749999965
 30
0.0
 11
625.0
 21
697.33179749999965
 31
0.0
  0
LINE
  5
59
  8
SPEC
  6
CONTINUOUS
 62
     7
 10
-518.74999999999989
 20
528.58179749999977
 30
0.0
 11
625.0
 21
528.58179749999977
 31
0.0
  0
LINE
  5
5A
  8
SPEC
  6
CONTINUOUS
 62
     7
 10
-518.74999999999989
 20
556.70679749999977
 30
0.0
 11
625.0
 21
556.70679749999977
 31
0.0
  0
LINE
  5
5B
  8
SPEC
  6
CONTINUOUS
 62
     7
 10
-518.74999999999989
 20
500.45679749999988
 30
0.0
 11
625.0
 21
500.45679749999988
 31
0.0
  0
LINE
  5
5C
  8
SPEC
  6
CONTINUOUS
 62
     7
 10
-518.74999999999989
 20
416.08179749999988
 30
0.0
 11
625.0
 21
416.08179749999988
 31
0.0
  0
LINE
  5
5D
  8
SPEC
  6
CONTINUOUS
 62
     7
 10
-518.74999999999989
 20
444.20679749999988
 30
0.0
 11
625.0
 21
444.20679749999988
 31
0.0
  0
LINE
  5
5E
  8
SPEC
  6
CONTINUOUS
 62
     7
 10
175.0
 20
1062.9567974999991
 30
0.0
 11
175.0
 21
387.95679749999971
 31
0.0
  0
LINE
  5
5F
  8
SPEC
  6
CONTINUOUS
 62
     7
 10
625.0
 20
1062.9567974999991
 30
0.0
 11
625.0
 21
387.95679749999988
 31
0.0
  0
TEXT
  5
60
  8
SPEC
  6
CONTINUOUS
 62
     7
 10
-512.0
 20
648.10246416666621
 30
0.0
 40
14.816666666666659
  1
入力感度
 41
0.85
 11
-512.0
 21
662.91913083333293
 31
0.0
 73
     3
  0
TEXT
  5
61
  8
SPEC
  6
CONTINUOUS
 62
     7
 10
-512.0
 20
619.97746416666621
 30
0.0
 40
14.816666666666659
  1
入力コネクタ
 41
0.85
 11
-512.0
 21
634.79413083333293
 31
0.0
 73
     3
  0
TEXT
  5
62
  8
SPEC
  6
CONTINUOUS
 62
     7
 10
-512.0
 20
535.60246416666621
 30
0.0
 40
14.816666666666659
  1
インジケータ
 41
0.85
 11
-512.0
 21
550.41913083333293
 31
0.0
 73
     3
  0
TEXT
  5
63
  8
SPEC
  6
CONTINUOUS
 62
     7
 10
-512.0
 20
507.47746416666621
 30
0.0
 40
14.816666666666659
  1
電源
 41
0.85
 11
-512.0
 21
522.29413083333293
 31
0.0
 73
     3
  0
TEXT
  5
64
  8
SPEC
  6
CONTINUOUS
 62
     7
 10
-512.0
 20
394.97746416666621
 30
0.0
 40
14.816666666666659
  1
重量
 41
0.85
 11
-512.0
 21
409.79413083333287
 31
0.0
 73
     3
  0
TEXT
  5
65
  8
SPEC
  6
CONTINUOUS
 62
     7
 10
-512.0
 20
423.10246416666621
 30
0.0
 40
14.816666666666659
  1
寸法
 41
0.85
 11
-512.0
 21
437.91913083333287
 31
0.0
 73
     3
  0
TEXT
  5
66
  8
SPEC
  6
CONTINUOUS
 62
     7
 10
-512.0
 20
479.35246416666621
 30
0.0
 40
14.816666666666659
  1
消費電力
 41
0.85
 11
-512.0
 21
494.16913083333287
 31
0.0
 73
     3
  0
TEXT
  5
67
  8
SPEC
  6
CONTINUOUS
 62
     7
 10
-512.0
 20
563.72746416666621
 30
0.0
 40
14.816666666666659
  1
出力コネクタ
 41
0.85
 11
-512.0
 21
578.54413083333293
 31
0.0
 73
     3
  0
TEXT
  5
68
  8
SPEC
  6
CONTINUOUS
 62
     7
 10
-512.0
 20
1013.727464166666
 30
0.0
 40
14.816666666666659
  1
出力
 41
0.85
 11
-512.0
 21
1028.544130833332
 31
0.0
 73
     3
  0
TEXT
  5
69
  8
SPEC
  6
CONTINUOUS
 62
     7
 10
-512.0
 20
873.10246416666621
 30
0.0
 40
14.816666666666659
  1
周波数特性
 41
0.85
 11
-512.0
 21
887.91913083333293
 31
0.0
 73
     3
  0
TEXT
  5
6A
  8
SPEC
  6
CONTINUOUS
 62
     7
 10
-512.0
 20
844.97746416666621
 30
0.0
 40
14.816666666666659
  1
SN比
 41
0.85
 11
-512.0
 21
859.79413083333293
 31
0.0
 73
     3
  0
TEXT
  5
6B
  8
SPEC
  6
CONTINUOUS
 62
     7
 10
-512.0
 20
990.72746416666621
 30
0.0
 40
14.816666666666659
  1
(1kHz , THD 0.1%%%)
 41
0.85
 11
-512.0
 21
1005.544130833332
 31
0.0
 73
     3
  0
TEXT
  5
6C
  8
SPEC
  6
CONTINUOUS
 62
     7
 10
-512.0
 20
816.85246416666621
 30
0.0
 40
14.816666666666659
  1
THD
 41
0.85
 11
-512.0
 21
831.66913083333293
 31
0.0
 73
     3
  0
TEXT
  5
6D
  8
SPEC
  6
CONTINUOUS
 62
     7
 10
-512.0
 20
732.47746416666621
 30
0.0
 40
14.816666666666659
  1
ダンピングファクタ
 41
0.85
 11
-512.0
 21
747.29413083333293
 31
0.0
 73
     3
  0
TEXT
  5
6E
  8
SPEC
  6
CONTINUOUS
 62
     7
 10
-512.0
 20
760.60246416666621
 30
0.0
 40
14.816666666666659
  1
IMD
 41
0.85
 11
-512.0
 21
775.41913083333293
 31
0.0
 73
     3
  0
TEXT
  5
6F
  8
SPEC
  6
CONTINUOUS
 62
     7
 10
-512.0
 20
676.22746416666621
 30
0.0
 40
14.816666666666659
  1
入力インピーダンス
 41
0.85
 11
-512.0
 21
691.04413083333293
 31
0.0
 73
     3
  0
TEXT
  5
70
  8
SPEC
  6
CONTINUOUS
 62
     7
 10
-512.0
 20
704.35246416666621
 30
0.0
 40
14.816666666666659
  1
スルーレート
 41
0.85
 11
-512.0
 21
719.16913083333293
 31
0.0
 73
     3
  0
TEXT
  5
71
  8
SPEC
  6
CONTINUOUS
 62
     7
 10
-268.24999999999989
 20
648.10246416666621
 30
0.0
 40
14.816666666666659
  1
0.775V/26dB 電圧ゲイン
 41
0.85
 11
-268.24999999999989
 21
662.91913083333293
 31
0.0
 73
     3
  0
TEXT
  5
72
  8
SPEC
  6
CONTINUOUS
 62
     7
 10
-268.24999999999989
 20
423.10246416666621
 30
0.0
 40
14.816666666666659
  1
483(W)×44.5(H)×213(D)mm(マウント面から)
 41
0.85
 11
-268.24999999999989
 21
437.91913083333287
 31
0.0
 73
     3
  0
TEXT
  5
73
  8
SPEC
  6
CONTINUOUS
 62
     7
 10
-268.24999999999989
 20
619.97746416666621
 30
0.0
 40
14.816666666666659
  1
XLR-3-31相当(バランス,2-HOT)
 41
0.85
 11
-268.24999999999989
 21
634.79413083333293
 31
0.0
 73
     3
  0
TEXT
  5
74
  8
SPEC
  6
CONTINUOUS
 62
     7
 10
-268.24999999999989
 20
596.97746416666621
 30
0.0
 40
14.816666666666659
  1
ステレオフォーンジャック（バランス）
 41
0.85
 11
-268.24999999999989
 21
611.79413083333293
 31
0.0
 73
     3
  0
TEXT
  5
75
  8
SPEC
  6
CONTINUOUS
 62
     7
 10
-268.24999999999989
 20
479.35246416666649
 30
0.0
 40
14.816666666666659
  1
電気用品取締法による : 110W
 41
0.85
 11
-268.24999999999989
 21
494.1691308333331
 31
0.0
 73
     3
  0
TEXT
  5
76
  8
SPEC
  6
CONTINUOUS
 62
     7
 10
-268.24999999999989
 20
456.35246416666632
 30
0.0
 40
14.816666666666659
  1
4Ω+4Ω定格出力時　  : 270W
 41
0.85
 11
-268.24999999999989
 21
471.16913083333287
 31
0.0
 73
     3
  0
TEXT
  5
77
  8
SPEC
  6
CONTINUOUS
 62
     7
 10
-268.24999999999989
 20
507.47746416666621
 30
0.0
 40
14.816666666666659
  1
AC100V,50/60Hz
 41
0.85
 11
-268.24999999999989
 21
522.29413083333293
 31
0.0
 73
     3
  0
TEXT
  5
78
  8
SPEC
  6
CONTINUOUS
 62
     7
 10
-268.24999999999989
 20
563.72746416666621
 30
0.0
 40
14.816666666666659
  1
ネジ止め端子
 41
0.85
 11
-268.24999999999989
 21
578.54413083333293
 31
0.0
 73
     3
  0
TEXT
  5
79
  8
SPEC
  6
CONTINUOUS
 62
     7
 10
-268.24999999999989
 20
535.60246416666621
 30
0.0
 40
14.816666666666659
  1
SIGNAL,IOC
 41
0.85
 11
-268.24999999999989
 21
550.41913083333293
 31
0.0
 73
     3
  0
TEXT
  5
7A
  8
SPEC
  6
CONTINUOUS
 62
     7
 10
-268.24999999999989
 20
394.97746416666621
 30
0.0
 40
14.816666666666659
  1
約4.5kg
 41
0.85
 11
-268.24999999999989
 21
409.79413083333287
 31
0.0
 73
     3
  0
TEXT
  5
7B
  8
SPEC
  6
CONTINUOUS
 62
     7
 10
-268.24999999999989
 20
676.22746416666621
 30
0.0
 40
14.816666666666659
  1
20kΩ(バランス),10kΩ(アンバランス)
 41
0.85
 11
-268.24999999999989
 21
691.04413083333293
 31
0.0
 73
     3
  0
TEXT
  5
7C
  8
SPEC
  6
CONTINUOUS
 62
     7
 10
-268.24999999999989
 20
1013.727464166666
 30
0.0
 40
14.816666666666659
  1
ステレオ　　: 55+55W(4Ω)
 41
0.85
 11
-268.24999999999989
 21
1028.544130833332
 31
0.0
 73
     3
  0
TEXT
  5
7D
  8
SPEC
  6
CONTINUOUS
 62
     7
 10
-268.24999999999989
 20
990.72746416666655
 30
0.0
 40
14.816666666666659
  1
 　　　　　 : 40+40W(8Ω)
 41
0.85
 11
-268.24999999999989
 21
1005.544130833333
 31
0.0
 73
     3
  0
TEXT
  5
7E
  8
SPEC
  6
CONTINUOUS
 62
     7
 10
-268.24999999999989
 20
967.72716666666668
 30
0.0
 40
14.816666666666659
  1
 　　　　　 : 25+25W(16Ω)
 41
0.85
 11
-268.24999999999989
 21
982.5438333333334
 31
0.0
 73
     3
  0
TEXT
  5
7F
  8
SPEC
  6
CONTINUOUS
 62
     7
 10
-268.24999999999989
 20
944.72716666666668
 30
0.0
 40
14.816666666666659
  1
ブリッジモノ: 110W(8Ω)
 41
0.85
 11
-268.24999999999989
 21
959.54383333333328
 31
0.0
 73
     3
  0
TEXT
  5
80
  8
SPEC
  6
CONTINUOUS
 62
     7
 10
-268.24999999999989
 20
921.72716666666645
 30
0.0
 40
14.816666666666659
  1
 　　　　　 : 80W(16Ω)
 41
0.85
 11
-268.24999999999989
 21
936.54383333333305
 31
0.0
 73
     3
  0
TEXT
  5
81
  8
SPEC
  6
CONTINUOUS
 62
     7
 10
-268.24999999999989
 20
873.10246416666621
 30
0.0
 40
14.816666666666659
  1
+/-0.1dB(20Hz～20kHz,1W)
 41
0.85
 11
-268.24999999999989
 21
887.91913083333293
 31
0.0
 73
     3
  0
TEXT
  5
82
  8
SPEC
  6
CONTINUOUS
 62
     7
 10
-268.24999999999989
 20
844.97746416666621
 30
0.0
 40
14.816666666666659
  1
106dB以上(20Hz～20kHz)
 41
0.85
 11
-268.24999999999989
 21
859.79413083333293
 31
0.0
 73
     3
  0
TEXT
  5
83
  8
SPEC
  6
CONTINUOUS
 62
     7
 10
-268.24999999999989
 20
816.85246416666644
 30
0.0
 40
14.816666666666659
  1
0.001%%%以下(20Hz～400Hz)
 41
0.85
 11
-268.24999999999989
 21
831.66913083333304
 31
0.0
 73
     3
  0
TEXT
  5
84
  8
SPEC
  6
CONTINUOUS
 62
     7
 10
-265.95581054687591
 20
793.85246416666621
 30
0.0
 40
14.816666666666659
  1
0.05%%%以下(20KHz)
 41
0.85
 11
-265.95581054687591
 21
808.66913083333282
 31
0.0
 73
     3
  0
TEXT
  5
85
  8
SPEC
  6
CONTINUOUS
 62
     7
 10
-268.24999999999989
 20
732.47746416666621
 30
0.0
 40
14.816666666666659
  1
400以上(DC～400Hz)
 41
0.85
 11
-268.24999999999989
 21
747.29413083333293
 31
0.0
 73
     3
  0
TEXT
  5
86
  8
SPEC
  6
CONTINUOUS
 62
     7
 10
-268.24999999999989
 20
760.60246416666644
 30
0.0
 40
14.816666666666659
  1
0.01%%%以下
 41
0.85
 11
-268.24999999999989
 21
775.41913083333316
 31
0.0
 73
     3
  0
TEXT
  5
87
  8
SPEC
  6
CONTINUOUS
 62
     7
 10
-268.24999999999989
 20
704.35246416666621
 30
0.0
 40
14.816666666666659
  1
6V/μS以上
 41
0.85
 11
-268.24999999999989
 21
719.16913083333293
 31
0.0
 73
     3
  0
TEXT
  5
88
  8
SPEC
  6
CONTINUOUS
 62
     7
 10
-268.24999999999989
 20
1041.8524641666661
 30
0.0
 40
14.816666666666659
  1
D-75A
 41
0.85
 11
-268.24999999999989
 21
1056.669130833332
 31
0.0
 73
     3
  0
TEXT
  5
89
  8
SPEC
  6
CONTINUOUS
 62
     7
 10
181.75
 20
648.10246416666621
 30
0.0
 40
14.816666666666659
  1
0.775V/26dB 電圧ゲイン
 41
0.85
 11
181.75
 21
662.91913083333293
 31
0.0
 73
     3
  0
TEXT
  5
8A
  8
SPEC
  6
CONTINUOUS
 62
     7
 10
181.75
 20
423.10246416666621
 30
0.0
 40
14.816666666666659
  1
483(W)×44.5(H)×213(D)mm(マウント面から)
 41
0.85
 11
181.75
 21
437.91913083333287
 31
0.0
 73
     3
  0
TEXT
  5
8B
  8
SPEC
  6
CONTINUOUS
 62
     7
 10
181.75
 20
596.97746416666621
 30
0.0
 40
14.816666666666659
  1
ステレオフォーンジャック（バランス）
 41
0.85
 11
181.75
 21
611.79413083333293
 31
0.0
 73
     3
  0
TEXT
  5
8C
  8
SPEC
  6
CONTINUOUS
 62
     7
 10
181.75
 20
619.97746416666621
 30
0.0
 40
14.816666666666659
  1
XLR-3-31相当(バランス,2-HOT)
 41
0.85
 11
181.75
 21
634.79413083333293
 31
0.0
 73
     3
  0
TEXT
  5
8D
  8
SPEC
  6
CONTINUOUS
 62
     7
 10
181.75
 20
479.35246416666649
 30
0.0
 40
14.816666666666659
  1
電気用品取締法による : 90W
 41
0.85
 11
181.75
 21
494.1691308333331
 31
0.0
 73
     3
  0
TEXT
  5
8E
  8
SPEC
  6
CONTINUOUS
 62
     7
 10
181.75
 20
456.35246416666632
 30
0.0
 40
14.816666666666659
  1
4Ω+4Ω定格出力時　  : 200W
 41
0.85
 11
181.75
 21
471.16913083333287
 31
0.0
 73
     3
  0
TEXT
  5
8F
  8
SPEC
  6
CONTINUOUS
 62
     7
 10
181.75
 20
507.47746416666621
 30
0.0
 40
14.816666666666659
  1
AC100V,50/60Hz
 41
0.85
 11
181.75
 21
522.29413083333293
 31
0.0
 73
     3
  0
TEXT
  5
90
  8
SPEC
  6
CONTINUOUS
 62
     7
 10
181.75
 20
563.72746416666621
 30
0.0
 40
14.816666666666659
  1
ネジ止め端子
 41
0.85
 11
181.75
 21
578.54413083333293
 31
0.0
 73
     3
  0
TEXT
  5
91
  8
SPEC
  6
CONTINUOUS
 62
     7
 10
181.75
 20
535.60246416666621
 30
0.0
 40
14.816666666666659
  1
SIGNAL,IOC
 41
0.85
 11
181.75
 21
550.41913083333293
 31
0.0
 73
     3
  0
TEXT
  5
92
  8
SPEC
  6
CONTINUOUS
 62
     7
 10
181.75
 20
394.97746416666621
 30
0.0
 40
14.816666666666659
  1
約4.5kg
 41
0.85
 11
181.75
 21
409.79413083333287
 31
0.0
 73
     3
  0
TEXT
  5
93
  8
SPEC
  6
CONTINUOUS
 62
     7
 10
181.75
 20
676.22746416666621
 30
0.0
 40
14.816666666666659
  1
20kΩ(バランス),10kΩ(アンバランス)
 41
0.85
 11
181.75
 21
691.04413083333293
 31
0.0
 73
     3
  0
TEXT
  5
94
  8
SPEC
  6
CONTINUOUS
 62
     7
 10
181.75
 20
873.10246416666621
 30
0.0
 40
14.816666666666659
  1
+/-0.1dB(20Hz～20kHz,1W)
 41
0.85
 11
181.75
 21
887.91913083333293
 31
0.0
 73
     3
  0
TEXT
  5
95
  8
SPEC
  6
CONTINUOUS
 62
     7
 10
181.75
 20
844.97746416666621
 30
0.0
 40
14.816666666666659
  1
106dB以上(20Hz～20kHz)
 41
0.85
 11
181.75
 21
859.79413083333293
 31
0.0
 73
     3
  0
TEXT
  5
96
  8
SPEC
  6
CONTINUOUS
 62
     7
 10
181.75
 20
816.85246416666644
 30
0.0
 40
14.816666666666659
  1
0.001%%%以下(20Hz～400Hz)
 41
0.85
 11
181.75
 21
831.66913083333304
 31
0.0
 73
     3
  0
TEXT
  5
97
  8
SPEC
  6
CONTINUOUS
 62
     7
 10
181.75
 20
732.47746416666621
 30
0.0
 40
14.816666666666659
  1
400以上(DC～400Hz)
 41
0.85
 11
181.75
 21
747.29413083333293
 31
0.0
 73
     3
  0
TEXT
  5
98
  8
SPEC
  6
CONTINUOUS
 62
     7
 10
181.75
 20
793.85246416666621
 30
0.0
 40
14.816666666666659
  1
0.05%%%以下(20KHz)
 41
0.85
 11
181.75
 21
808.66913083333282
 31
0.0
 73
     3
  0
TEXT
  5
99
  8
SPEC
  6
CONTINUOUS
 62
     7
 10
181.75
 20
1013.727464166666
 30
0.0
 40
14.816666666666659
  1
ステレオ　　: 35+35W(4Ω)
 41
0.85
 11
181.75
 21
1028.544130833332
 31
0.0
 73
     3
  0
TEXT
  5
9A
  8
SPEC
  6
CONTINUOUS
 62
     7
 10
181.75
 20
990.72746416666655
 30
0.0
 40
14.816666666666659
  1
 　　　　　 : 25+25W(8Ω)
 41
0.85
 11
181.75
 21
1005.544130833333
 31
0.0
 73
     3
  0
TEXT
  5
9B
  8
SPEC
  6
CONTINUOUS
 62
     7
 10
181.75
 20
967.72716666666668
 30
0.0
 40
14.816666666666659
  1
 　　　　　 : 20+20W(16Ω)
 41
0.85
 11
181.75
 21
982.5438333333334
 31
0.0
 73
     3
  0
TEXT
  5
9C
  8
SPEC
  6
CONTINUOUS
 62
     7
 10
181.75
 20
944.72716666666668
 30
0.0
 40
14.816666666666659
  1
ブリッジモノ: 70W(8Ω)
 41
0.85
 11
181.75
 21
959.54383333333328
 31
0.0
 73
     3
  0
TEXT
  5
9D
  8
SPEC
  6
CONTINUOUS
 62
     7
 10
181.75
 20
921.72716666666645
 30
0.0
 40
14.816666666666659
  1
 　　　　　 : 50W(16Ω)
 41
0.85
 11
181.75
 21
936.54383333333305
 31
0.0
 73
     3
  0
TEXT
  5
9E
  8
SPEC
  6
CONTINUOUS
 62
     7
 10
181.75
 20
760.60246416666621
 30
0.0
 40
14.816666666666659
  1
0.01%%%以下
 41
0.85
 11
181.75
 21
775.41913083333293
 31
0.0
 73
     3
  0
TEXT
  5
9F
  8
SPEC
  6
CONTINUOUS
 62
     7
 10
181.75
 20
704.35246416666621
 30
0.0
 40
14.816666666666659
  1
6V/μS以上
 41
0.85
 11
181.75
 21
719.16913083333293
 31
0.0
 73
     3
  0
TEXT
  5
A0
  8
SPEC
  6
CONTINUOUS
 62
     7
 10
181.75
 20
1041.8524641666661
 30
0.0
 40
14.816666666666659
  1
D-45
 41
0.85
 11
181.75
 21
1056.669130833332
 31
0.0
 73
     3
  0
LINE
  5
A1
  8
SPEC
  6
CONTINUOUS
 62
     7
 10
-518.74999999999989
 20
387.95679749999988
 30
0.0
 11
625.0
 21
387.95679749999988
 31
0.0
  0
TEXT
  5
A2
  8
DIMNSIONS
  6
CONTINUOUS
 62
     7
 10
-50.000000000000021
 20
-718.5932775
 30
0.0
 40
19.050000000000001
  1
(単位：mm)
 41
0.85
 11
-50.000000000000021
 21
-699.54327750000004
 31
0.0
 73
     3
  0
LINE
  5
A3
  8
DIMNSIONS
  6
CONTINUOUS
 62
     7
 10
102.2499999999999
 20
-68.999999999999901
 30
0.0
 11
102.2499999999999
 21
-35.0
 31
0.0
  0
LINE
  5
A4
  8
DIMNSIONS
  6
CONTINUOUS
 62
     7
 10
-319.25000000000028
 20
-68.999999999999901
 30
0.0
 11
-319.25000000000028
 21
-35.0
 31
0.0
  0
LINE
  5
A6
  8
DIMNSIONS
  6
CONTINUOUS
 62
     7
 10
102.2499999999999
 20
-50.0
 30
0.0
 11
83.495330810546847
 21
-55.025298463626832
 31
0.0
  0
LINE
  5
A7
  8
DIMNSIONS
  6
CONTINUOUS
 62
     7
 10
102.2499999999999
 20
-50.0
 30
0.0
 11
83.495330810546847
 21
-44.974701536373168
 31
0.0
  0
LINE
  5
A8
  8
DIMNSIONS
  6
CONTINUOUS
 62
     7
 10
-319.25000000000028
 20
-50.0
 30
0.0
 11
-300.4953308105471
 21
-44.974701536373168
 31
0.0
  0
LINE
  5
A9
  8
DIMNSIONS
  6
CONTINUOUS
 62
     7
 10
-319.25000000000028
 20
-50.0
 30
0.0
 11
-300.4953308105471
 21
-55.025298463626832
 31
0.0
  0
LINE
  5
A5
  8
DIMNSIONS
  6
CONTINUOUS
 62
     7
 10
102.2499999999999
 20
-50.0
 30
0.0
 11
-319.25000000000028
 21
-50.0
 31
0.0
  0
TEXT
  5
AA
  8
DIMNSIONS
  6
CONTINUOUS
 62
     7
 10
-141.57291666666671
 20
-40.958333333333329
 30
0.0
 40
21.166666666666671
  1
421.5
 41
0.85
 11
-141.57291666666671
 21
-19.79166666666665
 31
0.0
 73
     3
  0
LINE
  5
AB
  8
DIMNSIONS
  6
CONTINUOUS
 62
     7
 10
-334.25000000000023
 20
-83.999999999999872
 30
0.0
 11
-440.0
 21
-83.999999999999872
 31
0.0
  0
LINE
  5
AC
  8
DIMNSIONS
  6
CONTINUOUS
 62
     7
 10
-365.0
 20
-296.99977000000001
 30
0.0
 11
-440.0
 21
-296.99977000000001
 31
0.0
  0
LINE
  5
AE
  8
DIMNSIONS
  6
CONTINUOUS
 62
     7
 10
-425.0
 20
-83.999999999999872
 30
0.0
 11
-419.97470153637312
 21
-102.7546691894529
 31
0.0
  0
LINE
  5
AF
  8
DIMNSIONS
  6
CONTINUOUS
 62
     7
 10
-425.0
 20
-83.999999999999872
 30
0.0
 11
-430.02529846362683
 21
-102.7546691894529
 31
0.0
  0
LINE
  5
B0
  8
DIMNSIONS
  6
CONTINUOUS
 62
     7
 10
-425.0
 20
-296.99977000000001
 30
0.0
 11
-430.02529846362683
 21
-278.24510081054677
 31
0.0
  0
LINE
  5
B1
  8
DIMNSIONS
  6
CONTINUOUS
 62
     7
 10
-425.0
 20
-296.99977000000001
 30
0.0
 11
-419.97470153637312
 21
-278.24510081054677
 31
0.0
  0
LINE
  5
AD
  8
DIMNSIONS
  6
CONTINUOUS
 62
     7
 10
-425.0
 20
-83.999999999999872
 30
0.0
 11
-425.0
 21
-296.99977000000001
 31
0.0
  0
TEXT
  5
B2
  8
DIMNSIONS
  6
CONTINUOUS
 62
     7
 10
-434.04166666666657
 20
-210.34363499999989
 30
0.0
 40
21.166666666666671
  1
213
 50
90.0
 41
0.85
 11
-455.20833333333331
 21
-210.34363499999989
 31
0.0
 73
     3
  0
LINE
  5
B3
  8
DIMNSIONS
  6
CONTINUOUS
 62
     7
 10
-365.0
 20
-296.99977000000001
 30
0.0
 11
-440.0
 21
-296.99977000000001
 31
0.0
  0
LINE
  5
B4
  8
DIMNSIONS
  6
CONTINUOUS
 62
     7
 10
-365.0
 20
-300.0
 30
0.0
 11
-440.0
 21
-300.0
 31
0.0
  0
LINE
  5
B5
  8
DIMNSIONS
  6
CONTINUOUS
 62
     7
 10
-425.0
 20
-300.0
 30
0.0
 11
-425.0
 21
-296.99977000000001
 31
0.0
  0
LINE
  5
B7
  8
DIMNSIONS
  6
CONTINUOUS
 62
     7
 10
-425.0
 20
-296.99977000000001
 30
0.0
 11
-430.02529846362683
 21
-278.24510081054677
 31
0.0
  0
LINE
  5
B8
  8
DIMNSIONS
  6
CONTINUOUS
 62
     7
 10
-425.0
 20
-296.99977000000001
 30
0.0
 11
-419.97470153637312
 21
-278.24510081054677
 31
0.0
  0
LINE
  5
B6
  8
DIMNSIONS
  6
CONTINUOUS
 62
     7
 10
-425.0
 20
-296.99977000000001
 30
0.0
 11
-425.0
 21
-259.4997699999999
 31
0.0
  0
LINE
  5
BA
  8
DIMNSIONS
  6
CONTINUOUS
 62
     7
 10
-425.0
 20
-300.0
 30
0.0
 11
-419.97470153637312
 21
-318.75466918945312
 31
0.0
  0
LINE
  5
BB
  8
DIMNSIONS
  6
CONTINUOUS
 62
     7
 10
-425.0
 20
-300.0
 30
0.0
 11
-430.02529846362683
 21
-318.75466918945312
 31
0.0
  0
LINE
  5
B9
  8
DIMNSIONS
  6
CONTINUOUS
 62
     7
 10
-425.0
 20
-300.0
 30
0.0
 11
-425.0
 21
-338.22916666666669
 31
0.0
  0
TEXT
  5
BC
  8
DIMNSIONS
  6
CONTINUOUS
 62
     7
 10
-434.04166666666669
 20
-338.22916666666669
 30
0.0
 40
21.166666666666671
  1
3
 50
90.0
 41
0.85
 11
-455.20833333333331
 21
-338.22916666666669
 31
0.0
 73
     3
  0
LINE
  5
BD
  8
DIMNSIONS
  6
CONTINUOUS
 62
     7
 10
-365.0
 20
-300.0
 30
0.0
 11
-390.0
 21
-300.0
 31
0.0
  0
LINE
  5
BE
  8
DIMNSIONS
  6
CONTINUOUS
 62
     7
 10
-290.505405
 20
-312.5
 30
0.0
 11
-390.0
 21
-312.5
 31
0.0
  0
LINE
  5
BF
  8
DIMNSIONS
  6
CONTINUOUS
 62
     7
 10
-375.0
 20
-312.5
 30
0.0
 11
-375.0
 21
-300.0
 31
0.0
  0
LINE
  5
C1
  8
DIMNSIONS
  6
CONTINUOUS
 62
     7
 10
-375.0
 20
-300.0
 30
0.0
 11
-380.02529846362671
 21
-281.24533081054682
 31
0.0
  0
LINE
  5
C2
  8
DIMNSIONS
  6
CONTINUOUS
 62
     7
 10
-375.0
 20
-300.0
 30
0.0
 11
-369.97470153637317
 21
-281.24533081054682
 31
0.0
  0
LINE
  5
C0
  8
DIMNSIONS
  6
CONTINUOUS
 62
     7
 10
-375.0
 20
-300.0
 30
0.0
 11
-375.0
 21
-262.5
 31
0.0
  0
LINE
  5
C4
  8
DIMNSIONS
  6
CONTINUOUS
 62
     7
 10
-375.0
 20
-312.5
 30
0.0
 11
-369.97470153637317
 21
-331.25466918945318
 31
0.0
  0
LINE
  5
C5
  8
DIMNSIONS
  6
CONTINUOUS
 62
     7
 10
-375.0
 20
-312.5
 30
0.0
 11
-380.02529846362671
 21
-331.25466918945318
 31
0.0
  0
LINE
  5
C3
  8
DIMNSIONS
  6
CONTINUOUS
 62
     7
 10
-375.0
 20
-312.5
 30
0.0
 11
-375.0
 21
-377.91666666666652
 31
0.0
  0
TEXT
  5
C6
  8
DIMNSIONS
  6
CONTINUOUS
 62
     7
 10
-384.04166666666652
 20
-377.91666666666652
 30
0.0
 40
21.166666666666671
  1
12.5
 50
90.0
 41
0.85
 11
-405.20833333333331
 21
-377.91666666666652
 31
0.0
 73
     3
  0
LINE
  5
C7
  8
DIMNSIONS
  6
CONTINUOUS
 62
     7
 10
-365.0
 20
-455.55000000000001
 30
0.0
 11
-440.0
 21
-455.55000000000001
 31
0.0
  0
LINE
  5
C8
  8
DIMNSIONS
  6
CONTINUOUS
 62
     7
 10
-365.0
 20
-500.0
 30
0.0
 11
-440.0
 21
-500.0
 31
0.0
  0
LINE
  5
CA
  8
DIMNSIONS
  6
CONTINUOUS
 62
     7
 10
-425.0
 20
-455.55000000000001
 30
0.0
 11
-419.97470153637312
 21
-474.30466918945302
 31
0.0
  0
LINE
  5
CB
  8
DIMNSIONS
  6
CONTINUOUS
 62
     7
 10
-425.0
 20
-455.55000000000001
 30
0.0
 11
-430.02529846362683
 21
-474.30466918945302
 31
0.0
  0
LINE
  5
CC
  8
DIMNSIONS
  6
CONTINUOUS
 62
     7
 10
-425.0
 20
-500.0
 30
0.0
 11
-430.02529846362683
 21
-481.24533081054682
 31
0.0
  0
LINE
  5
CD
  8
DIMNSIONS
  6
CONTINUOUS
 62
     7
 10
-425.0
 20
-500.0
 30
0.0
 11
-419.97470153637312
 21
-481.24533081054682
 31
0.0
  0
LINE
  5
C9
  8
DIMNSIONS
  6
CONTINUOUS
 62
     7
 10
-425.0
 20
-455.55000000000001
 30
0.0
 11
-425.0
 21
-500.0
 31
0.0
  0
TEXT
  5
CE
  8
DIMNSIONS
  6
CONTINUOUS
 62
     7
 10
-445.29166666666657
 20
-504.23333333333312
 30
0.0
 40
21.166666666666671
  1
44.5
 50
90.0
 41
0.85
 11
-466.45833333333331
 21
-504.23333333333312
 31
0.0
 73
     3
  0
LINE
  5
CF
  8
DIMNSIONS
  6
CONTINUOUS
 62
     7
 10
-358.0180000000002
 20
-461.89999999999981
 30
0.0
 11
-390.0
 21
-461.89999999999981
 31
0.0
  0
LINE
  5
D0
  8
DIMNSIONS
  6
CONTINUOUS
 62
     7
 10
-358.0180000000002
 20
-493.65000000000009
 30
0.0
 11
-390.0
 21
-493.65000000000009
 31
0.0
  0
LINE
  5
D1
  8
DIMNSIONS
  6
CONTINUOUS
 62
     7
 10
-375.0
 20
-493.65000000000009
 30
0.0
 11
-375.0
 21
-461.89999999999981
 31
0.0
  0
LINE
  5
D3
  8
DIMNSIONS
  6
CONTINUOUS
 62
     7
 10
-375.0
 20
-461.89999999999981
 30
0.0
 11
-380.02529846362671
 21
-443.14533081054668
 31
0.0
  0
LINE
  5
D4
  8
DIMNSIONS
  6
CONTINUOUS
 62
     7
 10
-375.0
 20
-461.89999999999981
 30
0.0
 11
-369.97470153637317
 21
-443.14533081054668
 31
0.0
  0
LINE
  5
D2
  8
DIMNSIONS
  6
CONTINUOUS
 62
     7
 10
-375.0
 20
-461.89999999999981
 30
0.0
 11
-375.0
 21
-424.39999999999981
 31
0.0
  0
LINE
  5
D6
  8
DIMNSIONS
  6
CONTINUOUS
 62
     7
 10
-375.0
 20
-493.65000000000009
 30
0.0
 11
-369.97470153637317
 21
-512.40466918945322
 31
0.0
  0
LINE
  5
D7
  8
DIMNSIONS
  6
CONTINUOUS
 62
     7
 10
-375.0
 20
-493.65000000000009
 30
0.0
 11
-380.02529846362671
 21
-512.40466918945322
 31
0.0
  0
LINE
  5
D5
  8
DIMNSIONS
  6
CONTINUOUS
 62
     7
 10
-375.0
 20
-493.65000000000009
 30
0.0
 11
-375.0
 21
-577.91666666666652
 31
0.0
  0
TEXT
  5
D8
  8
DIMNSIONS
  6
CONTINUOUS
 62
     7
 10
-384.04166666666652
 20
-577.91666666666652
 30
0.0
 40
21.166666666666671
  1
31.8
 50
90.0
 41
0.85
 11
-405.20833333333331
 21
-577.91666666666652
 31
0.0
 73
     3
  0
LINE
  5
D9
  8
DIMNSIONS
  6
CONTINUOUS
 62
     7
 10
-350.0
 20
-515.0
 30
0.0
 11
-350.0
 21
-615.0
 31
0.0
  0
LINE
  5
DA
  8
DIMNSIONS
  6
CONTINUOUS
 62
     7
 10
132.99999999999949
 20
-515.0
 30
0.0
 11
132.99999999999949
 21
-615.0
 31
0.0
  0
LINE
  5
DC
  8
DIMNSIONS
  6
CONTINUOUS
 62
     7
 10
-350.0
 20
-600.0
 30
0.0
 11
-331.24533081054682
 21
-594.97470153637323
 31
0.0
  0
LINE
  5
DD
  8
DIMNSIONS
  6
CONTINUOUS
 62
     7
 10
-350.0
 20
-600.0
 30
0.0
 11
-331.24533081054682
 21
-605.02529846362677
 31
0.0
  0
LINE
  5
DE
  8
DIMNSIONS
  6
CONTINUOUS
 62
     7
 10
132.99999999999949
 20
-600.0
 30
0.0
 11
114.24533081054631
 21
-605.02529846362677
 31
0.0
  0
LINE
  5
DF
  8
DIMNSIONS
  6
CONTINUOUS
 62
     7
 10
132.99999999999949
 20
-600.0
 30
0.0
 11
114.24533081054631
 21
-594.97470153637312
 31
0.0
  0
LINE
  5
DB
  8
DIMNSIONS
  6
CONTINUOUS
 62
     7
 10
-350.0
 20
-600.0
 30
0.0
 11
132.99999999999949
 21
-600.0
 31
0.0
  0
TEXT
  5
E0
  8
DIMNSIONS
  6
CONTINUOUS
 62
     7
 10
-128.3437500000002
 20
-590.95833333333314
 30
0.0
 40
21.166666666666671
  1
483
 41
0.85
 11
-128.3437500000002
 21
-569.79166666666652
 31
0.0
 73
     3
  0
LINE
  5
E1
  8
DIMNSIONS
  6
CONTINUOUS
 62
     7
 10
123.9999999999995
 20
-511.66800000000001
 30
0.0
 11
123.9999999999995
 21
-565.0
 31
0.0
  0
LINE
  5
E2
  8
DIMNSIONS
  6
CONTINUOUS
 62
     7
 10
-341.00000000000023
 20
-511.66800000000001
 30
0.0
 11
-341.00000000000023
 21
-565.0
 31
0.0
  0
LINE
  5
E4
  8
DIMNSIONS
  6
CONTINUOUS
 62
     7
 10
123.9999999999995
 20
-550.0
 30
0.0
 11
105.24533081054631
 21
-555.02529846362677
 31
0.0
  0
LINE
  5
E5
  8
DIMNSIONS
  6
CONTINUOUS
 62
     7
 10
123.9999999999995
 20
-550.0
 30
0.0
 11
105.24533081054631
 21
-544.97470153637312
 31
0.0
  0
LINE
  5
E6
  8
DIMNSIONS
  6
CONTINUOUS
 62
     7
 10
-341.00000000000023
 20
-550.0
 30
0.0
 11
-322.2453308105471
 21
-544.97470153637323
 31
0.0
  0
LINE
  5
E7
  8
DIMNSIONS
  6
CONTINUOUS
 62
     7
 10
-341.00000000000023
 20
-550.0
 30
0.0
 11
-322.2453308105471
 21
-555.02529846362677
 31
0.0
  0
LINE
  5
E3
  8
DIMNSIONS
  6
CONTINUOUS
 62
     7
 10
123.9999999999995
 20
-550.0
 30
0.0
 11
-341.00000000000023
 21
-550.0
 31
0.0
  0
TEXT
  5
E8
  8
DIMNSIONS
  6
CONTINUOUS
 62
     7
 10
-128.34375000000031
 20
-540.95833333333314
 30
0.0
 40
21.166666666666671
  1
465
 41
0.85
 11
-128.34375000000031
 21
-519.79166666666652
 31
0.0
 73
     3
  0
LINE
  5
E9
  8
DIMNSIONS
  6
CONTINUOUS
 62
     7
 10
421.0000799999998
 20
-515.0
 30
0.0
 11
421.0000799999998
 21
-565.0
 31
0.0
  0
LINE
  5
EA
  8
DIMNSIONS
  6
CONTINUOUS
 62
     7
 10
208.0
 20
-515.0
 30
0.0
 11
208.0
 21
-565.0
 31
0.0
  0
LINE
  5
EC
  8
DIMNSIONS
  6
CONTINUOUS
 62
     7
 10
421.0000799999998
 20
-550.0
 30
0.0
 11
402.24541081054662
 21
-555.02529846362677
 31
0.0
  0
LINE
  5
ED
  8
DIMNSIONS
  6
CONTINUOUS
 62
     7
 10
421.0000799999998
 20
-550.0
 30
0.0
 11
402.24541081054662
 21
-544.97470153637312
 31
0.0
  0
LINE
  5
EE
  8
DIMNSIONS
  6
CONTINUOUS
 62
     7
 10
208.0
 20
-550.0
 30
0.0
 11
226.7546691894531
 21
-544.97470153637323
 31
0.0
  0
LINE
  5
EF
  8
DIMNSIONS
  6
CONTINUOUS
 62
     7
 10
208.0
 20
-550.0
 30
0.0
 11
226.7546691894531
 21
-555.02529846362677
 31
0.0
  0
LINE
  5
EB
  8
DIMNSIONS
  6
CONTINUOUS
 62
     7
 10
421.0000799999998
 20
-550.0
 30
0.0
 11
208.0
 21
-550.0
 31
0.0
  0
TEXT
  5
F0
  8
DIMNSIONS
  6
CONTINUOUS
 62
     7
 10
294.6562899999999
 20
-540.95833333333314
 30
0.0
 40
21.166666666666671
  1
213
 41
0.85
 11
294.6562899999999
 21
-519.79166666666652
 31
0.0
 73
     3
  0
LINE
  5
F1
  8
DIMNSIONS
  6
CONTINUOUS
 62
     7
 10
208.0
 20
-515.0
 30
0.0
 11
208.0
 21
-565.0
 31
0.0
  0
LINE
  5
F2
  8
DIMNSIONS
  6
CONTINUOUS
 62
     7
 10
205.0
 20
-515.0
 30
0.0
 11
205.0
 21
-565.0
 31
0.0
  0
LINE
  5
F3
  8
DIMNSIONS
  6
CONTINUOUS
 62
     7
 10
205.0
 20
-550.0
 30
0.0
 11
208.0
 21
-550.0
 31
0.0
  0
LINE
  5
F5
  8
DIMNSIONS
  6
CONTINUOUS
 62
     7
 10
208.0
 20
-550.0
 30
0.0
 11
226.7546691894531
 21
-544.97470153637323
 31
0.0
  0
LINE
  5
F6
  8
DIMNSIONS
  6
CONTINUOUS
 62
     7
 10
208.0
 20
-550.0
 30
0.0
 11
226.7546691894531
 21
-555.02529846362677
 31
0.0
  0
LINE
  5
F4
  8
DIMNSIONS
  6
CONTINUOUS
 62
     7
 10
208.0
 20
-550.0
 30
0.0
 11
245.5
 21
-550.0
 31
0.0
  0
LINE
  5
F8
  8
DIMNSIONS
  6
CONTINUOUS
 62
     7
 10
205.0
 20
-550.0
 30
0.0
 11
186.24533081054679
 21
-555.02529846362677
 31
0.0
  0
LINE
  5
F9
  8
DIMNSIONS
  6
CONTINUOUS
 62
     7
 10
205.0
 20
-550.0
 30
0.0
 11
186.24533081054679
 21
-544.97470153637312
 31
0.0
  0
LINE
  5
F7
  8
DIMNSIONS
  6
CONTINUOUS
 62
     7
 10
205.0
 20
-550.0
 30
0.0
 11
173.5416666666666
 21
-550.0
 31
0.0
  0
TEXT
  5
FA
  8
DIMNSIONS
  6
CONTINUOUS
 62
     7
 10
173.5416666666666
 20
-540.95833333333314
 30
0.0
 40
21.166666666666671
  1
3
 41
0.85
 11
173.5416666666666
 21
-519.79166666666652
 31
0.0
 73
     3
  0
TEXT
  5
FB
  8
DATA
  6
CONTINUOUS
 62
     7
 10
-499.99999999999989
 20
-779.30570250000005
 30
0.0
 40
12.69999999999999
  1
仕様および外観は予告なく変更されることがありますので、ご了承ください。
 41
0.85
 11
-499.99999999999989
 21
-766.60570250000001
 31
0.0
 73
     3
  0
LINE
  5
FC
  8
DATA
  6
CONTINUOUS
 62
     7
 10
-319.25000000000028
 20
-83.999999999999872
 30
0.0
 11
102.2500000000002
 21
-83.999999999999872
 31
0.0
  0
LINE
  5
FD
  8
DATA
  6
CONTINUOUS
 62
     7
 10
-350.0
 20
-300.0
 30
0.0
 11
133.04817
 21
-300.0
 31
0.0
  0
LINE
  5
FE
  8
DATA
  6
CONTINUOUS
 62
     7
 10
-321.50000000000023
 20
-280.0
 30
0.0
 11
104.5450400000001
 21
-280.0
 31
0.0
  0
LINE
  5
FF
  8
DATA
  6
CONTINUOUS
 62
     7
 10
-251.90000000000029
 20
37.08096299999999
 30
0.0
 11
-256.89999999999998
 21
37.08096299999999
 31
0.0
  0
ARC
  5
100
  8
DATA
  6
CONTINUOUS
 62
     7
 10
-254.40000000000001
 20
25.60000000000014
 30
0.0
 40
3.7500000000000231
 50
18.852612000000018
 51
161.14738799999989
  0
ARC
  5
101
  8
DATA
  6
CONTINUOUS
 62
     7
 10
-254.40000000000001
 20
25.60000000000014
 30
0.0
 40
9.749999999999952
 50
101.83700399999979
 51
78.16299600000012
  0
ARC
  5
102
  8
DATA
  6
CONTINUOUS
 62
     7
 10
-254.40000000000001
 20
25.60000000000014
 30
0.0
 40
11.750000000000091
 50
102.28449400000081
 51
77.715506000000261
  0
ARC
  5
103
  8
DATA
  6
CONTINUOUS
 62
     7
 10
-254.40000000000001
 20
25.60000000000014
 30
0.0
 40
8.0000000000000941
 50
138.58156900000111
 51
131.41843100000051
  0
ARC
  5
104
  8
DATA
  6
CONTINUOUS
 62
     7
 10
-254.40000000000001
 20
25.60000000000014
 30
0.0
 40
3.7500000000000231
 50
198.85261199999991
 51
251.14738799999839
  0
LINE
  5
105
  8
DATA
  6
CONTINUOUS
 62
     7
 10
132.99999999999949
 20
0.0
 30
0.0
 11
-350.0
 21
0.0
 31
0.0
  0
LINE
  5
106
  8
DATA
  6
CONTINUOUS
 62
     7
 10
-350.0
 20
44.449999999999811
 30
0.0
 11
132.99999999999949
 21
44.449999999999811
 31
0.0
  0
LINE
  5
107
  8
DATA
  6
CONTINUOUS
 62
     7
 10
100.2499999999999
 20
1.6000000000000221
 30
0.0
 11
-317.25000000000023
 21
1.6000000000000221
 31
0.0
  0
LINE
  5
108
  8
DATA
  6
CONTINUOUS
 62
     7
 10
-318.49687000000011
 20
-497.00198499999988
 30
0.0
 11
101.5450399999999
 21
-497.00198499999988
 31
0.0
  0
LINE
  5
109
  8
DATA
  6
CONTINUOUS
 62
     7
 10
-350.0
 20
-455.55000000000001
 30
0.0
 11
132.99999999999949
 21
-455.55000000000001
 31
0.0
  0
LINE
  5
10A
  8
DATA
  6
CONTINUOUS
 62
     7
 10
132.99999999999949
 20
-500.0
 30
0.0
 11
-350.0
 21
-500.0
 31
0.0
  0
LINE
  5
10B
  8
DATA
  6
CONTINUOUS
 62
     7
 10
-350.0
 20
-455.55000000000001
 30
0.0
 11
132.99999999999949
 21
-455.55000000000001
 31
0.0
  0
LINE
  5
10C
  8
DATA
  6
CONTINUOUS
 62
     7
 10
-318.49687000000011
 20
-458.54809499999988
 30
0.0
 11
101.5450399999999
 21
-458.54809499999988
 31
0.0
  0
LINE
  5
10D
  8
DATA
  6
CONTINUOUS
 62
     7
 10
-258.77275900000012
 20
-482.80000000000001
 30
0.0
 11
-255.30865700000001
 21
-484.7999999999999
 31
0.0
  0
LINE
  5
10E
  8
DATA
  6
CONTINUOUS
 62
     7
 10
-257.50000000000023
 20
-478.05000000000001
 30
0.0
 11
-253.5000000000004
 21
-478.05000000000001
 31
0.0
  0
LINE
  5
10F
  8
DATA
  6
CONTINUOUS
 62
     7
 10
-257.64432599999998
 20
-479.699658
 30
0.0
 11
-253.7050950000002
 21
-480.39425
 31
0.0
  0
LINE
  5
110
  8
DATA
  6
CONTINUOUS
 62
     7
 10
-258.07292000000001
 20
-481.29919100000001
 30
0.0
 11
-254.3141500000001
 21
-482.66727200000008
 31
0.0
  0
LINE
  5
111
  8
DATA
  6
CONTINUOUS
 62
     7
 10
-257.64432599999998
 20
-476.4003419999998
 30
0.0
 11
-253.7050950000002
 21
-475.70575000000008
 31
0.0
  0
LINE
  5
112
  8
DATA
  6
CONTINUOUS
 62
     7
 10
-258.77275900000012
 20
-473.30000000000001
 30
0.0
 11
-255.30865700000001
 21
-471.30000000000001
 31
0.0
  0
LINE
  5
113
  8
DATA
  6
CONTINUOUS
 62
     7
 10
-258.07292000000001
 20
-474.80080900000002
 30
0.0
 11
-254.3141500000001
 21
-473.432728
 31
0.0
  0
TEXT
  5
114
  8
DATA
  6
CONTINUOUS
 62
     7
 10
-256.29553900000008
 20
-468.67622299999999
 30
0.0
 40
1.71875
  1
20
 41
0.85
 11
-256.29553900000008
 21
-466.95747299999988
 31
0.0
 73
     3
  0
POLYLINE
  5
115
  8
DATA
  6
CONTINUOUS
 62
     7
 66
     1
 10
0.0
 20
0.0
 30
0.0
  0
VERTEX
  5
58A
  8
DATA
  6
CONTINUOUS
 62
     7
 10
-249.15000000000001
 20
41.850000000000129
 30
0.0
  0
VERTEX
  5
58B
  8
DATA
  6
CONTINUOUS
 62
     7
 10
-249.15000000000001
 20
41.903033008589311
 30
0.0
  0
VERTEX
  5
58C
  8
DATA
  6
CONTINUOUS
 62
     7
 10
-249.17852705621431
 20
41.999077401163497
 30
0.0
  0
VERTEX
  5
58D
  8
DATA
  6
CONTINUOUS
 62
     7
 10
-249.2216544255848
 20
42.091280762422222
 30
0.0
  0
VERTEX
  5
58E
  8
DATA
  6
CONTINUOUS
 62
     7
 10
-249.2793821081122
 20
42.179643092365708
 30
0.0
  0
VERTEX
  5
58F
  8
DATA
  6
CONTINUOUS
 62
     7
 10
-249.35171010379639
 20
42.264164390993749
 30
0.0
  0
VERTEX
  5
590
  8
DATA
  6
CONTINUOUS
 62
     7
 10
-249.43863841263709
 20
42.344844658306428
 30
0.0
  0
VERTEX
  5
591
  8
DATA
  6
CONTINUOUS
 62
     7
 10
-249.54016703463449
 20
42.421683894304238
 30
0.0
  0
VERTEX
  5
592
  8
DATA
  6
CONTINUOUS
 62
     7
 10
-249.65629596978849
 20
42.494682098986218
 30
0.0
  0
VERTEX
  5
593
  8
DATA
  6
CONTINUOUS
 62
     7
 10
-249.7870252180991
 20
42.563839272353107
 30
0.0
  0
VERTEX
  5
594
  8
DATA
  6
CONTINUOUS
 62
     7
 10
-249.924247175456
 20
42.62876696400167
 30
0.0
  0
VERTEX
  5
595
  8
DATA
  6
CONTINUOUS
 62
     7
 10
-250.0598542377476
 20
42.689076723529183
 30
0.0
  0
VERTEX
  5
596
  8
DATA
  6
CONTINUOUS
 62
     7
 10
-250.19384640497481
 20
42.744768550935653
 30
0.0
  0
VERTEX
  5
597
  8
DATA
  6
CONTINUOUS
 62
     7
 10
-250.32622367713699
 20
42.795842446221293
 30
0.0
  0
VERTEX
  5
598
  8
DATA
  6
CONTINUOUS
 62
     7
 10
-250.45698605423439
 20
42.842298409385641
 30
0.0
  0
VERTEX
  5
599
  8
DATA
  6
CONTINUOUS
 62
     7
 10
-250.5861335362672
 20
42.884136440428961
 30
0.0
  0
VERTEX
  5
59A
  8
DATA
  6
CONTINUOUS
 62
     7
 10
-250.71366612323479
 20
42.921356539351329
 30
0.0
  0
VERTEX
  5
59B
  8
DATA
  6
CONTINUOUS
 62
     7
 10
-250.83958381513801
 20
42.953958706152662
 30
0.0
  0
VERTEX
  5
59C
  8
DATA
  6
CONTINUOUS
 62
     7
 10
-250.96560907495081
 20
42.983830680558292
 30
0.0
  0
VERTEX
  5
59D
  8
DATA
  6
CONTINUOUS
 62
     7
 10
-251.0934643656478
 20
43.012860202292813
 30
0.0
  0
VERTEX
  5
59E
  8
DATA
  6
CONTINUOUS
 62
     7
 10
-251.22314968722949
 20
43.041047271356661
 30
0.0
  0
VERTEX
  5
59F
  8
DATA
  6
CONTINUOUS
 62
     7
 10
-251.35466503969539
 20
43.068391887750067
 30
0.0
  0
VERTEX
  5
5A0
  8
DATA
  6
CONTINUOUS
 62
     7
 10
-251.48801042304561
 20
43.094894051472806
 30
0.0
  0
VERTEX
  5
5A1
  8
DATA
  6
CONTINUOUS
 62
     7
 10
-251.6231858372802
 20
43.12055376252453
 30
0.0
  0
VERTEX
  5
5A2
  8
DATA
  6
CONTINUOUS
 62
     7
 10
-251.76019128239921
 20
43.145371020905714
 30
0.0
  0
VERTEX
  5
5A3
  8
DATA
  6
CONTINUOUS
 62
     7
 10
-251.89902675840261
 20
43.169345826616109
 30
0.0
  0
VERTEX
  5
5A4
  8
DATA
  6
CONTINUOUS
 62
     7
 10
-252.03929904216241
 20
43.192012746678181
 30
0.0
  0
VERTEX
  5
5A5
  8
DATA
  6
CONTINUOUS
 62
     7
 10
-252.1806149105505
 20
43.212906348113719
 30
0.0
  0
VERTEX
  5
5A6
  8
DATA
  6
CONTINUOUS
 62
     7
 10
-252.322974363567
 20
43.232026630923322
 30
0.0
  0
VERTEX
  5
5A7
  8
DATA
  6
CONTINUOUS
 62
     7
 10
-252.46637740121199
 20
43.249373595106483
 30
0.0
  0
VERTEX
  5
5A8
  8
DATA
  6
CONTINUOUS
 62
     7
 10
-252.61082402348529
 20
43.264947240663318
 30
0.0
  0
VERTEX
  5
5A9
  8
DATA
  6
CONTINUOUS
 62
     7
 10
-252.75631423038701
 20
43.27874756759411
 30
0.0
  0
VERTEX
  5
5AA
  8
DATA
  6
CONTINUOUS
 62
     7
 10
-252.9028480219169
 20
43.290774575898688
 30
0.0
  0
VERTEX
  5
5AB
  8
DATA
  6
CONTINUOUS
 62
     7
 10
-253.05042539807539
 20
43.30102826557674
 30
0.0
  0
VERTEX
  5
5AC
  8
DATA
  6
CONTINUOUS
 62
     7
 10
-253.20107119219711
 20
43.310091798991706
 30
0.0
  0
VERTEX
  5
5AD
  8
DATA
  6
CONTINUOUS
 62
     7
 10
-253.3568102376168
 20
43.318548338505828
 30
0.0
  0
VERTEX
  5
5AE
  8
DATA
  6
CONTINUOUS
 62
     7
 10
-253.5176425343345
 20
43.326397884119842
 30
0.0
  0
VERTEX
  5
5AF
  8
DATA
  6
CONTINUOUS
 62
     7
 10
-253.68356808235009
 20
43.333640435833317
 30
0.0
  0
VERTEX
  5
5B0
  8
DATA
  6
CONTINUOUS
 62
     7
 10
-253.85458688166361
 20
43.340275993645953
 30
0.0
  0
VERTEX
  5
5B1
  8
DATA
  6
CONTINUOUS
 62
     7
 10
-254.0306989322753
 20
43.346304557558263
 30
0.0
  0
VERTEX
  5
5B2
  8
DATA
  6
CONTINUOUS
 62
     7
 10
-254.21190423418511
 20
43.351726127570153
 30
0.0
  0
VERTEX
  5
5B3
  8
DATA
  6
CONTINUOUS
 62
     7
 10
-254.39820278739279
 20
43.35654070368151
 30
0.0
  0
VERTEX
  5
5B4
  8
DATA
  6
CONTINUOUS
 62
     7
 10
-254.59061556229611
 20
43.359065869370852
 30
0.0
  0
VERTEX
  5
5B5
  8
DATA
  6
CONTINUOUS
 62
     7
 10
-254.79016352929241
 20
43.357619208117512
 30
0.0
  0
VERTEX
  5
5B6
  8
DATA
  6
CONTINUOUS
 62
     7
 10
-254.99684668838219
 20
43.352200719920923
 30
0.0
  0
VERTEX
  5
5B7
  8
DATA
  6
CONTINUOUS
 62
     7
 10
-255.2106650395649
 20
43.34281040478163
 30
0.0
  0
VERTEX
  5
5B8
  8
DATA
  6
CONTINUOUS
 62
     7
 10
-255.43161858284111
 20
43.32944826269943
 30
0.0
  0
VERTEX
  5
5B9
  8
DATA
  6
CONTINUOUS
 62
     7
 10
-255.65970731821039
 20
43.312114293673737
 30
0.0
  0
VERTEX
  5
5BA
  8
DATA
  6
CONTINUOUS
 62
     7
 10
-255.89493124567241
 20
43.290808497705697
 30
0.0
  0
VERTEX
  5
5BB
  8
DATA
  6
CONTINUOUS
 62
     7
 10
-256.13729036522813
 20
43.265530874794308
 30
0.0
  0
VERTEX
  5
5BC
  8
DATA
  6
CONTINUOUS
 62
     7
 10
-256.3783487889923
 20
43.237433542209942
 30
0.0
  0
VERTEX
  5
5BD
  8
DATA
  6
CONTINUOUS
 62
     7
 10
-256.60967062908043
 20
43.207668617223682
 30
0.0
  0
VERTEX
  5
5BE
  8
DATA
  6
CONTINUOUS
 62
     7
 10
-256.8312558854924
 20
43.176236099834448
 30
0.0
  0
VERTEX
  5
5BF
  8
DATA
  6
CONTINUOUS
 62
     7
 10
-257.04310455822809
 20
43.143135990042992
 30
0.0
  0
VERTEX
  5
5C0
  8
DATA
  6
CONTINUOUS
 62
     7
 10
-257.24521664728758
 20
43.108368287848862
 30
0.0
  0
VERTEX
  5
5C1
  8
DATA
  6
CONTINUOUS
 62
     7
 10
-257.43759215267119
 20
43.071932993252403
 30
0.0
  0
VERTEX
  5
5C2
  8
DATA
  6
CONTINUOUS
 62
     7
 10
-257.62023107437852
 20
43.033830106253511
 30
0.0
  0
VERTEX
  5
5C3
  8
DATA
  6
CONTINUOUS
 62
     7
 10
-257.79313341240982
 20
42.994059626851829
 30
0.0
  0
VERTEX
  5
5C4
  8
DATA
  6
CONTINUOUS
 62
     7
 10
-257.95922599646281
 20
42.951763268458997
 30
0.0
  0
VERTEX
  5
5C5
  8
DATA
  6
CONTINUOUS
 62
     7
 10
-258.12143565623592
 20
42.906082744485722
 30
0.0
  0
VERTEX
  5
5C6
  8
DATA
  6
CONTINUOUS
 62
     7
 10
-258.27976239172858
 20
42.857018054932148
 30
0.0
  0
VERTEX
  5
5C7
  8
DATA
  6
CONTINUOUS
 62
     7
 10
-258.4342062029408
 20
42.804569199798372
 30
0.0
  0
VERTEX
  5
5C8
  8
DATA
  6
CONTINUOUS
 62
     7
 10
-258.58476708987331
 20
42.748736179084283
 30
0.0
  0
VERTEX
  5
5C9
  8
DATA
  6
CONTINUOUS
 62
     7
 10
-258.73144505252537
 20
42.689518992789878
 30
0.0
  0
VERTEX
  5
5CA
  8
DATA
  6
CONTINUOUS
 62
     7
 10
-258.8742400908975
 20
42.626917640915039
 30
0.0
  0
VERTEX
  5
5CB
  8
DATA
  6
CONTINUOUS
 62
     7
 10
-259.01315220498913
 20
42.560932123460127
 30
0.0
  0
VERTEX
  5
5CC
  8
DATA
  6
CONTINUOUS
 62
     7
 10
-259.14295227224392
 20
42.491434549575608
 30
0.0
  0
VERTEX
  5
5CD
  8
DATA
  6
CONTINUOUS
 62
     7
 10
-259.25841117010509
 20
42.418297028412901
 30
0.0
  0
VERTEX
  5
5CE
  8
DATA
  6
CONTINUOUS
 62
     7
 10
-259.35952889857202
 20
42.341519559971523
 30
0.0
  0
VERTEX
  5
5CF
  8
DATA
  6
CONTINUOUS
 62
     7
 10
-259.44630545764539
 20
42.261102144252042
 30
0.0
  0
VERTEX
  5
5D0
  8
DATA
  6
CONTINUOUS
 62
     7
 10
-259.51874084732481
 20
42.177044781253812
 30
0.0
  0
VERTEX
  5
5D1
  8
DATA
  6
CONTINUOUS
 62
     7
 10
-259.57683506761049
 20
42.089347470977359
 30
0.0
  0
VERTEX
  5
5D2
  8
DATA
  6
CONTINUOUS
 62
     7
 10
-259.62058811850233
 20
41.998010213422489
 30
0.0
  0
VERTEX
  5
5D3
  8
DATA
  6
CONTINUOUS
 62
     7
 10
-259.65000000000009
 20
41.903033008589311
 30
0.0
  0
VERTEX
  5
5D4
  8
DATA
  6
CONTINUOUS
 62
     7
 10
-259.65000000000009
 20
41.903033008589311
 30
0.0
  0
VERTEX
  5
5D5
  8
DATA
  6
CONTINUOUS
 62
     7
 10
-259.65000000000009
 20
41.850000000000129
 30
0.0
  0
SEQEND
  5
5D6
  8
DATA
  6
CONTINUOUS
 62
     7
  0
TEXT
  5
163
  8
DATA
  6
CONTINUOUS
 62
     7
 10
-260.29560500000002
 20
-492.37251999999989
 30
0.0
 40
1.71875
  1
0
 41
0.85
 11
-260.29560500000002
 21
-490.65377000000001
 31
0.0
 73
     3
  0
TEXT
  5
164
  8
DATA
  6
CONTINUOUS
 62
     7
 10
-272.93561000000028
 20
-494.96695199999988
 30
0.0
 40
2.8359375
  1
LEVEL
 41
0.85
 11
-272.93561000000028
 21
-492.13101449999988
 31
0.0
 73
     3
  0
TEXT
  5
165
  8
DATA
  6
CONTINUOUS
 62
     7
 10
-218.1357940000002
 20
35.229719000000152
 30
0.0
 40
3.09375
  1
IMPORTANT.
 50
180.0
 41
0.85
 11
-218.1357940000002
 21
32.135969000000159
 31
0.0
 73
     3
  0
TEXT
  5
166
  8
DATA
  6
CONTINUOUS
 62
     7
 10
-249.19772600000039
 20
7.7460610000001671
 30
0.0
 40
3.09375
  1
CH-1
 50
180.0
 41
0.85
 11
-249.19772600000039
 21
4.6523110000001671
 31
0.0
 73
     3
  0
TEXT
  5
167
  8
DATA
  6
CONTINUOUS
 62
     7
 10
-218.1357940000002
 20
39.085924999999847
 30
0.0
 40
1.9765625
  1
3IN MONO MODE USE
 50
180.0
 41
0.85
 11
-218.1357940000002
 21
37.109362499999847
 31
0.0
 73
     3
  0
TEXT
  5
168
  8
DATA
  6
CONTINUOUS
 62
     7
 10
-218.1357940000002
 20
41.385924999999808
 30
0.0
 40
1.9765625
  1
THE CH-1 INPUT ONLY.
 50
180.0
 41
0.85
 11
-218.1357940000002
 21
39.409362499999808
 31
0.0
 73
     3
  0
LINE
  5
169
  8
DATA
  6
CONTINUOUS
 62
     7
 10
-318.49687000000011
 20
-455.54778499999992
 30
0.0
 11
-318.49687000000011
 21
-500.00221500000009
 31
0.0
  0
LINE
  5
16A
  8
DATA
  6
CONTINUOUS
 62
     7
 10
-350.0
 20
-455.55000000000001
 30
0.0
 11
-350.0
 21
-500.0
 31
0.0
  0
TEXT
  5
16B
  8
DATA
  6
CONTINUOUS
 62
     7
 10
-284.00881000000021
 20
-481.540325
 30
0.0
 40
1.71875
  1
50
 41
0.85
 11
-284.00881000000021
 21
-479.82157499999988
 31
0.0
 73
     3
  0
ARC
  5
16C
  8
DATA
  6
CONTINUOUS
 62
     7
 10
-343.0180000000002
 20
-493.65000000000009
 30
0.0
 40
3.0180000000000282
 50
90.0
 51
270.0
  0
ARC
  5
16D
  8
DATA
  6
CONTINUOUS
 62
     7
 10
-338.9820000000002
 20
-493.65000000000009
 30
0.0
 40
3.017999999999915
 50
270.0
 51
90.0
  0
LINE
  5
16E
  8
DATA
  6
CONTINUOUS
 62
     7
 10
-338.9820000000002
 20
-496.66800000000001
 30
0.0
 11
-343.0180000000002
 21
-496.66800000000001
 31
0.0
  0
LINE
  5
16F
  8
DATA
  6
CONTINUOUS
 62
     7
 10
-343.0180000000002
 20
-490.63200000000001
 30
0.0
 11
-338.9820000000002
 21
-490.63200000000001
 31
0.0
  0
ARC
  5
170
  8
DATA
  6
CONTINUOUS
 62
     7
 10
-343.0180000000002
 20
-461.89999999999981
 30
0.0
 40
3.017999999999915
 50
90.0
 51
270.0
  0
LINE
  5
171
  8
DATA
  6
CONTINUOUS
 62
     7
 10
-343.0180000000002
 20
-458.88200000000012
 30
0.0
 11
-338.9820000000002
 21
-458.88200000000012
 31
0.0
  0
ARC
  5
172
  8
DATA
  6
CONTINUOUS
 62
     7
 10
-338.9820000000002
 20
-461.89999999999981
 30
0.0
 40
3.0180000000000282
 50
270.0
 51
90.0
  0
LINE
  5
173
  8
DATA
  6
CONTINUOUS
 62
     7
 10
-338.9820000000002
 20
-464.91800000000001
 30
0.0
 11
-343.0180000000002
 21
-464.91800000000001
 31
0.0
  0
CIRCLE
  5
174
  8
DATA
  6
CONTINUOUS
 62
     7
 10
-302.49527
 20
-477.55000000000001
 30
0.0
 40
3.2503400000000511
  0
CIRCLE
  5
175
  8
DATA
  6
CONTINUOUS
 62
     7
 10
-302.49527
 20
-477.55000000000001
 30
0.0
 40
6.0006200000000254
  0
TEXT
  5
176
  8
DATA
  6
CONTINUOUS
 62
     7
 10
-312.6098600000002
 20
-493.98345599999988
 30
0.0
 40
2.40625
  1
HEADPHONES
 41
0.85
 11
-312.6098600000002
 21
-491.57720599999988
 31
0.0
 73
     3
  0
CIRCLE
  5
177
  8
DATA
  6
CONTINUOUS
 62
     7
 10
-267.00000000000028
 20
-478.05000000000001
 30
0.0
 40
9.5
  0
LINE
  5
178
  8
DATA
  6
CONTINUOUS
 62
     7
 10
-273.10648200000009
 20
-485.32742200000013
 30
0.0
 11
-275.67763300000018
 21
-488.39159999999993
 31
0.0
  0
LINE
  5
179
  8
DATA
  6
CONTINUOUS
 62
     7
 10
-273.10648200000009
 20
-470.77257800000001
 30
0.0
 11
-275.67763300000018
 21
-467.70839999999993
 31
0.0
  0
LINE
  5
17A
  8
DATA
  6
CONTINUOUS
 62
     7
 10
-271.75000000000023
 20
-486.27724099999989
 30
0.0
 11
-273.75000000000023
 21
-489.74134299999992
 31
0.0
  0
LINE
  5
17B
  8
DATA
  6
CONTINUOUS
 62
     7
 10
-271.75000000000023
 20
-469.82275900000002
 30
0.0
 11
-273.75000000000023
 21
-466.35865699999988
 31
0.0
  0
LINE
  5
17C
  8
DATA
  6
CONTINUOUS
 62
     7
 10
-275.505405
 20
-482.28179399999999
 30
0.0
 11
-267.58786100000037
 21
-468.56820599999992
 31
0.0
  0
LINE
  5
17D
  8
DATA
  6
CONTINUOUS
 62
     7
 10
-275.22724099999999
 20
-482.80000000000001
 30
0.0
 11
-278.69134300000007
 21
-484.7999999999999
 31
0.0
  0
LINE
  5
17E
  8
DATA
  6
CONTINUOUS
 62
     7
 10
-274.277422
 20
-484.1564820000001
 30
0.0
 11
-277.34160000000008
 21
-486.72763300000003
 31
0.0
  0
LINE
  5
17F
  8
DATA
  6
CONTINUOUS
 62
     7
 10
-274.277422
 20
-471.94351799999993
 30
0.0
 11
-277.34160000000008
 21
-469.37236700000011
 31
0.0
  0
LINE
  5
180
  8
DATA
  6
CONTINUOUS
 62
     7
 10
-275.22724099999999
 20
-473.30000000000001
 30
0.0
 11
-278.69134300000007
 21
-471.30000000000001
 31
0.0
  0
LINE
  5
181
  8
DATA
  6
CONTINUOUS
 62
     7
 10
-276.50000000000023
 20
-478.05000000000001
 30
0.0
 11
-280.50000000000023
 21
-478.05000000000001
 31
0.0
  0
LINE
  5
182
  8
DATA
  6
CONTINUOUS
 62
     7
 10
-275.92708000000039
 20
-481.29919100000001
 30
0.0
 11
-279.68585000000002
 21
-482.66727200000008
 31
0.0
  0
LINE
  5
183
  8
DATA
  6
CONTINUOUS
 62
     7
 10
-275.92708000000039
 20
-474.80080900000002
 30
0.0
 11
-279.68585000000002
 21
-473.432728
 31
0.0
  0
LINE
  5
184
  8
DATA
  6
CONTINUOUS
 62
     7
 10
-276.35567400000008
 20
-476.4003419999998
 30
0.0
 11
-280.29490500000009
 21
-475.70575000000008
 31
0.0
  0
LINE
  5
185
  8
DATA
  6
CONTINUOUS
 62
     7
 10
-276.35567400000008
 20
-479.699658
 30
0.0
 11
-280.29490500000009
 21
-480.39425
 31
0.0
  0
LINE
  5
186
  8
DATA
  6
CONTINUOUS
 62
     7
 10
-271.75000000000023
 20
-486.27724099999989
 30
0.0
 11
-267.00000000000028
 21
-478.05000000000001
 31
0.0
  0
LINE
  5
187
  8
DATA
  6
CONTINUOUS
 62
     7
 10
-266.41213800000008
 20
-487.53179399999999
 30
0.0
 11
-258.494595
 21
-473.8182059999998
 31
0.0
  0
LINE
  5
188
  8
DATA
  6
CONTINUOUS
 62
     7
 10
-262.25
 20
-486.27724099999989
 30
0.0
 11
-260.25
 21
-489.74134299999992
 31
0.0
  0
LINE
  5
189
  8
DATA
  6
CONTINUOUS
 62
     7
 10
-259.722578
 20
-484.1564820000001
 30
0.0
 11
-256.65839999999997
 21
-486.72763300000003
 31
0.0
  0
LINE
  5
18A
  8
DATA
  6
CONTINUOUS
 62
     7
 10
-260.89351799999997
 20
-485.32742200000013
 30
0.0
 11
-258.3223670000001
 21
-488.39159999999993
 31
0.0
  0
LINE
  5
18B
  8
DATA
  6
CONTINUOUS
 62
     7
 10
-262.25
 20
-469.82275900000002
 30
0.0
 11
-260.25
 21
-466.35865699999988
 31
0.0
  0
LINE
  5
18C
  8
DATA
  6
CONTINUOUS
 62
     7
 10
-267.00000000000028
 20
-468.55000000000001
 30
0.0
 11
-267.00000000000028
 21
-464.55000000000013
 31
0.0
  0
LINE
  5
18D
  8
DATA
  6
CONTINUOUS
 62
     7
 10
-270.24919100000028
 20
-469.12292000000002
 30
0.0
 11
-271.61727200000041
 21
-465.36414999999988
 31
0.0
  0
LINE
  5
18E
  8
DATA
  6
CONTINUOUS
 62
     7
 10
-263.75080900000029
 20
-469.12292000000002
 30
0.0
 11
-262.38272800000021
 21
-465.36414999999988
 31
0.0
  0
LINE
  5
18F
  8
DATA
  6
CONTINUOUS
 62
     7
 10
-265.35034200000013
 20
-468.6943260000001
 30
0.0
 11
-264.65575000000041
 21
-464.75509499999998
 31
0.0
  0
LINE
  5
190
  8
DATA
  6
CONTINUOUS
 62
     7
 10
-268.64965800000022
 20
-468.6943260000001
 30
0.0
 11
-269.3442500000001
 21
-464.75509499999998
 31
0.0
  0
LINE
  5
191
  8
DATA
  6
CONTINUOUS
 62
     7
 10
-260.89351799999997
 20
-470.77257800000001
 30
0.0
 11
-258.3223670000001
 21
-467.70839999999993
 31
0.0
  0
LINE
  5
192
  8
DATA
  6
CONTINUOUS
 62
     7
 10
-259.722578
 20
-471.94351799999993
 30
0.0
 11
-256.65839999999997
 21
-469.37236700000011
 31
0.0
  0
TEXT
  5
193
  8
DATA
  6
CONTINUOUS
 62
     7
 10
-268.25
 20
-462.97364700000003
 30
0.0
 40
1.71875
  1
30
 41
0.85
 11
-268.25
 21
-461.25489700000003
 31
0.0
 73
     3
  0
TEXT
  5
194
  8
DATA
  6
CONTINUOUS
 62
     7
 10
-275.58381500000002
 20
-492.15705500000013
 30
0.0
 40
1.71875
  1
ｰ
 41
0.85
 11
-275.58381500000002
 21
-490.43830500000001
 31
0.0
 73
     3
  0
TEXT
  5
195
  8
DATA
  6
CONTINUOUS
 62
     7
 10
-280.70446100000021
 20
-468.67622299999999
 30
0.0
 40
1.71875
  1
40
 41
0.85
 11
-280.70446100000021
 21
-466.95747299999988
 31
0.0
 73
     3
  0
LINE
  5
196
  8
DATA
  6
CONTINUOUS
 62
     7
 10
-319.25000000000028
 20
-131.74968999999979
 30
0.0
 11
-320.75
 21
-131.74968999999979
 31
0.0
  0
LINE
  5
197
  8
DATA
  6
CONTINUOUS
 62
     7
 10
-319.25000000000028
 20
-126.2496899999998
 30
0.0
 11
-320.75
 21
-126.2496899999998
 31
0.0
  0
CIRCLE
  5
198
  8
DATA
  6
CONTINUOUS
 62
     7
 10
-263.04122799999999
 20
-308.25
 30
0.0
 40
1.75
  0
LINE
  5
199
  8
DATA
  6
CONTINUOUS
 62
     7
 10
-257.50000000000023
 20
-300.0
 30
0.0
 11
-258.494595
 21
-304.0
 31
0.0
  0
LINE
  5
19A
  8
DATA
  6
CONTINUOUS
 62
     7
 10
-258.494595
 20
-304.0
 30
0.0
 11
-258.494595
 21
-312.5
 31
0.0
  0
LINE
  5
19B
  8
DATA
  6
CONTINUOUS
 62
     7
 10
-267.58786100000037
 20
-304.0
 30
0.0
 11
-267.58786100000037
 21
-312.5
 31
0.0
  0
LINE
  5
19C
  8
DATA
  6
CONTINUOUS
 62
     7
 10
-272.81457000000017
 20
-300.0
 30
0.0
 11
-267.58786100000037
 21
-304.0
 31
0.0
  0
LINE
  5
19D
  8
DATA
  6
CONTINUOUS
 62
     7
 10
-275.505405
 20
-304.0
 30
0.0
 11
-275.505405
 21
-312.5
 31
0.0
  0
LINE
  5
19E
  8
DATA
  6
CONTINUOUS
 62
     7
 10
-276.50000000000023
 20
-300.0
 30
0.0
 11
-275.505405
 21
-304.0
 31
0.0
  0
LINE
  5
19F
  8
DATA
  6
CONTINUOUS
 62
     7
 10
-275.505405
 20
-304.0
 30
0.0
 11
-267.58786100000037
 21
-304.0
 31
0.0
  0
LINE
  5
1A0
  8
DATA
  6
CONTINUOUS
 62
     7
 10
-275.505405
 20
-312.5
 30
0.0
 11
-258.494595
 21
-312.5
 31
0.0
  0
LINE
  5
1A1
  8
DATA
  6
CONTINUOUS
 62
     7
 10
-319.25000000000028
 20
-271.74968999999987
 30
0.0
 11
-320.75
 21
-271.74968999999987
 31
0.0
  0
LINE
  5
1A2
  8
DATA
  6
CONTINUOUS
 62
     7
 10
-318.50000000000023
 20
-300.0
 30
0.0
 11
-318.50000000000023
 21
-280.0
 31
0.0
  0
LINE
  5
1A3
  8
DATA
  6
CONTINUOUS
 62
     7
 10
-350.0
 20
-296.99977000000001
 30
0.0
 11
-321.50000000000023
 21
-296.99977000000001
 31
0.0
  0
LINE
  5
1A4
  8
DATA
  6
CONTINUOUS
 62
     7
 10
-324.50000000000023
 20
-283.24977000000001
 30
0.0
 11
-324.50000000000023
 21
-288.74977000000001
 31
0.0
  0
LINE
  5
1A5
  8
DATA
  6
CONTINUOUS
 62
     7
 10
-321.50000000000023
 20
-283.24977000000001
 30
0.0
 11
-324.50000000000023
 21
-283.24977000000001
 31
0.0
  0
LINE
  5
1A6
  8
DATA
  6
CONTINUOUS
 62
     7
 10
-350.0
 20
-300.0
 30
0.0
 11
-350.0
 21
-296.99977000000001
 31
0.0
  0
LINE
  5
1A7
  8
DATA
  6
CONTINUOUS
 62
     7
 10
-324.50000000000023
 20
-288.74977000000001
 30
0.0
 11
-321.50000000000023
 21
-288.74977000000001
 31
0.0
  0
LINE
  5
1A8
  8
DATA
  6
CONTINUOUS
 62
     7
 10
-321.50000000000023
 20
-296.99977000000001
 30
0.0
 11
-321.50000000000023
 21
-280.0
 31
0.0
  0
LINE
  5
1A9
  8
DATA
  6
CONTINUOUS
 62
     7
 10
-319.25000000000028
 20
-266.24968999999987
 30
0.0
 11
-320.75
 21
-266.24968999999987
 31
0.0
  0
LINE
  5
1AA
  8
DATA
  6
CONTINUOUS
 62
     7
 10
-319.25000000000028
 20
-279.99804999999969
 30
0.0
 11
-319.25000000000028
 21
-83.999999999999872
 31
0.0
  0
POLYLINE
  5
1AB
  8
DATA
  6
CONTINUOUS
 62
     7
 66
     1
 10
0.0
 20
0.0
 30
0.0
  0
VERTEX
  5
5D7
  8
DATA
  6
CONTINUOUS
 62
     7
 10
-320.74999992586771
 20
-126.2496899999998
 30
0.0
  0
VERTEX
  5
5D8
  8
DATA
  6
CONTINUOUS
 62
     7
 10
-320.7647313171426
 20
-126.249689987987
 30
0.0
  0
VERTEX
  5
5D9
  8
DATA
  6
CONTINUOUS
 62
     7
 10
-320.79911259824161
 20
-126.26328900682969
 30
0.0
  0
VERTEX
  5
5DA
  8
DATA
  6
CONTINUOUS
 62
     7
 10
-320.83184201600722
 20
-126.2853926166587
 30
0.0
  0
VERTEX
  5
5DB
  8
DATA
  6
CONTINUOUS
 62
     7
 10
-320.8629195704392
 20
-126.3160008174743
 30
0.0
  0
VERTEX
  5
5DC
  8
DATA
  6
CONTINUOUS
 62
     7
 10
-320.89234526153763
 20
-126.3551136092766
 30
0.0
  0
VERTEX
  5
5DD
  8
DATA
  6
CONTINUOUS
 62
     7
 10
-320.92011908930249
 20
-126.4027309920656
 30
0.0
  0
VERTEX
  5
5DE
  8
DATA
  6
CONTINUOUS
 62
     7
 10
-320.94624105373401
 20
-126.4588529658411
 30
0.0
  0
VERTEX
  5
5DF
  8
DATA
  6
CONTINUOUS
 62
     7
 10
-320.97071115483158
 20
-126.5234795306033
 30
0.0
  0
VERTEX
  5
5E0
  8
DATA
  6
CONTINUOUS
 62
     7
 10
-320.99352939259569
 20
-126.59661068635199
 30
0.0
  0
VERTEX
  5
5E1
  8
DATA
  6
CONTINUOUS
 62
     7
 10
-321.01486023981943
 20
-126.6736694101033
 30
0.0
  0
VERTEX
  5
5E2
  8
DATA
  6
CONTINUOUS
 62
     7
 10
-321.03486816929512
 20
-126.7500786788726
 30
0.0
  0
VERTEX
  5
5E3
  8
DATA
  6
CONTINUOUS
 62
     7
 10
-321.05355318102318
 20
-126.8258384926601
 30
0.0
  0
VERTEX
  5
5E4
  8
DATA
  6
CONTINUOUS
 62
     7
 10
-321.0709152750037
 20
-126.9009488514661
 30
0.0
  0
VERTEX
  5
5E5
  8
DATA
  6
CONTINUOUS
 62
     7
 10
-321.08695445123641
 20
-126.9754097552902
 30
0.0
  0
VERTEX
  5
5E6
  8
DATA
  6
CONTINUOUS
 62
     7
 10
-321.10167070972142
 20
-127.04922120413261
 30
0.0
  0
VERTEX
  5
5E7
  8
DATA
  6
CONTINUOUS
 62
     7
 10
-321.11506405045861
 20
-127.1223831979931
 30
0.0
  0
VERTEX
  5
5E8
  8
DATA
  6
CONTINUOUS
 62
     7
 10
-321.12713447344822
 20
-127.1948957368719
 30
0.0
  0
VERTEX
  5
5E9
  8
DATA
  6
CONTINUOUS
 62
     7
 10
-321.13827981619448
 20
-127.2678271822176
 30
0.0
  0
VERTEX
  5
5EA
  8
DATA
  6
CONTINUOUS
 62
     7
 10
-321.14889791620271
 20
-127.3422458954788
 30
0.0
  0
VERTEX
  5
5EB
  8
DATA
  6
CONTINUOUS
 62
     7
 10
-321.1589887734728
 20
-127.4181518766555
 30
0.0
  0
VERTEX
  5
5EC
  8
DATA
  6
CONTINUOUS
 62
     7
 10
-321.16855238800463
 20
-127.495545125748
 30
0.0
  0
VERTEX
  5
5ED
  8
DATA
  6
CONTINUOUS
 62
     7
 10
-321.1775887597978
 20
-127.5744256427562
 30
0.0
  0
VERTEX
  5
5EE
  8
DATA
  6
CONTINUOUS
 62
     7
 10
-321.186097888853
 20
-127.65479342767949
 30
0.0
  0
VERTEX
  5
5EF
  8
DATA
  6
CONTINUOUS
 62
     7
 10
-321.19407977516988
 20
-127.73664848051889
 30
0.0
  0
VERTEX
  5
5F0
  8
DATA
  6
CONTINUOUS
 62
     7
 10
-321.20153441874839
 20
-127.8199908012737
 30
0.0
  0
VERTEX
  5
5F1
  8
DATA
  6
CONTINUOUS
 62
     7
 10
-321.20845155064188
 20
-127.9041388225799
 30
0.0
  0
VERTEX
  5
5F2
  8
DATA
  6
CONTINUOUS
 62
     7
 10
-321.2148209019042
 20
-127.9884109770734
 30
0.0
  0
VERTEX
  5
5F3
  8
DATA
  6
CONTINUOUS
 62
     7
 10
-321.22064247253508
 20
-128.07280726475429
 30
0.0
  0
VERTEX
  5
5F4
  8
DATA
  6
CONTINUOUS
 62
     7
 10
-321.2259162625341
 20
-128.15732768562259
 30
0.0
  0
VERTEX
  5
5F5
  8
DATA
  6
CONTINUOUS
 62
     7
 10
-321.23064227190201
 20
-128.24197223967769
 30
0.0
  0
VERTEX
  5
5F6
  8
DATA
  6
CONTINUOUS
 62
     7
 10
-321.23482050063819
 20
-128.32674092692039
 30
0.0
  0
VERTEX
  5
5F7
  8
DATA
  6
CONTINUOUS
 62
     7
 10
-321.23845094874321
 20
-128.41163374735021
 30
0.0
  0
VERTEX
  5
5F8
  8
DATA
  6
CONTINUOUS
 62
     7
 10
-321.2415336162166
 20
-128.49665070096751
 30
0.0
  0
VERTEX
  5
5F9
  8
DATA
  6
CONTINUOUS
 62
     7
 10
-321.24412449363911
 20
-128.5802576035077
 30
0.0
  0
VERTEX
  5
5FA
  8
DATA
  6
CONTINUOUS
 62
     7
 10
-321.24627957159191
 20
-128.6609202707063
 30
0.0
  0
VERTEX
  5
5FB
  8
DATA
  6
CONTINUOUS
 62
     7
 10
-321.24799885007451
 20
-128.73863870256389
 30
0.0
  0
VERTEX
  5
5FC
  8
DATA
  6
CONTINUOUS
 62
     7
 10
-321.24928232908718
 20
-128.81341289907951
 30
0.0
  0
VERTEX
  5
5FD
  8
DATA
  6
CONTINUOUS
 62
     7
 10
-321.25013000862981
 20
-128.88524286025421
 30
0.0
  0
VERTEX
  5
5FE
  8
DATA
  6
CONTINUOUS
 62
     7
 10
-321.25054188870263
 20
-128.95412858608739
 30
0.0
  0
VERTEX
  5
5FF
  8
DATA
  6
CONTINUOUS
 62
     7
 10
-321.25051796930529
 20
-129.0200700765794
 30
0.0
  0
VERTEX
  5
600
  8
DATA
  6
CONTINUOUS
 62
     7
 10
-321.25005825043809
 20
-129.0830673317295
 30
0.0
  0
VERTEX
  5
601
  8
DATA
  6
CONTINUOUS
 62
     7
 10
-321.24929051029989
 20
-129.1447699300422
 30
0.0
  0
VERTEX
  5
602
  8
DATA
  6
CONTINUOUS
 62
     7
 10
-321.2483425270907
 20
-129.2068274500204
 30
0.0
  0
VERTEX
  5
603
  8
DATA
  6
CONTINUOUS
 62
     7
 10
-321.24721430080962
 20
-129.26923989166451
 30
0.0
  0
VERTEX
  5
604
  8
DATA
  6
CONTINUOUS
 62
     7
 10
-321.24590583145721
 20
-129.33200725497471
 30
0.0
  0
VERTEX
  5
605
  8
DATA
  6
CONTINUOUS
 62
     7
 10
-321.24441711903307
 20
-129.39512953995069
 30
0.0
  0
VERTEX
  5
606
  8
DATA
  6
CONTINUOUS
 62
     7
 10
-321.24274816353773
 20
-129.4586067465923
 30
0.0
  0
VERTEX
  5
607
  8
DATA
  6
CONTINUOUS
 62
     7
 10
-321.24089896497088
 20
-129.52243887489979
 30
0.0
  0
VERTEX
  5
608
  8
DATA
  6
CONTINUOUS
 62
     7
 10
-321.2388695233326
 20
-129.586625924873
 30
0.0
  0
VERTEX
  5
609
  8
DATA
  6
CONTINUOUS
 62
     7
 10
-321.23643143623929
 20
-129.6522237633402
 30
0.0
  0
VERTEX
  5
60A
  8
DATA
  6
CONTINUOUS
 62
     7
 10
-321.23335630130799
 20
-129.7202882571288
 30
0.0
  0
VERTEX
  5
60B
  8
DATA
  6
CONTINUOUS
 62
     7
 10
-321.229644118539
 20
-129.79081940623871
 30
0.0
  0
VERTEX
  5
60C
  8
DATA
  6
CONTINUOUS
 62
     7
 10
-321.2252948879318
 20
-129.86381721067019
 30
0.0
  0
VERTEX
  5
60D
  8
DATA
  6
CONTINUOUS
 62
     7
 10
-321.22030860948638
 20
-129.9392816704233
 30
0.0
  0
VERTEX
  5
60E
  8
DATA
  6
CONTINUOUS
 62
     7
 10
-321.21468528320293
 20
-130.01721278549809
 30
0.0
  0
VERTEX
  5
60F
  8
DATA
  6
CONTINUOUS
 62
     7
 10
-321.20842490908171
 20
-130.09761055589439
 30
0.0
  0
VERTEX
  5
610
  8
DATA
  6
CONTINUOUS
 62
     7
 10
-321.20152748712241
 20
-130.18047498161241
 30
0.0
  0
VERTEX
  5
611
  8
DATA
  6
CONTINUOUS
 62
     7
 10
-321.19404865905688
 20
-130.26382969730739
 30
0.0
  0
VERTEX
  5
612
  8
DATA
  6
CONTINUOUS
 62
     7
 10
-321.18604406661768
 20
-130.34569833763561
 30
0.0
  0
VERTEX
  5
613
  8
DATA
  6
CONTINUOUS
 62
     7
 10
-321.17751370980483
 20
-130.42608090259671
 30
0.0
  0
VERTEX
  5
614
  8
DATA
  6
CONTINUOUS
 62
     7
 10
-321.16845758861791
 20
-130.50497739219111
 30
0.0
  0
VERTEX
  5
615
  8
DATA
  6
CONTINUOUS
 62
     7
 10
-321.15887570305739
 20
-130.5823878064183
 30
0.0
  0
VERTEX
  5
616
  8
DATA
  6
CONTINUOUS
 62
     7
 10
-321.14876805312309
 20
-130.6583121452785
 30
0.0
  0
VERTEX
  5
617
  8
DATA
  6
CONTINUOUS
 62
     7
 10
-321.13813463881502
 20
-130.73275040877181
 30
0.0
  0
VERTEX
  5
618
  8
DATA
  6
CONTINUOUS
 62
     7
 10
-321.126975460133
 20
-130.80570259689819
 30
0.0
  0
VERTEX
  5
619
  8
DATA
  6
CONTINUOUS
 62
     7
 10
-321.11487947779909
 20
-130.8782067444952
 30
0.0
  0
VERTEX
  5
61A
  8
DATA
  6
CONTINUOUS
 62
     7
 10
-321.10143565253571
 20
-130.95130088639971
 30
0.0
  0
VERTEX
  5
61B
  8
DATA
  6
CONTINUOUS
 62
     7
 10
-321.086643984342
 20
-131.02498502261179
 30
0.0
  0
VERTEX
  5
61C
  8
DATA
  6
CONTINUOUS
 62
     7
 10
-321.07050447321842
 20
-131.0992591531317
 30
0.0
  0
VERTEX
  5
61D
  8
DATA
  6
CONTINUOUS
 62
     7
 10
-321.0530171191653
 20
-131.17412327795981
 30
0.0
  0
VERTEX
  5
61E
  8
DATA
  6
CONTINUOUS
 62
     7
 10
-321.03418192218209
 20
-131.24957739709541
 30
0.0
  0
VERTEX
  5
61F
  8
DATA
  6
CONTINUOUS
 62
     7
 10
-321.01399888226928
 20
-131.3256215105387
 30
0.0
  0
VERTEX
  5
620
  8
DATA
  6
CONTINUOUS
 62
     7
 10
-320.9924679994262
 20
-131.4022556182899
 30
0.0
  0
VERTEX
  5
621
  8
DATA
  6
CONTINUOUS
 62
     7
 10
-320.96948041231269
 20
-131.47499724710821
 30
0.0
  0
VERTEX
  5
622
  8
DATA
  6
CONTINUOUS
 62
     7
 10
-320.94492725958821
 20
-131.5393639237534
 30
0.0
  0
VERTEX
  5
623
  8
DATA
  6
CONTINUOUS
 62
     7
 10
-320.91880854125247
 20
-131.59535564822551
 30
0.0
  0
VERTEX
  5
624
  8
DATA
  6
CONTINUOUS
 62
     7
 10
-320.89112425730582
 20
-131.6429724205241
 30
0.0
  0
VERTEX
  5
625
  8
DATA
  6
CONTINUOUS
 62
     7
 10
-320.86187440774768
 20
-131.6822142406495
 30
0.0
  0
VERTEX
  5
626
  8
DATA
  6
CONTINUOUS
 62
     7
 10
-320.83105899257862
 20
-131.7130811086021
 30
0.0
  0
VERTEX
  5
627
  8
DATA
  6
CONTINUOUS
 62
     7
 10
-320.79867801179847
 20
-131.73557302438121
 30
0.0
  0
VERTEX
  5
628
  8
DATA
  6
CONTINUOUS
 62
     7
 10
-320.76473146540718
 20
-131.74968998798701
 30
0.0
  0
VERTEX
  5
629
  8
DATA
  6
CONTINUOUS
 62
     7
 10
-320.76473146540718
 20
-131.74968998798701
 30
0.0
  0
VERTEX
  5
62A
  8
DATA
  6
CONTINUOUS
 62
     7
 10
-320.75000007413252
 20
-131.74968999999979
 30
0.0
  0
SEQEND
  5
62B
  8
DATA
  6
CONTINUOUS
 62
     7
  0
POLYLINE
  5
201
  8
DATA
  6
CONTINUOUS
 62
     7
 66
     1
 10
0.0
 20
0.0
 30
0.0
  0
VERTEX
  5
62C
  8
DATA
  6
CONTINUOUS
 62
     7
 10
-320.74999992586771
 20
-266.24968999999982
 30
0.0
  0
VERTEX
  5
62D
  8
DATA
  6
CONTINUOUS
 62
     7
 10
-320.7647313171426
 20
-266.24968998798698
 30
0.0
  0
VERTEX
  5
62E
  8
DATA
  6
CONTINUOUS
 62
     7
 10
-320.79911259824161
 20
-266.26328900682938
 30
0.0
  0
VERTEX
  5
62F
  8
DATA
  6
CONTINUOUS
 62
     7
 10
-320.83184201600722
 20
-266.28539261665838
 30
0.0
  0
VERTEX
  5
630
  8
DATA
  6
CONTINUOUS
 62
     7
 10
-320.8629195704392
 20
-266.31600081747428
 30
0.0
  0
VERTEX
  5
631
  8
DATA
  6
CONTINUOUS
 62
     7
 10
-320.89234526153763
 20
-266.35511360927671
 30
0.0
  0
VERTEX
  5
632
  8
DATA
  6
CONTINUOUS
 62
     7
 10
-320.92011908930249
 20
-266.4027309920657
 30
0.0
  0
VERTEX
  5
633
  8
DATA
  6
CONTINUOUS
 62
     7
 10
-320.94624105373401
 20
-266.45885296584112
 30
0.0
  0
VERTEX
  5
634
  8
DATA
  6
CONTINUOUS
 62
     7
 10
-320.97071115483158
 20
-266.52347953060331
 30
0.0
  0
VERTEX
  5
635
  8
DATA
  6
CONTINUOUS
 62
     7
 10
-320.99352939259569
 20
-266.59661068635239
 30
0.0
  0
VERTEX
  5
636
  8
DATA
  6
CONTINUOUS
 62
     7
 10
-321.01486023981943
 20
-266.67366941010363
 30
0.0
  0
VERTEX
  5
637
  8
DATA
  6
CONTINUOUS
 62
     7
 10
-321.03486816929512
 20
-266.7500786788728
 30
0.0
  0
VERTEX
  5
638
  8
DATA
  6
CONTINUOUS
 62
     7
 10
-321.05355318102318
 20
-266.82583849266041
 30
0.0
  0
VERTEX
  5
639
  8
DATA
  6
CONTINUOUS
 62
     7
 10
-321.0709152750037
 20
-266.90094885146641
 30
0.0
  0
VERTEX
  5
63A
  8
DATA
  6
CONTINUOUS
 62
     7
 10
-321.08695445123641
 20
-266.9754097552904
 30
0.0
  0
VERTEX
  5
63B
  8
DATA
  6
CONTINUOUS
 62
     7
 10
-321.10167070972142
 20
-267.04922120413272
 30
0.0
  0
VERTEX
  5
63C
  8
DATA
  6
CONTINUOUS
 62
     7
 10
-321.11506405045861
 20
-267.1223831979932
 30
0.0
  0
VERTEX
  5
63D
  8
DATA
  6
CONTINUOUS
 62
     7
 10
-321.12713447344822
 20
-267.19489573687201
 30
0.0
  0
VERTEX
  5
63E
  8
DATA
  6
CONTINUOUS
 62
     7
 10
-321.13827981619448
 20
-267.26782718221762
 30
0.0
  0
VERTEX
  5
63F
  8
DATA
  6
CONTINUOUS
 62
     7
 10
-321.14889791620271
 20
-267.34224589547881
 30
0.0
  0
VERTEX
  5
640
  8
DATA
  6
CONTINUOUS
 62
     7
 10
-321.1589887734728
 20
-267.41815187665571
 30
0.0
  0
VERTEX
  5
641
  8
DATA
  6
CONTINUOUS
 62
     7
 10
-321.16855238800463
 20
-267.49554512574798
 30
0.0
  0
VERTEX
  5
642
  8
DATA
  6
CONTINUOUS
 62
     7
 10
-321.1775887597978
 20
-267.57442564275601
 30
0.0
  0
VERTEX
  5
643
  8
DATA
  6
CONTINUOUS
 62
     7
 10
-321.186097888853
 20
-267.65479342767992
 30
0.0
  0
VERTEX
  5
644
  8
DATA
  6
CONTINUOUS
 62
     7
 10
-321.19407977516988
 20
-267.73664848051902
 30
0.0
  0
VERTEX
  5
645
  8
DATA
  6
CONTINUOUS
 62
     7
 10
-321.20153441874839
 20
-267.81999080127378
 30
0.0
  0
VERTEX
  5
646
  8
DATA
  6
CONTINUOUS
 62
     7
 10
-321.20845155064188
 20
-267.90413882258008
 30
0.0
  0
VERTEX
  5
647
  8
DATA
  6
CONTINUOUS
 62
     7
 10
-321.2148209019042
 20
-267.9884109770735
 30
0.0
  0
VERTEX
  5
648
  8
DATA
  6
CONTINUOUS
 62
     7
 10
-321.22064247253508
 20
-268.07280726475449
 30
0.0
  0
VERTEX
  5
649
  8
DATA
  6
CONTINUOUS
 62
     7
 10
-321.2259162625341
 20
-268.15732768562242
 30
0.0
  0
VERTEX
  5
64A
  8
DATA
  6
CONTINUOUS
 62
     7
 10
-321.23064227190201
 20
-268.24197223967792
 30
0.0
  0
VERTEX
  5
64B
  8
DATA
  6
CONTINUOUS
 62
     7
 10
-321.23482050063819
 20
-268.32674092692048
 30
0.0
  0
VERTEX
  5
64C
  8
DATA
  6
CONTINUOUS
 62
     7
 10
-321.23845094874321
 20
-268.41163374735032
 30
0.0
  0
VERTEX
  5
64D
  8
DATA
  6
CONTINUOUS
 62
     7
 10
-321.2415336162166
 20
-268.49665070096762
 30
0.0
  0
VERTEX
  5
64E
  8
DATA
  6
CONTINUOUS
 62
     7
 10
-321.24412449363911
 20
-268.5802576035075
 30
0.0
  0
VERTEX
  5
64F
  8
DATA
  6
CONTINUOUS
 62
     7
 10
-321.24627957159191
 20
-268.66092027070641
 30
0.0
  0
VERTEX
  5
650
  8
DATA
  6
CONTINUOUS
 62
     7
 10
-321.24799885007451
 20
-268.73863870256372
 30
0.0
  0
VERTEX
  5
651
  8
DATA
  6
CONTINUOUS
 62
     7
 10
-321.24928232908718
 20
-268.81341289907959
 30
0.0
  0
VERTEX
  5
652
  8
DATA
  6
CONTINUOUS
 62
     7
 10
-321.25013000862981
 20
-268.8852428602541
 30
0.0
  0
VERTEX
  5
653
  8
DATA
  6
CONTINUOUS
 62
     7
 10
-321.25054188870263
 20
-268.95412858608711
 30
0.0
  0
VERTEX
  5
654
  8
DATA
  6
CONTINUOUS
 62
     7
 10
-321.25051796930529
 20
-269.02007007657897
 30
0.0
  0
VERTEX
  5
655
  8
DATA
  6
CONTINUOUS
 62
     7
 10
-321.25005825043809
 20
-269.0830673317293
 30
0.0
  0
VERTEX
  5
656
  8
DATA
  6
CONTINUOUS
 62
     7
 10
-321.24929051029989
 20
-269.14476993004189
 30
0.0
  0
VERTEX
  5
657
  8
DATA
  6
CONTINUOUS
 62
     7
 10
-321.2483425270907
 20
-269.20682745002023
 30
0.0
  0
VERTEX
  5
658
  8
DATA
  6
CONTINUOUS
 62
     7
 10
-321.24721430080962
 20
-269.26923989166443
 30
0.0
  0
VERTEX
  5
659
  8
DATA
  6
CONTINUOUS
 62
     7
 10
-321.24590583145721
 20
-269.33200725497449
 30
0.0
  0
VERTEX
  5
65A
  8
DATA
  6
CONTINUOUS
 62
     7
 10
-321.24441711903307
 20
-269.3951295399504
 30
0.0
  0
VERTEX
  5
65B
  8
DATA
  6
CONTINUOUS
 62
     7
 10
-321.24274816353773
 20
-269.45860674659212
 30
0.0
  0
VERTEX
  5
65C
  8
DATA
  6
CONTINUOUS
 62
     7
 10
-321.24089896497088
 20
-269.52243887489959
 30
0.0
  0
VERTEX
  5
65D
  8
DATA
  6
CONTINUOUS
 62
     7
 10
-321.2388695233326
 20
-269.58662592487281
 30
0.0
  0
VERTEX
  5
65E
  8
DATA
  6
CONTINUOUS
 62
     7
 10
-321.23643143623929
 20
-269.65222376333992
 30
0.0
  0
VERTEX
  5
65F
  8
DATA
  6
CONTINUOUS
 62
     7
 10
-321.23335630130799
 20
-269.72028825712852
 30
0.0
  0
VERTEX
  5
660
  8
DATA
  6
CONTINUOUS
 62
     7
 10
-321.229644118539
 20
-269.79081940623882
 30
0.0
  0
VERTEX
  5
661
  8
DATA
  6
CONTINUOUS
 62
     7
 10
-321.2252948879318
 20
-269.86381721067028
 30
0.0
  0
VERTEX
  5
662
  8
DATA
  6
CONTINUOUS
 62
     7
 10
-321.22030860948638
 20
-269.93928167042338
 30
0.0
  0
VERTEX
  5
663
  8
DATA
  6
CONTINUOUS
 62
     7
 10
-321.21468528320293
 20
-270.0172127854982
 30
0.0
  0
VERTEX
  5
664
  8
DATA
  6
CONTINUOUS
 62
     7
 10
-321.20842490908171
 20
-270.09761055589439
 30
0.0
  0
VERTEX
  5
665
  8
DATA
  6
CONTINUOUS
 62
     7
 10
-321.20152748712241
 20
-270.18047498161229
 30
0.0
  0
VERTEX
  5
666
  8
DATA
  6
CONTINUOUS
 62
     7
 10
-321.19404865905688
 20
-270.26382969730759
 30
0.0
  0
VERTEX
  5
667
  8
DATA
  6
CONTINUOUS
 62
     7
 10
-321.18604406661768
 20
-270.34569833763589
 30
0.0
  0
VERTEX
  5
668
  8
DATA
  6
CONTINUOUS
 62
     7
 10
-321.17751370980483
 20
-270.42608090259682
 30
0.0
  0
VERTEX
  5
669
  8
DATA
  6
CONTINUOUS
 62
     7
 10
-321.16845758861791
 20
-270.50497739219122
 30
0.0
  0
VERTEX
  5
66A
  8
DATA
  6
CONTINUOUS
 62
     7
 10
-321.15887570305739
 20
-270.58238780641841
 30
0.0
  0
VERTEX
  5
66B
  8
DATA
  6
CONTINUOUS
 62
     7
 10
-321.14876805312309
 20
-270.65831214527873
 30
0.0
  0
VERTEX
  5
66C
  8
DATA
  6
CONTINUOUS
 62
     7
 10
-321.13813463881502
 20
-270.73275040877189
 30
0.0
  0
VERTEX
  5
66D
  8
DATA
  6
CONTINUOUS
 62
     7
 10
-321.126975460133
 20
-270.80570259689853
 30
0.0
  0
VERTEX
  5
66E
  8
DATA
  6
CONTINUOUS
 62
     7
 10
-321.11487947779909
 20
-270.87820674449517
 30
0.0
  0
VERTEX
  5
66F
  8
DATA
  6
CONTINUOUS
 62
     7
 10
-321.10143565253571
 20
-270.95130088639979
 30
0.0
  0
VERTEX
  5
670
  8
DATA
  6
CONTINUOUS
 62
     7
 10
-321.086643984342
 20
-271.0249850226121
 30
0.0
  0
VERTEX
  5
671
  8
DATA
  6
CONTINUOUS
 62
     7
 10
-321.07050447321842
 20
-271.09925915313198
 30
0.0
  0
VERTEX
  5
672
  8
DATA
  6
CONTINUOUS
 62
     7
 10
-321.0530171191653
 20
-271.17412327795978
 30
0.0
  0
VERTEX
  5
673
  8
DATA
  6
CONTINUOUS
 62
     7
 10
-321.03418192218209
 20
-271.24957739709538
 30
0.0
  0
VERTEX
  5
674
  8
DATA
  6
CONTINUOUS
 62
     7
 10
-321.01399888226928
 20
-271.32562151053878
 30
0.0
  0
VERTEX
  5
675
  8
DATA
  6
CONTINUOUS
 62
     7
 10
-320.9924679994262
 20
-271.40225561828998
 30
0.0
  0
VERTEX
  5
676
  8
DATA
  6
CONTINUOUS
 62
     7
 10
-320.96948041231269
 20
-271.47499724710838
 30
0.0
  0
VERTEX
  5
677
  8
DATA
  6
CONTINUOUS
 62
     7
 10
-320.94492725958821
 20
-271.53936392375363
 30
0.0
  0
VERTEX
  5
678
  8
DATA
  6
CONTINUOUS
 62
     7
 10
-320.91880854125247
 20
-271.59535564822568
 30
0.0
  0
VERTEX
  5
679
  8
DATA
  6
CONTINUOUS
 62
     7
 10
-320.89112425730582
 20
-271.64297242052407
 30
0.0
  0
VERTEX
  5
67A
  8
DATA
  6
CONTINUOUS
 62
     7
 10
-320.86187440774768
 20
-271.68221424064978
 30
0.0
  0
VERTEX
  5
67B
  8
DATA
  6
CONTINUOUS
 62
     7
 10
-320.83105899257862
 20
-271.71308110860213
 30
0.0
  0
VERTEX
  5
67C
  8
DATA
  6
CONTINUOUS
 62
     7
 10
-320.79867801179847
 20
-271.7355730243811
 30
0.0
  0
VERTEX
  5
67D
  8
DATA
  6
CONTINUOUS
 62
     7
 10
-320.76473146540718
 20
-271.74968998798698
 30
0.0
  0
VERTEX
  5
67E
  8
DATA
  6
CONTINUOUS
 62
     7
 10
-320.76473146540718
 20
-271.74968998798698
 30
0.0
  0
VERTEX
  5
67F
  8
DATA
  6
CONTINUOUS
 62
     7
 10
-320.75000007413252
 20
-271.74968999999982
 30
0.0
  0
SEQEND
  5
680
  8
DATA
  6
CONTINUOUS
 62
     7
  0
ARC
  5
257
  8
DATA
  6
CONTINUOUS
 62
     7
 10
-254.40000000000001
 20
25.60000000000014
 30
0.0
 40
10.25000000000003
 50
101.251848
 51
109.9660579999999
  0
LINE
  5
258
  8
DATA
  6
CONTINUOUS
 62
     7
 10
-257.90000000000032
 20
35.233924000000002
 30
0.0
 11
-257.90000000000032
 21
36.816616999999837
 31
0.0
  0
LINE
  5
259
  8
DATA
  6
CONTINUOUS
 62
     7
 10
-256.39999999999998
 20
35.142666999999847
 30
0.0
 11
-256.39999999999998
 21
35.652984999999937
 31
0.0
  0
ARC
  5
25A
  8
DATA
  6
CONTINUOUS
 62
     7
 10
-257.65000000000009
 20
39.850000000000129
 30
0.0
 40
2.0
 50
180.0
 51
270.0
  0
LINE
  5
25B
  8
DATA
  6
CONTINUOUS
 62
     7
 10
-259.65000000000009
 20
39.850000000000129
 30
0.0
 11
-259.65000000000009
 21
41.850000000000129
 31
0.0
  0
ARC
  5
25C
  8
DATA
  6
CONTINUOUS
 62
     7
 10
-260.0568540000001
 20
31.256853999999858
 30
0.0
 40
0.500000000000013
 50
43.209215000001443
 51
226.79078499999849
  0
ARC
  5
25D
  8
DATA
  6
CONTINUOUS
 62
     7
 10
-258.65000000000032
 20
25.60000000000014
 30
0.0
 40
1.400000000000047
 50
59.944388000001197
 51
300.0556119999988
  0
LINE
  5
25E
  8
DATA
  6
CONTINUOUS
 62
     7
 10
-263.40000000000032
 20
38.599999999999788
 30
0.0
 11
-263.40000000000032
 21
35.600000000000023
 31
0.0
  0
LINE
  5
25F
  8
DATA
  6
CONTINUOUS
 62
     7
 10
-264.89999999999998
 20
37.100000000000009
 30
0.0
 11
-261.90000000000032
 21
37.100000000000009
 31
0.0
  0
CIRCLE
  5
260
  8
DATA
  6
CONTINUOUS
 62
     7
 10
-263.40000000000032
 20
37.100000000000009
 30
0.0
 40
2.5
  0
LINE
  5
261
  8
DATA
  6
CONTINUOUS
 62
     7
 10
-257.65000000000009
 20
37.850000000000009
 30
0.0
 11
-256.89999999999998
 21
37.850000000000009
 31
0.0
  0
LINE
  5
262
  8
DATA
  6
CONTINUOUS
 62
     7
 10
-256.89999999999998
 20
37.08096299999999
 30
0.0
 11
-256.89999999999998
 21
37.850000000000009
 31
0.0
  0
TEXT
  5
263
  8
DATA
  6
CONTINUOUS
 62
     7
 10
-275.3341400000001
 20
22.190644999999691
 30
0.0
 40
2.0194126562500001
  1
GND
 50
180.0
 41
0.85
 11
-275.3341400000001
 21
20.17123234374969
 31
0.0
 73
     3
  0
TEXT
  5
264
  8
DATA
  6
CONTINUOUS
 62
     7
 10
-290.23249000000033
 20
13.42524600000001
 30
0.0
 40
1.2890625
  1
3
 50
180.0
 41
0.85
 11
-290.23249000000033
 21
12.13618350000001
 31
0.0
 73
     3
  0
TEXT
  5
265
  8
DATA
  6
CONTINUOUS
 62
     7
 10
-288.24420900000013
 20
17.189009999999818
 30
0.0
 40
1.2890625
  1
1
 50
180.0
 41
0.85
 11
-288.24420900000013
 21
15.89994749999982
 31
0.0
 73
     3
  0
TEXT
  5
266
  8
DATA
  6
CONTINUOUS
 62
     7
 10
-292.38816000000043
 20
17.189009999999818
 30
0.0
 40
1.2890625
  1
2
 50
180.0
 41
0.85
 11
-292.38816000000043
 21
15.89994749999982
 31
0.0
 73
     3
  0
LINE
  5
267
  8
DATA
  6
CONTINUOUS
 62
     7
 10
-343.0180000000002
 20
9.3679999999998245
 30
0.0
 11
-338.9820000000002
 21
9.3679999999998245
 31
0.0
  0
TEXT
  5
268
  8
DATA
  6
CONTINUOUS
 62
     7
 10
-300.68878700000027
 20
31.983728000000038
 30
0.0
 40
2.0625
  1
+
 50
180.0
 41
0.85
 11
-300.68878700000027
 21
29.921228000000038
 31
0.0
 73
     3
  0
LINE
  5
269
  8
DATA
  6
CONTINUOUS
 62
     7
 10
-338.9820000000002
 20
35.081999999999987
 30
0.0
 11
-343.0180000000002
 21
35.081999999999987
 31
0.0
  0
LINE
  5
26A
  8
DATA
  6
CONTINUOUS
 62
     7
 10
-295.5954200000001
 20
33.900645000000047
 30
0.0
 11
-294.34526
 21
35.90082500000004
 31
0.0
  0
LINE
  5
26B
  8
DATA
  6
CONTINUOUS
 62
     7
 10
-289.84499000000022
 20
29.900285000000171
 30
0.0
 11
-289.84499000000022
 21
37.400945000000213
 31
0.0
  0
LINE
  5
26C
  8
DATA
  6
CONTINUOUS
 62
     7
 10
-287.5947799999999
 20
40.201135000000008
 30
0.0
 11
-289.5948800000001
 21
40.201135000000008
 31
0.0
  0
LINE
  5
26D
  8
DATA
  6
CONTINUOUS
 62
     7
 10
-298.59566000000012
 20
33.40057500000011
 30
0.0
 11
-299.84582000000051
 21
31.40039500000012
 31
0.0
  0
LINE
  5
26E
  8
DATA
  6
CONTINUOUS
 62
     7
 10
-288.59482999999989
 20
37.400945000000213
 30
0.0
 11
-288.59482999999989
 21
39.201085000000027
 31
0.0
  0
TEXT
  5
26F
  8
DATA
  6
CONTINUOUS
 62
     7
 10
-304.12387300000017
 20
31.983728000000038
 30
0.0
 40
2.0625
  1
TIP
 50
180.0
 41
0.85
 11
-304.12387300000017
 21
29.921228000000038
 31
0.0
 73
     3
  0
TEXT
  5
270
  8
DATA
  6
CONTINUOUS
 62
     7
 10
-304.12387300000017
 20
36.609157999999852
 30
0.0
 40
2.0625
  1
RING
 50
180.0
 41
0.85
 11
-304.12387300000017
 21
34.546657999999859
 31
0.0
 73
     3
  0
TEXT
  5
271
  8
DATA
  6
CONTINUOUS
 62
     7
 10
-304.12387300000017
 20
40.916264999999839
 30
0.0
 40
2.0625
  1
SLEEVE
 50
180.0
 41
0.85
 11
-304.12387300000017
 21
38.853764999999832
 31
0.0
 73
     3
  0
LINE
  5
272
  8
DATA
  6
CONTINUOUS
 62
     7
 10
-304.89983000000001
 20
24.099999999999788
 30
0.0
 11
-309.4001700000004
 21
24.099999999999788
 31
0.0
  0
LINE
  5
273
  8
DATA
  6
CONTINUOUS
 62
     7
 10
-343.0180000000002
 20
41.118000000000173
 30
0.0
 11
-338.9820000000002
 21
41.118000000000173
 31
0.0
  0
TEXT
  5
274
  8
DATA
  6
CONTINUOUS
 62
     7
 10
-291.3316210000001
 20
40.916264999999839
 30
0.0
 40
2.0625
  1
GND
 50
180.0
 41
0.85
 11
-291.3316210000001
 21
38.853764999999832
 31
0.0
 73
     3
  0
TEXT
  5
275
  8
DATA
  6
CONTINUOUS
 62
     7
 10
-297.7992290000002
 20
36.609157999999852
 30
0.0
 40
2.0625
  1
-
 50
180.0
 41
0.85
 11
-297.7992290000002
 21
34.546657999999859
 31
0.0
 73
     3
  0
LINE
  5
276
  8
DATA
  6
CONTINUOUS
 62
     7
 10
-289.84499000000022
 20
37.400945000000213
 30
0.0
 11
-287.34474000000029
 21
37.400945000000213
 31
0.0
  0
LINE
  5
277
  8
DATA
  6
CONTINUOUS
 62
     7
 10
-287.34474000000029
 20
37.400945000000213
 30
0.0
 11
-287.34474000000029
 21
29.900285000000171
 31
0.0
  0
LINE
  5
278
  8
DATA
  6
CONTINUOUS
 62
     7
 10
-287.34474000000029
 20
29.900285000000171
 30
0.0
 11
-289.84499000000022
 21
29.900285000000171
 31
0.0
  0
LINE
  5
279
  8
DATA
  6
CONTINUOUS
 62
     7
 10
-287.09471000000002
 20
39.201085000000027
 30
0.0
 11
-290.09494000000012
 21
39.201085000000027
 31
0.0
  0
LINE
  5
27A
  8
DATA
  6
CONTINUOUS
 62
     7
 10
-289.8449100000002
 20
31.40039500000012
 30
0.0
 11
-297.34556999999978
 21
31.40039500000012
 31
0.0
  0
LINE
  5
27B
  8
DATA
  6
CONTINUOUS
 62
     7
 10
-289.8449100000002
 20
35.90082500000004
 30
0.0
 11
-294.34534000000031
 21
35.90082500000004
 31
0.0
  0
LINE
  5
27C
  8
DATA
  6
CONTINUOUS
 62
     7
 10
-295.5954200000001
 20
33.900645000000047
 30
0.0
 11
-296.84551000000027
 21
35.90082500000004
 31
0.0
  0
LINE
  5
27D
  8
DATA
  6
CONTINUOUS
 62
     7
 10
-298.59566000000012
 20
33.40057500000011
 30
0.0
 11
-297.34556999999978
 21
31.40039500000012
 31
0.0
  0
LINE
  5
27E
  8
DATA
  6
CONTINUOUS
 62
     7
 10
-288.09476000000018
 20
41.201264999999808
 30
0.0
 11
-289.09489000000008
 21
41.201264999999808
 31
0.0
  0
LINE
  5
27F
  8
DATA
  6
CONTINUOUS
 62
     7
 10
-297.88858000000022
 20
14.77715999999986
 30
0.0
 11
-299.88876000000022
 21
14.77715999999986
 31
0.0
  0
LINE
  5
280
  8
DATA
  6
CONTINUOUS
 62
     7
 10
-284.05741
 20
14.77715999999986
 30
0.0
 11
-284.05741
 21
18.277459999999792
 31
0.0
  0
LINE
  5
281
  8
DATA
  6
CONTINUOUS
 62
     7
 10
-293.63826000000012
 20
14.77715999999986
 30
0.0
 11
-297.38851000000028
 21
14.77715999999986
 31
0.0
  0
LINE
  5
282
  8
DATA
  6
CONTINUOUS
 62
     7
 10
-283.55734000000029
 20
20.277640000000009
 30
0.0
 11
-284.5573900000004
 21
20.277640000000009
 31
0.0
  0
LINE
  5
283
  8
DATA
  6
CONTINUOUS
 62
     7
 10
-287.80765000000019
 20
14.77715999999986
 30
0.0
 11
-284.05741
 21
14.77715999999986
 31
0.0
  0
LINE
  5
284
  8
DATA
  6
CONTINUOUS
 62
     7
 10
-298.88863000000032
 20
15.777289999999651
 30
0.0
 11
-298.88863000000032
 21
13.777029999999851
 31
0.0
  0
CIRCLE
  5
285
  8
DATA
  6
CONTINUOUS
 62
     7
 10
-288.5577500000004
 20
14.77715999999986
 30
0.0
 40
0.7500999999999749
  0
CIRCLE
  5
286
  8
DATA
  6
CONTINUOUS
 62
     7
 10
-292.8881600000002
 20
14.77715999999986
 30
0.0
 40
0.7500999999999749
  0
LINE
  5
287
  8
DATA
  6
CONTINUOUS
 62
     7
 10
-307.14996000000008
 20
26.350209999999841
 30
0.0
 11
-307.14996000000008
 21
21.84978000000012
 31
0.0
  0
CIRCLE
  5
288
  8
DATA
  6
CONTINUOUS
 62
     7
 10
-307.14996000000008
 20
24.099999999999788
 30
0.0
 40
3.5003000000001521
  0
CIRCLE
  5
289
  8
DATA
  6
CONTINUOUS
 62
     7
 10
-290.72292000000022
 20
11.026830000000009
 30
0.0
 40
0.7500999999999749
  0
CIRCLE
  5
28A
  8
DATA
  6
CONTINUOUS
 62
     7
 10
-298.88863000000032
 20
14.77715999999986
 30
0.0
 40
1.5001200000001511
  0
ARC
  5
28B
  8
DATA
  6
CONTINUOUS
 62
     7
 10
-338.9820000000002
 20
38.100000000000009
 30
0.0
 40
3.0180000000000282
 50
270.0
 51
90.0
  0
ARC
  5
28C
  8
DATA
  6
CONTINUOUS
 62
     7
 10
-343.0180000000002
 20
38.100000000000009
 30
0.0
 40
3.0180000000000282
 50
90.0
 51
270.0
  0
CIRCLE
  5
28D
  8
DATA
  6
CONTINUOUS
 62
     7
 10
-290.64999999999998
 20
13.59999999999979
 30
0.0
 40
5.2504499999999998
  0
LINE
  5
28E
  8
DATA
  6
CONTINUOUS
 62
     7
 10
-282.55729000000008
 20
18.277459999999792
 30
0.0
 11
-285.5575200000003
 21
18.277459999999792
 31
0.0
  0
LINE
  5
28F
  8
DATA
  6
CONTINUOUS
 62
     7
 10
-283.05728000000022
 20
19.277509999999999
 30
0.0
 11
-285.05746000000028
 21
19.277509999999999
 31
0.0
  0
TEXT
  5
290
  8
DATA
  6
CONTINUOUS
 62
     7
 10
-276.53012100000029
 20
28.110945000000012
 30
0.0
 40
2.0625
  1
PHONE WIRING
 50
180.0
 41
0.85
 11
-276.53012100000029
 21
26.048445000000001
 31
0.0
 73
     3
  0
LINE
  5
291
  8
DATA
  6
CONTINUOUS
 62
     7
 10
-290.72292000000022
 20
3.5262500000000041
 30
0.0
 11
-290.98342000000002
 21
3.54903999999999
 31
0.0
  0
LINE
  5
292
  8
DATA
  6
CONTINUOUS
 62
     7
 10
-290.72292000000022
 20
6.5264899999998516
 30
0.0
 11
-290.46243000000021
 21
6.5036999999999798
 31
0.0
  0
LINE
  5
293
  8
DATA
  6
CONTINUOUS
 62
     7
 10
-291.68717000000009
 20
3.8772099999999909
 30
0.0
 11
-291.87209000000001
 21
4.0621200000001627
 31
0.0
  0
LINE
  5
294
  8
DATA
  6
CONTINUOUS
 62
     7
 10
-290.20985000000007
 20
3.616720000000099
 30
0.0
 11
-290.46243000000021
 21
3.549049999999851
 31
0.0
  0
LINE
  5
295
  8
DATA
  6
CONTINUOUS
 62
     7
 10
-291.47298000000029
 20
3.7272299999998491
 30
0.0
 11
-291.68717000000009
 21
3.8772099999999909
 31
0.0
  0
LINE
  5
296
  8
DATA
  6
CONTINUOUS
 62
     7
 10
-291.23599000000007
 20
3.616720000000099
 30
0.0
 11
-291.47298000000029
 21
3.7272299999998491
 31
0.0
  0
LINE
  5
297
  8
DATA
  6
CONTINUOUS
 62
     7
 10
-290.98341000000022
 20
6.5036999999999798
 30
0.0
 11
-290.72292000000022
 21
6.5264899999998516
 31
0.0
  0
LINE
  5
298
  8
DATA
  6
CONTINUOUS
 62
     7
 10
-292.13257000000021
 20
4.5132999999998438
 30
0.0
 11
-292.2002500000001
 21
4.7658699999998362
 31
0.0
  0
LINE
  5
299
  8
DATA
  6
CONTINUOUS
 62
     7
 10
-290.46243000000021
 20
3.549049999999851
 30
0.0
 11
-290.72292000000022
 21
3.5262500000000041
 31
0.0
  0
LINE
  5
29A
  8
DATA
  6
CONTINUOUS
 62
     7
 10
-289.42378000000002
 20
5.7764300000001194
 30
0.0
 11
-289.3132700000001
 21
5.5394500000001008
 31
0.0
  0
LINE
  5
29B
  8
DATA
  6
CONTINUOUS
 62
     7
 10
-289.97286000000031
 20
3.7272299999998491
 30
0.0
 11
-290.20985000000007
 21
3.616720000000099
 31
0.0
  0
ARC
  5
29C
  8
DATA
  6
CONTINUOUS
 62
     7
 10
-317.25000000000023
 20
2.0
 30
0.0
 40
0.400000000000091
 50
180.0
 51
270.0
  0
LINE
  5
29D
  8
DATA
  6
CONTINUOUS
 62
     7
 10
-289.57376000000028
 20
5.9906300000001229
 30
0.0
 11
-289.42378000000002
 21
5.7764300000001194
 31
0.0
  0
LINE
  5
29E
  8
DATA
  6
CONTINUOUS
 62
     7
 10
-289.72287
 20
5.0263700000001563
 30
0.0
 11
-291.72305
 21
5.0263700000001563
 31
0.0
  0
LINE
  5
29F
  8
DATA
  6
CONTINUOUS
 62
     7
 10
-289.24559000000028
 20
4.7658699999998362
 30
0.0
 11
-289.3132700000001
 21
4.5132999999998438
 31
0.0
  0
LINE
  5
2A0
  8
DATA
  6
CONTINUOUS
 62
     7
 10
-338.9820000000002
 20
3.3319999999999932
 30
0.0
 11
-343.0180000000002
 21
3.3319999999999932
 31
0.0
  0
LINE
  5
2A1
  8
DATA
  6
CONTINUOUS
 62
     7
 10
-291.6871800000003
 20
6.175529999999867
 30
0.0
 11
-291.4729900000001
 21
6.3255100000001212
 31
0.0
  0
LINE
  5
2A2
  8
DATA
  6
CONTINUOUS
 62
     7
 10
-291.87207999999998
 20
5.9906300000001229
 30
0.0
 11
-291.6871800000003
 21
6.175529999999867
 31
0.0
  0
LINE
  5
2A3
  8
DATA
  6
CONTINUOUS
 62
     7
 10
-289.22280000000018
 20
5.0263599999998396
 30
0.0
 11
-289.24559000000028
 21
4.7658699999998362
 31
0.0
  0
LINE
  5
2A4
  8
DATA
  6
CONTINUOUS
 62
     7
 10
-289.24559000000028
 20
5.286849999999844
 30
0.0
 11
-289.22280000000018
 21
5.0263599999998396
 31
0.0
  0
LINE
  5
2A5
  8
DATA
  6
CONTINUOUS
 62
     7
 10
-289.42377000000039
 20
4.2763199999998269
 30
0.0
 11
-289.57375000000019
 21
4.0621200000001627
 31
0.0
  0
LINE
  5
2A6
  8
DATA
  6
CONTINUOUS
 62
     7
 10
-289.3132700000001
 20
4.5132999999998438
 30
0.0
 11
-289.42377000000039
 21
4.2763199999998269
 31
0.0
  0
LINE
  5
2A7
  8
DATA
  6
CONTINUOUS
 62
     7
 10
-289.3132700000001
 20
5.5394500000001008
 30
0.0
 11
-289.24559000000028
 21
5.286849999999844
 31
0.0
  0
LINE
  5
2A8
  8
DATA
  6
CONTINUOUS
 62
     7
 10
-289.75867000000011
 20
3.8772099999999909
 30
0.0
 11
-289.97286000000031
 21
3.7272299999998491
 31
0.0
  0
LINE
  5
2A9
  8
DATA
  6
CONTINUOUS
 62
     7
 10
-290.46243000000021
 20
6.5036999999999798
 30
0.0
 11
-290.20985999999988
 21
6.436019999999985
 31
0.0
  0
LINE
  5
2AA
  8
DATA
  6
CONTINUOUS
 62
     7
 10
-290.98342000000002
 20
3.54903999999999
 30
0.0
 11
-291.23599000000007
 21
3.616720000000099
 31
0.0
  0
LINE
  5
2AB
  8
DATA
  6
CONTINUOUS
 62
     7
 10
-289.97285000000039
 20
6.3255100000001212
 30
0.0
 11
-289.75866000000019
 21
6.175529999999867
 31
0.0
  0
LINE
  5
2AC
  8
DATA
  6
CONTINUOUS
 62
     7
 10
-291.23597999999998
 20
6.436019999999985
 30
0.0
 11
-290.98341000000022
 21
6.5036999999999798
 31
0.0
  0
LINE
  5
2AD
  8
DATA
  6
CONTINUOUS
 62
     7
 10
-291.4729900000001
 20
6.3255100000001212
 30
0.0
 11
-291.23597999999998
 21
6.436019999999985
 31
0.0
  0
LINE
  5
2AE
  8
DATA
  6
CONTINUOUS
 62
     7
 10
-292.02207000000038
 20
4.2763199999998269
 30
0.0
 11
-292.13257000000021
 21
4.5132999999998438
 31
0.0
  0
LINE
  5
2AF
  8
DATA
  6
CONTINUOUS
 62
     7
 10
-291.87209000000001
 20
4.0621200000001627
 30
0.0
 11
-292.02207000000038
 21
4.2763199999998269
 31
0.0
  0
LINE
  5
2B0
  8
DATA
  6
CONTINUOUS
 62
     7
 10
-292.02206000000029
 20
5.7764300000001194
 30
0.0
 11
-291.87207999999998
 21
5.9906300000001229
 31
0.0
  0
LINE
  5
2B1
  8
DATA
  6
CONTINUOUS
 62
     7
 10
-292.13257000000021
 20
5.5394500000001008
 30
0.0
 11
-292.02206000000029
 21
5.7764300000001194
 31
0.0
  0
LINE
  5
2B2
  8
DATA
  6
CONTINUOUS
 62
     7
 10
-292.2002500000001
 20
5.286849999999844
 30
0.0
 11
-292.13257000000021
 21
5.5394500000001008
 31
0.0
  0
LINE
  5
2B3
  8
DATA
  6
CONTINUOUS
 62
     7
 10
-292.2002500000001
 20
4.7658699999998362
 30
0.0
 11
-292.22304000000008
 21
5.0263599999998396
 31
0.0
  0
LINE
  5
2B4
  8
DATA
  6
CONTINUOUS
 62
     7
 10
-289.57375000000019
 20
4.0621200000001627
 30
0.0
 11
-289.75867000000011
 21
3.8772099999999909
 31
0.0
  0
LINE
  5
2B5
  8
DATA
  6
CONTINUOUS
 62
     7
 10
-292.22304000000008
 20
5.0263599999998396
 30
0.0
 11
-292.2002500000001
 21
5.286849999999844
 31
0.0
  0
LINE
  5
2B6
  8
DATA
  6
CONTINUOUS
 62
     7
 10
-289.75866000000019
 20
6.175529999999867
 30
0.0
 11
-289.57376000000028
 21
5.9906300000001229
 31
0.0
  0
LINE
  5
2B7
  8
DATA
  6
CONTINUOUS
 62
     7
 10
-290.20985999999988
 20
6.436019999999985
 30
0.0
 11
-289.97285000000039
 21
6.3255100000001212
 31
0.0
  0
ARC
  5
2B8
  8
DATA
  6
CONTINUOUS
 62
     7
 10
-317.25000000000023
 20
2.0
 30
0.0
 40
2.0
 50
180.0
 51
270.0
  0
TEXT
  5
2B9
  8
DATA
  6
CONTINUOUS
 62
     7
 10
-271.58557500000018
 20
8.3715160000001561
 30
0.0
 40
2.0625
  1
XLR WIRING
 50
180.0
 41
0.85
 11
-271.58557500000018
 21
6.3090160000001561
 31
0.0
 73
     3
  0
LINE
  5
2BA
  8
DATA
  6
CONTINUOUS
 62
     7
 10
-290.72292000000022
 20
10.27673000000015
 30
0.0
 11
-290.72292000000022
 21
6.5264899999998516
 31
0.0
  0
LINE
  5
2BB
  8
DATA
  6
CONTINUOUS
 62
     7
 10
-319.25000000000028
 20
2.0
 30
0.0
 11
-319.25000000000028
 21
44.503729999999791
 31
0.0
  0
LINE
  5
2BC
  8
DATA
  6
CONTINUOUS
 62
     7
 10
-321.50000000000023
 20
0.0
 30
0.0
 11
-321.50000000000023
 21
44.503729999999791
 31
0.0
  0
LINE
  5
2BD
  8
DATA
  6
CONTINUOUS
 62
     7
 10
-317.65000000000032
 20
2.0
 30
0.0
 11
-317.65000000000032
 21
44.503729999999791
 31
0.0
  0
LINE
  5
2BE
  8
DATA
  6
CONTINUOUS
 62
     7
 10
-350.0
 20
44.449999999999811
 30
0.0
 11
-350.0
 21
0.0
 31
0.0
  0
ARC
  5
2BF
  8
DATA
  6
CONTINUOUS
 62
     7
 10
-338.9820000000002
 20
6.3500000000000227
 30
0.0
 40
3.0180000000000282
 50
270.0
 51
90.0
  0
ARC
  5
2C0
  8
DATA
  6
CONTINUOUS
 62
     7
 10
-343.0180000000002
 20
6.3500000000000227
 30
0.0
 40
3.0180000000000282
 50
90.0
 51
270.0
  0
LINE
  5
2C1
  8
DATA
  6
CONTINUOUS
 62
     7
 10
-191.5000000000002
 20
-493.05000000000001
 30
0.0
 11
-210.49999999999989
 21
-493.05000000000001
 31
0.0
  0
LINE
  5
2C2
  8
DATA
  6
CONTINUOUS
 62
     7
 10
-203.0000000000004
 20
-488.05000000000001
 30
0.0
 11
-213.0
 21
-488.05000000000001
 31
0.0
  0
LINE
  5
2C3
  8
DATA
  6
CONTINUOUS
 62
     7
 10
-246.5000000000002
 20
-481.55000000000013
 30
0.0
 11
-246.5000000000002
 21
-493.05000000000001
 31
0.0
  0
LINE
  5
2C4
  8
DATA
  6
CONTINUOUS
 62
     7
 10
-235.0
 20
-481.55000000000013
 30
0.0
 11
-235.0
 21
-488.05000000000001
 31
0.0
  0
LINE
  5
2C5
  8
DATA
  6
CONTINUOUS
 62
     7
 10
-246.5000000000002
 20
-493.05000000000001
 30
0.0
 11
-227.49999999999989
 21
-493.05000000000001
 31
0.0
  0
LINE
  5
2C6
  8
DATA
  6
CONTINUOUS
 62
     7
 10
-235.0
 20
-488.05000000000001
 30
0.0
 11
-225.0
 21
-488.05000000000001
 31
0.0
  0
CIRCLE
  5
2C7
  8
DATA
  6
CONTINUOUS
 62
     7
 10
-246.5000000000002
 20
-477.55000000000001
 30
0.0
 40
4.0
  0
CIRCLE
  5
2C8
  8
DATA
  6
CONTINUOUS
 62
     7
 10
-246.5000000000002
 20
-477.55000000000001
 30
0.0
 40
2.5
  0
CIRCLE
  5
2C9
  8
DATA
  6
CONTINUOUS
 62
     7
 10
-235.0
 20
-477.55000000000001
 30
0.0
 40
4.0
  0
CIRCLE
  5
2CA
  8
DATA
  6
CONTINUOUS
 62
     7
 10
-235.0
 20
-477.55000000000001
 30
0.0
 40
2.5
  0
CIRCLE
  5
2CB
  8
DATA
  6
CONTINUOUS
 62
     7
 10
-171.5000000000002
 20
-478.05000000000001
 30
0.0
 40
9.5
  0
LINE
  5
2CC
  8
DATA
  6
CONTINUOUS
 62
     7
 10
-176.2500000000002
 20
-486.27724099999989
 30
0.0
 11
-171.5000000000002
 21
-478.05000000000001
 31
0.0
  0
LINE
  5
2CD
  8
DATA
  6
CONTINUOUS
 62
     7
 10
-170.91213800000011
 20
-487.53179399999999
 30
0.0
 11
-162.99459500000009
 21
-473.8182059999998
 31
0.0
  0
LINE
  5
2CE
  8
DATA
  6
CONTINUOUS
 62
     7
 10
-191.5000000000002
 20
-481.55000000000013
 30
0.0
 11
-191.5000000000002
 21
-493.05000000000001
 31
0.0
  0
LINE
  5
2CF
  8
DATA
  6
CONTINUOUS
 62
     7
 10
-163.27275900000041
 20
-482.80000000000001
 30
0.0
 11
-159.8086570000003
 21
-484.7999999999999
 31
0.0
  0
LINE
  5
2D0
  8
DATA
  6
CONTINUOUS
 62
     7
 10
-179.72724099999999
 20
-482.80000000000001
 30
0.0
 11
-183.1913430000001
 21
-484.7999999999999
 31
0.0
  0
LINE
  5
2D1
  8
DATA
  6
CONTINUOUS
 62
     7
 10
-203.0000000000004
 20
-481.55000000000013
 30
0.0
 11
-203.0000000000004
 21
-488.05000000000001
 31
0.0
  0
LINE
  5
2D2
  8
DATA
  6
CONTINUOUS
 62
     7
 10
-178.77742200000031
 20
-484.1564820000001
 30
0.0
 11
-181.84160000000011
 21
-486.72763300000003
 31
0.0
  0
LINE
  5
2D3
  8
DATA
  6
CONTINUOUS
 62
     7
 10
-176.2500000000002
 20
-486.27724099999989
 30
0.0
 11
-178.2500000000002
 21
-489.74134299999992
 31
0.0
  0
LINE
  5
2D4
  8
DATA
  6
CONTINUOUS
 62
     7
 10
-164.22257800000011
 20
-484.1564820000001
 30
0.0
 11
-161.1584
 21
-486.72763300000003
 31
0.0
  0
LINE
  5
2D5
  8
DATA
  6
CONTINUOUS
 62
     7
 10
-177.60648200000011
 20
-485.32742200000013
 30
0.0
 11
-180.17763300000021
 21
-488.39159999999993
 31
0.0
  0
LINE
  5
2D6
  8
DATA
  6
CONTINUOUS
 62
     7
 10
-165.393518
 20
-485.32742200000013
 30
0.0
 11
-162.8223670000001
 21
-488.39159999999993
 31
0.0
  0
LINE
  5
2D7
  8
DATA
  6
CONTINUOUS
 62
     7
 10
-166.74999999999989
 20
-486.27724099999989
 30
0.0
 11
-164.7500000000002
 21
-489.74134299999992
 31
0.0
  0
LINE
  5
2D8
  8
DATA
  6
CONTINUOUS
 62
     7
 10
-173.14965800000019
 20
-468.6943260000001
 30
0.0
 11
-173.84424999999999
 21
-464.75509499999998
 31
0.0
  0
LINE
  5
2D9
  8
DATA
  6
CONTINUOUS
 62
     7
 10
-171.5000000000002
 20
-468.55000000000001
 30
0.0
 11
-171.5000000000002
 21
-464.55000000000013
 31
0.0
  0
LINE
  5
2DA
  8
DATA
  6
CONTINUOUS
 62
     7
 10
-180.00540500000031
 20
-482.28179399999999
 30
0.0
 11
-172.08786099999989
 21
-468.56820599999992
 31
0.0
  0
LINE
  5
2DB
  8
DATA
  6
CONTINUOUS
 62
     7
 10
-179.72724099999999
 20
-473.30000000000001
 30
0.0
 11
-183.1913430000001
 21
-471.30000000000001
 31
0.0
  0
CIRCLE
  5
2DC
  8
DATA
  6
CONTINUOUS
 62
     7
 10
-203.0000000000004
 20
-477.55000000000001
 30
0.0
 40
4.0
  0
LINE
  5
2DD
  8
DATA
  6
CONTINUOUS
 62
     7
 10
-162.5729200000001
 20
-481.29919100000001
 30
0.0
 11
-158.8141500000001
 21
-482.66727200000008
 31
0.0
  0
LINE
  5
2DE
  8
DATA
  6
CONTINUOUS
 62
     7
 10
-162.14432600000009
 20
-479.699658
 30
0.0
 11
-158.205095
 21
-480.39425
 31
0.0
  0
CIRCLE
  5
2DF
  8
DATA
  6
CONTINUOUS
 62
     7
 10
-191.5000000000002
 20
-477.55000000000001
 30
0.0
 40
2.5
  0
LINE
  5
2E0
  8
DATA
  6
CONTINUOUS
 62
     7
 10
-169.8503420000001
 20
-468.6943260000001
 30
0.0
 11
-169.1557500000003
 21
-464.75509499999998
 31
0.0
  0
LINE
  5
2E1
  8
DATA
  6
CONTINUOUS
 62
     7
 10
-162.5729200000001
 20
-474.80080900000002
 30
0.0
 11
-158.8141500000001
 21
-473.432728
 31
0.0
  0
LINE
  5
2E2
  8
DATA
  6
CONTINUOUS
 62
     7
 10
-163.27275900000041
 20
-473.30000000000001
 30
0.0
 11
-159.8086570000003
 21
-471.30000000000001
 31
0.0
  0
LINE
  5
2E3
  8
DATA
  6
CONTINUOUS
 62
     7
 10
-181.0
 20
-478.05000000000001
 30
0.0
 11
-185.0
 21
-478.05000000000001
 31
0.0
  0
CIRCLE
  5
2E4
  8
DATA
  6
CONTINUOUS
 62
     7
 10
-191.5000000000002
 20
-477.55000000000001
 30
0.0
 40
4.0
  0
LINE
  5
2E5
  8
DATA
  6
CONTINUOUS
 62
     7
 10
-178.77742200000031
 20
-471.94351799999993
 30
0.0
 11
-181.84160000000011
 21
-469.37236700000011
 31
0.0
  0
LINE
  5
2E6
  8
DATA
  6
CONTINUOUS
 62
     7
 10
-177.60648200000011
 20
-470.77257800000001
 30
0.0
 11
-180.17763300000021
 21
-467.70839999999993
 31
0.0
  0
LINE
  5
2E7
  8
DATA
  6
CONTINUOUS
 62
     7
 10
-176.2500000000002
 20
-469.82275900000002
 30
0.0
 11
-178.2500000000002
 21
-466.35865699999988
 31
0.0
  0
LINE
  5
2E8
  8
DATA
  6
CONTINUOUS
 62
     7
 10
-174.749191
 20
-469.12292000000002
 30
0.0
 11
-176.1172720000001
 21
-465.36414999999988
 31
0.0
  0
LINE
  5
2E9
  8
DATA
  6
CONTINUOUS
 62
     7
 10
-164.22257800000011
 20
-471.94351799999993
 30
0.0
 11
-161.1584
 21
-469.37236700000011
 31
0.0
  0
LINE
  5
2EA
  8
DATA
  6
CONTINUOUS
 62
     7
 10
-165.393518
 20
-470.77257800000001
 30
0.0
 11
-162.8223670000001
 21
-467.70839999999993
 31
0.0
  0
LINE
  5
2EB
  8
DATA
  6
CONTINUOUS
 62
     7
 10
-166.74999999999989
 20
-469.82275900000002
 30
0.0
 11
-164.7500000000002
 21
-466.35865699999988
 31
0.0
  0
LINE
  5
2EC
  8
DATA
  6
CONTINUOUS
 62
     7
 10
-180.85567400000011
 20
-476.4003419999998
 30
0.0
 11
-184.7949050000002
 21
-475.70575000000008
 31
0.0
  0
LINE
  5
2ED
  8
DATA
  6
CONTINUOUS
 62
     7
 10
-180.4270800000001
 20
-474.80080900000002
 30
0.0
 11
-184.18585000000019
 21
-473.432728
 31
0.0
  0
LINE
  5
2EE
  8
DATA
  6
CONTINUOUS
 62
     7
 10
-168.25080900000009
 20
-469.12292000000002
 30
0.0
 11
-166.88272799999999
 21
-465.36414999999988
 31
0.0
  0
LINE
  5
2EF
  8
DATA
  6
CONTINUOUS
 62
     7
 10
-180.4270800000001
 20
-481.29919100000001
 30
0.0
 11
-184.18585000000019
 21
-482.66727200000008
 31
0.0
  0
LINE
  5
2F0
  8
DATA
  6
CONTINUOUS
 62
     7
 10
-180.85567400000011
 20
-479.699658
 30
0.0
 11
-184.7949050000002
 21
-480.39425
 31
0.0
  0
LINE
  5
2F1
  8
DATA
  6
CONTINUOUS
 62
     7
 10
-162.0
 20
-478.05000000000001
 30
0.0
 11
-158.0000000000002
 21
-478.05000000000001
 31
0.0
  0
LINE
  5
2F2
  8
DATA
  6
CONTINUOUS
 62
     7
 10
-162.14432600000009
 20
-476.4003419999998
 30
0.0
 11
-158.205095
 21
-475.70575000000008
 31
0.0
  0
CIRCLE
  5
2F3
  8
DATA
  6
CONTINUOUS
 62
     7
 10
-203.0000000000004
 20
-477.55000000000001
 30
0.0
 40
2.5
  0
TEXT
  5
2F4
  8
DATA
  6
CONTINUOUS
 62
     7
 10
-250.2976120000003
 20
-465.76158200000009
 30
0.0
 40
2.578125
  1
CHANNEL 1
 41
0.85
 11
-250.2976120000003
 21
-463.18345700000009
 31
0.0
 73
     3
  0
TEXT
  5
2F5
  8
DATA
  6
CONTINUOUS
 62
     7
 10
-206.75191200000009
 20
-465.76158200000009
 30
0.0
 40
2.578125
  1
CHANNEL 2
 41
0.85
 11
-206.75191200000009
 21
-463.18345700000009
 31
0.0
 73
     3
  0
TEXT
  5
2F6
  8
DATA
  6
CONTINUOUS
 62
     7
 10
-225.5934410000001
 20
-494.17500000000001
 30
0.0
 40
2.8359375
  1
SIGNAL
 41
0.85
 11
-225.5934410000001
 21
-491.33906250000001
 31
0.0
 73
     3
  0
TEXT
  5
2F7
  8
DATA
  6
CONTINUOUS
 62
     7
 10
-221.6635500000001
 20
-489.31123499999978
 30
0.0
 40
2.8359375
  1
IOC
 41
0.85
 11
-221.6635500000001
 21
-486.47529749999978
 31
0.0
 73
     3
  0
TEXT
  5
2F8
  8
DATA
  6
CONTINUOUS
 62
     7
 10
-252.9911900000001
 20
-481.540325
 30
0.0
 40
1.71875
  1
10
 41
0.85
 11
-252.9911900000001
 21
-479.82157499999988
 31
0.0
 73
     3
  0
TEXT
  5
2F9
  8
DATA
  6
CONTINUOUS
 62
     7
 10
-172.75
 20
-462.97364700000003
 30
0.0
 40
1.71875
  1
30
 41
0.85
 11
-172.75
 21
-461.25489700000003
 31
0.0
 73
     3
  0
TEXT
  5
2FA
  8
DATA
  6
CONTINUOUS
 62
     7
 10
-180.08381500000019
 20
-492.15705500000013
 30
0.0
 40
1.71875
  1
ｰ
 41
0.85
 11
-180.08381500000019
 21
-490.43830500000001
 31
0.0
 73
     3
  0
TEXT
  5
2FB
  8
DATA
  6
CONTINUOUS
 62
     7
 10
-164.79560500000019
 20
-492.37251999999989
 30
0.0
 40
1.71875
  1
0
 41
0.85
 11
-164.79560500000019
 21
-490.65377000000001
 31
0.0
 73
     3
  0
TEXT
  5
2FC
  8
DATA
  6
CONTINUOUS
 62
     7
 10
-177.43561
 20
-494.96695199999988
 30
0.0
 40
2.8359375
  1
LEVEL
 41
0.85
 11
-177.43561
 21
-492.13101449999988
 31
0.0
 73
     3
  0
TEXT
  5
2FD
  8
DATA
  6
CONTINUOUS
 62
     7
 10
-185.20446100000001
 20
-468.67622299999999
 30
0.0
 40
1.71875
  1
40
 41
0.85
 11
-185.20446100000001
 21
-466.95747299999988
 31
0.0
 73
     3
  0
TEXT
  5
2FE
  8
DATA
  6
CONTINUOUS
 62
     7
 10
-188.00881000000001
 20
-481.540325
 30
0.0
 40
1.71875
  1
50
 41
0.85
 11
-188.00881000000001
 21
-479.82157499999988
 31
0.0
 73
     3
  0
TEXT
  5
2FF
  8
DATA
  6
CONTINUOUS
 62
     7
 10
-160.7955390000001
 20
-468.67622299999999
 30
0.0
 40
1.71875
  1
20
 41
0.85
 11
-160.7955390000001
 21
-466.95747299999988
 31
0.0
 73
     3
  0
TEXT
  5
300
  8
DATA
  6
CONTINUOUS
 62
     7
 10
-157.4911899999999
 20
-481.540325
 30
0.0
 40
1.71875
  1
10
 41
0.85
 11
-157.4911899999999
 21
-479.82157499999988
 31
0.0
 73
     3
  0
LINE
  5
301
  8
DATA
  6
CONTINUOUS
 62
     7
 10
132.99999999999949
 20
-455.55000000000001
 30
0.0
 11
132.99999999999949
 21
-500.0
 31
0.0
  0
LINE
  5
302
  8
DATA
  6
CONTINUOUS
 62
     7
 10
101.5450399999999
 20
-455.55000000000001
 30
0.0
 11
101.5450399999999
 21
-500.00221500000009
 31
0.0
  0
TEXT
  5
303
  8
DATA
  6
CONTINUOUS
 62
     7
 10
38.938162999999328
 20
-465.54194699999999
 30
0.0
 40
3.09375
  1
OFF
 41
0.85
 11
38.938162999999328
 21
-462.44819699999988
 31
0.0
 73
     3
  0
CIRCLE
  5
304
  8
DATA
  6
CONTINUOUS
 62
     7
 10
49.999999999999758
 20
-478.05000000000001
 30
0.0
 40
9.5
  0
LINE
  5
305
  8
DATA
  6
CONTINUOUS
 62
     7
 10
126.0179999999995
 20
-464.91800000000001
 30
0.0
 11
121.9819999999995
 21
-464.91800000000001
 31
0.0
  0
ARC
  5
306
  8
DATA
  6
CONTINUOUS
 62
     7
 10
121.9819999999995
 20
-461.89999999999981
 30
0.0
 40
3.017999999999915
 50
90.0
 51
270.0
  0
LINE
  5
307
  8
DATA
  6
CONTINUOUS
 62
     7
 10
121.9819999999995
 20
-458.88200000000012
 30
0.0
 11
126.0179999999995
 21
-458.88200000000012
 31
0.0
  0
ARC
  5
308
  8
DATA
  6
CONTINUOUS
 62
     7
 10
126.0179999999995
 20
-461.89999999999981
 30
0.0
 40
3.0180000000000282
 50
270.0
 51
90.0
  0
ARC
  5
309
  8
DATA
  6
CONTINUOUS
 62
     7
 10
126.0179999999995
 20
-493.65000000000009
 30
0.0
 40
3.017999999999915
 50
270.0
 51
90.0
  0
ARC
  5
30A
  8
DATA
  6
CONTINUOUS
 62
     7
 10
121.9819999999995
 20
-493.65000000000009
 30
0.0
 40
3.0180000000000282
 50
90.0
 51
270.0
  0
LINE
  5
30B
  8
DATA
  6
CONTINUOUS
 62
     7
 10
121.9819999999995
 20
-490.63200000000001
 30
0.0
 11
126.0179999999995
 21
-490.63200000000001
 31
0.0
  0
LINE
  5
30C
  8
DATA
  6
CONTINUOUS
 62
     7
 10
51.820454999999569
 20
-468.72605499999992
 30
0.0
 11
57.88028000000007
 21
-483.35576900000001
 31
0.0
  0
TEXT
  5
30D
  8
DATA
  6
CONTINUOUS
 62
     7
 10
54.127357999999717
 20
-465.54194699999999
 30
0.0
 40
3.09375
  1
ON
 41
0.85
 11
54.127357999999717
 21
-462.44819699999988
 31
0.0
 73
     3
  0
TEXT
  5
30E
  8
DATA
  6
CONTINUOUS
 62
     7
 10
43.499999999999751
 20
-493.04820699999988
 30
0.0
 40
3.09375
  1
POWER
 41
0.85
 11
43.499999999999751
 21
-489.95445699999988
 31
0.0
 73
     3
  0
LINE
  5
30F
  8
DATA
  6
CONTINUOUS
 62
     7
 10
46.364506999999762
 20
-469.27314400000012
 30
0.0
 11
49.999999999999758
 21
-478.05000000000001
 31
0.0
  0
LINE
  5
310
  8
DATA
  6
CONTINUOUS
 62
     7
 10
42.119719999999447
 20
-472.74423100000001
 30
0.0
 11
48.179544999999933
 21
-487.37394499999999
 31
0.0
  0
LINE
  5
311
  8
DATA
  6
CONTINUOUS
 62
     7
 10
126.0179999999995
 20
-496.66800000000001
 30
0.0
 11
121.9819999999995
 21
-496.66800000000001
 31
0.0
  0
LINE
  5
312
  8
DATA
  6
CONTINUOUS
 62
     7
 10
-63.650000000000098
 20
34.600000000000129
 30
0.0
 11
-45.650000000000112
 21
34.600000000000129
 31
0.0
  0
LINE
  5
313
  8
DATA
  6
CONTINUOUS
 62
     7
 10
-56.000000000000021
 20
16.75
 30
0.0
 11
-63.000000000000242
 21
16.75
 31
0.0
  0
TEXT
  5
314
  8
DATA
  6
CONTINUOUS
 62
     7
 10
-58.500000000000242
 20
22.337500000000201
 30
0.0
 40
3.8671875
  1
+
 50
180.0
 41
0.85
 11
-58.500000000000242
 21
18.470312500000201
 31
0.0
 73
     3
  0
LINE
  5
315
  8
DATA
  6
CONTINUOUS
 62
     7
 10
-55.250000000000021
 20
18.39999999999997
 30
0.0
 11
-63.750000000000242
 21
18.39999999999997
 31
0.0
  0
LINE
  5
316
  8
DATA
  6
CONTINUOUS
 62
     7
 10
-61.500000000000021
 20
12.5
 30
0.0
 11
-57.500000000000021
 21
12.5
 31
0.0
  0
CIRCLE
  5
317
  8
DATA
  6
CONTINUOUS
 62
     7
 10
-59.500000000000021
 20
12.5
 30
0.0
 40
3.5
  0
LINE
  5
318
  8
DATA
  6
CONTINUOUS
 62
     7
 10
-63.750000000000242
 20
6.6000000000001364
 30
0.0
 11
-55.250000000000021
 21
6.6000000000001364
 31
0.0
  0
LINE
  5
319
  8
DATA
  6
CONTINUOUS
 62
     7
 10
-63.000000000000242
 20
8.2500000000001137
 30
0.0
 11
-56.000000000000021
 21
8.2500000000001137
 31
0.0
  0
CIRCLE
  5
31A
  8
DATA
  6
CONTINUOUS
 62
     7
 10
-167.54122800000019
 20
-308.25
 30
0.0
 40
1.75
  0
LINE
  5
31B
  8
DATA
  6
CONTINUOUS
 62
     7
 10
-177.31457
 20
-300.0
 30
0.0
 11
-172.08786099999989
 21
-304.0
 31
0.0
  0
LINE
  5
31C
  8
DATA
  6
CONTINUOUS
 62
     7
 10
-180.00540500000031
 20
-304.0
 30
0.0
 11
-172.08786099999989
 21
-304.0
 31
0.0
  0
LINE
  5
31D
  8
DATA
  6
CONTINUOUS
 62
     7
 10
-162.0
 20
-300.0
 30
0.0
 11
-162.99459500000009
 21
-304.0
 31
0.0
  0
LINE
  5
31E
  8
DATA
  6
CONTINUOUS
 62
     7
 10
-181.0
 20
-300.0
 30
0.0
 11
-180.00540500000031
 21
-304.0
 31
0.0
  0
LINE
  5
31F
  8
DATA
  6
CONTINUOUS
 62
     7
 10
-180.00540500000031
 20
-312.5
 30
0.0
 11
-162.99459500000009
 21
-312.5
 31
0.0
  0
LINE
  5
320
  8
DATA
  6
CONTINUOUS
 62
     7
 10
-172.08786099999989
 20
-304.0
 30
0.0
 11
-172.08786099999989
 21
-312.5
 31
0.0
  0
LINE
  5
321
  8
DATA
  6
CONTINUOUS
 62
     7
 10
-162.99459500000009
 20
-304.0
 30
0.0
 11
-162.99459500000009
 21
-312.5
 31
0.0
  0
LINE
  5
322
  8
DATA
  6
CONTINUOUS
 62
     7
 10
-180.00540500000031
 20
-304.0
 30
0.0
 11
-180.00540500000031
 21
-312.5
 31
0.0
  0
TEXT
  5
323
  8
DATA
  6
CONTINUOUS
 62
     7
 10
-65.495207000000406
 20
35.874453999999901
 30
0.0
 40
3.09375
  1
 OUTPUT
 50
180.0
 41
0.85
 11
-65.495207000000406
 21
32.780703999999901
 31
0.0
 73
     3
  0
LINE
  5
324
  8
DATA
  6
CONTINUOUS
 62
     7
 10
-101.15000000000011
 20
34.600000000000129
 30
0.0
 11
-84.150000000000091
 21
34.600000000000129
 31
0.0
  0
TEXT
  5
325
  8
DATA
  6
CONTINUOUS
 62
     7
 10
-79.06910500000005
 20
28.644070000000049
 30
0.0
 40
3.09375
  1
CH-1
 50
180.0
 41
0.85
 11
-79.06910500000005
 21
25.550320000000049
 31
0.0
 73
     3
  0
TEXT
  5
326
  8
DATA
  6
CONTINUOUS
 62
     7
 10
-60.267585000000061
 20
28.644070000000049
 30
0.0
 40
3.09375
  1
CH-2
 50
180.0
 41
0.85
 11
-60.267585000000061
 21
25.550320000000049
 31
0.0
 73
     3
  0
LINE
  5
327
  8
DATA
  6
CONTINUOUS
 62
     7
 10
-65.500000000000014
 20
16.75
 30
0.0
 11
-72.500000000000242
 21
16.75
 31
0.0
  0
LINE
  5
328
  8
DATA
  6
CONTINUOUS
 62
     7
 10
-67.999870000000115
 20
21.40004999999984
 30
0.0
 11
-70.000050000000115
 21
21.40004999999984
 31
0.0
  0
LINE
  5
329
  8
DATA
  6
CONTINUOUS
 62
     7
 10
-69.000000000000242
 20
20.39999999999986
 30
0.0
 11
-69.000000000000242
 21
19.400000000000201
 31
0.0
  0
TEXT
  5
32A
  8
DATA
  6
CONTINUOUS
 62
     7
 10
-87.000000000000483
 20
22.337500000000201
 30
0.0
 40
3.8671875
  1
+
 50
180.0
 41
0.85
 11
-87.000000000000483
 21
18.470312500000201
 31
0.0
 73
     3
  0
LINE
  5
32B
  8
DATA
  6
CONTINUOUS
 62
     7
 10
-76.999880000000289
 20
20.39999999999986
 30
0.0
 11
-80.000109999999978
 21
20.39999999999986
 31
0.0
  0
LINE
  5
32C
  8
DATA
  6
CONTINUOUS
 62
     7
 10
-77.999930000000418
 20
22.40017999999997
 30
0.0
 11
-78.999980000000065
 21
22.40017999999997
 31
0.0
  0
LINE
  5
32D
  8
DATA
  6
CONTINUOUS
 62
     7
 10
-68.499929999999964
 20
22.40017999999997
 30
0.0
 11
-69.499980000000292
 21
22.40017999999997
 31
0.0
  0
ARC
  5
32E
  8
DATA
  6
CONTINUOUS
 62
     7
 10
-92.75
 20
19.5
 30
0.0
 40
0.5
 50
0.0
 51
180.0
  0
LINE
  5
32F
  8
DATA
  6
CONTINUOUS
 62
     7
 10
-74.250000000000242
 20
18.39999999999997
 30
0.0
 11
-82.750000000000014
 21
18.39999999999997
 31
0.0
  0
LINE
  5
330
  8
DATA
  6
CONTINUOUS
 62
     7
 10
-83.750000000000242
 20
18.39999999999997
 30
0.0
 11
-92.249999999999986
 21
18.39999999999997
 31
0.0
  0
LINE
  5
331
  8
DATA
  6
CONTINUOUS
 62
     7
 10
-78.500000000000014
 20
20.39999999999986
 30
0.0
 11
-78.500000000000014
 21
19.400000000000201
 31
0.0
  0
LINE
  5
332
  8
DATA
  6
CONTINUOUS
 62
     7
 10
-77.499870000000101
 20
21.40004999999984
 30
0.0
 11
-79.500050000000101
 21
21.40004999999984
 31
0.0
  0
ARC
  5
333
  8
DATA
  6
CONTINUOUS
 62
     7
 10
-64.250000000000014
 20
19.5
 30
0.0
 40
0.5
 50
0.0
 51
180.0
  0
LINE
  5
334
  8
DATA
  6
CONTINUOUS
 62
     7
 10
-67.499880000000317
 20
20.39999999999986
 30
0.0
 11
-70.500110000000419
 21
20.39999999999986
 31
0.0
  0
LINE
  5
335
  8
DATA
  6
CONTINUOUS
 62
     7
 10
-64.750000000000014
 20
18.39999999999997
 30
0.0
 11
-73.250000000000242
 21
18.39999999999997
 31
0.0
  0
ARC
  5
336
  8
DATA
  6
CONTINUOUS
 62
     7
 10
-83.250000000000014
 20
19.5
 30
0.0
 40
0.5
 50
0.0
 51
180.0
  0
LINE
  5
337
  8
DATA
  6
CONTINUOUS
 62
     7
 10
-75.000000000000242
 20
16.75
 30
0.0
 11
-82.000000000000014
 21
16.75
 31
0.0
  0
ARC
  5
338
  8
DATA
  6
CONTINUOUS
 62
     7
 10
-73.750000000000242
 20
19.5
 30
0.0
 40
0.5
 50
0.0
 51
180.0
  0
LINE
  5
339
  8
DATA
  6
CONTINUOUS
 62
     7
 10
-93.250000000000213
 20
18.39999999999997
 30
0.0
 11
-100.85000000000009
 21
18.39999999999997
 31
0.0
  0
LINE
  5
33A
  8
DATA
  6
CONTINUOUS
 62
     7
 10
-84.500000000000483
 20
16.75
 30
0.0
 11
-91.5
 21
16.75
 31
0.0
  0
LINE
  5
33B
  8
DATA
  6
CONTINUOUS
 62
     7
 10
-90.000000000000014
 20
12.5
 30
0.0
 11
-86.000000000000014
 21
12.5
 31
0.0
  0
LINE
  5
33C
  8
DATA
  6
CONTINUOUS
 62
     7
 10
-80.500000000000483
 20
12.5
 30
0.0
 11
-76.500000000000242
 21
12.5
 31
0.0
  0
LINE
  5
33D
  8
DATA
  6
CONTINUOUS
 62
     7
 10
-71.000000000000242
 20
12.5
 30
0.0
 11
-67.000000000000242
 21
12.5
 31
0.0
  0
LINE
  5
33E
  8
DATA
  6
CONTINUOUS
 62
     7
 10
-99.000000000000227
 20
12.5
 30
0.0
 11
-95.000000000000227
 21
12.5
 31
0.0
  0
LINE
  5
33F
  8
DATA
  6
CONTINUOUS
 62
     7
 10
-78.500000000000014
 20
9.0000000000001137
 30
0.0
 11
-78.500000000000014
 21
16.0
 31
0.0
  0
CIRCLE
  5
340
  8
DATA
  6
CONTINUOUS
 62
     7
 10
-69.000000000000242
 20
12.5
 30
0.0
 40
3.5
  0
LINE
  5
341
  8
DATA
  6
CONTINUOUS
 62
     7
 10
-69.000000000000242
 20
9.0000000000001137
 30
0.0
 11
-69.000000000000242
 21
16.0
 31
0.0
  0
LINE
  5
342
  8
DATA
  6
CONTINUOUS
 62
     7
 10
-59.500000000000021
 20
9.0000000000001137
 30
0.0
 11
-59.500000000000021
 21
16.0
 31
0.0
  0
CIRCLE
  5
343
  8
DATA
  6
CONTINUOUS
 62
     7
 10
-88.000000000000014
 20
12.5
 30
0.0
 40
3.5
  0
LINE
  5
344
  8
DATA
  6
CONTINUOUS
 62
     7
 10
-88.000000000000014
 20
9.0000000000001137
 30
0.0
 11
-88.000000000000014
 21
16.0
 31
0.0
  0
CIRCLE
  5
345
  8
DATA
  6
CONTINUOUS
 62
     7
 10
-97.000000000000242
 20
12.5
 30
0.0
 40
3.5
  0
LINE
  5
346
  8
DATA
  6
CONTINUOUS
 62
     7
 10
-97.000000000000242
 20
14.5
 30
0.0
 11
-97.000000000000242
 21
10.5
 31
0.0
  0
CIRCLE
  5
347
  8
DATA
  6
CONTINUOUS
 62
     7
 10
-78.500000000000014
 20
12.5
 30
0.0
 40
3.5
  0
ARC
  5
348
  8
DATA
  6
CONTINUOUS
 62
     7
 10
-92.75
 20
5.5
 30
0.0
 40
0.5
 50
180.0
 51
0.0
  0
LINE
  5
349
  8
DATA
  6
CONTINUOUS
 62
     7
 10
-72.500000000000242
 20
8.2500000000001137
 30
0.0
 11
-65.500000000000014
 21
8.2500000000001137
 31
0.0
  0
LINE
  5
34A
  8
DATA
  6
CONTINUOUS
 62
     7
 10
-73.250000000000242
 20
6.6000000000001364
 30
0.0
 11
-64.750000000000014
 21
6.6000000000001364
 31
0.0
  0
LINE
  5
34B
  8
DATA
  6
CONTINUOUS
 62
     7
 10
-91.5
 20
8.2500000000001137
 30
0.0
 11
-84.500000000000483
 21
8.2500000000001137
 31
0.0
  0
ARC
  5
34C
  8
DATA
  6
CONTINUOUS
 62
     7
 10
-73.750000000000242
 20
5.5
 30
0.0
 40
0.5
 50
180.0
 51
0.0
  0
LINE
  5
34D
  8
DATA
  6
CONTINUOUS
 62
     7
 10
-100.85000000000009
 20
6.6000000000001364
 30
0.0
 11
-93.250000000000213
 21
6.6000000000001364
 31
0.0
  0
ARC
  5
34E
  8
DATA
  6
CONTINUOUS
 62
     7
 10
-83.250000000000014
 20
5.5
 30
0.0
 40
0.5
 50
180.0
 51
0.0
  0
LINE
  5
34F
  8
DATA
  6
CONTINUOUS
 62
     7
 10
-92.249999999999986
 20
6.6000000000001364
 30
0.0
 11
-83.750000000000242
 21
6.6000000000001364
 31
0.0
  0
LINE
  5
350
  8
DATA
  6
CONTINUOUS
 62
     7
 10
-82.750000000000014
 20
6.6000000000001364
 30
0.0
 11
-74.250000000000242
 21
6.6000000000001364
 31
0.0
  0
ARC
  5
351
  8
DATA
  6
CONTINUOUS
 62
     7
 10
-64.250000000000014
 20
5.5
 30
0.0
 40
0.5
 50
180.0
 51
0.0
  0
LINE
  5
352
  8
DATA
  6
CONTINUOUS
 62
     7
 10
-82.000000000000014
 20
8.2500000000001137
 30
0.0
 11
-75.000000000000242
 21
8.2500000000001137
 31
0.0
  0
LINE
  5
353
  8
DATA
  6
CONTINUOUS
 62
     7
 10
-72.500000000000242
 20
16.75
 30
0.0
 11
-72.500000000000242
 21
8.2500000000001137
 31
0.0
  0
LINE
  5
354
  8
DATA
  6
CONTINUOUS
 62
     7
 10
-93.250000000000213
 20
19.5
 30
0.0
 11
-93.250000000000213
 21
5.5
 31
0.0
  0
LINE
  5
355
  8
DATA
  6
CONTINUOUS
 62
     7
 10
-82.000000000000014
 20
16.75
 30
0.0
 11
-82.000000000000014
 21
8.2500000000001137
 31
0.0
  0
LINE
  5
356
  8
DATA
  6
CONTINUOUS
 62
     7
 10
-83.750000000000242
 20
19.5
 30
0.0
 11
-83.750000000000242
 21
5.5
 31
0.0
  0
LINE
  5
357
  8
DATA
  6
CONTINUOUS
 62
     7
 10
-65.500000000000014
 20
8.2500000000001137
 30
0.0
 11
-65.500000000000014
 21
16.75
 31
0.0
  0
LINE
  5
358
  8
DATA
  6
CONTINUOUS
 62
     7
 10
-63.000000000000242
 20
16.75
 30
0.0
 11
-63.000000000000242
 21
8.2500000000001137
 31
0.0
  0
LINE
  5
359
  8
DATA
  6
CONTINUOUS
 62
     7
 10
-75.000000000000242
 20
8.2500000000001137
 30
0.0
 11
-75.000000000000242
 21
16.75
 31
0.0
  0
LINE
  5
35A
  8
DATA
  6
CONTINUOUS
 62
     7
 10
-84.500000000000483
 20
8.2500000000001137
 30
0.0
 11
-84.500000000000483
 21
16.75
 31
0.0
  0
LINE
  5
35B
  8
DATA
  6
CONTINUOUS
 62
     7
 10
-73.250000000000242
 20
19.5
 30
0.0
 11
-73.250000000000242
 21
5.5
 31
0.0
  0
LINE
  5
35C
  8
DATA
  6
CONTINUOUS
 62
     7
 10
-74.250000000000242
 20
19.5
 30
0.0
 11
-74.250000000000242
 21
5.5
 31
0.0
  0
LINE
  5
35D
  8
DATA
  6
CONTINUOUS
 62
     7
 10
-92.249999999999986
 20
19.5
 30
0.0
 11
-92.249999999999986
 21
5.5
 31
0.0
  0
LINE
  5
35E
  8
DATA
  6
CONTINUOUS
 62
     7
 10
-82.750000000000014
 20
19.5
 30
0.0
 11
-82.750000000000014
 21
5.5
 31
0.0
  0
LINE
  5
35F
  8
DATA
  6
CONTINUOUS
 62
     7
 10
-63.750000000000242
 20
19.5
 30
0.0
 11
-63.750000000000242
 21
5.5
 31
0.0
  0
LINE
  5
360
  8
DATA
  6
CONTINUOUS
 62
     7
 10
-64.750000000000014
 20
19.5
 30
0.0
 11
-64.750000000000014
 21
5.5
 31
0.0
  0
LINE
  5
361
  8
DATA
  6
CONTINUOUS
 62
     7
 10
-100.85000000000009
 20
18.39999999999997
 30
0.0
 11
-100.85000000000009
 21
6.6000000000001364
 31
0.0
  0
LINE
  5
362
  8
DATA
  6
CONTINUOUS
 62
     7
 10
-91.5
 20
16.75
 30
0.0
 11
-91.5
 21
8.2500000000001137
 31
0.0
  0
LINE
  5
363
  8
DATA
  6
CONTINUOUS
 62
     7
 10
-251.90000000000029
 20
37.08096299999999
 30
0.0
 11
-251.90000000000029
 21
37.850000000000009
 31
0.0
  0
ARC
  5
364
  8
DATA
  6
CONTINUOUS
 62
     7
 10
-254.40000000000001
 20
25.60000000000014
 30
0.0
 40
10.250000000000011
 50
70.033942000000025
 51
78.748151999999919
  0
LINE
  5
365
  8
DATA
  6
CONTINUOUS
 62
     7
 10
-250.90000000000001
 20
35.233924000000002
 30
0.0
 11
-250.90000000000001
 21
36.816616999999837
 31
0.0
  0
LINE
  5
366
  8
DATA
  6
CONTINUOUS
 62
     7
 10
-252.40000000000001
 20
35.142666999999847
 30
0.0
 11
-252.40000000000001
 21
35.652984999999937
 31
0.0
  0
ARC
  5
367
  8
DATA
  6
CONTINUOUS
 62
     7
 10
-251.15000000000001
 20
39.850000000000129
 30
0.0
 40
2.0
 50
270.0
 51
0.0
  0
LINE
  5
368
  8
DATA
  6
CONTINUOUS
 62
     7
 10
-249.15000000000001
 20
39.850000000000129
 30
0.0
 11
-249.15000000000001
 21
41.850000000000129
 31
0.0
  0
LINE
  5
369
  8
DATA
  6
CONTINUOUS
 62
     7
 10
-177.90000000000001
 20
37.08096299999999
 30
0.0
 11
-182.90000000000001
 21
37.08096299999999
 31
0.0
  0
ARC
  5
36A
  8
DATA
  6
CONTINUOUS
 62
     7
 10
-177.15000000000001
 20
39.850000000000129
 30
0.0
 40
2.0
 50
270.0
 51
0.0
  0
LINE
  5
36B
  8
DATA
  6
CONTINUOUS
 62
     7
 10
-175.15000000000001
 20
39.850000000000129
 30
0.0
 11
-175.15000000000001
 21
41.850000000000129
 31
0.0
  0
ARC
  5
36C
  8
DATA
  6
CONTINUOUS
 62
     7
 10
-183.65000000000001
 20
39.850000000000129
 30
0.0
 40
2.0
 50
180.0
 51
270.0
  0
LINE
  5
36D
  8
DATA
  6
CONTINUOUS
 62
     7
 10
-185.65000000000001
 20
39.850000000000129
 30
0.0
 11
-185.65000000000001
 21
41.850000000000129
 31
0.0
  0
ARC
  5
36E
  8
DATA
  6
CONTINUOUS
 62
     7
 10
-250.15000000000001
 20
25.60000000000014
 30
0.0
 40
1.400000000000047
 50
239.94438800000111
 51
120.0556119999987
  0
LINE
  5
36F
  8
DATA
  6
CONTINUOUS
 62
     7
 10
-251.15000000000001
 20
37.850000000000009
 30
0.0
 11
-251.90000000000029
 21
37.850000000000009
 31
0.0
  0
ARC
  5
370
  8
DATA
  6
CONTINUOUS
 62
     7
 10
-186.05685400000041
 20
31.256853999999858
 30
0.0
 40
0.500000000000013
 50
43.209215000001443
 51
226.79078499999849
  0
ARC
  5
371
  8
DATA
  6
CONTINUOUS
 62
     7
 10
-180.40000000000001
 20
25.60000000000014
 30
0.0
 40
3.7500000000000231
 50
18.852612000000018
 51
161.14738799999989
  0
ARC
  5
372
  8
DATA
  6
CONTINUOUS
 62
     7
 10
-176.15000000000029
 20
25.60000000000014
 30
0.0
 40
1.400000000000047
 50
239.94438800000111
 51
120.0556119999987
  0
ARC
  5
373
  8
DATA
  6
CONTINUOUS
 62
     7
 10
-184.65000000000001
 20
25.60000000000014
 30
0.0
 40
1.400000000000047
 50
59.944388000001197
 51
300.0556119999988
  0
LINE
  5
374
  8
DATA
  6
CONTINUOUS
 62
     7
 10
-189.40000000000001
 20
38.599999999999788
 30
0.0
 11
-189.40000000000001
 21
35.600000000000023
 31
0.0
  0
LINE
  5
375
  8
DATA
  6
CONTINUOUS
 62
     7
 10
-190.90000000000001
 20
37.100000000000009
 30
0.0
 11
-187.90000000000001
 21
37.100000000000009
 31
0.0
  0
CIRCLE
  5
376
  8
DATA
  6
CONTINUOUS
 62
     7
 10
-189.40000000000001
 20
37.100000000000009
 30
0.0
 40
2.5
  0
LINE
  5
377
  8
DATA
  6
CONTINUOUS
 62
     7
 10
-177.15000000000001
 20
37.850000000000009
 30
0.0
 11
-177.90000000000001
 21
37.850000000000009
 31
0.0
  0
LINE
  5
378
  8
DATA
  6
CONTINUOUS
 62
     7
 10
-183.65000000000001
 20
37.850000000000009
 30
0.0
 11
-182.90000000000001
 21
37.850000000000009
 31
0.0
  0
LINE
  5
379
  8
DATA
  6
CONTINUOUS
 62
     7
 10
-182.90000000000001
 20
37.08096299999999
 30
0.0
 11
-182.90000000000001
 21
37.850000000000009
 31
0.0
  0
LINE
  5
37A
  8
DATA
  6
CONTINUOUS
 62
     7
 10
-177.90000000000001
 20
37.08096299999999
 30
0.0
 11
-177.90000000000001
 21
37.850000000000009
 31
0.0
  0
ARC
  5
37B
  8
DATA
  6
CONTINUOUS
 62
     7
 10
-180.40000000000001
 20
25.60000000000014
 30
0.0
 40
10.25000000000003
 50
101.251848
 51
109.9660579999999
  0
ARC
  5
37C
  8
DATA
  6
CONTINUOUS
 62
     7
 10
-180.40000000000001
 20
25.60000000000014
 30
0.0
 40
10.250000000000011
 50
70.033942000000025
 51
78.748151999999919
  0
LINE
  5
37D
  8
DATA
  6
CONTINUOUS
 62
     7
 10
-183.90000000000001
 20
35.233924000000002
 30
0.0
 11
-183.90000000000001
 21
36.816616999999837
 31
0.0
  0
LINE
  5
37E
  8
DATA
  6
CONTINUOUS
 62
     7
 10
-176.90000000000029
 20
35.233924000000002
 30
0.0
 11
-176.90000000000029
 21
36.816616999999837
 31
0.0
  0
LINE
  5
37F
  8
DATA
  6
CONTINUOUS
 62
     7
 10
-178.40000000000001
 20
35.142666999999847
 30
0.0
 11
-178.40000000000001
 21
35.652984999999937
 31
0.0
  0
LINE
  5
380
  8
DATA
  6
CONTINUOUS
 62
     7
 10
-182.40000000000001
 20
35.142666999999847
 30
0.0
 11
-182.40000000000001
 21
35.652984999999937
 31
0.0
  0
LINE
  5
381
  8
DATA
  6
CONTINUOUS
 62
     7
 10
-126.39983000000031
 20
24.099999999999788
 30
0.0
 11
-130.90017000000009
 21
24.099999999999788
 31
0.0
  0
ARC
  5
382
  8
DATA
  6
CONTINUOUS
 62
     7
 10
-254.40000000000001
 20
21.350000000000019
 30
0.0
 40
1.400000000000047
 50
149.94438800000111
 51
30.055612000003439
  0
LINE
  5
383
  8
DATA
  6
CONTINUOUS
 62
     7
 10
-246.90000000000001
 20
14.100000000000019
 30
0.0
 11
-243.90000000000029
 21
14.100000000000019
 31
0.0
  0
ARC
  5
384
  8
DATA
  6
CONTINUOUS
 62
     7
 10
-180.40000000000001
 20
21.350000000000019
 30
0.0
 40
1.400000000000047
 50
149.94438800000111
 51
30.055611999998789
  0
LINE
  5
385
  8
DATA
  6
CONTINUOUS
 62
     7
 10
-172.90000000000029
 20
14.100000000000019
 30
0.0
 11
-169.90000000000001
 21
14.100000000000019
 31
0.0
  0
ARC
  5
386
  8
DATA
  6
CONTINUOUS
 62
     7
 10
-254.40000000000001
 20
25.60000000000014
 30
0.0
 40
3.7499999999999858
 50
288.85261199999832
 51
341.14738799999998
  0
ARC
  5
387
  8
DATA
  6
CONTINUOUS
 62
     7
 10
-180.40000000000001
 20
25.60000000000014
 30
0.0
 40
3.7499999999999858
 50
288.85261199999832
 51
341.14738799999998
  0
ARC
  5
388
  8
DATA
  6
CONTINUOUS
 62
     7
 10
-180.40000000000001
 20
25.60000000000014
 30
0.0
 40
3.7500000000000231
 50
198.85261199999991
 51
251.1473880000016
  0
ARC
  5
389
  8
DATA
  6
CONTINUOUS
 62
     7
 10
-180.40000000000001
 20
25.60000000000014
 30
0.0
 40
9.749999999999952
 50
101.83700399999979
 51
78.16299600000012
  0
ARC
  5
38A
  8
DATA
  6
CONTINUOUS
 62
     7
 10
-180.40000000000001
 20
25.60000000000014
 30
0.0
 40
11.750000000000041
 50
102.2844939999997
 51
77.715506000000261
  0
ARC
  5
38B
  8
DATA
  6
CONTINUOUS
 62
     7
 10
-180.40000000000001
 20
25.60000000000014
 30
0.0
 40
7.9999999999999236
 50
138.581569
 51
131.4184310000006
  0
LINE
  5
38C
  8
DATA
  6
CONTINUOUS
 62
     7
 10
-128.64996000000019
 20
26.350209999999841
 30
0.0
 11
-128.64996000000019
 21
21.84978000000012
 31
0.0
  0
LINE
  5
38D
  8
DATA
  6
CONTINUOUS
 62
     7
 10
-245.40000000000001
 20
15.600000000000019
 30
0.0
 11
-245.40000000000001
 21
12.600000000000129
 31
0.0
  0
CIRCLE
  5
38E
  8
DATA
  6
CONTINUOUS
 62
     7
 10
-245.40000000000001
 20
14.100000000000019
 30
0.0
 40
2.5
  0
LINE
  5
38F
  8
DATA
  6
CONTINUOUS
 62
     7
 10
-171.40000000000001
 20
15.600000000000019
 30
0.0
 11
-171.40000000000001
 21
12.600000000000129
 31
0.0
  0
CIRCLE
  5
390
  8
DATA
  6
CONTINUOUS
 62
     7
 10
-171.40000000000001
 20
14.100000000000019
 30
0.0
 40
2.5
  0
TEXT
  5
391
  8
DATA
  6
CONTINUOUS
 62
     7
 10
-211.44708000000011
 20
7.7460610000001671
 30
0.0
 40
3.09375
  1
INPUT
 50
180.0
 41
0.85
 11
-211.44708000000011
 21
4.6523110000001671
 31
0.0
 73
     3
  0
TEXT
  5
392
  8
DATA
  6
CONTINUOUS
 62
     7
 10
-174.23500300000021
 20
7.7460610000001671
 30
0.0
 40
3.09375
  1
CH-2
 50
180.0
 41
0.85
 11
-174.23500300000021
 21
4.6523110000001671
 31
0.0
 73
     3
  0
LINE
  5
393
  8
DATA
  6
CONTINUOUS
 62
     7
 10
-209.15000000000001
 20
6.6000000000001364
 30
0.0
 11
-185.65000000000001
 21
6.6000000000001364
 31
0.0
  0
LINE
  5
394
  8
DATA
  6
CONTINUOUS
 62
     7
 10
-248.15000000000001
 20
6.6000000000001364
 30
0.0
 11
-225.65000000000001
 21
6.6000000000001364
 31
0.0
  0
CIRCLE
  5
395
  8
DATA
  6
CONTINUOUS
 62
     7
 10
-128.64996000000019
 20
24.099999999999788
 30
0.0
 40
3.5002999999999238
  0
POLYLINE
  5
396
  8
DATA
  6
CONTINUOUS
 62
     7
 66
     1
 10
0.0
 20
0.0
 30
0.0
  0
VERTEX
  5
681
  8
DATA
  6
CONTINUOUS
 62
     7
 10
-175.15000000000001
 20
41.850000000000129
 30
0.0
  0
VERTEX
  5
682
  8
DATA
  6
CONTINUOUS
 62
     7
 10
-175.15000000000001
 20
41.903033008589311
 30
0.0
  0
VERTEX
  5
683
  8
DATA
  6
CONTINUOUS
 62
     7
 10
-175.17852705621411
 20
41.999077401163497
 30
0.0
  0
VERTEX
  5
684
  8
DATA
  6
CONTINUOUS
 62
     7
 10
-175.2216544255848
 20
42.091280762422222
 30
0.0
  0
VERTEX
  5
685
  8
DATA
  6
CONTINUOUS
 62
     7
 10
-175.2793821081122
 20
42.179643092365708
 30
0.0
  0
VERTEX
  5
686
  8
DATA
  6
CONTINUOUS
 62
     7
 10
-175.35171010379619
 20
42.264164390993749
 30
0.0
  0
VERTEX
  5
687
  8
DATA
  6
CONTINUOUS
 62
     7
 10
-175.43863841263689
 20
42.344844658306428
 30
0.0
  0
VERTEX
  5
688
  8
DATA
  6
CONTINUOUS
 62
     7
 10
-175.54016703463429
 20
42.421683894304238
 30
0.0
  0
VERTEX
  5
689
  8
DATA
  6
CONTINUOUS
 62
     7
 10
-175.65629596978849
 20
42.494682098986218
 30
0.0
  0
VERTEX
  5
68A
  8
DATA
  6
CONTINUOUS
 62
     7
 10
-175.7870252180991
 20
42.563839272353107
 30
0.0
  0
VERTEX
  5
68B
  8
DATA
  6
CONTINUOUS
 62
     7
 10
-175.924247175456
 20
42.62876696400167
 30
0.0
  0
VERTEX
  5
68C
  8
DATA
  6
CONTINUOUS
 62
     7
 10
-176.0598542377476
 20
42.689076723529183
 30
0.0
  0
VERTEX
  5
68D
  8
DATA
  6
CONTINUOUS
 62
     7
 10
-176.19384640497461
 20
42.744768550935653
 30
0.0
  0
VERTEX
  5
68E
  8
DATA
  6
CONTINUOUS
 62
     7
 10
-176.32622367713699
 20
42.795842446221293
 30
0.0
  0
VERTEX
  5
68F
  8
DATA
  6
CONTINUOUS
 62
     7
 10
-176.45698605423439
 20
42.842298409385641
 30
0.0
  0
VERTEX
  5
690
  8
DATA
  6
CONTINUOUS
 62
     7
 10
-176.58613353626711
 20
42.884136440428961
 30
0.0
  0
VERTEX
  5
691
  8
DATA
  6
CONTINUOUS
 62
     7
 10
-176.71366612323479
 20
42.921356539351329
 30
0.0
  0
VERTEX
  5
692
  8
DATA
  6
CONTINUOUS
 62
     7
 10
-176.8395838151379
 20
42.953958706152662
 30
0.0
  0
VERTEX
  5
693
  8
DATA
  6
CONTINUOUS
 62
     7
 10
-176.96560907495081
 20
42.983830680558292
 30
0.0
  0
VERTEX
  5
694
  8
DATA
  6
CONTINUOUS
 62
     7
 10
-177.0934643656478
 20
43.012860202292813
 30
0.0
  0
VERTEX
  5
695
  8
DATA
  6
CONTINUOUS
 62
     7
 10
-177.22314968722949
 20
43.041047271356661
 30
0.0
  0
VERTEX
  5
696
  8
DATA
  6
CONTINUOUS
 62
     7
 10
-177.35466503969511
 20
43.068391887750067
 30
0.0
  0
VERTEX
  5
697
  8
DATA
  6
CONTINUOUS
 62
     7
 10
-177.48801042304549
 20
43.094894051472806
 30
0.0
  0
VERTEX
  5
698
  8
DATA
  6
CONTINUOUS
 62
     7
 10
-177.6231858372802
 20
43.12055376252453
 30
0.0
  0
VERTEX
  5
699
  8
DATA
  6
CONTINUOUS
 62
     7
 10
-177.76019128239929
 20
43.145371020905714
 30
0.0
  0
VERTEX
  5
69A
  8
DATA
  6
CONTINUOUS
 62
     7
 10
-177.89902675840261
 20
43.169345826616109
 30
0.0
  0
VERTEX
  5
69B
  8
DATA
  6
CONTINUOUS
 62
     7
 10
-178.0392990421623
 20
43.192012746678181
 30
0.0
  0
VERTEX
  5
69C
  8
DATA
  6
CONTINUOUS
 62
     7
 10
-178.1806149105507
 20
43.212906348113719
 30
0.0
  0
VERTEX
  5
69D
  8
DATA
  6
CONTINUOUS
 62
     7
 10
-178.322974363567
 20
43.232026630923322
 30
0.0
  0
VERTEX
  5
69E
  8
DATA
  6
CONTINUOUS
 62
     7
 10
-178.4663774012119
 20
43.249373595106483
 30
0.0
  0
VERTEX
  5
69F
  8
DATA
  6
CONTINUOUS
 62
     7
 10
-178.61082402348521
 20
43.264947240663318
 30
0.0
  0
VERTEX
  5
6A0
  8
DATA
  6
CONTINUOUS
 62
     7
 10
-178.75631423038701
 20
43.27874756759411
 30
0.0
  0
VERTEX
  5
6A1
  8
DATA
  6
CONTINUOUS
 62
     7
 10
-178.9028480219169
 20
43.290774575898688
 30
0.0
  0
VERTEX
  5
6A2
  8
DATA
  6
CONTINUOUS
 62
     7
 10
-179.05042539807539
 20
43.30102826557674
 30
0.0
  0
VERTEX
  5
6A3
  8
DATA
  6
CONTINUOUS
 62
     7
 10
-179.20107119219711
 20
43.310091798991706
 30
0.0
  0
VERTEX
  5
6A4
  8
DATA
  6
CONTINUOUS
 62
     7
 10
-179.3568102376168
 20
43.318548338505828
 30
0.0
  0
VERTEX
  5
6A5
  8
DATA
  6
CONTINUOUS
 62
     7
 10
-179.5176425343345
 20
43.326397884119842
 30
0.0
  0
VERTEX
  5
6A6
  8
DATA
  6
CONTINUOUS
 62
     7
 10
-179.68356808235009
 20
43.333640435833317
 30
0.0
  0
VERTEX
  5
6A7
  8
DATA
  6
CONTINUOUS
 62
     7
 10
-179.85458688166361
 20
43.340275993645953
 30
0.0
  0
VERTEX
  5
6A8
  8
DATA
  6
CONTINUOUS
 62
     7
 10
-180.0306989322753
 20
43.346304557558263
 30
0.0
  0
VERTEX
  5
6A9
  8
DATA
  6
CONTINUOUS
 62
     7
 10
-180.21190423418511
 20
43.351726127570153
 30
0.0
  0
VERTEX
  5
6AA
  8
DATA
  6
CONTINUOUS
 62
     7
 10
-180.39820278739279
 20
43.35654070368151
 30
0.0
  0
VERTEX
  5
6AB
  8
DATA
  6
CONTINUOUS
 62
     7
 10
-180.59061556229611
 20
43.359065869370852
 30
0.0
  0
VERTEX
  5
6AC
  8
DATA
  6
CONTINUOUS
 62
     7
 10
-180.79016352929241
 20
43.357619208117512
 30
0.0
  0
VERTEX
  5
6AD
  8
DATA
  6
CONTINUOUS
 62
     7
 10
-180.99684668838199
 20
43.352200719920923
 30
0.0
  0
VERTEX
  5
6AE
  8
DATA
  6
CONTINUOUS
 62
     7
 10
-181.2106650395649
 20
43.34281040478163
 30
0.0
  0
VERTEX
  5
6AF
  8
DATA
  6
CONTINUOUS
 62
     7
 10
-181.4316185828408
 20
43.32944826269943
 30
0.0
  0
VERTEX
  5
6B0
  8
DATA
  6
CONTINUOUS
 62
     7
 10
-181.65970731821011
 20
43.312114293673737
 30
0.0
  0
VERTEX
  5
6B1
  8
DATA
  6
CONTINUOUS
 62
     7
 10
-181.89493124567241
 20
43.290808497705697
 30
0.0
  0
VERTEX
  5
6B2
  8
DATA
  6
CONTINUOUS
 62
     7
 10
-182.1372903652281
 20
43.265530874794308
 30
0.0
  0
VERTEX
  5
6B3
  8
DATA
  6
CONTINUOUS
 62
     7
 10
-182.3783487889923
 20
43.237433542209942
 30
0.0
  0
VERTEX
  5
6B4
  8
DATA
  6
CONTINUOUS
 62
     7
 10
-182.6096706290804
 20
43.207668617223682
 30
0.0
  0
VERTEX
  5
6B5
  8
DATA
  6
CONTINUOUS
 62
     7
 10
-182.83125588549251
 20
43.176236099834448
 30
0.0
  0
VERTEX
  5
6B6
  8
DATA
  6
CONTINUOUS
 62
     7
 10
-183.04310455822809
 20
43.143135990042992
 30
0.0
  0
VERTEX
  5
6B7
  8
DATA
  6
CONTINUOUS
 62
     7
 10
-183.24521664728761
 20
43.108368287848862
 30
0.0
  0
VERTEX
  5
6B8
  8
DATA
  6
CONTINUOUS
 62
     7
 10
-183.43759215267119
 20
43.071932993252403
 30
0.0
  0
VERTEX
  5
6B9
  8
DATA
  6
CONTINUOUS
 62
     7
 10
-183.62023107437849
 20
43.033830106253511
 30
0.0
  0
VERTEX
  5
6BA
  8
DATA
  6
CONTINUOUS
 62
     7
 10
-183.7931334124095
 20
42.994059626851829
 30
0.0
  0
VERTEX
  5
6BB
  8
DATA
  6
CONTINUOUS
 62
     7
 10
-183.95922599646281
 20
42.951763268458997
 30
0.0
  0
VERTEX
  5
6BC
  8
DATA
  6
CONTINUOUS
 62
     7
 10
-184.1214356562356
 20
42.906082744485722
 30
0.0
  0
VERTEX
  5
6BD
  8
DATA
  6
CONTINUOUS
 62
     7
 10
-184.2797623917283
 20
42.857018054932148
 30
0.0
  0
VERTEX
  5
6BE
  8
DATA
  6
CONTINUOUS
 62
     7
 10
-184.4342062029408
 20
42.804569199798372
 30
0.0
  0
VERTEX
  5
6BF
  8
DATA
  6
CONTINUOUS
 62
     7
 10
-184.58476708987331
 20
42.748736179084283
 30
0.0
  0
VERTEX
  5
6C0
  8
DATA
  6
CONTINUOUS
 62
     7
 10
-184.73144505252549
 20
42.689518992789878
 30
0.0
  0
VERTEX
  5
6C1
  8
DATA
  6
CONTINUOUS
 62
     7
 10
-184.8742400908973
 20
42.626917640915039
 30
0.0
  0
VERTEX
  5
6C2
  8
DATA
  6
CONTINUOUS
 62
     7
 10
-185.01315220498921
 20
42.560932123460127
 30
0.0
  0
VERTEX
  5
6C3
  8
DATA
  6
CONTINUOUS
 62
     7
 10
-185.14295227224389
 20
42.491434549575608
 30
0.0
  0
VERTEX
  5
6C4
  8
DATA
  6
CONTINUOUS
 62
     7
 10
-185.25841117010481
 20
42.418297028412901
 30
0.0
  0
VERTEX
  5
6C5
  8
DATA
  6
CONTINUOUS
 62
     7
 10
-185.35952889857199
 20
42.341519559971523
 30
0.0
  0
VERTEX
  5
6C6
  8
DATA
  6
CONTINUOUS
 62
     7
 10
-185.44630545764531
 20
42.261102144252042
 30
0.0
  0
VERTEX
  5
6C7
  8
DATA
  6
CONTINUOUS
 62
     7
 10
-185.51874084732481
 20
42.177044781253812
 30
0.0
  0
VERTEX
  5
6C8
  8
DATA
  6
CONTINUOUS
 62
     7
 10
-185.57683506761029
 20
42.089347470977359
 30
0.0
  0
VERTEX
  5
6C9
  8
DATA
  6
CONTINUOUS
 62
     7
 10
-185.6205881185021
 20
41.998010213422489
 30
0.0
  0
VERTEX
  5
6CA
  8
DATA
  6
CONTINUOUS
 62
     7
 10
-185.65000000000001
 20
41.903033008589311
 30
0.0
  0
VERTEX
  5
6CB
  8
DATA
  6
CONTINUOUS
 62
     7
 10
-185.65000000000001
 20
41.903033008589311
 30
0.0
  0
VERTEX
  5
6CC
  8
DATA
  6
CONTINUOUS
 62
     7
 10
-185.65000000000001
 20
41.850000000000129
 30
0.0
  0
SEQEND
  5
6CD
  8
DATA
  6
CONTINUOUS
 62
     7
  0
LINE
  5
3E4
  8
DATA
  6
CONTINUOUS
 62
     7
 10
133.04817
 20
-300.0
 30
0.0
 11
133.04817
 21
-296.99977000000001
 31
0.0
  0
LINE
  5
3E5
  8
DATA
  6
CONTINUOUS
 62
     7
 10
104.5481699999995
 20
-283.24977000000001
 30
0.0
 11
107.5481699999995
 21
-283.24977000000001
 31
0.0
  0
LINE
  5
3E6
  8
DATA
  6
CONTINUOUS
 62
     7
 10
107.5481699999995
 20
-283.24977000000001
 30
0.0
 11
107.5481699999995
 21
-288.74977000000001
 31
0.0
  0
LINE
  5
3E7
  8
DATA
  6
CONTINUOUS
 62
     7
 10
104.5450400000001
 20
-296.99977000000001
 30
0.0
 11
104.5450400000001
 21
-280.0
 31
0.0
  0
LINE
  5
3E8
  8
DATA
  6
CONTINUOUS
 62
     7
 10
104.5450400000001
 20
-296.99977000000001
 30
0.0
 11
133.04817
 21
-296.99977000000001
 31
0.0
  0
LINE
  5
3E9
  8
DATA
  6
CONTINUOUS
 62
     7
 10
107.5481699999995
 20
-288.74977000000001
 30
0.0
 11
104.5481699999995
 21
-288.74977000000001
 31
0.0
  0
LINE
  5
3EA
  8
DATA
  6
CONTINUOUS
 62
     7
 10
101.5450399999999
 20
-300.0
 30
0.0
 11
101.5450399999999
 21
-280.0
 31
0.0
  0
LINE
  5
3EB
  8
DATA
  6
CONTINUOUS
 62
     7
 10
51.820454999999569
 20
-304.0
 30
0.0
 11
58.505404999999847
 21
-304.0
 31
0.0
  0
LINE
  5
3EC
  8
DATA
  6
CONTINUOUS
 62
     7
 10
56.499999999999758
 20
-300.0
 30
0.0
 11
51.820454999999569
 21
-304.0
 31
0.0
  0
LINE
  5
3ED
  8
DATA
  6
CONTINUOUS
 62
     7
 10
59.499999999999993
 20
-300.0
 30
0.0
 11
58.505404999999847
 21
-304.0
 31
0.0
  0
LINE
  5
3EE
  8
DATA
  6
CONTINUOUS
 62
     7
 10
58.505404999999847
 20
-304.0
 30
0.0
 11
58.505404999999847
 21
-312.5
 31
0.0
  0
LINE
  5
3EF
  8
DATA
  6
CONTINUOUS
 62
     7
 10
51.820454999999569
 20
-312.5
 30
0.0
 11
51.820454999999569
 21
-304.0
 31
0.0
  0
LINE
  5
3F0
  8
DATA
  6
CONTINUOUS
 62
     7
 10
40.499999999999531
 20
-300.0
 30
0.0
 11
41.494595000000089
 21
-304.0
 31
0.0
  0
LINE
  5
3F1
  8
DATA
  6
CONTINUOUS
 62
     7
 10
41.494595000000089
 20
-304.0
 30
0.0
 11
41.494595000000089
 21
-312.5
 31
0.0
  0
LINE
  5
3F2
  8
DATA
  6
CONTINUOUS
 62
     7
 10
41.494595000000089
 20
-312.5
 30
0.0
 11
58.505404999999847
 21
-312.5
 31
0.0
  0
LINE
  5
3F3
  8
DATA
  6
CONTINUOUS
 62
     7
 10
102.2499999999999
 20
-279.99804999999969
 30
0.0
 11
102.2499999999999
 21
-83.999999999999872
 31
0.0
  0
LINE
  5
3F4
  8
DATA
  6
CONTINUOUS
 62
     7
 10
102.2950400000001
 20
-131.74968999999999
 30
0.0
 11
103.7950400000001
 21
-131.74968999999999
 31
0.0
  0
LINE
  5
3F5
  8
DATA
  6
CONTINUOUS
 62
     7
 10
102.2950400000001
 20
-126.24969
 30
0.0
 11
103.7950400000001
 21
-126.24969
 31
0.0
  0
LINE
  5
3F6
  8
DATA
  6
CONTINUOUS
 62
     7
 10
102.2950400000001
 20
-271.74968999999999
 30
0.0
 11
103.7950400000001
 21
-271.74968999999999
 31
0.0
  0
LINE
  5
3F7
  8
DATA
  6
CONTINUOUS
 62
     7
 10
102.2950400000001
 20
-266.2496900000001
 30
0.0
 11
103.7950400000001
 21
-266.2496900000001
 31
0.0
  0
POLYLINE
  5
3F8
  8
DATA
  6
CONTINUOUS
 62
     7
 66
     1
 10
0.0
 20
0.0
 30
0.0
  0
VERTEX
  5
6CE
  8
DATA
  6
CONTINUOUS
 62
     7
 10
103.7950400741324
 20
-131.7496899999999
 30
0.0
  0
VERTEX
  5
6CF
  8
DATA
  6
CONTINUOUS
 62
     7
 10
103.80977146431491
 20
-131.74968998798701
 30
0.0
  0
VERTEX
  5
6D0
  8
DATA
  6
CONTINUOUS
 62
     7
 10
103.84415274175031
 20
-131.7360909149204
 30
0.0
  0
VERTEX
  5
6D1
  8
DATA
  6
CONTINUOUS
 62
     7
 10
103.8768821555679
 20
-131.71398725521161
 30
0.0
  0
VERTEX
  5
6D2
  8
DATA
  6
CONTINUOUS
 62
     7
 10
103.90795970576799
 20
-131.68337900886041
 30
0.0
  0
VERTEX
  5
6D3
  8
DATA
  6
CONTINUOUS
 62
     7
 10
103.9373853923509
 20
-131.6442661758673
 30
0.0
  0
VERTEX
  5
6D4
  8
DATA
  6
CONTINUOUS
 62
     7
 10
103.96515921531631
 20
-131.5966487562319
 30
0.0
  0
VERTEX
  5
6D5
  8
DATA
  6
CONTINUOUS
 62
     7
 10
103.99128117466439
 20
-131.54052674995449
 30
0.0
  0
VERTEX
  5
6D6
  8
DATA
  6
CONTINUOUS
 62
     7
 10
104.0157512703949
 20
-131.4759001570348
 30
0.0
  0
VERTEX
  5
6D7
  8
DATA
  6
CONTINUOUS
 62
     7
 10
104.0385695025079
 20
-131.4027689774733
 30
0.0
  0
VERTEX
  5
6D8
  8
DATA
  6
CONTINUOUS
 62
     7
 10
104.0599003440483
 20
-131.32571023307119
 30
0.0
  0
VERTEX
  5
6D9
  8
DATA
  6
CONTINUOUS
 62
     7
 10
104.0799082680609
 20
-131.24930094563089
 30
0.0
  0
VERTEX
  5
6DA
  8
DATA
  6
CONTINUOUS
 62
     7
 10
104.09859327454539
 20
-131.1735411151524
 30
0.0
  0
VERTEX
  5
6DB
  8
DATA
  6
CONTINUOUS
 62
     7
 10
104.115955363502
 20
-131.09843074163541
 30
0.0
  0
VERTEX
  5
6DC
  8
DATA
  6
CONTINUOUS
 62
     7
 10
104.1319945349307
 20
-131.02396982508029
 30
0.0
  0
VERTEX
  5
6DD
  8
DATA
  6
CONTINUOUS
 62
     7
 10
104.1467107888315
 20
-130.9501583654868
 30
0.0
  0
VERTEX
  5
6DE
  8
DATA
  6
CONTINUOUS
 62
     7
 10
104.1601041252042
 20
-130.87699636285481
 30
0.0
  0
VERTEX
  5
6DF
  8
DATA
  6
CONTINUOUS
 62
     7
 10
104.1721745440495
 20
-130.8044838171844
 30
0.0
  0
VERTEX
  5
6E0
  8
DATA
  6
CONTINUOUS
 62
     7
 10
104.1833198827903
 20
-130.7315523664661
 30
0.0
  0
VERTEX
  5
6E1
  8
DATA
  6
CONTINUOUS
 62
     7
 10
104.19393797885181
 20
-130.65713364869029
 30
0.0
  0
VERTEX
  5
6E2
  8
DATA
  6
CONTINUOUS
 62
     7
 10
104.2040288322334
 20
-130.58122766385679
 30
0.0
  0
VERTEX
  5
6E3
  8
DATA
  6
CONTINUOUS
 62
     7
 10
104.21359244293571
 20
-130.50383441196541
 30
0.0
  0
VERTEX
  5
6E4
  8
DATA
  6
CONTINUOUS
 62
     7
 10
104.2226288109582
 20
-130.42495389301649
 30
0.0
  0
VERTEX
  5
6E5
  8
DATA
  6
CONTINUOUS
 62
     7
 10
104.2311379363006
 20
-130.3445861070098
 30
0.0
  0
VERTEX
  5
6E6
  8
DATA
  6
CONTINUOUS
 62
     7
 10
104.2391198189638
 20
-130.26273105394549
 30
0.0
  0
VERTEX
  5
6E7
  8
DATA
  6
CONTINUOUS
 62
     7
 10
104.24657445894709
 20
-130.1793887338236
 30
0.0
  0
VERTEX
  5
6E8
  8
DATA
  6
CONTINUOUS
 62
     7
 10
104.2534915873259
 20
-130.09524071381389
 30
0.0
  0
VERTEX
  5
6E9
  8
DATA
  6
CONTINUOUS
 62
     7
 10
104.2598609351755
 20
-130.01096856108589
 30
0.0
  0
VERTEX
  5
6EA
  8
DATA
  6
CONTINUOUS
 62
     7
 10
104.26568250249549
 20
-129.9265722756399
 30
0.0
  0
VERTEX
  5
6EB
  8
DATA
  6
CONTINUOUS
 62
     7
 10
104.2709562892864
 20
-129.84205185747601
 30
0.0
  0
VERTEX
  5
6EC
  8
DATA
  6
CONTINUOUS
 62
     7
 10
104.2756822955479
 20
-129.7574073065939
 30
0.0
  0
VERTEX
  5
6ED
  8
DATA
  6
CONTINUOUS
 62
     7
 10
104.2798605212801
 20
-129.67263862299379
 30
0.0
  0
VERTEX
  5
6EE
  8
DATA
  6
CONTINUOUS
 62
     7
 10
104.2834909664832
 20
-129.58774580667551
 30
0.0
  0
VERTEX
  5
6EF
  8
DATA
  6
CONTINUOUS
 62
     7
 10
104.2865736311566
 20
-129.50272885763951
 30
0.0
  0
VERTEX
  5
6F0
  8
DATA
  6
CONTINUOUS
 62
     7
 10
104.2891645059053
 20
-129.419121959942
 30
0.0
  0
VERTEX
  5
6F1
  8
DATA
  6
CONTINUOUS
 62
     7
 10
104.2913195813332
 20
-129.3384592976395
 30
0.0
  0
VERTEX
  5
6F2
  8
DATA
  6
CONTINUOUS
 62
     7
 10
104.29303885744091
 20
-129.260740870733
 30
0.0
  0
VERTEX
  5
6F3
  8
DATA
  6
CONTINUOUS
 62
     7
 10
104.2943223342276
 20
-129.18596667922139
 30
0.0
  0
VERTEX
  5
6F4
  8
DATA
  6
CONTINUOUS
 62
     7
 10
104.2951700116941
 20
-129.11413672310499
 30
0.0
  0
VERTEX
  5
6F5
  8
DATA
  6
CONTINUOUS
 62
     7
 10
104.29558188984009
 20
-129.04525100238399
 30
0.0
  0
VERTEX
  5
6F6
  8
DATA
  6
CONTINUOUS
 62
     7
 10
104.29555796866541
 20
-128.97930951705831
 30
0.0
  0
VERTEX
  5
6F7
  8
DATA
  6
CONTINUOUS
 62
     7
 10
104.29509824817021
 20
-128.91631226712789
 30
0.0
  0
VERTEX
  5
6F8
  8
DATA
  6
CONTINUOUS
 62
     7
 10
104.2943305064895
 20
-128.85460967418521
 30
0.0
  0
VERTEX
  5
6F9
  8
DATA
  6
CONTINUOUS
 62
     7
 10
104.29338252175729
 20
-128.79255215982241
 30
0.0
  0
VERTEX
  5
6FA
  8
DATA
  6
CONTINUOUS
 62
     7
 10
104.2922542939743
 20
-128.73013972403919
 30
0.0
  0
VERTEX
  5
6FB
  8
DATA
  6
CONTINUOUS
 62
     7
 10
104.29094582313989
 20
-128.66737236683591
 30
0.0
  0
VERTEX
  5
6FC
  8
DATA
  6
CONTINUOUS
 62
     7
 10
104.2894571092549
 20
-128.60425008821241
 30
0.0
  0
VERTEX
  5
6FD
  8
DATA
  6
CONTINUOUS
 62
     7
 10
104.2877881523186
 20
-128.5407728881689
 30
0.0
  0
VERTEX
  5
6FE
  8
DATA
  6
CONTINUOUS
 62
     7
 10
104.28593895233089
 20
-128.4769407667051
 30
0.0
  0
VERTEX
  5
6FF
  8
DATA
  6
CONTINUOUS
 62
     7
 10
104.2839095092926
 20
-128.412753723821
 30
0.0
  0
VERTEX
  5
700
  8
DATA
  6
CONTINUOUS
 62
     7
 10
104.2814714208363
 20
-128.34715589291659
 30
0.0
  0
VERTEX
  5
701
  8
DATA
  6
CONTINUOUS
 62
     7
 10
104.2783962845962
 20
-128.27909140739169
 30
0.0
  0
VERTEX
  5
702
  8
DATA
  6
CONTINUOUS
 62
     7
 10
104.2746841005718
 20
-128.20856026724621
 30
0.0
  0
VERTEX
  5
703
  8
DATA
  6
CONTINUOUS
 62
     7
 10
104.2703348687641
 20
-128.13556247248019
 30
0.0
  0
VERTEX
  5
704
  8
DATA
  6
CONTINUOUS
 62
     7
 10
104.26534858917189
 20
-128.0600980230935
 30
0.0
  0
VERTEX
  5
705
  8
DATA
  6
CONTINUOUS
 62
     7
 10
104.2597252617951
 20
-127.9821669190864
 30
0.0
  0
VERTEX
  5
706
  8
DATA
  6
CONTINUOUS
 62
     7
 10
104.2534648866348
 20
-127.9017691604586
 30
0.0
  0
VERTEX
  5
707
  8
DATA
  6
CONTINUOUS
 62
     7
 10
104.2465674636905
 20
-127.8189047472103
 30
0.0
  0
VERTEX
  5
708
  8
DATA
  6
CONTINUOUS
 62
     7
 10
104.2390886347365
 20
-127.7355500443346
 30
0.0
  0
VERTEX
  5
709
  8
DATA
  6
CONTINUOUS
 62
     7
 10
104.23108404154679
 20
-127.65368141682519
 30
0.0
  0
VERTEX
  5
70A
  8
DATA
  6
CONTINUOUS
 62
     7
 10
104.22255368412139
 20
-127.5732988646818
 30
0.0
  0
VERTEX
  5
70B
  8
DATA
  6
CONTINUOUS
 62
     7
 10
104.2134975624608
 20
-127.4944023879048
 30
0.0
  0
VERTEX
  5
70C
  8
DATA
  6
CONTINUOUS
 62
     7
 10
104.20391567656399
 20
-127.4169919864937
 30
0.0
  0
VERTEX
  5
70D
  8
DATA
  6
CONTINUOUS
 62
     7
 10
104.19380802643229
 20
-127.3410676604486
 30
0.0
  0
VERTEX
  5
70E
  8
DATA
  6
CONTINUOUS
 62
     7
 10
104.1831746120646
 20
-127.26662940976971
 30
0.0
  0
VERTEX
  5
70F
  8
DATA
  6
CONTINUOUS
 62
     7
 10
104.17201543346199
 20
-127.1936772344571
 30
0.0
  0
VERTEX
  5
710
  8
DATA
  6
CONTINUOUS
 62
     7
 10
104.15991945137191
 20
-127.12117309975081
 30
0.0
  0
VERTEX
  5
711
  8
DATA
  6
CONTINUOUS
 62
     7
 10
104.146475626544
 20
-127.0480789708904
 30
0.0
  0
VERTEX
  5
712
  8
DATA
  6
CONTINUOUS
 62
     7
 10
104.131683958978
 20
-126.9743948478764
 30
0.0
  0
VERTEX
  5
713
  8
DATA
  6
CONTINUOUS
 62
     7
 10
104.1155444486739
 20
-126.90012073070869
 30
0.0
  0
VERTEX
  5
714
  8
DATA
  6
CONTINUOUS
 62
     7
 10
104.0980570956316
 20
-126.8252566193873
 30
0.0
  0
VERTEX
  5
715
  8
DATA
  6
CONTINUOUS
 62
     7
 10
104.07922189985101
 20
-126.7498025139122
 30
0.0
  0
VERTEX
  5
716
  8
DATA
  6
CONTINUOUS
 62
     7
 10
104.0590388613327
 20
-126.6737584142834
 30
0.0
  0
VERTEX
  5
717
  8
DATA
  6
CONTINUOUS
 62
     7
 10
104.037507980076
 20
-126.597124320501
 30
0.0
  0
VERTEX
  5
718
  8
DATA
  6
CONTINUOUS
 62
     7
 10
104.0145203947199
 20
-126.5243827049291
 30
0.0
  0
VERTEX
  5
719
  8
DATA
  6
CONTINUOUS
 62
     7
 10
103.9899672439025
 20
-126.4600160399314
 30
0.0
  0
VERTEX
  5
71A
  8
DATA
  6
CONTINUOUS
 62
     7
 10
103.9638485276238
 20
-126.4040243255085
 30
0.0
  0
VERTEX
  5
71B
  8
DATA
  6
CONTINUOUS
 62
     7
 10
103.9361642458845
 20
-126.3564075616604
 30
0.0
  0
VERTEX
  5
71C
  8
DATA
  6
CONTINUOUS
 62
     7
 10
103.9069143986839
 20
-126.3171657483867
 30
0.0
  0
VERTEX
  5
71D
  8
DATA
  6
CONTINUOUS
 62
     7
 10
103.876098986022
 20
-126.2862988856875
 30
0.0
  0
VERTEX
  5
71E
  8
DATA
  6
CONTINUOUS
 62
     7
 10
103.843718007899
 20
-126.26380697356289
 30
0.0
  0
VERTEX
  5
71F
  8
DATA
  6
CONTINUOUS
 62
     7
 10
103.80977146431491
 20
-126.24969001201281
 30
0.0
  0
VERTEX
  5
720
  8
DATA
  6
CONTINUOUS
 62
     7
 10
103.80977146431491
 20
-126.24969001201281
 30
0.0
  0
VERTEX
  5
721
  8
DATA
  6
CONTINUOUS
 62
     7
 10
103.7950400741324
 20
-126.24969
 30
0.0
  0
SEQEND
  5
722
  8
DATA
  6
CONTINUOUS
 62
     7
  0
POLYLINE
  5
44E
  8
DATA
  6
CONTINUOUS
 62
     7
 66
     1
 10
0.0
 20
0.0
 30
0.0
  0
VERTEX
  5
723
  8
DATA
  6
CONTINUOUS
 62
     7
 10
103.7950400741324
 20
-271.74968999999987
 30
0.0
  0
VERTEX
  5
724
  8
DATA
  6
CONTINUOUS
 62
     7
 10
103.80977146431491
 20
-271.7496899879871
 30
0.0
  0
VERTEX
  5
725
  8
DATA
  6
CONTINUOUS
 62
     7
 10
103.84415274175031
 20
-271.7360909149204
 30
0.0
  0
VERTEX
  5
726
  8
DATA
  6
CONTINUOUS
 62
     7
 10
103.8768821555679
 20
-271.71398725521158
 30
0.0
  0
VERTEX
  5
727
  8
DATA
  6
CONTINUOUS
 62
     7
 10
103.90795970576799
 20
-271.68337900886053
 30
0.0
  0
VERTEX
  5
728
  8
DATA
  6
CONTINUOUS
 62
     7
 10
103.9373853923509
 20
-271.64426617586741
 30
0.0
  0
VERTEX
  5
729
  8
DATA
  6
CONTINUOUS
 62
     7
 10
103.96515921531631
 20
-271.59664875623213
 30
0.0
  0
VERTEX
  5
72A
  8
DATA
  6
CONTINUOUS
 62
     7
 10
103.99128117466439
 20
-271.54052674995449
 30
0.0
  0
VERTEX
  5
72B
  8
DATA
  6
CONTINUOUS
 62
     7
 10
104.0157512703949
 20
-271.47590015703503
 30
0.0
  0
VERTEX
  5
72C
  8
DATA
  6
CONTINUOUS
 62
     7
 10
104.0385695025079
 20
-271.4027689774731
 30
0.0
  0
VERTEX
  5
72D
  8
DATA
  6
CONTINUOUS
 62
     7
 10
104.0599003440483
 20
-271.32571023307111
 30
0.0
  0
VERTEX
  5
72E
  8
DATA
  6
CONTINUOUS
 62
     7
 10
104.0799082680609
 20
-271.24930094563098
 30
0.0
  0
VERTEX
  5
72F
  8
DATA
  6
CONTINUOUS
 62
     7
 10
104.09859327454539
 20
-271.17354111515232
 30
0.0
  0
VERTEX
  5
730
  8
DATA
  6
CONTINUOUS
 62
     7
 10
104.115955363502
 20
-271.09843074163553
 30
0.0
  0
VERTEX
  5
731
  8
DATA
  6
CONTINUOUS
 62
     7
 10
104.1319945349307
 20
-271.02396982507997
 30
0.0
  0
VERTEX
  5
732
  8
DATA
  6
CONTINUOUS
 62
     7
 10
104.1467107888315
 20
-270.95015836548669
 30
0.0
  0
VERTEX
  5
733
  8
DATA
  6
CONTINUOUS
 62
     7
 10
104.1601041252042
 20
-270.87699636285481
 30
0.0
  0
VERTEX
  5
734
  8
DATA
  6
CONTINUOUS
 62
     7
 10
104.1721745440495
 20
-270.8044838171844
 30
0.0
  0
VERTEX
  5
735
  8
DATA
  6
CONTINUOUS
 62
     7
 10
104.1833198827903
 20
-270.73155236646608
 30
0.0
  0
VERTEX
  5
736
  8
DATA
  6
CONTINUOUS
 62
     7
 10
104.19393797885181
 20
-270.65713364869032
 30
0.0
  0
VERTEX
  5
737
  8
DATA
  6
CONTINUOUS
 62
     7
 10
104.2040288322334
 20
-270.58122766385691
 30
0.0
  0
VERTEX
  5
738
  8
DATA
  6
CONTINUOUS
 62
     7
 10
104.21359244293571
 20
-270.50383441196561
 30
0.0
  0
VERTEX
  5
739
  8
DATA
  6
CONTINUOUS
 62
     7
 10
104.2226288109582
 20
-270.42495389301661
 30
0.0
  0
VERTEX
  5
73A
  8
DATA
  6
CONTINUOUS
 62
     7
 10
104.2311379363006
 20
-270.34458610701012
 30
0.0
  0
VERTEX
  5
73B
  8
DATA
  6
CONTINUOUS
 62
     7
 10
104.2391198189638
 20
-270.2627310539458
 30
0.0
  0
VERTEX
  5
73C
  8
DATA
  6
CONTINUOUS
 62
     7
 10
104.24657445894709
 20
-270.17938873382383
 30
0.0
  0
VERTEX
  5
73D
  8
DATA
  6
CONTINUOUS
 62
     7
 10
104.2534915873259
 20
-270.09524071381401
 30
0.0
  0
VERTEX
  5
73E
  8
DATA
  6
CONTINUOUS
 62
     7
 10
104.2598609351755
 20
-270.01096856108597
 30
0.0
  0
VERTEX
  5
73F
  8
DATA
  6
CONTINUOUS
 62
     7
 10
104.26568250249549
 20
-269.92657227564013
 30
0.0
  0
VERTEX
  5
740
  8
DATA
  6
CONTINUOUS
 62
     7
 10
104.2709562892864
 20
-269.84205185747618
 30
0.0
  0
VERTEX
  5
741
  8
DATA
  6
CONTINUOUS
 62
     7
 10
104.2756822955479
 20
-269.75740730659408
 30
0.0
  0
VERTEX
  5
742
  8
DATA
  6
CONTINUOUS
 62
     7
 10
104.2798605212801
 20
-269.67263862299399
 30
0.0
  0
VERTEX
  5
743
  8
DATA
  6
CONTINUOUS
 62
     7
 10
104.2834909664832
 20
-269.58774580667591
 30
0.0
  0
VERTEX
  5
744
  8
DATA
  6
CONTINUOUS
 62
     7
 10
104.2865736311566
 20
-269.50272885763968
 30
0.0
  0
VERTEX
  5
745
  8
DATA
  6
CONTINUOUS
 62
     7
 10
104.2891645059053
 20
-269.41912195994212
 30
0.0
  0
VERTEX
  5
746
  8
DATA
  6
CONTINUOUS
 62
     7
 10
104.2913195813332
 20
-269.33845929763982
 30
0.0
  0
VERTEX
  5
747
  8
DATA
  6
CONTINUOUS
 62
     7
 10
104.29303885744091
 20
-269.26074087073289
 30
0.0
  0
VERTEX
  5
748
  8
DATA
  6
CONTINUOUS
 62
     7
 10
104.2943223342276
 20
-269.18596667922128
 30
0.0
  0
VERTEX
  5
749
  8
DATA
  6
CONTINUOUS
 62
     7
 10
104.2951700116941
 20
-269.11413672310499
 30
0.0
  0
VERTEX
  5
74A
  8
DATA
  6
CONTINUOUS
 62
     7
 10
104.29558188984009
 20
-269.04525100238408
 30
0.0
  0
VERTEX
  5
74B
  8
DATA
  6
CONTINUOUS
 62
     7
 10
104.29555796866541
 20
-268.97930951705848
 30
0.0
  0
VERTEX
  5
74C
  8
DATA
  6
CONTINUOUS
 62
     7
 10
104.29509824817021
 20
-268.91631226712821
 30
0.0
  0
VERTEX
  5
74D
  8
DATA
  6
CONTINUOUS
 62
     7
 10
104.2943305064895
 20
-268.85460967418538
 30
0.0
  0
VERTEX
  5
74E
  8
DATA
  6
CONTINUOUS
 62
     7
 10
104.29338252175729
 20
-268.79255215982238
 30
0.0
  0
VERTEX
  5
74F
  8
DATA
  6
CONTINUOUS
 62
     7
 10
104.2922542939743
 20
-268.73013972403908
 30
0.0
  0
VERTEX
  5
750
  8
DATA
  6
CONTINUOUS
 62
     7
 10
104.29094582313989
 20
-268.66737236683588
 30
0.0
  0
VERTEX
  5
751
  8
DATA
  6
CONTINUOUS
 62
     7
 10
104.2894571092549
 20
-268.6042500882125
 30
0.0
  0
VERTEX
  5
752
  8
DATA
  6
CONTINUOUS
 62
     7
 10
104.2877881523186
 20
-268.54077288816882
 30
0.0
  0
VERTEX
  5
753
  8
DATA
  6
CONTINUOUS
 62
     7
 10
104.28593895233089
 20
-268.47694076670501
 30
0.0
  0
VERTEX
  5
754
  8
DATA
  6
CONTINUOUS
 62
     7
 10
104.2839095092926
 20
-268.41275372382131
 30
0.0
  0
VERTEX
  5
755
  8
DATA
  6
CONTINUOUS
 62
     7
 10
104.2814714208363
 20
-268.34715589291659
 30
0.0
  0
VERTEX
  5
756
  8
DATA
  6
CONTINUOUS
 62
     7
 10
104.2783962845962
 20
-268.27909140739189
 30
0.0
  0
VERTEX
  5
757
  8
DATA
  6
CONTINUOUS
 62
     7
 10
104.2746841005718
 20
-268.20856026724641
 30
0.0
  0
VERTEX
  5
758
  8
DATA
  6
CONTINUOUS
 62
     7
 10
104.2703348687641
 20
-268.13556247248027
 30
0.0
  0
VERTEX
  5
759
  8
DATA
  6
CONTINUOUS
 62
     7
 10
104.26534858917189
 20
-268.06009802309359
 30
0.0
  0
VERTEX
  5
75A
  8
DATA
  6
CONTINUOUS
 62
     7
 10
104.2597252617951
 20
-267.98216691908652
 30
0.0
  0
VERTEX
  5
75B
  8
DATA
  6
CONTINUOUS
 62
     7
 10
104.2534648866348
 20
-267.9017691604588
 30
0.0
  0
VERTEX
  5
75C
  8
DATA
  6
CONTINUOUS
 62
     7
 10
104.2465674636905
 20
-267.81890474721041
 30
0.0
  0
VERTEX
  5
75D
  8
DATA
  6
CONTINUOUS
 62
     7
 10
104.2390886347365
 20
-267.73555004433462
 30
0.0
  0
VERTEX
  5
75E
  8
DATA
  6
CONTINUOUS
 62
     7
 10
104.23108404154679
 20
-267.65368141682518
 30
0.0
  0
VERTEX
  5
75F
  8
DATA
  6
CONTINUOUS
 62
     7
 10
104.22255368412139
 20
-267.57329886468187
 30
0.0
  0
VERTEX
  5
760
  8
DATA
  6
CONTINUOUS
 62
     7
 10
104.2134975624608
 20
-267.49440238790481
 30
0.0
  0
VERTEX
  5
761
  8
DATA
  6
CONTINUOUS
 62
     7
 10
104.20391567656399
 20
-267.4169919864936
 30
0.0
  0
VERTEX
  5
762
  8
DATA
  6
CONTINUOUS
 62
     7
 10
104.19380802643229
 20
-267.34106766044869
 30
0.0
  0
VERTEX
  5
763
  8
DATA
  6
CONTINUOUS
 62
     7
 10
104.1831746120646
 20
-267.26662940976979
 30
0.0
  0
VERTEX
  5
764
  8
DATA
  6
CONTINUOUS
 62
     7
 10
104.17201543346199
 20
-267.19367723445703
 30
0.0
  0
VERTEX
  5
765
  8
DATA
  6
CONTINUOUS
 62
     7
 10
104.15991945137191
 20
-267.12117309975048
 30
0.0
  0
VERTEX
  5
766
  8
DATA
  6
CONTINUOUS
 62
     7
 10
104.146475626544
 20
-267.0480789708904
 30
0.0
  0
VERTEX
  5
767
  8
DATA
  6
CONTINUOUS
 62
     7
 10
104.131683958978
 20
-266.97439484787628
 30
0.0
  0
VERTEX
  5
768
  8
DATA
  6
CONTINUOUS
 62
     7
 10
104.1155444486739
 20
-266.90012073070869
 30
0.0
  0
VERTEX
  5
769
  8
DATA
  6
CONTINUOUS
 62
     7
 10
104.0980570956316
 20
-266.82525661938718
 30
0.0
  0
VERTEX
  5
76A
  8
DATA
  6
CONTINUOUS
 62
     7
 10
104.07922189985101
 20
-266.74980251391219
 30
0.0
  0
VERTEX
  5
76B
  8
DATA
  6
CONTINUOUS
 62
     7
 10
104.0590388613327
 20
-266.67375841428361
 30
0.0
  0
VERTEX
  5
76C
  8
DATA
  6
CONTINUOUS
 62
     7
 10
104.037507980076
 20
-266.59712432050122
 30
0.0
  0
VERTEX
  5
76D
  8
DATA
  6
CONTINUOUS
 62
     7
 10
104.0145203947199
 20
-266.52438270492922
 30
0.0
  0
VERTEX
  5
76E
  8
DATA
  6
CONTINUOUS
 62
     7
 10
103.9899672439025
 20
-266.4600160399317
 30
0.0
  0
VERTEX
  5
76F
  8
DATA
  6
CONTINUOUS
 62
     7
 10
103.9638485276238
 20
-266.40402432550877
 30
0.0
  0
VERTEX
  5
770
  8
DATA
  6
CONTINUOUS
 62
     7
 10
103.9361642458845
 20
-266.35640756166049
 30
0.0
  0
VERTEX
  5
771
  8
DATA
  6
CONTINUOUS
 62
     7
 10
103.9069143986839
 20
-266.31716574838669
 30
0.0
  0
VERTEX
  5
772
  8
DATA
  6
CONTINUOUS
 62
     7
 10
103.876098986022
 20
-266.28629888568759
 30
0.0
  0
VERTEX
  5
773
  8
DATA
  6
CONTINUOUS
 62
     7
 10
103.843718007899
 20
-266.26380697356268
 30
0.0
  0
VERTEX
  5
774
  8
DATA
  6
CONTINUOUS
 62
     7
 10
103.80977146431491
 20
-266.24969001201282
 30
0.0
  0
VERTEX
  5
775
  8
DATA
  6
CONTINUOUS
 62
     7
 10
103.80977146431491
 20
-266.24969001201282
 30
0.0
  0
VERTEX
  5
776
  8
DATA
  6
CONTINUOUS
 62
     7
 10
103.7950400741324
 20
-266.24968999999987
 30
0.0
  0
SEQEND
  5
777
  8
DATA
  6
CONTINUOUS
 62
     7
  0
LINE
  5
4A4
  8
DATA
  6
CONTINUOUS
 62
     7
 10
121.9819999999995
 20
41.118000000000173
 30
0.0
 11
126.0179999999995
 21
41.118000000000173
 31
0.0
  0
LINE
  5
4A5
  8
DATA
  6
CONTINUOUS
 62
     7
 10
126.0179999999995
 20
35.081999999999987
 30
0.0
 11
121.9819999999995
 21
35.081999999999987
 31
0.0
  0
LINE
  5
4A6
  8
DATA
  6
CONTINUOUS
 62
     7
 10
121.9819999999995
 20
9.3679999999998245
 30
0.0
 11
126.0179999999995
 21
9.3679999999998245
 31
0.0
  0
ARC
  5
4A7
  8
DATA
  6
CONTINUOUS
 62
     7
 10
126.0179999999995
 20
38.100000000000009
 30
0.0
 40
3.0180000000000282
 50
270.0
 51
90.0
  0
ARC
  5
4A8
  8
DATA
  6
CONTINUOUS
 62
     7
 10
121.9819999999995
 20
38.100000000000009
 30
0.0
 40
3.0180000000000282
 50
90.0
 51
270.0
  0
ARC
  5
4A9
  8
DATA
  6
CONTINUOUS
 62
     7
 10
-5.9000000000001052
 20
37.100000000000009
 30
0.0
 40
1.75
 50
0.0
 51
180.0
  0
ARC
  5
4AA
  8
DATA
  6
CONTINUOUS
 62
     7
 10
21.349999999999891
 20
24.497785000000022
 30
0.0
 40
4.0
 50
0.0
 51
164.0049829999991
  0
ARC
  5
4AB
  8
DATA
  6
CONTINUOUS
 62
     7
 10
-2.4000000000003321
 20
37.100000000000009
 30
0.0
 40
1.75
 50
180.0
 51
0.0
  0
LINE
  5
4AC
  8
DATA
  6
CONTINUOUS
 62
     7
 10
-8.6500000000003325
 20
17.100000000000019
 30
0.0
 11
0.3499999999998948
 21
17.100000000000019
 31
0.0
  0
ARC
  5
4AD
  8
DATA
  6
CONTINUOUS
 62
     7
 10
-4.1500000000003316
 20
22.100000000000019
 30
0.0
 40
3.5
 50
180.0
 51
0.0
  0
LINE
  5
4AE
  8
DATA
  6
CONTINUOUS
 62
     7
 10
-20.399730000000329
 20
21.599929999999851
 30
0.0
 11
-26.90026000000012
 21
21.599929999999851
 31
0.0
  0
LINE
  5
4AF
  8
DATA
  6
CONTINUOUS
 62
     7
 10
-20.399730000000329
 20
22.59997999999996
 30
0.0
 11
-20.399730000000329
 21
21.599929999999851
 31
0.0
  0
LINE
  5
4B0
  8
DATA
  6
CONTINUOUS
 62
     7
 10
-26.90026000000012
 20
22.59997999999996
 30
0.0
 11
-20.399730000000329
 21
22.59997999999996
 31
0.0
  0
LINE
  5
4B1
  8
DATA
  6
CONTINUOUS
 62
     7
 10
3.8499999999998948
 20
18.600000000000019
 30
0.0
 11
3.8499999999998948
 21
22.100000000000019
 31
0.0
  0
LINE
  5
4B2
  8
DATA
  6
CONTINUOUS
 62
     7
 10
-46.650000000000098
 20
18.39999999999997
 30
0.0
 11
-54.250000000000021
 21
18.39999999999997
 31
0.0
  0
LINE
  5
4B3
  8
DATA
  6
CONTINUOUS
 62
     7
 10
0.3499999999998948
 20
17.100000000000019
 30
0.0
 11
0.3499999999998948
 21
21.100000000000019
 31
0.0
  0
LINE
  5
4B4
  8
DATA
  6
CONTINUOUS
 62
     7
 10
-26.90026000000012
 20
21.599929999999851
 30
0.0
 11
-26.90026000000012
 21
22.59997999999996
 31
0.0
  0
LINE
  5
4B5
  8
DATA
  6
CONTINUOUS
 62
     7
 10
-8.6500000000003325
 20
17.100000000000019
 30
0.0
 11
-8.6500000000003325
 21
21.100000000000019
 31
0.0
  0
ARC
  5
4B6
  8
DATA
  6
CONTINUOUS
 62
     7
 10
-54.750000000000021
 20
19.5
 30
0.0
 40
0.5
 50
0.0
 51
180.0
  0
ARC
  5
4B7
  8
DATA
  6
CONTINUOUS
 62
     7
 10
21.349999999999891
 20
22.497785000000128
 30
0.0
 40
3.999999999999996
 50
185.70728399999999
 51
0.0
  0
LINE
  5
4B8
  8
DATA
  6
CONTINUOUS
 62
     7
 10
17.369827999999849
 20
22.100000000000019
 30
0.0
 11
3.8499999999998948
 21
22.100000000000019
 31
0.0
  0
LINE
  5
4B9
  8
DATA
  6
CONTINUOUS
 62
     7
 10
-7.6500000000001052
 20
22.100000000000019
 30
0.0
 11
-7.6500000000001052
 21
37.100000000000009
 31
0.0
  0
CIRCLE
  5
4BA
  8
DATA
  6
CONTINUOUS
 62
     7
 10
-23.650000000000102
 20
22.100000000000019
 30
0.0
 40
6.5005300000002526
  0
CIRCLE
  5
4BB
  8
DATA
  6
CONTINUOUS
 62
     7
 10
-23.650000000000102
 20
22.100000000000019
 30
0.0
 40
4.5003500000002532
  0
ARC
  5
4BC
  8
DATA
  6
CONTINUOUS
 62
     7
 10
-4.1500000000003316
 20
21.100000000000019
 30
0.0
 40
4.500000000000024
 50
141.0575590000002
 51
180.0
  0
LINE
  5
4BD
  8
DATA
  6
CONTINUOUS
 62
     7
 10
25.349999999999891
 20
22.497785000000128
 30
0.0
 11
25.349999999999891
 21
24.497785000000022
 31
0.0
  0
LINE
  5
4BE
  8
DATA
  6
CONTINUOUS
 62
     7
 10
-12.150000000000331
 20
24.60000000000014
 30
0.0
 11
-12.150000000000331
 21
18.600000000000019
 31
0.0
  0
ARC
  5
4BF
  8
DATA
  6
CONTINUOUS
 62
     7
 10
-4.1500000000003316
 20
21.100000000000019
 30
0.0
 40
4.5
 50
0.0
 51
38.942440999999803
  0
LINE
  5
4C0
  8
DATA
  6
CONTINUOUS
 62
     7
 10
-0.6500000000003327
 20
22.100000000000019
 30
0.0
 11
-0.6500000000003327
 21
37.100000000000009
 31
0.0
  0
LINE
  5
4C1
  8
DATA
  6
CONTINUOUS
 62
     7
 10
-52.500000000000242
 20
12.5
 30
0.0
 11
-48.500000000000469
 21
12.5
 31
0.0
  0
CIRCLE
  5
4C2
  8
DATA
  6
CONTINUOUS
 62
     7
 10
-50.500000000000462
 20
12.5
 30
0.0
 40
3.5
  0
LINE
  5
4C3
  8
DATA
  6
CONTINUOUS
 62
     7
 10
-50.500000000000462
 20
14.5
 30
0.0
 11
-50.500000000000462
 21
10.5
 31
0.0
  0
LINE
  5
4C4
  8
DATA
  6
CONTINUOUS
 62
     7
 10
126.0179999999995
 20
3.3319999999999932
 30
0.0
 11
121.9819999999995
 21
3.3319999999999932
 31
0.0
  0
ARC
  5
4C5
  8
DATA
  6
CONTINUOUS
 62
     7
 10
100.2499999999999
 20
2.0
 30
0.0
 40
2.0
 50
270.0
 51
0.0
  0
ARC
  5
4C6
  8
DATA
  6
CONTINUOUS
 62
     7
 10
100.2499999999999
 20
2.0
 30
0.0
 40
0.3999999999999773
 50
270.0
 51
0.0
  0
LINE
  5
4C7
  8
DATA
  6
CONTINUOUS
 62
     7
 10
-54.250000000000021
 20
6.6000000000001364
 30
0.0
 11
-46.650000000000098
 21
6.6000000000001364
 31
0.0
  0
ARC
  5
4C8
  8
DATA
  6
CONTINUOUS
 62
     7
 10
-54.750000000000021
 20
5.5
 30
0.0
 40
0.5
 50
180.0
 51
0.0
  0
LINE
  5
4C9
  8
DATA
  6
CONTINUOUS
 62
     7
 10
-56.000000000000021
 20
8.2500000000001137
 30
0.0
 11
-56.000000000000021
 21
16.75
 31
0.0
  0
LINE
  5
4CA
  8
DATA
  6
CONTINUOUS
 62
     7
 10
-54.250000000000021
 20
19.5
 30
0.0
 11
-54.250000000000021
 21
5.5
 31
0.0
  0
LINE
  5
4CB
  8
DATA
  6
CONTINUOUS
 62
     7
 10
-55.250000000000021
 20
19.5
 30
0.0
 11
-55.250000000000021
 21
5.5
 31
0.0
  0
LINE
  5
4CC
  8
DATA
  6
CONTINUOUS
 62
     7
 10
-46.650000000000098
 20
6.6000000000001364
 30
0.0
 11
-46.650000000000098
 21
18.39999999999997
 31
0.0
  0
LINE
  5
4CD
  8
DATA
  6
CONTINUOUS
 62
     7
 10
102.2499999999999
 20
2.0
 30
0.0
 11
102.2499999999999
 21
44.503729999999791
 31
0.0
  0
LINE
  5
4CE
  8
DATA
  6
CONTINUOUS
 62
     7
 10
132.99999999999949
 20
44.449999999999811
 30
0.0
 11
132.99999999999949
 21
0.0
 31
0.0
  0
LINE
  5
4CF
  8
DATA
  6
CONTINUOUS
 62
     7
 10
104.4999999999997
 20
0.0
 30
0.0
 11
104.4999999999997
 21
44.503729999999791
 31
0.0
  0
LINE
  5
4D0
  8
DATA
  6
CONTINUOUS
 62
     7
 10
100.64999999999981
 20
2.0
 30
0.0
 11
100.64999999999981
 21
44.503729999999791
 31
0.0
  0
ARC
  5
4D1
  8
DATA
  6
CONTINUOUS
 62
     7
 10
126.0179999999995
 20
6.3500000000000227
 30
0.0
 40
3.0180000000000282
 50
270.0
 51
90.0
  0
ARC
  5
4D2
  8
DATA
  6
CONTINUOUS
 62
     7
 10
121.9819999999995
 20
6.3500000000000227
 30
0.0
 40
3.0180000000000282
 50
90.0
 51
270.0
  0
POLYLINE
  5
4D3
  8
DATA
  6
CONTINUOUS
 62
     7
 66
     1
 10
0.0
 20
0.0
 30
0.0
  0
VERTEX
  5
778
  8
DATA
  6
CONTINUOUS
 62
     7
 10
-12.150000000000331
 20
18.600000210734262
 30
0.0
  0
VERTEX
  5
779
  8
DATA
  6
CONTINUOUS
 62
     7
 10
-12.150000013245529
 20
18.403581660404711
 30
0.0
  0
VERTEX
  5
77A
  8
DATA
  6
CONTINUOUS
 62
     7
 10
-12.128293669747119
 20
18.251319585938521
 30
0.0
  0
VERTEX
  5
77B
  8
DATA
  6
CONTINUOUS
 62
     7
 10
-12.10115105215187
 20
18.098299573062491
 30
0.0
  0
VERTEX
  5
77C
  8
DATA
  6
CONTINUOUS
 62
     7
 10
-12.06857216046002
 20
17.944521621776399
 30
0.0
  0
VERTEX
  5
77D
  8
DATA
  6
CONTINUOUS
 62
     7
 10
-12.030556994671549
 20
17.789985732079909
 30
0.0
  0
VERTEX
  5
77E
  8
DATA
  6
CONTINUOUS
 62
     7
 10
-11.9871055547867
 20
17.6346919039737
 30
0.0
  0
VERTEX
  5
77F
  8
DATA
  6
CONTINUOUS
 62
     7
 10
-11.93821784080502
 20
17.478640137457319
 30
0.0
  0
VERTEX
  5
780
  8
DATA
  6
CONTINUOUS
 62
     7
 10
-11.883893852726951
 20
17.321830432530529
 30
0.0
  0
VERTEX
  5
781
  8
DATA
  6
CONTINUOUS
 62
     7
 10
-11.824133590552281
 20
17.164262789193909
 30
0.0
  0
VERTEX
  5
782
  8
DATA
  6
CONTINUOUS
 62
     7
 10
-11.75583653209652
 20
17.007273022913179
 30
0.0
  0
VERTEX
  5
783
  8
DATA
  6
CONTINUOUS
 62
     7
 10
-11.675902155175219
 20
16.852196949153949
 30
0.0
  0
VERTEX
  5
784
  8
DATA
  6
CONTINUOUS
 62
     7
 10
-11.584330459789051
 20
16.699034567916549
 30
0.0
  0
VERTEX
  5
785
  8
DATA
  6
CONTINUOUS
 62
     7
 10
-11.481121445937569
 20
16.547785879200539
 30
0.0
  0
VERTEX
  5
786
  8
DATA
  6
CONTINUOUS
 62
     7
 10
-11.36627511362077
 20
16.398450883006479
 30
0.0
  0
VERTEX
  5
787
  8
DATA
  6
CONTINUOUS
 62
     7
 10
-11.239791462838649
 20
16.25102957933381
 30
0.0
  0
VERTEX
  5
788
  8
DATA
  6
CONTINUOUS
 62
     7
 10
-11.10167049359144
 20
16.105521968182639
 30
0.0
  0
VERTEX
  5
789
  8
DATA
  6
CONTINUOUS
 62
     7
 10
-10.95191220587845
 20
15.96192804955364
 30
0.0
  0
VERTEX
  5
78A
  8
DATA
  6
CONTINUOUS
 62
     7
 10
-10.793626901198889
 20
15.82049741056016
 30
0.0
  0
VERTEX
  5
78B
  8
DATA
  6
CONTINUOUS
 62
     7
 10
-10.629924881049879
 20
15.681479638316651
 30
0.0
  0
VERTEX
  5
78C
  8
DATA
  6
CONTINUOUS
 62
     7
 10
-10.460806145431899
 20
15.544874732823351
 30
0.0
  0
VERTEX
  5
78D
  8
DATA
  6
CONTINUOUS
 62
     7
 10
-10.286270694345159
 20
15.41068269407992
 30
0.0
  0
VERTEX
  5
78E
  8
DATA
  6
CONTINUOUS
 62
     7
 10
-10.10631852778943
 20
15.278903522086351
 30
0.0
  0
VERTEX
  5
78F
  8
DATA
  6
CONTINUOUS
 62
     7
 10
-9.9209496457647361
 20
15.1495372168431
 30
0.0
  0
VERTEX
  5
790
  8
DATA
  6
CONTINUOUS
 62
     7
 10
-9.7301640482708223
 20
15.022583778349709
 30
0.0
  0
VERTEX
  5
791
  8
DATA
  6
CONTINUOUS
 62
     7
 10
-9.5339617353079262
 20
14.8980432066063
 30
0.0
  0
VERTEX
  5
792
  8
DATA
  6
CONTINUOUS
 62
     7
 10
-9.3320970347988474
 20
14.77812406029431
 30
0.0
  0
VERTEX
  5
793
  8
DATA
  6
CONTINUOUS
 62
     7
 10
-9.1243242746659359
 20
14.665034898095421
 30
0.0
  0
VERTEX
  5
794
  8
DATA
  6
CONTINUOUS
 62
     7
 10
-8.9106434549098736
 20
14.55877572000929
 30
0.0
  0
VERTEX
  5
795
  8
DATA
  6
CONTINUOUS
 62
     7
 10
-8.6910545755297477
 20
14.45934652603591
 30
0.0
  0
VERTEX
  5
796
  8
DATA
  6
CONTINUOUS
 62
     7
 10
-8.4655576365262437
 20
14.36674731617563
 30
0.0
  0
VERTEX
  5
797
  8
DATA
  6
CONTINUOUS
 62
     7
 10
-8.2341526378991272
 20
14.2809780904281
 30
0.0
  0
VERTEX
  5
798
  8
DATA
  6
CONTINUOUS
 62
     7
 10
-7.9968395796481797
 20
14.202038848793441
 30
0.0
  0
VERTEX
  5
799
  8
DATA
  6
CONTINUOUS
 62
     7
 10
-7.7536184617740807
 20
14.129929591272001
 30
0.0
  0
VERTEX
  5
79A
  8
DATA
  6
CONTINUOUS
 62
     7
 10
-7.5073225197948119
 20
14.063141298019209
 30
0.0
  0
VERTEX
  5
79B
  8
DATA
  6
CONTINUOUS
 62
     7
 10
-7.2607849892301743
 20
14.000164949191451
 30
0.0
  0
VERTEX
  5
79C
  8
DATA
  6
CONTINUOUS
 62
     7
 10
-7.0140058700794867
 20
13.94100054478894
 30
0.0
  0
VERTEX
  5
79D
  8
DATA
  6
CONTINUOUS
 62
     7
 10
-6.7669851623432029
 20
13.88564808481123
 30
0.0
  0
VERTEX
  5
79E
  8
DATA
  6
CONTINUOUS
 62
     7
 10
-6.5197228660217803
 20
13.83410756925854
 30
0.0
  0
VERTEX
  5
79F
  8
DATA
  6
CONTINUOUS
 62
     7
 10
-6.272218981113852
 20
13.786378998130999
 30
0.0
  0
VERTEX
  5
7A0
  8
DATA
  6
CONTINUOUS
 62
     7
 10
-6.0244735076205549
 20
13.742462371428701
 30
0.0
  0
VERTEX
  5
7A1
  8
DATA
  6
CONTINUOUS
 62
     7
 10
-5.7764864455416642
 20
13.702357689151309
 30
0.0
  0
VERTEX
  5
7A2
  8
DATA
  6
CONTINUOUS
 62
     7
 10
-5.5288954566645003
 20
13.66731130208791
 30
0.0
  0
VERTEX
  5
7A3
  8
DATA
  6
CONTINUOUS
 62
     7
 10
-5.2823382027763861
 20
13.638569561028129
 30
0.0
  0
VERTEX
  5
7A4
  8
DATA
  6
CONTINUOUS
 62
     7
 10
-5.0368146838777781
 20
13.61613246597209
 30
0.0
  0
VERTEX
  5
7A5
  8
DATA
  6
CONTINUOUS
 62
     7
 10
-4.7923248999677659
 20
13.6000000169198
 30
0.0
  0
VERTEX
  5
7A6
  8
DATA
  6
CONTINUOUS
 62
     7
 10
-4.548868851047259
 20
13.59017221387103
 30
0.0
  0
VERTEX
  5
7A7
  8
DATA
  6
CONTINUOUS
 62
     7
 10
-4.3064465371162566
 20
13.58664905682576
 30
0.0
  0
VERTEX
  5
7A8
  8
DATA
  6
CONTINUOUS
 62
     7
 10
-4.0650579581740791
 20
13.58943054578401
 30
0.0
  0
VERTEX
  5
7A9
  8
DATA
  6
CONTINUOUS
 62
     7
 10
-3.8247031142209522
 20
13.598516680745879
 30
0.0
  0
VERTEX
  5
7AA
  8
DATA
  6
CONTINUOUS
 62
     7
 10
-3.5840642734474519
 20
13.612415308579211
 30
0.0
  0
VERTEX
  5
7AB
  8
DATA
  6
CONTINUOUS
 62
     7
 10
-3.3418237040432501
 20
13.62963427615159
 30
0.0
  0
VERTEX
  5
7AC
  8
DATA
  6
CONTINUOUS
 62
     7
 10
-3.0979814060083442
 20
13.65017358346301
 30
0.0
  0
VERTEX
  5
7AD
  8
DATA
  6
CONTINUOUS
 62
     7
 10
-2.852537379342734
 20
13.674033230513601
 30
0.0
  0
VERTEX
  5
7AE
  8
DATA
  6
CONTINUOUS
 62
     7
 10
-2.6054916240468762
 20
13.701213217303341
 30
0.0
  0
VERTEX
  5
7AF
  8
DATA
  6
CONTINUOUS
 62
     7
 10
-2.3568441401198599
 20
13.73171354383191
 30
0.0
  0
VERTEX
  5
7B0
  8
DATA
  6
CONTINUOUS
 62
     7
 10
-2.1065949275625959
 20
13.76553421009964
 30
0.0
  0
VERTEX
  5
7B1
  8
DATA
  6
CONTINUOUS
 62
     7
 10
-1.854743986374628
 20
13.80267521610676
 30
0.0
  0
VERTEX
  5
7B2
  8
DATA
  6
CONTINUOUS
 62
     7
 10
-1.598730131866446
 20
13.84723508438082
 30
0.0
  0
VERTEX
  5
7B3
  8
DATA
  6
CONTINUOUS
 62
     7
 10
-1.335992179348082
 20
13.90331233745041
 30
0.0
  0
VERTEX
  5
7B4
  8
DATA
  6
CONTINUOUS
 62
     7
 10
-1.0665301288199911
 20
13.9709069753153
 30
0.0
  0
VERTEX
  5
7B5
  8
DATA
  6
CONTINUOUS
 62
     7
 10
-0.790343980281719
 20
14.0500189979756
 30
0.0
  0
VERTEX
  5
7B6
  8
DATA
  6
CONTINUOUS
 62
     7
 10
-0.5074337337341746
 20
14.140648405431421
 30
0.0
  0
VERTEX
  5
7B7
  8
DATA
  6
CONTINUOUS
 62
     7
 10
-0.217799389175994
 20
14.242795197682311
 30
0.0
  0
VERTEX
  5
7B8
  8
DATA
  6
CONTINUOUS
 62
     7
 10
0.0785590533914586
 20
14.35645937472872
 30
0.0
  0
VERTEX
  5
7B9
  8
DATA
  6
CONTINUOUS
 62
     7
 10
0.3816415939690927
 20
14.481640936570439
 30
0.0
  0
VERTEX
  5
7BA
  8
DATA
  6
CONTINUOUS
 62
     7
 10
0.6819607019219661
 20
14.6163844606026
 30
0.0
  0
VERTEX
  5
7BB
  8
DATA
  6
CONTINUOUS
 62
     7
 10
0.9700288466151366
 20
14.758734524219561
 30
0.0
  0
VERTEX
  5
7BC
  8
DATA
  6
CONTINUOUS
 62
     7
 10
1.245846028048603
 20
14.908691127421539
 30
0.0
  0
VERTEX
  5
7BD
  8
DATA
  6
CONTINUOUS
 62
     7
 10
1.509412246222595
 20
15.066254270208439
 30
0.0
  0
VERTEX
  5
7BE
  8
DATA
  6
CONTINUOUS
 62
     7
 10
1.760727501136883
 20
15.23142395258037
 30
0.0
  0
VERTEX
  5
7BF
  8
DATA
  6
CONTINUOUS
 62
     7
 10
1.999791792791469
 20
15.4042001745372
 30
0.0
  0
VERTEX
  5
7C0
  8
DATA
  6
CONTINUOUS
 62
     7
 10
2.2266051211863518
 20
15.584582936078959
 30
0.0
  0
VERTEX
  5
7C1
  8
DATA
  6
CONTINUOUS
 62
     7
 10
2.441167486321759
 20
15.772572237205839
 30
0.0
  0
VERTEX
  5
7C2
  8
DATA
  6
CONTINUOUS
 62
     7
 10
2.640476533816567
 20
15.96219266541936
 30
0.0
  0
VERTEX
  5
7C3
  8
DATA
  6
CONTINUOUS
 62
     7
 10
2.8215299092901058
 20
16.147468808221099
 30
0.0
  0
VERTEX
  5
7C4
  8
DATA
  6
CONTINUOUS
 62
     7
 10
2.9843276127421481
 20
16.328400665611412
 30
0.0
  0
VERTEX
  5
7C5
  8
DATA
  6
CONTINUOUS
 62
     7
 10
3.1288696441724682
 20
16.504988237590169
 30
0.0
  0
VERTEX
  5
7C6
  8
DATA
  6
CONTINUOUS
 62
     7
 10
3.2551560035812912
 20
16.67723152415692
 30
0.0
  0
VERTEX
  5
7C7
  8
DATA
  6
CONTINUOUS
 62
     7
 10
3.363186690969072
 20
16.845130525312349
 30
0.0
  0
VERTEX
  5
7C8
  8
DATA
  6
CONTINUOUS
 62
     7
 10
3.452961706335131
 20
17.008685241056011
 30
0.0
  0
VERTEX
  5
7C9
  8
DATA
  6
CONTINUOUS
 62
     7
 10
3.524481049679693
 20
17.167895671388351
 30
0.0
  0
VERTEX
  5
7CA
  8
DATA
  6
CONTINUOUS
 62
     7
 10
3.584159851988701
 20
17.32461176005426
 30
0.0
  0
VERTEX
  5
7CB
  8
DATA
  6
CONTINUOUS
 62
     7
 10
3.638413244247872
 20
17.480683450799571
 30
0.0
  0
VERTEX
  5
7CC
  8
DATA
  6
CONTINUOUS
 62
     7
 10
3.6872412264569761
 20
17.636110743624151
 30
0.0
  0
VERTEX
  5
7CD
  8
DATA
  6
CONTINUOUS
 62
     7
 10
3.7306437986162408
 20
17.790893638528019
 30
0.0
  0
VERTEX
  5
7CE
  8
DATA
  6
CONTINUOUS
 62
     7
 10
3.7686209607256691
 20
17.945032135511038
 30
0.0
  0
VERTEX
  5
7CF
  8
DATA
  6
CONTINUOUS
 62
     7
 10
3.8011727127850321
 20
18.098526234573558
 30
0.0
  0
VERTEX
  5
7D0
  8
DATA
  6
CONTINUOUS
 62
     7
 10
3.828299054794555
 20
18.251375935715139
 30
0.0
  0
VERTEX
  5
7D1
  8
DATA
  6
CONTINUOUS
 62
     7
 10
3.8499999867544679
 20
18.403581238936109
 30
0.0
  0
VERTEX
  5
7D2
  8
DATA
  6
CONTINUOUS
 62
     7
 10
3.8499999867544679
 20
18.403581238936109
 30
0.0
  0
VERTEX
  5
7D3
  8
DATA
  6
CONTINUOUS
 62
     7
 10
3.849999999999667
 20
18.59999978926589
 30
0.0
  0
SEQEND
  5
7D4
  8
DATA
  6
CONTINUOUS
 62
     7
  0
ARC
  5
531
  8
DATA
  6
CONTINUOUS
 62
     7
 10
-5.1460500848470607
 20
24.34863457579274
 30
0.0
 40
7.0084591024318641
 50
110.9329619943245
 51
177.94458849564651
  0
ARC
  5
532
  8
DATA
  6
CONTINUOUS
 62
     7
 10
-3.1539499151531478
 20
24.34863457579274
 30
0.0
 40
7.0084591024319538
 50
10.285354762286451
 51
69.067038005675485
  0
LINE
  5
533
  8
DATA
  6
CONTINUOUS
 62
     7
 10
3.7418882185011029
 20
25.60000000000014
 30
0.0
 11
17.50485699999988
 21
25.60000000000014
 31
0.0
  0
LINE
  5
534
  8
DATA
  6
CONTINUOUS
 62
     7
 10
421.0000799999998
 20
-500.0
 30
0.0
 11
205.0
 21
-500.0
 31
0.0
  0
LINE
  5
535
  8
DATA
  6
CONTINUOUS
 62
     7
 10
205.0
 20
-455.54564999999991
 30
0.0
 11
421.0000799999998
 21
-455.54564999999991
 31
0.0
  0
LINE
  5
536
  8
DATA
  6
CONTINUOUS
 62
     7
 10
208.0
 20
-500.0
 30
0.0
 11
208.0
 21
-455.54564999999991
 31
0.0
  0
LINE
  5
537
  8
DATA
  6
CONTINUOUS
 62
     7
 10
205.0
 20
-500.0
 30
0.0
 11
205.0
 21
-455.54564999999991
 31
0.0
  0
LINE
  5
538
  8
DATA
  6
CONTINUOUS
 62
     7
 10
205.0
 20
-487.55000000000001
 30
0.0
 11
192.5
 21
-487.55000000000001
 31
0.0
  0
LINE
  5
539
  8
DATA
  6
CONTINUOUS
 62
     7
 10
205.0
 20
-468.55000000000001
 30
0.0
 11
192.5
 21
-468.55000000000001
 31
0.0
  0
ARC
  5
53A
  8
DATA
  6
CONTINUOUS
 62
     7
 10
196.14966300000009
 20
-475.95288399999993
 30
0.0
 40
8.8503369999999322
 50
303.23264000000052
 51
56.767361000001728
  0
LINE
  5
53B
  8
DATA
  6
CONTINUOUS
 62
     7
 10
201.0
 20
-483.35576900000001
 30
0.0
 11
192.5
 21
-483.35576900000001
 31
0.0
  0
LINE
  5
53C
  8
DATA
  6
CONTINUOUS
 62
     7
 10
192.5
 20
-487.55000000000001
 30
0.0
 11
192.5
 21
-468.55000000000001
 31
0.0
  0
LINE
  5
53D
  8
DATA
  6
CONTINUOUS
 62
     7
 10
201.0
 20
-468.55000000000001
 30
0.0
 11
201.0
 21
-483.35576900000001
 31
0.0
  0
LINE
  5
53E
  8
DATA
  6
CONTINUOUS
 62
     7
 10
225.0
 20
-500.0
 30
0.0
 11
225.0
 21
-455.54564999999991
 31
0.0
  0
CIRCLE
  5
53F
  8
DATA
  6
CONTINUOUS
 62
     7
 10
219.00022999999999
 20
-493.52286499999991
 30
0.0
 40
2.75
  0
CIRCLE
  5
540
  8
DATA
  6
CONTINUOUS
 62
     7
 10
219.00022999999999
 20
-493.52286499999991
 30
0.0
 40
1.75
  0
CIRCLE
  5
541
  8
DATA
  6
CONTINUOUS
 62
     7
 10
219.00022999999999
 20
-462.02286500000002
 30
0.0
 40
1.75
  0
CIRCLE
  5
542
  8
DATA
  6
CONTINUOUS
 62
     7
 10
219.00022999999999
 20
-462.02286500000002
 30
0.0
 40
2.75
  0
LINE
  5
543
  8
DATA
  6
CONTINUOUS
 62
     7
 10
236.0003099999999
 20
-490.74977999999987
 30
0.0
 11
236.0003099999999
 21
-494.25015000000002
 31
0.0
  0
CIRCLE
  5
544
  8
DATA
  6
CONTINUOUS
 62
     7
 10
236.0003099999999
 20
-492.49999999999989
 30
0.0
 40
3.25
  0
LINE
  5
545
  8
DATA
  6
CONTINUOUS
 62
     7
 10
234.25015999999999
 20
-492.49999999999989
 30
0.0
 11
237.7504600000002
 21
-492.49999999999989
 31
0.0
  0
LINE
  5
546
  8
DATA
  6
CONTINUOUS
 62
     7
 10
421.0000799999998
 20
-455.54564999999991
 30
0.0
 11
421.0000799999998
 21
-500.0
 31
0.0
  0
LINE
  5
547
  8
DATA
  6
CONTINUOUS
 62
     7
 10
374.25015999999999
 20
-490.0
 30
0.0
 11
377.75045999999969
 21
-490.0
 31
0.0
  0
CIRCLE
  5
548
  8
DATA
  6
CONTINUOUS
 62
     7
 10
376.00030999999979
 20
-462.0
 30
0.0
 40
3.25
  0
CIRCLE
  5
549
  8
DATA
  6
CONTINUOUS
 62
     7
 10
376.00030999999979
 20
-490.0
 30
0.0
 40
3.25
  0
LINE
  5
54A
  8
DATA
  6
CONTINUOUS
 62
     7
 10
376.00030999999979
 20
-488.24977999999999
 30
0.0
 11
376.00030999999979
 21
-491.75015000000008
 31
0.0
  0
LINE
  5
54B
  8
DATA
  6
CONTINUOUS
 62
     7
 10
374.25015999999999
 20
-462.0
 30
0.0
 11
377.75045999999969
 21
-462.0
 31
0.0
  0
LINE
  5
54C
  8
DATA
  6
CONTINUOUS
 62
     7
 10
376.00030999999979
 20
-460.2497800000001
 30
0.0
 11
376.00030999999979
 21
-463.75015000000002
 31
0.0
  0
TEXT
  5
54D
  8
DATA
  6
CONTINUOUS
 62
     7
 10
475.0
 20
-672.75777749999997
 30
0.0
 40
19.050000000000001
  1
Amcron
 41
0.85
 11
475.0
 21
-653.70777750000002
 31
0.0
 73
     3
  0
TEXT
  5
54E
  8
DATA
  6
CONTINUOUS
 62
     7
 10
475.0
 20
-719.04999999999995
 30
0.0
 40
19.050000000000001
  1
D-75A&D-45
 41
0.85
 11
475.0
 21
-700.0
 31
0.0
 73
     3
  0
ENDSEC
  0
EOF
