  0
SECTION
  2
HEADER
  9
$ACADVER
  1
AC1004
  9
$INSBASE
 10
0.0
 20
0.0
  9
$EXTMIN
 10
-13.234667
 20
-13.79
  9
$EXTMAX
 10
406.765333
 20
580.21
  9
$LIMMIN
 10
-13.234667
 20
-13.79
  9
$LIMMAX
 10
406.765333
 20
580.21
  9
$VIEWCTR
 10
6.0
 20
4.5
  9
$VIEWSIZE
 40
9.0
  9
$SNAPMODE
 70
     0
  9
$SNAPUNIT
 10
12.5
 20
12.5
  9
$SNAPBASE
 10
0.0
 20
0.0
  9
$SNAPANG
 50
0.0
  9
$SNAPSTYLE
 70
     0
  9
$SNAPISOPAIR
 70
     0
  9
$GRIDMODE
 70
     1
  9
$GRIDUNIT
 10
25.0
 20
25.0
  9
$ORTHOMODE
 70
     0
  9
$REGENMODE
 70
     1
  9
$FILLMODE
 70
     1
  9
$QTEXTMODE
 70
     0
  9
$DRAGMODE
 70
     2
  9
$LTSCALE
 40
1.0
  9
$OSMODE
 70
     1
  9
$ATTMODE
 70
     1
  9
$TEXTSIZE
 40
0.2
  9
$TRACEWID
 40
0.05
  9
$TEXTSTYLE
  7
STANDARD
  9
$CLAYER
  8
DATA
  9
$CELTYPE
  6
CONTINUOUS
  9
$CECOLOR
 62
     7
  9
$DIMSCALE
 40
1.0
  9
$DIMASZ
 40
0.18
  9
$DIMEXO
 40
0.0625
  9
$DIMDLI
 40
0.38
  9
$DIMRND
 40
0.0
  9
$DIMDLE
 40
0.0
  9
$DIMEXE
 40
0.18
  9
$DIMTP
 40
0.0
  9
$DIMTM
 40
0.0
  9
$DIMTXT
 40
0.18
  9
$DIMCEN
 40
0.09
  9
$DIMTSZ
 40
0.0
  9
$DIMTOL
 70
     0
  9
$DIMLIM
 70
     0
  9
$DIMTIH
 70
     1
  9
$DIMTOH
 70
     1
  9
$DIMSE1
 70
     0
  9
$DIMSE2
 70
     0
  9
$DIMTAD
 70
     0
  9
$DIMZIN
 70
     0
  9
$DIMBLK
  1

  9
$DIMASO
 70
     1
  9
$DIMSHO
 70
     1
  9
$DIMPOST
  1

  9
$DIMAPOST
  1

  9
$DIMALT
 70
     0
  9
$DIMALTD
 70
     2
  9
$DIMALTF
 40
25.4
  9
$DIMLFAC
 40
1.0
  9
$LUNITS
 70
     2
  9
$LUPREC
 70
     4
  9
$AXISMODE
 70
     0
  9
$AXISUNIT
 10
0.0
 20
0.0
  9
$SKETCHINC
 40
0.1
  9
$FILLETRAD
 40
5.0
  9
$AUNITS
 70
     0
  9
$AUPREC
 70
     0
  9
$MENU
  1
acad
  9
$ELEVATION
 40
0.0
  9
$THICKNESS
 40
0.0
  9
$VIEWDIR
 10
0.0
 20
0.0
 30
1.0
  9
$LIMCHECK
 70
     0
  9
$BLIPMODE
 70
     1
  9
$CHAMFERA
 40
0.0
  9
$CHAMFERB
 40
0.0
  9
$FASTZOOM
 70
     1
  9
$SKPOLY
 70
     0
  9
$TDCREATE
 40
0.0
  9
$TDUPDATE
 40
0.0
  9
$TDINDWG
 40
0.0
  9
$TDUSRTIMER
 40
0.0
  9
$USRTIMER
 70
     1
  9
$ANGBASE
 50
0.0
  9
$ANGDIR
 70
     0
  9
$PDMODE
 70
     0
  9
$PDSIZE
 40
0.0
  9
$PLINEWID
 40
0.0
  9
$COORDS
 70
     1
  9
$SPLFRAME
 70
     0
  9
$SPLINESEGS
 70
    10
  9
$ATTDIA
 70
     0
  9
$ATTREQ
 70
     1
  9
$USERI1
 70
     0
  9
$USERI2
 70
     0
  9
$USERI3
 70
     0
  9
$USERI4
 70
     0
  9
$USERI5
 70
     0
  9
$USERR1
 40
0.0
  9
$USERR2
 40
0.0
  9
$USERR3
 40
0.0
  9
$USERR4
 40
0.0
  9
$USERR5
 40
0.0
  0
ENDSEC
  0
SECTION
  2
TABLES
  0
TABLE
  2
LTYPE
 70
    11
  0
LTYPE
  2
CONTINUOUS
 70
     0
  3
Solid line
 72
    65
 73
     0
 40
0.0
  0
LTYPE
  2
DASHED
 70
     0
  3
__ __ __ __ __ __ __ __ __ __ __ __ __ __ __
 72
    65
 73
     2
 40
0.75
 49
0.5
 49
-0.25
  0
LTYPE
  2
HIDDEN
 70
     0
  3
_ _ _ _ _ _ _ _ _ _ _ _ _ _ _ _ _ _ _ _ _ _ 
 72
    65
 73
     2
 40
0.25
 49
0.125
 49
-0.125
  0
LTYPE
  2
CENTER
 70
     0
  3
____ _ ____ _ ____ _ ____ _ ____ _ ____ _ __
 72
    65
 73
     4
 40
2.0
 49
1.25
 49
-0.25
 49
0.25
 49
-0.25
  0
LTYPE
  2
PHANTOM
 70
     0
  3
_____ _ _ _____ _ _ _____ _ _ _____ _ _ ____
 72
    65
 73
     6
 40
2.5
 49
1.25
 49
-0.25
 49
0.25
 49
-0.25
 49
0.25
 49
-0.25
  0
LTYPE
  2
DOT
 70
     0
  3
............................................
 72
    65
 73
     2
 40
0.25
 49
0.0
 49
-0.25
  0
LTYPE
  2
DASHDOT
 70
     0
  3
__ . __ . __ . __ . __ . __ . __ . __ . __ .
 72
    65
 73
     4
 40
1.0
 49
0.5
 49
-0.25
 49
0.0
 49
-0.25
  0
LTYPE
  2
BORDER
 70
     0
  3
__ __ . __ __ . __ __ . __ __ . __ __ . __ _
 72
    65
 73
     6
 40
1.75
 49
0.5
 49
-0.25
 49
0.5
 49
-0.25
 49
0.0
 49
-0.25
  0
LTYPE
  2
DIVIDE
 70
     0
  3
__ . . __ . . __ . . __ . . __ . . __ . . __
 72
    65
 73
     6
 40
1.25
 49
0.5
 49
-0.25
 49
0.0
 49
-0.25
 49
0.0
 49
-0.25
  0
LTYPE
  2
DOTS
 70
     0
  3
close                                       
 72
    65
 73
     2
 40
0.1
 49
0.05
 49
-0.05
  0
LTYPE
  2
CLOSE
 70
     0
  3
                                            
 72
    65
 73
     0
 40
0.0
  0
ENDTAB
  0
TABLE
  2
LAYER
 70
     6
  0
LAYER
  2
0
 70
     0
 62
     7
  6
CONTINUOUS
  0
LAYER
  2
LAYER01
 70
     0
 62
     7
  6
CONTINUOUS
  0
LAYER
  2
DATA
 70
     0
 62
     7
  6
CONTINUOUS
  0
LAYER
  2
DIMENSIONS
 70
     0
 62
     7
  6
CONTINUOUS
  0
LAYER
  2
SPEC
 70
     0
 62
     7
  6
CONTINUOUS
  0
LAYER
  2
HIBINO-BASE
 70
     0
 62
     7
  6
CONTINUOUS
  0
ENDTAB
  0
TABLE
  2
STYLE
 70
     2
  0
STYLE
  2
STANDARD
 70
     0
 40
0.0
 41
1.0
 50
0.0
 71
     0
 42
0.2
  3
txt
  4

  0
STYLE
  2
TTF_DEFAULT
 70
     0
 40
0.0
 41
1.0
 50
0.0
 71
     0
 42
0.0
  3
txt
  4
BIGFONT
  0
ENDTAB
  0
TABLE
  2
VIEW
 70
     0
  0
ENDTAB
  0
ENDSEC
  0
SECTION
  2
BLOCKS
  0
ENDSEC
  0
SECTION
  2
ENTITIES
  0
LINE
  8
SPEC
  6
CONTINUOUS
 62
     7
 10
35.0
 20
530.0
 11
270.0
 21
530.0
  0
LINE
  8
SPEC
  6
CONTINUOUS
 62
     7
 10
35.0
 20
522.5
 11
270.0
 21
522.5
  0
LINE
  8
SPEC
  6
CONTINUOUS
 62
     7
 10
35.0
 20
492.5
 11
270.0
 21
492.5
  0
LINE
  8
SPEC
  6
CONTINUOUS
 62
     7
 10
35.0
 20
500.0
 11
270.0
 21
500.0
  0
LINE
  8
SPEC
  6
CONTINUOUS
 62
     7
 10
35.0
 20
507.5
 11
270.0
 21
507.5
  0
LINE
  8
SPEC
  6
CONTINUOUS
 62
     7
 10
35.0
 20
485.0
 11
270.0
 21
485.0
  0
LINE
  8
SPEC
  6
CONTINUOUS
 62
     7
 10
35.0
 20
470.0
 11
270.0
 21
470.0
  0
LINE
  8
SPEC
  6
CONTINUOUS
 62
     7
 10
35.0
 20
477.5
 11
270.0
 21
477.5
  0
LINE
  8
SPEC
  6
CONTINUOUS
 62
     7
 10
35.0
 20
462.5
 11
270.0
 21
462.5
  0
LINE
  8
SPEC
  6
CONTINUOUS
 62
     7
 10
35.0
 20
455.0
 11
270.0
 21
455.0
  0
LINE
  8
SPEC
  6
CONTINUOUS
 62
     7
 10
35.0
 20
515.0
 11
270.0
 21
515.0
  0
LINE
  8
SPEC
  6
CONTINUOUS
 62
     7
 10
35.0
 20
447.5
 11
270.0
 21
447.5
  0
LINE
  8
SPEC
  6
CONTINUOUS
 62
     7
 10
35.0
 20
440.0
 11
270.0
 21
440.0
  0
LINE
  8
SPEC
  6
CONTINUOUS
 62
     7
 10
35.0
 20
432.5
 11
270.0
 21
432.5
  0
LINE
  8
DATA
  6
CONTINUOUS
 62
     7
 10
225.0
 20
290.75
 11
185.0
 21
290.75
  0
LINE
  8
DATA
  6
CONTINUOUS
 62
     7
 10
185.0
 20
309.25
 11
225.0
 21
309.25
  0
POLYLINE
  8
HIBINO-BASE
  6
CONTINUOUS
 62
     7
 66
     1
 70
     1
 40
0.5
 41
0.5
  0
VERTEX
  8
HIBINO-BASE
 10
20.0
 20
30.0
  0
VERTEX
  8
HIBINO-BASE
 10
20.0
 20
550.0
  0
VERTEX
  8
HIBINO-BASE
 10
380.0
 20
550.0
  0
VERTEX
  8
HIBINO-BASE
 10
380.0
 20
30.0
  0
SEQEND
  8
HIBINO-BASE
  0
ARC
  8
DATA
  6
CONTINUOUS
 62
     7
 10
197.254301
 20
126.0
 40
1.0
 50
195.945396
 51
270.0
  0
LINE
  8
DATA
  6
CONTINUOUS
 62
     7
 10
176.9048
 20
213.646
 11
200.0
 21
213.646
  0
LINE
  8
DIMENSIONS
  6
CONTINUOUS
 62
     7
 10
174.9048
 20
237.5
 11
200.0
 21
237.5
  0
LINE
  8
DIMENSIONS
  6
CONTINUOUS
 62
     7
 10
196.0
 20
236.83336
 11
200.0
 21
237.5
  0
LINE
  8
DIMENSIONS
  6
CONTINUOUS
 62
     7
 10
196.0
 20
238.16664
 11
200.0
 21
237.5
  0
ARC
  8
DATA
  6
CONTINUOUS
 62
     7
 10
193.9048
 20
264.5
 40
5.385165
 50
201.801409
 51
338.198591
  0
LINE
  8
DATA
  6
CONTINUOUS
 62
     7
 10
105.25
 20
270.842677
 11
105.25
 21
291.5
  0
LINE
  8
DATA
  6
CONTINUOUS
 62
     7
 10
108.25
 20
266.657323
 11
108.25
 21
291.5
  0
TEXT
  8
HIBINO-BASE
  6
CONTINUOUS
 62
     7
 10
34.368
 20
17.18264
 40
8.0
  1
Hibino Corporation
  7
TTF_DEFAULT
  0
LINE
  8
DATA
  6
CONTINUOUS
 62
     7
 10
77.5
 20
193.646
 11
136.0
 21
193.646
  0
LINE
  8
DATA
  6
CONTINUOUS
 62
     7
 10
130.0
 20
136.0
 11
83.5
 21
136.0
  0
LINE
  8
DATA
  6
CONTINUOUS
 62
     7
 10
125.075779
 20
134.0
 11
88.424221
 21
134.0
  0
LINE
  8
DATA
  6
CONTINUOUS
 62
     7
 10
83.0
 20
213.646
 11
130.5
 21
213.646
  0
LINE
  8
DIMENSIONS
  6
CONTINUOUS
 62
     7
 10
75.0
 20
100.0
 11
138.5
 21
100.0
  0
ARC
  8
DATA
  6
CONTINUOUS
 62
     7
 10
92.057068
 20
130.0
 40
5.0
 50
225.0
 51
270.0
  0
LINE
  8
DATA
  6
CONTINUOUS
 62
     7
 10
91.950678
 20
127.349209
 11
87.664964
 21
132.349209
  0
LINE
  8
DIMENSIONS
  6
CONTINUOUS
 62
     7
 10
50.0
 20
213.646
 11
50.0
 21
125.0
  0
LINE
  8
DIMENSIONS
  6
CONTINUOUS
 62
     7
 10
75.0
 20
140.057068
 11
75.0
 21
97.5
  0
LINE
  8
DATA
  6
CONTINUOUS
 62
     7
 10
88.521534
 20
126.464466
 11
76.464466
 21
138.521534
  0
LINE
  8
DIMENSIONS
  6
CONTINUOUS
 62
     7
 10
90.057068
 20
125.0
 11
47.5
 21
125.0
  0
LINE
  8
DIMENSIONS
  6
CONTINUOUS
 62
     7
 10
49.33336
 20
129.0
 11
50.0
 21
125.0
  0
LINE
  8
DIMENSIONS
  6
CONTINUOUS
 62
     7
 10
50.66664
 20
129.0
 11
50.0
 21
125.0
  0
LINE
  8
DIMENSIONS
  6
CONTINUOUS
 62
     7
 10
79.0
 20
99.33336
 11
75.0
 21
100.0
  0
LINE
  8
DIMENSIONS
  6
CONTINUOUS
 62
     7
 10
79.0
 20
100.66664
 11
75.0
 21
100.0
  0
ARC
  8
DATA
  6
CONTINUOUS
 62
     7
 10
88.424221
 20
133.0
 40
1.0
 50
90.0
 51
220.601295
  0
ARC
  8
DATA
  6
CONTINUOUS
 62
     7
 10
83.0
 20
205.646
 40
8.0
 50
90.0
 51
180.0
  0
ARC
  8
DATA
  6
CONTINUOUS
 62
     7
 10
88.75
 20
205.646
 40
8.0
 50
90.0
 51
180.0
  0
ARC
  8
DATA
  6
CONTINUOUS
 62
     7
 10
83.5
 20
142.0
 40
6.0
 50
180.0
 51
270.0
  0
ARC
  8
DATA
  6
CONTINUOUS
 62
     7
 10
80.0
 20
142.057068
 40
5.0
 50
180.0
 51
225.0
  0
TEXT
  8
DIMENSIONS
  6
CONTINUOUS
 62
     7
 10
47.5
 20
163.68824
 40
5.0
  1
88.6
 50
90.0
  7
TTF_DEFAULT
  0
LINE
  8
DATA
  6
CONTINUOUS
 62
     7
 10
75.0
 20
142.057068
 11
75.0
 21
205.646
  0
LINE
  8
DATA
  6
CONTINUOUS
 62
     7
 10
77.5
 20
142.0
 11
77.5
 21
193.646
  0
ARC
  8
DATA
  6
CONTINUOUS
 62
     7
 10
82.75
 20
195.646
 40
2.0
 50
180.0
 51
270.0
  0
LINE
  8
DATA
  6
CONTINUOUS
 62
     7
 10
80.75
 20
195.646
 11
80.75
 21
205.646
  0
LINE
  8
DIMENSIONS
  6
CONTINUOUS
 62
     7
 10
81.0
 20
213.646
 11
47.5
 21
213.646
  0
LINE
  8
DIMENSIONS
  6
CONTINUOUS
 62
     7
 10
49.33336
 20
209.646
 11
50.0
 21
213.646
  0
LINE
  8
DIMENSIONS
  6
CONTINUOUS
 62
     7
 10
50.66664
 20
209.646
 11
50.0
 21
213.646
  0
LINE
  8
DIMENSIONS
  6
CONTINUOUS
 62
     7
 10
138.5
 20
140.057068
 11
138.5
 21
97.5
  0
LINE
  8
DATA
  6
CONTINUOUS
 62
     7
 10
124.978466
 20
126.464466
 11
137.035534
 21
138.521534
  0
LINE
  8
DATA
  6
CONTINUOUS
 62
     7
 10
193.5
 20
135.5
 11
196.292777
 21
125.725279
  0
LINE
  8
DATA
  6
CONTINUOUS
 62
     7
 10
121.442932
 20
125.0
 11
92.057068
 21
125.0
  0
LINE
  8
DATA
  6
CONTINUOUS
 62
     7
 10
120.790065
 20
127.0
 11
92.709935
 21
127.0
  0
ARC
  8
DATA
  6
CONTINUOUS
 62
     7
 10
92.709935
 20
128.0
 40
1.0
 50
220.601295
 51
270.0
  0
ARC
  8
DATA
  6
CONTINUOUS
 62
     7
 10
121.442932
 20
130.0
 40
5.0
 50
270.0
 51
315.0
  0
LINE
  8
DATA
  6
CONTINUOUS
 62
     7
 10
121.549322
 20
127.349209
 11
125.835036
 21
132.349209
  0
TEXT
  8
DIMENSIONS
  6
CONTINUOUS
 62
     7
 10
101.11524
 20
102.5
 40
5.0
  1
63.5
  7
TTF_DEFAULT
  0
ARC
  8
DATA
  6
CONTINUOUS
 62
     7
 10
120.790065
 20
128.0
 40
1.0
 50
270.0
 51
319.398705
  0
LINE
  8
DIMENSIONS
  6
CONTINUOUS
 62
     7
 10
134.5
 20
99.33336
 11
138.5
 21
100.0
  0
LINE
  8
DIMENSIONS
  6
CONTINUOUS
 62
     7
 10
134.5
 20
100.66664
 11
138.5
 21
100.0
  0
ARC
  8
DATA
  6
CONTINUOUS
 62
     7
 10
125.075779
 20
133.0
 40
1.0
 50
319.398705
 51
90.0
  0
TEXT
  8
DIMENSIONS
  6
CONTINUOUS
 62
     7
 10
170.0
 20
52.5
 40
5.0
  1
(単位 : mm)
  7
TTF_DEFAULT
  0
ARC
  8
DATA
  6
CONTINUOUS
 62
     7
 10
130.5
 20
205.646
 40
8.0
 50
0.0
 51
90.0
  0
ARC
  8
DATA
  6
CONTINUOUS
 62
     7
 10
124.75
 20
205.646
 40
8.0
 50
0.0
 51
90.0
  0
ARC
  8
DATA
  6
CONTINUOUS
 62
     7
 10
130.0
 20
142.0
 40
6.0
 50
270.0
 51
0.0
  0
ARC
  8
DATA
  6
CONTINUOUS
 62
     7
 10
133.5
 20
142.057068
 40
5.0
 50
315.0
 51
0.0
  0
LINE
  8
DATA
  6
CONTINUOUS
 62
     7
 10
138.5
 20
205.646
 11
138.5
 21
142.057068
  0
LINE
  8
DATA
  6
CONTINUOUS
 62
     7
 10
136.0
 20
193.646
 11
136.0
 21
142.0
  0
ARC
  8
DATA
  6
CONTINUOUS
 62
     7
 10
130.75
 20
195.646
 40
2.0
 50
270.0
 51
0.0
  0
LINE
  8
DATA
  6
CONTINUOUS
 62
     7
 10
132.75
 20
195.646
 11
132.75
 21
205.646
  0
ARC
  8
DATA
  6
CONTINUOUS
 62
     7
 10
101.75
 20
260.5
 40
5.385165
 50
21.801409
 51
158.198591
  0
ARC
  8
DATA
  6
CONTINUOUS
 62
     7
 10
101.75
 20
266.75
 40
5.385165
 50
21.801409
 51
158.198591
  0
LINE
  8
DATA
  6
CONTINUOUS
 62
     7
 10
101.75
 20
213.646
 11
101.75
 21
216.646
  0
LINE
  8
DATA
  6
CONTINUOUS
 62
     7
 10
111.75
 20
213.646
 11
111.75
 21
216.646
  0
LINE
  8
DATA
  6
CONTINUOUS
 62
     7
 10
105.25
 20
216.646
 11
105.25
 21
264.592677
  0
LINE
  8
DATA
  6
CONTINUOUS
 62
     7
 10
108.25
 20
216.646
 11
108.25
 21
260.407323
  0
LINE
  8
DATA
  6
CONTINUOUS
 62
     7
 10
101.75
 20
216.646
 11
111.75
 21
216.646
  0
LINE
  8
DATA
  6
CONTINUOUS
 62
     7
 10
104.75
 20
225.646
 11
108.75
 21
225.646
  0
LINE
  8
DATA
  6
CONTINUOUS
 62
     7
 10
104.75
 20
216.646
 11
104.75
 21
225.646
  0
LINE
  8
DATA
  6
CONTINUOUS
 62
     7
 10
108.75
 20
216.646
 11
108.75
 21
225.646
  0
ARC
  8
DATA
  6
CONTINUOUS
 62
     7
 10
111.75
 20
264.5
 40
5.385165
 50
201.801409
 51
338.198591
  0
ARC
  8
DATA
  6
CONTINUOUS
 62
     7
 10
111.75
 20
270.75
 40
5.385165
 50
201.801409
 51
338.198591
  0
LINE
  8
DATA
  6
CONTINUOUS
 62
     7
 10
174.9048
 20
211.646
 11
174.9048
 21
194.646
  0
LINE
  8
DATA
  6
CONTINUOUS
 62
     7
 10
191.223459
 20
137.052242
 11
177.010645
 21
165.434631
  0
LINE
  8
DATA
  6
CONTINUOUS
 62
     7
 10
193.5
 20
181.646
 11
193.5
 21
135.5
  0
ARC
  8
DATA
  6
CONTINUOUS
 62
     7
 10
192.117613
 20
137.5
 40
1.0
 50
206.599953
 51
270.0
  0
LINE
  8
DATA
  6
CONTINUOUS
 62
     7
 10
193.5
 20
136.5
 11
192.117613
 21
136.5
  0
LINE
  8
DATA
  6
CONTINUOUS
 62
     7
 10
175.9048
 20
193.646
 11
181.5
 21
193.646
  0
LINE
  8
DATA
  6
CONTINUOUS
 62
     7
 10
176.9048
 20
193.646
 11
176.9048
 21
165.88239
  0
ARC
  8
DATA
  6
CONTINUOUS
 62
     7
 10
177.9048
 20
165.88239
 40
1.0
 50
180.0
 51
206.599953
  0
ARC
  8
DATA
  6
CONTINUOUS
 62
     7
 10
175.9048
 20
194.646
 40
1.0
 50
180.0
 51
270.0
  0
ARC
  8
DATA
  6
CONTINUOUS
 62
     7
 10
181.5
 20
181.646
 40
12.0
 50
0.0
 51
90.0
  0
LINE
  8
DATA
  6
CONTINUOUS
 62
     7
 10
181.4048
 20
213.646
 11
181.4048
 21
216.646
  0
LINE
  8
DATA
  6
CONTINUOUS
 62
     7
 10
191.4048
 20
213.646
 11
191.4048
 21
216.646
  0
LINE
  8
DIMENSIONS
  6
CONTINUOUS
 62
     7
 10
174.9048
 20
213.646
 11
174.9048
 21
240.0
  0
ARC
  8
DATA
  6
CONTINUOUS
 62
     7
 10
176.9048
 20
211.646
 40
2.0
 50
90.0
 51
180.0
  0
LINE
  8
DIMENSIONS
  6
CONTINUOUS
 62
     7
 10
178.9048
 20
236.83336
 11
174.9048
 21
237.5
  0
LINE
  8
DIMENSIONS
  6
CONTINUOUS
 62
     7
 10
178.9048
 20
238.16664
 11
174.9048
 21
237.5
  0
LINE
  8
DATA
  6
CONTINUOUS
 62
     7
 10
187.4048
 20
216.646
 11
187.4048
 21
264.592677
  0
LINE
  8
DATA
  6
CONTINUOUS
 62
     7
 10
190.4048
 20
216.646
 11
190.4048
 21
260.407323
  0
LINE
  8
DATA
  6
CONTINUOUS
 62
     7
 10
181.4048
 20
216.646
 11
191.4048
 21
216.646
  0
LINE
  8
DATA
  6
CONTINUOUS
 62
     7
 10
186.9048
 20
225.646
 11
190.9048
 21
225.646
  0
LINE
  8
DATA
  6
CONTINUOUS
 62
     7
 10
186.9048
 20
216.646
 11
186.9048
 21
225.646
  0
LINE
  8
DATA
  6
CONTINUOUS
 62
     7
 10
190.9048
 20
216.646
 11
190.9048
 21
225.646
  0
ARC
  8
DATA
  6
CONTINUOUS
 62
     7
 10
183.9048
 20
260.5
 40
5.385165
 50
21.801409
 51
158.198591
  0
TEXT
  8
SPEC
  6
CONTINUOUS
 62
     7
 10
37.5
 20
532.5
 40
6.0
  1
仕様
  7
TTF_DEFAULT
  0
TEXT
  8
SPEC
  6
CONTINUOUS
 62
     7
 10
36.8
 20
524.3
 40
5.0
  1
形式
  7
TTF_DEFAULT
  0
TEXT
  8
SPEC
  6
CONTINUOUS
 62
     7
 10
36.8
 20
516.8
 40
5.0
  1
指向特性
  7
TTF_DEFAULT
  0
TEXT
  8
SPEC
  6
CONTINUOUS
 62
     7
 10
36.8
 20
509.3
 40
5.0
  1
周波数特性
  7
TTF_DEFAULT
  0
TEXT
  8
SPEC
  6
CONTINUOUS
 62
     7
 10
36.8
 20
501.8
 40
5.0
  1
インピーダンス
  7
TTF_DEFAULT
  0
TEXT
  8
SPEC
  6
CONTINUOUS
 62
     7
 10
36.8
 20
494.3
 40
5.0
  1
開回路感度
  7
TTF_DEFAULT
  0
TEXT
  8
SPEC
  6
CONTINUOUS
 62
     7
 10
36.8
 20
486.8
 40
5.0
  1
等価雑音レベル
  7
TTF_DEFAULT
  0
TEXT
  8
SPEC
  6
CONTINUOUS
 62
     7
 10
36.8
 20
479.3
 40
5.0
  1
最大音圧レベル
  7
TTF_DEFAULT
  0
TEXT
  8
SPEC
  6
CONTINUOUS
 62
     7
 10
36.8
 20
471.8
 40
5.0
  1
電源
  7
TTF_DEFAULT
  0
TEXT
  8
SPEC
  6
CONTINUOUS
 62
     7
 10
36.8
 20
464.3
 40
5.0
  1
コネクタ 
  7
TTF_DEFAULT
  0
TEXT
  8
SPEC
  6
CONTINUOUS
 62
     7
 10
36.8
 20
456.8
 40
5.0
  1
色
  7
TTF_DEFAULT
  0
TEXT
  8
SPEC
  6
CONTINUOUS
 62
     7
 10
36.8
 20
441.8
 40
5.0
  1
重量
  7
TTF_DEFAULT
  0
TEXT
  8
SPEC
  6
CONTINUOUS
 62
     7
 10
36.8
 20
449.3
 40
5.0
  1
寸法
  7
TTF_DEFAULT
  0
TEXT
  8
SPEC
  6
CONTINUOUS
 62
     7
 10
36.8
 20
434.3
 40
5.0
  1
付属品
  7
TTF_DEFAULT
  0
LINE
  8
SPEC
  6
CONTINUOUS
 62
     7
 10
35.0
 20
530.0
 11
35.0
 21
432.5
  0
LINE
  8
DATA
  6
CONTINUOUS
 62
     7
 10
115.25
 20
301.5
 11
148.0
 21
301.5
  0
LINE
  8
DATA
  6
CONTINUOUS
 62
     7
 10
115.25
 20
298.5
 11
148.0
 21
298.5
  0
ARC
  8
DATA
  6
CONTINUOUS
 62
     7
 10
115.25
 20
291.5
 40
10.0
 50
90.0
 51
180.0
  0
ARC
  8
DATA
  6
CONTINUOUS
 62
     7
 10
115.25
 20
291.5
 40
7.0
 50
90.0
 51
180.0
  0
LINE
  8
DATA
  6
CONTINUOUS
 62
     7
 10
152.2
 20
294.765
 11
152.2
 21
305.235
  0
LINE
  8
DATA
  6
CONTINUOUS
 62
     7
 10
153.779
 20
294.694925
 11
153.779
 21
305.305075
  0
LINE
  8
DATA
  6
CONTINUOUS
 62
     7
 10
154.279
 20
294.694925
 11
154.279
 21
305.305075
  0
LINE
  8
DATA
  6
CONTINUOUS
 62
     7
 10
155.608
 20
294.37485
 11
155.608
 21
305.62515
  0
LINE
  8
DATA
  6
CONTINUOUS
 62
     7
 10
156.108
 20
294.37485
 11
156.108
 21
305.62515
  0
LINE
  8
DATA
  6
CONTINUOUS
 62
     7
 10
157.437
 20
294.054775
 11
157.437
 21
305.945225
  0
LINE
  8
DATA
  6
CONTINUOUS
 62
     7
 10
157.937
 20
294.054775
 11
157.937
 21
305.945225
  0
LINE
  8
DATA
  6
CONTINUOUS
 62
     7
 10
159.766
 20
293.7347
 11
159.766
 21
306.2653
  0
LINE
  8
DATA
  6
CONTINUOUS
 62
     7
 10
159.266
 20
293.7347
 11
159.266
 21
306.2653
  0
LINE
  8
DATA
  6
CONTINUOUS
 62
     7
 10
161.095
 20
293.414625
 11
161.095
 21
306.585375
  0
LINE
  8
DATA
  6
CONTINUOUS
 62
     7
 10
148.0
 20
296.340197
 11
148.0
 21
303.659803
  0
LINE
  8
DATA
  6
CONTINUOUS
 62
     7
 10
168.5
 20
308.5
 11
168.5
 21
291.5
  0
LINE
  8
DATA
  6
CONTINUOUS
 62
     7
 10
168.0
 20
308.0
 11
168.0
 21
292.0
  0
LINE
  8
DATA
  6
CONTINUOUS
 62
     7
 10
165.0
 20
307.475
 11
165.0
 21
292.525
  0
LINE
  8
DATA
  6
CONTINUOUS
 62
     7
 10
161.595
 20
293.414625
 11
161.595
 21
306.585375
  0
LINE
  8
DATA
  6
CONTINUOUS
 62
     7
 10
162.924
 20
293.09455
 11
162.924
 21
306.90545
  0
LINE
  8
DATA
  6
CONTINUOUS
 62
     7
 10
163.424
 20
293.09455
 11
163.424
 21
306.90545
  0
LINE
  8
DATA
  6
CONTINUOUS
 62
     7
 10
185.0
 20
309.5
 11
185.0
 21
290.5
  0
LINE
  8
DATA
  6
CONTINUOUS
 62
     7
 10
185.0
 20
290.5
 11
168.5
 21
291.5
  0
ARC
  8
DATA
  6
CONTINUOUS
 62
     7
 10
161.345
 20
293.414625
 40
0.25
 50
180.0
 51
0.0
  0
LINE
  8
DATA
  6
CONTINUOUS
 62
     7
 10
148.82762
 20
295.355167
 11
168.0
 21
292.0
  0
ARC
  8
DATA
  6
CONTINUOUS
 62
     7
 10
154.029
 20
294.694925
 40
0.25
 50
180.0
 51
0.0
  0
ARC
  8
DATA
  6
CONTINUOUS
 62
     7
 10
155.858
 20
294.37485
 40
0.25
 50
180.0
 51
0.0
  0
ARC
  8
DATA
  6
CONTINUOUS
 62
     7
 10
157.687
 20
294.054775
 40
0.25
 50
180.0
 51
0.0
  0
ARC
  8
DATA
  6
CONTINUOUS
 62
     7
 10
159.516
 20
293.7347
 40
0.25
 50
180.0
 51
0.0
  0
ARC
  8
DATA
  6
CONTINUOUS
 62
     7
 10
149.0
 20
296.340197
 40
1.0
 50
180.0
 51
260.073754
  0
ARC
  8
DATA
  6
CONTINUOUS
 62
     7
 10
163.174
 20
293.09455
 40
0.25
 50
180.0
 51
0.0
  0
LINE
  8
DATA
  6
CONTINUOUS
 62
     7
 10
168.0
 20
294.0
 11
168.5
 21
294.0
  0
LINE
  8
DATA
  6
CONTINUOUS
 62
     7
 10
168.5
 20
308.5
 11
185.0
 21
309.5
  0
ARC
  8
DATA
  6
CONTINUOUS
 62
     7
 10
161.345
 20
306.585375
 40
0.25
 50
0.0
 51
180.0
  0
LINE
  8
DATA
  6
CONTINUOUS
 62
     7
 10
148.82762
 20
304.644833
 11
168.0
 21
308.0
  0
ARC
  8
DATA
  6
CONTINUOUS
 62
     7
 10
154.029
 20
305.305075
 40
0.25
 50
0.0
 51
180.0
  0
ARC
  8
DATA
  6
CONTINUOUS
 62
     7
 10
155.858
 20
305.62515
 40
0.25
 50
0.0
 51
180.0
  0
ARC
  8
DATA
  6
CONTINUOUS
 62
     7
 10
157.687
 20
305.945225
 40
0.25
 50
0.0
 51
180.0
  0
ARC
  8
DATA
  6
CONTINUOUS
 62
     7
 10
159.516
 20
306.2653
 40
0.25
 50
0.0
 51
180.0
  0
ARC
  8
DATA
  6
CONTINUOUS
 62
     7
 10
149.0
 20
303.659803
 40
1.0
 50
99.926246
 51
180.0
  0
ARC
  8
DATA
  6
CONTINUOUS
 62
     7
 10
163.174
 20
306.90545
 40
0.25
 50
0.0
 51
180.0
  0
LINE
  8
DATA
  6
CONTINUOUS
 62
     7
 10
168.0
 20
306.0
 11
168.5
 21
306.0
  0
TEXT
  8
SPEC
  6
CONTINUOUS
 62
     7
 10
101.8
 20
524.3
 40
5.0
  1
エレクトレットコンデンサ
  7
TTF_DEFAULT
  0
TEXT
  8
SPEC
  6
CONTINUOUS
 62
     7
 10
101.8
 20
516.8
 40
5.0
  1
ハーフ・カーディオイド
  7
TTF_DEFAULT
  0
TEXT
  8
SPEC
  6
CONTINUOUS
 62
     7
 10
101.8
 20
479.3
 40
5.0
  1
120dB SPL(3%THD)
  7
TTF_DEFAULT
  0
TEXT
  8
SPEC
  6
CONTINUOUS
 62
     7
 10
101.8
 20
471.8
 40
5.0
  1
ファンタ ム 12V～48V/4mA
  7
TTF_DEFAULT
  0
TEXT
  8
SPEC
  6
CONTINUOUS
 62
     7
 10
101.8
 20
464.3
 40
5.0
  1
XLR-3-12C相当品(オス,2-HOT)
  7
TTF_DEFAULT
  0
TEXT
  8
SPEC
  6
CONTINUOUS
 62
     7
 10
101.8
 20
449.3
 40
5.0
  1
64(W)×25.1(H)×89(D)mm
  7
TTF_DEFAULT
  0
TEXT
  8
SPEC
  6
CONTINUOUS
 62
     7
 10
101.8
 20
441.8
 40
5.0
  1
約99g(ケーブル含まず)
  7
TTF_DEFAULT
  0
TEXT
  8
SPEC
  6
CONTINUOUS
 62
     7
 10
101.8
 20
434.3
 40
5.0
  1
ケーブルはマイク本体に直接固定(4.5m)
  7
TTF_DEFAULT
  0
TEXT
  8
SPEC
  6
CONTINUOUS
 62
     7
 10
101.8
 20
501.8
 40
5.0
  1
150Ω
  7
TTF_DEFAULT
  0
LINE
  8
SPEC
  6
CONTINUOUS
 62
     7
 10
100.0
 20
530.0
 11
100.0
 21
432.5
  0
TEXT
  8
SPEC
  6
CONTINUOUS
 62
     7
 10
101.8
 20
494.3
 40
5.0
  1
-33dB re 1V/Pa
  7
TTF_DEFAULT
  0
TEXT
  8
SPEC
  6
CONTINUOUS
 62
     7
 10
101.8
 20
486.8
 40
5.0
  1
22dB SPL(Aウエイト)
  7
TTF_DEFAULT
  0
TEXT
  8
SPEC
  6
CONTINUOUS
 62
     7
 10
101.8
 20
456.8
 40
5.0
  1
黒
  7
TTF_DEFAULT
  0
TEXT
  8
SPEC
  6
CONTINUOUS
 62
     7
 10
101.8
 20
509.3
 40
5.0
  1
50Hz～18kHz
  7
TTF_DEFAULT
  0
TEXT
  8
HIBINO-BASE
  6
CONTINUOUS
 62
     7
 10
297.5
 20
35.0
 40
5.0
  1
N.Sasaki
  7
TTF_DEFAULT
  0
LINE
  8
HIBINO-BASE
  6
CONTINUOUS
 62
     7
 10
200.0
 20
50.0
 11
380.0
 21
50.0
  0
TEXT
  8
HIBINO-BASE
  6
CONTINUOUS
 62
     7
 10
296.0
 20
45.0
 40
5.0
  1
DRAWN
  7
TTF_DEFAULT
  0
TEXT
  8
DATA
  6
CONTINUOUS
 62
     7
 10
300.0
 20
60.0
 40
4.0
  1
フェーズ・コヒーレント・カーディオイド
  7
TTF_DEFAULT
  0
TEXT
  8
DATA
  6
CONTINUOUS
 62
     7
 10
300.0
 20
53.75
 40
6.0
  1
PCC-120
  7
TTF_DEFAULT
  0
TEXT
  8
DATA
  6
CONTINUOUS
 62
     7
 10
300.0
 20
66.25
 40
6.0
  1
Amcron
  7
TTF_DEFAULT
  0
LINE
  8
0
  6
CONTINUOUS
 62
     7
 10
200.0
 20
75.25
 11
380.0
 21
75.25
  0
LINE
  8
0
  6
CONTINUOUS
 62
     7
 10
200.0
 20
74.75
 11
380.0
 21
74.75
  0
LINE
  8
0
  6
CONTINUOUS
 62
     7
 10
200.0
 20
75.25
 11
200.0
 21
74.75
  0
LINE
  8
0
  6
CONTINUOUS
 62
     7
 10
380.0
 20
75.25
 11
380.0
 21
74.75
  0
SOLID
  8
HIBINO-BASE
  6
CONTINUOUS
 62
     7
 10
200.0
 20
75.25
 11
380.0
 21
75.25
 12
200.0
 22
74.75
 13
380.0
 23
74.75
  0
TEXT
  8
DATA
  6
CONTINUOUS
 62
     7
 10
247.605757
 20
133.5
 40
2.0
  1
MICROPHONE FRONT
 41
0.95
  7
TTF_DEFAULT
  0
CIRCLE
  8
DATA
  6
CONTINUOUS
 62
     7
 10
240.75
 20
134.0
 40
2.5
  0
CIRCLE
  8
DATA
  6
CONTINUOUS
 62
     7
 10
240.75
 20
134.0
 40
4.0
  0
LINE
  8
DATA
  6
CONTINUOUS
 62
     7
 10
240.62821
 20
127.893324
 11
228.293741
 21
140.227793
  0
LINE
  8
DATA
  6
CONTINUOUS
 62
     7
 10
238.521534
 20
126.464466
 11
226.464466
 21
138.521534
  0
LINE
  8
DATA
  6
CONTINUOUS
 62
     7
 10
272.87179
 20
127.893324
 11
285.206259
 21
140.227793
  0
LINE
  8
DATA
  6
CONTINUOUS
 62
     7
 10
274.978466
 20
126.464466
 11
287.035534
 21
138.521534
  0
CIRCLE
  8
DATA
  6
CONTINUOUS
 62
     7
 10
272.75
 20
134.0
 40
4.0
  0
CIRCLE
  8
DATA
  6
CONTINUOUS
 62
     7
 10
272.75
 20
134.0
 40
2.5
  0
LINE
  8
DIMENSIONS
  6
CONTINUOUS
 62
     7
 10
236.43
 20
164.146
 11
236.43
 21
97.5
  0
LINE
  8
DIMENSIONS
  6
CONTINUOUS
 62
     7
 10
277.07
 20
164.146
 11
277.07
 21
97.5
  0
LINE
  8
DATA
  6
CONTINUOUS
 62
     7
 10
200.0
 20
213.646
 11
200.0
 21
125.0
  0
LINE
  8
DATA
  6
CONTINUOUS
 62
     7
 10
202.0
 20
136.5
 11
202.0
 21
131.5
  0
TEXT
  8
HIBINO-BASE
  6
CONTINUOUS
 62
     7
 10
246.0
 20
45.0
 40
5.0
  1
DATE
  7
TTF_DEFAULT
  0
TEXT
  8
HIBINO-BASE
  6
CONTINUOUS
 62
     7
 10
247.5
 20
35.0
 40
5.0
  1
'97.05.
  7
TTF_DEFAULT
  0
LINE
  8
DATA
  6
CONTINUOUS
 62
     7
 10
270.715115
 20
127.0
 11
242.784885
 21
127.0
  0
LINE
  8
DATA
  6
CONTINUOUS
 62
     7
 10
271.442932
 20
125.0
 11
242.057068
 21
125.0
  0
LINE
  8
DIMENSIONS
  6
CONTINUOUS
 62
     7
 10
236.43
 20
100.0
 11
277.07
 21
100.0
  0
LINE
  8
0
  6
CONTINUOUS
 62
     7
 10
199.75
 20
30.0
 11
199.75
 21
75.0
  0
LINE
  8
0
  6
CONTINUOUS
 62
     7
 10
200.25
 20
30.0
 11
200.25
 21
75.0
  0
LINE
  8
0
  6
CONTINUOUS
 62
     7
 10
199.75
 20
30.0
 11
200.25
 21
30.0
  0
LINE
  8
0
  6
CONTINUOUS
 62
     7
 10
199.75
 20
75.0
 11
200.25
 21
75.0
  0
SOLID
  8
HIBINO-BASE
  6
CONTINUOUS
 62
     7
 10
199.75
 20
30.0
 11
199.75
 21
75.0
 12
200.25
 22
30.0
 13
200.25
 23
75.0
  0
TEXT
  8
HIBINO-BASE
  6
CONTINUOUS
 62
     7
 10
207.5
 20
32.5
 40
8.0
  1
A4
  7
TTF_DEFAULT
  0
LINE
  8
HIBINO-BASE
  6
CONTINUOUS
 62
     7
 10
228.75
 20
32.5
 11
236.25
 21
40.0
  0
TEXT
  8
HIBINO-BASE
  6
CONTINUOUS
 62
     7
 10
227.5
 20
36.25
 40
6.0
  1
1
  7
TTF_DEFAULT
  0
TEXT
  8
HIBINO-BASE
  6
CONTINUOUS
 62
     7
 10
201.0
 20
45.0
 40
4.5
  1
図面サイズ
  7
TTF_DEFAULT
  0
TEXT
  8
HIBINO-BASE
  6
CONTINUOUS
 62
     7
 10
226.0
 20
45.0
 40
5.0
  1
SCALE
  7
TTF_DEFAULT
  0
LINE
  8
HIBINO-BASE
  6
CONTINUOUS
 62
     7
 10
245.0
 20
30.0
 11
245.0
 21
50.0
  0
LINE
  8
HIBINO-BASE
  6
CONTINUOUS
 62
     7
 10
225.0
 20
30.0
 11
225.0
 21
50.0
  0
TEXT
  8
HIBINO-BASE
  6
CONTINUOUS
 62
     7
 10
235.0
 20
32.5
 40
6.0
  1
2
  7
TTF_DEFAULT
  0
TEXT
  8
HIBINO-BASE
  6
CONTINUOUS
 62
     7
 10
201.0
 20
70.0
 40
5.0
  1
NOTE
  7
TTF_DEFAULT
  0
ARC
  8
DATA
  6
CONTINUOUS
 62
     7
 10
242.784885
 20
130.05
 40
3.05
 50
225.0
 51
270.0
  0
ARC
  8
DATA
  6
CONTINUOUS
 62
     7
 10
242.057068
 20
130.0
 40
5.0
 50
225.0
 51
270.0
  0
LINE
  8
DIMENSIONS
  6
CONTINUOUS
 62
     7
 10
240.43
 20
99.33336
 11
236.43
 21
100.0
  0
LINE
  8
DIMENSIONS
  6
CONTINUOUS
 62
     7
 10
240.43
 20
100.66664
 11
236.43
 21
100.0
  0
LINE
  8
DATA
  6
CONTINUOUS
 62
     7
 10
200.0
 20
125.0
 11
197.254301
 21
125.0
  0
LINE
  8
DATA
  6
CONTINUOUS
 62
     7
 10
202.0
 20
131.5
 11
200.0
 21
130.0
  0
LINE
  8
HIBINO-BASE
  6
CONTINUOUS
 62
     7
 10
270.0
 20
30.0
 11
270.0
 21
75.0
  0
TEXT
  8
HIBINO-BASE
  6
CONTINUOUS
 62
     7
 10
271.0
 20
45.0
 40
5.0
  1
DESIGN
  7
TTF_DEFAULT
  0
LINE
  8
HIBINO-BASE
  6
CONTINUOUS
 62
     7
 10
295.0
 20
50.0
 11
295.0
 21
30.0
  0
TEXT
  8
HIBINO-BASE
  6
CONTINUOUS
 62
     7
 10
271.0
 20
70.0
 40
5.0
  1
TITLE
  7
TTF_DEFAULT
  0
ARC
  8
DATA
  6
CONTINUOUS
 62
     7
 10
270.715115
 20
130.05
 40
3.05
 50
270.0
 51
315.0
  0
ARC
  8
DATA
  6
CONTINUOUS
 62
     7
 10
271.442932
 20
130.0
 40
5.0
 50
270.0
 51
315.0
  0
LINE
  8
DIMENSIONS
  6
CONTINUOUS
 62
     7
 10
273.07
 20
99.33336
 11
277.07
 21
100.0
  0
LINE
  8
DIMENSIONS
  6
CONTINUOUS
 62
     7
 10
273.07
 20
100.66664
 11
277.07
 21
100.0
  0
TEXT
  8
DIMENSIONS
  6
CONTINUOUS
 62
     7
 10
250.067183
 20
102.5
 40
5.0
  1
40.64
  7
TTF_DEFAULT
  0
LINE
  8
DATA
  6
CONTINUOUS
 62
     7
 10
236.5
 20
212.396
 11
277.0
 21
212.396
  0
LINE
  8
DATA
  6
CONTINUOUS
 62
     7
 10
253.75
 20
140.0
 11
247.75
 21
140.0
  0
LINE
  8
DATA
  6
CONTINUOUS
 62
     7
 10
247.75
 20
140.0
 11
256.75
 21
136.0
  0
TEXT
  8
DATA
  6
CONTINUOUS
 62
     7
 10
249.234398
 20
168.646
 40
2.0
  1
INSTALLATION
  7
TTF_DEFAULT
  0
LINE
  8
DATA
  6
CONTINUOUS
 62
     7
 10
239.679994
 20
171.896
 11
249.75
 21
171.896
  0
TEXT
  8
DATA
  6
CONTINUOUS
 62
     7
 10
244.020679
 20
187.646
 40
2.0
  1
BOOST
  7
TTF_DEFAULT
  0
LINE
  8
DATA
  6
CONTINUOUS
 62
     7
 10
250.25
 20
185.396
 11
249.25
 21
186.896
  0
LINE
  8
DATA
  6
CONTINUOUS
 62
     7
 10
233.0
 20
213.646
 11
251.75
 21
213.646
  0
ARC
  8
DATA
  6
CONTINUOUS
 62
     7
 10
251.75
 20
260.5
 40
5.385165
 50
21.801409
 51
158.198591
  0
CIRCLE
  8
DATA
  6
CONTINUOUS
 62
     7
 10
233.75
 20
205.646
 40
4.0
  0
ARC
  8
DATA
  6
CONTINUOUS
 62
     7
 10
233.0
 20
205.646
 40
5.5
 50
90.0
 51
180.0
  0
ARC
  8
DATA
  6
CONTINUOUS
 62
     7
 10
233.0
 20
205.646
 40
8.0
 50
90.0
 51
180.0
  0
LINE
  8
DATA
  6
CONTINUOUS
 62
     7
 10
202.0
 20
208.146
 11
200.0
 21
209.646
  0
CIRCLE
  8
DATA
  6
CONTINUOUS
 62
     7
 10
239.0
 20
191.646
 40
4.5
  0
ARC
  8
DATA
  6
CONTINUOUS
 62
     7
 10
236.43
 20
168.396
 40
2.25
 50
180.0
 51
0.0
  0
ARC
  8
DATA
  6
CONTINUOUS
 62
     7
 10
236.43
 20
171.896
 40
3.249994
 50
313.813158
 51
226.186842
  0
LINE
  8
DATA
  6
CONTINUOUS
 62
     7
 10
234.18
 20
168.396
 11
234.18
 21
169.5508
  0
LINE
  8
DATA
  6
CONTINUOUS
 62
     7
 10
238.68
 20
168.396
 11
238.68
 21
169.5508
  0
CIRCLE
  8
DATA
  6
CONTINUOUS
 62
     7
 10
233.75
 20
205.646
 40
2.5
  0
ARC
  8
DATA
  6
CONTINUOUS
 62
     7
 10
230.21
 20
142.144053
 40
2.71
 50
180.0
 51
225.0
  0
ARC
  8
DATA
  6
CONTINUOUS
 62
     7
 10
230.0
 20
142.057068
 40
5.0
 50
180.0
 51
225.0
  0
LINE
  8
DATA
  6
CONTINUOUS
 62
     7
 10
227.5
 20
142.144053
 11
227.5
 21
205.646
  0
LINE
  8
DATA
  6
CONTINUOUS
 62
     7
 10
225.0
 20
142.057068
 11
225.0
 21
205.646
  0
LINE
  8
DATA
  6
CONTINUOUS
 62
     7
 10
200.0
 20
138.0
 11
202.0
 21
136.5
  0
LINE
  8
DATA
  6
CONTINUOUS
 62
     7
 10
202.0
 20
208.146
 11
202.0
 21
203.146
  0
LINE
  8
DATA
  6
CONTINUOUS
 62
     7
 10
202.0
 20
203.146
 11
200.0
 21
201.646
  0
LINE
  8
DATA
  6
CONTINUOUS
 62
     7
 10
233.0
 20
211.146
 11
236.5
 21
211.146
  0
LINE
  8
DATA
  6
CONTINUOUS
 62
     7
 10
236.5
 20
211.146
 11
236.5
 21
212.396
  0
LINE
  8
DATA
  6
CONTINUOUS
 62
     7
 10
238.25
 20
213.646
 11
238.25
 21
212.396
  0
TEXT
  8
DIMENSIONS
  6
CONTINUOUS
 62
     7
 10
206.594773
 20
240.0
 40
5.0
  1
25.1
  7
TTF_DEFAULT
  0
LINE
  8
DIMENSIONS
  6
CONTINUOUS
 62
     7
 10
200.0
 20
215.646
 11
200.0
 21
240.0
  0
CIRCLE
  8
DATA
  6
CONTINUOUS
 62
     7
 10
279.75
 20
205.646
 40
4.0
  0
ARC
  8
DATA
  6
CONTINUOUS
 62
     7
 10
280.5
 20
205.646
 40
5.5
 50
0.0
 51
90.0
  0
ARC
  8
DATA
  6
CONTINUOUS
 62
     7
 10
280.5
 20
205.646
 40
8.0
 50
0.0
 51
90.0
  0
LINE
  8
DATA
  6
CONTINUOUS
 62
     7
 10
263.75
 20
171.896
 11
273.820006
 21
171.896
  0
CIRCLE
  8
DATA
  6
CONTINUOUS
 62
     7
 10
256.75
 20
201.896
 40
6.5
  0
LINE
  8
DATA
  6
CONTINUOUS
 62
     7
 10
259.75
 20
140.0
 11
265.75
 21
140.0
  0
LINE
  8
DATA
  6
CONTINUOUS
 62
     7
 10
256.75
 20
136.0
 11
265.75
 21
140.0
  0
LINE
  8
DATA
  6
CONTINUOUS
 62
     7
 10
259.75
 20
145.5
 11
253.75
 21
145.5
  0
LINE
  8
DATA
  6
CONTINUOUS
 62
     7
 10
253.75
 20
140.0
 11
253.75
 21
145.5
  0
LINE
  8
DATA
  6
CONTINUOUS
 62
     7
 10
259.75
 20
140.0
 11
259.75
 21
145.5
  0
TEXT
  8
DATA
  6
CONTINUOUS
 62
     7
 10
249.576017
 20
173.646
 40
2.0
  1
CUT OUT FOR
  7
TTF_DEFAULT
  0
TEXT
  8
DATA
  6
CONTINUOUS
 62
     7
 10
250.216551
 20
171.146
 40
2.0
  1
PERMANENT
  7
TTF_DEFAULT
  0
TEXT
  8
DATA
  6
CONTINUOUS
 62
     7
 10
251.133731
 20
182.396
 40
2.0
  1
BASS TILT
  7
TTF_DEFAULT
  0
LINE
  8
DATA
  6
CONTINUOUS
 62
     7
 10
258.75
 20
190.396
 11
258.75
 21
188.396
  0
LINE
  8
DATA
  6
CONTINUOUS
 62
     7
 10
254.75
 20
190.396
 11
254.75
 21
188.396
  0
LINE
  8
DATA
  6
CONTINUOUS
 62
     7
 10
256.75
 20
190.396
 11
256.75
 21
188.396
  0
TEXT
  8
DATA
  6
CONTINUOUS
 62
     7
 10
253.914062
 20
186.146
 40
2.0
  1
FLAT
  7
TTF_DEFAULT
  0
LINE
  8
DATA
  6
CONTINUOUS
 62
     7
 10
255.75
 20
185.396
 11
257.75
 21
185.396
  0
LINE
  8
DATA
  6
CONTINUOUS
 62
     7
 10
258.75
 20
188.396
 11
260.75
 21
188.396
  0
LINE
  8
DATA
  6
CONTINUOUS
 62
     7
 10
254.75
 20
188.396
 11
252.75
 21
188.396
  0
LINE
  8
DATA
  6
CONTINUOUS
 62
     7
 10
251.25
 20
185.396
 11
250.25
 21
185.396
  0
POLYLINE
  8
DATA
  6
CONTINUOUS
 62
     7
 66
     1
 70
     1
  0
VERTEX
  8
DATA
 10
256.15
 20
191.296
  0
VERTEX
  8
DATA
 10
256.15
 20
192.496
  0
VERTEX
  8
DATA
 10
257.35
 20
192.496
  0
VERTEX
  8
DATA
 10
257.35
 20
191.296
  0
SEQEND
  8
DATA
  0
LINE
  8
DATA
  6
CONTINUOUS
 62
     7
 10
252.5
 20
193.396
 11
261.0
 21
193.396
  0
LINE
  8
DATA
  6
CONTINUOUS
 62
     7
 10
261.0
 20
193.396
 11
261.0
 21
190.396
  0
LINE
  8
DATA
  6
CONTINUOUS
 62
     7
 10
252.5
 20
190.396
 11
261.0
 21
190.396
  0
LINE
  8
DATA
  6
CONTINUOUS
 62
     7
 10
252.5
 20
193.396
 11
252.5
 21
190.396
  0
TEXT
  8
DATA
  6
CONTINUOUS
 62
     7
 10
261.75
 20
187.646
 40
2.0
  1
CUT
  7
TTF_DEFAULT
  0
LINE
  8
DATA
  6
CONTINUOUS
 62
     7
 10
262.75
 20
185.396
 11
263.75
 21
186.896
  0
LINE
  8
DATA
  6
CONTINUOUS
 62
     7
 10
263.75
 20
186.896
 11
264.75
 21
186.896
  0
CIRCLE
  8
DATA
  6
CONTINUOUS
 62
     7
 10
256.75
 20
201.896
 40
2.75
  0
LINE
  8
DATA
  6
CONTINUOUS
 62
     7
 10
286.0
 20
205.646
 11
286.0
 21
142.144053
  0
LINE
  8
DATA
  6
CONTINUOUS
 62
     7
 10
288.5
 20
142.057068
 11
288.5
 21
205.646
  0
ARC
  8
DATA
  6
CONTINUOUS
 62
     7
 10
283.29
 20
142.144053
 40
2.71
 50
315.0
 51
0.0
  0
ARC
  8
DATA
  6
CONTINUOUS
 62
     7
 10
283.5
 20
142.057068
 40
5.0
 50
315.0
 51
0.0
  0
CIRCLE
  8
DATA
  6
CONTINUOUS
 62
     7
 10
274.5
 20
191.646
 40
4.5
  0
ARC
  8
DATA
  6
CONTINUOUS
 62
     7
 10
277.07
 20
168.396
 40
2.25
 50
180.0
 51
0.0
  0
ARC
  8
DATA
  6
CONTINUOUS
 62
     7
 10
277.07
 20
171.896
 40
3.249994
 50
313.813158
 51
226.186842
  0
LINE
  8
DATA
  6
CONTINUOUS
 62
     7
 10
274.82
 20
168.396
 11
274.82
 21
169.5508
  0
LINE
  8
DATA
  6
CONTINUOUS
 62
     7
 10
279.32
 20
168.396
 11
279.32
 21
169.5508
  0
CIRCLE
  8
DATA
  6
CONTINUOUS
 62
     7
 10
279.75
 20
205.646
 40
2.5
  0
LINE
  8
DATA
  6
CONTINUOUS
 62
     7
 10
261.75
 20
213.646
 11
280.5
 21
213.646
  0
LINE
  8
DATA
  6
CONTINUOUS
 62
     7
 10
251.75
 20
216.646
 11
261.75
 21
216.646
  0
LINE
  8
DATA
  6
CONTINUOUS
 62
     7
 10
251.75
 20
212.396
 11
251.75
 21
216.646
  0
LINE
  8
DATA
  6
CONTINUOUS
 62
     7
 10
254.75
 20
225.646
 11
258.75
 21
225.646
  0
LINE
  8
DATA
  6
CONTINUOUS
 62
     7
 10
258.75
 20
216.646
 11
258.75
 21
225.646
  0
LINE
  8
DATA
  6
CONTINUOUS
 62
     7
 10
254.75
 20
216.646
 11
254.75
 21
225.646
  0
LINE
  8
DATA
  6
CONTINUOUS
 62
     7
 10
261.75
 20
212.396
 11
261.75
 21
216.646
  0
LINE
  8
DATA
  6
CONTINUOUS
 62
     7
 10
275.25
 20
213.646
 11
275.25
 21
212.396
  0
LINE
  8
DATA
  6
CONTINUOUS
 62
     7
 10
277.0
 20
211.146
 11
277.0
 21
212.396
  0
LINE
  8
DATA
  6
CONTINUOUS
 62
     7
 10
277.0
 20
211.146
 11
280.5
 21
211.146
  0
ARC
  8
DATA
  6
CONTINUOUS
 62
     7
 10
261.75
 20
264.5
 40
5.385165
 50
201.801409
 51
338.198591
  0
LINE
  8
DATA
  6
CONTINUOUS
 62
     7
 10
255.25
 20
216.646
 11
255.25
 21
264.592677
  0
LINE
  8
DATA
  6
CONTINUOUS
 62
     7
 10
258.25
 20
216.646
 11
258.25
 21
260.407323
  0
TEXT
  8
HIBINO-BASE
  6
CONTINUOUS
 62
     7
 10
346.0
 20
45.0
 40
5.0
  1
DRAWING NO.
  7
TTF_DEFAULT
  0
TEXT
  8
HIBINO-BASE
  6
CONTINUOUS
 62
     7
 10
312.460053
 20
17.18264
 40
8.0
  1
ヒビノ株式会社
  7
TTF_DEFAULT
  0
TEXT
  8
HIBINO-BASE
  6
CONTINUOUS
 62
     7
 10
321.0
 20
45.0
 40
5.0
  1
CHECK
  7
TTF_DEFAULT
  0
LINE
  8
HIBINO-BASE
  6
CONTINUOUS
 62
     7
 10
345.0
 20
50.0
 11
345.0
 21
30.0
  0
LINE
  8
HIBINO-BASE
  6
CONTINUOUS
 62
     7
 10
320.0
 20
30.0
 11
320.0
 21
50.0
  0
LINE
  8
DATA
  6
CONTINUOUS
 62
     7
 10
225.0
 20
309.25
 11
225.0
 21
290.75
  0
LINE
  8
DATA
  6
CONTINUOUS
 62
     7
 10
224.0
 20
303.0
 11
224.0
 21
297.0
  0
LINE
  8
DATA
  6
CONTINUOUS
 62
     7
 10
221.5
 20
303.0
 11
221.5
 21
297.0
  0
LINE
  8
DATA
  6
CONTINUOUS
 62
     7
 10
224.0
 20
297.0
 11
221.5
 21
297.0
  0
LINE
  8
DATA
  6
CONTINUOUS
 62
     7
 10
224.0
 20
303.0
 11
221.5
 21
303.0
  0
LINE
  8
SPEC
  6
CONTINUOUS
 62
     7
 10
270.0
 20
432.5
 11
270.0
 21
530.0
  0
ENDSEC
  0
EOF
