  0
SECTION
  2
HEADER
  9
$ACADVER
  1
AC1009
  9
$INSBASE
 10
0.0
 20
0.0
 30
0.0
  9
$EXTMIN
 10
29.989015033921529
 20
7.1438617575261096
 30
-0.0015258207003583
  9
$EXTMAX
 10
570.01739634668616
 20
810.02472112423811
 30
0.0000000349246037
  9
$LIMMIN
 10
0.0
 20
0.0
  9
$LIMMAX
 10
0.0
 20
0.0
  9
$ORTHOMODE
 70
     0
  9
$REGENMODE
 70
     1
  9
$FILLMODE
 70
     1
  9
$QTEXTMODE
 70
     0
  9
$MIRRTEXT
 70
     1
  9
$DRAGMODE
 70
     2
  9
$LTSCALE
 40
15.24
  9
$OSMODE
 70
   231
  9
$ATTMODE
 70
     1
  9
$TEXTSIZE
 40
0.0
  9
$TRACEWID
 40
1.0
  9
$TEXTSTYLE
  7
STANDARD
  9
$CLAYER
  8
DATA
  9
$CELTYPE
  6
BYLAYER
  9
$CECOLOR
 62
   256
  9
$DIMSCALE
 40
1.0
  9
$DIMASZ
 40
0.18
  9
$DIMEXO
 40
0.0625
  9
$DIMDLI
 40
0.38
  9
$DIMRND
 40
0.0
  9
$DIMDLE
 40
0.0
  9
$DIMEXE
 40
0.18
  9
$DIMTP
 40
0.0
  9
$DIMTM
 40
0.0
  9
$DIMTXT
 40
0.18
  9
$DIMCEN
 40
0.09
  9
$DIMTSZ
 40
0.0
  9
$DIMTOL
 70
     0
  9
$DIMLIM
 70
     0
  9
$DIMTIH
 70
     1
  9
$DIMTOH
 70
     1
  9
$DIMSE1
 70
     0
  9
$DIMSE2
 70
     0
  9
$DIMTAD
 70
     0
  9
$DIMZIN
 70
     0
  9
$DIMBLK
  1

  9
$DIMASO
 70
     1
  9
$DIMSHO
 70
     1
  9
$DIMPOST
  1

  9
$DIMAPOST
  1

  9
$DIMALT
 70
     0
  9
$DIMALTD
 70
     2
  9
$DIMALTF
 40
25.399999999999999
  9
$DIMLFAC
 40
1.0
  9
$DIMTOFL
 70
     0
  9
$DIMTVP
 40
0.0
  9
$DIMTIX
 70
     0
  9
$DIMSOXD
 70
     0
  9
$DIMSAH
 70
     0
  9
$DIMBLK1
  1

  9
$DIMBLK2
  1

  9
$DIMSTYLE
  2
STANDARD
  9
$DIMCLRD
 70
     0
  9
$DIMCLRE
 70
     0
  9
$DIMCLRT
 70
     0
  9
$DIMTFAC
 40
1.0
  9
$DIMGAP
 40
0.09
  9
$LUNITS
 70
     2
  9
$LUPREC
 70
     4
  9
$SKETCHINC
 40
0.1
  9
$FILLETRAD
 40
0.0
  9
$AUNITS
 70
     0
  9
$AUPREC
 70
     0
  9
$MENU
  1
acad
  9
$ELEVATION
 40
0.0
  9
$PELEVATION
 40
0.0
  9
$THICKNESS
 40
0.0
  9
$LIMCHECK
 70
     0
  9
$BLIPMODE
 70
     0
  9
$CHAMFERA
 40
0.0
  9
$CHAMFERB
 40
0.0
  9
$SKPOLY
 70
     0
  9
$TDCREATE
 40
2454747.4841782409
  9
$TDUPDATE
 40
2454747.4884153241
  9
$TDINDWG
 40
0.0003589931
  9
$TDUSRTIMER
 40
0.0003573727
  9
$USRTIMER
 70
     1
  9
$ANGBASE
 50
0.0
  9
$ANGDIR
 70
     0
  9
$PDMODE
 70
     1
  9
$PDSIZE
 40
-2.0
  9
$PLINEWID
 40
0.0
  9
$COORDS
 70
     1
  9
$SPLFRAME
 70
     0
  9
$SPLINETYPE
 70
     6
  9
$SPLINESEGS
 70
     8
  9
$ATTDIA
 70
     0
  9
$ATTREQ
 70
     1
  9
$HANDLING
 70
     1
  9
$HANDSEED
  5
22F
  9
$SURFTAB1
 70
     6
  9
$SURFTAB2
 70
     6
  9
$SURFTYPE
 70
     6
  9
$SURFU
 70
     6
  9
$SURFV
 70
     6
  9
$UCSNAME
  2

  9
$UCSORG
 10
0.0
 20
0.0
 30
0.0
  9
$UCSXDIR
 10
1.0
 20
0.0
 30
0.0
  9
$UCSYDIR
 10
0.0
 20
1.0
 30
0.0
  9
$PUCSNAME
  2

  9
$PUCSORG
 10
0.0
 20
0.0
 30
0.0
  9
$PUCSXDIR
 10
1.0
 20
0.0
 30
0.0
  9
$PUCSYDIR
 10
0.0
 20
1.0
 30
0.0
  9
$USERI1
 70
     0
  9
$USERI2
 70
     0
  9
$USERI3
 70
     0
  9
$USERI4
 70
     0
  9
$USERI5
 70
     0
  9
$USERR1
 40
0.0
  9
$USERR2
 40
0.0
  9
$USERR3
 40
0.0
  9
$USERR4
 40
0.0
  9
$USERR5
 40
0.0
  9
$WORLDVIEW
 70
     1
  9
$SHADEDGE
 70
     3
  9
$SHADEDIF
 70
    70
  9
$TILEMODE
 70
     1
  9
$MAXACTVP
 70
    64
  9
$PLIMCHECK
 70
     0
  9
$PEXTMIN
 10
1.0000000000000000E+020
 20
1.0000000000000000E+020
 30
1.0000000000000000E+020
  9
$PEXTMAX
 10
-1.0000000000000000E+020
 20
-1.0000000000000000E+020
 30
-1.0000000000000000E+020
  9
$PLIMMIN
 10
0.0
 20
0.0
  9
$PLIMMAX
 10
12.0
 20
9.0
  9
$UNITMODE
 70
     0
  9
$VISRETAIN
 70
     0
  9
$PLINEGEN
 70
     1
  9
$PSLTSCALE
 70
     0
  0
ENDSEC
  0
SECTION
  2
TABLES
  0
TABLE
  2
VPORT
 70
     1
  0
VPORT
  2
*ACTIVE
 70
     0
 10
0.0
 20
0.0
 11
1.0
 21
1.0
 12
300.00320569030379
 22
408.584291440882
 13
0.0
 23
0.0
 14
1.0
 24
1.0
 15
0.0
 25
0.0
 16
0.0
 26
0.0
 36
1.0
 17
0.0
 27
0.0
 37
0.0
 40
809.52539061664334
 41
1.665745856353591
 42
50.0
 43
0.0
 44
0.0
 50
0.0
 51
0.0
 71
     0
 72
  2000
 73
     1
 74
     1
 75
     0
 76
     0
 77
     0
 78
     0
  0
ENDTAB
  0
TABLE
  2
LTYPE
 70
    11
  0
LTYPE
  2
CONTINUOUS
 70
     0
  3
Solid line
 72
    65
 73
     0
 40
0.0
  0
ENDTAB
  0
TABLE
  2
LAYER
 70
     5
  0
LAYER
  2
0
 70
     0
 62
     7
  6
CONTINUOUS
  0
LAYER
  2
DATA
 70
     0
 62
     7
  6
CONTINUOUS
  0
LAYER
  2
HIBINO-BASE
 70
     0
 62
     7
  6
CONTINUOUS
  0
LAYER
  2
SPEC
 70
     0
 62
     7
  6
CONTINUOUS
  0
LAYER
  2
DIMNSIONS
 70
     0
 62
     7
  6
CONTINUOUS
  0
ENDTAB
  0
TABLE
  2
STYLE
 70
     3
  0
STYLE
  2
STANDARD
 70
     0
 40
0.0
 41
1.0
 50
0.0
 71
     0
 42
0.0
  3
txt
  4
BIGFONT.SHX
  0
ENDTAB
  0
TABLE
  2
VIEW
 70
     0
  0
ENDTAB
  0
TABLE
  2
UCS
 70
     0
  0
ENDTAB
  0
TABLE
  2
APPID
 70
     3
  0
APPID
  2
ACAD
 70
     0
  0
APPID
  2
ACADANNOTATIVE
 70
     0
  0
APPID
  2
ACAD_MLEADERVER
 70
     0
  0
ENDTAB
  0
TABLE
  2
DIMSTYLE
 70
     2
  0
DIMSTYLE
  2
STANDARD
 70
     0
  3

  4

  5

  6

  7

 40
1.0
 41
0.18
 42
0.0625
 43
0.38
 44
0.18
 45
0.0
 46
0.0
 47
0.0
 48
0.0
140
0.18
141
0.09
142
0.0
143
25.399999999999999
144
1.0
145
0.0
146
1.0
147
0.09
 71
     0
 72
     0
 73
     1
 74
     1
 75
     0
 76
     0
 77
     0
 78
     0
170
     0
171
     2
172
     0
173
     0
174
     0
175
     0
176
     0
177
     0
178
     0
  0
ENDTAB
  0
ENDSEC
  0
SECTION
  2
BLOCKS
  0
BLOCK
  8
0
  2
$MODEL_SPACE
 70
     0
 10
0.0
 20
0.0
 30
0.0
  3
$MODEL_SPACE
  1

  0
ENDBLK
  5
1DA
  8
0
  0
BLOCK
 67
     1
  8
0
  2
$PAPER_SPACE
 70
     0
 10
0.0
 20
0.0
 30
0.0
  3
$PAPER_SPACE
  1

  0
ENDBLK
  5
1D6
 67
     1
  8
0
  0
ENDSEC
  0
SECTION
  2
ENTITIES
  0
LINE
  5
2C
  8
HIBINO-BASE
  6
CONTINUOUS
 62
     7
 10
30.0
 20
810.0
 30
0.0
 11
569.99999999999989
 21
810.0
 31
0.0
  0
LINE
  5
2D
  8
HIBINO-BASE
  6
CONTINUOUS
 62
     7
 10
569.99999999999989
 20
30.0
 30
0.0
 11
30.0
 21
30.0
 31
0.0
  0
LINE
  5
2E
  8
HIBINO-BASE
  6
CONTINUOUS
 62
     7
 10
30.0
 20
30.0
 30
0.0
 11
30.0
 21
810.0
 31
0.0
  0
TEXT
  5
2F
  8
HIBINO-BASE
 62
     7
 10
51.551999999999971
 20
10.77396660000008
 30
0.0
 40
10.800132539062499
  1
Hibino Corporation
 41
0.7
 11
51.551999999999971
 21
21.574099139062589
 31
0.0
 73
     3
  0
LINE
  5
30
  8
HIBINO-BASE
  6
CONTINUOUS
 62
     7
 10
569.99999999999989
 20
810.0
 30
0.0
 11
569.99999999999989
 21
30.0
 31
0.0
  0
LINE
  5
31
  8
HIBINO-BASE
  6
CONTINUOUS
 62
     7
 10
300.0
 20
97.500000000000057
 30
0.0
 11
569.99999999999989
 21
97.500000000000057
 31
0.0
  0
LINE
  5
32
  8
HIBINO-BASE
  6
CONTINUOUS
 62
     7
 10
300.0
 20
30.0
 30
0.0
 11
300.0
 21
97.500000000000057
 31
0.0
  0
TEXT
  5
33
  8
HIBINO-BASE
 62
     7
 10
302.69999999999987
 20
89.973919999999993
 30
0.0
 40
4.8865234374999993
  1
NOTE
 41
0.7
 11
302.69999999999987
 21
94.860443437499995
 31
0.0
 73
     3
  0
LINE
  5
34
  8
HIBINO-BASE
  6
CONTINUOUS
 62
     7
 10
405.0
 20
30.0
 30
0.0
 11
405.0
 21
97.500000000000057
 31
0.0
  0
TEXT
  5
35
  8
HIBINO-BASE
 62
     7
 10
407.69999999999987
 20
89.973919999999993
 30
0.0
 40
4.8865234374999993
  1
TITLE
 41
0.7
 11
407.69999999999987
 21
94.860443437499995
 31
0.0
 73
     3
  0
TEXT
  5
36
  8
HIBINO-BASE
 62
     7
 10
450.2051699999999
 20
10.77396660000008
 30
0.0
 40
10.800132539062499
  1
ヒビノ株式会社
 41
0.7
 11
450.2051699999999
 21
21.574099139062589
 31
0.0
 73
     3
  0
LINE
  5
37
  8
HIBINO-BASE
  6
CONTINUOUS
 62
     7
 10
300.0
 20
60.000000000000071
 30
0.0
 11
569.99999999999989
 21
60.000000000000071
 31
0.0
  0
TEXT
  5
38
  8
HIBINO-BASE
 62
     7
 10
445.19999999999987
 20
52.64287999999997
 30
0.0
 40
4.8865234374999993
  1
DRAWN
 41
0.7
 11
445.19999999999987
 21
57.529403437499973
 31
0.0
 73
     3
  0
TEXT
  5
39
  8
HIBINO-BASE
 62
     7
 10
370.19999999999987
 20
52.64287999999997
 30
0.0
 40
4.8865234374999993
  1
DATE
 41
0.7
 11
370.19999999999987
 21
57.529403437499973
 31
0.0
 73
     3
  0
TEXT
  5
3A
  8
HIBINO-BASE
 62
     7
 10
340.19999999999987
 20
52.64287999999997
 30
0.0
 40
4.8865234374999993
  1
SCALE
 41
0.7
 11
340.19999999999987
 21
57.529403437499973
 31
0.0
 73
     3
  0
TEXT
  5
3B
  8
HIBINO-BASE
 62
     7
 10
407.69999999999987
 20
52.64287999999997
 30
0.0
 40
4.8865234374999993
  1
DESIGN
 41
0.7
 11
407.69999999999987
 21
57.529403437499973
 31
0.0
 73
     3
  0
TEXT
  5
3C
  8
HIBINO-BASE
 62
     7
 10
520.19999999999993
 20
52.64287999999997
 30
0.0
 40
4.8865234374999993
  1
DRAWING NO.
 41
0.7
 11
520.19999999999993
 21
57.529403437499973
 31
0.0
 73
     3
  0
TEXT
  5
3D
  8
HIBINO-BASE
 62
     7
 10
482.69999999999987
 20
52.64287999999997
 30
0.0
 40
4.8865234374999993
  1
CHECK
 41
0.7
 11
482.69999999999987
 21
57.529403437499973
 31
0.0
 73
     3
  0
LINE
  5
3E
  8
HIBINO-BASE
  6
CONTINUOUS
 62
     7
 10
343.12499999999989
 20
33.75
 30
0.0
 11
354.37499999999989
 21
45.000000000000057
 31
0.0
  0
TEXT
  5
3F
  8
HIBINO-BASE
 62
     7
 10
341.25
 20
41.673170000000013
 30
0.0
 40
4.8865234374999993
  1
1
 41
0.7
 11
341.25
 21
46.559693437500009
 31
0.0
 73
     3
  0
LINE
  5
40
  8
HIBINO-BASE
  6
CONTINUOUS
 62
     7
 10
337.5
 20
30.0
 30
0.0
 11
337.5
 21
60.000000000000071
 31
0.0
  0
LINE
  5
41
  8
HIBINO-BASE
  6
CONTINUOUS
 62
     7
 10
367.5
 20
30.0
 30
0.0
 11
367.5
 21
60.000000000000071
 31
0.0
  0
LINE
  5
42
  8
HIBINO-BASE
  6
CONTINUOUS
 62
     7
 10
442.49999999999989
 20
60.000000000000071
 30
0.0
 11
442.49999999999989
 21
30.0
 31
0.0
  0
LINE
  5
43
  8
HIBINO-BASE
  6
CONTINUOUS
 62
     7
 10
517.49999999999989
 20
60.000000000000071
 30
0.0
 11
517.49999999999989
 21
30.0
 31
0.0
  0
LINE
  5
44
  8
HIBINO-BASE
  6
CONTINUOUS
 62
     7
 10
479.99999999999989
 20
30.0
 30
0.0
 11
479.99999999999989
 21
60.000000000000071
 31
0.0
  0
TEXT
  5
45
  8
HIBINO-BASE
 62
     7
 10
370.06961999999987
 20
38.590939999999982
 30
0.0
 40
4.8865234374999993
  1
'08.10.
 41
0.7
 11
370.06961999999987
 21
43.477463437499978
 31
0.0
 73
     3
  0
TEXT
  5
46
  8
HIBINO-BASE
 62
     7
 10
353.15877953864441
 20
34.73061092271108
 30
0.0
 40
4.8865234374999993
  1
3
 41
0.7
 11
353.15877953864441
 21
39.617134360211082
 31
0.0
 73
     3
  0
TEXT
  5
47
  8
HIBINO-BASE
 62
     7
 10
447.01743003310372
 20
38.590939999999982
 30
0.0
 40
4.8865234374999993
  1
N.Sasaki
 41
0.7
 11
447.01743003310372
 21
43.477463437499978
 31
0.0
 73
     3
  0
TEXT
  5
48
  8
HIBINO-BASE
 62
     7
 10
311.64999999999998
 20
35.928000000000033
 30
0.0
 40
9.7730468749999986
  1
A4
 41
0.7
 11
311.64999999999998
 21
45.701046875000031
 31
0.0
 73
     3
  0
TEXT
  5
49
  8
HIBINO-BASE
 62
     7
 10
302.875
 20
52.141635000000051
 30
0.0
 40
4.8865234374999993
  1
PAPER SIZE
 41
0.7
 11
302.875
 21
57.028158437500053
 31
0.0
 73
     3
  0
TEXT
  5
4A
  8
SPEC
 62
     7
 10
152.6999999999999
 20
714.96423844931724
 30
0.0
 40
5.700933749999999
  1
端子・形式:RJ-11(AUX input,AUX output,Listen Busに対応)
 41
0.7
 11
152.6999999999999
 21
720.66517219931723
 31
0.0
 73
     3
  0
LINE
  5
4B
  8
SPEC
  6
CONTINUOUS
 62
     7
 10
52.5
 20
780.0
 30
0.0
 11
495.0
 21
780.0
 31
0.0
  0
LINE
  5
4C
  8
SPEC
  6
CONTINUOUS
 62
     7
 10
150.0
 20
768.75
 30
0.0
 11
495.0
 21
768.75
 31
0.0
  0
LINE
  5
4D
  8
SPEC
  6
CONTINUOUS
 62
     7
 10
52.5
 20
723.74999999999989
 30
0.0
 11
495.0
 21
723.74999999999989
 31
0.0
  0
LINE
  5
4E
  8
SPEC
  6
CONTINUOUS
 62
     7
 10
150.0
 20
735.0
 30
0.0
 11
495.0
 21
735.0
 31
0.0
  0
LINE
  5
4F
  8
SPEC
  6
CONTINUOUS
 62
     7
 10
150.0
 20
746.25
 30
0.0
 11
495.0
 21
746.25
 31
0.0
  0
LINE
  5
50
  8
SPEC
  6
CONTINUOUS
 62
     7
 10
52.5
 20
712.5
 30
0.0
 11
495.0
 21
712.5
 31
0.0
  0
LINE
  5
51
  8
SPEC
  6
CONTINUOUS
 62
     7
 10
52.5
 20
690.0
 30
0.0
 11
495.0
 21
690.0
 31
0.0
  0
LINE
  5
52
  8
SPEC
  6
CONTINUOUS
 62
     7
 10
52.5
 20
701.25
 30
0.0
 11
495.0
 21
701.25
 31
0.0
  0
LINE
  5
53
  8
SPEC
  6
CONTINUOUS
 62
     7
 10
52.5
 20
678.75
 30
0.0
 11
495.0
 21
678.75
 31
0.0
  0
LINE
  5
54
  8
SPEC
  6
CONTINUOUS
 62
     7
 10
150.0
 20
757.5
 30
0.0
 11
495.0
 21
757.5
 31
0.0
  0
TEXT
  5
55
  8
SPEC
 62
     7
 10
152.6999999999999
 20
771.42717690590075
 30
0.0
 40
5.700933749999999
  1
チャンネル数:2ch
 41
0.7
 11
152.6999999999999
 21
777.12811065590074
 31
0.0
 73
     3
  0
LINE
  5
56
  8
SPEC
  6
CONTINUOUS
 62
     7
 10
52.5
 20
780.0
 30
0.0
 11
52.5
 21
678.75
 31
0.0
  0
TEXT
  5
57
  8
SPEC
 62
     7
 10
56.25
 20
784.17980999999986
 30
0.0
 40
7.3297851562499989
  1
仕様
 41
0.7
 11
56.25
 21
791.50959515624982
 31
0.0
 73
     3
  0
LINE
  5
58
  8
SPEC
  6
CONTINUOUS
 62
     7
 10
150.0
 20
780.0
 30
0.0
 11
150.0
 21
678.75
 31
0.0
  0
LINE
  5
59
  8
SPEC
  6
CONTINUOUS
 62
     7
 10
495.0
 20
780.0
 30
0.0
 11
495.0
 21
678.75
 31
0.0
  0
TEXT
  5
5A
  8
SPEC
 62
     7
 10
55.19999999999996
 20
771.48474146668548
 30
0.0
 40
5.700933749999999
  1
アナログ入力
 41
0.7
 11
55.19999999999996
 21
777.18567521668535
 31
0.0
 73
     3
  0
TEXT
  5
5B
  8
SPEC
 62
     7
 10
55.045244512325361
 20
693.08658986681996
 30
0.0
 40
5.700933749999999
  1
寸法
 41
0.7
 11
55.045244512325361
 21
698.78752361681995
 31
0.0
 73
     3
  0
TEXT
  5
5C
  8
SPEC
 62
     7
 10
54.918501995077278
 20
681.87359111202102
 30
0.0
 40
5.700933749999999
  1
質量
 41
0.7
 11
54.918501995077278
 21
687.57452486202089
 31
0.0
 73
     3
  0
TEXT
  5
5D
  8
SPEC
 62
     7
 10
152.2140203618095
 20
692.68778833254828
 30
0.0
 40
5.700933749999999
  1
162(W)×44(H)×98(D)mm
 41
0.7
 11
152.2140203618095
 21
698.38872208254816
 31
0.0
 73
     3
  0
TEXT
  5
5E
  8
SPEC
 62
     7
 10
152.51138305636539
 20
681.61740829743076
 30
0.0
 40
5.700933749999999
  1
約100g
 41
0.7
 11
152.51138305636539
 21
687.31834204743075
 31
0.0
 73
     3
  0
TEXT
  5
5F
  8
SPEC
 62
     7
 10
55.19999999999996
 20
715.23474146668548
 30
0.0
 40
5.700933749999999
  1
AUX
 41
0.7
 11
55.19999999999996
 21
720.93567521668535
 31
0.0
 73
     3
  0
TEXT
  5
60
  8
SPEC
 62
     7
 10
152.6999999999999
 20
760.17717690590075
 30
0.0
 40
5.700933749999999
  1
端子・形式:ユーロブロック、電子バランス
 41
0.7
 11
152.6999999999999
 21
765.87811065590074
 31
0.0
 73
     3
  0
TEXT
  5
61
  8
SPEC
 62
     7
 10
152.6999999999999
 20
748.91579930854675
 30
0.0
 40
5.700933749999999
  1
インピーダンス:20kΩ、バランス
 41
0.7
 11
152.6999999999999
 21
754.61673305854686
 31
0.0
 73
     3
  0
TEXT
  5
62
  8
SPEC
 62
     7
 10
152.6999999999999
 20
737.4644429695154
 30
0.0
 40
5.700933749999999
  1
最大入力レベル:+20dBu
 41
0.7
 11
152.6999999999999
 21
743.16537671951551
 31
0.0
 73
     3
  0
TEXT
  5
63
  8
SPEC
 62
     7
 10
152.6999999999999
 20
726.31491651485999
 30
0.0
 40
5.700933749999999
  1
同相信号除去比:50dB typical
 41
0.7
 11
152.6999999999999
 21
732.01585026486009
 31
0.0
 73
     3
  0
TEXT
  5
64
  8
SPEC
 62
     7
 10
152.6999999999999
 20
703.75760288450942
 30
0.0
 40
5.700933749999999
  1
端子・形式:RJ-45
 41
0.7
 11
152.6999999999999
 21
709.45853663450941
 31
0.0
 73
     3
  0
TEXT
  5
65
  8
SPEC
 62
     7
 10
55.19999999999996
 20
703.96232747878969
 30
0.0
 40
5.700933749999999
  1
Network
 41
0.7
 11
55.19999999999996
 21
709.66326122878968
 31
0.0
 73
     3
  0
TEXT
  5
66
  8
DIMNSIONS
 62
     7
 10
240.0
 20
66.808470000000028
 30
0.0
 40
7.3297851562499989
  1
(単位：mm)
 41
0.7
 11
240.0
 21
74.138255156250025
 31
0.0
 73
     3
  0
LINE
  5
67
  8
DIMNSIONS
  6
CONTINUOUS
 62
     7
 10
194.0
 20
325.0
 30
0.0
 11
144.0
 21
325.0
 31
0.0
  0
LINE
  5
68
  8
DIMNSIONS
  6
CONTINUOUS
 62
     7
 10
194.0
 20
369.0
 30
0.0
 11
144.0
 21
369.0
 31
0.0
  0
LINE
  5
69
  8
DIMNSIONS
  6
CONTINUOUS
 62
     7
 10
150.0
 20
325.0
 30
0.0
 11
150.0
 21
369.0
 31
0.0
  0
LINE
  5
6A
  8
DIMNSIONS
  6
CONTINUOUS
 62
     7
 10
150.0
 20
325.0
 30
0.0
 11
147.98988061454921
 21
332.50186767578123
 31
0.0
  0
LINE
  5
6B
  8
DIMNSIONS
  6
CONTINUOUS
 62
     7
 10
150.0
 20
325.0
 30
0.0
 11
152.01011938545071
 21
332.50186767578123
 31
0.0
  0
LINE
  5
6C
  8
DIMNSIONS
  6
CONTINUOUS
 62
     7
 10
150.0
 20
369.0
 30
0.0
 11
152.01011938545071
 21
361.49813232421877
 31
0.0
  0
LINE
  5
6D
  8
DIMNSIONS
  6
CONTINUOUS
 62
     7
 10
150.0
 20
369.0
 30
0.0
 11
147.98988061454921
 21
361.49813232421877
 31
0.0
  0
TEXT
  5
6E
  8
DIMNSIONS
 62
     7
 10
147.01833333333329
 20
341.70833333333331
 30
0.0
 40
8.1442057291666661
  1
44
 50
90.0
 41
0.7
 11
138.87412760416669
 21
341.70833333333331
 31
0.0
 73
     3
  0
LINE
  5
6F
  8
DIMNSIONS
  6
CONTINUOUS
 62
     7
 10
200.0
 20
319.0
 30
0.0
 11
200.0
 21
269.0
 31
0.0
  0
LINE
  5
70
  8
DIMNSIONS
  6
CONTINUOUS
 62
     7
 10
362.0
 20
319.0
 30
0.0
 11
362.0
 21
269.0
 31
0.0
  0
LINE
  5
71
  8
DIMNSIONS
  6
CONTINUOUS
 62
     7
 10
200.0
 20
275.0
 30
0.0
 11
362.0
 21
275.0
 31
0.0
  0
LINE
  5
72
  8
DIMNSIONS
  6
CONTINUOUS
 62
     7
 10
200.0
 20
275.0
 30
0.0
 11
207.50186767578131
 21
277.01011938545071
 31
0.0
  0
LINE
  5
73
  8
DIMNSIONS
  6
CONTINUOUS
 62
     7
 10
200.0
 20
275.0
 30
0.0
 11
207.50186767578131
 21
272.98988061454929
 31
0.0
  0
LINE
  5
74
  8
DIMNSIONS
  6
CONTINUOUS
 62
     7
 10
362.0
 20
275.0
 30
0.0
 11
354.49813232421877
 21
272.98988061454929
 31
0.0
  0
LINE
  5
75
  8
DIMNSIONS
  6
CONTINUOUS
 62
     7
 10
362.0
 20
275.0
 30
0.0
 11
354.49813232421877
 21
277.01011938545071
 31
0.0
  0
TEXT
  5
76
  8
DIMNSIONS
 62
     7
 10
273.0625
 20
277.98166666666663
 30
0.0
 40
8.1442057291666661
  1
162
 41
0.7
 11
273.0625
 21
286.12587239583331
 31
0.0
 73
     3
  0
LINE
  5
77
  8
DIMNSIONS
  6
CONTINUOUS
 62
     7
 10
207.5
 20
339.39999999999998
 30
0.0
 11
207.5
 21
294.0
 31
0.0
  0
LINE
  5
78
  8
DIMNSIONS
  6
CONTINUOUS
 62
     7
 10
354.5
 20
339.39999999999998
 30
0.0
 11
354.5
 21
294.0
 31
0.0
  0
LINE
  5
79
  8
DIMNSIONS
  6
CONTINUOUS
 62
     7
 10
207.5
 20
300.0
 30
0.0
 11
354.5
 21
300.0
 31
0.0
  0
LINE
  5
7A
  8
DIMNSIONS
  6
CONTINUOUS
 62
     7
 10
207.5
 20
300.0
 30
0.0
 11
215.00186767578131
 21
302.01011938545082
 31
0.0
  0
LINE
  5
7B
  8
DIMNSIONS
  6
CONTINUOUS
 62
     7
 10
207.5
 20
300.0
 30
0.0
 11
215.00186767578131
 21
297.98988061454918
 31
0.0
  0
LINE
  5
7C
  8
DIMNSIONS
  6
CONTINUOUS
 62
     7
 10
354.5
 20
300.0
 30
0.0
 11
346.99813232421877
 21
297.98988061454918
 31
0.0
  0
LINE
  5
7D
  8
DIMNSIONS
  6
CONTINUOUS
 62
     7
 10
354.5
 20
300.0
 30
0.0
 11
346.99813232421877
 21
302.01011938545082
 31
0.0
  0
TEXT
  5
7E
  8
DIMNSIONS
 62
     7
 10
273.0625
 20
302.98166666666663
 30
0.0
 40
8.1442057291666661
  1
147
 41
0.7
 11
273.0625
 21
311.12587239583331
 31
0.0
 73
     3
  0
LINE
  5
7F
  8
DIMNSIONS
  6
CONTINUOUS
 62
     7
 10
194.0
 20
400.0
 30
0.0
 11
144.0
 21
400.0
 31
0.0
  0
LINE
  5
80
  8
DIMNSIONS
  6
CONTINUOUS
 62
     7
 10
211.5
 20
498.0
 30
0.0
 11
144.0
 21
498.0
 31
0.0
  0
LINE
  5
81
  8
DIMNSIONS
  6
CONTINUOUS
 62
     7
 10
150.0
 20
400.0
 30
0.0
 11
150.0
 21
498.0
 31
0.0
  0
LINE
  5
82
  8
DIMNSIONS
  6
CONTINUOUS
 62
     7
 10
150.0
 20
400.0
 30
0.0
 11
147.98988061454921
 21
407.50186767578111
 31
0.0
  0
LINE
  5
83
  8
DIMNSIONS
  6
CONTINUOUS
 62
     7
 10
150.0
 20
400.0
 30
0.0
 11
152.01011938545071
 21
407.50186767578111
 31
0.0
  0
LINE
  5
84
  8
DIMNSIONS
  6
CONTINUOUS
 62
     7
 10
150.0
 20
498.0
 30
0.0
 11
152.01011938545071
 21
490.49813232421877
 31
0.0
  0
LINE
  5
85
  8
DIMNSIONS
  6
CONTINUOUS
 62
     7
 10
150.0
 20
498.0
 30
0.0
 11
147.98988061454921
 21
490.49813232421877
 31
0.0
  0
TEXT
  5
86
  8
DIMNSIONS
 62
     7
 10
147.01833333333329
 20
443.7083333333332
 30
0.0
 40
8.1442057291666661
  1
98
 50
90.0
 41
0.7
 11
138.87412760416669
 21
443.7083333333332
 31
0.0
 73
     3
  0
LINE
  5
87
  8
DIMNSIONS
  6
CONTINUOUS
 62
     7
 10
217.5
 20
504.0
 30
0.0
 11
217.5
 21
556.0
 31
0.0
  0
LINE
  5
88
  8
DIMNSIONS
  6
CONTINUOUS
 62
     7
 10
344.5
 20
504.0
 30
0.0
 11
344.5
 21
556.0
 31
0.0
  0
LINE
  5
89
  8
DIMNSIONS
  6
CONTINUOUS
 62
     7
 10
217.5
 20
550.0
 30
0.0
 11
344.5
 21
550.0
 31
0.0
  0
LINE
  5
8A
  8
DIMNSIONS
  6
CONTINUOUS
 62
     7
 10
217.5
 20
550.0
 30
0.0
 11
225.00186767578131
 21
552.01011938545071
 31
0.0
  0
LINE
  5
8B
  8
DIMNSIONS
  6
CONTINUOUS
 62
     7
 10
217.5
 20
550.0
 30
0.0
 11
225.00186767578131
 21
547.98988061454918
 31
0.0
  0
LINE
  5
8C
  8
DIMNSIONS
  6
CONTINUOUS
 62
     7
 10
344.5
 20
550.0
 30
0.0
 11
336.99813232421877
 21
547.98988061454918
 31
0.0
  0
LINE
  5
8D
  8
DIMNSIONS
  6
CONTINUOUS
 62
     7
 10
344.5
 20
550.0
 30
0.0
 11
336.99813232421877
 21
552.01011938545071
 31
0.0
  0
TEXT
  5
8E
  8
DIMNSIONS
 62
     7
 10
273.0625
 20
552.98166666666668
 30
0.0
 40
8.1442057291666661
  1
127
 41
0.7
 11
273.0625
 21
561.12587239583331
 31
0.0
 73
     3
  0
TEXT
  5
8F
  8
DATA
 62
     7
 10
441.89773467817122
 20
65.282945256387805
 30
0.0
 40
7.3297851562499989
  1
IQ-PIP-LITE
 41
0.7
 11
441.89773467817122
 21
72.612730412637802
 31
0.0
 73
     3
  0
TEXT
  5
90
  8
DATA
 62
     7
 10
60.0
 20
42.713999999999977
 30
0.0
 40
4.8865234374999993
  1
仕様および外観は予告なく変更されることがありますので、ご了承ください。
 41
0.7
 11
60.0
 21
47.600523437499987
 31
0.0
 73
     3
  0
LINE
  5
91
  8
DATA
  6
CONTINUOUS
 62
     7
 10
200.0
 20
325.0
 30
0.0
 11
200.0
 21
369.0
 31
0.0
  0
LINE
  5
92
  8
DATA
  6
CONTINUOUS
 62
     7
 10
362.0
 20
325.0
 30
0.0
 11
200.0
 21
325.0
 31
0.0
  0
LINE
  5
93
  8
DATA
  6
CONTINUOUS
 62
     7
 10
362.0
 20
369.0
 30
0.0
 11
362.0
 21
325.0
 31
0.0
  0
LINE
  5
94
  8
DATA
  6
CONTINUOUS
 62
     7
 10
200.0
 20
369.0
 30
0.0
 11
362.0
 21
369.0
 31
0.0
  0
LINE
  5
95
  8
DATA
  6
CONTINUOUS
 62
     7
 10
362.0
 20
250.0
 30
0.0
 11
362.0
 21
248.19999999999999
 31
0.0
  0
LINE
  5
96
  8
DATA
  6
CONTINUOUS
 62
     7
 10
200.0
 20
250.0
 30
0.0
 11
362.0
 21
250.0
 31
0.0
  0
LINE
  5
97
  8
DATA
  6
CONTINUOUS
 62
     7
 10
200.0
 20
248.19999999999999
 30
0.0
 11
200.0
 21
250.0
 31
0.0
  0
CIRCLE
  5
98
  8
DATA
  6
CONTINUOUS
 62
     7
 10
207.5
 20
347.75
 30
0.0
 40
2.3499999999999939
  0
CIRCLE
  5
99
  8
DATA
  6
CONTINUOUS
 62
     7
 10
354.5
 20
347.75
 30
0.0
 40
2.350000000000001
  0
LINE
  5
9A
  8
DATA
  6
CONTINUOUS
 62
     7
 10
230.0
 20
354.5
 30
0.0
 11
230.0
 21
342.5
 31
0.0
  0
LINE
  5
9B
  8
DATA
  6
CONTINUOUS
 62
     7
 10
247.69999999999999
 20
354.5
 30
0.0
 11
247.69999999999999
 21
342.5
 31
0.0
  0
LINE
  5
9C
  8
DATA
  6
CONTINUOUS
 62
     7
 10
230.0
 20
342.5
 30
0.0
 11
247.69999999999999
 21
342.5
 31
0.0
  0
LINE
  5
9D
  8
DATA
  6
CONTINUOUS
 62
     7
 10
230.0
 20
345.5
 30
0.0
 11
247.69999999999999
 21
345.5
 31
0.0
  0
LINE
  5
9E
  8
DATA
  6
CONTINUOUS
 62
     7
 10
230.0
 20
354.5
 30
0.0
 11
247.69999999999999
 21
354.5
 31
0.0
  0
LINE
  5
9F
  8
DATA
  6
CONTINUOUS
 62
     7
 10
330.0
 20
354.0
 30
0.0
 11
330.0
 21
340.0
 31
0.0
  0
LINE
  5
A0
  8
DATA
  6
CONTINUOUS
 62
     7
 10
313.0
 20
354.0
 30
0.0
 11
313.0
 21
340.0
 31
0.0
  0
LINE
  5
A1
  8
DATA
  6
CONTINUOUS
 62
     7
 10
313.0
 20
340.0
 30
0.0
 11
330.0
 21
340.0
 31
0.0
  0
LINE
  5
A2
  8
DATA
  6
CONTINUOUS
 62
     7
 10
313.0
 20
354.0
 30
0.0
 11
330.0
 21
354.0
 31
0.0
  0
LINE
  5
A3
  8
DATA
  6
CONTINUOUS
 62
     7
 10
307.0
 20
342.0
 30
0.0
 11
307.0
 21
354.0
 31
0.0
  0
LINE
  5
A4
  8
DATA
  6
CONTINUOUS
 62
     7
 10
293.0
 20
342.0
 30
0.0
 11
293.0
 21
354.0
 31
0.0
  0
LINE
  5
A5
  8
DATA
  6
CONTINUOUS
 62
     7
 10
307.0
 20
354.0
 30
0.0
 11
293.0
 21
354.0
 31
0.0
  0
LINE
  5
A6
  8
DATA
  6
CONTINUOUS
 62
     7
 10
307.0
 20
342.0
 30
0.0
 11
293.0
 21
342.0
 31
0.0
  0
CIRCLE
  5
A7
  8
DATA
  6
CONTINUOUS
 62
     7
 10
275.0
 20
354.5
 30
0.0
 40
1.5
  0
CIRCLE
  5
A8
  8
DATA
  6
CONTINUOUS
 62
     7
 10
289.0
 20
354.5
 30
0.0
 40
1.5
  0
CIRCLE
  5
A9
  8
DATA
  6
CONTINUOUS
 62
     7
 10
282.0
 20
354.5
 30
0.0
 40
0.9500000000000028
  0
TEXT
  5
AA
  8
DATA
 62
     7
 10
227.07151013251479
 20
359.0174295685747
 30
0.0
 40
7.4083333333333314
  1
HiQ
 41
0.7
 11
227.07151013251479
 21
366.425762901908
 31
0.0
 73
     3
  0
TEXT
  5
AB
  8
DATA
 62
     7
 10
240.7263786896084
 20
359.11947285973503
 30
0.0
 40
6.482291666666665
  1
net
 41
0.7
 11
240.7263786896084
 21
365.60176452640172
 31
0.0
 73
     3
  0
TEXT
  5
AC
  8
DATA
 62
     7
 10
227.4631250017066
 20
326.65074340301931
 30
0.0
 40
3.664892578124999
  1
ANALOG AUDIO INPUTS
 41
0.7
 11
227.4631250017066
 21
330.31563598114428
 31
0.0
 73
     3
  0
TEXT
  5
AD
  8
DATA
 62
     7
 10
271.8781935874664
 20
356.71329432999278
 30
0.0
 40
1.852083333333332
  1
PRESET
 41
0.7
 11
271.8781935874664
 21
358.5653776633261
 31
0.0
 73
     3
  0
TEXT
  5
AE
  8
DATA
 62
     7
 10
285.32664096518488
 20
356.71931277214799
 30
0.0
 40
1.852083333333332
  1
IQ DATA
 41
0.7
 11
285.32664096518488
 21
358.57139610548131
 31
0.0
 73
     3
  0
TEXT
  5
AF
  8
DATA
 62
     7
 10
296.33724439272549
 20
356.75647982909749
 30
0.0
 40
3.664892578124999
  1
AUX
 41
0.7
 11
296.33724439272549
 21
360.42137240722252
 31
0.0
 73
     3
  0
TEXT
  5
B0
  8
DATA
 62
     7
 10
313.19224766999372
 20
356.8288805917677
 30
0.0
 40
3.664892578124999
  1
NETWORK
 41
0.7
 11
313.19224766999372
 21
360.49377316989268
 31
0.0
 73
     3
  0
TEXT
  5
B1
  8
DATA
 62
     7
 10
313.137292180911
 20
337.29921782314062
 30
0.0
 40
1.6288411458333329
  1
LINK
 41
0.7
 11
313.137292180911
 21
338.92805896897391
 31
0.0
 73
     3
  0
TEXT
  5
B2
  8
DATA
 62
     7
 10
313.55409124449852
 20
335.25149893560229
 30
0.0
 40
1.6288411458333329
  1
ACT
 41
0.7
 11
313.55409124449852
 21
336.88034008143569
 31
0.0
 73
     3
  0
TEXT
  5
B3
  8
DATA
 62
     7
 10
326.27458436182201
 20
337.29921782314062
 30
0.0
 40
1.6288411458333329
  1
100
 41
0.7
 11
326.27458436182201
 21
338.92805896897391
 31
0.0
 73
     3
  0
TEXT
  5
B4
  8
DATA
 62
     7
 10
326.90774840340328
 20
335.25149893560229
 30
0.0
 40
1.6288411458333329
  1
MB
 41
0.7
 11
326.90774840340328
 21
336.88034008143569
 31
0.0
 73
     3
  0
LINE
  5
B5
  8
DATA
  6
CONTINUOUS
 62
     7
 10
315.0
 20
351.19999999999999
 30
0.0
 11
328.0
 21
351.19999999999999
 31
0.0
  0
LINE
  5
B6
  8
DATA
  6
CONTINUOUS
 62
     7
 10
315.0
 20
351.19999999999999
 30
0.0
 11
315.0
 21
344.0
 31
0.0
  0
LINE
  5
B7
  8
DATA
  6
CONTINUOUS
 62
     7
 10
328.0
 20
351.19999999999999
 30
0.0
 11
328.0
 21
344.0
 31
0.0
  0
LINE
  5
B8
  8
DATA
  6
CONTINUOUS
 62
     7
 10
313.0
 20
344.0
 30
0.0
 11
318.19999999999999
 21
344.0
 31
0.0
  0
LINE
  5
B9
  8
DATA
  6
CONTINUOUS
 62
     7
 10
324.80000000000001
 20
344.0
 30
0.0
 11
330.0
 21
344.0
 31
0.0
  0
LINE
  5
BA
  8
DATA
  6
CONTINUOUS
 62
     7
 10
318.19999999999999
 20
344.0
 30
0.0
 11
318.19999999999999
 21
340.0
 31
0.0
  0
LINE
  5
BB
  8
DATA
  6
CONTINUOUS
 62
     7
 10
324.80000000000001
 20
344.0
 30
0.0
 11
324.80000000000001
 21
340.0
 31
0.0
  0
LINE
  5
BC
  8
DATA
  6
CONTINUOUS
 62
     7
 10
305.10000000000002
 20
344.0
 30
0.0
 11
294.89999999999998
 21
344.0
 31
0.0
  0
LINE
  5
BD
  8
DATA
  6
CONTINUOUS
 62
     7
 10
294.89999999999998
 20
352.10000000000002
 30
0.0
 11
294.89999999999998
 21
344.0
 31
0.0
  0
LINE
  5
BE
  8
DATA
  6
CONTINUOUS
 62
     7
 10
305.10000000000002
 20
352.10000000000002
 30
0.0
 11
305.10000000000002
 21
344.0
 31
0.0
  0
LINE
  5
BF
  8
DATA
  6
CONTINUOUS
 62
     7
 10
305.10000000000002
 20
352.10000000000002
 30
0.0
 11
303.5
 21
352.10000000000002
 31
0.0
  0
LINE
  5
C0
  8
DATA
  6
CONTINUOUS
 62
     7
 10
296.5
 20
352.10000000000002
 30
0.0
 11
294.89999999999998
 21
352.10000000000002
 31
0.0
  0
LINE
  5
C1
  8
DATA
  6
CONTINUOUS
 62
     7
 10
296.5
 20
352.10000000000002
 30
0.0
 11
296.5
 21
354.0
 31
0.0
  0
LINE
  5
C2
  8
DATA
  6
CONTINUOUS
 62
     7
 10
303.5
 20
352.10000000000002
 30
0.0
 11
303.5
 21
354.0
 31
0.0
  0
TEXT
  5
C3
  8
DATA
 62
     7
 10
292.27141884937322
 20
326.61885604632789
 30
0.0
 40
3.664892578124999
  1
LISTEN
 41
0.7
 11
292.27141884937322
 21
330.28374862445293
 31
0.0
 73
     3
  0
LINE
  5
C4
  8
DATA
  6
CONTINUOUS
 62
     7
 10
293.0
 20
341.28177056275649
 30
0.0
 11
293.0
 21
334.30118771564162
 31
0.0
  0
LINE
  5
C5
  8
DATA
  6
CONTINUOUS
 62
     7
 10
307.0
 20
341.28177056275649
 30
0.0
 11
307.0
 21
334.30118771564162
 31
0.0
  0
LINE
  5
C6
  8
DATA
  6
CONTINUOUS
 62
     7
 10
304.19999999999999
 20
340.08177056275662
 30
0.0
 11
304.19999999999999
 21
338.74531528977161
 31
0.0
  0
LINE
  5
C7
  8
DATA
  6
CONTINUOUS
 62
     7
 10
301.399
 20
341.04759350648089
 30
0.0
 11
301.399
 21
339.97072016902212
 31
0.0
  0
LINE
  5
C8
  8
DATA
  6
CONTINUOUS
 62
     7
 10
298.60000000000002
 20
341.28177056275649
 30
0.0
 11
298.60000000000002
 21
339.9453152897716
 31
0.0
  0
LINE
  5
C9
  8
DATA
  6
CONTINUOUS
 62
     7
 10
298.60000000000002
 20
338.74531528977161
 30
0.0
 11
298.60000000000002
 21
338.73751646894488
 31
0.0
  0
LINE
  5
CA
  8
DATA
  6
CONTINUOUS
 62
     7
 10
295.80000000000001
 20
341.28177056275649
 30
0.0
 11
295.80000000000001
 21
336.90000000000009
 31
0.0
  0
LINE
  5
CB
  8
DATA
  6
CONTINUOUS
 62
     7
 10
299.19999999999999
 20
339.9453152897716
 30
0.0
 11
298.60000000000002
 21
338.7453152897715
 31
0.0
  0
LINE
  5
CC
  8
DATA
  6
CONTINUOUS
 62
     7
 10
298.0
 20
339.9453152897716
 30
0.0
 11
298.60000000000002
 21
338.7453152897715
 31
0.0
  0
LINE
  5
CD
  8
DATA
  6
CONTINUOUS
 62
     7
 10
303.60000000000002
 20
340.08177056275662
 30
0.0
 11
304.19999999999999
 21
341.28177056275649
 31
0.0
  0
LINE
  5
CE
  8
DATA
  6
CONTINUOUS
 62
     7
 10
304.80000000000001
 20
340.08177056275662
 30
0.0
 11
304.19999999999999
 21
341.28177056275649
 31
0.0
  0
LINE
  5
CF
  8
DATA
  6
CONTINUOUS
 62
     7
 10
303.60000000000002
 20
340.08177056275662
 30
0.0
 11
304.80000000000001
 21
340.08177056275662
 31
0.0
  0
LINE
  5
D0
  8
DATA
  6
CONTINUOUS
 62
     7
 10
298.0
 20
339.9453152897716
 30
0.0
 11
299.19999999999999
 21
339.9453152897716
 31
0.0
  0
LINE
  5
D1
  8
DATA
  6
CONTINUOUS
 62
     7
 10
301.54300000000001
 20
339.97072016902212
 30
0.0
 11
301.08311561943469
 21
339.1741770562756
 31
0.0
  0
LINE
  5
D2
  8
DATA
  6
CONTINUOUS
 62
     7
 10
300.90300000000002
 20
339.97072016902212
 30
0.0
 11
300.44311561943471
 21
339.1741770562756
 31
0.0
  0
LINE
  5
D3
  8
DATA
  6
CONTINUOUS
 62
     7
 10
302.18299999999999
 20
339.97072016902212
 30
0.0
 11
301.72311561943468
 21
339.1741770562756
 31
0.0
  0
LINE
  5
D4
  8
DATA
  6
CONTINUOUS
 62
     7
 10
302.399
 20
339.97072016902212
 30
0.0
 11
300.39100000000002
 21
339.97072016902212
 31
0.0
  0
TEXT
  5
D5
  8
DATA
 62
     7
 10
298.38525568969891
 20
336.25630299383869
 30
0.0
 40
1.6288411458333329
  1
+15v
 41
0.7
 11
298.38525568969891
 21
337.88514413967209
 31
0.0
 73
     3
  0
LINE
  5
D6
  8
DATA
  6
CONTINUOUS
 62
     7
 10
297.31171173163949
 20
336.90000000000009
 30
0.0
 11
295.80000000000001
 21
336.90000000000009
 31
0.0
  0
TEXT
  5
D7
  8
DATA
 62
     7
 10
303.08000616922988
 20
332.75189078673111
 30
0.0
 40
3.2576822916666659
  1
+
 41
0.7
 11
303.08000616922988
 21
336.00957307839781
 31
0.0
 73
     3
  0
TEXT
  5
D8
  8
DATA
 62
     7
 10
294.9607697669548
 20
332.75189078673111
 30
0.0
 40
3.2576822916666659
  1
-
 41
0.7
 11
294.9607697669548
 21
336.00957307839781
 31
0.0
 73
     3
  0
LINE
  5
D9
  8
DATA
  6
CONTINUOUS
 62
     7
 10
294.0
 20
334.30118771564162
 30
0.0
 11
293.0
 21
334.30118771564162
 31
0.0
  0
LINE
  5
DA
  8
DATA
  6
CONTINUOUS
 62
     7
 10
307.0
 20
334.30118771564162
 30
0.0
 11
306.0
 21
334.30118771564162
 31
0.0
  0
TEXT
  5
DB
  8
DATA
 62
     7
 10
328.1074513347649
 20
328.99401390435298
 30
0.0
 40
4.8865234374999993
  1
PIP-LITE
 41
0.7
 11
328.1074513347649
 21
333.88053734185303
 31
0.0
 73
     3
  0
POLYLINE
  5
DC
  8
DATA
  6
CONTINUOUS
 62
     7
 66
     1
 10
0.0
 20
0.0
 30
0.0
 70
     1
  0
VERTEX
  5
205
  8
DATA
  6
CONTINUOUS
 62
     7
 10
238.34999999999999
 20
349.5
 30
0.0
  0
VERTEX
  5
206
  8
DATA
  6
CONTINUOUS
 62
     7
 10
239.34999999999999
 20
349.5
 30
0.0
  0
VERTEX
  5
207
  8
DATA
  6
CONTINUOUS
 62
     7
 10
239.34999999999999
 20
348.69999999999999
 30
0.0
  0
VERTEX
  5
208
  8
DATA
  6
CONTINUOUS
 62
     7
 10
238.34999999999999
 20
348.69999999999999
 30
0.0
  0
SEQEND
  5
209
  8
DATA
  6
CONTINUOUS
 62
     7
  0
POLYLINE
  5
E3
  8
DATA
  6
CONTINUOUS
 62
     7
 66
     1
 10
0.0
 20
0.0
 30
0.0
 70
     1
  0
VERTEX
  5
20A
  8
DATA
  6
CONTINUOUS
 62
     7
 10
233.44999999999999
 20
349.5
 30
0.0
  0
VERTEX
  5
20B
  8
DATA
  6
CONTINUOUS
 62
     7
 10
234.44999999999999
 20
349.5
 30
0.0
  0
VERTEX
  5
20C
  8
DATA
  6
CONTINUOUS
 62
     7
 10
234.44999999999999
 20
348.69999999999999
 30
0.0
  0
VERTEX
  5
20D
  8
DATA
  6
CONTINUOUS
 62
     7
 10
233.44999999999999
 20
348.69999999999999
 30
0.0
  0
SEQEND
  5
20E
  8
DATA
  6
CONTINUOUS
 62
     7
  0
POLYLINE
  5
EA
  8
DATA
  6
CONTINUOUS
 62
     7
 66
     1
 10
0.0
 20
0.0
 30
0.0
 70
     1
  0
VERTEX
  5
20F
  8
DATA
  6
CONTINUOUS
 62
     7
 10
243.25
 20
349.5
 30
0.0
  0
VERTEX
  5
210
  8
DATA
  6
CONTINUOUS
 62
     7
 10
244.25
 20
349.5
 30
0.0
  0
VERTEX
  5
211
  8
DATA
  6
CONTINUOUS
 62
     7
 10
244.25
 20
348.69999999999999
 30
0.0
  0
VERTEX
  5
212
  8
DATA
  6
CONTINUOUS
 62
     7
 10
243.25
 20
348.69999999999999
 30
0.0
  0
SEQEND
  5
213
  8
DATA
  6
CONTINUOUS
 62
     7
  0
LINE
  5
F1
  8
DATA
  6
CONTINUOUS
 62
     7
 10
230.0
 20
345.86000000000001
 30
0.0
 11
247.69999999999999
 21
345.86000000000001
 31
0.0
  0
ARC
  5
F2
  8
DATA
  6
CONTINUOUS
 62
     7
 10
238.84999999999999
 20
349.83736578460292
 30
0.0
 40
3.9695307847606549
 50
46.149656081533458
 51
133.85034391846619
  0
ARC
  5
F3
  8
DATA
  6
CONTINUOUS
 62
     7
 10
244.34999999999999
 20
349.83736578460292
 30
0.0
 40
3.9695307847606549
 50
46.149656081533458
 51
133.85034391846619
  0
ARC
  5
F4
  8
DATA
  6
CONTINUOUS
 62
     7
 10
233.34999999999999
 20
349.83736578460292
 30
0.0
 40
3.9695307847606549
 50
46.149656081533458
 51
133.85034391846619
  0
LINE
  5
F5
  8
DATA
  6
CONTINUOUS
 62
     7
 10
230.59999999999999
 20
352.7000000000001
 30
0.0
 11
230.0
 21
352.7000000000001
 31
0.0
  0
LINE
  5
F6
  8
DATA
  6
CONTINUOUS
 62
     7
 10
247.09999999999999
 20
352.7000000000001
 30
0.0
 11
247.69999999999999
 21
352.7000000000001
 31
0.0
  0
TEXT
  5
F7
  8
DATA
 62
     7
 10
242.73635590687539
 20
338.99727631017703
 30
0.0
 40
3.2576822916666659
  1
+
 41
0.7
 11
242.73635590687539
 21
342.25495860184373
 31
0.0
 73
     3
  0
TEXT
  5
F8
  8
DATA
 62
     7
 10
232.83389938075049
 20
339.0145090242608
 30
0.0
 40
3.2576822916666659
  1
-
 41
0.7
 11
232.83389938075049
 21
342.2721913159275
 31
0.0
 73
     3
  0
LINE
  5
F9
  8
DATA
  6
CONTINUOUS
 62
     7
 10
239.07529646869099
 20
339.15304410636321
 30
0.0
 11
238.385469897843
 21
337.95822943724352
 31
0.0
  0
LINE
  5
FA
  8
DATA
  6
CONTINUOUS
 62
     7
 10
238.11529646869101
 20
339.15304410636321
 30
0.0
 11
237.42546989784299
 21
337.95822943724352
 31
0.0
  0
LINE
  5
FB
  8
DATA
  6
CONTINUOUS
 62
     7
 10
240.03529646869089
 20
339.15304410636321
 30
0.0
 11
239.345469897843
 21
337.95822943724352
 31
0.0
  0
LINE
  5
FC
  8
DATA
  6
CONTINUOUS
 62
     7
 10
240.35929646869101
 20
339.15304410636321
 30
0.0
 11
237.34729646869101
 21
339.15304410636321
 31
0.0
  0
LINE
  5
FD
  8
DATA
  6
CONTINUOUS
 62
     7
 10
238.85929646869101
 20
339.15304410636321
 30
0.0
 11
238.85929646869101
 21
342.10000000000002
 31
0.0
  0
LINE
  5
FE
  8
DATA
  6
CONTINUOUS
 62
     7
 10
254.0
 20
354.5
 30
0.0
 11
254.0
 21
342.5
 31
0.0
  0
LINE
  5
FF
  8
DATA
  6
CONTINUOUS
 62
     7
 10
271.69999999999999
 20
354.5
 30
0.0
 11
271.69999999999999
 21
342.5
 31
0.0
  0
LINE
  5
100
  8
DATA
  6
CONTINUOUS
 62
     7
 10
254.0
 20
342.5
 30
0.0
 11
271.69999999999999
 21
342.5
 31
0.0
  0
LINE
  5
101
  8
DATA
  6
CONTINUOUS
 62
     7
 10
254.0
 20
345.5
 30
0.0
 11
271.69999999999999
 21
345.5
 31
0.0
  0
LINE
  5
102
  8
DATA
  6
CONTINUOUS
 62
     7
 10
254.0
 20
354.5
 30
0.0
 11
271.69999999999999
 21
354.5
 31
0.0
  0
POLYLINE
  5
103
  8
DATA
  6
CONTINUOUS
 62
     7
 66
     1
 10
0.0
 20
0.0
 30
0.0
 70
     1
  0
VERTEX
  5
214
  8
DATA
  6
CONTINUOUS
 62
     7
 10
262.35000000000002
 20
349.5
 30
0.0
  0
VERTEX
  5
215
  8
DATA
  6
CONTINUOUS
 62
     7
 10
263.35000000000002
 20
349.5
 30
0.0
  0
VERTEX
  5
216
  8
DATA
  6
CONTINUOUS
 62
     7
 10
263.35000000000002
 20
348.69999999999999
 30
0.0
  0
VERTEX
  5
217
  8
DATA
  6
CONTINUOUS
 62
     7
 10
262.35000000000002
 20
348.69999999999999
 30
0.0
  0
SEQEND
  5
218
  8
DATA
  6
CONTINUOUS
 62
     7
  0
POLYLINE
  5
10A
  8
DATA
  6
CONTINUOUS
 62
     7
 66
     1
 10
0.0
 20
0.0
 30
0.0
 70
     1
  0
VERTEX
  5
219
  8
DATA
  6
CONTINUOUS
 62
     7
 10
257.44999999999999
 20
349.5
 30
0.0
  0
VERTEX
  5
21A
  8
DATA
  6
CONTINUOUS
 62
     7
 10
258.44999999999999
 20
349.5
 30
0.0
  0
VERTEX
  5
21B
  8
DATA
  6
CONTINUOUS
 62
     7
 10
258.44999999999999
 20
348.69999999999999
 30
0.0
  0
VERTEX
  5
21C
  8
DATA
  6
CONTINUOUS
 62
     7
 10
257.44999999999999
 20
348.69999999999999
 30
0.0
  0
SEQEND
  5
21D
  8
DATA
  6
CONTINUOUS
 62
     7
  0
POLYLINE
  5
111
  8
DATA
  6
CONTINUOUS
 62
     7
 66
     1
 10
0.0
 20
0.0
 30
0.0
 70
     1
  0
VERTEX
  5
21E
  8
DATA
  6
CONTINUOUS
 62
     7
 10
267.25
 20
349.5
 30
0.0
  0
VERTEX
  5
21F
  8
DATA
  6
CONTINUOUS
 62
     7
 10
268.25
 20
349.5
 30
0.0
  0
VERTEX
  5
220
  8
DATA
  6
CONTINUOUS
 62
     7
 10
268.25
 20
348.69999999999999
 30
0.0
  0
VERTEX
  5
221
  8
DATA
  6
CONTINUOUS
 62
     7
 10
267.25
 20
348.69999999999999
 30
0.0
  0
SEQEND
  5
222
  8
DATA
  6
CONTINUOUS
 62
     7
  0
LINE
  5
118
  8
DATA
  6
CONTINUOUS
 62
     7
 10
254.0
 20
345.86000000000001
 30
0.0
 11
271.69999999999999
 21
345.86000000000001
 31
0.0
  0
ARC
  5
119
  8
DATA
  6
CONTINUOUS
 62
     7
 10
262.85000000000002
 20
349.83736578460292
 30
0.0
 40
3.9695307847606549
 50
46.149656081533458
 51
133.85034391846619
  0
ARC
  5
11A
  8
DATA
  6
CONTINUOUS
 62
     7
 10
268.35000000000002
 20
349.83736578460292
 30
0.0
 40
3.9695307847606549
 50
46.149656081533458
 51
133.85034391846619
  0
ARC
  5
11B
  8
DATA
  6
CONTINUOUS
 62
     7
 10
257.35000000000002
 20
349.83736578460292
 30
0.0
 40
3.9695307847606549
 50
46.149656081533458
 51
133.85034391846619
  0
LINE
  5
11C
  8
DATA
  6
CONTINUOUS
 62
     7
 10
254.59999999999999
 20
352.7000000000001
 30
0.0
 11
254.0
 21
352.7000000000001
 31
0.0
  0
LINE
  5
11D
  8
DATA
  6
CONTINUOUS
 62
     7
 10
271.10000000000002
 20
352.7000000000001
 30
0.0
 11
271.69999999999999
 21
352.7000000000001
 31
0.0
  0
TEXT
  5
11E
  8
DATA
 62
     7
 10
266.73635590687542
 20
338.99727631017703
 30
0.0
 40
3.2576822916666659
  1
+
 41
0.7
 11
266.73635590687542
 21
342.25495860184373
 31
0.0
 73
     3
  0
TEXT
  5
11F
  8
DATA
 62
     7
 10
256.83389938075038
 20
339.0145090242608
 30
0.0
 40
3.2576822916666659
  1
-
 41
0.7
 11
256.83389938075038
 21
342.2721913159275
 31
0.0
 73
     3
  0
LINE
  5
120
  8
DATA
  6
CONTINUOUS
 62
     7
 10
263.07529646869102
 20
339.15304410636321
 30
0.0
 11
262.385469897843
 21
337.95822943724352
 31
0.0
  0
LINE
  5
121
  8
DATA
  6
CONTINUOUS
 62
     7
 10
262.11529646869099
 20
339.15304410636321
 30
0.0
 11
261.42546989784302
 21
337.95822943724352
 31
0.0
  0
LINE
  5
122
  8
DATA
  6
CONTINUOUS
 62
     7
 10
264.03529646869089
 20
339.15304410636321
 30
0.0
 11
263.34546989784297
 21
337.95822943724352
 31
0.0
  0
LINE
  5
123
  8
DATA
  6
CONTINUOUS
 62
     7
 10
264.35929646869101
 20
339.15304410636321
 30
0.0
 11
261.34729646869101
 21
339.15304410636321
 31
0.0
  0
LINE
  5
124
  8
DATA
  6
CONTINUOUS
 62
     7
 10
262.85929646869101
 20
339.15304410636321
 30
0.0
 11
262.85929646869101
 21
342.10000000000002
 31
0.0
  0
LINE
  5
125
  8
DATA
  6
CONTINUOUS
 62
     7
 10
200.0
 20
248.19999999999999
 30
0.0
 11
362.0
 21
248.19999999999999
 31
0.0
  0
LINE
  5
126
  8
DATA
  6
CONTINUOUS
 62
     7
 10
217.5
 20
152.0
 30
0.0
 11
217.5
 21
247.19999999999999
 31
0.0
  0
LINE
  5
127
  8
DATA
  6
CONTINUOUS
 62
     7
 10
344.5
 20
247.19999999999999
 30
0.0
 11
344.5
 21
152.0
 31
0.0
  0
LINE
  5
128
  8
DATA
  6
CONTINUOUS
 62
     7
 10
217.5
 20
152.0
 30
0.0
 11
344.5
 21
152.0
 31
0.0
  0
CIRCLE
  5
129
  8
DATA
  6
CONTINUOUS
 62
     7
 10
339.5
 20
240.19999999999999
 30
0.0
 40
4.0
  0
LINE
  5
12A
  8
DATA
  6
CONTINUOUS
 62
     7
 10
342.0
 20
240.19999999999999
 30
0.0
 11
337.0
 21
240.19999999999999
 31
0.0
  0
LINE
  5
12B
  8
DATA
  6
CONTINUOUS
 62
     7
 10
339.5
 20
242.69999999999999
 30
0.0
 11
339.5
 21
237.76848724084741
 31
0.0
  0
CIRCLE
  5
12C
  8
DATA
  6
CONTINUOUS
 62
     7
 10
222.5
 20
240.19999999999999
 30
0.0
 40
4.0
  0
LINE
  5
12D
  8
DATA
  6
CONTINUOUS
 62
     7
 10
225.0
 20
240.19999999999999
 30
0.0
 11
220.0
 21
240.19999999999999
 31
0.0
  0
LINE
  5
12E
  8
DATA
  6
CONTINUOUS
 62
     7
 10
222.5
 20
242.69999999999999
 30
0.0
 11
222.5
 21
237.76848724084741
 31
0.0
  0
LINE
  5
12F
  8
DATA
  6
CONTINUOUS
 62
     7
 10
217.5
 20
247.19999999999999
 30
0.0
 11
344.5
 21
247.19999999999999
 31
0.0
  0
LINE
  5
130
  8
DATA
  6
CONTINUOUS
 62
     7
 10
344.5
 20
247.19999999999999
 30
0.0
 11
344.5
 21
248.19999999999999
 31
0.0
  0
LINE
  5
131
  8
DATA
  6
CONTINUOUS
 62
     7
 10
217.5
 20
247.19999999999999
 30
0.0
 11
217.5
 21
248.19999999999999
 31
0.0
  0
LINE
  5
132
  8
DATA
  6
CONTINUOUS
 62
     7
 10
227.5
 20
247.19999999999999
 30
0.0
 11
227.5
 21
248.19999999999999
 31
0.0
  0
LINE
  5
133
  8
DATA
  6
CONTINUOUS
 62
     7
 10
362.0
 20
400.0
 30
0.0
 11
362.0
 21
401.7999999999999
 31
0.0
  0
LINE
  5
134
  8
DATA
  6
CONTINUOUS
 62
     7
 10
200.0
 20
400.0
 30
0.0
 11
362.0
 21
400.0
 31
0.0
  0
LINE
  5
135
  8
DATA
  6
CONTINUOUS
 62
     7
 10
200.0
 20
401.7999999999999
 30
0.0
 11
200.0
 21
400.0
 31
0.0
  0
LINE
  5
136
  8
DATA
  6
CONTINUOUS
 62
     7
 10
200.0
 20
401.7999999999999
 30
0.0
 11
362.0
 21
401.7999999999999
 31
0.0
  0
LINE
  5
137
  8
DATA
  6
CONTINUOUS
 62
     7
 10
217.5
 20
498.0
 30
0.0
 11
217.5
 21
402.80000000000001
 31
0.0
  0
LINE
  5
138
  8
DATA
  6
CONTINUOUS
 62
     7
 10
344.5
 20
402.80000000000001
 30
0.0
 11
344.5
 21
498.0
 31
0.0
  0
LINE
  5
139
  8
DATA
  6
CONTINUOUS
 62
     7
 10
217.5
 20
498.0
 30
0.0
 11
344.5
 21
498.0
 31
0.0
  0
LINE
  5
13A
  8
DATA
  6
CONTINUOUS
 62
     7
 10
217.5
 20
402.80000000000001
 30
0.0
 11
344.5
 21
402.80000000000001
 31
0.0
  0
LINE
  5
13B
  8
DATA
  6
CONTINUOUS
 62
     7
 10
344.5
 20
402.80000000000001
 30
0.0
 11
344.5
 21
401.7999999999999
 31
0.0
  0
LINE
  5
13C
  8
DATA
  6
CONTINUOUS
 62
     7
 10
217.5
 20
402.80000000000001
 30
0.0
 11
217.5
 21
401.7999999999999
 31
0.0
  0
LINE
  5
13D
  8
DATA
  6
CONTINUOUS
 62
     7
 10
227.5
 20
402.80000000000001
 30
0.0
 11
227.5
 21
401.7999999999999
 31
0.0
  0
LINE
  5
13E
  8
DATA
  6
CONTINUOUS
 62
     7
 10
334.5
 20
247.19999999999999
 30
0.0
 11
334.5
 21
248.19999999999999
 31
0.0
  0
LINE
  5
13F
  8
DATA
  6
CONTINUOUS
 62
     7
 10
334.5
 20
402.80000000000001
 30
0.0
 11
334.5
 21
401.7999999999999
 31
0.0
  0
CIRCLE
  5
140
  8
DATA
  6
CONTINUOUS
 62
     7
 10
222.5
 20
409.7999999999999
 30
0.0
 40
1.8100000000000021
  0
ARC
  5
141
  8
DATA
  6
CONTINUOUS
 62
     7
 10
222.5
 20
409.7999999999999
 30
0.0
 40
4.5000000000000648
 50
118.54036548487601
 51
61.459634515124137
  0
LINE
  5
142
  8
DATA
  6
CONTINUOUS
 62
     7
 10
227.5
 20
403.5
 30
0.0
 11
217.5
 21
403.5
 31
0.0
  0
LINE
  5
143
  8
DATA
  6
CONTINUOUS
 62
     7
 10
227.5
 20
402.80000000000001
 30
0.0
 11
227.5
 21
403.5
 31
0.0
  0
LINE
  5
144
  8
DATA
  6
CONTINUOUS
 62
     7
 10
224.65000000000001
 20
405.84683670967161
 30
0.0
 11
224.65000000000001
 21
403.5
 31
0.0
  0
LINE
  5
145
  8
DATA
  6
CONTINUOUS
 62
     7
 10
220.34999999999999
 20
403.5
 30
0.0
 11
220.34999999999999
 21
405.84683670967161
 31
0.0
  0
LINE
  5
146
  8
DATA
  6
CONTINUOUS
 62
     7
 10
224.65000000000001
 20
413.75316329032808
 30
0.0
 11
223.3647777777779
 21
411.39005012344319
 31
0.0
  0
LINE
  5
147
  8
DATA
  6
CONTINUOUS
 62
     7
 10
220.34999999999999
 20
413.75316329032808
 30
0.0
 11
221.63522222222221
 21
411.39005012344319
 31
0.0
  0
CIRCLE
  5
148
  8
DATA
  6
CONTINUOUS
 62
     7
 10
339.5
 20
409.7999999999999
 30
0.0
 40
1.8100000000000021
  0
ARC
  5
149
  8
DATA
  6
CONTINUOUS
 62
     7
 10
339.5
 20
409.7999999999999
 30
0.0
 40
4.5000000000000719
 50
118.5403654848762
 51
61.459634515124137
  0
LINE
  5
14A
  8
DATA
  6
CONTINUOUS
 62
     7
 10
344.5
 20
403.5
 30
0.0
 11
334.5
 21
403.5
 31
0.0
  0
LINE
  5
14B
  8
DATA
  6
CONTINUOUS
 62
     7
 10
344.5
 20
402.80000000000001
 30
0.0
 11
344.5
 21
403.5
 31
0.0
  0
LINE
  5
14C
  8
DATA
  6
CONTINUOUS
 62
     7
 10
341.64999999999998
 20
405.84683670967161
 30
0.0
 11
341.64999999999998
 21
403.5
 31
0.0
  0
LINE
  5
14D
  8
DATA
  6
CONTINUOUS
 62
     7
 10
337.35000000000002
 20
403.5
 30
0.0
 11
337.35000000000002
 21
405.84683670967161
 31
0.0
  0
LINE
  5
14E
  8
DATA
  6
CONTINUOUS
 62
     7
 10
341.64999999999998
 20
413.75316329032808
 30
0.0
 11
340.36477777777782
 21
411.39005012344319
 31
0.0
  0
LINE
  5
14F
  8
DATA
  6
CONTINUOUS
 62
     7
 10
337.35000000000002
 20
413.75316329032808
 30
0.0
 11
338.63522222222218
 21
411.39005012344319
 31
0.0
  0
LINE
  5
150
  8
DATA
  6
CONTINUOUS
 62
     7
 10
334.5
 20
403.5
 30
0.0
 11
334.5
 21
402.80000000000001
 31
0.0
  0
LINE
  5
151
  8
DATA
  6
CONTINUOUS
 62
     7
 10
425.0
 20
325.0
 30
0.0
 11
426.7999999999999
 21
325.0
 31
0.0
  0
LINE
  5
152
  8
DATA
  6
CONTINUOUS
 62
     7
 10
425.0
 20
325.0
 30
0.0
 11
425.0
 21
369.0
 31
0.0
  0
LINE
  5
153
  8
DATA
  6
CONTINUOUS
 62
     7
 10
426.7999999999999
 20
325.0
 30
0.0
 11
426.7999999999999
 21
369.0
 31
0.0
  0
LINE
  5
154
  8
DATA
  6
CONTINUOUS
 62
     7
 10
523.0
 20
354.89999999999998
 30
0.0
 11
523.0
 21
356.5
 31
0.0
  0
LINE
  5
155
  8
DATA
  6
CONTINUOUS
 62
     7
 10
427.80000000000001
 20
356.5
 30
0.0
 11
523.0
 21
356.5
 31
0.0
  0
LINE
  5
156
  8
DATA
  6
CONTINUOUS
 62
     7
 10
427.80000000000001
 20
354.89999999999998
 30
0.0
 11
523.0
 21
354.89999999999998
 31
0.0
  0
LINE
  5
157
  8
DATA
  6
CONTINUOUS
 62
     7
 10
427.80000000000001
 20
354.89999999999998
 30
0.0
 11
427.80000000000001
 21
356.5
 31
0.0
  0
TEXT
  5
158
  8
DATA
 62
     7
 10
204.4479976800171
 20
351.77566202670039
 30
0.0
 40
1.6288411458333329
  1
TCP/IQ
 41
0.7
 11
204.4479976800171
 21
353.40450317253379
 31
0.0
 73
     3
  0
LINE
  5
159
  8
DATA
  6
CONTINUOUS
 62
     7
 10
425.0
 20
369.0
 30
0.0
 11
426.7999999999999
 21
369.0
 31
0.0
  0
ARC
  5
15A
  8
DATA
  6
CONTINUOUS
 62
     7
 10
434.7999999999999
 20
356.67863649799318
 30
0.0
 40
4.7786364979931211
 50
213.16916705959301
 51
326.83083294040699
  0
LINE
  5
15B
  8
DATA
  6
CONTINUOUS
 62
     7
 10
430.7999999999999
 20
354.06418305990098
 30
0.0
 11
430.7999999999999
 21
354.90000000000009
 31
0.0
  0
LINE
  5
15C
  8
DATA
  6
CONTINUOUS
 62
     7
 10
438.7999999999999
 20
354.06418305990098
 30
0.0
 11
438.7999999999999
 21
354.90000000000009
 31
0.0
  0
LINE
  5
15D
  8
DATA
  6
CONTINUOUS
 62
     7
 10
438.30000000000001
 20
362.0
 30
0.0
 11
426.7999999999999
 21
362.0
 31
0.0
  0
LINE
  5
15E
  8
DATA
  6
CONTINUOUS
 62
     7
 10
438.30000000000001
 20
362.0
 30
0.0
 11
438.30000000000001
 21
356.5
 31
0.0
  0
LINE
  5
15F
  8
DATA
  6
CONTINUOUS
 62
     7
 10
427.80000000000001
 20
356.5
 30
0.0
 11
426.7999999999999
 21
356.5
 31
0.0
  0
TEXT
  5
160
  8
DATA
 62
     7
 10
442.80000000000001
 20
84.477783860297649
 30
0.0
 40
7.3297851562499989
  1
AMCRON
 41
0.7
 11
442.80000000000001
 21
91.807569016547646
 31
0.0
 73
     3
  0
TEXT
  5
161
  8
DATA
 62
     7
 10
236.47277034227321
 20
334.44849073196042
 30
0.0
 40
2.4432617187500001
  1
CH2
 41
0.7
 11
236.47277034227321
 21
336.89175245071038
 31
0.0
 73
     3
  0
TEXT
  5
162
  8
DATA
 62
     7
 10
260.72957775670488
 20
334.44849073196042
 30
0.0
 40
2.4432617187500001
  1
CH1
 41
0.7
 11
260.72957775670488
 21
336.89175245071038
 31
0.0
 73
     3
  0
ENDSEC
  0
EOF
