  0
SECTION
  2
HEADER
  9
$ACADVER
  1
AC1009
  9
$INSBASE
 10
0.0
 20
0.0
 30
0.0
  9
$EXTMIN
 10
-350.01406481341752
 20
-533.96225745193942
 30
-0.0000000000112498
  9
$EXTMAX
 10
550.01325286927067
 20
804.14763969098829
 30
0.0000000000002956
  9
$LIMMIN
 10
0.0
 20
0.0
  9
$LIMMAX
 10
0.0
 20
0.0
  9
$ORTHOMODE
 70
     0
  9
$REGENMODE
 70
     1
  9
$FILLMODE
 70
     1
  9
$QTEXTMODE
 70
     0
  9
$MIRRTEXT
 70
     1
  9
$DRAGMODE
 70
     2
  9
$LTSCALE
 40
25.399999999999999
  9
$OSMODE
 70
   231
  9
$ATTMODE
 70
     1
  9
$TEXTSIZE
 40
0.0
  9
$TRACEWID
 40
1.0
  9
$TEXTSTYLE
  7
STANDARD
  9
$CLAYER
  8
DATA
  9
$CELTYPE
  6
BYLAYER
  9
$CECOLOR
 62
   256
  9
$DIMSCALE
 40
1.0
  9
$DIMASZ
 40
0.18
  9
$DIMEXO
 40
0.0625
  9
$DIMDLI
 40
0.38
  9
$DIMRND
 40
0.0
  9
$DIMDLE
 40
0.0
  9
$DIMEXE
 40
0.18
  9
$DIMTP
 40
0.0
  9
$DIMTM
 40
0.0
  9
$DIMTXT
 40
0.18
  9
$DIMCEN
 40
0.09
  9
$DIMTSZ
 40
0.0
  9
$DIMTOL
 70
     0
  9
$DIMLIM
 70
     0
  9
$DIMTIH
 70
     1
  9
$DIMTOH
 70
     1
  9
$DIMSE1
 70
     0
  9
$DIMSE2
 70
     0
  9
$DIMTAD
 70
     0
  9
$DIMZIN
 70
     0
  9
$DIMBLK
  1

  9
$DIMASO
 70
     1
  9
$DIMSHO
 70
     1
  9
$DIMPOST
  1

  9
$DIMAPOST
  1

  9
$DIMALT
 70
     0
  9
$DIMALTD
 70
     2
  9
$DIMALTF
 40
25.399999999999999
  9
$DIMLFAC
 40
1.0
  9
$DIMTOFL
 70
     0
  9
$DIMTVP
 40
0.0
  9
$DIMTIX
 70
     0
  9
$DIMSOXD
 70
     0
  9
$DIMSAH
 70
     0
  9
$DIMBLK1
  1

  9
$DIMBLK2
  1

  9
$DIMSTYLE
  2
STANDARD
  9
$DIMCLRD
 70
     0
  9
$DIMCLRE
 70
     0
  9
$DIMCLRT
 70
     0
  9
$DIMTFAC
 40
1.0
  9
$DIMGAP
 40
0.09
  9
$LUNITS
 70
     2
  9
$LUPREC
 70
     4
  9
$SKETCHINC
 40
0.1
  9
$FILLETRAD
 40
0.0
  9
$AUNITS
 70
     0
  9
$AUPREC
 70
     0
  9
$MENU
  1
acad
  9
$ELEVATION
 40
0.0
  9
$PELEVATION
 40
0.0
  9
$THICKNESS
 40
0.0
  9
$LIMCHECK
 70
     0
  9
$BLIPMODE
 70
     0
  9
$CHAMFERA
 40
0.0
  9
$CHAMFERB
 40
0.0
  9
$SKPOLY
 70
     0
  9
$TDCREATE
 40
2456059.7006712961
  9
$TDUPDATE
 40
2456059.777201829
  9
$TDINDWG
 40
0.0008716667
  9
$TDUSRTIMER
 40
0.0008713079
  9
$USRTIMER
 70
     1
  9
$ANGBASE
 50
0.0
  9
$ANGDIR
 70
     0
  9
$PDMODE
 70
     1
  9
$PDSIZE
 40
-2.0
  9
$PLINEWID
 40
0.0
  9
$COORDS
 70
     2
  9
$SPLFRAME
 70
     0
  9
$SPLINETYPE
 70
     6
  9
$SPLINESEGS
 70
     8
  9
$ATTDIA
 70
     0
  9
$ATTREQ
 70
     1
  9
$HANDLING
 70
     1
  9
$HANDSEED
  5
CBB
  9
$SURFTAB1
 70
     6
  9
$SURFTAB2
 70
     6
  9
$SURFTYPE
 70
     6
  9
$SURFU
 70
     6
  9
$SURFV
 70
     6
  9
$UCSNAME
  2

  9
$UCSORG
 10
0.0
 20
0.0
 30
0.0
  9
$UCSXDIR
 10
1.0
 20
0.0
 30
0.0
  9
$UCSYDIR
 10
0.0
 20
1.0
 30
0.0
  9
$PUCSNAME
  2

  9
$PUCSORG
 10
0.0
 20
0.0
 30
0.0
  9
$PUCSXDIR
 10
1.0
 20
0.0
 30
0.0
  9
$PUCSYDIR
 10
0.0
 20
1.0
 30
0.0
  9
$USERI1
 70
     0
  9
$USERI2
 70
     0
  9
$USERI3
 70
     0
  9
$USERI4
 70
     0
  9
$USERI5
 70
     0
  9
$USERR1
 40
0.0
  9
$USERR2
 40
0.0
  9
$USERR3
 40
0.0
  9
$USERR4
 40
0.0
  9
$USERR5
 40
0.0
  9
$WORLDVIEW
 70
     1
  9
$SHADEDGE
 70
     3
  9
$SHADEDIF
 70
    70
  9
$TILEMODE
 70
     1
  9
$MAXACTVP
 70
    64
  9
$PLIMCHECK
 70
     0
  9
$PEXTMIN
 10
1.0000000000000000E+020
 20
1.0000000000000000E+020
 30
1.0000000000000000E+020
  9
$PEXTMAX
 10
-1.0000000000000000E+020
 20
-1.0000000000000000E+020
 30
-1.0000000000000000E+020
  9
$PLIMMIN
 10
0.0
 20
0.0
  9
$PLIMMAX
 10
12.0
 20
9.0
  9
$UNITMODE
 70
     0
  9
$VISRETAIN
 70
     0
  9
$PLINEGEN
 70
     1
  9
$PSLTSCALE
 70
     0
  0
ENDSEC
  0
SECTION
  2
TABLES
  0
TABLE
  2
VPORT
 70
     1
  0
VPORT
  2
*ACTIVE
 70
     0
 10
0.0
 20
0.0
 11
1.0
 21
1.0
 12
99.999594027926832
 22
135.09269111952449
 13
0.0
 23
0.0
 14
1.0
 24
1.0
 15
0.0
 25
0.0
 16
0.0
 26
0.0
 36
1.0
 17
0.0
 27
0.0
 37
0.0
 40
1348.577510419143
 41
2.1540469973890342
 42
50.0
 43
0.0
 44
0.0
 50
0.0
 51
0.0
 71
     0
 72
  2000
 73
     1
 74
     1
 75
     0
 76
     0
 77
     0
 78
     0
  0
ENDTAB
  0
TABLE
  2
LTYPE
 70
     1
  0
LTYPE
  2
CONTINUOUS
 70
     0
  3
Solid line
 72
    65
 73
     0
 40
0.0
  0
ENDTAB
  0
TABLE
  2
LAYER
 70
     5
  0
LAYER
  2
0
 70
     0
 62
     7
  6
CONTINUOUS
  0
LAYER
  2
DATA
 70
     0
 62
     7
  6
CONTINUOUS
  0
LAYER
  2
HIBINO-BASE
 70
     0
 62
     7
  6
CONTINUOUS
  0
LAYER
  2
SPEC
 70
     0
 62
     7
  6
CONTINUOUS
  0
LAYER
  2
DIMNSIONS
 70
     0
 62
     7
  6
CONTINUOUS
  0
ENDTAB
  0
TABLE
  2
STYLE
 70
     4
  0
STYLE
  2
STANDARD
 70
     0
 40
0.0
 41
1.0
 50
0.0
 71
     0
 42
0.0
  3
txt
  4
BIGFONT.SHX
  0
ENDTAB
  0
TABLE
  2
VIEW
 70
     0
  0
ENDTAB
  0
TABLE
  2
UCS
 70
     0
  0
ENDTAB
  0
TABLE
  2
APPID
 70
     4
  0
APPID
  2
ACAD
 70
     0
  0
APPID
  2
ACADANNOTATIVE
 70
     0
  0
APPID
  2
ACAD_NAV_VCDISPLAY
 70
     0
  0
APPID
  2
ACAD_MLEADERVER
 70
     0
  0
ENDTAB
  0
TABLE
  2
DIMSTYLE
 70
     2
  0
DIMSTYLE
  2
STANDARD
 70
     0
  3

  4

  5

  6

  7

 40
1.0
 41
0.18
 42
0.0625
 43
0.38
 44
0.18
 45
0.0
 46
0.0
 47
0.0
 48
0.0
140
0.18
141
0.09
142
0.0
143
25.399999999999999
144
1.0
145
0.0
146
1.0
147
0.09
 71
     0
 72
     0
 73
     1
 74
     1
 75
     0
 76
     0
 77
     0
 78
     0
170
     0
171
     2
172
     0
173
     0
174
     0
175
     0
176
     0
177
     0
178
     0
  0
ENDTAB
  0
ENDSEC
  0
SECTION
  2
BLOCKS
  0
BLOCK
  8
0
  2
$MODEL_SPACE
 70
     0
 10
0.0
 20
0.0
 30
0.0
  3
$MODEL_SPACE
  1

  0
ENDBLK
  5
B4B
  8
0
  0
BLOCK
 67
     1
  8
0
  2
$PAPER_SPACE
 70
     0
 10
0.0
 20
0.0
 30
0.0
  3
$PAPER_SPACE
  1

  0
ENDBLK
  5
B47
 67
     1
  8
0
  0
ENDSEC
  0
SECTION
  2
ENTITIES
  0
LINE
  5
2D
  8
HIBINO-BASE
  6
CONTINUOUS
 62
     7
 10
-350.0
 20
804.12725999999986
 30
0.0
 11
549.99999999999989
 21
804.12725999999986
 31
0.0
  0
LINE
  5
2E
  8
HIBINO-BASE
  6
CONTINUOUS
 62
     7
 10
549.99999999999989
 20
-495.87273999999991
 30
0.0
 11
-350.0
 21
-495.87273999999991
 31
0.0
  0
LINE
  5
2F
  8
HIBINO-BASE
  6
CONTINUOUS
 62
     7
 10
-350.0
 20
-495.87273999999991
 30
0.0
 11
-350.0
 21
804.12725999999986
 31
0.0
  0
TEXT
  5
30
  8
HIBINO-BASE
 62
     7
 10
-314.07999999999993
 20
-527.91612899999984
 30
0.0
 40
18.00022089843748
  1
Hibino Corporation
 41
0.7
 11
-314.07999999999993
 21
-509.91590810156231
 31
0.0
 73
     3
  0
LINE
  5
31
  8
HIBINO-BASE
  6
CONTINUOUS
 62
     7
 10
549.99999999999989
 20
804.12725999999986
 30
0.0
 11
549.99999999999989
 21
-495.87273999999991
 31
0.0
  0
LINE
  5
32
  8
HIBINO-BASE
  6
CONTINUOUS
 62
     7
 10
100.0
 20
-383.37274000000002
 30
0.0
 11
549.99999999999989
 21
-383.37274000000002
 31
0.0
  0
LINE
  5
33
  8
HIBINO-BASE
  6
CONTINUOUS
 62
     7
 10
100.0
 20
-495.87273999999991
 30
0.0
 11
100.0
 21
-383.37274000000002
 31
0.0
  0
TEXT
  5
34
  8
HIBINO-BASE
 62
     7
 10
104.5
 20
-395.91620666666671
 30
0.0
 40
8.1442057291666661
  1
NOTE
 41
0.7
 11
104.5
 21
-387.77200093750002
 31
0.0
 73
     3
  0
LINE
  5
35
  8
HIBINO-BASE
  6
CONTINUOUS
 62
     7
 10
275.0
 20
-495.87273999999991
 30
0.0
 11
275.0
 21
-383.37274000000002
 31
0.0
  0
TEXT
  5
36
  8
HIBINO-BASE
 62
     7
 10
279.5
 20
-395.91620666666671
 30
0.0
 40
8.1442057291666661
  1
TITLE
 41
0.7
 11
279.5
 21
-387.77200093750002
 31
0.0
 73
     3
  0
TEXT
  5
37
  8
HIBINO-BASE
 62
     7
 10
350.34195
 20
-527.91612899999984
 30
0.0
 40
18.00022089843748
  1
ヒビノ株式会社
 41
0.7
 11
350.34195
 21
-509.91590810156231
 31
0.0
 73
     3
  0
LINE
  5
38
  8
HIBINO-BASE
  6
CONTINUOUS
 62
     7
 10
100.0
 20
-445.87273999999991
 30
0.0
 11
549.99999999999989
 21
-445.87273999999991
 31
0.0
  0
TEXT
  5
39
  8
HIBINO-BASE
 62
     7
 10
342.0
 20
-458.13460666666663
 30
0.0
 40
8.1442057291666661
  1
DRAWN
 41
0.7
 11
342.0
 21
-449.9904009375
 31
0.0
 73
     3
  0
TEXT
  5
3A
  8
HIBINO-BASE
 62
     7
 10
217.0
 20
-458.13460666666663
 30
0.0
 40
8.1442057291666661
  1
DATE
 41
0.7
 11
217.0
 21
-449.9904009375
 31
0.0
 73
     3
  0
TEXT
  5
3B
  8
HIBINO-BASE
 62
     7
 10
167.0
 20
-458.13460666666663
 30
0.0
 40
8.1442057291666661
  1
SCALE
 41
0.7
 11
167.0
 21
-449.9904009375
 31
0.0
 73
     3
  0
TEXT
  5
3C
  8
HIBINO-BASE
 62
     7
 10
279.5
 20
-458.13460666666663
 30
0.0
 40
8.1442057291666661
  1
DESIGN
 41
0.7
 11
279.5
 21
-449.9904009375
 31
0.0
 73
     3
  0
TEXT
  5
3D
  8
HIBINO-BASE
 62
     7
 10
467.0
 20
-458.13460666666663
 30
0.0
 40
8.1442057291666661
  1
DRAWING NO.
 41
0.7
 11
467.0
 21
-449.9904009375
 31
0.0
 73
     3
  0
TEXT
  5
3E
  8
HIBINO-BASE
 62
     7
 10
404.49999999999977
 20
-458.13460666666663
 30
0.0
 40
8.1442057291666661
  1
CHECK
 41
0.7
 11
404.49999999999977
 21
-449.9904009375
 31
0.0
 73
     3
  0
LINE
  5
3F
  8
HIBINO-BASE
  6
CONTINUOUS
 62
     7
 10
171.875
 20
-489.62273999999991
 30
0.0
 11
190.625
 21
-470.87273999999991
 31
0.0
  0
TEXT
  5
40
  8
HIBINO-BASE
 62
     7
 10
168.75
 20
-476.41745666666651
 30
0.0
 40
8.1442057291666661
  1
1
 41
0.7
 11
168.75
 21
-468.27325093749982
 31
0.0
 73
     3
  0
LINE
  5
41
  8
HIBINO-BASE
  6
CONTINUOUS
 62
     7
 10
162.5
 20
-495.87273999999991
 30
0.0
 11
162.5
 21
-445.87273999999991
 31
0.0
  0
LINE
  5
42
  8
HIBINO-BASE
  6
CONTINUOUS
 62
     7
 10
212.5
 20
-495.87273999999991
 30
0.0
 11
212.5
 21
-445.87273999999991
 31
0.0
  0
LINE
  5
43
  8
HIBINO-BASE
  6
CONTINUOUS
 62
     7
 10
337.5
 20
-445.87273999999991
 30
0.0
 11
337.5
 21
-495.87273999999991
 31
0.0
  0
LINE
  5
44
  8
HIBINO-BASE
  6
CONTINUOUS
 62
     7
 10
462.5
 20
-445.87273999999991
 30
0.0
 11
462.5
 21
-495.87273999999991
 31
0.0
  0
LINE
  5
45
  8
HIBINO-BASE
  6
CONTINUOUS
 62
     7
 10
400.0
 20
-495.87273999999991
 30
0.0
 11
400.0
 21
-445.87273999999991
 31
0.0
  0
TEXT
  5
46
  8
HIBINO-BASE
 62
     7
 10
216.78270000000001
 20
-481.5545066666665
 30
0.0
 40
8.1442057291666661
  1
'12.03.
 41
0.7
 11
216.78270000000001
 21
-473.41030093749981
 31
0.0
 73
     3
  0
TEXT
  5
47
  8
HIBINO-BASE
 62
     7
 10
187.5
 20
-485.79245666666651
 30
0.0
 40
8.1442057291666661
  1
5
 41
0.7
 11
187.5
 21
-477.64825093749982
 31
0.0
 73
     3
  0
TEXT
  5
48
  8
HIBINO-BASE
 62
     7
 10
345.02905005517312
 20
-481.5545066666665
 30
0.0
 40
8.1442057291666661
  1
Ootake
 41
0.7
 11
345.02905005517312
 21
-473.41030093749981
 31
0.0
 73
     3
  0
TEXT
  5
49
  8
HIBINO-BASE
 62
     7
 10
119.4166666666667
 20
-485.99274000000003
 30
0.0
 40
16.288411458333329
  1
A4
 41
0.7
 11
119.4166666666667
 21
-469.70432854166671
 31
0.0
 73
     3
  0
TEXT
  5
4A
  8
HIBINO-BASE
 62
     7
 10
104.7916666666666
 20
-458.97001499999971
 30
0.0
 40
8.1442057291666661
  1
PAPER SIZE
 41
0.7
 11
104.7916666666666
 21
-450.82580927083302
 31
0.0
 73
     3
  0
LINE
  5
4B
  8
SPEC
  6
CONTINUOUS
 62
     7
 10
-312.5
 20
754.12725999999998
 30
0.0
 11
425.0
 21
754.12725999999998
 31
0.0
  0
LINE
  5
4C
  8
SPEC
  6
CONTINUOUS
 62
     7
 10
-312.5
 20
735.37725999999998
 30
0.0
 11
425.0
 21
735.37725999999998
 31
0.0
  0
LINE
  5
4D
  8
SPEC
  6
CONTINUOUS
 62
     7
 10
-312.5
 20
660.37725999999998
 30
0.0
 11
425.0
 21
660.37725999999998
 31
0.0
  0
LINE
  5
4E
  8
SPEC
  6
CONTINUOUS
 62
     7
 10
-150.0
 20
679.12725999999998
 30
0.0
 11
425.0
 21
679.12725999999998
 31
0.0
  0
LINE
  5
4F
  8
SPEC
  6
CONTINUOUS
 62
     7
 10
-150.0
 20
697.87725999999998
 30
0.0
 11
425.0
 21
697.87725999999998
 31
0.0
  0
LINE
  5
50
  8
SPEC
  6
CONTINUOUS
 62
     7
 10
-150.0
 20
641.62725999999998
 30
0.0
 11
425.0
 21
641.62725999999998
 31
0.0
  0
LINE
  5
51
  8
SPEC
  6
CONTINUOUS
 62
     7
 10
-150.0
 20
604.12725999999998
 30
0.0
 11
425.0
 21
604.12725999999998
 31
0.0
  0
LINE
  5
52
  8
SPEC
  6
CONTINUOUS
 62
     7
 10
-150.0
 20
622.87725999999998
 30
0.0
 11
425.0
 21
622.87725999999998
 31
0.0
  0
LINE
  5
53
  8
SPEC
  6
CONTINUOUS
 62
     7
 10
-312.5
 20
585.37725999999998
 30
0.0
 11
425.0
 21
585.37725999999998
 31
0.0
  0
LINE
  5
54
  8
SPEC
  6
CONTINUOUS
 62
     7
 10
-312.5
 20
566.62725999999998
 30
0.0
 11
425.0
 21
566.62725999999998
 31
0.0
  0
LINE
  5
55
  8
SPEC
  6
CONTINUOUS
 62
     7
 10
-150.0
 20
716.62725999999998
 30
0.0
 11
425.0
 21
716.62725999999998
 31
0.0
  0
TEXT
  5
56
  8
SPEC
 62
     7
 10
-146.23862621915831
 20
739.91551169906108
 30
0.0
 40
9.5015733506944446
  1
1
 41
0.7
 11
-146.23862621915831
 21
749.41708504975554
 31
0.0
 73
     3
  0
LINE
  5
57
  8
SPEC
  6
CONTINUOUS
 62
     7
 10
-312.5
 20
754.12725999999998
 30
0.0
 11
-312.5
 21
454.12725999999981
 31
0.0
  0
TEXT
  5
58
  8
SPEC
 62
     7
 10
-306.25
 20
761.09361000000013
 30
0.0
 40
12.21630859375
  1
仕様
 41
0.7
 11
-306.25
 21
773.30991859375013
 31
0.0
 73
     3
  0
LINE
  5
59
  8
SPEC
  6
CONTINUOUS
 62
     7
 10
-150.0
 20
754.12725999999998
 30
0.0
 11
-150.0
 21
454.12725999999981
 31
0.0
  0
LINE
  5
5A
  8
SPEC
  6
CONTINUOUS
 62
     7
 10
425.0
 20
754.12725999999998
 30
0.0
 11
425.0
 21
454.12725999999981
 31
0.0
  0
TEXT
  5
5B
  8
SPEC
 62
     7
 10
-145.22733982392941
 20
552.40947854173385
 30
0.0
 40
9.5015733506944446
  1
0.003%%%
 41
0.7
 11
-145.22733982392941
 21
561.9110518924283
 31
0.0
 73
     3
  0
TEXT
  5
5C
  8
SPEC
 62
     7
 10
-308.582858784633
 20
739.65535210506084
 30
0.0
 40
9.5015733506944446
  1
チャンネル数
 41
0.7
 11
-308.582858784633
 21
749.15692545575519
 31
0.0
 73
     3
  0
TEXT
  5
5D
  8
SPEC
 62
     7
 10
-308.11163536293719
 20
646.57156715532312
 30
0.0
 40
9.5015733506944446
  1
音声出力
 41
0.7
 11
-308.11163536293719
 21
656.07314050601758
 31
0.0
 73
     3
  0
TEXT
  5
5E
  8
SPEC
 62
     7
 10
-308.0
 20
721.69430026553755
 30
0.0
 40
9.5015733506944446
  1
音声入力
 41
0.7
 11
-308.0
 21
731.19587361623212
 31
0.0
 73
     3
  0
TEXT
  5
5F
  8
SPEC
 62
     7
 10
-308.06503822317768
 20
552.86852868709832
 30
0.0
 40
9.5015733506944446
  1
THD+N
 41
0.7
 11
-308.06503822317768
 21
562.37010203779278
 31
0.0
 73
     3
  0
TEXT
  5
60
  8
SPEC
 62
     7
 10
-145.39644956180581
 20
664.83460107986002
 30
0.0
 40
9.5015733506944446
  1
最大レベル：+21dBu
 41
0.7
 11
-145.39644956180581
 21
674.33617443055448
 31
0.0
 73
     3
  0
TEXT
  5
61
  8
SPEC
 62
     7
 10
-146.12450667918961
 20
684.1076933542048
 30
0.0
 40
9.5015733506944446
  1
インピーダンス：40k\U+03A9
 41
0.7
 11
-146.12450667918961
 21
693.60926670489926
 31
0.0
 73
     3
  0
TEXT
  5
62
  8
SPEC
 62
     7
 10
-145.84832367640161
 20
702.44383150641124
 30
0.0
 40
9.5015733506944446
  1
形式：電子バランス
 41
0.7
 11
-145.84832367640161
 21
711.9454048571057
 31
0.0
 73
     3
  0
TEXT
  5
63
  8
SPEC
 62
     7
 10
-145.77976372090541
 20
720.77667167956804
 30
0.0
 40
9.5015733506944446
  1
端子：XLR/標準フォーンジャック(3P)
 41
0.7
 11
-145.77976372090541
 21
730.2782450302625
 31
0.0
 73
     3
  0
TEXT
  5
64
  8
SPEC
 62
     7
 10
-145.70710087638841
 20
646.3078428298719
 30
0.0
 40
9.5015733506944446
  1
端子：XLR/標準フォーンジャック(3P)
 41
0.7
 11
-145.70710087638841
 21
655.80941618056625
 31
0.0
 73
     3
  0
TEXT
  5
65
  8
SPEC
 62
     7
 10
-145.65483477610741
 20
627.28135321721084
 30
0.0
 40
9.5015733506944446
  1
形式：擬似バランス
 41
0.7
 11
-145.65483477610741
 21
636.78292656790529
 31
0.0
 73
     3
  0
TEXT
  5
66
  8
SPEC
 62
     7
 10
-145.56843529324169
 20
590.20650770103066
 30
0.0
 40
9.5015733506944446
  1
最大レベル：+21dBu
 41
0.7
 11
-145.56843529324169
 21
599.70808105172523
 31
0.0
 73
     3
  0
TEXT
  5
67
  8
SPEC
 62
     7
 10
-146.2557727529454
 20
609.23486132525852
 30
0.0
 40
9.5015733506944446
  1
インピーダンス：100\U+03A9
 41
0.7
 11
-146.2557727529454
 21
618.73643467595298
 31
0.0
 73
     3
  0
TEXT
  5
68
  8
SPEC
 62
     7
 10
-146.11154657650169
 20
533.62765797599161
 30
0.0
 40
9.5015733506944446
  1
112dB
 41
0.7
 11
-146.11154657650169
 21
543.12923132668595
 31
0.0
 73
     3
  0
TEXT
  5
69
  8
SPEC
 62
     7
 10
-309.01587585971652
 20
534.72812930942109
 30
0.0
 40
9.5015733506944446
  1
ダイナミックレンジ
 41
0.7
 11
-309.01587585971652
 21
544.22970266011555
 31
0.0
 73
     3
  0
TEXT
  5
6A
  8
SPEC
 62
     7
 10
-308.43365608224639
 20
515.44657695449462
 30
0.0
 40
9.5015733506944446
  1
電源
 41
0.7
 11
-308.43365608224639
 21
524.94815030518907
 31
0.0
 73
     3
  0
LINE
  5
6B
  8
SPEC
  6
CONTINUOUS
 62
     7
 10
-312.5
 20
547.87725999999998
 30
0.0
 11
425.0
 21
547.87725999999998
 31
0.0
  0
LINE
  5
6C
  8
SPEC
  6
CONTINUOUS
 62
     7
 10
-312.5
 20
529.12725999999998
 30
0.0
 11
425.0
 21
529.12725999999998
 31
0.0
  0
LINE
  5
6D
  8
SPEC
  6
CONTINUOUS
 62
     7
 10
-312.5
 20
510.37725999999981
 30
0.0
 11
425.0
 21
510.37725999999981
 31
0.0
  0
LINE
  5
6E
  8
SPEC
  6
CONTINUOUS
 62
     7
 10
-312.5
 20
472.87725999999981
 30
0.0
 11
425.0
 21
472.87725999999981
 31
0.0
  0
LINE
  5
6F
  8
SPEC
  6
CONTINUOUS
 62
     7
 10
-312.5
 20
454.12725999999981
 30
0.0
 11
425.0
 21
454.12725999999981
 31
0.0
  0
TEXT
  5
70
  8
SPEC
 62
     7
 10
-145.04242758338191
 20
514.90477035698325
 30
0.0
 40
9.5015733506944446
  1
AC100V、50/60Hz
 41
0.7
 11
-145.04242758338191
 21
524.40634370767771
 31
0.0
 73
     3
  0
TEXT
  5
71
  8
SPEC
 62
     7
 10
-146.1086496867926
 20
496.4353625240484
 30
0.0
 40
9.5015733506944446
  1
15W
 41
0.7
 11
-146.1086496867926
 21
505.93693587474291
 31
0.0
 73
     3
  0
TEXT
  5
72
  8
SPEC
 62
     7
 10
-308.26332633025743
 20
496.83983634929177
 30
0.0
 40
9.5015733506944446
  1
消費電力
 41
0.7
 11
-308.26332633025743
 21
506.34140969998629
 31
0.0
 73
     3
  0
TEXT
  5
73
  8
SPEC
 62
     7
 10
-308.53646610692368
 20
478.34307380381398
 30
0.0
 40
9.5015733506944446
  1
寸法
 41
0.7
 11
-308.53646610692368
 21
487.84464715450849
 31
0.0
 73
     3
  0
TEXT
  5
74
  8
SPEC
 62
     7
 10
-308.24177624555392
 20
459.56379339764948
 30
0.0
 40
9.5015733506944446
  1
重量
 41
0.7
 11
-308.24177624555392
 21
469.06536674834399
 31
0.0
 73
     3
  0
TEXT
  5
75
  8
SPEC
 62
     7
 10
-145.27657429854071
 20
477.75344669940557
 30
0.0
 40
9.5015733506944446
  1
483(W)\U+00D745(H)\U+00D7150(D)mm(突起部含まず)
 41
0.7
 11
-145.27657429854071
 21
487.25502005009997
 31
0.0
 73
     3
  0
TEXT
  5
76
  8
SPEC
 62
     7
 10
-145.36482033034639
 20
459.34530979609161
 30
0.0
 40
9.5015733506944446
  1
約2.2kg
 41
0.7
 11
-145.36482033034639
 21
468.84688314678613
 31
0.0
 73
     3
  0
TEXT
  5
77
  8
SPEC
 62
     7
 10
-145.4601973140218
 20
571.17054150702234
 30
0.0
 40
9.5015733506944446
  1
10Hz～50kHz(+0.5/-3dB)
 41
0.7
 11
-145.4601973140218
 21
580.67211485771668
 31
0.0
 73
     3
  0
TEXT
  5
78
  8
SPEC
 62
     7
 10
-307.95553111189918
 20
571.66895346210231
 30
0.0
 40
9.5015733506944446
  1
周波数特性
 41
0.7
 11
-307.95553111189918
 21
581.17052681279665
 31
0.0
 73
     3
  0
LINE
  5
79
  8
SPEC
  6
CONTINUOUS
 62
     7
 10
-312.5
 20
491.62725999999981
 30
0.0
 11
425.0
 21
491.62725999999981
 31
0.0
  0
TEXT
  5
7A
  8
DIMNSIONS
 62
     7
 10
-0.0000000000000149
 20
-434.52528999999993
 30
0.0
 40
12.21630859375
  1
(単位：mm)
 41
0.7
 11
-0.0000000000000142
 21
-422.30898140624993
 31
0.0
 73
     3
  0
LINE
  5
7B
  8
DIMNSIONS
  6
CONTINUOUS
 62
     7
 10
-225.0000000000079
 20
-235.0000000000249
 30
0.0
 11
-225.0000000000079
 21
-285.0
 31
0.0
  0
LINE
  5
7C
  8
DIMNSIONS
  6
CONTINUOUS
 62
     7
 10
257.9999999999921
 20
-235.0000000000249
 30
0.0
 11
257.9999999999921
 21
-285.0
 31
0.0
  0
LINE
  5
7D
  8
DIMNSIONS
  6
CONTINUOUS
 62
     7
 10
-225.0000000000079
 20
-275.0
 30
0.0
 11
257.9999999999921
 21
-275.0
 31
0.0
  0
LINE
  5
7E
  8
DIMNSIONS
  6
CONTINUOUS
 62
     7
 10
-225.0000000000079
 20
-275.0
 30
0.0
 11
-212.49688720703909
 21
-271.6498010242488
 31
0.0
  0
LINE
  5
7F
  8
DIMNSIONS
  6
CONTINUOUS
 62
     7
 10
-225.0000000000079
 20
-275.0
 30
0.0
 11
-212.49688720703909
 21
-278.3501989757512
 31
0.0
  0
LINE
  5
80
  8
DIMNSIONS
  6
CONTINUOUS
 62
     7
 10
257.9999999999921
 20
-275.0
 30
0.0
 11
245.49688720702341
 21
-278.3501989757512
 31
0.0
  0
LINE
  5
81
  8
DIMNSIONS
  6
CONTINUOUS
 62
     7
 10
257.9999999999921
 20
-275.0
 30
0.0
 11
245.49688720702341
 21
-271.6498010242488
 31
0.0
  0
TEXT
  5
82
  8
DIMNSIONS
 62
     7
 10
3.2708333333254669
 20
-270.03055555555551
 30
0.0
 40
13.57367621527778
  1
483
 41
0.7
 11
3.2708333333254682
 21
-256.45687934027768
 31
0.0
 73
     3
  0
LINE
  5
83
  8
DIMNSIONS
  6
CONTINUOUS
 62
     7
 10
-235.0000000000079
 20
-225.0000000000249
 30
0.0
 11
-285.0
 21
-225.0000000000249
 31
0.0
  0
LINE
  5
84
  8
DIMNSIONS
  6
CONTINUOUS
 62
     7
 10
-235.0000000000079
 20
-180.0000000000249
 30
0.0
 11
-285.0
 21
-180.0000000000249
 31
0.0
  0
LINE
  5
85
  8
DIMNSIONS
  6
CONTINUOUS
 62
     7
 10
-275.0
 20
-225.0000000000249
 30
0.0
 11
-275.0
 21
-180.0000000000249
 31
0.0
  0
LINE
  5
86
  8
DIMNSIONS
  6
CONTINUOUS
 62
     7
 10
-275.0
 20
-225.0000000000249
 30
0.0
 11
-278.3501989757512
 21
-212.49688720705609
 31
0.0
  0
LINE
  5
87
  8
DIMNSIONS
  6
CONTINUOUS
 62
     7
 10
-275.0
 20
-225.0000000000249
 30
0.0
 11
-271.6498010242488
 21
-212.49688720705609
 31
0.0
  0
LINE
  5
88
  8
DIMNSIONS
  6
CONTINUOUS
 62
     7
 10
-275.0
 20
-180.0000000000249
 30
0.0
 11
-271.6498010242488
 21
-192.50311279299359
 31
0.0
  0
LINE
  5
89
  8
DIMNSIONS
  6
CONTINUOUS
 62
     7
 10
-275.0
 20
-180.0000000000249
 30
0.0
 11
-278.3501989757512
 21
-192.50311279299359
 31
0.0
  0
TEXT
  5
8A
  8
DIMNSIONS
 62
     7
 10
-279.96944444444449
 20
-211.3194444444693
 30
0.0
 40
13.57367621527778
  1
45
 50
90.0
 41
0.7
 11
-293.54312065972232
 21
-211.3194444444693
 31
0.0
 73
     3
  0
LINE
  5
8B
  8
DIMNSIONS
  6
CONTINUOUS
 62
     7
 10
-234.999999999778
 20
-75.000000000103171
 30
0.0
 11
-260.0
 21
-75.000000000103171
 31
0.0
  0
LINE
  5
8C
  8
DIMNSIONS
  6
CONTINUOUS
 62
     7
 10
-234.999999999778
 20
-72.000000000103114
 30
0.0
 11
-260.0
 21
-72.000000000103114
 31
0.0
  0
LINE
  5
8D
  8
DIMNSIONS
  6
CONTINUOUS
 62
     7
 10
-250.0
 20
-72.000000000103114
 30
0.0
 11
-250.0
 21
-75.000000000103171
 31
0.0
  0
LINE
  5
8E
  8
DIMNSIONS
  6
CONTINUOUS
 62
     7
 10
-250.0
 20
-75.000000000103171
 30
0.0
 11
-250.0
 21
-100.0000000001031
 31
0.0
  0
LINE
  5
8F
  8
DIMNSIONS
  6
CONTINUOUS
 62
     7
 10
-250.0
 20
-75.000000000103171
 30
0.0
 11
-246.6498010242488
 21
-87.503112793071921
 31
0.0
  0
LINE
  5
90
  8
DIMNSIONS
  6
CONTINUOUS
 62
     7
 10
-250.0
 20
-75.000000000103171
 30
0.0
 11
-253.3501989757512
 21
-87.503112793071921
 31
0.0
  0
LINE
  5
91
  8
DIMNSIONS
  6
CONTINUOUS
 62
     7
 10
-250.0
 20
-72.000000000103114
 30
0.0
 11
-250.0
 21
-53.680555555555529
 31
0.0
  0
LINE
  5
92
  8
DIMNSIONS
  6
CONTINUOUS
 62
     7
 10
-250.0
 20
-72.000000000103114
 30
0.0
 11
-253.3501989757512
 21
-59.496887207134371
 31
0.0
  0
LINE
  5
93
  8
DIMNSIONS
  6
CONTINUOUS
 62
     7
 10
-250.0
 20
-72.000000000103114
 30
0.0
 11
-246.6498010242488
 21
-59.496887207134371
 31
0.0
  0
TEXT
  5
94
  8
DIMNSIONS
 62
     7
 10
-254.96944444444449
 20
-62.5
 30
0.0
 40
13.57367621527778
  1
3
 50
90.0
 41
0.7
 11
-268.54312065972232
 21
-62.5
 31
0.0
 73
     3
  0
LINE
  5
95
  8
DIMNSIONS
  6
CONTINUOUS
 62
     7
 10
-179.73500000000001
 20
-92.000000000103142
 30
0.0
 11
-285.0
 21
-92.000000000103142
 31
0.0
  0
LINE
  5
96
  8
DIMNSIONS
  6
CONTINUOUS
 62
     7
 10
-234.999999999778
 20
-75.000000000103171
 30
0.0
 11
-285.0
 21
-75.000000000103171
 31
0.0
  0
LINE
  5
97
  8
DIMNSIONS
  6
CONTINUOUS
 62
     7
 10
-275.0
 20
-75.000000000103171
 30
0.0
 11
-275.0
 21
-92.000000000103142
 31
0.0
  0
LINE
  5
98
  8
DIMNSIONS
  6
CONTINUOUS
 62
     7
 10
-275.0
 20
-92.000000000103142
 30
0.0
 11
-275.0
 21
-117.6388888888889
 31
0.0
  0
LINE
  5
99
  8
DIMNSIONS
  6
CONTINUOUS
 62
     7
 10
-275.0
 20
-92.000000000103142
 30
0.0
 11
-271.6498010242488
 21
-104.50311279307191
 31
0.0
  0
LINE
  5
9A
  8
DIMNSIONS
  6
CONTINUOUS
 62
     7
 10
-275.0
 20
-92.000000000103142
 30
0.0
 11
-278.3501989757512
 21
-104.50311279307191
 31
0.0
  0
LINE
  5
9B
  8
DIMNSIONS
  6
CONTINUOUS
 62
     7
 10
-275.0
 20
-75.000000000103171
 30
0.0
 11
-275.0
 21
-50.000000000103171
 31
0.0
  0
LINE
  5
9C
  8
DIMNSIONS
  6
CONTINUOUS
 62
     7
 10
-275.0
 20
-75.000000000103171
 30
0.0
 11
-278.3501989757512
 21
-62.496887207134421
 31
0.0
  0
LINE
  5
9D
  8
DIMNSIONS
  6
CONTINUOUS
 62
     7
 10
-275.0
 20
-75.000000000103171
 30
0.0
 11
-271.6498010242488
 21
-62.496887207134421
 31
0.0
  0
TEXT
  5
9E
  8
DIMNSIONS
 62
     7
 10
-279.96944444444449
 20
-117.6388888888889
 30
0.0
 40
13.57367621527778
  1
17
 50
90.0
 41
0.7
 11
-293.54312065972232
 21
-117.6388888888889
 31
0.0
 73
     3
  0
LINE
  5
9F
  8
DIMNSIONS
  6
CONTINUOUS
 62
     7
 10
-212.999999999778
 20
74.999999999896275
 30
0.0
 11
-285.0
 21
74.999999999896275
 31
0.0
  0
LINE
  5
A0
  8
DIMNSIONS
  6
CONTINUOUS
 62
     7
 10
-193.56811776474839
 20
78.999999999896275
 30
0.0
 11
-285.0
 21
78.999999999896275
 31
0.0
  0
LINE
  5
A1
  8
DIMNSIONS
  6
CONTINUOUS
 62
     7
 10
-275.0
 20
78.999999999896275
 30
0.0
 11
-275.0
 21
74.999999999896275
 31
0.0
  0
LINE
  5
A2
  8
DIMNSIONS
  6
CONTINUOUS
 62
     7
 10
-275.0
 20
74.999999999896275
 30
0.0
 11
-275.0
 21
49.999999999896261
 31
0.0
  0
LINE
  5
A3
  8
DIMNSIONS
  6
CONTINUOUS
 62
     7
 10
-275.0
 20
74.999999999896275
 30
0.0
 11
-271.6498010242488
 21
62.496887206927511
 31
0.0
  0
LINE
  5
A4
  8
DIMNSIONS
  6
CONTINUOUS
 62
     7
 10
-275.0
 20
74.999999999896275
 30
0.0
 11
-278.3501989757512
 21
62.496887206927511
 31
0.0
  0
LINE
  5
A5
  8
DIMNSIONS
  6
CONTINUOUS
 62
     7
 10
-275.0
 20
78.999999999896275
 30
0.0
 11
-275.0
 21
106.8194444444444
 31
0.0
  0
LINE
  5
A6
  8
DIMNSIONS
  6
CONTINUOUS
 62
     7
 10
-275.0
 20
78.999999999896275
 30
0.0
 11
-278.3501989757512
 21
91.503112792865011
 31
0.0
  0
LINE
  5
A7
  8
DIMNSIONS
  6
CONTINUOUS
 62
     7
 10
-275.0
 20
78.999999999896275
 30
0.0
 11
-271.6498010242488
 21
91.503112792865011
 31
0.0
  0
TEXT
  5
A8
  8
DIMNSIONS
 62
     7
 10
-279.96944444444449
 20
98.0
 30
0.0
 40
13.57367621527778
  1
4
 50
90.0
 41
0.7
 11
-293.54312065972232
 21
98.0
 31
0.0
 73
     3
  0
LINE
  5
A9
  8
DIMNSIONS
  6
CONTINUOUS
 62
     7
 10
-234.999999999778
 20
-75.000000000103171
 30
0.0
 11
-285.0
 21
-75.000000000103171
 31
0.0
  0
LINE
  5
AA
  8
DIMNSIONS
  6
CONTINUOUS
 62
     7
 10
-212.999999999778
 20
74.999999999896275
 30
0.0
 11
-285.0
 21
74.999999999896275
 31
0.0
  0
LINE
  5
AB
  8
DIMNSIONS
  6
CONTINUOUS
 62
     7
 10
-275.0
 20
-75.000000000103171
 30
0.0
 11
-275.0
 21
74.999999999896275
 31
0.0
  0
LINE
  5
AC
  8
DIMNSIONS
  6
CONTINUOUS
 62
     7
 10
-275.0
 20
-75.000000000103171
 30
0.0
 11
-278.3501989757512
 21
-62.496887207134421
 31
0.0
  0
LINE
  5
AD
  8
DIMNSIONS
  6
CONTINUOUS
 62
     7
 10
-275.0
 20
-75.000000000103171
 30
0.0
 11
-271.6498010242488
 21
-62.496887207134421
 31
0.0
  0
LINE
  5
AE
  8
DIMNSIONS
  6
CONTINUOUS
 62
     7
 10
-275.0
 20
74.999999999896275
 30
0.0
 11
-271.6498010242488
 21
62.496887206927511
 31
0.0
  0
LINE
  5
AF
  8
DIMNSIONS
  6
CONTINUOUS
 62
     7
 10
-275.0
 20
74.999999999896275
 30
0.0
 11
-278.3501989757512
 21
62.496887206927511
 31
0.0
  0
TEXT
  5
B0
  8
DIMNSIONS
 62
     7
 10
-279.96944444444449
 20
-13.229166666770141
 30
0.0
 40
13.57367621527778
  1
150
 50
90.0
 41
0.7
 11
-293.54312065972232
 21
-13.229166666770141
 31
0.0
 73
     3
  0
TEXT
  5
B1
  8
DATA
 62
     7
 10
348.62373465014957
 20
-440.2182899999998
 30
0.0
 40
12.21630859375
  1
131S
 41
0.7
 11
348.62373465014957
 21
-428.0019814062498
 31
0.0
 73
     3
  0
TEXT
  5
B2
  8
DATA
 62
     7
 10
349.41468222296049
 20
-401.66443108847881
 30
0.0
 40
12.21630859375
  1
dbx
 41
0.7
 11
349.41468222296049
 21
-389.44812249472892
 31
0.0
 73
     3
  0
TEXT
  5
B3
  8
DATA
 62
     7
 10
-300.0
 20
-474.68273999999991
 30
0.0
 40
8.1442057291666661
  1
仕様および外観は予告なく変更されることがありますので、ご了承ください。
 41
0.7
 11
-300.0
 21
-466.53853427083322
 31
0.0
 73
     3
  0
LINE
  5
B4
  8
DATA
  6
CONTINUOUS
 62
     7
 10
499.99999999985113
 20
-180.59999999966439
 30
0.0
 11
349.99999999985062
 21
-180.59999999966439
 31
0.0
  0
LINE
  5
B5
  8
DATA
  6
CONTINUOUS
 62
     7
 10
499.99999999985113
 20
-224.9999999996644
 30
0.0
 11
499.99999999985113
 21
-180.59999999966439
 31
0.0
  0
LINE
  5
B6
  8
DATA
  6
CONTINUOUS
 62
     7
 10
349.99999999985062
 20
-224.9999999996644
 30
0.0
 11
499.99999999985113
 21
-224.9999999996644
 31
0.0
  0
LINE
  5
B7
  8
DATA
  6
CONTINUOUS
 62
     7
 10
349.99999999985062
 20
-180.59999999966439
 30
0.0
 11
349.99999999985062
 21
-224.9999999996644
 31
0.0
  0
LINE
  5
B8
  8
DATA
  6
CONTINUOUS
 62
     7
 10
-224.999999999778
 20
-75.000000000103171
 30
0.0
 11
-224.999999999778
 21
-72.000000000103114
 31
0.0
  0
LINE
  5
B9
  8
DATA
  6
CONTINUOUS
 62
     7
 10
258.00000000022101
 20
-75.000000000103171
 30
0.0
 11
-224.999999999778
 21
-75.000000000103171
 31
0.0
  0
LINE
  5
BA
  8
DATA
  6
CONTINUOUS
 62
     7
 10
-224.999999999778
 20
-72.000000000103114
 30
0.0
 11
258.00000000022101
 21
-72.000000000103114
 31
0.0
  0
ARC
  5
BB
  8
DATA
  6
CONTINUOUS
 62
     7
 10
-217.8380169149433
 20
-187.0000000000249
 30
0.0
 40
3.19999999999993
 50
90.0
 51
270.0
  0
ARC
  5
BC
  8
DATA
  6
CONTINUOUS
 62
     7
 10
-213.23801691494339
 20
-187.0000000000249
 30
0.0
 40
3.2000000000000441
 50
270.0
 51
90.0
  0
LINE
  5
BD
  8
DATA
  6
CONTINUOUS
 62
     7
 10
-217.8380169149433
 20
-183.80000000002499
 30
0.0
 11
-213.23801691494339
 21
-183.80000000002499
 31
0.0
  0
LINE
  5
BE
  8
DATA
  6
CONTINUOUS
 62
     7
 10
-217.8380169149433
 20
-190.2000000000248
 30
0.0
 11
-213.23801691494339
 21
-190.2000000000248
 31
0.0
  0
ARC
  5
BF
  8
DATA
  6
CONTINUOUS
 62
     7
 10
247.16198308505571
 20
-187.0000000000249
 30
0.0
 40
3.19999999999993
 50
90.0
 51
270.0
  0
ARC
  5
C0
  8
DATA
  6
CONTINUOUS
 62
     7
 10
251.76198308505559
 20
-187.0000000000249
 30
0.0
 40
3.2000000000000441
 50
270.0
 51
90.0
  0
LINE
  5
C1
  8
DATA
  6
CONTINUOUS
 62
     7
 10
247.16198308505571
 20
-183.80000000002499
 30
0.0
 11
251.76198308505559
 21
-183.80000000002499
 31
0.0
  0
LINE
  5
C2
  8
DATA
  6
CONTINUOUS
 62
     7
 10
247.16198308505571
 20
-190.2000000000248
 30
0.0
 11
251.76198308505559
 21
-190.2000000000248
 31
0.0
  0
ARC
  5
C3
  8
DATA
  6
CONTINUOUS
 62
     7
 10
-217.8380169149433
 20
-218.60000000002489
 30
0.0
 40
3.19999999999993
 50
90.0
 51
270.0
  0
ARC
  5
C4
  8
DATA
  6
CONTINUOUS
 62
     7
 10
-213.23801691494339
 20
-218.60000000002489
 30
0.0
 40
3.2000000000000441
 50
270.0
 51
90.0
  0
LINE
  5
C5
  8
DATA
  6
CONTINUOUS
 62
     7
 10
-217.8380169149433
 20
-221.80000000002499
 30
0.0
 11
-213.23801691494339
 21
-221.80000000002499
 31
0.0
  0
LINE
  5
C6
  8
DATA
  6
CONTINUOUS
 62
     7
 10
-217.8380169149433
 20
-215.40000000002499
 30
0.0
 11
-213.23801691494339
 21
-215.40000000002499
 31
0.0
  0
ARC
  5
C7
  8
DATA
  6
CONTINUOUS
 62
     7
 10
247.16198308505571
 20
-218.60000000002489
 30
0.0
 40
3.19999999999993
 50
90.0
 51
270.0
  0
ARC
  5
C8
  8
DATA
  6
CONTINUOUS
 62
     7
 10
251.76198308505559
 20
-218.60000000002489
 30
0.0
 40
3.2000000000000441
 50
270.0
 51
90.0
  0
LINE
  5
C9
  8
DATA
  6
CONTINUOUS
 62
     7
 10
247.16198308505571
 20
-221.80000000002499
 30
0.0
 11
251.76198308505559
 21
-221.80000000002499
 31
0.0
  0
LINE
  5
CA
  8
DATA
  6
CONTINUOUS
 62
     7
 10
247.16198308505571
 20
-215.40000000002499
 30
0.0
 11
251.76198308505559
 21
-215.40000000002499
 31
0.0
  0
CIRCLE
  5
CB
  8
DATA
  6
CONTINUOUS
 62
     7
 10
228.75142491609719
 20
-191.08283304876321
 30
0.0
 40
2.8000000000000109
  0
POLYLINE
  5
CC
  8
DATA
  6
CONTINUOUS
 62
     7
 66
     1
 10
0.0
 20
0.0
 30
0.0
 70
     1
  0
VERTEX
  5
B6B
  8
DATA
  6
CONTINUOUS
 62
     7
 10
227.3514249160973
 20
-191.08283304876321
 30
0.0
  0
VERTEX
  5
B6C
  8
DATA
  6
CONTINUOUS
 62
     7
 10
228.0514249160972
 20
-189.8703974834651
 30
0.0
  0
VERTEX
  5
B6D
  8
DATA
  6
CONTINUOUS
 62
     7
 10
229.45142491609721
 20
-189.8703974834651
 30
0.0
  0
VERTEX
  5
B6E
  8
DATA
  6
CONTINUOUS
 62
     7
 10
230.1514249160972
 20
-191.08283304876321
 30
0.0
  0
VERTEX
  5
B6F
  8
DATA
  6
CONTINUOUS
 62
     7
 10
229.4514249160973
 20
-192.2952686140616
 30
0.0
  0
VERTEX
  5
B70
  8
DATA
  6
CONTINUOUS
 62
     7
 10
228.0514249160972
 20
-192.2952686140616
 30
0.0
  0
SEQEND
  5
B71
  8
DATA
  6
CONTINUOUS
 62
     7
  0
CIRCLE
  5
D5
  8
DATA
  6
CONTINUOUS
 62
     7
 10
228.75142491609719
 20
-214.5171669512865
 30
0.0
 40
2.8000000000000109
  0
POLYLINE
  5
D6
  8
DATA
  6
CONTINUOUS
 62
     7
 66
     1
 10
0.0
 20
0.0
 30
0.0
 70
     1
  0
VERTEX
  5
B72
  8
DATA
  6
CONTINUOUS
 62
     7
 10
227.3514249160973
 20
-214.5171669512865
 30
0.0
  0
VERTEX
  5
B73
  8
DATA
  6
CONTINUOUS
 62
     7
 10
228.0514249160972
 20
-215.72960251658481
 30
0.0
  0
VERTEX
  5
B74
  8
DATA
  6
CONTINUOUS
 62
     7
 10
229.45142491609721
 20
-215.72960251658481
 30
0.0
  0
VERTEX
  5
B75
  8
DATA
  6
CONTINUOUS
 62
     7
 10
230.1514249160972
 20
-214.5171669512865
 30
0.0
  0
VERTEX
  5
B76
  8
DATA
  6
CONTINUOUS
 62
     7
 10
229.4514249160973
 20
-213.30473138598839
 30
0.0
  0
VERTEX
  5
B77
  8
DATA
  6
CONTINUOUS
 62
     7
 10
228.0514249160972
 20
-213.30473138598839
 30
0.0
  0
SEQEND
  5
B78
  8
DATA
  6
CONTINUOUS
 62
     7
  0
LINE
  5
DF
  8
DATA
  6
CONTINUOUS
 62
     7
 10
-202.999999999778
 20
-71.509467757520369
 30
0.0
 11
235.00000000022101
 21
-71.509467757520369
 31
0.0
  0
LINE
  5
E0
  8
DATA
  6
CONTINUOUS
 62
     7
 10
-202.999999999778
 20
74.999999999896275
 30
0.0
 11
-202.999999999778
 21
-71.509467757520369
 31
0.0
  0
LINE
  5
E1
  8
DATA
  6
CONTINUOUS
 62
     7
 10
235.00000000022101
 20
74.999999999896275
 30
0.0
 11
-202.999999999778
 21
74.999999999896275
 31
0.0
  0
LINE
  5
E2
  8
DATA
  6
CONTINUOUS
 62
     7
 10
235.00000000022101
 20
-71.509467757520369
 30
0.0
 11
235.00000000022101
 21
74.999999999896275
 31
0.0
  0
POLYLINE
  5
E3
  8
DATA
  6
CONTINUOUS
 62
     7
 66
     1
 10
0.0
 20
0.0
 30
0.0
 70
     1
  0
VERTEX
  5
B79
  8
DATA
  6
CONTINUOUS
 62
     7
 10
-193.999999999778
 20
-71.500000000103114
 30
0.0
  0
VERTEX
  5
B7A
  8
DATA
  6
CONTINUOUS
 62
     7
 10
226.00000000022101
 20
-71.500000000103114
 30
0.0
  0
VERTEX
  5
B7B
  8
DATA
  6
CONTINUOUS
 62
     7
 10
226.00000000022101
 20
-72.000000000103114
 30
0.0
  0
VERTEX
  5
B7C
  8
DATA
  6
CONTINUOUS
 62
     7
 10
-193.999999999778
 20
-72.000000000103114
 30
0.0
  0
SEQEND
  5
B7D
  8
DATA
  6
CONTINUOUS
 62
     7
  0
LINE
  5
EA
  8
DATA
  6
CONTINUOUS
 62
     7
 10
-202.999999999778
 20
-71.509467757520369
 30
0.0
 11
-202.999999999778
 21
-72.000000000103114
 31
0.0
  0
LINE
  5
EB
  8
DATA
  6
CONTINUOUS
 62
     7
 10
235.00000000022101
 20
-71.509467757520369
 30
0.0
 11
235.00000000022101
 21
-72.000000000103114
 31
0.0
  0
ARC
  5
EC
  8
DATA
  6
CONTINUOUS
 62
     7
 10
-200.4615384613162
 20
-55.000000000103121
 30
0.0
 40
4.8384615384616803
 50
136.99713135190649
 51
223.00286864809451
  0
LINE
  5
ED
  8
DATA
  6
CONTINUOUS
 62
     7
 10
-203.999999999778
 20
-51.700000000103159
 30
0.0
 11
-202.999999999778
 21
-51.700000000103159
 31
0.0
  0
LINE
  5
EE
  8
DATA
  6
CONTINUOUS
 62
     7
 10
-203.999999999778
 20
-58.300000000103182
 30
0.0
 11
-202.999999999778
 21
-58.300000000103182
 31
0.0
  0
ARC
  5
EF
  8
DATA
  6
CONTINUOUS
 62
     7
 10
-200.4615384613162
 20
56.999999999896261
 30
0.0
 40
4.8384615384617158
 50
136.99713135190601
 51
223.00286864809399
  0
LINE
  5
F0
  8
DATA
  6
CONTINUOUS
 62
     7
 10
-203.999999999778
 20
60.299999999896272
 30
0.0
 11
-202.999999999778
 21
60.299999999896272
 31
0.0
  0
LINE
  5
F1
  8
DATA
  6
CONTINUOUS
 62
     7
 10
-203.999999999778
 20
53.699999999896249
 30
0.0
 11
-202.999999999778
 21
53.699999999896249
 31
0.0
  0
ARC
  5
F2
  8
DATA
  6
CONTINUOUS
 62
     7
 10
232.4615384617592
 20
-55.000000000103121
 30
0.0
 40
4.8384615384617549
 50
316.99713135190552
 51
43.002868648093511
  0
LINE
  5
F3
  8
DATA
  6
CONTINUOUS
 62
     7
 10
236.00000000022101
 20
-51.700000000103159
 30
0.0
 11
235.00000000022101
 21
-51.700000000103159
 31
0.0
  0
LINE
  5
F4
  8
DATA
  6
CONTINUOUS
 62
     7
 10
236.00000000022101
 20
-58.300000000103182
 30
0.0
 11
235.00000000022101
 21
-58.300000000103182
 31
0.0
  0
ARC
  5
F5
  8
DATA
  6
CONTINUOUS
 62
     7
 10
232.4615384617592
 20
56.999999999896261
 30
0.0
 40
4.8384615384617158
 50
316.99713135190598
 51
43.002868648093987
  0
LINE
  5
F6
  8
DATA
  6
CONTINUOUS
 62
     7
 10
236.00000000022101
 20
60.299999999896272
 30
0.0
 11
235.00000000022101
 21
60.299999999896272
 31
0.0
  0
LINE
  5
F7
  8
DATA
  6
CONTINUOUS
 62
     7
 10
236.00000000022101
 20
53.699999999896249
 30
0.0
 11
235.00000000022101
 21
53.699999999896249
 31
0.0
  0
LINE
  5
F8
  8
DATA
  6
CONTINUOUS
 62
     7
 10
-197.0894418308196
 20
-78.000000000103171
 30
0.0
 11
-194.48944183081949
 21
-78.000000000103171
 31
0.0
  0
LINE
  5
F9
  8
DATA
  6
CONTINUOUS
 62
     7
 10
-198.5894418308196
 20
-76.500000000103171
 30
0.0
 11
-198.5894418308196
 21
-75.000000000103171
 31
0.0
  0
LINE
  5
FA
  8
DATA
  6
CONTINUOUS
 62
     7
 10
-192.98944183081949
 20
-76.500000000103171
 30
0.0
 11
-192.98944183081949
 21
-75.000000000103171
 31
0.0
  0
ARC
  5
FB
  8
DATA
  6
CONTINUOUS
 62
     7
 10
-197.0894418308196
 20
-76.500000000103171
 30
0.0
 40
1.5
 50
180.0
 51
270.0
  0
ARC
  5
FC
  8
DATA
  6
CONTINUOUS
 62
     7
 10
-194.48944183081949
 20
-76.500000000103171
 30
0.0
 40
1.5
 50
270.0
 51
0.0
  0
LINE
  5
FD
  8
DATA
  6
CONTINUOUS
 62
     7
 10
229.08944183126249
 20
-78.000000000103171
 30
0.0
 11
226.4894418312625
 21
-78.000000000103171
 31
0.0
  0
LINE
  5
FE
  8
DATA
  6
CONTINUOUS
 62
     7
 10
230.58944183126249
 20
-76.500000000103171
 30
0.0
 11
230.58944183126249
 21
-75.000000000103171
 31
0.0
  0
LINE
  5
FF
  8
DATA
  6
CONTINUOUS
 62
     7
 10
224.9894418312625
 20
-76.500000000103171
 30
0.0
 11
224.9894418312625
 21
-75.000000000103171
 31
0.0
  0
ARC
  5
100
  8
DATA
  6
CONTINUOUS
 62
     7
 10
229.08944183126249
 20
-76.500000000103171
 30
0.0
 40
1.5
 50
270.0
 51
0.0
  0
ARC
  5
101
  8
DATA
  6
CONTINUOUS
 62
     7
 10
226.4894418312625
 20
-76.500000000103171
 30
0.0
 40
1.5
 50
180.0
 51
270.0
  0
LINE
  5
102
  8
DATA
  6
CONTINUOUS
 62
     7
 10
195.50000000022101
 20
74.999999999896275
 30
0.0
 11
195.50000000022101
 21
76.499999999896275
 31
0.0
  0
LINE
  5
103
  8
DATA
  6
CONTINUOUS
 62
     7
 10
225.50000000022101
 20
76.499999999896275
 30
0.0
 11
225.50000000022101
 21
74.999999999896275
 31
0.0
  0
LINE
  5
104
  8
DATA
  6
CONTINUOUS
 62
     7
 10
195.50000000022101
 20
76.499999999896275
 30
0.0
 11
225.50000000022101
 21
76.499999999896275
 31
0.0
  0
ARC
  5
105
  8
DATA
  6
CONTINUOUS
 62
     7
 10
251.7999999996477
 20
206.40000000011409
 30
0.0
 40
3.1999999999999882
 50
270.0
 51
90.0
  0
ARC
  5
106
  8
DATA
  6
CONTINUOUS
 62
     7
 10
247.1999999996477
 20
206.40000000011409
 30
0.0
 40
3.2000000000000002
 50
90.0
 51
270.0
  0
LINE
  5
107
  8
DATA
  6
CONTINUOUS
 62
     7
 10
251.7999999996477
 20
203.2000000001141
 30
0.0
 11
247.1999999996477
 21
203.2000000001141
 31
0.0
  0
LINE
  5
108
  8
DATA
  6
CONTINUOUS
 62
     7
 10
251.7999999996477
 20
209.60000000011411
 30
0.0
 11
247.1999999996477
 21
209.60000000011411
 31
0.0
  0
ARC
  5
109
  8
DATA
  6
CONTINUOUS
 62
     7
 10
-213.20000000035151
 20
206.40000000011409
 30
0.0
 40
3.1999999999999882
 50
270.0
 51
90.0
  0
ARC
  5
10A
  8
DATA
  6
CONTINUOUS
 62
     7
 10
-217.80000000035139
 20
206.40000000011409
 30
0.0
 40
3.2000000000000002
 50
90.0
 51
270.0
  0
LINE
  5
10B
  8
DATA
  6
CONTINUOUS
 62
     7
 10
-213.20000000035151
 20
203.2000000001141
 30
0.0
 11
-217.80000000035139
 21
203.2000000001141
 31
0.0
  0
LINE
  5
10C
  8
DATA
  6
CONTINUOUS
 62
     7
 10
-213.20000000035151
 20
209.60000000011411
 30
0.0
 11
-217.80000000035139
 21
209.60000000011411
 31
0.0
  0
ARC
  5
10D
  8
DATA
  6
CONTINUOUS
 62
     7
 10
251.7999999996477
 20
238.00000000011411
 30
0.0
 40
3.1999999999999882
 50
270.0
 51
90.0
  0
ARC
  5
10E
  8
DATA
  6
CONTINUOUS
 62
     7
 10
247.1999999996477
 20
238.00000000011411
 30
0.0
 40
3.1999999999999722
 50
90.0
 51
270.0
  0
LINE
  5
10F
  8
DATA
  6
CONTINUOUS
 62
     7
 10
251.7999999996477
 20
241.2000000001141
 30
0.0
 11
247.1999999996477
 21
241.2000000001141
 31
0.0
  0
LINE
  5
110
  8
DATA
  6
CONTINUOUS
 62
     7
 10
251.7999999996477
 20
234.8000000001141
 30
0.0
 11
247.1999999996477
 21
234.8000000001141
 31
0.0
  0
ARC
  5
111
  8
DATA
  6
CONTINUOUS
 62
     7
 10
-213.20000000035151
 20
238.00000000011411
 30
0.0
 40
3.1999999999999882
 50
270.0
 51
90.0
  0
ARC
  5
112
  8
DATA
  6
CONTINUOUS
 62
     7
 10
-217.80000000035139
 20
238.00000000011411
 30
0.0
 40
3.1999999999999722
 50
90.0
 51
270.0
  0
LINE
  5
113
  8
DATA
  6
CONTINUOUS
 62
     7
 10
-213.20000000035151
 20
241.2000000001141
 30
0.0
 11
-217.80000000035139
 21
241.2000000001141
 31
0.0
  0
LINE
  5
114
  8
DATA
  6
CONTINUOUS
 62
     7
 10
-213.20000000035151
 20
234.8000000001141
 30
0.0
 11
-217.80000000035139
 21
234.8000000001141
 31
0.0
  0
LINE
  5
115
  8
DATA
  6
CONTINUOUS
 62
     7
 10
235.9999999996478
 20
244.40000000011409
 30
0.0
 11
235.9999999996478
 21
200.00000000011411
 31
0.0
  0
LINE
  5
116
  8
DATA
  6
CONTINUOUS
 62
     7
 10
-202.00000000035141
 20
244.40000000011409
 30
0.0
 11
-202.00000000035141
 21
200.00000000011411
 31
0.0
  0
LINE
  5
117
  8
DATA
  6
CONTINUOUS
 62
     7
 10
230.6999999996477
 20
205.3000000001141
 30
0.0
 11
-196.70000000035131
 21
205.3000000001141
 31
0.0
  0
LINE
  5
118
  8
DATA
  6
CONTINUOUS
 62
     7
 10
-196.70000000035131
 20
244.40000000011409
 30
0.0
 11
-196.70000000035131
 21
205.3000000001141
 31
0.0
  0
LINE
  5
119
  8
DATA
  6
CONTINUOUS
 62
     7
 10
230.6999999996477
 20
244.40000000011409
 30
0.0
 11
230.6999999996477
 21
205.3000000001141
 31
0.0
  0
LINE
  5
11A
  8
DATA
  6
CONTINUOUS
 62
     7
 10
230.6999999996477
 20
205.3000000001141
 30
0.0
 11
235.9999999996478
 21
200.00000000011411
 31
0.0
  0
LINE
  5
11B
  8
DATA
  6
CONTINUOUS
 62
     7
 10
-196.70000000035131
 20
205.3000000001141
 30
0.0
 11
-202.00000000035141
 21
200.00000000011411
 31
0.0
  0
LINE
  5
11C
  8
DATA
  6
CONTINUOUS
 62
     7
 10
223.48129973778481
 20
233.35720748073871
 30
0.0
 11
223.4216313925653
 21
233.35720748073871
 31
0.0
  0
LINE
  5
11D
  8
DATA
  6
CONTINUOUS
 62
     7
 10
226.15860881910541
 20
230.69165503064039
 30
0.0
 11
226.15860881910541
 21
230.74977031270279
 31
0.0
  0
POLYLINE
  5
11E
  8
DATA
  6
CONTINUOUS
 62
     7
 66
     1
 10
0.0
 20
0.0
 30
0.0
  0
VERTEX
  5
B7E
  8
DATA
  6
CONTINUOUS
 62
     7
 10
226.15860881910541
 20
212.66965982803501
 30
0.0
  0
VERTEX
  5
B7F
  8
DATA
  6
CONTINUOUS
 62
     7
 10
226.15860881910541
 20
212.70103511716661
 30
0.0
  0
VERTEX
  5
B80
  8
DATA
  6
CONTINUOUS
 62
     7
 10
226.15860881910541
 20
212.70103511716661
 30
0.0
  0
SEQEND
  5
B81
  8
DATA
  6
CONTINUOUS
 62
     7
  0
POLYLINE
  5
124
  8
DATA
  6
CONTINUOUS
 62
     7
 66
     1
 10
0.0
 20
0.0
 30
0.0
  0
VERTEX
  5
B82
  8
DATA
  6
CONTINUOUS
 62
     7
 10
198.04795174723
 20
210.03548266706539
 30
0.0
  0
VERTEX
  5
B83
  8
DATA
  6
CONTINUOUS
 62
     7
 10
198.10761667912371
 20
210.03548266706539
 30
0.0
  0
VERTEX
  5
B84
  8
DATA
  6
CONTINUOUS
 62
     7
 10
198.10761667912371
 20
210.03548266706539
 30
0.0
  0
SEQEND
  5
B85
  8
DATA
  6
CONTINUOUS
 62
     7
  0
TEXT
  5
12A
  8
DATA
 62
     7
 10
217.33221765136349
 20
208.74979345172511
 30
0.0
 40
2.171788194444443
  1
15 WATTS
 50
180.0
 41
0.7
 11
217.33221765136349
 21
206.57800525728069
 31
0.0
 73
     3
  0
TEXT
  5
12B
  8
DATA
 62
     7
 10
224.29007021371109
 20
237.02924621456259
 30
0.0
 40
2.171788194444443
  1
100V-240V～50/60Hz
 50
180.0
 41
0.7
 11
224.29007021371109
 21
234.85745802011809
 31
0.0
 73
     3
  0
ARC
  5
12C
  8
DATA
  6
CONTINUOUS
 62
     7
 10
233.461538461186
 20
238.44301119094371
 30
0.0
 40
4.8384615384617158
 50
316.99713135190598
 51
43.002868648093852
  0
LINE
  5
12D
  8
DATA
  6
CONTINUOUS
 62
     7
 10
236.9999999996478
 20
235.14301119094361
 30
0.0
 11
235.9999999996478
 21
235.14301119094361
 31
0.0
  0
LINE
  5
12E
  8
DATA
  6
CONTINUOUS
 62
     7
 10
236.9999999996478
 20
241.74301119094369
 30
0.0
 11
235.9999999996478
 21
241.74301119094369
 31
0.0
  0
ARC
  5
12F
  8
DATA
  6
CONTINUOUS
 62
     7
 10
-199.4615384618896
 20
238.44301119094371
 30
0.0
 40
4.838461538461706
 50
136.99713135190601
 51
223.00286864809399
  0
LINE
  5
130
  8
DATA
  6
CONTINUOUS
 62
     7
 10
-203.00000000035141
 20
235.14301119094361
 30
0.0
 11
-202.00000000035141
 21
235.14301119094361
 31
0.0
  0
LINE
  5
131
  8
DATA
  6
CONTINUOUS
 62
     7
 10
-203.00000000035141
 20
241.74301119094369
 30
0.0
 11
-202.00000000035141
 21
241.74301119094369
 31
0.0
  0
LINE
  5
132
  8
DATA
  6
CONTINUOUS
 62
     7
 10
352.9999999998505
 20
-180.59999999966439
 30
0.0
 11
352.9999999998505
 21
-224.9999999996644
 31
0.0
  0
CIRCLE
  5
133
  8
DATA
  6
CONTINUOUS
 62
     7
 10
369.99999999985039
 20
-219.9999999996644
 30
0.0
 40
3.350000000000021
  0
LINE
  5
134
  8
DATA
  6
CONTINUOUS
 62
     7
 10
501.49999999985113
 20
-190.59999999966439
 30
0.0
 11
501.49999999985113
 21
-213.9999999996644
 31
0.0
  0
LINE
  5
135
  8
DATA
  6
CONTINUOUS
 62
     7
 10
501.49999999985113
 20
-190.59999999966439
 30
0.0
 11
499.99999999985113
 21
-190.59999999966439
 31
0.0
  0
LINE
  5
136
  8
DATA
  6
CONTINUOUS
 62
     7
 10
501.49999999985113
 20
-213.9999999996644
 30
0.0
 11
499.99999999985113
 21
-213.9999999996644
 31
0.0
  0
LINE
  5
137
  8
DATA
  6
CONTINUOUS
 62
     7
 10
502.99999999985113
 20
-187.09999999966439
 30
0.0
 11
502.99999999985113
 21
-192.59999999966439
 31
0.0
  0
LINE
  5
138
  8
DATA
  6
CONTINUOUS
 62
     7
 10
501.99999999985101
 20
-193.59999999966439
 30
0.0
 11
501.49999999985113
 21
-193.59999999966439
 31
0.0
  0
LINE
  5
139
  8
DATA
  6
CONTINUOUS
 62
     7
 10
501.69999999985112
 20
-193.29999999966421
 30
0.0
 11
501.49999999985113
 21
-193.29999999966421
 31
0.0
  0
LINE
  5
13A
  8
DATA
  6
CONTINUOUS
 62
     7
 10
502.69999999985112
 20
-187.09999999966439
 30
0.0
 11
502.69999999985112
 21
-192.29999999966421
 31
0.0
  0
LINE
  5
13B
  8
DATA
  6
CONTINUOUS
 62
     7
 10
502.69999999985112
 20
-187.09999999966439
 30
0.0
 11
502.99999999985113
 21
-187.09999999966439
 31
0.0
  0
ARC
  5
13C
  8
DATA
  6
CONTINUOUS
 62
     7
 10
501.69999999985112
 20
-192.29999999966421
 30
0.0
 40
1.0
 50
270.0
 51
0.0
  0
ARC
  5
13D
  8
DATA
  6
CONTINUOUS
 62
     7
 10
501.99999999985101
 20
-192.59999999966439
 30
0.0
 40
1.0
 50
270.0
 51
0.0
  0
LINE
  5
13E
  8
DATA
  6
CONTINUOUS
 62
     7
 10
-186.0594328625177
 20
-214.99968937280261
 30
0.0
 11
-186.0594328625177
 21
-210.89968937280261
 31
0.0
  0
ARC
  5
13F
  8
DATA
  6
CONTINUOUS
 62
     7
 10
-185.5594328625177
 20
-214.99968937280261
 30
0.0
 40
0.5
 50
180.0
 51
270.0
  0
LINE
  5
140
  8
DATA
  6
CONTINUOUS
 62
     7
 10
-180.56943286251769
 20
-215.49968937280249
 30
0.0
 11
-185.5594328625177
 21
-215.49968937280249
 31
0.0
  0
ARC
  5
141
  8
DATA
  6
CONTINUOUS
 62
     7
 10
-180.56943286251769
 20
-214.99968937280261
 30
0.0
 40
0.5
 50
270.0
 51
0.0
  0
LINE
  5
142
  8
DATA
  6
CONTINUOUS
 62
     7
 10
-180.06943286251769
 20
-210.89968937280261
 30
0.0
 11
-180.06943286251769
 21
-214.99968937280261
 31
0.0
  0
ARC
  5
143
  8
DATA
  6
CONTINUOUS
 62
     7
 10
-180.56943286251769
 20
-210.89968937280261
 30
0.0
 40
0.5
 50
0.0
 51
90.0
  0
LINE
  5
144
  8
DATA
  6
CONTINUOUS
 62
     7
 10
-185.5594328625177
 20
-210.39968937280261
 30
0.0
 11
-180.56943286251769
 21
-210.39968937280261
 31
0.0
  0
ARC
  5
145
  8
DATA
  6
CONTINUOUS
 62
     7
 10
-185.5594328625177
 20
-210.89968937280261
 30
0.0
 40
0.5
 50
90.0
 51
180.0
  0
LINE
  5
146
  8
DATA
  6
CONTINUOUS
 62
     7
 10
-185.06443286251769
 20
-214.1046893728026
 30
0.0
 11
-185.06443286251769
 21
-211.79468937280251
 31
0.0
  0
ARC
  5
147
  8
DATA
  6
CONTINUOUS
 62
     7
 10
-184.56443286251769
 20
-214.1046893728026
 30
0.0
 40
0.5
 50
180.0
 51
270.0
  0
LINE
  5
148
  8
DATA
  6
CONTINUOUS
 62
     7
 10
-181.56443286251769
 20
-214.60468937280251
 30
0.0
 11
-184.56443286251769
 21
-214.60468937280251
 31
0.0
  0
ARC
  5
149
  8
DATA
  6
CONTINUOUS
 62
     7
 10
-181.56443286251769
 20
-214.1046893728026
 30
0.0
 40
0.5
 50
270.0
 51
0.0
  0
LINE
  5
14A
  8
DATA
  6
CONTINUOUS
 62
     7
 10
-181.06443286251769
 20
-211.79468937280251
 30
0.0
 11
-181.06443286251769
 21
-214.1046893728026
 31
0.0
  0
ARC
  5
14B
  8
DATA
  6
CONTINUOUS
 62
     7
 10
-181.56443286251769
 20
-211.79468937280251
 30
0.0
 40
0.5
 50
0.0
 51
90.0
  0
LINE
  5
14C
  8
DATA
  6
CONTINUOUS
 62
     7
 10
-184.56443286251769
 20
-211.29468937280251
 30
0.0
 11
-181.56443286251769
 21
-211.29468937280251
 31
0.0
  0
ARC
  5
14D
  8
DATA
  6
CONTINUOUS
 62
     7
 10
-184.56443286251769
 20
-211.79468937280251
 30
0.0
 40
0.5
 50
90.0
 51
180.0
  0
TEXT
  5
14E
  8
DATA
 62
     7
 10
-171.06147794031361
 20
-215.4201833900263
 30
0.0
 40
1.6288411458333321
  1
dB
 41
0.7
 11
-171.06147794031361
 21
-213.791342244193
 31
0.0
 73
     3
  0
TEXT
  5
14F
  8
DATA
 62
     7
 10
-223.91341643529739
 20
-208.49984825047181
 30
0.0
 40
2.1162109375
  1
PROFESSIONAL PRODUCTS  
 41
0.7
 11
-223.91341643529739
 21
-206.38363731297181
 31
0.0
 73
     3
  0
TEXT
  5
150
  8
DATA
 62
     7
 10
239.45716469179399
 20
-207.98185357400169
 30
0.0
 40
1.995330403645833
  1
 Graphic 
 41
0.7
 11
239.45716469179399
 21
-205.98652317035589
 31
0.0
 73
     3
  0
TEXT
  5
151
  8
DATA
 62
     7
 10
239.45716469179399
 20
-210.57477024066841
 30
0.0
 40
1.995330403645833
  1
Equalizer
 41
0.7
 11
239.45716469179399
 21
-208.57943983702259
 31
0.0
 73
     3
  0
LINE
  5
152
  8
DATA
  6
CONTINUOUS
 62
     7
 10
346.4999999998505
 20
-217.4230727976622
 30
0.0
 11
349.99999999985062
 21
-217.4230727976622
 31
0.0
  0
LINE
  5
153
  8
DATA
  6
CONTINUOUS
 62
     7
 10
346.4999999998505
 20
-216.8730727976623
 30
0.0
 11
345.99999999985062
 21
-216.8730727976623
 31
0.0
  0
LINE
  5
154
  8
DATA
  6
CONTINUOUS
 62
     7
 10
345.99999999985062
 20
-216.8730727976623
 30
0.0
 11
345.99999999985062
 21
-212.87307279766219
 31
0.0
  0
POLYLINE
  5
155
  8
DATA
  6
CONTINUOUS
 62
     7
 66
     1
 10
0.0
 20
0.0
 30
0.0
 70
   129
  0
VERTEX
  5
B86
  8
DATA
  6
CONTINUOUS
 62
     7
 10
346.99999999985062
 20
-212.2171669509259
 30
0.0
 42
-0.4142135623730951
  0
VERTEX
  5
B87
  8
DATA
  6
CONTINUOUS
 62
     7
 10
347.49999999985062
 20
-211.7171669509259
 30
0.0
  0
VERTEX
  5
B88
  8
DATA
  6
CONTINUOUS
 62
     7
 10
349.99999999985062
 20
-211.7171669509259
 30
0.0
  0
VERTEX
  5
B89
  8
DATA
  6
CONTINUOUS
 62
     7
 10
349.99999999985062
 20
-217.417166950926
 30
0.0
  0
VERTEX
  5
B8A
  8
DATA
  6
CONTINUOUS
 62
     7
 10
347.49999999985062
 20
-217.417166950926
 30
0.0
 42
-0.4142135623730951
  0
VERTEX
  5
B8B
  8
DATA
  6
CONTINUOUS
 62
     7
 10
346.99999999985062
 20
-216.917166950926
 30
0.0
  0
SEQEND
  5
B8C
  8
DATA
  6
CONTINUOUS
 62
     7
  0
LINE
  5
15D
  8
DATA
  6
CONTINUOUS
 62
     7
 10
-158.93470952754001
 20
-75.000000000103171
 30
0.0
 11
-158.93470952754001
 21
-78.522177982786701
 31
0.0
  0
LINE
  5
15E
  8
DATA
  6
CONTINUOUS
 62
     7
 10
-153.23470952753999
 20
-75.000000000103171
 30
0.0
 11
-153.23470952753999
 21
-78.522177982786701
 31
0.0
  0
LINE
  5
15F
  8
DATA
  6
CONTINUOUS
 62
     7
 10
-157.5847095275399
 20
-79.522177982786729
 30
0.0
 11
-154.5847095275399
 21
-79.522177982786729
 31
0.0
  0
LINE
  5
160
  8
DATA
  6
CONTINUOUS
 62
     7
 10
-158.43470952754001
 20
-79.022177982786729
 30
0.0
 11
-153.73470952753999
 21
-79.022177982786729
 31
0.0
  0
ARC
  5
161
  8
DATA
  6
CONTINUOUS
 62
     7
 10
-158.43470952754001
 20
-78.522177982786701
 30
0.0
 40
0.5
 50
180.0
 51
270.0
  0
ARC
  5
162
  8
DATA
  6
CONTINUOUS
 62
     7
 10
-153.73470952753999
 20
-78.522177982786701
 30
0.0
 40
0.5
 50
270.0
 51
0.0
  0
ARC
  5
163
  8
DATA
  6
CONTINUOUS
 62
     7
 10
-157.5847095275399
 20
-79.022177982786729
 30
0.0
 40
0.5
 50
180.0
 51
270.0
  0
ARC
  5
164
  8
DATA
  6
CONTINUOUS
 62
     7
 10
-154.5847095275399
 20
-79.022177982786729
 30
0.0
 40
0.5
 50
270.0
 51
0.0
  0
TEXT
  5
165
  8
DATA
 62
     7
 10
-89.68603507135343
 20
212.1211319522331
 30
0.0
 40
2.30859375
  1
  OUTPUT
 50
180.0
 41
0.7
 11
-89.68603507135343
 21
209.8125382022331
 31
0.0
 73
     3
  0
TEXT
  5
166
  8
DATA
 62
     7
 10
-173.07298710517449
 20
209.38280821761219
 30
0.0
 40
1.764577907986109
  1
 INPUT
 50
180.0
 41
0.7
 11
-173.07298710517449
 21
207.61823030962611
 31
0.0
 73
     3
  0
CIRCLE
  5
167
  8
DATA
  6
CONTINUOUS
 62
     7
 10
-194.8274587459849
 20
-214.5171669512865
 30
0.0
 40
2.8000000000000109
  0
POLYLINE
  5
168
  8
DATA
  6
CONTINUOUS
 62
     7
 66
     1
 10
0.0
 20
0.0
 30
0.0
 70
     1
  0
VERTEX
  5
B8D
  8
DATA
  6
CONTINUOUS
 62
     7
 10
-193.42745874598481
 20
-214.5171669512865
 30
0.0
  0
VERTEX
  5
B8E
  8
DATA
  6
CONTINUOUS
 62
     7
 10
-194.12745874598491
 20
-215.72960251658481
 30
0.0
  0
VERTEX
  5
B8F
  8
DATA
  6
CONTINUOUS
 62
     7
 10
-195.52745874598489
 20
-215.72960251658481
 30
0.0
  0
VERTEX
  5
B90
  8
DATA
  6
CONTINUOUS
 62
     7
 10
-196.2274587459849
 20
-214.5171669512865
 30
0.0
  0
VERTEX
  5
B91
  8
DATA
  6
CONTINUOUS
 62
     7
 10
-195.52745874598489
 20
-213.30473138598839
 30
0.0
  0
VERTEX
  5
B92
  8
DATA
  6
CONTINUOUS
 62
     7
 10
-194.12745874598491
 20
-213.30473138598839
 30
0.0
  0
SEQEND
  5
B93
  8
DATA
  6
CONTINUOUS
 62
     7
  0
LINE
  5
171
  8
DATA
  6
CONTINUOUS
 62
     7
 10
348.49902125459869
 20
-199.79954081726811
 30
0.0
 11
348.49902125459869
 21
-197.87243298113509
 31
0.0
  0
LINE
  5
172
  8
DATA
  6
CONTINUOUS
 62
     7
 10
348.49902125459869
 20
-197.87243298113509
 30
0.0
 11
344.99902125459869
 21
-198.17243298113519
 31
0.0
  0
LINE
  5
173
  8
DATA
  6
CONTINUOUS
 62
     7
 10
344.99902125459869
 20
-198.17243298113519
 30
0.0
 11
333.49902125459852
 21
-199.79954081726811
 31
0.0
  0
LINE
  5
174
  8
DATA
  6
CONTINUOUS
 62
     7
 10
344.99902125459869
 20
-210.85867588540609
 30
0.0
 11
333.49902125459852
 21
-209.25501821625139
 31
0.0
  0
LINE
  5
175
  8
DATA
  6
CONTINUOUS
 62
     7
 10
333.49902125459852
 20
-199.79954081726811
 30
0.0
 11
333.49902125459852
 21
-209.25501821625139
 31
0.0
  0
LINE
  5
176
  8
DATA
  6
CONTINUOUS
 62
     7
 10
349.99902125459852
 20
-200.12727951675981
 30
0.0
 11
348.49902125459869
 21
-200.12727951675981
 31
0.0
  0
LINE
  5
177
  8
DATA
  6
CONTINUOUS
 62
     7
 10
349.99902125459852
 20
-208.92727951675971
 30
0.0
 11
348.49902125459869
 21
-208.92727951675971
 31
0.0
  0
LINE
  5
178
  8
DATA
  6
CONTINUOUS
 62
     7
 10
333.49902125459852
 20
-200.9272795167596
 30
0.0
 11
344.9990212545988
 21
-200.31555443327059
 31
0.0
  0
LINE
  5
179
  8
DATA
  6
CONTINUOUS
 62
     7
 10
333.49902125459852
 20
-208.12727951675981
 30
0.0
 11
344.9990212545988
 21
-208.71555443327071
 31
0.0
  0
TEXT
  5
17A
  8
DATA
 62
     7
 10
237.292091612756
 20
-203.66228354167589
 30
0.0
 40
5.4294704861111107
  1
131S
 41
0.7
 11
237.292091612756
 21
-198.2328130555648
 31
0.0
 73
     3
  0
CIRCLE
  5
17B
  8
DATA
  6
CONTINUOUS
 62
     7
 10
-194.8274587459849
 20
-191.1382447223146
 30
0.0
 40
2.8000000000000109
  0
POLYLINE
  5
17C
  8
DATA
  6
CONTINUOUS
 62
     7
 66
     1
 10
0.0
 20
0.0
 30
0.0
 70
     1
  0
VERTEX
  5
B94
  8
DATA
  6
CONTINUOUS
 62
     7
 10
-193.42745874598481
 20
-191.1382447223146
 30
0.0
  0
VERTEX
  5
B95
  8
DATA
  6
CONTINUOUS
 62
     7
 10
-194.12745874598491
 20
-192.3506802876129
 30
0.0
  0
VERTEX
  5
B96
  8
DATA
  6
CONTINUOUS
 62
     7
 10
-195.52745874598489
 20
-192.3506802876129
 30
0.0
  0
VERTEX
  5
B97
  8
DATA
  6
CONTINUOUS
 62
     7
 10
-196.2274587459849
 20
-191.1382447223146
 30
0.0
  0
VERTEX
  5
B98
  8
DATA
  6
CONTINUOUS
 62
     7
 10
-195.52745874598489
 20
-189.92580915701649
 30
0.0
  0
VERTEX
  5
B99
  8
DATA
  6
CONTINUOUS
 62
     7
 10
-194.12745874598491
 20
-189.92580915701649
 30
0.0
  0
SEQEND
  5
B9A
  8
DATA
  6
CONTINUOUS
 62
     7
  0
TEXT
  5
185
  8
DATA
 62
     7
 10
-172.4535181256856
 20
-217.89071594620489
 30
0.0
 40
1.6288411458333321
  1
INPUT
 41
0.7
 11
-172.4535181256856
 21
-216.2618748003716
 31
0.0
 73
     3
  0
TEXT
  5
186
  8
DATA
 62
     7
 10
-172.0969636468871
 20
-220.42113729429181
 30
0.0
 40
1.6288411458333321
  1
GAIN
 41
0.7
 11
-172.0969636468871
 21
-218.79229614845849
 31
0.0
 73
     3
  0
LINE
  5
187
  8
DATA
  6
CONTINUOUS
 62
     7
 10
-159.05943286251761
 20
-214.99968937280261
 30
0.0
 11
-159.05943286251761
 21
-210.89968937280261
 31
0.0
  0
ARC
  5
188
  8
DATA
  6
CONTINUOUS
 62
     7
 10
-158.5594328625177
 20
-214.99968937280261
 30
0.0
 40
0.5
 50
180.0
 51
270.0
  0
LINE
  5
189
  8
DATA
  6
CONTINUOUS
 62
     7
 10
-153.56943286251769
 20
-215.49968937280249
 30
0.0
 11
-158.5594328625177
 21
-215.49968937280249
 31
0.0
  0
ARC
  5
18A
  8
DATA
  6
CONTINUOUS
 62
     7
 10
-153.56943286251769
 20
-214.99968937280261
 30
0.0
 40
0.5
 50
270.0
 51
0.0
  0
LINE
  5
18B
  8
DATA
  6
CONTINUOUS
 62
     7
 10
-153.06943286251769
 20
-210.89968937280261
 30
0.0
 11
-153.06943286251769
 21
-214.99968937280261
 31
0.0
  0
ARC
  5
18C
  8
DATA
  6
CONTINUOUS
 62
     7
 10
-153.56943286251769
 20
-210.89968937280261
 30
0.0
 40
0.5
 50
0.0
 51
90.0
  0
LINE
  5
18D
  8
DATA
  6
CONTINUOUS
 62
     7
 10
-158.5594328625177
 20
-210.39968937280261
 30
0.0
 11
-153.56943286251769
 21
-210.39968937280261
 31
0.0
  0
ARC
  5
18E
  8
DATA
  6
CONTINUOUS
 62
     7
 10
-158.5594328625177
 20
-210.89968937280261
 30
0.0
 40
0.5
 50
90.0
 51
180.0
  0
LINE
  5
18F
  8
DATA
  6
CONTINUOUS
 62
     7
 10
-158.06443286251769
 20
-214.1046893728026
 30
0.0
 11
-158.06443286251769
 21
-211.79468937280251
 31
0.0
  0
ARC
  5
190
  8
DATA
  6
CONTINUOUS
 62
     7
 10
-157.56443286251769
 20
-214.1046893728026
 30
0.0
 40
0.5
 50
180.0
 51
270.0
  0
LINE
  5
191
  8
DATA
  6
CONTINUOUS
 62
     7
 10
-154.56443286251769
 20
-214.60468937280251
 30
0.0
 11
-157.56443286251769
 21
-214.60468937280251
 31
0.0
  0
ARC
  5
192
  8
DATA
  6
CONTINUOUS
 62
     7
 10
-154.56443286251769
 20
-214.1046893728026
 30
0.0
 40
0.5
 50
270.0
 51
0.0
  0
LINE
  5
193
  8
DATA
  6
CONTINUOUS
 62
     7
 10
-154.06443286251769
 20
-211.79468937280251
 30
0.0
 11
-154.06443286251769
 21
-214.1046893728026
 31
0.0
  0
ARC
  5
194
  8
DATA
  6
CONTINUOUS
 62
     7
 10
-154.56443286251769
 20
-211.79468937280251
 30
0.0
 40
0.5
 50
0.0
 51
90.0
  0
LINE
  5
195
  8
DATA
  6
CONTINUOUS
 62
     7
 10
-157.56443286251769
 20
-211.29468937280251
 30
0.0
 11
-154.56443286251769
 21
-211.29468937280251
 31
0.0
  0
ARC
  5
196
  8
DATA
  6
CONTINUOUS
 62
     7
 10
-157.56443286251769
 20
-211.79468937280251
 30
0.0
 40
0.5
 50
90.0
 51
180.0
  0
LINE
  5
197
  8
DATA
  6
CONTINUOUS
 62
     7
 10
-150.05943286251761
 20
-214.99968937280261
 30
0.0
 11
-150.05943286251761
 21
-210.89968937280261
 31
0.0
  0
ARC
  5
198
  8
DATA
  6
CONTINUOUS
 62
     7
 10
-149.55943286251761
 20
-214.99968937280261
 30
0.0
 40
0.5
 50
180.0
 51
270.0
  0
LINE
  5
199
  8
DATA
  6
CONTINUOUS
 62
     7
 10
-144.56943286251769
 20
-215.49968937280249
 30
0.0
 11
-149.55943286251761
 21
-215.49968937280249
 31
0.0
  0
ARC
  5
19A
  8
DATA
  6
CONTINUOUS
 62
     7
 10
-144.56943286251769
 20
-214.99968937280261
 30
0.0
 40
0.5
 50
270.0
 51
0.0
  0
LINE
  5
19B
  8
DATA
  6
CONTINUOUS
 62
     7
 10
-144.06943286251769
 20
-210.89968937280261
 30
0.0
 11
-144.06943286251769
 21
-214.99968937280261
 31
0.0
  0
ARC
  5
19C
  8
DATA
  6
CONTINUOUS
 62
     7
 10
-144.56943286251769
 20
-210.89968937280261
 30
0.0
 40
0.5
 50
0.0
 51
90.0
  0
LINE
  5
19D
  8
DATA
  6
CONTINUOUS
 62
     7
 10
-149.55943286251761
 20
-210.39968937280261
 30
0.0
 11
-144.56943286251769
 21
-210.39968937280261
 31
0.0
  0
ARC
  5
19E
  8
DATA
  6
CONTINUOUS
 62
     7
 10
-149.55943286251761
 20
-210.89968937280261
 30
0.0
 40
0.5
 50
90.0
 51
180.0
  0
LINE
  5
19F
  8
DATA
  6
CONTINUOUS
 62
     7
 10
-149.06443286251769
 20
-214.1046893728026
 30
0.0
 11
-149.06443286251769
 21
-211.79468937280251
 31
0.0
  0
ARC
  5
1A0
  8
DATA
  6
CONTINUOUS
 62
     7
 10
-148.56443286251769
 20
-214.1046893728026
 30
0.0
 40
0.5
 50
180.0
 51
270.0
  0
LINE
  5
1A1
  8
DATA
  6
CONTINUOUS
 62
     7
 10
-145.56443286251769
 20
-214.60468937280251
 30
0.0
 11
-148.56443286251769
 21
-214.60468937280251
 31
0.0
  0
ARC
  5
1A2
  8
DATA
  6
CONTINUOUS
 62
     7
 10
-145.56443286251769
 20
-214.1046893728026
 30
0.0
 40
0.5
 50
270.0
 51
0.0
  0
LINE
  5
1A3
  8
DATA
  6
CONTINUOUS
 62
     7
 10
-145.06443286251769
 20
-211.79468937280251
 30
0.0
 11
-145.06443286251769
 21
-214.1046893728026
 31
0.0
  0
ARC
  5
1A4
  8
DATA
  6
CONTINUOUS
 62
     7
 10
-145.56443286251769
 20
-211.79468937280251
 30
0.0
 40
0.5
 50
0.0
 51
90.0
  0
LINE
  5
1A5
  8
DATA
  6
CONTINUOUS
 62
     7
 10
-148.56443286251769
 20
-211.29468937280251
 30
0.0
 11
-145.56443286251769
 21
-211.29468937280251
 31
0.0
  0
ARC
  5
1A6
  8
DATA
  6
CONTINUOUS
 62
     7
 10
-148.56443286251769
 20
-211.79468937280251
 30
0.0
 40
0.5
 50
90.0
 51
180.0
  0
LINE
  5
1A7
  8
DATA
  6
CONTINUOUS
 62
     7
 10
-185.66443286251771
 20
-203.6500000000249
 30
0.0
 11
-185.66443286251771
 21
-200.7500000000249
 31
0.0
  0
LINE
  5
1A8
  8
DATA
  6
CONTINUOUS
 62
     7
 10
-180.4644328625177
 20
-203.6500000000249
 30
0.0
 11
-185.66443286251771
 21
-203.6500000000249
 31
0.0
  0
LINE
  5
1A9
  8
DATA
  6
CONTINUOUS
 62
     7
 10
-180.4644328625177
 20
-200.7500000000249
 30
0.0
 11
-180.4644328625177
 21
-203.6500000000249
 31
0.0
  0
LINE
  5
1AA
  8
DATA
  6
CONTINUOUS
 62
     7
 10
-185.66443286251771
 20
-200.7500000000249
 30
0.0
 11
-180.4644328625177
 21
-200.7500000000249
 31
0.0
  0
LINE
  5
1AB
  8
DATA
  6
CONTINUOUS
 62
     7
 10
-184.9644328625177
 20
-202.95000000002489
 30
0.0
 11
-184.9644328625177
 21
-201.45000000002489
 31
0.0
  0
LINE
  5
1AC
  8
DATA
  6
CONTINUOUS
 62
     7
 10
-181.16443286251771
 20
-202.95000000002489
 30
0.0
 11
-184.9644328625177
 21
-202.95000000002489
 31
0.0
  0
LINE
  5
1AD
  8
DATA
  6
CONTINUOUS
 62
     7
 10
-181.16443286251771
 20
-201.45000000002489
 30
0.0
 11
-181.16443286251771
 21
-202.95000000002489
 31
0.0
  0
LINE
  5
1AE
  8
DATA
  6
CONTINUOUS
 62
     7
 10
-184.9644328625177
 20
-201.45000000002489
 30
0.0
 11
-181.16443286251771
 21
-201.45000000002489
 31
0.0
  0
LINE
  5
1AF
  8
DATA
  6
CONTINUOUS
 62
     7
 10
-180.00000000000779
 20
-190.20099397632481
 30
0.0
 11
-180.00000000000779
 21
-187.90000000002479
 31
0.0
  0
LINE
  5
1B0
  8
DATA
  6
CONTINUOUS
 62
     7
 10
-159.50000000000779
 20
-190.20099397632481
 30
0.0
 11
-180.00000000000779
 21
-190.20099397632481
 31
0.0
  0
LINE
  5
1B1
  8
DATA
  6
CONTINUOUS
 62
     7
 10
-159.50000000000779
 20
-187.90000000002479
 30
0.0
 11
-159.50000000000779
 21
-190.20099397632481
 31
0.0
  0
LINE
  5
1B2
  8
DATA
  6
CONTINUOUS
 62
     7
 10
-180.00000000000779
 20
-187.90000000002479
 30
0.0
 11
-159.50000000000779
 21
-187.90000000002479
 31
0.0
  0
LINE
  5
1B3
  8
DATA
  6
CONTINUOUS
 62
     7
 10
-174.25190305761481
 20
-189.8204969881748
 30
0.0
 11
-174.25190305761481
 21
-188.2804969881748
 31
0.0
  0
LINE
  5
1B4
  8
DATA
  6
CONTINUOUS
 62
     7
 10
-170.50190305761481
 20
-189.8204969881748
 30
0.0
 11
-174.25190305761481
 21
-189.8204969881748
 31
0.0
  0
LINE
  5
1B5
  8
DATA
  6
CONTINUOUS
 62
     7
 10
-170.50190305761481
 20
-188.2804969881748
 30
0.0
 11
-170.50190305761481
 21
-189.8204969881748
 31
0.0
  0
LINE
  5
1B6
  8
DATA
  6
CONTINUOUS
 62
     7
 10
-174.25190305761481
 20
-188.2804969881748
 30
0.0
 11
-170.50190305761481
 21
-188.2804969881748
 31
0.0
  0
LINE
  5
1B7
  8
DATA
  6
CONTINUOUS
 62
     7
 10
-169.00332078644141
 20
-189.8204969881748
 30
0.0
 11
-169.00332078644141
 21
-188.2804969881748
 31
0.0
  0
LINE
  5
1B8
  8
DATA
  6
CONTINUOUS
 62
     7
 10
-165.25332078644161
 20
-189.8204969881748
 30
0.0
 11
-169.00332078644141
 21
-189.8204969881748
 31
0.0
  0
LINE
  5
1B9
  8
DATA
  6
CONTINUOUS
 62
     7
 10
-165.25332078644161
 20
-188.2804969881748
 30
0.0
 11
-165.25332078644161
 21
-189.8204969881748
 31
0.0
  0
LINE
  5
1BA
  8
DATA
  6
CONTINUOUS
 62
     7
 10
-169.00332078644141
 20
-188.2804969881748
 30
0.0
 11
-165.25332078644161
 21
-188.2804969881748
 31
0.0
  0
LINE
  5
1BB
  8
DATA
  6
CONTINUOUS
 62
     7
 10
-179.50180677523221
 20
-189.8204969881748
 30
0.0
 11
-179.50180677523221
 21
-188.2804969881748
 31
0.0
  0
LINE
  5
1BC
  8
DATA
  6
CONTINUOUS
 62
     7
 10
-175.7518067752323
 20
-189.8204969881748
 30
0.0
 11
-179.50180677523221
 21
-189.8204969881748
 31
0.0
  0
LINE
  5
1BD
  8
DATA
  6
CONTINUOUS
 62
     7
 10
-175.7518067752323
 20
-188.2804969881748
 30
0.0
 11
-175.7518067752323
 21
-189.8204969881748
 31
0.0
  0
LINE
  5
1BE
  8
DATA
  6
CONTINUOUS
 62
     7
 10
-179.50180677523221
 20
-188.2804969881748
 30
0.0
 11
-175.7518067752323
 21
-188.2804969881748
 31
0.0
  0
LINE
  5
1BF
  8
DATA
  6
CONTINUOUS
 62
     7
 10
-163.75555539626041
 20
-189.8204969881748
 30
0.0
 11
-163.75555539626041
 21
-188.2804969881748
 31
0.0
  0
LINE
  5
1C0
  8
DATA
  6
CONTINUOUS
 62
     7
 10
-160.00555539626041
 20
-189.8204969881748
 30
0.0
 11
-163.75555539626041
 21
-189.8204969881748
 31
0.0
  0
LINE
  5
1C1
  8
DATA
  6
CONTINUOUS
 62
     7
 10
-160.00555539626041
 20
-188.2804969881748
 30
0.0
 11
-160.00555539626041
 21
-189.8204969881748
 31
0.0
  0
LINE
  5
1C2
  8
DATA
  6
CONTINUOUS
 62
     7
 10
-163.75555539626041
 20
-188.2804969881748
 30
0.0
 11
-160.00555539626041
 21
-188.2804969881748
 31
0.0
  0
LINE
  5
1C3
  8
DATA
  6
CONTINUOUS
 62
     7
 10
-149.93470952754001
 20
-75.000000000103171
 30
0.0
 11
-149.93470952754001
 21
-78.522177982786701
 31
0.0
  0
LINE
  5
1C4
  8
DATA
  6
CONTINUOUS
 62
     7
 10
-144.23470952753999
 20
-75.000000000103171
 30
0.0
 11
-144.23470952753999
 21
-78.522177982786701
 31
0.0
  0
LINE
  5
1C5
  8
DATA
  6
CONTINUOUS
 62
     7
 10
-148.5847095275399
 20
-79.522177982786729
 30
0.0
 11
-145.5847095275399
 21
-79.522177982786729
 31
0.0
  0
LINE
  5
1C6
  8
DATA
  6
CONTINUOUS
 62
     7
 10
-149.43470952754001
 20
-79.022177982786729
 30
0.0
 11
-144.73470952753999
 21
-79.022177982786729
 31
0.0
  0
ARC
  5
1C7
  8
DATA
  6
CONTINUOUS
 62
     7
 10
-149.43470952754001
 20
-78.522177982786701
 30
0.0
 40
0.5
 50
180.0
 51
270.0
  0
ARC
  5
1C8
  8
DATA
  6
CONTINUOUS
 62
     7
 10
-144.73470952753999
 20
-78.522177982786701
 30
0.0
 40
0.5
 50
270.0
 51
0.0
  0
ARC
  5
1C9
  8
DATA
  6
CONTINUOUS
 62
     7
 10
-148.5847095275399
 20
-79.022177982786729
 30
0.0
 40
0.5
 50
180.0
 51
270.0
  0
ARC
  5
1CA
  8
DATA
  6
CONTINUOUS
 62
     7
 10
-145.5847095275399
 20
-79.022177982786729
 30
0.0
 40
0.5
 50
270.0
 51
0.0
  0
LINE
  5
1CB
  8
DATA
  6
CONTINUOUS
 62
     7
 10
-185.93470952754001
 20
-75.000000000103171
 30
0.0
 11
-185.93470952754001
 21
-78.522177982786701
 31
0.0
  0
LINE
  5
1CC
  8
DATA
  6
CONTINUOUS
 62
     7
 10
-180.23470952753999
 20
-75.000000000103171
 30
0.0
 11
-180.23470952753999
 21
-78.522177982786701
 31
0.0
  0
LINE
  5
1CD
  8
DATA
  6
CONTINUOUS
 62
     7
 10
-184.58470952754001
 20
-79.522177982786729
 30
0.0
 11
-181.5847095275399
 21
-79.522177982786729
 31
0.0
  0
LINE
  5
1CE
  8
DATA
  6
CONTINUOUS
 62
     7
 10
-185.43470952753981
 20
-79.022177982786729
 30
0.0
 11
-180.73470952753999
 21
-79.022177982786729
 31
0.0
  0
ARC
  5
1CF
  8
DATA
  6
CONTINUOUS
 62
     7
 10
-185.43470952753981
 20
-78.522177982786701
 30
0.0
 40
0.5
 50
180.0
 51
270.0
  0
ARC
  5
1D0
  8
DATA
  6
CONTINUOUS
 62
     7
 10
-180.73470952753999
 20
-78.522177982786701
 30
0.0
 40
0.5
 50
270.0
 51
0.0
  0
ARC
  5
1D1
  8
DATA
  6
CONTINUOUS
 62
     7
 10
-184.58470952754001
 20
-79.022177982786729
 30
0.0
 40
0.5
 50
180.0
 51
270.0
  0
ARC
  5
1D2
  8
DATA
  6
CONTINUOUS
 62
     7
 10
-181.5847095275399
 20
-79.022177982786729
 30
0.0
 40
0.5
 50
270.0
 51
0.0
  0
POLYLINE
  5
1D3
  8
DATA
  6
CONTINUOUS
 62
     7
 66
     1
 10
0.0
 20
0.0
 30
0.0
 70
     1
  0
VERTEX
  5
B9B
  8
DATA
  6
CONTINUOUS
 62
     7
 10
-184.98119698761769
 20
-74.999471072097393
 30
0.0
  0
VERTEX
  5
B9C
  8
DATA
  6
CONTINUOUS
 62
     7
 10
-181.18119698761771
 20
-74.999471072097393
 30
0.0
  0
VERTEX
  5
B9D
  8
DATA
  6
CONTINUOUS
 62
     7
 10
-181.18119698761771
 20
-75.999471072097393
 30
0.0
  0
VERTEX
  5
B9E
  8
DATA
  6
CONTINUOUS
 62
     7
 10
-184.98119698761769
 20
-75.999471072097393
 30
0.0
  0
SEQEND
  5
B9F
  8
DATA
  6
CONTINUOUS
 62
     7
  0
POLYLINE
  5
1DA
  8
DATA
  6
CONTINUOUS
 62
     7
 66
     1
 10
0.0
 20
0.0
 30
0.0
 70
     1
  0
VERTEX
  5
BA0
  8
DATA
  6
CONTINUOUS
 62
     7
 10
-169.0200849115414
 20
-75.000410096400799
 30
0.0
  0
VERTEX
  5
BA1
  8
DATA
  6
CONTINUOUS
 62
     7
 10
-165.2700849115416
 20
-75.000410096400799
 30
0.0
  0
VERTEX
  5
BA2
  8
DATA
  6
CONTINUOUS
 62
     7
 10
-165.2700849115416
 20
-76.000410096400785
 30
0.0
  0
VERTEX
  5
BA3
  8
DATA
  6
CONTINUOUS
 62
     7
 10
-169.0200849115414
 20
-76.000410096400785
 30
0.0
  0
SEQEND
  5
BA4
  8
DATA
  6
CONTINUOUS
 62
     7
  0
POLYLINE
  5
1E1
  8
DATA
  6
CONTINUOUS
 62
     7
 66
     1
 10
0.0
 20
0.0
 30
0.0
 70
     1
  0
VERTEX
  5
BA5
  8
DATA
  6
CONTINUOUS
 62
     7
 10
-179.51857090033221
 20
-75.000410096400799
 30
0.0
  0
VERTEX
  5
BA6
  8
DATA
  6
CONTINUOUS
 62
     7
 10
-175.76857090033229
 20
-75.000410096400799
 30
0.0
  0
VERTEX
  5
BA7
  8
DATA
  6
CONTINUOUS
 62
     7
 10
-175.76857090033229
 20
-76.000410096400785
 30
0.0
  0
VERTEX
  5
BA8
  8
DATA
  6
CONTINUOUS
 62
     7
 10
-179.51857090033221
 20
-76.000410096400785
 30
0.0
  0
SEQEND
  5
BA9
  8
DATA
  6
CONTINUOUS
 62
     7
  0
POLYLINE
  5
1E8
  8
DATA
  6
CONTINUOUS
 62
     7
 66
     1
 10
0.0
 20
0.0
 30
0.0
 70
     1
  0
VERTEX
  5
BAA
  8
DATA
  6
CONTINUOUS
 62
     7
 10
-163.7723195213604
 20
-75.000410096400799
 30
0.0
  0
VERTEX
  5
BAB
  8
DATA
  6
CONTINUOUS
 62
     7
 10
-160.02231952136049
 20
-75.000410096400799
 30
0.0
  0
VERTEX
  5
BAC
  8
DATA
  6
CONTINUOUS
 62
     7
 10
-160.02231952136049
 20
-76.000410096400785
 30
0.0
  0
VERTEX
  5
BAD
  8
DATA
  6
CONTINUOUS
 62
     7
 10
-163.7723195213604
 20
-76.000410096400785
 30
0.0
  0
SEQEND
  5
BAE
  8
DATA
  6
CONTINUOUS
 62
     7
  0
TEXT
  5
1EF
  8
DATA
 62
     7
 10
-185.17635220839881
 20
-200.07258001210499
 30
0.0
 40
1.6288411458333321
  1
CLIP
 41
0.7
 11
-185.17635220839881
 21
-198.4437388662717
 31
0.0
 73
     3
  0
TEXT
  5
1F0
  8
DATA
 62
     7
 10
-186.16506854341759
 20
-207.47075653983421
 30
0.0
 40
1.6288411458333321
  1
  EQ
 41
0.7
 11
-186.16506854341759
 21
-205.84191539400089
 31
0.0
 73
     3
  0
TEXT
  5
1F1
  8
DATA
 62
     7
 10
-186.16506854341759
 20
-209.587423206501
 30
0.0
 40
1.6288411458333321
  1
BYPASS
 41
0.7
 11
-186.16506854341759
 21
-207.9585820606676
 31
0.0
 73
     3
  0
TEXT
  5
1F2
  8
DATA
 62
     7
 10
-157.75379967475411
 20
-207.42473039992689
 30
0.0
 40
1.6288411458333321
  1
LOW
 41
0.7
 11
-157.75379967475411
 21
-205.79588925409359
 31
0.0
 73
     3
  0
TEXT
  5
1F3
  8
DATA
 62
     7
 10
-157.75379967475411
 20
-209.5413970665935
 30
0.0
 40
1.6288411458333321
  1
CUT
 41
0.7
 11
-157.75379967475411
 21
-207.91255592076021
 31
0.0
 73
     3
  0
TEXT
  5
1F4
  8
DATA
 62
     7
 10
-149.94514250068889
 20
-207.43349931705581
 30
0.0
 40
1.6288411458333321
  1
RANGE
 41
0.7
 11
-149.94514250068889
 21
-205.80465817122251
 31
0.0
 73
     3
  0
TEXT
  5
1F5
  8
DATA
 62
     7
 10
-149.94514250068889
 20
-209.55016598372239
 30
0.0
 40
1.6288411458333321
  1
+/-12
 41
0.7
 11
-149.94514250068889
 21
-207.9213248378891
 31
0.0
 73
     3
  0
TEXT
  5
1F6
  8
DATA
 62
     7
 10
-176.61180394690879
 20
-185.80531753573231
 30
0.0
 40
1.1401888020833331
  1
OUTPUT LEVEL (dBu)
 41
0.7
 11
-176.61180394690879
 21
-184.665128733649
 31
0.0
 73
     3
  0
TEXT
  5
1F7
  8
DATA
 62
     7
 10
-172.74440453398981
 20
-187.46866175743611
 30
0.0
 40
1.1401888020833331
  1
0
 41
0.7
 11
-172.74440453398981
 21
-186.32847295535279
 31
0.0
 73
     3
  0
TEXT
  5
1F8
  8
DATA
 62
     7
 10
-178.68356653379911
 20
-187.47226053297931
 30
0.0
 40
1.1401888020833331
  1
-10
 41
0.7
 11
-178.68356653379911
 21
-186.33207173089599
 31
0.0
 73
     3
  0
TEXT
  5
1F9
  8
DATA
 62
     7
 10
-168.2575878288238
 20
-187.4449759846907
 30
0.0
 40
1.1401888020833331
  1
+10
 41
0.7
 11
-168.2575878288238
 21
-186.30478718260741
 31
0.0
 73
     3
  0
TEXT
  5
1FA
  8
DATA
 62
     7
 10
-163.0925070183612
 20
-187.42810168211099
 30
0.0
 40
1.1401888020833331
  1
+18
 41
0.7
 11
-163.0925070183612
 21
-186.2879128800277
 31
0.0
 73
     3
  0
ARC
  5
1FB
  8
DATA
  6
CONTINUOUS
 62
     7
 10
-136.50000000000779
 20
-192.90000000002479
 30
0.0
 40
1.5
 50
0.0
 51
180.0
  0
ARC
  5
1FC
  8
DATA
  6
CONTINUOUS
 62
     7
 10
-136.50000000000779
 20
-217.7000000000248
 30
0.0
 40
1.5
 50
180.0
 51
0.0
  0
LINE
  5
1FD
  8
DATA
  6
CONTINUOUS
 62
     7
 10
-138.00000000000779
 20
-192.90000000002479
 30
0.0
 11
-138.00000000000779
 21
-217.7000000000248
 31
0.0
  0
LINE
  5
1FE
  8
DATA
  6
CONTINUOUS
 62
     7
 10
-135.00000000000779
 20
-217.7000000000248
 30
0.0
 11
-135.00000000000779
 21
-192.90000000002479
 31
0.0
  0
LINE
  5
1FF
  8
DATA
  6
CONTINUOUS
 62
     7
 10
-137.3000000000078
 20
-206.10000000002489
 30
0.0
 11
-137.3000000000078
 21
-204.5000000000249
 31
0.0
  0
LINE
  5
200
  8
DATA
  6
CONTINUOUS
 62
     7
 10
-135.70000000000789
 20
-206.10000000002489
 30
0.0
 11
-137.3000000000078
 21
-206.10000000002489
 31
0.0
  0
LINE
  5
201
  8
DATA
  6
CONTINUOUS
 62
     7
 10
-135.70000000000789
 20
-204.5000000000249
 30
0.0
 11
-135.70000000000789
 21
-206.10000000002489
 31
0.0
  0
LINE
  5
202
  8
DATA
  6
CONTINUOUS
 62
     7
 10
-137.3000000000078
 20
-204.5000000000249
 30
0.0
 11
-135.70000000000789
 21
-204.5000000000249
 31
0.0
  0
LINE
  5
203
  8
DATA
  6
CONTINUOUS
 62
     7
 10
-137.3000000000078
 20
-204.5000000000249
 30
0.0
 11
-137.50000000000779
 21
-204.50099397632471
 31
0.0
  0
LINE
  5
204
  8
DATA
  6
CONTINUOUS
 62
     7
 10
-137.3000000000078
 20
-206.10000000002489
 30
0.0
 11
-137.50000000000779
 21
-206.10000000002489
 31
0.0
  0
LINE
  5
205
  8
DATA
  6
CONTINUOUS
 62
     7
 10
-135.70000000000789
 20
-206.10000000002489
 30
0.0
 11
-135.50000000000779
 21
-206.10000000002489
 31
0.0
  0
LINE
  5
206
  8
DATA
  6
CONTINUOUS
 62
     7
 10
-137.50000000000779
 20
-202.72500000002489
 30
0.0
 11
-135.49671934141639
 21
-202.72500000002489
 31
0.0
  0
LINE
  5
207
  8
DATA
  6
CONTINUOUS
 62
     7
 10
-137.50000000000779
 20
-207.8750000000249
 30
0.0
 11
-135.5367193414165
 21
-207.8750000000249
 31
0.0
  0
LINE
  5
208
  8
DATA
  6
CONTINUOUS
 62
     7
 10
-137.50000000000779
 20
-202.72500000002489
 30
0.0
 11
-137.4911737384088
 21
-204.50095011085051
 31
0.0
  0
LINE
  5
209
  8
DATA
  6
CONTINUOUS
 62
     7
 10
-137.50000000000779
 20
-206.10000000002489
 30
0.0
 11
-137.50000000000779
 21
-207.8750000000249
 31
0.0
  0
LINE
  5
20A
  8
DATA
  6
CONTINUOUS
 62
     7
 10
-135.5367193414165
 20
-207.8750000000249
 30
0.0
 11
-135.5367193414165
 21
-206.1009939763247
 31
0.0
  0
LINE
  5
20B
  8
DATA
  6
CONTINUOUS
 62
     7
 10
-135.70000000000789
 20
-204.5000000000249
 30
0.0
 11
-135.49671934141639
 21
-204.5000000000249
 31
0.0
  0
LINE
  5
20C
  8
DATA
  6
CONTINUOUS
 62
     7
 10
-135.49671934141639
 20
-204.5000000000249
 30
0.0
 11
-135.49671934141639
 21
-202.72500000002489
 31
0.0
  0
ARC
  5
20D
  8
DATA
  6
CONTINUOUS
 62
     7
 10
-124.7000000000078
 20
-192.90000000002479
 30
0.0
 40
1.5
 50
0.0
 51
180.0
  0
ARC
  5
20E
  8
DATA
  6
CONTINUOUS
 62
     7
 10
-124.7000000000078
 20
-217.7000000000248
 30
0.0
 40
1.5
 50
180.0
 51
0.0
  0
LINE
  5
20F
  8
DATA
  6
CONTINUOUS
 62
     7
 10
-126.2000000000078
 20
-192.90000000002479
 30
0.0
 11
-126.2000000000078
 21
-217.7000000000248
 31
0.0
  0
LINE
  5
210
  8
DATA
  6
CONTINUOUS
 62
     7
 10
-123.2000000000078
 20
-217.7000000000248
 30
0.0
 11
-123.2000000000078
 21
-192.90000000002479
 31
0.0
  0
LINE
  5
211
  8
DATA
  6
CONTINUOUS
 62
     7
 10
-125.5000000000078
 20
-206.10000000002489
 30
0.0
 11
-125.5000000000078
 21
-204.5000000000249
 31
0.0
  0
LINE
  5
212
  8
DATA
  6
CONTINUOUS
 62
     7
 10
-123.90000000000779
 20
-206.10000000002489
 30
0.0
 11
-125.5000000000078
 21
-206.10000000002489
 31
0.0
  0
LINE
  5
213
  8
DATA
  6
CONTINUOUS
 62
     7
 10
-123.90000000000779
 20
-204.5000000000249
 30
0.0
 11
-123.90000000000779
 21
-206.10000000002489
 31
0.0
  0
LINE
  5
214
  8
DATA
  6
CONTINUOUS
 62
     7
 10
-125.5000000000078
 20
-204.5000000000249
 30
0.0
 11
-123.90000000000779
 21
-204.5000000000249
 31
0.0
  0
LINE
  5
215
  8
DATA
  6
CONTINUOUS
 62
     7
 10
-125.5000000000078
 20
-204.5000000000249
 30
0.0
 11
-125.7000000000078
 21
-204.50099397632471
 31
0.0
  0
LINE
  5
216
  8
DATA
  6
CONTINUOUS
 62
     7
 10
-125.5000000000078
 20
-206.10000000002489
 30
0.0
 11
-125.7000000000078
 21
-206.10000000002489
 31
0.0
  0
LINE
  5
217
  8
DATA
  6
CONTINUOUS
 62
     7
 10
-123.90000000000779
 20
-206.10000000002489
 30
0.0
 11
-123.7000000000078
 21
-206.10000000002489
 31
0.0
  0
LINE
  5
218
  8
DATA
  6
CONTINUOUS
 62
     7
 10
-125.7000000000078
 20
-202.72500000002489
 30
0.0
 11
-123.6967193414164
 21
-202.72500000002489
 31
0.0
  0
LINE
  5
219
  8
DATA
  6
CONTINUOUS
 62
     7
 10
-125.7000000000078
 20
-207.8750000000249
 30
0.0
 11
-123.7367193414165
 21
-207.8750000000249
 31
0.0
  0
LINE
  5
21A
  8
DATA
  6
CONTINUOUS
 62
     7
 10
-125.7000000000078
 20
-202.72500000002489
 30
0.0
 11
-125.69117373840881
 21
-204.50095011085051
 31
0.0
  0
LINE
  5
21B
  8
DATA
  6
CONTINUOUS
 62
     7
 10
-125.7000000000078
 20
-206.10000000002489
 30
0.0
 11
-125.7000000000078
 21
-207.8750000000249
 31
0.0
  0
LINE
  5
21C
  8
DATA
  6
CONTINUOUS
 62
     7
 10
-123.7367193414165
 20
-207.8750000000249
 30
0.0
 11
-123.7367193414165
 21
-206.1009939763247
 31
0.0
  0
LINE
  5
21D
  8
DATA
  6
CONTINUOUS
 62
     7
 10
-123.90000000000779
 20
-204.5000000000249
 30
0.0
 11
-123.6967193414164
 21
-204.5000000000249
 31
0.0
  0
LINE
  5
21E
  8
DATA
  6
CONTINUOUS
 62
     7
 10
-123.6967193414164
 20
-204.5000000000249
 30
0.0
 11
-123.6967193414164
 21
-202.72500000002489
 31
0.0
  0
LINE
  5
21F
  8
DATA
  6
CONTINUOUS
 62
     7
 10
-131.74671934141651
 20
-207.8000000000248
 30
0.0
 11
-129.4467193414165
 21
-207.8000000000248
 31
0.0
  0
LINE
  5
220
  8
DATA
  6
CONTINUOUS
 62
     7
 10
-133.69671934141641
 20
-205.3000000000248
 30
0.0
 11
-127.49671934141649
 21
-205.3000000000248
 31
0.0
  0
LINE
  5
221
  8
DATA
  6
CONTINUOUS
 62
     7
 10
-131.99671934141651
 20
-210.3000000000248
 30
0.0
 11
-129.1967193414165
 21
-210.3000000000248
 31
0.0
  0
LINE
  5
222
  8
DATA
  6
CONTINUOUS
 62
     7
 10
-132.3467193414165
 20
-212.8000000000248
 30
0.0
 11
-128.8467193414165
 21
-212.8000000000248
 31
0.0
  0
LINE
  5
223
  8
DATA
  6
CONTINUOUS
 62
     7
 10
-132.79671934141641
 20
-215.3000000000248
 30
0.0
 11
-128.39671934141651
 21
-215.3000000000248
 31
0.0
  0
LINE
  5
224
  8
DATA
  6
CONTINUOUS
 62
     7
 10
-131.74671934141651
 20
-202.8000000000248
 30
0.0
 11
-129.4467193414165
 21
-202.8000000000248
 31
0.0
  0
LINE
  5
225
  8
DATA
  6
CONTINUOUS
 62
     7
 10
-131.99671934141651
 20
-200.3000000000248
 30
0.0
 11
-129.1967193414165
 21
-200.3000000000248
 31
0.0
  0
LINE
  5
226
  8
DATA
  6
CONTINUOUS
 62
     7
 10
-132.3467193414165
 20
-197.8000000000248
 30
0.0
 11
-128.8467193414165
 21
-197.8000000000248
 31
0.0
  0
LINE
  5
227
  8
DATA
  6
CONTINUOUS
 62
     7
 10
-132.79671934141641
 20
-195.3000000000248
 30
0.0
 11
-128.39671934141651
 21
-195.3000000000248
 31
0.0
  0
LINE
  5
228
  8
DATA
  6
CONTINUOUS
 62
     7
 10
-135.00000000000779
 20
-205.3000000000248
 30
0.0
 11
-126.2000000000078
 21
-205.3000000000248
 31
0.0
  0
ARC
  5
229
  8
DATA
  6
CONTINUOUS
 62
     7
 10
-112.90000000000779
 20
-192.90000000002479
 30
0.0
 40
1.5
 50
0.0
 51
180.0
  0
ARC
  5
22A
  8
DATA
  6
CONTINUOUS
 62
     7
 10
-112.90000000000779
 20
-217.7000000000248
 30
0.0
 40
1.5
 50
180.0
 51
0.0
  0
LINE
  5
22B
  8
DATA
  6
CONTINUOUS
 62
     7
 10
-114.40000000000779
 20
-192.90000000002479
 30
0.0
 11
-114.40000000000779
 21
-217.7000000000248
 31
0.0
  0
LINE
  5
22C
  8
DATA
  6
CONTINUOUS
 62
     7
 10
-111.40000000000779
 20
-217.7000000000248
 30
0.0
 11
-111.40000000000779
 21
-192.90000000002479
 31
0.0
  0
LINE
  5
22D
  8
DATA
  6
CONTINUOUS
 62
     7
 10
-113.7000000000078
 20
-206.10000000002489
 30
0.0
 11
-113.7000000000078
 21
-204.5000000000249
 31
0.0
  0
LINE
  5
22E
  8
DATA
  6
CONTINUOUS
 62
     7
 10
-112.1000000000079
 20
-206.10000000002489
 30
0.0
 11
-113.7000000000078
 21
-206.10000000002489
 31
0.0
  0
LINE
  5
22F
  8
DATA
  6
CONTINUOUS
 62
     7
 10
-112.1000000000079
 20
-204.5000000000249
 30
0.0
 11
-112.1000000000079
 21
-206.10000000002489
 31
0.0
  0
LINE
  5
230
  8
DATA
  6
CONTINUOUS
 62
     7
 10
-113.7000000000078
 20
-204.5000000000249
 30
0.0
 11
-112.1000000000079
 21
-204.5000000000249
 31
0.0
  0
LINE
  5
231
  8
DATA
  6
CONTINUOUS
 62
     7
 10
-113.7000000000078
 20
-204.5000000000249
 30
0.0
 11
-113.90000000000779
 21
-204.50099397632471
 31
0.0
  0
LINE
  5
232
  8
DATA
  6
CONTINUOUS
 62
     7
 10
-113.7000000000078
 20
-206.10000000002489
 30
0.0
 11
-113.90000000000779
 21
-206.10000000002489
 31
0.0
  0
LINE
  5
233
  8
DATA
  6
CONTINUOUS
 62
     7
 10
-112.1000000000079
 20
-206.10000000002489
 30
0.0
 11
-111.90000000000779
 21
-206.10000000002489
 31
0.0
  0
LINE
  5
234
  8
DATA
  6
CONTINUOUS
 62
     7
 10
-113.90000000000779
 20
-202.72500000002489
 30
0.0
 11
-111.8967193414164
 21
-202.72500000002489
 31
0.0
  0
LINE
  5
235
  8
DATA
  6
CONTINUOUS
 62
     7
 10
-113.90000000000779
 20
-207.8750000000249
 30
0.0
 11
-111.93671934141641
 21
-207.8750000000249
 31
0.0
  0
LINE
  5
236
  8
DATA
  6
CONTINUOUS
 62
     7
 10
-113.90000000000779
 20
-202.72500000002489
 30
0.0
 11
-113.8911737384088
 21
-204.50095011085051
 31
0.0
  0
LINE
  5
237
  8
DATA
  6
CONTINUOUS
 62
     7
 10
-113.90000000000779
 20
-206.10000000002489
 30
0.0
 11
-113.90000000000779
 21
-207.8750000000249
 31
0.0
  0
LINE
  5
238
  8
DATA
  6
CONTINUOUS
 62
     7
 10
-111.93671934141641
 20
-207.8750000000249
 30
0.0
 11
-111.93671934141641
 21
-206.1009939763247
 31
0.0
  0
LINE
  5
239
  8
DATA
  6
CONTINUOUS
 62
     7
 10
-112.1000000000079
 20
-204.5000000000249
 30
0.0
 11
-111.8967193414164
 21
-204.5000000000249
 31
0.0
  0
LINE
  5
23A
  8
DATA
  6
CONTINUOUS
 62
     7
 10
-111.8967193414164
 20
-204.5000000000249
 30
0.0
 11
-111.8967193414164
 21
-202.72500000002489
 31
0.0
  0
LINE
  5
23B
  8
DATA
  6
CONTINUOUS
 62
     7
 10
-119.9467193414165
 20
-207.8000000000248
 30
0.0
 11
-117.6467193414165
 21
-207.8000000000248
 31
0.0
  0
LINE
  5
23C
  8
DATA
  6
CONTINUOUS
 62
     7
 10
-121.8967193414164
 20
-205.3000000000248
 30
0.0
 11
-115.6967193414164
 21
-205.3000000000248
 31
0.0
  0
LINE
  5
23D
  8
DATA
  6
CONTINUOUS
 62
     7
 10
-120.1967193414165
 20
-210.3000000000248
 30
0.0
 11
-117.3967193414165
 21
-210.3000000000248
 31
0.0
  0
LINE
  5
23E
  8
DATA
  6
CONTINUOUS
 62
     7
 10
-120.54671934141651
 20
-212.8000000000248
 30
0.0
 11
-117.04671934141651
 21
-212.8000000000248
 31
0.0
  0
LINE
  5
23F
  8
DATA
  6
CONTINUOUS
 62
     7
 10
-120.99671934141649
 20
-215.3000000000248
 30
0.0
 11
-116.5967193414165
 21
-215.3000000000248
 31
0.0
  0
LINE
  5
240
  8
DATA
  6
CONTINUOUS
 62
     7
 10
-119.9467193414165
 20
-202.8000000000248
 30
0.0
 11
-117.6467193414165
 21
-202.8000000000248
 31
0.0
  0
LINE
  5
241
  8
DATA
  6
CONTINUOUS
 62
     7
 10
-120.1967193414165
 20
-200.3000000000248
 30
0.0
 11
-117.3967193414165
 21
-200.3000000000248
 31
0.0
  0
LINE
  5
242
  8
DATA
  6
CONTINUOUS
 62
     7
 10
-120.54671934141651
 20
-197.8000000000248
 30
0.0
 11
-117.04671934141651
 21
-197.8000000000248
 31
0.0
  0
LINE
  5
243
  8
DATA
  6
CONTINUOUS
 62
     7
 10
-120.99671934141649
 20
-195.3000000000248
 30
0.0
 11
-116.5967193414165
 21
-195.3000000000248
 31
0.0
  0
ARC
  5
244
  8
DATA
  6
CONTINUOUS
 62
     7
 10
-101.1000000000078
 20
-192.90000000002479
 30
0.0
 40
1.5
 50
0.0
 51
180.0
  0
ARC
  5
245
  8
DATA
  6
CONTINUOUS
 62
     7
 10
-101.1000000000078
 20
-217.7000000000248
 30
0.0
 40
1.5
 50
180.0
 51
0.0
  0
LINE
  5
246
  8
DATA
  6
CONTINUOUS
 62
     7
 10
-102.6000000000079
 20
-192.90000000002479
 30
0.0
 11
-102.6000000000079
 21
-217.7000000000248
 31
0.0
  0
LINE
  5
247
  8
DATA
  6
CONTINUOUS
 62
     7
 10
-99.600000000007896
 20
-217.7000000000248
 30
0.0
 11
-99.600000000007896
 21
-192.90000000002479
 31
0.0
  0
LINE
  5
248
  8
DATA
  6
CONTINUOUS
 62
     7
 10
-101.90000000000779
 20
-206.10000000002489
 30
0.0
 11
-101.90000000000779
 21
-204.5000000000249
 31
0.0
  0
LINE
  5
249
  8
DATA
  6
CONTINUOUS
 62
     7
 10
-100.3000000000079
 20
-206.10000000002489
 30
0.0
 11
-101.90000000000779
 21
-206.10000000002489
 31
0.0
  0
LINE
  5
24A
  8
DATA
  6
CONTINUOUS
 62
     7
 10
-100.3000000000079
 20
-204.5000000000249
 30
0.0
 11
-100.3000000000079
 21
-206.10000000002489
 31
0.0
  0
LINE
  5
24B
  8
DATA
  6
CONTINUOUS
 62
     7
 10
-101.90000000000779
 20
-204.5000000000249
 30
0.0
 11
-100.3000000000079
 21
-204.5000000000249
 31
0.0
  0
LINE
  5
24C
  8
DATA
  6
CONTINUOUS
 62
     7
 10
-101.90000000000779
 20
-204.5000000000249
 30
0.0
 11
-102.1000000000078
 21
-204.50099397632471
 31
0.0
  0
LINE
  5
24D
  8
DATA
  6
CONTINUOUS
 62
     7
 10
-101.90000000000779
 20
-206.10000000002489
 30
0.0
 11
-102.1000000000078
 21
-206.10000000002489
 31
0.0
  0
LINE
  5
24E
  8
DATA
  6
CONTINUOUS
 62
     7
 10
-100.3000000000079
 20
-206.10000000002489
 30
0.0
 11
-100.1000000000079
 21
-206.10000000002489
 31
0.0
  0
LINE
  5
24F
  8
DATA
  6
CONTINUOUS
 62
     7
 10
-102.1000000000078
 20
-202.72500000002489
 30
0.0
 11
-100.0967193414165
 21
-202.72500000002489
 31
0.0
  0
LINE
  5
250
  8
DATA
  6
CONTINUOUS
 62
     7
 10
-102.1000000000078
 20
-207.8750000000249
 30
0.0
 11
-100.13671934141649
 21
-207.8750000000249
 31
0.0
  0
LINE
  5
251
  8
DATA
  6
CONTINUOUS
 62
     7
 10
-102.1000000000078
 20
-202.72500000002489
 30
0.0
 11
-102.0911737384089
 21
-204.50095011085051
 31
0.0
  0
LINE
  5
252
  8
DATA
  6
CONTINUOUS
 62
     7
 10
-102.1000000000078
 20
-206.10000000002489
 30
0.0
 11
-102.1000000000078
 21
-207.8750000000249
 31
0.0
  0
LINE
  5
253
  8
DATA
  6
CONTINUOUS
 62
     7
 10
-100.13671934141649
 20
-207.8750000000249
 30
0.0
 11
-100.13671934141649
 21
-206.1009939763247
 31
0.0
  0
LINE
  5
254
  8
DATA
  6
CONTINUOUS
 62
     7
 10
-100.3000000000079
 20
-204.5000000000249
 30
0.0
 11
-100.0967193414165
 21
-204.5000000000249
 31
0.0
  0
LINE
  5
255
  8
DATA
  6
CONTINUOUS
 62
     7
 10
-100.0967193414165
 20
-204.5000000000249
 30
0.0
 11
-100.0967193414165
 21
-202.72500000002489
 31
0.0
  0
LINE
  5
256
  8
DATA
  6
CONTINUOUS
 62
     7
 10
-108.1467193414165
 20
-207.8000000000248
 30
0.0
 11
-105.8467193414166
 21
-207.8000000000248
 31
0.0
  0
LINE
  5
257
  8
DATA
  6
CONTINUOUS
 62
     7
 10
-110.0967193414165
 20
-205.3000000000248
 30
0.0
 11
-103.8967193414165
 21
-205.3000000000248
 31
0.0
  0
LINE
  5
258
  8
DATA
  6
CONTINUOUS
 62
     7
 10
-108.3967193414165
 20
-210.3000000000248
 30
0.0
 11
-105.5967193414165
 21
-210.3000000000248
 31
0.0
  0
LINE
  5
259
  8
DATA
  6
CONTINUOUS
 62
     7
 10
-108.74671934141649
 20
-212.8000000000248
 30
0.0
 11
-105.24671934141649
 21
-212.8000000000248
 31
0.0
  0
LINE
  5
25A
  8
DATA
  6
CONTINUOUS
 62
     7
 10
-109.1967193414165
 20
-215.3000000000248
 30
0.0
 11
-104.79671934141651
 21
-215.3000000000248
 31
0.0
  0
LINE
  5
25B
  8
DATA
  6
CONTINUOUS
 62
     7
 10
-108.1467193414165
 20
-202.8000000000248
 30
0.0
 11
-105.8467193414166
 21
-202.8000000000248
 31
0.0
  0
LINE
  5
25C
  8
DATA
  6
CONTINUOUS
 62
     7
 10
-108.3967193414165
 20
-200.3000000000248
 30
0.0
 11
-105.5967193414165
 21
-200.3000000000248
 31
0.0
  0
LINE
  5
25D
  8
DATA
  6
CONTINUOUS
 62
     7
 10
-108.74671934141649
 20
-197.8000000000248
 30
0.0
 11
-105.24671934141649
 21
-197.8000000000248
 31
0.0
  0
LINE
  5
25E
  8
DATA
  6
CONTINUOUS
 62
     7
 10
-109.1967193414165
 20
-195.3000000000248
 30
0.0
 11
-104.79671934141651
 21
-195.3000000000248
 31
0.0
  0
ARC
  5
25F
  8
DATA
  6
CONTINUOUS
 62
     7
 10
-89.300000000007884
 20
-192.90000000002479
 30
0.0
 40
1.5
 50
0.0
 51
180.0
  0
ARC
  5
260
  8
DATA
  6
CONTINUOUS
 62
     7
 10
-89.300000000007884
 20
-217.7000000000248
 30
0.0
 40
1.5
 50
180.0
 51
0.0
  0
LINE
  5
261
  8
DATA
  6
CONTINUOUS
 62
     7
 10
-90.800000000007884
 20
-192.90000000002479
 30
0.0
 11
-90.800000000007884
 21
-217.7000000000248
 31
0.0
  0
LINE
  5
262
  8
DATA
  6
CONTINUOUS
 62
     7
 10
-87.800000000007884
 20
-217.7000000000248
 30
0.0
 11
-87.800000000007884
 21
-192.90000000002479
 31
0.0
  0
LINE
  5
263
  8
DATA
  6
CONTINUOUS
 62
     7
 10
-90.100000000007881
 20
-206.10000000002489
 30
0.0
 11
-90.100000000007881
 21
-204.5000000000249
 31
0.0
  0
LINE
  5
264
  8
DATA
  6
CONTINUOUS
 62
     7
 10
-88.500000000007915
 20
-206.10000000002489
 30
0.0
 11
-90.100000000007881
 21
-206.10000000002489
 31
0.0
  0
LINE
  5
265
  8
DATA
  6
CONTINUOUS
 62
     7
 10
-88.500000000007915
 20
-204.5000000000249
 30
0.0
 11
-88.500000000007915
 21
-206.10000000002489
 31
0.0
  0
LINE
  5
266
  8
DATA
  6
CONTINUOUS
 62
     7
 10
-90.100000000007881
 20
-204.5000000000249
 30
0.0
 11
-88.500000000007915
 21
-204.5000000000249
 31
0.0
  0
LINE
  5
267
  8
DATA
  6
CONTINUOUS
 62
     7
 10
-90.100000000007881
 20
-204.5000000000249
 30
0.0
 11
-90.300000000007884
 21
-204.50099397632471
 31
0.0
  0
LINE
  5
268
  8
DATA
  6
CONTINUOUS
 62
     7
 10
-90.100000000007881
 20
-206.10000000002489
 30
0.0
 11
-90.300000000007884
 21
-206.10000000002489
 31
0.0
  0
LINE
  5
269
  8
DATA
  6
CONTINUOUS
 62
     7
 10
-88.500000000007915
 20
-206.10000000002489
 30
0.0
 11
-88.300000000007884
 21
-206.10000000002489
 31
0.0
  0
LINE
  5
26A
  8
DATA
  6
CONTINUOUS
 62
     7
 10
-90.300000000007884
 20
-202.72500000002489
 30
0.0
 11
-88.296719341416448
 21
-202.72500000002489
 31
0.0
  0
LINE
  5
26B
  8
DATA
  6
CONTINUOUS
 62
     7
 10
-90.300000000007884
 20
-207.8750000000249
 30
0.0
 11
-88.336719341416497
 21
-207.8750000000249
 31
0.0
  0
LINE
  5
26C
  8
DATA
  6
CONTINUOUS
 62
     7
 10
-90.300000000007884
 20
-202.72500000002489
 30
0.0
 11
-90.291173738408887
 21
-204.50095011085051
 31
0.0
  0
LINE
  5
26D
  8
DATA
  6
CONTINUOUS
 62
     7
 10
-90.300000000007884
 20
-206.10000000002489
 30
0.0
 11
-90.300000000007884
 21
-207.8750000000249
 31
0.0
  0
LINE
  5
26E
  8
DATA
  6
CONTINUOUS
 62
     7
 10
-88.336719341416497
 20
-207.8750000000249
 30
0.0
 11
-88.336719341416497
 21
-206.1009939763247
 31
0.0
  0
LINE
  5
26F
  8
DATA
  6
CONTINUOUS
 62
     7
 10
-88.500000000007915
 20
-204.5000000000249
 30
0.0
 11
-88.296719341416448
 21
-204.5000000000249
 31
0.0
  0
LINE
  5
270
  8
DATA
  6
CONTINUOUS
 62
     7
 10
-88.296719341416448
 20
-204.5000000000249
 30
0.0
 11
-88.296719341416448
 21
-202.72500000002489
 31
0.0
  0
LINE
  5
271
  8
DATA
  6
CONTINUOUS
 62
     7
 10
-96.346719341416573
 20
-207.8000000000248
 30
0.0
 11
-94.046719341416491
 21
-207.8000000000248
 31
0.0
  0
LINE
  5
272
  8
DATA
  6
CONTINUOUS
 62
     7
 10
-98.296719341416505
 20
-205.3000000000248
 30
0.0
 11
-92.096719341416488
 21
-205.3000000000248
 31
0.0
  0
LINE
  5
273
  8
DATA
  6
CONTINUOUS
 62
     7
 10
-96.596719341416573
 20
-210.3000000000248
 30
0.0
 11
-93.796719341416491
 21
-210.3000000000248
 31
0.0
  0
LINE
  5
274
  8
DATA
  6
CONTINUOUS
 62
     7
 10
-96.946719341416525
 20
-212.8000000000248
 30
0.0
 11
-93.446719341416511
 21
-212.8000000000248
 31
0.0
  0
LINE
  5
275
  8
DATA
  6
CONTINUOUS
 62
     7
 10
-97.3967193414165
 20
-215.3000000000248
 30
0.0
 11
-92.996719341416508
 21
-215.3000000000248
 31
0.0
  0
LINE
  5
276
  8
DATA
  6
CONTINUOUS
 62
     7
 10
-96.346719341416573
 20
-202.8000000000248
 30
0.0
 11
-94.046719341416491
 21
-202.8000000000248
 31
0.0
  0
LINE
  5
277
  8
DATA
  6
CONTINUOUS
 62
     7
 10
-96.596719341416573
 20
-200.3000000000248
 30
0.0
 11
-93.796719341416491
 21
-200.3000000000248
 31
0.0
  0
LINE
  5
278
  8
DATA
  6
CONTINUOUS
 62
     7
 10
-96.946719341416525
 20
-197.8000000000248
 30
0.0
 11
-93.446719341416511
 21
-197.8000000000248
 31
0.0
  0
LINE
  5
279
  8
DATA
  6
CONTINUOUS
 62
     7
 10
-97.3967193414165
 20
-195.3000000000248
 30
0.0
 11
-92.996719341416508
 21
-195.3000000000248
 31
0.0
  0
ARC
  5
27A
  8
DATA
  6
CONTINUOUS
 62
     7
 10
-77.500000000007873
 20
-192.90000000002479
 30
0.0
 40
1.5
 50
0.0
 51
180.0
  0
ARC
  5
27B
  8
DATA
  6
CONTINUOUS
 62
     7
 10
-77.500000000007873
 20
-217.7000000000248
 30
0.0
 40
1.5
 50
180.0
 51
0.0
  0
LINE
  5
27C
  8
DATA
  6
CONTINUOUS
 62
     7
 10
-79.000000000007873
 20
-192.90000000002479
 30
0.0
 11
-79.000000000007873
 21
-217.7000000000248
 31
0.0
  0
LINE
  5
27D
  8
DATA
  6
CONTINUOUS
 62
     7
 10
-76.000000000007873
 20
-217.7000000000248
 30
0.0
 11
-76.000000000007873
 21
-192.90000000002479
 31
0.0
  0
LINE
  5
27E
  8
DATA
  6
CONTINUOUS
 62
     7
 10
-78.300000000007884
 20
-206.10000000002489
 30
0.0
 11
-78.300000000007884
 21
-204.5000000000249
 31
0.0
  0
LINE
  5
27F
  8
DATA
  6
CONTINUOUS
 62
     7
 10
-76.700000000007904
 20
-206.10000000002489
 30
0.0
 11
-78.300000000007884
 21
-206.10000000002489
 31
0.0
  0
LINE
  5
280
  8
DATA
  6
CONTINUOUS
 62
     7
 10
-76.700000000007904
 20
-204.5000000000249
 30
0.0
 11
-76.700000000007904
 21
-206.10000000002489
 31
0.0
  0
LINE
  5
281
  8
DATA
  6
CONTINUOUS
 62
     7
 10
-78.300000000007884
 20
-204.5000000000249
 30
0.0
 11
-76.700000000007904
 21
-204.5000000000249
 31
0.0
  0
LINE
  5
282
  8
DATA
  6
CONTINUOUS
 62
     7
 10
-78.300000000007884
 20
-204.5000000000249
 30
0.0
 11
-78.500000000007873
 21
-204.50099397632471
 31
0.0
  0
LINE
  5
283
  8
DATA
  6
CONTINUOUS
 62
     7
 10
-78.300000000007884
 20
-206.10000000002489
 30
0.0
 11
-78.500000000007873
 21
-206.10000000002489
 31
0.0
  0
LINE
  5
284
  8
DATA
  6
CONTINUOUS
 62
     7
 10
-76.700000000007904
 20
-206.10000000002489
 30
0.0
 11
-76.500000000007873
 21
-206.10000000002489
 31
0.0
  0
LINE
  5
285
  8
DATA
  6
CONTINUOUS
 62
     7
 10
-78.500000000007873
 20
-202.72500000002489
 30
0.0
 11
-76.496719341416451
 21
-202.72500000002489
 31
0.0
  0
LINE
  5
286
  8
DATA
  6
CONTINUOUS
 62
     7
 10
-78.500000000007873
 20
-207.8750000000249
 30
0.0
 11
-76.536719341416486
 21
-207.8750000000249
 31
0.0
  0
LINE
  5
287
  8
DATA
  6
CONTINUOUS
 62
     7
 10
-78.500000000007873
 20
-202.72500000002489
 30
0.0
 11
-78.491173738408861
 21
-204.50095011085051
 31
0.0
  0
LINE
  5
288
  8
DATA
  6
CONTINUOUS
 62
     7
 10
-78.500000000007873
 20
-206.10000000002489
 30
0.0
 11
-78.500000000007873
 21
-207.8750000000249
 31
0.0
  0
LINE
  5
289
  8
DATA
  6
CONTINUOUS
 62
     7
 10
-76.536719341416486
 20
-207.8750000000249
 30
0.0
 11
-76.536719341416486
 21
-206.1009939763247
 31
0.0
  0
LINE
  5
28A
  8
DATA
  6
CONTINUOUS
 62
     7
 10
-76.700000000007904
 20
-204.5000000000249
 30
0.0
 11
-76.496719341416451
 21
-204.5000000000249
 31
0.0
  0
LINE
  5
28B
  8
DATA
  6
CONTINUOUS
 62
     7
 10
-76.496719341416451
 20
-204.5000000000249
 30
0.0
 11
-76.496719341416451
 21
-202.72500000002489
 31
0.0
  0
LINE
  5
28C
  8
DATA
  6
CONTINUOUS
 62
     7
 10
-84.546719341416548
 20
-207.8000000000248
 30
0.0
 11
-82.246719341416508
 21
-207.8000000000248
 31
0.0
  0
LINE
  5
28D
  8
DATA
  6
CONTINUOUS
 62
     7
 10
-86.496719341416451
 20
-205.3000000000248
 30
0.0
 11
-80.296719341416434
 21
-205.3000000000248
 31
0.0
  0
LINE
  5
28E
  8
DATA
  6
CONTINUOUS
 62
     7
 10
-84.796719341416534
 20
-210.3000000000248
 30
0.0
 11
-81.996719341416508
 21
-210.3000000000248
 31
0.0
  0
LINE
  5
28F
  8
DATA
  6
CONTINUOUS
 62
     7
 10
-85.146719341416514
 20
-212.8000000000248
 30
0.0
 11
-81.646719341416485
 21
-212.8000000000248
 31
0.0
  0
LINE
  5
290
  8
DATA
  6
CONTINUOUS
 62
     7
 10
-85.596719341416488
 20
-215.3000000000248
 30
0.0
 11
-81.196719341416511
 21
-215.3000000000248
 31
0.0
  0
LINE
  5
291
  8
DATA
  6
CONTINUOUS
 62
     7
 10
-84.546719341416548
 20
-202.8000000000248
 30
0.0
 11
-82.246719341416508
 21
-202.8000000000248
 31
0.0
  0
LINE
  5
292
  8
DATA
  6
CONTINUOUS
 62
     7
 10
-84.796719341416534
 20
-200.3000000000248
 30
0.0
 11
-81.996719341416508
 21
-200.3000000000248
 31
0.0
  0
LINE
  5
293
  8
DATA
  6
CONTINUOUS
 62
     7
 10
-85.146719341416514
 20
-197.8000000000248
 30
0.0
 11
-81.646719341416485
 21
-197.8000000000248
 31
0.0
  0
LINE
  5
294
  8
DATA
  6
CONTINUOUS
 62
     7
 10
-85.596719341416488
 20
-195.3000000000248
 30
0.0
 11
-81.196719341416511
 21
-195.3000000000248
 31
0.0
  0
ARC
  5
295
  8
DATA
  6
CONTINUOUS
 62
     7
 10
-65.700000000007847
 20
-192.90000000002479
 30
0.0
 40
1.5
 50
0.0
 51
180.0
  0
ARC
  5
296
  8
DATA
  6
CONTINUOUS
 62
     7
 10
-65.700000000007847
 20
-217.7000000000248
 30
0.0
 40
1.5
 50
180.0
 51
0.0
  0
LINE
  5
297
  8
DATA
  6
CONTINUOUS
 62
     7
 10
-67.200000000007833
 20
-192.90000000002479
 30
0.0
 11
-67.200000000007833
 21
-217.7000000000248
 31
0.0
  0
LINE
  5
298
  8
DATA
  6
CONTINUOUS
 62
     7
 10
-64.200000000007847
 20
-217.7000000000248
 30
0.0
 11
-64.200000000007847
 21
-192.90000000002479
 31
0.0
  0
LINE
  5
299
  8
DATA
  6
CONTINUOUS
 62
     7
 10
-66.500000000007859
 20
-206.10000000002489
 30
0.0
 11
-66.500000000007859
 21
-204.5000000000249
 31
0.0
  0
LINE
  5
29A
  8
DATA
  6
CONTINUOUS
 62
     7
 10
-64.900000000007893
 20
-206.10000000002489
 30
0.0
 11
-66.500000000007859
 21
-206.10000000002489
 31
0.0
  0
LINE
  5
29B
  8
DATA
  6
CONTINUOUS
 62
     7
 10
-64.900000000007893
 20
-204.5000000000249
 30
0.0
 11
-64.900000000007893
 21
-206.10000000002489
 31
0.0
  0
LINE
  5
29C
  8
DATA
  6
CONTINUOUS
 62
     7
 10
-66.500000000007859
 20
-204.5000000000249
 30
0.0
 11
-64.900000000007893
 21
-204.5000000000249
 31
0.0
  0
LINE
  5
29D
  8
DATA
  6
CONTINUOUS
 62
     7
 10
-66.500000000007859
 20
-204.5000000000249
 30
0.0
 11
-66.700000000007847
 21
-204.50099397632471
 31
0.0
  0
LINE
  5
29E
  8
DATA
  6
CONTINUOUS
 62
     7
 10
-66.500000000007859
 20
-206.10000000002489
 30
0.0
 11
-66.700000000007847
 21
-206.10000000002489
 31
0.0
  0
LINE
  5
29F
  8
DATA
  6
CONTINUOUS
 62
     7
 10
-64.900000000007893
 20
-206.10000000002489
 30
0.0
 11
-64.700000000007833
 21
-206.10000000002489
 31
0.0
  0
LINE
  5
2A0
  8
DATA
  6
CONTINUOUS
 62
     7
 10
-66.700000000007847
 20
-202.72500000002489
 30
0.0
 11
-64.696719341416454
 21
-202.72500000002489
 31
0.0
  0
LINE
  5
2A1
  8
DATA
  6
CONTINUOUS
 62
     7
 10
-66.700000000007847
 20
-207.8750000000249
 30
0.0
 11
-64.736719341416475
 21
-207.8750000000249
 31
0.0
  0
LINE
  5
2A2
  8
DATA
  6
CONTINUOUS
 62
     7
 10
-66.700000000007847
 20
-202.72500000002489
 30
0.0
 11
-66.691173738408864
 21
-204.50095011085051
 31
0.0
  0
LINE
  5
2A3
  8
DATA
  6
CONTINUOUS
 62
     7
 10
-66.700000000007847
 20
-206.10000000002489
 30
0.0
 11
-66.700000000007847
 21
-207.8750000000249
 31
0.0
  0
LINE
  5
2A4
  8
DATA
  6
CONTINUOUS
 62
     7
 10
-64.736719341416475
 20
-207.8750000000249
 30
0.0
 11
-64.736719341416475
 21
-206.1009939763247
 31
0.0
  0
LINE
  5
2A5
  8
DATA
  6
CONTINUOUS
 62
     7
 10
-64.900000000007893
 20
-204.5000000000249
 30
0.0
 11
-64.696719341416454
 21
-204.5000000000249
 31
0.0
  0
LINE
  5
2A6
  8
DATA
  6
CONTINUOUS
 62
     7
 10
-64.696719341416454
 20
-204.5000000000249
 30
0.0
 11
-64.696719341416454
 21
-202.72500000002489
 31
0.0
  0
LINE
  5
2A7
  8
DATA
  6
CONTINUOUS
 62
     7
 10
-72.746719341416494
 20
-207.8000000000248
 30
0.0
 11
-70.446719341416511
 21
-207.8000000000248
 31
0.0
  0
LINE
  5
2A8
  8
DATA
  6
CONTINUOUS
 62
     7
 10
-74.696719341416454
 20
-205.3000000000248
 30
0.0
 11
-68.49671934141648
 21
-205.3000000000248
 31
0.0
  0
LINE
  5
2A9
  8
DATA
  6
CONTINUOUS
 62
     7
 10
-72.996719341416508
 20
-210.3000000000248
 30
0.0
 11
-70.196719341416511
 21
-210.3000000000248
 31
0.0
  0
LINE
  5
2AA
  8
DATA
  6
CONTINUOUS
 62
     7
 10
-73.346719341416488
 20
-212.8000000000248
 30
0.0
 11
-69.846719341416474
 21
-212.8000000000248
 31
0.0
  0
LINE
  5
2AB
  8
DATA
  6
CONTINUOUS
 62
     7
 10
-73.796719341416448
 20
-215.3000000000248
 30
0.0
 11
-69.396719341416485
 21
-215.3000000000248
 31
0.0
  0
LINE
  5
2AC
  8
DATA
  6
CONTINUOUS
 62
     7
 10
-72.746719341416494
 20
-202.8000000000248
 30
0.0
 11
-70.446719341416511
 21
-202.8000000000248
 31
0.0
  0
LINE
  5
2AD
  8
DATA
  6
CONTINUOUS
 62
     7
 10
-72.996719341416508
 20
-200.3000000000248
 30
0.0
 11
-70.196719341416511
 21
-200.3000000000248
 31
0.0
  0
LINE
  5
2AE
  8
DATA
  6
CONTINUOUS
 62
     7
 10
-73.346719341416488
 20
-197.8000000000248
 30
0.0
 11
-69.846719341416474
 21
-197.8000000000248
 31
0.0
  0
LINE
  5
2AF
  8
DATA
  6
CONTINUOUS
 62
     7
 10
-73.796719341416448
 20
-195.3000000000248
 30
0.0
 11
-69.396719341416485
 21
-195.3000000000248
 31
0.0
  0
ARC
  5
2B0
  8
DATA
  6
CONTINUOUS
 62
     7
 10
-53.900000000007829
 20
-192.90000000002479
 30
0.0
 40
1.5
 50
0.0
 51
180.0
  0
ARC
  5
2B1
  8
DATA
  6
CONTINUOUS
 62
     7
 10
-53.900000000007829
 20
-217.7000000000248
 30
0.0
 40
1.5
 50
180.0
 51
0.0
  0
LINE
  5
2B2
  8
DATA
  6
CONTINUOUS
 62
     7
 10
-55.400000000007843
 20
-192.90000000002479
 30
0.0
 11
-55.400000000007843
 21
-217.7000000000248
 31
0.0
  0
LINE
  5
2B3
  8
DATA
  6
CONTINUOUS
 62
     7
 10
-52.400000000007829
 20
-217.7000000000248
 30
0.0
 11
-52.400000000007829
 21
-192.90000000002479
 31
0.0
  0
LINE
  5
2B4
  8
DATA
  6
CONTINUOUS
 62
     7
 10
-54.70000000000784
 20
-206.10000000002489
 30
0.0
 11
-54.70000000000784
 21
-204.5000000000249
 31
0.0
  0
LINE
  5
2B5
  8
DATA
  6
CONTINUOUS
 62
     7
 10
-53.100000000007888
 20
-206.10000000002489
 30
0.0
 11
-54.70000000000784
 21
-206.10000000002489
 31
0.0
  0
LINE
  5
2B6
  8
DATA
  6
CONTINUOUS
 62
     7
 10
-53.100000000007888
 20
-204.5000000000249
 30
0.0
 11
-53.100000000007888
 21
-206.10000000002489
 31
0.0
  0
LINE
  5
2B7
  8
DATA
  6
CONTINUOUS
 62
     7
 10
-54.70000000000784
 20
-204.5000000000249
 30
0.0
 11
-53.100000000007888
 21
-204.5000000000249
 31
0.0
  0
LINE
  5
2B8
  8
DATA
  6
CONTINUOUS
 62
     7
 10
-54.70000000000784
 20
-204.5000000000249
 30
0.0
 11
-54.900000000007829
 21
-204.50099397632471
 31
0.0
  0
LINE
  5
2B9
  8
DATA
  6
CONTINUOUS
 62
     7
 10
-54.70000000000784
 20
-206.10000000002489
 30
0.0
 11
-54.900000000007829
 21
-206.10000000002489
 31
0.0
  0
LINE
  5
2BA
  8
DATA
  6
CONTINUOUS
 62
     7
 10
-53.100000000007888
 20
-206.10000000002489
 30
0.0
 11
-52.900000000007843
 21
-206.10000000002489
 31
0.0
  0
LINE
  5
2BB
  8
DATA
  6
CONTINUOUS
 62
     7
 10
-54.900000000007829
 20
-202.72500000002489
 30
0.0
 11
-52.896719341416443
 21
-202.72500000002489
 31
0.0
  0
LINE
  5
2BC
  8
DATA
  6
CONTINUOUS
 62
     7
 10
-54.900000000007829
 20
-207.8750000000249
 30
0.0
 11
-52.936719341416463
 21
-207.8750000000249
 31
0.0
  0
LINE
  5
2BD
  8
DATA
  6
CONTINUOUS
 62
     7
 10
-54.900000000007829
 20
-202.72500000002489
 30
0.0
 11
-54.891173738408853
 21
-204.50095011085051
 31
0.0
  0
LINE
  5
2BE
  8
DATA
  6
CONTINUOUS
 62
     7
 10
-54.900000000007829
 20
-206.10000000002489
 30
0.0
 11
-54.900000000007829
 21
-207.8750000000249
 31
0.0
  0
LINE
  5
2BF
  8
DATA
  6
CONTINUOUS
 62
     7
 10
-52.936719341416463
 20
-207.8750000000249
 30
0.0
 11
-52.936719341416463
 21
-206.1009939763247
 31
0.0
  0
LINE
  5
2C0
  8
DATA
  6
CONTINUOUS
 62
     7
 10
-53.100000000007888
 20
-204.5000000000249
 30
0.0
 11
-52.896719341416443
 21
-204.5000000000249
 31
0.0
  0
LINE
  5
2C1
  8
DATA
  6
CONTINUOUS
 62
     7
 10
-52.896719341416443
 20
-204.5000000000249
 30
0.0
 11
-52.896719341416443
 21
-202.72500000002489
 31
0.0
  0
LINE
  5
2C2
  8
DATA
  6
CONTINUOUS
 62
     7
 10
-60.946719341416511
 20
-207.8000000000248
 30
0.0
 11
-58.6467193414165
 21
-207.8000000000248
 31
0.0
  0
LINE
  5
2C3
  8
DATA
  6
CONTINUOUS
 62
     7
 10
-62.896719341416443
 20
-205.3000000000248
 30
0.0
 11
-56.696719341416447
 21
-205.3000000000248
 31
0.0
  0
LINE
  5
2C4
  8
DATA
  6
CONTINUOUS
 62
     7
 10
-61.196719341416511
 20
-210.3000000000248
 30
0.0
 11
-58.3967193414165
 21
-210.3000000000248
 31
0.0
  0
LINE
  5
2C5
  8
DATA
  6
CONTINUOUS
 62
     7
 10
-61.546719341416477
 20
-212.8000000000248
 30
0.0
 11
-58.046719341416477
 21
-212.8000000000248
 31
0.0
  0
LINE
  5
2C6
  8
DATA
  6
CONTINUOUS
 62
     7
 10
-61.996719341416473
 20
-215.3000000000248
 30
0.0
 11
-57.596719341416502
 21
-215.3000000000248
 31
0.0
  0
LINE
  5
2C7
  8
DATA
  6
CONTINUOUS
 62
     7
 10
-60.946719341416511
 20
-202.8000000000248
 30
0.0
 11
-58.6467193414165
 21
-202.8000000000248
 31
0.0
  0
LINE
  5
2C8
  8
DATA
  6
CONTINUOUS
 62
     7
 10
-61.196719341416511
 20
-200.3000000000248
 30
0.0
 11
-58.3967193414165
 21
-200.3000000000248
 31
0.0
  0
LINE
  5
2C9
  8
DATA
  6
CONTINUOUS
 62
     7
 10
-61.546719341416477
 20
-197.8000000000248
 30
0.0
 11
-58.046719341416477
 21
-197.8000000000248
 31
0.0
  0
LINE
  5
2CA
  8
DATA
  6
CONTINUOUS
 62
     7
 10
-61.996719341416473
 20
-195.3000000000248
 30
0.0
 11
-57.596719341416502
 21
-195.3000000000248
 31
0.0
  0
ARC
  5
2CB
  8
DATA
  6
CONTINUOUS
 62
     7
 10
-42.100000000007881
 20
-192.90000000002479
 30
0.0
 40
1.5
 50
0.0
 51
180.0
  0
ARC
  5
2CC
  8
DATA
  6
CONTINUOUS
 62
     7
 10
-42.100000000007881
 20
-217.7000000000248
 30
0.0
 40
1.5
 50
180.0
 51
0.0
  0
LINE
  5
2CD
  8
DATA
  6
CONTINUOUS
 62
     7
 10
-43.600000000007888
 20
-192.90000000002479
 30
0.0
 11
-43.600000000007888
 21
-217.7000000000248
 31
0.0
  0
LINE
  5
2CE
  8
DATA
  6
CONTINUOUS
 62
     7
 10
-40.600000000007881
 20
-217.7000000000248
 30
0.0
 11
-40.600000000007881
 21
-192.90000000002479
 31
0.0
  0
LINE
  5
2CF
  8
DATA
  6
CONTINUOUS
 62
     7
 10
-42.900000000007893
 20
-206.10000000002489
 30
0.0
 11
-42.900000000007893
 21
-204.5000000000249
 31
0.0
  0
LINE
  5
2D0
  8
DATA
  6
CONTINUOUS
 62
     7
 10
-41.300000000007927
 20
-206.10000000002489
 30
0.0
 11
-42.900000000007893
 21
-206.10000000002489
 31
0.0
  0
LINE
  5
2D1
  8
DATA
  6
CONTINUOUS
 62
     7
 10
-41.300000000007927
 20
-204.5000000000249
 30
0.0
 11
-41.300000000007927
 21
-206.10000000002489
 31
0.0
  0
LINE
  5
2D2
  8
DATA
  6
CONTINUOUS
 62
     7
 10
-42.900000000007893
 20
-204.5000000000249
 30
0.0
 11
-41.300000000007927
 21
-204.5000000000249
 31
0.0
  0
LINE
  5
2D3
  8
DATA
  6
CONTINUOUS
 62
     7
 10
-42.900000000007893
 20
-204.5000000000249
 30
0.0
 11
-43.100000000007888
 21
-204.50099397632471
 31
0.0
  0
LINE
  5
2D4
  8
DATA
  6
CONTINUOUS
 62
     7
 10
-42.900000000007893
 20
-206.10000000002489
 30
0.0
 11
-43.100000000007888
 21
-206.10000000002489
 31
0.0
  0
LINE
  5
2D5
  8
DATA
  6
CONTINUOUS
 62
     7
 10
-41.300000000007927
 20
-206.10000000002489
 30
0.0
 11
-41.100000000007881
 21
-206.10000000002489
 31
0.0
  0
LINE
  5
2D6
  8
DATA
  6
CONTINUOUS
 62
     7
 10
-43.100000000007888
 20
-202.72500000002489
 30
0.0
 11
-41.096719341416488
 21
-202.72500000002489
 31
0.0
  0
LINE
  5
2D7
  8
DATA
  6
CONTINUOUS
 62
     7
 10
-43.100000000007888
 20
-207.8750000000249
 30
0.0
 11
-41.136719341416509
 21
-207.8750000000249
 31
0.0
  0
LINE
  5
2D8
  8
DATA
  6
CONTINUOUS
 62
     7
 10
-43.100000000007888
 20
-202.72500000002489
 30
0.0
 11
-43.091173738408898
 21
-204.50095011085051
 31
0.0
  0
LINE
  5
2D9
  8
DATA
  6
CONTINUOUS
 62
     7
 10
-43.100000000007888
 20
-206.10000000002489
 30
0.0
 11
-43.100000000007888
 21
-207.8750000000249
 31
0.0
  0
LINE
  5
2DA
  8
DATA
  6
CONTINUOUS
 62
     7
 10
-41.136719341416509
 20
-207.8750000000249
 30
0.0
 11
-41.136719341416509
 21
-206.1009939763247
 31
0.0
  0
LINE
  5
2DB
  8
DATA
  6
CONTINUOUS
 62
     7
 10
-41.300000000007927
 20
-204.5000000000249
 30
0.0
 11
-41.096719341416488
 21
-204.5000000000249
 31
0.0
  0
LINE
  5
2DC
  8
DATA
  6
CONTINUOUS
 62
     7
 10
-41.096719341416488
 20
-204.5000000000249
 30
0.0
 11
-41.096719341416488
 21
-202.72500000002489
 31
0.0
  0
LINE
  5
2DD
  8
DATA
  6
CONTINUOUS
 62
     7
 10
-49.146719341416542
 20
-207.8000000000248
 30
0.0
 11
-46.846719341416552
 21
-207.8000000000248
 31
0.0
  0
LINE
  5
2DE
  8
DATA
  6
CONTINUOUS
 62
     7
 10
-51.096719341416488
 20
-205.3000000000248
 30
0.0
 11
-44.896719341416492
 21
-205.3000000000248
 31
0.0
  0
LINE
  5
2DF
  8
DATA
  6
CONTINUOUS
 62
     7
 10
-49.396719341416564
 20
-210.3000000000248
 30
0.0
 11
-46.596719341416552
 21
-210.3000000000248
 31
0.0
  0
LINE
  5
2E0
  8
DATA
  6
CONTINUOUS
 62
     7
 10
-49.746719341416522
 20
-212.8000000000248
 30
0.0
 11
-46.246719341416522
 21
-212.8000000000248
 31
0.0
  0
LINE
  5
2E1
  8
DATA
  6
CONTINUOUS
 62
     7
 10
-50.196719341416511
 20
-215.3000000000248
 30
0.0
 11
-45.796719341416527
 21
-215.3000000000248
 31
0.0
  0
LINE
  5
2E2
  8
DATA
  6
CONTINUOUS
 62
     7
 10
-49.146719341416542
 20
-202.8000000000248
 30
0.0
 11
-46.846719341416552
 21
-202.8000000000248
 31
0.0
  0
LINE
  5
2E3
  8
DATA
  6
CONTINUOUS
 62
     7
 10
-49.396719341416564
 20
-200.3000000000248
 30
0.0
 11
-46.596719341416552
 21
-200.3000000000248
 31
0.0
  0
LINE
  5
2E4
  8
DATA
  6
CONTINUOUS
 62
     7
 10
-49.746719341416522
 20
-197.8000000000248
 30
0.0
 11
-46.246719341416522
 21
-197.8000000000248
 31
0.0
  0
LINE
  5
2E5
  8
DATA
  6
CONTINUOUS
 62
     7
 10
-50.196719341416511
 20
-195.3000000000248
 30
0.0
 11
-45.796719341416527
 21
-195.3000000000248
 31
0.0
  0
ARC
  5
2E6
  8
DATA
  6
CONTINUOUS
 62
     7
 10
-30.300000000007881
 20
-192.90000000002479
 30
0.0
 40
1.5
 50
0.0
 51
180.0
  0
ARC
  5
2E7
  8
DATA
  6
CONTINUOUS
 62
     7
 10
-30.300000000007881
 20
-217.7000000000248
 30
0.0
 40
1.5
 50
180.0
 51
0.0
  0
LINE
  5
2E8
  8
DATA
  6
CONTINUOUS
 62
     7
 10
-31.80000000000787
 20
-192.90000000002479
 30
0.0
 11
-31.80000000000787
 21
-217.7000000000248
 31
0.0
  0
LINE
  5
2E9
  8
DATA
  6
CONTINUOUS
 62
     7
 10
-28.800000000007881
 20
-217.7000000000248
 30
0.0
 11
-28.800000000007881
 21
-192.90000000002479
 31
0.0
  0
LINE
  5
2EA
  8
DATA
  6
CONTINUOUS
 62
     7
 10
-31.100000000007881
 20
-206.10000000002489
 30
0.0
 11
-31.100000000007881
 21
-204.5000000000249
 31
0.0
  0
LINE
  5
2EB
  8
DATA
  6
CONTINUOUS
 62
     7
 10
-29.500000000007908
 20
-206.10000000002489
 30
0.0
 11
-31.100000000007881
 21
-206.10000000002489
 31
0.0
  0
LINE
  5
2EC
  8
DATA
  6
CONTINUOUS
 62
     7
 10
-29.500000000007908
 20
-204.5000000000249
 30
0.0
 11
-29.500000000007908
 21
-206.10000000002489
 31
0.0
  0
LINE
  5
2ED
  8
DATA
  6
CONTINUOUS
 62
     7
 10
-31.100000000007881
 20
-204.5000000000249
 30
0.0
 11
-29.500000000007908
 21
-204.5000000000249
 31
0.0
  0
LINE
  5
2EE
  8
DATA
  6
CONTINUOUS
 62
     7
 10
-31.100000000007881
 20
-204.5000000000249
 30
0.0
 11
-31.300000000007881
 21
-204.50099397632471
 31
0.0
  0
LINE
  5
2EF
  8
DATA
  6
CONTINUOUS
 62
     7
 10
-31.100000000007881
 20
-206.10000000002489
 30
0.0
 11
-31.300000000007881
 21
-206.10000000002489
 31
0.0
  0
LINE
  5
2F0
  8
DATA
  6
CONTINUOUS
 62
     7
 10
-29.500000000007908
 20
-206.10000000002489
 30
0.0
 11
-29.300000000007881
 21
-206.10000000002489
 31
0.0
  0
LINE
  5
2F1
  8
DATA
  6
CONTINUOUS
 62
     7
 10
-31.300000000007881
 20
-202.72500000002489
 30
0.0
 11
-29.29671934141648
 21
-202.72500000002489
 31
0.0
  0
LINE
  5
2F2
  8
DATA
  6
CONTINUOUS
 62
     7
 10
-31.300000000007881
 20
-207.8750000000249
 30
0.0
 11
-29.336719341416501
 21
-207.8750000000249
 31
0.0
  0
LINE
  5
2F3
  8
DATA
  6
CONTINUOUS
 62
     7
 10
-31.300000000007881
 20
-202.72500000002489
 30
0.0
 11
-31.29117373840889
 21
-204.50095011085051
 31
0.0
  0
LINE
  5
2F4
  8
DATA
  6
CONTINUOUS
 62
     7
 10
-31.300000000007881
 20
-206.10000000002489
 30
0.0
 11
-31.300000000007881
 21
-207.8750000000249
 31
0.0
  0
LINE
  5
2F5
  8
DATA
  6
CONTINUOUS
 62
     7
 10
-29.336719341416501
 20
-207.8750000000249
 30
0.0
 11
-29.336719341416501
 21
-206.1009939763247
 31
0.0
  0
LINE
  5
2F6
  8
DATA
  6
CONTINUOUS
 62
     7
 10
-29.500000000007908
 20
-204.5000000000249
 30
0.0
 11
-29.29671934141648
 21
-204.5000000000249
 31
0.0
  0
LINE
  5
2F7
  8
DATA
  6
CONTINUOUS
 62
     7
 10
-29.29671934141648
 20
-204.5000000000249
 30
0.0
 11
-29.29671934141648
 21
-202.72500000002489
 31
0.0
  0
LINE
  5
2F8
  8
DATA
  6
CONTINUOUS
 62
     7
 10
-37.346719341416552
 20
-207.8000000000248
 30
0.0
 11
-35.046719341416527
 21
-207.8000000000248
 31
0.0
  0
LINE
  5
2F9
  8
DATA
  6
CONTINUOUS
 62
     7
 10
-39.296719341416477
 20
-205.3000000000248
 30
0.0
 11
-33.096719341416488
 21
-205.3000000000248
 31
0.0
  0
LINE
  5
2FA
  8
DATA
  6
CONTINUOUS
 62
     7
 10
-37.596719341416552
 20
-210.3000000000248
 30
0.0
 11
-34.796719341416527
 21
-210.3000000000248
 31
0.0
  0
LINE
  5
2FB
  8
DATA
  6
CONTINUOUS
 62
     7
 10
-37.94671934141649
 20
-212.8000000000248
 30
0.0
 11
-34.446719341416511
 21
-212.8000000000248
 31
0.0
  0
LINE
  5
2FC
  8
DATA
  6
CONTINUOUS
 62
     7
 10
-38.3967193414165
 20
-215.3000000000248
 30
0.0
 11
-33.996719341416529
 21
-215.3000000000248
 31
0.0
  0
LINE
  5
2FD
  8
DATA
  6
CONTINUOUS
 62
     7
 10
-37.346719341416552
 20
-202.8000000000248
 30
0.0
 11
-35.046719341416527
 21
-202.8000000000248
 31
0.0
  0
LINE
  5
2FE
  8
DATA
  6
CONTINUOUS
 62
     7
 10
-37.596719341416552
 20
-200.3000000000248
 30
0.0
 11
-34.796719341416527
 21
-200.3000000000248
 31
0.0
  0
LINE
  5
2FF
  8
DATA
  6
CONTINUOUS
 62
     7
 10
-37.94671934141649
 20
-197.8000000000248
 30
0.0
 11
-34.446719341416511
 21
-197.8000000000248
 31
0.0
  0
LINE
  5
300
  8
DATA
  6
CONTINUOUS
 62
     7
 10
-38.3967193414165
 20
-195.3000000000248
 30
0.0
 11
-33.996719341416529
 21
-195.3000000000248
 31
0.0
  0
ARC
  5
301
  8
DATA
  6
CONTINUOUS
 62
     7
 10
-18.500000000007841
 20
-192.90000000002479
 30
0.0
 40
1.5
 50
0.0
 51
180.0
  0
ARC
  5
302
  8
DATA
  6
CONTINUOUS
 62
     7
 10
-18.500000000007841
 20
-217.7000000000248
 30
0.0
 40
1.5
 50
180.0
 51
0.0
  0
LINE
  5
303
  8
DATA
  6
CONTINUOUS
 62
     7
 10
-20.000000000007859
 20
-192.90000000002479
 30
0.0
 11
-20.000000000007859
 21
-217.7000000000248
 31
0.0
  0
LINE
  5
304
  8
DATA
  6
CONTINUOUS
 62
     7
 10
-17.000000000007859
 20
-217.7000000000248
 30
0.0
 11
-17.000000000007859
 21
-192.90000000002479
 31
0.0
  0
LINE
  5
305
  8
DATA
  6
CONTINUOUS
 62
     7
 10
-19.30000000000787
 20
-206.10000000002489
 30
0.0
 11
-19.30000000000787
 21
-204.5000000000249
 31
0.0
  0
LINE
  5
306
  8
DATA
  6
CONTINUOUS
 62
     7
 10
-17.700000000007911
 20
-206.10000000002489
 30
0.0
 11
-19.30000000000787
 21
-206.10000000002489
 31
0.0
  0
LINE
  5
307
  8
DATA
  6
CONTINUOUS
 62
     7
 10
-17.700000000007911
 20
-204.5000000000249
 30
0.0
 11
-17.700000000007911
 21
-206.10000000002489
 31
0.0
  0
LINE
  5
308
  8
DATA
  6
CONTINUOUS
 62
     7
 10
-19.30000000000787
 20
-204.5000000000249
 30
0.0
 11
-17.700000000007911
 21
-204.5000000000249
 31
0.0
  0
LINE
  5
309
  8
DATA
  6
CONTINUOUS
 62
     7
 10
-19.30000000000787
 20
-204.5000000000249
 30
0.0
 11
-19.500000000007851
 21
-204.50099397632471
 31
0.0
  0
LINE
  5
30A
  8
DATA
  6
CONTINUOUS
 62
     7
 10
-19.30000000000787
 20
-206.10000000002489
 30
0.0
 11
-19.500000000007851
 21
-206.10000000002489
 31
0.0
  0
LINE
  5
30B
  8
DATA
  6
CONTINUOUS
 62
     7
 10
-17.700000000007911
 20
-206.10000000002489
 30
0.0
 11
-17.500000000007859
 21
-206.10000000002489
 31
0.0
  0
LINE
  5
30C
  8
DATA
  6
CONTINUOUS
 62
     7
 10
-19.500000000007851
 20
-202.72500000002489
 30
0.0
 11
-17.496719341416458
 21
-202.72500000002489
 31
0.0
  0
LINE
  5
30D
  8
DATA
  6
CONTINUOUS
 62
     7
 10
-19.500000000007851
 20
-207.8750000000249
 30
0.0
 11
-17.536719341416479
 21
-207.8750000000249
 31
0.0
  0
LINE
  5
30E
  8
DATA
  6
CONTINUOUS
 62
     7
 10
-19.500000000007851
 20
-202.72500000002489
 30
0.0
 11
-19.491173738408872
 21
-204.50095011085051
 31
0.0
  0
LINE
  5
30F
  8
DATA
  6
CONTINUOUS
 62
     7
 10
-19.500000000007851
 20
-206.10000000002489
 30
0.0
 11
-19.500000000007851
 21
-207.8750000000249
 31
0.0
  0
LINE
  5
310
  8
DATA
  6
CONTINUOUS
 62
     7
 10
-17.536719341416479
 20
-207.8750000000249
 30
0.0
 11
-17.536719341416479
 21
-206.1009939763247
 31
0.0
  0
LINE
  5
311
  8
DATA
  6
CONTINUOUS
 62
     7
 10
-17.700000000007911
 20
-204.5000000000249
 30
0.0
 11
-17.496719341416458
 21
-204.5000000000249
 31
0.0
  0
LINE
  5
312
  8
DATA
  6
CONTINUOUS
 62
     7
 10
-17.496719341416458
 20
-204.5000000000249
 30
0.0
 11
-17.496719341416458
 21
-202.72500000002489
 31
0.0
  0
LINE
  5
313
  8
DATA
  6
CONTINUOUS
 62
     7
 10
-25.54671934141653
 20
-207.8000000000248
 30
0.0
 11
-23.246719341416519
 21
-207.8000000000248
 31
0.0
  0
LINE
  5
314
  8
DATA
  6
CONTINUOUS
 62
     7
 10
-27.496719341416469
 20
-205.3000000000248
 30
0.0
 11
-21.29671934141648
 21
-205.3000000000248
 31
0.0
  0
LINE
  5
315
  8
DATA
  6
CONTINUOUS
 62
     7
 10
-25.79671934141653
 20
-210.3000000000248
 30
0.0
 11
-22.996719341416519
 21
-210.3000000000248
 31
0.0
  0
LINE
  5
316
  8
DATA
  6
CONTINUOUS
 62
     7
 10
-26.14671934141651
 20
-212.8000000000248
 30
0.0
 11
-22.64671934141651
 21
-212.8000000000248
 31
0.0
  0
LINE
  5
317
  8
DATA
  6
CONTINUOUS
 62
     7
 10
-26.596719341416492
 20
-215.3000000000248
 30
0.0
 11
-22.196719341416511
 21
-215.3000000000248
 31
0.0
  0
LINE
  5
318
  8
DATA
  6
CONTINUOUS
 62
     7
 10
-25.54671934141653
 20
-202.8000000000248
 30
0.0
 11
-23.246719341416519
 21
-202.8000000000248
 31
0.0
  0
LINE
  5
319
  8
DATA
  6
CONTINUOUS
 62
     7
 10
-25.79671934141653
 20
-200.3000000000248
 30
0.0
 11
-22.996719341416519
 21
-200.3000000000248
 31
0.0
  0
LINE
  5
31A
  8
DATA
  6
CONTINUOUS
 62
     7
 10
-26.14671934141651
 20
-197.8000000000248
 30
0.0
 11
-22.64671934141651
 21
-197.8000000000248
 31
0.0
  0
LINE
  5
31B
  8
DATA
  6
CONTINUOUS
 62
     7
 10
-26.596719341416492
 20
-195.3000000000248
 30
0.0
 11
-22.196719341416511
 21
-195.3000000000248
 31
0.0
  0
ARC
  5
31C
  8
DATA
  6
CONTINUOUS
 62
     7
 10
-6.7000000000078472
 20
-192.90000000002479
 30
0.0
 40
1.5
 50
0.0
 51
180.0
  0
ARC
  5
31D
  8
DATA
  6
CONTINUOUS
 62
     7
 10
-6.7000000000078472
 20
-217.7000000000248
 30
0.0
 40
1.5
 50
180.0
 51
0.0
  0
LINE
  5
31E
  8
DATA
  6
CONTINUOUS
 62
     7
 10
-8.2000000000078472
 20
-192.90000000002479
 30
0.0
 11
-8.2000000000078472
 21
-217.7000000000248
 31
0.0
  0
LINE
  5
31F
  8
DATA
  6
CONTINUOUS
 62
     7
 10
-5.2000000000078472
 20
-217.7000000000248
 30
0.0
 11
-5.2000000000078472
 21
-192.90000000002479
 31
0.0
  0
LINE
  5
320
  8
DATA
  6
CONTINUOUS
 62
     7
 10
-7.500000000007855
 20
-206.10000000002489
 30
0.0
 11
-7.500000000007855
 21
-204.5000000000249
 31
0.0
  0
LINE
  5
321
  8
DATA
  6
CONTINUOUS
 62
     7
 10
-5.9000000000078909
 20
-206.10000000002489
 30
0.0
 11
-7.500000000007855
 21
-206.10000000002489
 31
0.0
  0
LINE
  5
322
  8
DATA
  6
CONTINUOUS
 62
     7
 10
-5.9000000000078909
 20
-204.5000000000249
 30
0.0
 11
-5.9000000000078909
 21
-206.10000000002489
 31
0.0
  0
LINE
  5
323
  8
DATA
  6
CONTINUOUS
 62
     7
 10
-7.500000000007855
 20
-204.5000000000249
 30
0.0
 11
-5.9000000000078909
 21
-204.5000000000249
 31
0.0
  0
LINE
  5
324
  8
DATA
  6
CONTINUOUS
 62
     7
 10
-7.500000000007855
 20
-204.5000000000249
 30
0.0
 11
-7.7000000000078463
 21
-204.50099397632471
 31
0.0
  0
LINE
  5
325
  8
DATA
  6
CONTINUOUS
 62
     7
 10
-7.500000000007855
 20
-206.10000000002489
 30
0.0
 11
-7.7000000000078463
 21
-206.10000000002489
 31
0.0
  0
LINE
  5
326
  8
DATA
  6
CONTINUOUS
 62
     7
 10
-5.9000000000078909
 20
-206.10000000002489
 30
0.0
 11
-5.7000000000078472
 21
-206.10000000002489
 31
0.0
  0
LINE
  5
327
  8
DATA
  6
CONTINUOUS
 62
     7
 10
-7.7000000000078463
 20
-202.72500000002489
 30
0.0
 11
-5.6967193414164541
 21
-202.72500000002489
 31
0.0
  0
LINE
  5
328
  8
DATA
  6
CONTINUOUS
 62
     7
 10
-7.7000000000078463
 20
-207.8750000000249
 30
0.0
 11
-5.7367193414164719
 21
-207.8750000000249
 31
0.0
  0
LINE
  5
329
  8
DATA
  6
CONTINUOUS
 62
     7
 10
-7.7000000000078463
 20
-202.72500000002489
 30
0.0
 11
-7.6911737384088621
 21
-204.50095011085051
 31
0.0
  0
LINE
  5
32A
  8
DATA
  6
CONTINUOUS
 62
     7
 10
-7.7000000000078463
 20
-206.10000000002489
 30
0.0
 11
-7.7000000000078463
 21
-207.8750000000249
 31
0.0
  0
LINE
  5
32B
  8
DATA
  6
CONTINUOUS
 62
     7
 10
-5.7367193414164719
 20
-207.8750000000249
 30
0.0
 11
-5.7367193414164719
 21
-206.1009939763247
 31
0.0
  0
LINE
  5
32C
  8
DATA
  6
CONTINUOUS
 62
     7
 10
-5.9000000000078909
 20
-204.5000000000249
 30
0.0
 11
-5.6967193414164541
 21
-204.5000000000249
 31
0.0
  0
LINE
  5
32D
  8
DATA
  6
CONTINUOUS
 62
     7
 10
-5.6967193414164541
 20
-204.5000000000249
 30
0.0
 11
-5.6967193414164541
 21
-202.72500000002489
 31
0.0
  0
LINE
  5
32E
  8
DATA
  6
CONTINUOUS
 62
     7
 10
-13.746719341416521
 20
-207.8000000000248
 30
0.0
 11
-11.4467193414165
 21
-207.8000000000248
 31
0.0
  0
LINE
  5
32F
  8
DATA
  6
CONTINUOUS
 62
     7
 10
-15.696719341416451
 20
-205.3000000000248
 30
0.0
 11
-9.4967193414164601
 21
-205.3000000000248
 31
0.0
  0
LINE
  5
330
  8
DATA
  6
CONTINUOUS
 62
     7
 10
-13.996719341416521
 20
-210.3000000000248
 30
0.0
 11
-11.196719341416509
 21
-210.3000000000248
 31
0.0
  0
LINE
  5
331
  8
DATA
  6
CONTINUOUS
 62
     7
 10
-14.34671934141649
 20
-212.8000000000248
 30
0.0
 11
-10.84671934141649
 21
-212.8000000000248
 31
0.0
  0
LINE
  5
332
  8
DATA
  6
CONTINUOUS
 62
     7
 10
-14.79671934141647
 20
-215.3000000000248
 30
0.0
 11
-10.3967193414165
 21
-215.3000000000248
 31
0.0
  0
LINE
  5
333
  8
DATA
  6
CONTINUOUS
 62
     7
 10
-13.746719341416521
 20
-202.8000000000248
 30
0.0
 11
-11.4467193414165
 21
-202.8000000000248
 31
0.0
  0
LINE
  5
334
  8
DATA
  6
CONTINUOUS
 62
     7
 10
-13.996719341416521
 20
-200.3000000000248
 30
0.0
 11
-11.196719341416509
 21
-200.3000000000248
 31
0.0
  0
LINE
  5
335
  8
DATA
  6
CONTINUOUS
 62
     7
 10
-14.34671934141649
 20
-197.8000000000248
 30
0.0
 11
-10.84671934141649
 21
-197.8000000000248
 31
0.0
  0
LINE
  5
336
  8
DATA
  6
CONTINUOUS
 62
     7
 10
-14.79671934141647
 20
-195.3000000000248
 30
0.0
 11
-10.3967193414165
 21
-195.3000000000248
 31
0.0
  0
ARC
  5
337
  8
DATA
  6
CONTINUOUS
 62
     7
 10
5.0999999999921046
 20
-192.90000000002479
 30
0.0
 40
1.5
 50
0.0
 51
180.0
  0
ARC
  5
338
  8
DATA
  6
CONTINUOUS
 62
     7
 10
5.0999999999921046
 20
-217.7000000000248
 30
0.0
 40
1.5
 50
180.0
 51
0.0
  0
LINE
  5
339
  8
DATA
  6
CONTINUOUS
 62
     7
 10
3.599999999992106
 20
-192.90000000002479
 30
0.0
 11
3.599999999992106
 21
-217.7000000000248
 31
0.0
  0
LINE
  5
33A
  8
DATA
  6
CONTINUOUS
 62
     7
 10
6.5999999999921073
 20
-217.7000000000248
 30
0.0
 11
6.5999999999921073
 21
-192.90000000002479
 31
0.0
  0
LINE
  5
33B
  8
DATA
  6
CONTINUOUS
 62
     7
 10
4.299999999992095
 20
-206.10000000002489
 30
0.0
 11
4.299999999992095
 21
-204.5000000000249
 31
0.0
  0
LINE
  5
33C
  8
DATA
  6
CONTINUOUS
 62
     7
 10
5.89999999999206
 20
-206.10000000002489
 30
0.0
 11
4.299999999992095
 21
-206.10000000002489
 31
0.0
  0
LINE
  5
33D
  8
DATA
  6
CONTINUOUS
 62
     7
 10
5.89999999999206
 20
-204.5000000000249
 30
0.0
 11
5.89999999999206
 21
-206.10000000002489
 31
0.0
  0
LINE
  5
33E
  8
DATA
  6
CONTINUOUS
 62
     7
 10
4.299999999992095
 20
-204.5000000000249
 30
0.0
 11
5.89999999999206
 21
-204.5000000000249
 31
0.0
  0
LINE
  5
33F
  8
DATA
  6
CONTINUOUS
 62
     7
 10
4.299999999992095
 20
-204.5000000000249
 30
0.0
 11
4.0999999999921073
 21
-204.50099397632471
 31
0.0
  0
LINE
  5
340
  8
DATA
  6
CONTINUOUS
 62
     7
 10
4.299999999992095
 20
-206.10000000002489
 30
0.0
 11
4.0999999999921073
 21
-206.10000000002489
 31
0.0
  0
LINE
  5
341
  8
DATA
  6
CONTINUOUS
 62
     7
 10
5.89999999999206
 20
-206.10000000002489
 30
0.0
 11
6.0999999999921073
 21
-206.10000000002489
 31
0.0
  0
LINE
  5
342
  8
DATA
  6
CONTINUOUS
 62
     7
 10
4.0999999999921073
 20
-202.72500000002489
 30
0.0
 11
6.1032806585835004
 21
-202.72500000002489
 31
0.0
  0
LINE
  5
343
  8
DATA
  6
CONTINUOUS
 62
     7
 10
4.0999999999921073
 20
-207.8750000000249
 30
0.0
 11
6.0632806585834791
 21
-207.8750000000249
 31
0.0
  0
LINE
  5
344
  8
DATA
  6
CONTINUOUS
 62
     7
 10
4.0999999999921073
 20
-202.72500000002489
 30
0.0
 11
4.108826261591088
 21
-204.50095011085051
 31
0.0
  0
LINE
  5
345
  8
DATA
  6
CONTINUOUS
 62
     7
 10
4.0999999999921073
 20
-206.10000000002489
 30
0.0
 11
4.0999999999921073
 21
-207.8750000000249
 31
0.0
  0
LINE
  5
346
  8
DATA
  6
CONTINUOUS
 62
     7
 10
6.0632806585834791
 20
-207.8750000000249
 30
0.0
 11
6.0632806585834791
 21
-206.1009939763247
 31
0.0
  0
LINE
  5
347
  8
DATA
  6
CONTINUOUS
 62
     7
 10
5.89999999999206
 20
-204.5000000000249
 30
0.0
 11
6.1032806585835004
 21
-204.5000000000249
 31
0.0
  0
LINE
  5
348
  8
DATA
  6
CONTINUOUS
 62
     7
 10
6.1032806585835004
 20
-204.5000000000249
 30
0.0
 11
6.1032806585835004
 21
-202.72500000002489
 31
0.0
  0
LINE
  5
349
  8
DATA
  6
CONTINUOUS
 62
     7
 10
-1.9467193414165651
 20
-207.8000000000248
 30
0.0
 11
0.3532806585834436
 21
-207.8000000000248
 31
0.0
  0
LINE
  5
34A
  8
DATA
  6
CONTINUOUS
 62
     7
 10
-3.8967193414164969
 20
-205.3000000000248
 30
0.0
 11
2.3032806585834882
 21
-205.3000000000248
 31
0.0
  0
LINE
  5
34B
  8
DATA
  6
CONTINUOUS
 62
     7
 10
-2.1967193414165682
 20
-210.3000000000248
 30
0.0
 11
0.6032806585834436
 21
-210.3000000000248
 31
0.0
  0
LINE
  5
34C
  8
DATA
  6
CONTINUOUS
 62
     7
 10
-2.5467193414165319
 20
-212.8000000000248
 30
0.0
 11
0.9532806585834664
 21
-212.8000000000248
 31
0.0
  0
LINE
  5
34D
  8
DATA
  6
CONTINUOUS
 62
     7
 10
-2.996719341416521
 20
-215.3000000000248
 30
0.0
 11
1.403280658583455
 21
-215.3000000000248
 31
0.0
  0
LINE
  5
34E
  8
DATA
  6
CONTINUOUS
 62
     7
 10
-1.9467193414165651
 20
-202.8000000000248
 30
0.0
 11
0.3532806585834436
 21
-202.8000000000248
 31
0.0
  0
LINE
  5
34F
  8
DATA
  6
CONTINUOUS
 62
     7
 10
-2.1967193414165682
 20
-200.3000000000248
 30
0.0
 11
0.6032806585834436
 21
-200.3000000000248
 31
0.0
  0
LINE
  5
350
  8
DATA
  6
CONTINUOUS
 62
     7
 10
-2.5467193414165319
 20
-197.8000000000248
 30
0.0
 11
0.9532806585834664
 21
-197.8000000000248
 31
0.0
  0
LINE
  5
351
  8
DATA
  6
CONTINUOUS
 62
     7
 10
-2.996719341416521
 20
-195.3000000000248
 30
0.0
 11
1.403280658583455
 21
-195.3000000000248
 31
0.0
  0
ARC
  5
352
  8
DATA
  6
CONTINUOUS
 62
     7
 10
16.899999999992119
 20
-192.90000000002479
 30
0.0
 40
1.5
 50
0.0
 51
180.0
  0
ARC
  5
353
  8
DATA
  6
CONTINUOUS
 62
     7
 10
16.899999999992119
 20
-217.7000000000248
 30
0.0
 40
1.5
 50
180.0
 51
0.0
  0
LINE
  5
354
  8
DATA
  6
CONTINUOUS
 62
     7
 10
15.39999999999212
 20
-192.90000000002479
 30
0.0
 11
15.39999999999212
 21
-217.7000000000248
 31
0.0
  0
LINE
  5
355
  8
DATA
  6
CONTINUOUS
 62
     7
 10
18.399999999992119
 20
-217.7000000000248
 30
0.0
 11
18.399999999992119
 21
-192.90000000002479
 31
0.0
  0
LINE
  5
356
  8
DATA
  6
CONTINUOUS
 62
     7
 10
16.0999999999921
 20
-206.10000000002489
 30
0.0
 11
16.0999999999921
 21
-204.5000000000249
 31
0.0
  0
LINE
  5
357
  8
DATA
  6
CONTINUOUS
 62
     7
 10
17.69999999999208
 20
-206.10000000002489
 30
0.0
 11
16.0999999999921
 21
-206.10000000002489
 31
0.0
  0
LINE
  5
358
  8
DATA
  6
CONTINUOUS
 62
     7
 10
17.69999999999208
 20
-204.5000000000249
 30
0.0
 11
17.69999999999208
 21
-206.10000000002489
 31
0.0
  0
LINE
  5
359
  8
DATA
  6
CONTINUOUS
 62
     7
 10
16.0999999999921
 20
-204.5000000000249
 30
0.0
 11
17.69999999999208
 21
-204.5000000000249
 31
0.0
  0
LINE
  5
35A
  8
DATA
  6
CONTINUOUS
 62
     7
 10
16.0999999999921
 20
-204.5000000000249
 30
0.0
 11
15.89999999999212
 21
-204.50099397632471
 31
0.0
  0
LINE
  5
35B
  8
DATA
  6
CONTINUOUS
 62
     7
 10
16.0999999999921
 20
-206.10000000002489
 30
0.0
 11
15.89999999999212
 21
-206.10000000002489
 31
0.0
  0
LINE
  5
35C
  8
DATA
  6
CONTINUOUS
 62
     7
 10
17.69999999999208
 20
-206.10000000002489
 30
0.0
 11
17.899999999992119
 21
-206.10000000002489
 31
0.0
  0
LINE
  5
35D
  8
DATA
  6
CONTINUOUS
 62
     7
 10
15.89999999999212
 20
-202.72500000002489
 30
0.0
 11
17.903280658583508
 21
-202.72500000002489
 31
0.0
  0
LINE
  5
35E
  8
DATA
  6
CONTINUOUS
 62
     7
 10
15.89999999999212
 20
-207.8750000000249
 30
0.0
 11
17.863280658583491
 21
-207.8750000000249
 31
0.0
  0
LINE
  5
35F
  8
DATA
  6
CONTINUOUS
 62
     7
 10
15.89999999999212
 20
-202.72500000002489
 30
0.0
 11
15.9088262615911
 21
-204.50095011085051
 31
0.0
  0
LINE
  5
360
  8
DATA
  6
CONTINUOUS
 62
     7
 10
15.89999999999212
 20
-206.10000000002489
 30
0.0
 11
15.89999999999212
 21
-207.8750000000249
 31
0.0
  0
LINE
  5
361
  8
DATA
  6
CONTINUOUS
 62
     7
 10
17.863280658583491
 20
-207.8750000000249
 30
0.0
 11
17.863280658583491
 21
-206.1009939763247
 31
0.0
  0
LINE
  5
362
  8
DATA
  6
CONTINUOUS
 62
     7
 10
17.69999999999208
 20
-204.5000000000249
 30
0.0
 11
17.903280658583508
 21
-204.5000000000249
 31
0.0
  0
LINE
  5
363
  8
DATA
  6
CONTINUOUS
 62
     7
 10
17.903280658583508
 20
-204.5000000000249
 30
0.0
 11
17.903280658583508
 21
-202.72500000002489
 31
0.0
  0
LINE
  5
364
  8
DATA
  6
CONTINUOUS
 62
     7
 10
9.8532806585834436
 20
-207.8000000000248
 30
0.0
 11
12.15328065858345
 21
-207.8000000000248
 31
0.0
  0
LINE
  5
365
  8
DATA
  6
CONTINUOUS
 62
     7
 10
7.90328065858351
 20
-205.3000000000248
 30
0.0
 11
14.1032806585835
 21
-205.3000000000248
 31
0.0
  0
LINE
  5
366
  8
DATA
  6
CONTINUOUS
 62
     7
 10
9.6032806585834436
 20
-210.3000000000248
 30
0.0
 11
12.40328065858345
 21
-210.3000000000248
 31
0.0
  0
LINE
  5
367
  8
DATA
  6
CONTINUOUS
 62
     7
 10
9.2532806585834741
 20
-212.8000000000248
 30
0.0
 11
12.753280658583471
 21
-212.8000000000248
 31
0.0
  0
LINE
  5
368
  8
DATA
  6
CONTINUOUS
 62
     7
 10
8.8032806585834891
 20
-215.3000000000248
 30
0.0
 11
13.203280658583459
 21
-215.3000000000248
 31
0.0
  0
LINE
  5
369
  8
DATA
  6
CONTINUOUS
 62
     7
 10
9.8532806585834436
 20
-202.8000000000248
 30
0.0
 11
12.15328065858345
 21
-202.8000000000248
 31
0.0
  0
LINE
  5
36A
  8
DATA
  6
CONTINUOUS
 62
     7
 10
9.6032806585834436
 20
-200.3000000000248
 30
0.0
 11
12.40328065858345
 21
-200.3000000000248
 31
0.0
  0
LINE
  5
36B
  8
DATA
  6
CONTINUOUS
 62
     7
 10
9.2532806585834741
 20
-197.8000000000248
 30
0.0
 11
12.753280658583471
 21
-197.8000000000248
 31
0.0
  0
LINE
  5
36C
  8
DATA
  6
CONTINUOUS
 62
     7
 10
8.8032806585834891
 20
-195.3000000000248
 30
0.0
 11
13.203280658583459
 21
-195.3000000000248
 31
0.0
  0
TEXT
  5
36D
  8
DATA
 62
     7
 10
15.29658915048109
 20
-190.32099008205901
 30
0.0
 40
1.764577907986109
  1
400
 41
0.7
 11
15.29658915048109
 21
-188.5564121740729
 31
0.0
 73
     3
  0
ARC
  5
36E
  8
DATA
  6
CONTINUOUS
 62
     7
 10
28.69999999999213
 20
-192.90000000002479
 30
0.0
 40
1.5
 50
0.0
 51
180.0
  0
ARC
  5
36F
  8
DATA
  6
CONTINUOUS
 62
     7
 10
28.69999999999213
 20
-217.7000000000248
 30
0.0
 40
1.5
 50
180.0
 51
0.0
  0
LINE
  5
370
  8
DATA
  6
CONTINUOUS
 62
     7
 10
27.19999999999213
 20
-192.90000000002479
 30
0.0
 11
27.19999999999213
 21
-217.7000000000248
 31
0.0
  0
LINE
  5
371
  8
DATA
  6
CONTINUOUS
 62
     7
 10
30.19999999999213
 20
-217.7000000000248
 30
0.0
 11
30.19999999999213
 21
-192.90000000002479
 31
0.0
  0
LINE
  5
372
  8
DATA
  6
CONTINUOUS
 62
     7
 10
27.899999999992119
 20
-206.10000000002489
 30
0.0
 11
27.899999999992119
 21
-204.5000000000249
 31
0.0
  0
LINE
  5
373
  8
DATA
  6
CONTINUOUS
 62
     7
 10
29.499999999992092
 20
-206.10000000002489
 30
0.0
 11
27.899999999992119
 21
-206.10000000002489
 31
0.0
  0
LINE
  5
374
  8
DATA
  6
CONTINUOUS
 62
     7
 10
29.499999999992092
 20
-204.5000000000249
 30
0.0
 11
29.499999999992092
 21
-206.10000000002489
 31
0.0
  0
LINE
  5
375
  8
DATA
  6
CONTINUOUS
 62
     7
 10
27.899999999992119
 20
-204.5000000000249
 30
0.0
 11
29.499999999992092
 21
-204.5000000000249
 31
0.0
  0
LINE
  5
376
  8
DATA
  6
CONTINUOUS
 62
     7
 10
27.899999999992119
 20
-204.5000000000249
 30
0.0
 11
27.69999999999213
 21
-204.50099397632471
 31
0.0
  0
LINE
  5
377
  8
DATA
  6
CONTINUOUS
 62
     7
 10
27.899999999992119
 20
-206.10000000002489
 30
0.0
 11
27.69999999999213
 21
-206.10000000002489
 31
0.0
  0
LINE
  5
378
  8
DATA
  6
CONTINUOUS
 62
     7
 10
29.499999999992092
 20
-206.10000000002489
 30
0.0
 11
29.69999999999213
 21
-206.10000000002489
 31
0.0
  0
LINE
  5
379
  8
DATA
  6
CONTINUOUS
 62
     7
 10
27.69999999999213
 20
-202.72500000002489
 30
0.0
 11
29.70328065858352
 21
-202.72500000002489
 31
0.0
  0
LINE
  5
37A
  8
DATA
  6
CONTINUOUS
 62
     7
 10
27.69999999999213
 20
-207.8750000000249
 30
0.0
 11
29.663280658583499
 21
-207.8750000000249
 31
0.0
  0
LINE
  5
37B
  8
DATA
  6
CONTINUOUS
 62
     7
 10
27.69999999999213
 20
-202.72500000002489
 30
0.0
 11
27.70882626159111
 21
-204.50095011085051
 31
0.0
  0
LINE
  5
37C
  8
DATA
  6
CONTINUOUS
 62
     7
 10
27.69999999999213
 20
-206.10000000002489
 30
0.0
 11
27.69999999999213
 21
-207.8750000000249
 31
0.0
  0
LINE
  5
37D
  8
DATA
  6
CONTINUOUS
 62
     7
 10
29.663280658583499
 20
-207.8750000000249
 30
0.0
 11
29.663280658583499
 21
-206.1009939763247
 31
0.0
  0
LINE
  5
37E
  8
DATA
  6
CONTINUOUS
 62
     7
 10
29.499999999992092
 20
-204.5000000000249
 30
0.0
 11
29.70328065858352
 21
-204.5000000000249
 31
0.0
  0
LINE
  5
37F
  8
DATA
  6
CONTINUOUS
 62
     7
 10
29.70328065858352
 20
-204.5000000000249
 30
0.0
 11
29.70328065858352
 21
-202.72500000002489
 31
0.0
  0
LINE
  5
380
  8
DATA
  6
CONTINUOUS
 62
     7
 10
21.653280658583459
 20
-207.8000000000248
 30
0.0
 11
23.95328065858347
 21
-207.8000000000248
 31
0.0
  0
LINE
  5
381
  8
DATA
  6
CONTINUOUS
 62
     7
 10
19.70328065858352
 20
-205.3000000000248
 30
0.0
 11
25.903280658583508
 21
-205.3000000000248
 31
0.0
  0
LINE
  5
382
  8
DATA
  6
CONTINUOUS
 62
     7
 10
21.403280658583451
 20
-210.3000000000248
 30
0.0
 11
24.20328065858347
 21
-210.3000000000248
 31
0.0
  0
LINE
  5
383
  8
DATA
  6
CONTINUOUS
 62
     7
 10
21.053280658583489
 20
-212.8000000000248
 30
0.0
 11
24.553280658583489
 21
-212.8000000000248
 31
0.0
  0
LINE
  5
384
  8
DATA
  6
CONTINUOUS
 62
     7
 10
20.6032806585835
 20
-215.3000000000248
 30
0.0
 11
25.003280658583481
 21
-215.3000000000248
 31
0.0
  0
LINE
  5
385
  8
DATA
  6
CONTINUOUS
 62
     7
 10
21.653280658583459
 20
-202.8000000000248
 30
0.0
 11
23.95328065858347
 21
-202.8000000000248
 31
0.0
  0
LINE
  5
386
  8
DATA
  6
CONTINUOUS
 62
     7
 10
21.403280658583451
 20
-200.3000000000248
 30
0.0
 11
24.20328065858347
 21
-200.3000000000248
 31
0.0
  0
LINE
  5
387
  8
DATA
  6
CONTINUOUS
 62
     7
 10
21.053280658583489
 20
-197.8000000000248
 30
0.0
 11
24.553280658583489
 21
-197.8000000000248
 31
0.0
  0
LINE
  5
388
  8
DATA
  6
CONTINUOUS
 62
     7
 10
20.6032806585835
 20
-195.3000000000248
 30
0.0
 11
25.003280658583481
 21
-195.3000000000248
 31
0.0
  0
ARC
  5
389
  8
DATA
  6
CONTINUOUS
 62
     7
 10
40.499999999992141
 20
-192.90000000002479
 30
0.0
 40
1.5
 50
0.0
 51
180.0
  0
ARC
  5
38A
  8
DATA
  6
CONTINUOUS
 62
     7
 10
40.499999999992141
 20
-217.7000000000248
 30
0.0
 40
1.5
 50
180.0
 51
0.0
  0
LINE
  5
38B
  8
DATA
  6
CONTINUOUS
 62
     7
 10
38.999999999992149
 20
-192.90000000002479
 30
0.0
 11
38.999999999992149
 21
-217.7000000000248
 31
0.0
  0
LINE
  5
38C
  8
DATA
  6
CONTINUOUS
 62
     7
 10
41.999999999992149
 20
-217.7000000000248
 30
0.0
 11
41.999999999992149
 21
-192.90000000002479
 31
0.0
  0
LINE
  5
38D
  8
DATA
  6
CONTINUOUS
 62
     7
 10
39.69999999999213
 20
-206.10000000002489
 30
0.0
 11
39.69999999999213
 21
-204.5000000000249
 31
0.0
  0
LINE
  5
38E
  8
DATA
  6
CONTINUOUS
 62
     7
 10
41.299999999992089
 20
-206.10000000002489
 30
0.0
 11
39.69999999999213
 21
-206.10000000002489
 31
0.0
  0
LINE
  5
38F
  8
DATA
  6
CONTINUOUS
 62
     7
 10
41.299999999992089
 20
-204.5000000000249
 30
0.0
 11
41.299999999992089
 21
-206.10000000002489
 31
0.0
  0
LINE
  5
390
  8
DATA
  6
CONTINUOUS
 62
     7
 10
39.69999999999213
 20
-204.5000000000249
 30
0.0
 11
41.299999999992089
 21
-204.5000000000249
 31
0.0
  0
LINE
  5
391
  8
DATA
  6
CONTINUOUS
 62
     7
 10
39.69999999999213
 20
-204.5000000000249
 30
0.0
 11
39.499999999992149
 21
-204.50099397632471
 31
0.0
  0
LINE
  5
392
  8
DATA
  6
CONTINUOUS
 62
     7
 10
39.69999999999213
 20
-206.10000000002489
 30
0.0
 11
39.499999999992149
 21
-206.10000000002489
 31
0.0
  0
LINE
  5
393
  8
DATA
  6
CONTINUOUS
 62
     7
 10
41.299999999992089
 20
-206.10000000002489
 30
0.0
 11
41.499999999992149
 21
-206.10000000002489
 31
0.0
  0
LINE
  5
394
  8
DATA
  6
CONTINUOUS
 62
     7
 10
39.499999999992149
 20
-202.72500000002489
 30
0.0
 11
41.503280658583527
 21
-202.72500000002489
 31
0.0
  0
LINE
  5
395
  8
DATA
  6
CONTINUOUS
 62
     7
 10
39.499999999992149
 20
-207.8750000000249
 30
0.0
 11
41.463280658583521
 21
-207.8750000000249
 31
0.0
  0
LINE
  5
396
  8
DATA
  6
CONTINUOUS
 62
     7
 10
39.499999999992149
 20
-202.72500000002489
 30
0.0
 11
39.508826261591132
 21
-204.50095011085051
 31
0.0
  0
LINE
  5
397
  8
DATA
  6
CONTINUOUS
 62
     7
 10
39.499999999992149
 20
-206.10000000002489
 30
0.0
 11
39.499999999992149
 21
-207.8750000000249
 31
0.0
  0
LINE
  5
398
  8
DATA
  6
CONTINUOUS
 62
     7
 10
41.463280658583521
 20
-207.8750000000249
 30
0.0
 11
41.463280658583521
 21
-206.1009939763247
 31
0.0
  0
LINE
  5
399
  8
DATA
  6
CONTINUOUS
 62
     7
 10
41.299999999992089
 20
-204.5000000000249
 30
0.0
 11
41.503280658583527
 21
-204.5000000000249
 31
0.0
  0
LINE
  5
39A
  8
DATA
  6
CONTINUOUS
 62
     7
 10
41.503280658583527
 20
-204.5000000000249
 30
0.0
 11
41.503280658583527
 21
-202.72500000002489
 31
0.0
  0
LINE
  5
39B
  8
DATA
  6
CONTINUOUS
 62
     7
 10
33.453280658583481
 20
-207.8000000000248
 30
0.0
 11
35.753280658583478
 21
-207.8000000000248
 31
0.0
  0
LINE
  5
39C
  8
DATA
  6
CONTINUOUS
 62
     7
 10
31.503280658583531
 20
-205.3000000000248
 30
0.0
 11
37.70328065858353
 21
-205.3000000000248
 31
0.0
  0
LINE
  5
39D
  8
DATA
  6
CONTINUOUS
 62
     7
 10
33.203280658583481
 20
-210.3000000000248
 30
0.0
 11
36.003280658583492
 21
-210.3000000000248
 31
0.0
  0
LINE
  5
39E
  8
DATA
  6
CONTINUOUS
 62
     7
 10
32.8532806585835
 20
-212.8000000000248
 30
0.0
 11
36.353280658583508
 21
-212.8000000000248
 31
0.0
  0
LINE
  5
39F
  8
DATA
  6
CONTINUOUS
 62
     7
 10
32.403280658583512
 20
-215.3000000000248
 30
0.0
 11
36.80328065858351
 21
-215.3000000000248
 31
0.0
  0
LINE
  5
3A0
  8
DATA
  6
CONTINUOUS
 62
     7
 10
33.453280658583481
 20
-202.8000000000248
 30
0.0
 11
35.753280658583478
 21
-202.8000000000248
 31
0.0
  0
LINE
  5
3A1
  8
DATA
  6
CONTINUOUS
 62
     7
 10
33.203280658583481
 20
-200.3000000000248
 30
0.0
 11
36.003280658583492
 21
-200.3000000000248
 31
0.0
  0
LINE
  5
3A2
  8
DATA
  6
CONTINUOUS
 62
     7
 10
32.8532806585835
 20
-197.8000000000248
 30
0.0
 11
36.353280658583508
 21
-197.8000000000248
 31
0.0
  0
LINE
  5
3A3
  8
DATA
  6
CONTINUOUS
 62
     7
 10
32.403280658583512
 20
-195.3000000000248
 30
0.0
 11
36.80328065858351
 21
-195.3000000000248
 31
0.0
  0
ARC
  5
3A4
  8
DATA
  6
CONTINUOUS
 62
     7
 10
52.29999999999216
 20
-192.90000000002479
 30
0.0
 40
1.5
 50
0.0
 51
180.0
  0
ARC
  5
3A5
  8
DATA
  6
CONTINUOUS
 62
     7
 10
52.29999999999216
 20
-217.7000000000248
 30
0.0
 40
1.5
 50
180.0
 51
0.0
  0
LINE
  5
3A6
  8
DATA
  6
CONTINUOUS
 62
     7
 10
50.79999999999216
 20
-192.90000000002479
 30
0.0
 11
50.79999999999216
 21
-217.7000000000248
 31
0.0
  0
LINE
  5
3A7
  8
DATA
  6
CONTINUOUS
 62
     7
 10
53.79999999999216
 20
-217.7000000000248
 30
0.0
 11
53.79999999999216
 21
-192.90000000002479
 31
0.0
  0
LINE
  5
3A8
  8
DATA
  6
CONTINUOUS
 62
     7
 10
51.499999999992149
 20
-206.10000000002489
 30
0.0
 11
51.499999999992149
 21
-204.5000000000249
 31
0.0
  0
LINE
  5
3A9
  8
DATA
  6
CONTINUOUS
 62
     7
 10
53.0999999999921
 20
-206.10000000002489
 30
0.0
 11
51.499999999992149
 21
-206.10000000002489
 31
0.0
  0
LINE
  5
3AA
  8
DATA
  6
CONTINUOUS
 62
     7
 10
53.0999999999921
 20
-204.5000000000249
 30
0.0
 11
53.0999999999921
 21
-206.10000000002489
 31
0.0
  0
LINE
  5
3AB
  8
DATA
  6
CONTINUOUS
 62
     7
 10
51.499999999992149
 20
-204.5000000000249
 30
0.0
 11
53.0999999999921
 21
-204.5000000000249
 31
0.0
  0
LINE
  5
3AC
  8
DATA
  6
CONTINUOUS
 62
     7
 10
51.499999999992149
 20
-204.5000000000249
 30
0.0
 11
51.29999999999216
 21
-204.50099397632471
 31
0.0
  0
LINE
  5
3AD
  8
DATA
  6
CONTINUOUS
 62
     7
 10
51.499999999992149
 20
-206.10000000002489
 30
0.0
 11
51.29999999999216
 21
-206.10000000002489
 31
0.0
  0
LINE
  5
3AE
  8
DATA
  6
CONTINUOUS
 62
     7
 10
53.0999999999921
 20
-206.10000000002489
 30
0.0
 11
53.29999999999216
 21
-206.10000000002489
 31
0.0
  0
LINE
  5
3AF
  8
DATA
  6
CONTINUOUS
 62
     7
 10
51.29999999999216
 20
-202.72500000002489
 30
0.0
 11
53.303280658583539
 21
-202.72500000002489
 31
0.0
  0
LINE
  5
3B0
  8
DATA
  6
CONTINUOUS
 62
     7
 10
51.29999999999216
 20
-207.8750000000249
 30
0.0
 11
53.263280658583518
 21
-207.8750000000249
 31
0.0
  0
LINE
  5
3B1
  8
DATA
  6
CONTINUOUS
 62
     7
 10
51.29999999999216
 20
-202.72500000002489
 30
0.0
 11
51.308826261591129
 21
-204.50095011085051
 31
0.0
  0
LINE
  5
3B2
  8
DATA
  6
CONTINUOUS
 62
     7
 10
51.29999999999216
 20
-206.10000000002489
 30
0.0
 11
51.29999999999216
 21
-207.8750000000249
 31
0.0
  0
LINE
  5
3B3
  8
DATA
  6
CONTINUOUS
 62
     7
 10
53.263280658583518
 20
-207.8750000000249
 30
0.0
 11
53.263280658583518
 21
-206.1009939763247
 31
0.0
  0
LINE
  5
3B4
  8
DATA
  6
CONTINUOUS
 62
     7
 10
53.0999999999921
 20
-204.5000000000249
 30
0.0
 11
53.303280658583539
 21
-204.5000000000249
 31
0.0
  0
LINE
  5
3B5
  8
DATA
  6
CONTINUOUS
 62
     7
 10
53.303280658583539
 20
-204.5000000000249
 30
0.0
 11
53.303280658583539
 21
-202.72500000002489
 31
0.0
  0
LINE
  5
3B6
  8
DATA
  6
CONTINUOUS
 62
     7
 10
45.253280658583492
 20
-207.8000000000248
 30
0.0
 11
47.553280658583489
 21
-207.8000000000248
 31
0.0
  0
LINE
  5
3B7
  8
DATA
  6
CONTINUOUS
 62
     7
 10
43.303280658583517
 20
-205.3000000000248
 30
0.0
 11
49.503280658583542
 21
-205.3000000000248
 31
0.0
  0
LINE
  5
3B8
  8
DATA
  6
CONTINUOUS
 62
     7
 10
45.003280658583492
 20
-210.3000000000248
 30
0.0
 11
47.803280658583482
 21
-210.3000000000248
 31
0.0
  0
LINE
  5
3B9
  8
DATA
  6
CONTINUOUS
 62
     7
 10
44.653280658583519
 20
-212.8000000000248
 30
0.0
 11
48.153280658583519
 21
-212.8000000000248
 31
0.0
  0
LINE
  5
3BA
  8
DATA
  6
CONTINUOUS
 62
     7
 10
44.203280658583523
 20
-215.3000000000248
 30
0.0
 11
48.6032806585835
 21
-215.3000000000248
 31
0.0
  0
LINE
  5
3BB
  8
DATA
  6
CONTINUOUS
 62
     7
 10
45.253280658583492
 20
-202.8000000000248
 30
0.0
 11
47.553280658583489
 21
-202.8000000000248
 31
0.0
  0
LINE
  5
3BC
  8
DATA
  6
CONTINUOUS
 62
     7
 10
45.003280658583492
 20
-200.3000000000248
 30
0.0
 11
47.803280658583482
 21
-200.3000000000248
 31
0.0
  0
LINE
  5
3BD
  8
DATA
  6
CONTINUOUS
 62
     7
 10
44.653280658583519
 20
-197.8000000000248
 30
0.0
 11
48.153280658583519
 21
-197.8000000000248
 31
0.0
  0
LINE
  5
3BE
  8
DATA
  6
CONTINUOUS
 62
     7
 10
44.203280658583523
 20
-195.3000000000248
 30
0.0
 11
48.6032806585835
 21
-195.3000000000248
 31
0.0
  0
ARC
  5
3BF
  8
DATA
  6
CONTINUOUS
 62
     7
 10
64.099999999992178
 20
-192.90000000002479
 30
0.0
 40
1.5
 50
0.0
 51
180.0
  0
ARC
  5
3C0
  8
DATA
  6
CONTINUOUS
 62
     7
 10
64.099999999992178
 20
-217.7000000000248
 30
0.0
 40
1.5
 50
180.0
 51
0.0
  0
LINE
  5
3C1
  8
DATA
  6
CONTINUOUS
 62
     7
 10
62.599999999992171
 20
-192.90000000002479
 30
0.0
 11
62.599999999992171
 21
-217.7000000000248
 31
0.0
  0
LINE
  5
3C2
  8
DATA
  6
CONTINUOUS
 62
     7
 10
65.599999999992178
 20
-217.7000000000248
 30
0.0
 11
65.599999999992178
 21
-192.90000000002479
 31
0.0
  0
LINE
  5
3C3
  8
DATA
  6
CONTINUOUS
 62
     7
 10
63.29999999999216
 20
-206.10000000002489
 30
0.0
 11
63.29999999999216
 21
-204.5000000000249
 31
0.0
  0
LINE
  5
3C4
  8
DATA
  6
CONTINUOUS
 62
     7
 10
64.899999999992133
 20
-206.10000000002489
 30
0.0
 11
63.29999999999216
 21
-206.10000000002489
 31
0.0
  0
LINE
  5
3C5
  8
DATA
  6
CONTINUOUS
 62
     7
 10
64.899999999992133
 20
-204.5000000000249
 30
0.0
 11
64.899999999992133
 21
-206.10000000002489
 31
0.0
  0
LINE
  5
3C6
  8
DATA
  6
CONTINUOUS
 62
     7
 10
63.29999999999216
 20
-204.5000000000249
 30
0.0
 11
64.899999999992133
 21
-204.5000000000249
 31
0.0
  0
LINE
  5
3C7
  8
DATA
  6
CONTINUOUS
 62
     7
 10
63.29999999999216
 20
-204.5000000000249
 30
0.0
 11
63.099999999992171
 21
-204.50099397632471
 31
0.0
  0
LINE
  5
3C8
  8
DATA
  6
CONTINUOUS
 62
     7
 10
63.29999999999216
 20
-206.10000000002489
 30
0.0
 11
63.099999999992171
 21
-206.10000000002489
 31
0.0
  0
LINE
  5
3C9
  8
DATA
  6
CONTINUOUS
 62
     7
 10
64.899999999992133
 20
-206.10000000002489
 30
0.0
 11
65.099999999992178
 21
-206.10000000002489
 31
0.0
  0
LINE
  5
3CA
  8
DATA
  6
CONTINUOUS
 62
     7
 10
63.099999999992171
 20
-202.72500000002489
 30
0.0
 11
65.103280658583571
 21
-202.72500000002489
 31
0.0
  0
LINE
  5
3CB
  8
DATA
  6
CONTINUOUS
 62
     7
 10
63.099999999992171
 20
-207.8750000000249
 30
0.0
 11
65.063280658583551
 21
-207.8750000000249
 31
0.0
  0
LINE
  5
3CC
  8
DATA
  6
CONTINUOUS
 62
     7
 10
63.099999999992171
 20
-202.72500000002489
 30
0.0
 11
63.10882626159114
 21
-204.50095011085051
 31
0.0
  0
LINE
  5
3CD
  8
DATA
  6
CONTINUOUS
 62
     7
 10
63.099999999992171
 20
-206.10000000002489
 30
0.0
 11
63.099999999992171
 21
-207.8750000000249
 31
0.0
  0
LINE
  5
3CE
  8
DATA
  6
CONTINUOUS
 62
     7
 10
65.063280658583551
 20
-207.8750000000249
 30
0.0
 11
65.063280658583551
 21
-206.1009939763247
 31
0.0
  0
LINE
  5
3CF
  8
DATA
  6
CONTINUOUS
 62
     7
 10
64.899999999992133
 20
-204.5000000000249
 30
0.0
 11
65.103280658583571
 21
-204.5000000000249
 31
0.0
  0
LINE
  5
3D0
  8
DATA
  6
CONTINUOUS
 62
     7
 10
65.103280658583571
 20
-204.5000000000249
 30
0.0
 11
65.103280658583571
 21
-202.72500000002489
 31
0.0
  0
LINE
  5
3D1
  8
DATA
  6
CONTINUOUS
 62
     7
 10
57.053280658583489
 20
-207.8000000000248
 30
0.0
 11
59.3532806585835
 21
-207.8000000000248
 31
0.0
  0
LINE
  5
3D2
  8
DATA
  6
CONTINUOUS
 62
     7
 10
55.103280658583571
 20
-205.3000000000248
 30
0.0
 11
61.303280658583517
 21
-205.3000000000248
 31
0.0
  0
LINE
  5
3D3
  8
DATA
  6
CONTINUOUS
 62
     7
 10
56.803280658583503
 20
-210.3000000000248
 30
0.0
 11
59.603280658583508
 21
-210.3000000000248
 31
0.0
  0
LINE
  5
3D4
  8
DATA
  6
CONTINUOUS
 62
     7
 10
56.453280658583523
 20
-212.8000000000248
 30
0.0
 11
59.953280658583523
 21
-212.8000000000248
 31
0.0
  0
LINE
  5
3D5
  8
DATA
  6
CONTINUOUS
 62
     7
 10
56.00328065858352
 20
-215.3000000000248
 30
0.0
 11
60.403280658583533
 21
-215.3000000000248
 31
0.0
  0
LINE
  5
3D6
  8
DATA
  6
CONTINUOUS
 62
     7
 10
57.053280658583489
 20
-202.8000000000248
 30
0.0
 11
59.3532806585835
 21
-202.8000000000248
 31
0.0
  0
LINE
  5
3D7
  8
DATA
  6
CONTINUOUS
 62
     7
 10
56.803280658583503
 20
-200.3000000000248
 30
0.0
 11
59.603280658583508
 21
-200.3000000000248
 31
0.0
  0
LINE
  5
3D8
  8
DATA
  6
CONTINUOUS
 62
     7
 10
56.453280658583523
 20
-197.8000000000248
 30
0.0
 11
59.953280658583523
 21
-197.8000000000248
 31
0.0
  0
LINE
  5
3D9
  8
DATA
  6
CONTINUOUS
 62
     7
 10
56.00328065858352
 20
-195.3000000000248
 30
0.0
 11
60.403280658583533
 21
-195.3000000000248
 31
0.0
  0
ARC
  5
3DA
  8
DATA
  6
CONTINUOUS
 62
     7
 10
75.89999999999219
 20
-192.90000000002479
 30
0.0
 40
1.5
 50
0.0
 51
180.0
  0
ARC
  5
3DB
  8
DATA
  6
CONTINUOUS
 62
     7
 10
75.89999999999219
 20
-217.7000000000248
 30
0.0
 40
1.500000000000014
 50
180.0
 51
0.0
  0
LINE
  5
3DC
  8
DATA
  6
CONTINUOUS
 62
     7
 10
74.39999999999219
 20
-192.90000000002479
 30
0.0
 11
74.39999999999219
 21
-217.7000000000248
 31
0.0
  0
LINE
  5
3DD
  8
DATA
  6
CONTINUOUS
 62
     7
 10
77.39999999999219
 20
-217.7000000000248
 30
0.0
 11
77.39999999999219
 21
-192.90000000002479
 31
0.0
  0
LINE
  5
3DE
  8
DATA
  6
CONTINUOUS
 62
     7
 10
75.099999999992193
 20
-206.10000000002489
 30
0.0
 11
75.099999999992193
 21
-204.5000000000249
 31
0.0
  0
LINE
  5
3DF
  8
DATA
  6
CONTINUOUS
 62
     7
 10
76.699999999992144
 20
-206.10000000002489
 30
0.0
 11
75.099999999992193
 21
-206.10000000002489
 31
0.0
  0
LINE
  5
3E0
  8
DATA
  6
CONTINUOUS
 62
     7
 10
76.699999999992144
 20
-204.5000000000249
 30
0.0
 11
76.699999999992144
 21
-206.10000000002489
 31
0.0
  0
LINE
  5
3E1
  8
DATA
  6
CONTINUOUS
 62
     7
 10
75.099999999992193
 20
-204.5000000000249
 30
0.0
 11
76.699999999992144
 21
-204.5000000000249
 31
0.0
  0
LINE
  5
3E2
  8
DATA
  6
CONTINUOUS
 62
     7
 10
75.099999999992193
 20
-204.5000000000249
 30
0.0
 11
74.89999999999219
 21
-204.50099397632471
 31
0.0
  0
LINE
  5
3E3
  8
DATA
  6
CONTINUOUS
 62
     7
 10
75.099999999992193
 20
-206.10000000002489
 30
0.0
 11
74.89999999999219
 21
-206.10000000002489
 31
0.0
  0
LINE
  5
3E4
  8
DATA
  6
CONTINUOUS
 62
     7
 10
76.699999999992144
 20
-206.10000000002489
 30
0.0
 11
76.89999999999219
 21
-206.10000000002489
 31
0.0
  0
LINE
  5
3E5
  8
DATA
  6
CONTINUOUS
 62
     7
 10
74.89999999999219
 20
-202.72500000002489
 30
0.0
 11
76.903280658583569
 21
-202.72500000002489
 31
0.0
  0
LINE
  5
3E6
  8
DATA
  6
CONTINUOUS
 62
     7
 10
74.89999999999219
 20
-207.8750000000249
 30
0.0
 11
76.863280658583534
 21
-207.8750000000249
 31
0.0
  0
LINE
  5
3E7
  8
DATA
  6
CONTINUOUS
 62
     7
 10
74.89999999999219
 20
-202.72500000002489
 30
0.0
 11
74.908826261591173
 21
-204.50095011085051
 31
0.0
  0
LINE
  5
3E8
  8
DATA
  6
CONTINUOUS
 62
     7
 10
74.89999999999219
 20
-206.10000000002489
 30
0.0
 11
74.89999999999219
 21
-207.8750000000249
 31
0.0
  0
LINE
  5
3E9
  8
DATA
  6
CONTINUOUS
 62
     7
 10
76.863280658583534
 20
-207.8750000000249
 30
0.0
 11
76.863280658583534
 21
-206.1009939763247
 31
0.0
  0
LINE
  5
3EA
  8
DATA
  6
CONTINUOUS
 62
     7
 10
76.699999999992144
 20
-204.5000000000249
 30
0.0
 11
76.903280658583569
 21
-204.5000000000249
 31
0.0
  0
LINE
  5
3EB
  8
DATA
  6
CONTINUOUS
 62
     7
 10
76.903280658583569
 20
-204.5000000000249
 30
0.0
 11
76.903280658583569
 21
-202.72500000002489
 31
0.0
  0
LINE
  5
3EC
  8
DATA
  6
CONTINUOUS
 62
     7
 10
68.853280658583515
 20
-207.8000000000248
 30
0.0
 11
71.153280658583526
 21
-207.8000000000248
 31
0.0
  0
LINE
  5
3ED
  8
DATA
  6
CONTINUOUS
 62
     7
 10
66.903280658583569
 20
-205.3000000000248
 30
0.0
 11
73.103280658583571
 21
-205.3000000000248
 31
0.0
  0
LINE
  5
3EE
  8
DATA
  6
CONTINUOUS
 62
     7
 10
68.603280658583529
 20
-210.3000000000248
 30
0.0
 11
71.403280658583512
 21
-210.3000000000248
 31
0.0
  0
LINE
  5
3EF
  8
DATA
  6
CONTINUOUS
 62
     7
 10
68.253280658583535
 20
-212.8000000000248
 30
0.0
 11
71.753280658583549
 21
-212.8000000000248
 31
0.0
  0
LINE
  5
3F0
  8
DATA
  6
CONTINUOUS
 62
     7
 10
67.80328065858356
 20
-215.3000000000248
 30
0.0
 11
72.203280658583552
 21
-215.3000000000248
 31
0.0
  0
LINE
  5
3F1
  8
DATA
  6
CONTINUOUS
 62
     7
 10
68.853280658583515
 20
-202.8000000000248
 30
0.0
 11
71.153280658583526
 21
-202.8000000000248
 31
0.0
  0
LINE
  5
3F2
  8
DATA
  6
CONTINUOUS
 62
     7
 10
68.603280658583529
 20
-200.3000000000248
 30
0.0
 11
71.403280658583512
 21
-200.3000000000248
 31
0.0
  0
LINE
  5
3F3
  8
DATA
  6
CONTINUOUS
 62
     7
 10
68.253280658583535
 20
-197.8000000000248
 30
0.0
 11
71.753280658583549
 21
-197.8000000000248
 31
0.0
  0
LINE
  5
3F4
  8
DATA
  6
CONTINUOUS
 62
     7
 10
67.80328065858356
 20
-195.3000000000248
 30
0.0
 11
72.203280658583552
 21
-195.3000000000248
 31
0.0
  0
ARC
  5
3F5
  8
DATA
  6
CONTINUOUS
 62
     7
 10
87.699999999992187
 20
-192.90000000002479
 30
0.0
 40
1.5
 50
0.0
 51
180.0
  0
ARC
  5
3F6
  8
DATA
  6
CONTINUOUS
 62
     7
 10
87.699999999992187
 20
-217.7000000000248
 30
0.0
 40
1.5
 50
180.0
 51
0.0
  0
LINE
  5
3F7
  8
DATA
  6
CONTINUOUS
 62
     7
 10
86.199999999992187
 20
-192.90000000002479
 30
0.0
 11
86.199999999992187
 21
-217.7000000000248
 31
0.0
  0
LINE
  5
3F8
  8
DATA
  6
CONTINUOUS
 62
     7
 10
89.199999999992187
 20
-217.7000000000248
 30
0.0
 11
89.199999999992187
 21
-192.90000000002479
 31
0.0
  0
LINE
  5
3F9
  8
DATA
  6
CONTINUOUS
 62
     7
 10
86.899999999992176
 20
-206.10000000002489
 30
0.0
 11
86.899999999992176
 21
-204.5000000000249
 31
0.0
  0
LINE
  5
3FA
  8
DATA
  6
CONTINUOUS
 62
     7
 10
88.499999999992141
 20
-206.10000000002489
 30
0.0
 11
86.899999999992176
 21
-206.10000000002489
 31
0.0
  0
LINE
  5
3FB
  8
DATA
  6
CONTINUOUS
 62
     7
 10
88.499999999992141
 20
-204.5000000000249
 30
0.0
 11
88.499999999992141
 21
-206.10000000002489
 31
0.0
  0
LINE
  5
3FC
  8
DATA
  6
CONTINUOUS
 62
     7
 10
86.899999999992176
 20
-204.5000000000249
 30
0.0
 11
88.499999999992141
 21
-204.5000000000249
 31
0.0
  0
LINE
  5
3FD
  8
DATA
  6
CONTINUOUS
 62
     7
 10
86.899999999992176
 20
-204.5000000000249
 30
0.0
 11
86.699999999992187
 21
-204.50099397632471
 31
0.0
  0
LINE
  5
3FE
  8
DATA
  6
CONTINUOUS
 62
     7
 10
86.899999999992176
 20
-206.10000000002489
 30
0.0
 11
86.699999999992187
 21
-206.10000000002489
 31
0.0
  0
LINE
  5
3FF
  8
DATA
  6
CONTINUOUS
 62
     7
 10
88.499999999992141
 20
-206.10000000002489
 30
0.0
 11
88.699999999992187
 21
-206.10000000002489
 31
0.0
  0
LINE
  5
400
  8
DATA
  6
CONTINUOUS
 62
     7
 10
86.699999999992187
 20
-202.72500000002489
 30
0.0
 11
88.703280658583552
 21
-202.72500000002489
 31
0.0
  0
LINE
  5
401
  8
DATA
  6
CONTINUOUS
 62
     7
 10
86.699999999992187
 20
-207.8750000000249
 30
0.0
 11
88.66328065858356
 21
-207.8750000000249
 31
0.0
  0
LINE
  5
402
  8
DATA
  6
CONTINUOUS
 62
     7
 10
86.699999999992187
 20
-202.72500000002489
 30
0.0
 11
86.708826261591184
 21
-204.50095011085051
 31
0.0
  0
LINE
  5
403
  8
DATA
  6
CONTINUOUS
 62
     7
 10
86.699999999992187
 20
-206.10000000002489
 30
0.0
 11
86.699999999992187
 21
-207.8750000000249
 31
0.0
  0
LINE
  5
404
  8
DATA
  6
CONTINUOUS
 62
     7
 10
88.66328065858356
 20
-207.8750000000249
 30
0.0
 11
88.66328065858356
 21
-206.1009939763247
 31
0.0
  0
LINE
  5
405
  8
DATA
  6
CONTINUOUS
 62
     7
 10
88.499999999992141
 20
-204.5000000000249
 30
0.0
 11
88.703280658583552
 21
-204.5000000000249
 31
0.0
  0
LINE
  5
406
  8
DATA
  6
CONTINUOUS
 62
     7
 10
88.703280658583552
 20
-204.5000000000249
 30
0.0
 11
88.703280658583552
 21
-202.72500000002489
 31
0.0
  0
LINE
  5
407
  8
DATA
  6
CONTINUOUS
 62
     7
 10
80.653280658583483
 20
-207.8000000000248
 30
0.0
 11
82.953280658583537
 21
-207.8000000000248
 31
0.0
  0
LINE
  5
408
  8
DATA
  6
CONTINUOUS
 62
     7
 10
78.70328065858358
 20
-205.3000000000248
 30
0.0
 11
84.903280658583554
 21
-205.3000000000248
 31
0.0
  0
LINE
  5
409
  8
DATA
  6
CONTINUOUS
 62
     7
 10
80.403280658583526
 20
-210.3000000000248
 30
0.0
 11
83.203280658583552
 21
-210.3000000000248
 31
0.0
  0
LINE
  5
40A
  8
DATA
  6
CONTINUOUS
 62
     7
 10
80.053280658583546
 20
-212.8000000000248
 30
0.0
 11
83.553280658583574
 21
-212.8000000000248
 31
0.0
  0
LINE
  5
40B
  8
DATA
  6
CONTINUOUS
 62
     7
 10
79.603280658583571
 20
-215.3000000000248
 30
0.0
 11
84.003280658583549
 21
-215.3000000000248
 31
0.0
  0
LINE
  5
40C
  8
DATA
  6
CONTINUOUS
 62
     7
 10
80.653280658583483
 20
-202.8000000000248
 30
0.0
 11
82.953280658583537
 21
-202.8000000000248
 31
0.0
  0
LINE
  5
40D
  8
DATA
  6
CONTINUOUS
 62
     7
 10
80.403280658583526
 20
-200.3000000000248
 30
0.0
 11
83.203280658583552
 21
-200.3000000000248
 31
0.0
  0
LINE
  5
40E
  8
DATA
  6
CONTINUOUS
 62
     7
 10
80.053280658583546
 20
-197.8000000000248
 30
0.0
 11
83.553280658583574
 21
-197.8000000000248
 31
0.0
  0
LINE
  5
40F
  8
DATA
  6
CONTINUOUS
 62
     7
 10
79.603280658583571
 20
-195.3000000000248
 30
0.0
 11
84.003280658583549
 21
-195.3000000000248
 31
0.0
  0
ARC
  5
410
  8
DATA
  6
CONTINUOUS
 62
     7
 10
99.499999999992212
 20
-192.90000000002479
 30
0.0
 40
1.5
 50
0.0
 51
180.0
  0
ARC
  5
411
  8
DATA
  6
CONTINUOUS
 62
     7
 10
99.499999999992212
 20
-217.7000000000248
 30
0.0
 40
1.5
 50
180.0
 51
0.0
  0
LINE
  5
412
  8
DATA
  6
CONTINUOUS
 62
     7
 10
97.999999999992198
 20
-192.90000000002479
 30
0.0
 11
97.999999999992198
 21
-217.7000000000248
 31
0.0
  0
LINE
  5
413
  8
DATA
  6
CONTINUOUS
 62
     7
 10
100.9999999999922
 20
-217.7000000000248
 30
0.0
 11
100.9999999999922
 21
-192.90000000002479
 31
0.0
  0
LINE
  5
414
  8
DATA
  6
CONTINUOUS
 62
     7
 10
98.699999999992215
 20
-206.10000000002489
 30
0.0
 11
98.699999999992215
 21
-204.5000000000249
 31
0.0
  0
LINE
  5
415
  8
DATA
  6
CONTINUOUS
 62
     7
 10
100.2999999999921
 20
-206.10000000002489
 30
0.0
 11
98.699999999992215
 21
-206.10000000002489
 31
0.0
  0
LINE
  5
416
  8
DATA
  6
CONTINUOUS
 62
     7
 10
100.2999999999921
 20
-204.5000000000249
 30
0.0
 11
100.2999999999921
 21
-206.10000000002489
 31
0.0
  0
LINE
  5
417
  8
DATA
  6
CONTINUOUS
 62
     7
 10
98.699999999992215
 20
-204.5000000000249
 30
0.0
 11
100.2999999999921
 21
-204.5000000000249
 31
0.0
  0
LINE
  5
418
  8
DATA
  6
CONTINUOUS
 62
     7
 10
98.699999999992215
 20
-204.5000000000249
 30
0.0
 11
98.499999999992184
 21
-204.50099397632471
 31
0.0
  0
LINE
  5
419
  8
DATA
  6
CONTINUOUS
 62
     7
 10
98.699999999992215
 20
-206.10000000002489
 30
0.0
 11
98.499999999992184
 21
-206.10000000002489
 31
0.0
  0
LINE
  5
41A
  8
DATA
  6
CONTINUOUS
 62
     7
 10
100.2999999999921
 20
-206.10000000002489
 30
0.0
 11
100.4999999999922
 21
-206.10000000002489
 31
0.0
  0
LINE
  5
41B
  8
DATA
  6
CONTINUOUS
 62
     7
 10
98.499999999992184
 20
-202.72500000002489
 30
0.0
 11
100.50328065858361
 21
-202.72500000002489
 31
0.0
  0
LINE
  5
41C
  8
DATA
  6
CONTINUOUS
 62
     7
 10
98.499999999992184
 20
-207.8750000000249
 30
0.0
 11
100.4632806585836
 21
-207.8750000000249
 31
0.0
  0
LINE
  5
41D
  8
DATA
  6
CONTINUOUS
 62
     7
 10
98.499999999992184
 20
-202.72500000002489
 30
0.0
 11
98.50882626159121
 21
-204.50095011085051
 31
0.0
  0
LINE
  5
41E
  8
DATA
  6
CONTINUOUS
 62
     7
 10
98.499999999992184
 20
-206.10000000002489
 30
0.0
 11
98.499999999992184
 21
-207.8750000000249
 31
0.0
  0
LINE
  5
41F
  8
DATA
  6
CONTINUOUS
 62
     7
 10
100.4632806585836
 20
-207.8750000000249
 30
0.0
 11
100.4632806585836
 21
-206.1009939763247
 31
0.0
  0
LINE
  5
420
  8
DATA
  6
CONTINUOUS
 62
     7
 10
100.2999999999921
 20
-204.5000000000249
 30
0.0
 11
100.50328065858361
 21
-204.5000000000249
 31
0.0
  0
LINE
  5
421
  8
DATA
  6
CONTINUOUS
 62
     7
 10
100.50328065858361
 20
-204.5000000000249
 30
0.0
 11
100.50328065858361
 21
-202.72500000002489
 31
0.0
  0
LINE
  5
422
  8
DATA
  6
CONTINUOUS
 62
     7
 10
92.453280658583495
 20
-207.8000000000248
 30
0.0
 11
94.753280658583563
 21
-207.8000000000248
 31
0.0
  0
LINE
  5
423
  8
DATA
  6
CONTINUOUS
 62
     7
 10
90.503280658583606
 20
-205.3000000000248
 30
0.0
 11
96.703280658583637
 21
-205.3000000000248
 31
0.0
  0
LINE
  5
424
  8
DATA
  6
CONTINUOUS
 62
     7
 10
92.203280658583509
 20
-210.3000000000248
 30
0.0
 11
95.003280658583563
 21
-210.3000000000248
 31
0.0
  0
LINE
  5
425
  8
DATA
  6
CONTINUOUS
 62
     7
 10
91.853280658583571
 20
-212.8000000000248
 30
0.0
 11
95.353280658583557
 21
-212.8000000000248
 31
0.0
  0
LINE
  5
426
  8
DATA
  6
CONTINUOUS
 62
     7
 10
91.403280658583583
 20
-215.3000000000248
 30
0.0
 11
95.80328065858356
 21
-215.3000000000248
 31
0.0
  0
LINE
  5
427
  8
DATA
  6
CONTINUOUS
 62
     7
 10
92.453280658583495
 20
-202.8000000000248
 30
0.0
 11
94.753280658583563
 21
-202.8000000000248
 31
0.0
  0
LINE
  5
428
  8
DATA
  6
CONTINUOUS
 62
     7
 10
92.203280658583509
 20
-200.3000000000248
 30
0.0
 11
95.003280658583563
 21
-200.3000000000248
 31
0.0
  0
LINE
  5
429
  8
DATA
  6
CONTINUOUS
 62
     7
 10
91.853280658583571
 20
-197.8000000000248
 30
0.0
 11
95.353280658583557
 21
-197.8000000000248
 31
0.0
  0
LINE
  5
42A
  8
DATA
  6
CONTINUOUS
 62
     7
 10
91.403280658583583
 20
-195.3000000000248
 30
0.0
 11
95.80328065858356
 21
-195.3000000000248
 31
0.0
  0
ARC
  5
42B
  8
DATA
  6
CONTINUOUS
 62
     7
 10
111.2999999999922
 20
-192.90000000002479
 30
0.0
 40
1.5
 50
0.0
 51
180.0
  0
ARC
  5
42C
  8
DATA
  6
CONTINUOUS
 62
     7
 10
111.2999999999922
 20
-217.7000000000248
 30
0.0
 40
1.5
 50
180.0
 51
0.0
  0
LINE
  5
42D
  8
DATA
  6
CONTINUOUS
 62
     7
 10
109.7999999999922
 20
-192.90000000002479
 30
0.0
 11
109.7999999999922
 21
-217.7000000000248
 31
0.0
  0
LINE
  5
42E
  8
DATA
  6
CONTINUOUS
 62
     7
 10
112.7999999999922
 20
-217.7000000000248
 30
0.0
 11
112.7999999999922
 21
-192.90000000002479
 31
0.0
  0
LINE
  5
42F
  8
DATA
  6
CONTINUOUS
 62
     7
 10
110.4999999999922
 20
-206.10000000002489
 30
0.0
 11
110.4999999999922
 21
-204.5000000000249
 31
0.0
  0
LINE
  5
430
  8
DATA
  6
CONTINUOUS
 62
     7
 10
112.09999999999221
 20
-206.10000000002489
 30
0.0
 11
110.4999999999922
 21
-206.10000000002489
 31
0.0
  0
LINE
  5
431
  8
DATA
  6
CONTINUOUS
 62
     7
 10
112.09999999999221
 20
-204.5000000000249
 30
0.0
 11
112.09999999999221
 21
-206.10000000002489
 31
0.0
  0
LINE
  5
432
  8
DATA
  6
CONTINUOUS
 62
     7
 10
110.4999999999922
 20
-204.5000000000249
 30
0.0
 11
112.09999999999221
 21
-204.5000000000249
 31
0.0
  0
LINE
  5
433
  8
DATA
  6
CONTINUOUS
 62
     7
 10
110.4999999999922
 20
-204.5000000000249
 30
0.0
 11
110.2999999999922
 21
-204.50099397632471
 31
0.0
  0
LINE
  5
434
  8
DATA
  6
CONTINUOUS
 62
     7
 10
110.4999999999922
 20
-206.10000000002489
 30
0.0
 11
110.2999999999922
 21
-206.10000000002489
 31
0.0
  0
LINE
  5
435
  8
DATA
  6
CONTINUOUS
 62
     7
 10
112.09999999999221
 20
-206.10000000002489
 30
0.0
 11
112.2999999999922
 21
-206.10000000002489
 31
0.0
  0
LINE
  5
436
  8
DATA
  6
CONTINUOUS
 62
     7
 10
110.2999999999922
 20
-202.72500000002489
 30
0.0
 11
112.3032806585836
 21
-202.72500000002489
 31
0.0
  0
LINE
  5
437
  8
DATA
  6
CONTINUOUS
 62
     7
 10
110.2999999999922
 20
-207.8750000000249
 30
0.0
 11
112.2632806585836
 21
-207.8750000000249
 31
0.0
  0
LINE
  5
438
  8
DATA
  6
CONTINUOUS
 62
     7
 10
110.2999999999922
 20
-202.72500000002489
 30
0.0
 11
110.30882626159119
 21
-204.50095011085051
 31
0.0
  0
LINE
  5
439
  8
DATA
  6
CONTINUOUS
 62
     7
 10
110.2999999999922
 20
-206.10000000002489
 30
0.0
 11
110.2999999999922
 21
-207.8750000000249
 31
0.0
  0
LINE
  5
43A
  8
DATA
  6
CONTINUOUS
 62
     7
 10
112.2632806585836
 20
-207.8750000000249
 30
0.0
 11
112.2632806585836
 21
-206.1009939763247
 31
0.0
  0
LINE
  5
43B
  8
DATA
  6
CONTINUOUS
 62
     7
 10
112.09999999999221
 20
-204.5000000000249
 30
0.0
 11
112.3032806585836
 21
-204.5000000000249
 31
0.0
  0
LINE
  5
43C
  8
DATA
  6
CONTINUOUS
 62
     7
 10
112.3032806585836
 20
-204.5000000000249
 30
0.0
 11
112.3032806585836
 21
-202.72500000002489
 31
0.0
  0
LINE
  5
43D
  8
DATA
  6
CONTINUOUS
 62
     7
 10
104.25328065858351
 20
-207.8000000000248
 30
0.0
 11
106.5532806585835
 21
-207.8000000000248
 31
0.0
  0
LINE
  5
43E
  8
DATA
  6
CONTINUOUS
 62
     7
 10
102.3032806585836
 20
-205.3000000000248
 30
0.0
 11
108.50328065858361
 21
-205.3000000000248
 31
0.0
  0
LINE
  5
43F
  8
DATA
  6
CONTINUOUS
 62
     7
 10
104.00328065858351
 20
-210.3000000000248
 30
0.0
 11
106.8032806585835
 21
-210.3000000000248
 31
0.0
  0
LINE
  5
440
  8
DATA
  6
CONTINUOUS
 62
     7
 10
103.6532806585836
 20
-212.8000000000248
 30
0.0
 11
107.1532806585836
 21
-212.8000000000248
 31
0.0
  0
LINE
  5
441
  8
DATA
  6
CONTINUOUS
 62
     7
 10
103.20328065858359
 20
-215.3000000000248
 30
0.0
 11
107.6032806585835
 21
-215.3000000000248
 31
0.0
  0
LINE
  5
442
  8
DATA
  6
CONTINUOUS
 62
     7
 10
104.25328065858351
 20
-202.8000000000248
 30
0.0
 11
106.5532806585835
 21
-202.8000000000248
 31
0.0
  0
LINE
  5
443
  8
DATA
  6
CONTINUOUS
 62
     7
 10
104.00328065858351
 20
-200.3000000000248
 30
0.0
 11
106.8032806585835
 21
-200.3000000000248
 31
0.0
  0
LINE
  5
444
  8
DATA
  6
CONTINUOUS
 62
     7
 10
103.6532806585836
 20
-197.8000000000248
 30
0.0
 11
107.1532806585836
 21
-197.8000000000248
 31
0.0
  0
LINE
  5
445
  8
DATA
  6
CONTINUOUS
 62
     7
 10
103.20328065858359
 20
-195.3000000000248
 30
0.0
 11
107.6032806585835
 21
-195.3000000000248
 31
0.0
  0
ARC
  5
446
  8
DATA
  6
CONTINUOUS
 62
     7
 10
123.09999999999221
 20
-192.90000000002479
 30
0.0
 40
1.5
 50
0.0
 51
180.0
  0
ARC
  5
447
  8
DATA
  6
CONTINUOUS
 62
     7
 10
123.09999999999221
 20
-217.7000000000248
 30
0.0
 40
1.5
 50
180.0
 51
0.0
  0
LINE
  5
448
  8
DATA
  6
CONTINUOUS
 62
     7
 10
121.59999999999221
 20
-192.90000000002479
 30
0.0
 11
121.59999999999221
 21
-217.7000000000248
 31
0.0
  0
LINE
  5
449
  8
DATA
  6
CONTINUOUS
 62
     7
 10
124.59999999999221
 20
-217.7000000000248
 30
0.0
 11
124.59999999999221
 21
-192.90000000002479
 31
0.0
  0
LINE
  5
44A
  8
DATA
  6
CONTINUOUS
 62
     7
 10
122.2999999999922
 20
-206.10000000002489
 30
0.0
 11
122.2999999999922
 21
-204.5000000000249
 31
0.0
  0
LINE
  5
44B
  8
DATA
  6
CONTINUOUS
 62
     7
 10
123.8999999999922
 20
-206.10000000002489
 30
0.0
 11
122.2999999999922
 21
-206.10000000002489
 31
0.0
  0
LINE
  5
44C
  8
DATA
  6
CONTINUOUS
 62
     7
 10
123.8999999999922
 20
-204.5000000000249
 30
0.0
 11
123.8999999999922
 21
-206.10000000002489
 31
0.0
  0
LINE
  5
44D
  8
DATA
  6
CONTINUOUS
 62
     7
 10
122.2999999999922
 20
-204.5000000000249
 30
0.0
 11
123.8999999999922
 21
-204.5000000000249
 31
0.0
  0
LINE
  5
44E
  8
DATA
  6
CONTINUOUS
 62
     7
 10
122.2999999999922
 20
-204.5000000000249
 30
0.0
 11
122.09999999999221
 21
-204.50099397632471
 31
0.0
  0
LINE
  5
44F
  8
DATA
  6
CONTINUOUS
 62
     7
 10
122.2999999999922
 20
-206.10000000002489
 30
0.0
 11
122.09999999999221
 21
-206.10000000002489
 31
0.0
  0
LINE
  5
450
  8
DATA
  6
CONTINUOUS
 62
     7
 10
123.8999999999922
 20
-206.10000000002489
 30
0.0
 11
124.09999999999221
 21
-206.10000000002489
 31
0.0
  0
LINE
  5
451
  8
DATA
  6
CONTINUOUS
 62
     7
 10
122.09999999999221
 20
-202.72500000002489
 30
0.0
 11
124.1032806585836
 21
-202.72500000002489
 31
0.0
  0
LINE
  5
452
  8
DATA
  6
CONTINUOUS
 62
     7
 10
122.09999999999221
 20
-207.8750000000249
 30
0.0
 11
124.06328065858359
 21
-207.8750000000249
 31
0.0
  0
LINE
  5
453
  8
DATA
  6
CONTINUOUS
 62
     7
 10
122.09999999999221
 20
-202.72500000002489
 30
0.0
 11
122.1088262615912
 21
-204.50095011085051
 31
0.0
  0
LINE
  5
454
  8
DATA
  6
CONTINUOUS
 62
     7
 10
122.09999999999221
 20
-206.10000000002489
 30
0.0
 11
122.09999999999221
 21
-207.8750000000249
 31
0.0
  0
LINE
  5
455
  8
DATA
  6
CONTINUOUS
 62
     7
 10
124.06328065858359
 20
-207.8750000000249
 30
0.0
 11
124.06328065858359
 21
-206.1009939763247
 31
0.0
  0
LINE
  5
456
  8
DATA
  6
CONTINUOUS
 62
     7
 10
123.8999999999922
 20
-204.5000000000249
 30
0.0
 11
124.1032806585836
 21
-204.5000000000249
 31
0.0
  0
LINE
  5
457
  8
DATA
  6
CONTINUOUS
 62
     7
 10
124.1032806585836
 20
-204.5000000000249
 30
0.0
 11
124.1032806585836
 21
-202.72500000002489
 31
0.0
  0
LINE
  5
458
  8
DATA
  6
CONTINUOUS
 62
     7
 10
116.0532806585835
 20
-207.8000000000248
 30
0.0
 11
118.3532806585835
 21
-207.8000000000248
 31
0.0
  0
LINE
  5
459
  8
DATA
  6
CONTINUOUS
 62
     7
 10
114.1032806585836
 20
-205.3000000000248
 30
0.0
 11
120.3032806585836
 21
-205.3000000000248
 31
0.0
  0
LINE
  5
45A
  8
DATA
  6
CONTINUOUS
 62
     7
 10
115.8032806585835
 20
-210.3000000000248
 30
0.0
 11
118.6032806585835
 21
-210.3000000000248
 31
0.0
  0
LINE
  5
45B
  8
DATA
  6
CONTINUOUS
 62
     7
 10
115.45328065858359
 20
-212.8000000000248
 30
0.0
 11
118.95328065858359
 21
-212.8000000000248
 31
0.0
  0
LINE
  5
45C
  8
DATA
  6
CONTINUOUS
 62
     7
 10
115.00328065858361
 20
-215.3000000000248
 30
0.0
 11
119.4032806585836
 21
-215.3000000000248
 31
0.0
  0
LINE
  5
45D
  8
DATA
  6
CONTINUOUS
 62
     7
 10
116.0532806585835
 20
-202.8000000000248
 30
0.0
 11
118.3532806585835
 21
-202.8000000000248
 31
0.0
  0
LINE
  5
45E
  8
DATA
  6
CONTINUOUS
 62
     7
 10
115.8032806585835
 20
-200.3000000000248
 30
0.0
 11
118.6032806585835
 21
-200.3000000000248
 31
0.0
  0
LINE
  5
45F
  8
DATA
  6
CONTINUOUS
 62
     7
 10
115.45328065858359
 20
-197.8000000000248
 30
0.0
 11
118.95328065858359
 21
-197.8000000000248
 31
0.0
  0
LINE
  5
460
  8
DATA
  6
CONTINUOUS
 62
     7
 10
115.00328065858361
 20
-195.3000000000248
 30
0.0
 11
119.4032806585836
 21
-195.3000000000248
 31
0.0
  0
ARC
  5
461
  8
DATA
  6
CONTINUOUS
 62
     7
 10
134.89999999999219
 20
-192.90000000002479
 30
0.0
 40
1.5
 50
0.0
 51
180.0
  0
ARC
  5
462
  8
DATA
  6
CONTINUOUS
 62
     7
 10
134.89999999999219
 20
-217.7000000000248
 30
0.0
 40
1.5
 50
180.0
 51
0.0
  0
LINE
  5
463
  8
DATA
  6
CONTINUOUS
 62
     7
 10
133.39999999999219
 20
-192.90000000002479
 30
0.0
 11
133.39999999999219
 21
-217.7000000000248
 31
0.0
  0
LINE
  5
464
  8
DATA
  6
CONTINUOUS
 62
     7
 10
136.39999999999219
 20
-217.7000000000248
 30
0.0
 11
136.39999999999219
 21
-192.90000000002479
 31
0.0
  0
LINE
  5
465
  8
DATA
  6
CONTINUOUS
 62
     7
 10
134.09999999999221
 20
-206.10000000002489
 30
0.0
 11
134.09999999999221
 21
-204.5000000000249
 31
0.0
  0
LINE
  5
466
  8
DATA
  6
CONTINUOUS
 62
     7
 10
135.6999999999922
 20
-206.10000000002489
 30
0.0
 11
134.09999999999221
 21
-206.10000000002489
 31
0.0
  0
LINE
  5
467
  8
DATA
  6
CONTINUOUS
 62
     7
 10
135.6999999999922
 20
-204.5000000000249
 30
0.0
 11
135.6999999999922
 21
-206.10000000002489
 31
0.0
  0
LINE
  5
468
  8
DATA
  6
CONTINUOUS
 62
     7
 10
134.09999999999221
 20
-204.5000000000249
 30
0.0
 11
135.6999999999922
 21
-204.5000000000249
 31
0.0
  0
LINE
  5
469
  8
DATA
  6
CONTINUOUS
 62
     7
 10
134.09999999999221
 20
-204.5000000000249
 30
0.0
 11
133.89999999999219
 21
-204.50099397632471
 31
0.0
  0
LINE
  5
46A
  8
DATA
  6
CONTINUOUS
 62
     7
 10
134.09999999999221
 20
-206.10000000002489
 30
0.0
 11
133.89999999999219
 21
-206.10000000002489
 31
0.0
  0
LINE
  5
46B
  8
DATA
  6
CONTINUOUS
 62
     7
 10
135.6999999999922
 20
-206.10000000002489
 30
0.0
 11
135.89999999999219
 21
-206.10000000002489
 31
0.0
  0
LINE
  5
46C
  8
DATA
  6
CONTINUOUS
 62
     7
 10
133.89999999999219
 20
-202.72500000002489
 30
0.0
 11
135.90328065858361
 21
-202.72500000002489
 31
0.0
  0
LINE
  5
46D
  8
DATA
  6
CONTINUOUS
 62
     7
 10
133.89999999999219
 20
-207.8750000000249
 30
0.0
 11
135.86328065858359
 21
-207.8750000000249
 31
0.0
  0
LINE
  5
46E
  8
DATA
  6
CONTINUOUS
 62
     7
 10
133.89999999999219
 20
-202.72500000002489
 30
0.0
 11
133.9088262615912
 21
-204.50095011085051
 31
0.0
  0
LINE
  5
46F
  8
DATA
  6
CONTINUOUS
 62
     7
 10
133.89999999999219
 20
-206.10000000002489
 30
0.0
 11
133.89999999999219
 21
-207.8750000000249
 31
0.0
  0
LINE
  5
470
  8
DATA
  6
CONTINUOUS
 62
     7
 10
135.86328065858359
 20
-207.8750000000249
 30
0.0
 11
135.86328065858359
 21
-206.1009939763247
 31
0.0
  0
LINE
  5
471
  8
DATA
  6
CONTINUOUS
 62
     7
 10
135.6999999999922
 20
-204.5000000000249
 30
0.0
 11
135.90328065858361
 21
-204.5000000000249
 31
0.0
  0
LINE
  5
472
  8
DATA
  6
CONTINUOUS
 62
     7
 10
135.90328065858361
 20
-204.5000000000249
 30
0.0
 11
135.90328065858361
 21
-202.72500000002489
 31
0.0
  0
LINE
  5
473
  8
DATA
  6
CONTINUOUS
 62
     7
 10
127.8532806585835
 20
-207.8000000000248
 30
0.0
 11
130.1532806585835
 21
-207.8000000000248
 31
0.0
  0
LINE
  5
474
  8
DATA
  6
CONTINUOUS
 62
     7
 10
125.9032806585836
 20
-205.3000000000248
 30
0.0
 11
132.1032806585836
 21
-205.3000000000248
 31
0.0
  0
LINE
  5
475
  8
DATA
  6
CONTINUOUS
 62
     7
 10
127.6032806585835
 20
-210.3000000000248
 30
0.0
 11
130.4032806585835
 21
-210.3000000000248
 31
0.0
  0
LINE
  5
476
  8
DATA
  6
CONTINUOUS
 62
     7
 10
127.25328065858361
 20
-212.8000000000248
 30
0.0
 11
130.75328065858361
 21
-212.8000000000248
 31
0.0
  0
LINE
  5
477
  8
DATA
  6
CONTINUOUS
 62
     7
 10
126.8032806585836
 20
-215.3000000000248
 30
0.0
 11
131.20328065858351
 21
-215.3000000000248
 31
0.0
  0
LINE
  5
478
  8
DATA
  6
CONTINUOUS
 62
     7
 10
127.8532806585835
 20
-202.8000000000248
 30
0.0
 11
130.1532806585835
 21
-202.8000000000248
 31
0.0
  0
LINE
  5
479
  8
DATA
  6
CONTINUOUS
 62
     7
 10
127.6032806585835
 20
-200.3000000000248
 30
0.0
 11
130.4032806585835
 21
-200.3000000000248
 31
0.0
  0
LINE
  5
47A
  8
DATA
  6
CONTINUOUS
 62
     7
 10
127.25328065858361
 20
-197.8000000000248
 30
0.0
 11
130.75328065858361
 21
-197.8000000000248
 31
0.0
  0
LINE
  5
47B
  8
DATA
  6
CONTINUOUS
 62
     7
 10
126.8032806585836
 20
-195.3000000000248
 30
0.0
 11
131.20328065858351
 21
-195.3000000000248
 31
0.0
  0
ARC
  5
47C
  8
DATA
  6
CONTINUOUS
 62
     7
 10
146.69999999999209
 20
-192.90000000002479
 30
0.0
 40
1.5
 50
0.0
 51
180.0
  0
ARC
  5
47D
  8
DATA
  6
CONTINUOUS
 62
     7
 10
146.69999999999209
 20
-217.7000000000248
 30
0.0
 40
1.5
 50
180.0
 51
0.0
  0
LINE
  5
47E
  8
DATA
  6
CONTINUOUS
 62
     7
 10
145.19999999999209
 20
-192.90000000002479
 30
0.0
 11
145.19999999999209
 21
-217.7000000000248
 31
0.0
  0
LINE
  5
47F
  8
DATA
  6
CONTINUOUS
 62
     7
 10
148.1999999999922
 20
-217.7000000000248
 30
0.0
 11
148.1999999999922
 21
-192.90000000002479
 31
0.0
  0
LINE
  5
480
  8
DATA
  6
CONTINUOUS
 62
     7
 10
145.89999999999219
 20
-206.10000000002489
 30
0.0
 11
145.89999999999219
 21
-204.5000000000249
 31
0.0
  0
LINE
  5
481
  8
DATA
  6
CONTINUOUS
 62
     7
 10
147.49999999999221
 20
-206.10000000002489
 30
0.0
 11
145.89999999999219
 21
-206.10000000002489
 31
0.0
  0
LINE
  5
482
  8
DATA
  6
CONTINUOUS
 62
     7
 10
147.49999999999221
 20
-204.5000000000249
 30
0.0
 11
147.49999999999221
 21
-206.10000000002489
 31
0.0
  0
LINE
  5
483
  8
DATA
  6
CONTINUOUS
 62
     7
 10
145.89999999999219
 20
-204.5000000000249
 30
0.0
 11
147.49999999999221
 21
-204.5000000000249
 31
0.0
  0
LINE
  5
484
  8
DATA
  6
CONTINUOUS
 62
     7
 10
145.89999999999219
 20
-204.5000000000249
 30
0.0
 11
145.699999999992
 21
-204.50099397632471
 31
0.0
  0
LINE
  5
485
  8
DATA
  6
CONTINUOUS
 62
     7
 10
145.89999999999219
 20
-206.10000000002489
 30
0.0
 11
145.699999999992
 21
-206.10000000002489
 31
0.0
  0
LINE
  5
486
  8
DATA
  6
CONTINUOUS
 62
     7
 10
147.49999999999221
 20
-206.10000000002489
 30
0.0
 11
147.69999999999209
 21
-206.10000000002489
 31
0.0
  0
LINE
  5
487
  8
DATA
  6
CONTINUOUS
 62
     7
 10
145.699999999992
 20
-202.72500000002489
 30
0.0
 11
147.70328065858359
 21
-202.72500000002489
 31
0.0
  0
LINE
  5
488
  8
DATA
  6
CONTINUOUS
 62
     7
 10
145.699999999992
 20
-207.8750000000249
 30
0.0
 11
147.6632806585836
 21
-207.8750000000249
 31
0.0
  0
LINE
  5
489
  8
DATA
  6
CONTINUOUS
 62
     7
 10
145.699999999992
 20
-202.72500000002489
 30
0.0
 11
145.70882626159121
 21
-204.50095011085051
 31
0.0
  0
LINE
  5
48A
  8
DATA
  6
CONTINUOUS
 62
     7
 10
145.699999999992
 20
-206.10000000002489
 30
0.0
 11
145.699999999992
 21
-207.8750000000249
 31
0.0
  0
LINE
  5
48B
  8
DATA
  6
CONTINUOUS
 62
     7
 10
147.6632806585836
 20
-207.8750000000249
 30
0.0
 11
147.6632806585836
 21
-206.1009939763247
 31
0.0
  0
LINE
  5
48C
  8
DATA
  6
CONTINUOUS
 62
     7
 10
147.49999999999221
 20
-204.5000000000249
 30
0.0
 11
147.70328065858359
 21
-204.5000000000249
 31
0.0
  0
LINE
  5
48D
  8
DATA
  6
CONTINUOUS
 62
     7
 10
147.70328065858359
 20
-204.5000000000249
 30
0.0
 11
147.70328065858359
 21
-202.72500000002489
 31
0.0
  0
LINE
  5
48E
  8
DATA
  6
CONTINUOUS
 62
     7
 10
139.6532806585835
 20
-207.8000000000248
 30
0.0
 11
141.95328065858351
 21
-207.8000000000248
 31
0.0
  0
LINE
  5
48F
  8
DATA
  6
CONTINUOUS
 62
     7
 10
137.70328065858359
 20
-205.3000000000248
 30
0.0
 11
143.90328065858361
 21
-205.3000000000248
 31
0.0
  0
LINE
  5
490
  8
DATA
  6
CONTINUOUS
 62
     7
 10
139.4032806585835
 20
-210.3000000000248
 30
0.0
 11
142.20328065858351
 21
-210.3000000000248
 31
0.0
  0
LINE
  5
491
  8
DATA
  6
CONTINUOUS
 62
     7
 10
139.05328065858359
 20
-212.8000000000248
 30
0.0
 11
142.55328065858359
 21
-212.8000000000248
 31
0.0
  0
LINE
  5
492
  8
DATA
  6
CONTINUOUS
 62
     7
 10
138.6032806585836
 20
-215.3000000000248
 30
0.0
 11
143.00328065858361
 21
-215.3000000000248
 31
0.0
  0
LINE
  5
493
  8
DATA
  6
CONTINUOUS
 62
     7
 10
139.6532806585835
 20
-202.8000000000248
 30
0.0
 11
141.95328065858351
 21
-202.8000000000248
 31
0.0
  0
LINE
  5
494
  8
DATA
  6
CONTINUOUS
 62
     7
 10
139.4032806585835
 20
-200.3000000000248
 30
0.0
 11
142.20328065858351
 21
-200.3000000000248
 31
0.0
  0
LINE
  5
495
  8
DATA
  6
CONTINUOUS
 62
     7
 10
139.05328065858359
 20
-197.8000000000248
 30
0.0
 11
142.55328065858359
 21
-197.8000000000248
 31
0.0
  0
LINE
  5
496
  8
DATA
  6
CONTINUOUS
 62
     7
 10
138.6032806585836
 20
-195.3000000000248
 30
0.0
 11
143.00328065858361
 21
-195.3000000000248
 31
0.0
  0
ARC
  5
497
  8
DATA
  6
CONTINUOUS
 62
     7
 10
158.49999999999201
 20
-192.90000000002479
 30
0.0
 40
1.5
 50
0.0
 51
180.0
  0
ARC
  5
498
  8
DATA
  6
CONTINUOUS
 62
     7
 10
158.49999999999201
 20
-217.7000000000248
 30
0.0
 40
1.5
 50
180.0
 51
0.0
  0
LINE
  5
499
  8
DATA
  6
CONTINUOUS
 62
     7
 10
156.9999999999923
 20
-192.90000000002479
 30
0.0
 11
156.9999999999923
 21
-217.7000000000248
 31
0.0
  0
LINE
  5
49A
  8
DATA
  6
CONTINUOUS
 62
     7
 10
159.9999999999923
 20
-217.7000000000248
 30
0.0
 11
159.9999999999923
 21
-192.90000000002479
 31
0.0
  0
LINE
  5
49B
  8
DATA
  6
CONTINUOUS
 62
     7
 10
157.69999999999209
 20
-206.10000000002489
 30
0.0
 11
157.69999999999209
 21
-204.5000000000249
 31
0.0
  0
LINE
  5
49C
  8
DATA
  6
CONTINUOUS
 62
     7
 10
159.29999999999211
 20
-206.10000000002489
 30
0.0
 11
157.69999999999209
 21
-206.10000000002489
 31
0.0
  0
LINE
  5
49D
  8
DATA
  6
CONTINUOUS
 62
     7
 10
159.29999999999211
 20
-204.5000000000249
 30
0.0
 11
159.29999999999211
 21
-206.10000000002489
 31
0.0
  0
LINE
  5
49E
  8
DATA
  6
CONTINUOUS
 62
     7
 10
157.69999999999209
 20
-204.5000000000249
 30
0.0
 11
159.29999999999211
 21
-204.5000000000249
 31
0.0
  0
LINE
  5
49F
  8
DATA
  6
CONTINUOUS
 62
     7
 10
157.69999999999209
 20
-204.5000000000249
 30
0.0
 11
157.49999999999221
 21
-204.50099397632471
 31
0.0
  0
LINE
  5
4A0
  8
DATA
  6
CONTINUOUS
 62
     7
 10
157.69999999999209
 20
-206.10000000002489
 30
0.0
 11
157.49999999999221
 21
-206.10000000002489
 31
0.0
  0
LINE
  5
4A1
  8
DATA
  6
CONTINUOUS
 62
     7
 10
159.29999999999211
 20
-206.10000000002489
 30
0.0
 11
159.49999999999221
 21
-206.10000000002489
 31
0.0
  0
LINE
  5
4A2
  8
DATA
  6
CONTINUOUS
 62
     7
 10
157.49999999999221
 20
-202.72500000002489
 30
0.0
 11
159.50328065858361
 21
-202.72500000002489
 31
0.0
  0
LINE
  5
4A3
  8
DATA
  6
CONTINUOUS
 62
     7
 10
157.49999999999221
 20
-207.8750000000249
 30
0.0
 11
159.46328065858361
 21
-207.8750000000249
 31
0.0
  0
LINE
  5
4A4
  8
DATA
  6
CONTINUOUS
 62
     7
 10
157.49999999999221
 20
-202.72500000002489
 30
0.0
 11
157.5088262615912
 21
-204.50095011085051
 31
0.0
  0
LINE
  5
4A5
  8
DATA
  6
CONTINUOUS
 62
     7
 10
157.49999999999221
 20
-206.10000000002489
 30
0.0
 11
157.49999999999221
 21
-207.8750000000249
 31
0.0
  0
LINE
  5
4A6
  8
DATA
  6
CONTINUOUS
 62
     7
 10
159.46328065858361
 20
-207.8750000000249
 30
0.0
 11
159.46328065858361
 21
-206.1009939763247
 31
0.0
  0
LINE
  5
4A7
  8
DATA
  6
CONTINUOUS
 62
     7
 10
159.29999999999211
 20
-204.5000000000249
 30
0.0
 11
159.50328065858361
 21
-204.5000000000249
 31
0.0
  0
LINE
  5
4A8
  8
DATA
  6
CONTINUOUS
 62
     7
 10
159.50328065858361
 20
-204.5000000000249
 30
0.0
 11
159.50328065858361
 21
-202.72500000002489
 31
0.0
  0
LINE
  5
4A9
  8
DATA
  6
CONTINUOUS
 62
     7
 10
151.45328065858351
 20
-207.8000000000248
 30
0.0
 11
153.75328065858361
 21
-207.8000000000248
 31
0.0
  0
LINE
  5
4AA
  8
DATA
  6
CONTINUOUS
 62
     7
 10
149.50328065858361
 20
-205.3000000000248
 30
0.0
 11
155.70328065858359
 21
-205.3000000000248
 31
0.0
  0
LINE
  5
4AB
  8
DATA
  6
CONTINUOUS
 62
     7
 10
151.20328065858351
 20
-210.3000000000248
 30
0.0
 11
154.00328065858361
 21
-210.3000000000248
 31
0.0
  0
LINE
  5
4AC
  8
DATA
  6
CONTINUOUS
 62
     7
 10
150.8532806585836
 20
-212.8000000000248
 30
0.0
 11
154.3532806585836
 21
-212.8000000000248
 31
0.0
  0
LINE
  5
4AD
  8
DATA
  6
CONTINUOUS
 62
     7
 10
150.40328065858361
 20
-215.3000000000248
 30
0.0
 11
154.80328065858359
 21
-215.3000000000248
 31
0.0
  0
LINE
  5
4AE
  8
DATA
  6
CONTINUOUS
 62
     7
 10
151.45328065858351
 20
-202.8000000000248
 30
0.0
 11
153.75328065858361
 21
-202.8000000000248
 31
0.0
  0
LINE
  5
4AF
  8
DATA
  6
CONTINUOUS
 62
     7
 10
151.20328065858351
 20
-200.3000000000248
 30
0.0
 11
154.00328065858361
 21
-200.3000000000248
 31
0.0
  0
LINE
  5
4B0
  8
DATA
  6
CONTINUOUS
 62
     7
 10
150.8532806585836
 20
-197.8000000000248
 30
0.0
 11
154.3532806585836
 21
-197.8000000000248
 31
0.0
  0
LINE
  5
4B1
  8
DATA
  6
CONTINUOUS
 62
     7
 10
150.40328065858361
 20
-195.3000000000248
 30
0.0
 11
154.80328065858359
 21
-195.3000000000248
 31
0.0
  0
ARC
  5
4B2
  8
DATA
  6
CONTINUOUS
 62
     7
 10
170.29999999999231
 20
-192.90000000002479
 30
0.0
 40
1.5
 50
0.0
 51
180.0
  0
ARC
  5
4B3
  8
DATA
  6
CONTINUOUS
 62
     7
 10
170.29999999999231
 20
-217.7000000000248
 30
0.0
 40
1.5
 50
180.0
 51
0.0
  0
LINE
  5
4B4
  8
DATA
  6
CONTINUOUS
 62
     7
 10
168.79999999999231
 20
-192.90000000002479
 30
0.0
 11
168.79999999999231
 21
-217.7000000000248
 31
0.0
  0
LINE
  5
4B5
  8
DATA
  6
CONTINUOUS
 62
     7
 10
171.79999999999231
 20
-217.7000000000248
 30
0.0
 11
171.79999999999231
 21
-192.90000000002479
 31
0.0
  0
LINE
  5
4B6
  8
DATA
  6
CONTINUOUS
 62
     7
 10
169.4999999999923
 20
-206.10000000002489
 30
0.0
 11
169.4999999999923
 21
-204.5000000000249
 31
0.0
  0
LINE
  5
4B7
  8
DATA
  6
CONTINUOUS
 62
     7
 10
171.09999999999221
 20
-206.10000000002489
 30
0.0
 11
169.4999999999923
 21
-206.10000000002489
 31
0.0
  0
LINE
  5
4B8
  8
DATA
  6
CONTINUOUS
 62
     7
 10
171.09999999999221
 20
-204.5000000000249
 30
0.0
 11
171.09999999999221
 21
-206.10000000002489
 31
0.0
  0
LINE
  5
4B9
  8
DATA
  6
CONTINUOUS
 62
     7
 10
169.4999999999923
 20
-204.5000000000249
 30
0.0
 11
171.09999999999221
 21
-204.5000000000249
 31
0.0
  0
LINE
  5
4BA
  8
DATA
  6
CONTINUOUS
 62
     7
 10
169.4999999999923
 20
-204.5000000000249
 30
0.0
 11
169.29999999999231
 21
-204.50099397632471
 31
0.0
  0
LINE
  5
4BB
  8
DATA
  6
CONTINUOUS
 62
     7
 10
169.4999999999923
 20
-206.10000000002489
 30
0.0
 11
169.29999999999231
 21
-206.10000000002489
 31
0.0
  0
LINE
  5
4BC
  8
DATA
  6
CONTINUOUS
 62
     7
 10
171.09999999999221
 20
-206.10000000002489
 30
0.0
 11
171.29999999999211
 21
-206.10000000002489
 31
0.0
  0
LINE
  5
4BD
  8
DATA
  6
CONTINUOUS
 62
     7
 10
169.29999999999231
 20
-202.72500000002489
 30
0.0
 11
171.30328065858359
 21
-202.72500000002489
 31
0.0
  0
LINE
  5
4BE
  8
DATA
  6
CONTINUOUS
 62
     7
 10
169.29999999999231
 20
-207.8750000000249
 30
0.0
 11
171.2632806585836
 21
-207.8750000000249
 31
0.0
  0
LINE
  5
4BF
  8
DATA
  6
CONTINUOUS
 62
     7
 10
169.29999999999231
 20
-202.72500000002489
 30
0.0
 11
169.30882626159121
 21
-204.50095011085051
 31
0.0
  0
LINE
  5
4C0
  8
DATA
  6
CONTINUOUS
 62
     7
 10
169.29999999999231
 20
-206.10000000002489
 30
0.0
 11
169.29999999999231
 21
-207.8750000000249
 31
0.0
  0
LINE
  5
4C1
  8
DATA
  6
CONTINUOUS
 62
     7
 10
171.2632806585836
 20
-207.8750000000249
 30
0.0
 11
171.2632806585836
 21
-206.1009939763247
 31
0.0
  0
LINE
  5
4C2
  8
DATA
  6
CONTINUOUS
 62
     7
 10
171.09999999999221
 20
-204.5000000000249
 30
0.0
 11
171.30328065858359
 21
-204.5000000000249
 31
0.0
  0
LINE
  5
4C3
  8
DATA
  6
CONTINUOUS
 62
     7
 10
171.30328065858359
 20
-204.5000000000249
 30
0.0
 11
171.30328065858359
 21
-202.72500000002489
 31
0.0
  0
LINE
  5
4C4
  8
DATA
  6
CONTINUOUS
 62
     7
 10
163.25328065858361
 20
-207.8000000000248
 30
0.0
 11
165.55328065858359
 21
-207.8000000000248
 31
0.0
  0
LINE
  5
4C5
  8
DATA
  6
CONTINUOUS
 62
     7
 10
161.30328065858359
 20
-205.3000000000248
 30
0.0
 11
167.50328065858361
 21
-205.3000000000248
 31
0.0
  0
LINE
  5
4C6
  8
DATA
  6
CONTINUOUS
 62
     7
 10
163.00328065858361
 20
-210.3000000000248
 30
0.0
 11
165.80328065858359
 21
-210.3000000000248
 31
0.0
  0
LINE
  5
4C7
  8
DATA
  6
CONTINUOUS
 62
     7
 10
162.65328065858361
 20
-212.8000000000248
 30
0.0
 11
166.15328065858361
 21
-212.8000000000248
 31
0.0
  0
LINE
  5
4C8
  8
DATA
  6
CONTINUOUS
 62
     7
 10
162.20328065858359
 20
-215.3000000000248
 30
0.0
 11
166.6032806585836
 21
-215.3000000000248
 31
0.0
  0
LINE
  5
4C9
  8
DATA
  6
CONTINUOUS
 62
     7
 10
163.25328065858361
 20
-202.8000000000248
 30
0.0
 11
165.55328065858359
 21
-202.8000000000248
 31
0.0
  0
LINE
  5
4CA
  8
DATA
  6
CONTINUOUS
 62
     7
 10
163.00328065858361
 20
-200.3000000000248
 30
0.0
 11
165.80328065858359
 21
-200.3000000000248
 31
0.0
  0
LINE
  5
4CB
  8
DATA
  6
CONTINUOUS
 62
     7
 10
162.65328065858361
 20
-197.8000000000248
 30
0.0
 11
166.15328065858361
 21
-197.8000000000248
 31
0.0
  0
LINE
  5
4CC
  8
DATA
  6
CONTINUOUS
 62
     7
 10
162.20328065858359
 20
-195.3000000000248
 30
0.0
 11
166.6032806585836
 21
-195.3000000000248
 31
0.0
  0
ARC
  5
4CD
  8
DATA
  6
CONTINUOUS
 62
     7
 10
182.09999999999229
 20
-192.90000000002479
 30
0.0
 40
1.5
 50
0.0
 51
180.0
  0
ARC
  5
4CE
  8
DATA
  6
CONTINUOUS
 62
     7
 10
182.09999999999229
 20
-217.7000000000248
 30
0.0
 40
1.5
 50
180.0
 51
0.0
  0
LINE
  5
4CF
  8
DATA
  6
CONTINUOUS
 62
     7
 10
180.59999999999229
 20
-192.90000000002479
 30
0.0
 11
180.59999999999229
 21
-217.7000000000248
 31
0.0
  0
LINE
  5
4D0
  8
DATA
  6
CONTINUOUS
 62
     7
 10
183.59999999999229
 20
-217.7000000000248
 30
0.0
 11
183.59999999999229
 21
-192.90000000002479
 31
0.0
  0
LINE
  5
4D1
  8
DATA
  6
CONTINUOUS
 62
     7
 10
181.29999999999231
 20
-206.10000000002489
 30
0.0
 11
181.29999999999231
 21
-204.5000000000249
 31
0.0
  0
LINE
  5
4D2
  8
DATA
  6
CONTINUOUS
 62
     7
 10
182.8999999999921
 20
-206.10000000002489
 30
0.0
 11
181.29999999999231
 21
-206.10000000002489
 31
0.0
  0
LINE
  5
4D3
  8
DATA
  6
CONTINUOUS
 62
     7
 10
182.8999999999921
 20
-204.5000000000249
 30
0.0
 11
182.8999999999921
 21
-206.10000000002489
 31
0.0
  0
LINE
  5
4D4
  8
DATA
  6
CONTINUOUS
 62
     7
 10
181.29999999999231
 20
-204.5000000000249
 30
0.0
 11
182.8999999999921
 21
-204.5000000000249
 31
0.0
  0
LINE
  5
4D5
  8
DATA
  6
CONTINUOUS
 62
     7
 10
181.29999999999231
 20
-204.5000000000249
 30
0.0
 11
181.09999999999229
 21
-204.50099397632471
 31
0.0
  0
LINE
  5
4D6
  8
DATA
  6
CONTINUOUS
 62
     7
 10
181.29999999999231
 20
-206.10000000002489
 30
0.0
 11
181.09999999999229
 21
-206.10000000002489
 31
0.0
  0
LINE
  5
4D7
  8
DATA
  6
CONTINUOUS
 62
     7
 10
182.8999999999921
 20
-206.10000000002489
 30
0.0
 11
183.09999999999229
 21
-206.10000000002489
 31
0.0
  0
LINE
  5
4D8
  8
DATA
  6
CONTINUOUS
 62
     7
 10
181.09999999999229
 20
-202.72500000002489
 30
0.0
 11
183.1032806585836
 21
-202.72500000002489
 31
0.0
  0
LINE
  5
4D9
  8
DATA
  6
CONTINUOUS
 62
     7
 10
181.09999999999229
 20
-207.8750000000249
 30
0.0
 11
183.06328065858369
 21
-207.8750000000249
 31
0.0
  0
LINE
  5
4DA
  8
DATA
  6
CONTINUOUS
 62
     7
 10
181.09999999999229
 20
-202.72500000002489
 30
0.0
 11
181.1088262615913
 21
-204.50095011085051
 31
0.0
  0
LINE
  5
4DB
  8
DATA
  6
CONTINUOUS
 62
     7
 10
181.09999999999229
 20
-206.10000000002489
 30
0.0
 11
181.09999999999229
 21
-207.8750000000249
 31
0.0
  0
LINE
  5
4DC
  8
DATA
  6
CONTINUOUS
 62
     7
 10
183.06328065858369
 20
-207.8750000000249
 30
0.0
 11
183.06328065858369
 21
-206.1009939763247
 31
0.0
  0
LINE
  5
4DD
  8
DATA
  6
CONTINUOUS
 62
     7
 10
182.8999999999921
 20
-204.5000000000249
 30
0.0
 11
183.1032806585836
 21
-204.5000000000249
 31
0.0
  0
LINE
  5
4DE
  8
DATA
  6
CONTINUOUS
 62
     7
 10
183.1032806585836
 20
-204.5000000000249
 30
0.0
 11
183.1032806585836
 21
-202.72500000002489
 31
0.0
  0
LINE
  5
4DF
  8
DATA
  6
CONTINUOUS
 62
     7
 10
175.05328065858359
 20
-207.8000000000248
 30
0.0
 11
177.3532806585836
 21
-207.8000000000248
 31
0.0
  0
LINE
  5
4E0
  8
DATA
  6
CONTINUOUS
 62
     7
 10
173.10328065858371
 20
-205.3000000000248
 30
0.0
 11
179.30328065858359
 21
-205.3000000000248
 31
0.0
  0
LINE
  5
4E1
  8
DATA
  6
CONTINUOUS
 62
     7
 10
174.80328065858359
 20
-210.3000000000248
 30
0.0
 11
177.6032806585836
 21
-210.3000000000248
 31
0.0
  0
LINE
  5
4E2
  8
DATA
  6
CONTINUOUS
 62
     7
 10
174.45328065858359
 20
-212.8000000000248
 30
0.0
 11
177.95328065858359
 21
-212.8000000000248
 31
0.0
  0
LINE
  5
4E3
  8
DATA
  6
CONTINUOUS
 62
     7
 10
174.00328065858361
 20
-215.3000000000248
 30
0.0
 11
178.40328065858361
 21
-215.3000000000248
 31
0.0
  0
LINE
  5
4E4
  8
DATA
  6
CONTINUOUS
 62
     7
 10
175.05328065858359
 20
-202.8000000000248
 30
0.0
 11
177.3532806585836
 21
-202.8000000000248
 31
0.0
  0
LINE
  5
4E5
  8
DATA
  6
CONTINUOUS
 62
     7
 10
174.80328065858359
 20
-200.3000000000248
 30
0.0
 11
177.6032806585836
 21
-200.3000000000248
 31
0.0
  0
LINE
  5
4E6
  8
DATA
  6
CONTINUOUS
 62
     7
 10
174.45328065858359
 20
-197.8000000000248
 30
0.0
 11
177.95328065858359
 21
-197.8000000000248
 31
0.0
  0
LINE
  5
4E7
  8
DATA
  6
CONTINUOUS
 62
     7
 10
174.00328065858361
 20
-195.3000000000248
 30
0.0
 11
178.40328065858361
 21
-195.3000000000248
 31
0.0
  0
ARC
  5
4E8
  8
DATA
  6
CONTINUOUS
 62
     7
 10
193.8999999999923
 20
-192.90000000002479
 30
0.0
 40
1.5
 50
0.0
 51
180.0
  0
ARC
  5
4E9
  8
DATA
  6
CONTINUOUS
 62
     7
 10
193.8999999999923
 20
-217.7000000000248
 30
0.0
 40
1.5
 50
180.0
 51
0.0
  0
LINE
  5
4EA
  8
DATA
  6
CONTINUOUS
 62
     7
 10
192.3999999999923
 20
-192.90000000002479
 30
0.0
 11
192.3999999999923
 21
-217.7000000000248
 31
0.0
  0
LINE
  5
4EB
  8
DATA
  6
CONTINUOUS
 62
     7
 10
195.3999999999923
 20
-217.7000000000248
 30
0.0
 11
195.3999999999923
 21
-192.90000000002479
 31
0.0
  0
LINE
  5
4EC
  8
DATA
  6
CONTINUOUS
 62
     7
 10
193.09999999999229
 20
-206.10000000002489
 30
0.0
 11
193.09999999999229
 21
-204.5000000000249
 31
0.0
  0
LINE
  5
4ED
  8
DATA
  6
CONTINUOUS
 62
     7
 10
194.69999999999209
 20
-206.10000000002489
 30
0.0
 11
193.09999999999229
 21
-206.10000000002489
 31
0.0
  0
LINE
  5
4EE
  8
DATA
  6
CONTINUOUS
 62
     7
 10
194.69999999999209
 20
-204.5000000000249
 30
0.0
 11
194.69999999999209
 21
-206.10000000002489
 31
0.0
  0
LINE
  5
4EF
  8
DATA
  6
CONTINUOUS
 62
     7
 10
193.09999999999229
 20
-204.5000000000249
 30
0.0
 11
194.69999999999209
 21
-204.5000000000249
 31
0.0
  0
LINE
  5
4F0
  8
DATA
  6
CONTINUOUS
 62
     7
 10
193.09999999999229
 20
-204.5000000000249
 30
0.0
 11
192.8999999999923
 21
-204.50099397632471
 31
0.0
  0
LINE
  5
4F1
  8
DATA
  6
CONTINUOUS
 62
     7
 10
193.09999999999229
 20
-206.10000000002489
 30
0.0
 11
192.8999999999923
 21
-206.10000000002489
 31
0.0
  0
LINE
  5
4F2
  8
DATA
  6
CONTINUOUS
 62
     7
 10
194.69999999999209
 20
-206.10000000002489
 30
0.0
 11
194.8999999999923
 21
-206.10000000002489
 31
0.0
  0
LINE
  5
4F3
  8
DATA
  6
CONTINUOUS
 62
     7
 10
192.8999999999923
 20
-202.72500000002489
 30
0.0
 11
194.90328065858361
 21
-202.72500000002489
 31
0.0
  0
LINE
  5
4F4
  8
DATA
  6
CONTINUOUS
 62
     7
 10
192.8999999999923
 20
-207.8750000000249
 30
0.0
 11
194.86328065858359
 21
-207.8750000000249
 31
0.0
  0
LINE
  5
4F5
  8
DATA
  6
CONTINUOUS
 62
     7
 10
192.8999999999923
 20
-202.72500000002489
 30
0.0
 11
192.9088262615912
 21
-204.50095011085051
 31
0.0
  0
LINE
  5
4F6
  8
DATA
  6
CONTINUOUS
 62
     7
 10
192.8999999999923
 20
-206.10000000002489
 30
0.0
 11
192.8999999999923
 21
-207.8750000000249
 31
0.0
  0
LINE
  5
4F7
  8
DATA
  6
CONTINUOUS
 62
     7
 10
194.86328065858359
 20
-207.8750000000249
 30
0.0
 11
194.86328065858359
 21
-206.1009939763247
 31
0.0
  0
LINE
  5
4F8
  8
DATA
  6
CONTINUOUS
 62
     7
 10
194.69999999999209
 20
-204.5000000000249
 30
0.0
 11
194.90328065858361
 21
-204.5000000000249
 31
0.0
  0
LINE
  5
4F9
  8
DATA
  6
CONTINUOUS
 62
     7
 10
194.90328065858361
 20
-204.5000000000249
 30
0.0
 11
194.90328065858361
 21
-202.72500000002489
 31
0.0
  0
LINE
  5
4FA
  8
DATA
  6
CONTINUOUS
 62
     7
 10
186.8532806585836
 20
-207.8000000000248
 30
0.0
 11
189.15328065858361
 21
-207.8000000000248
 31
0.0
  0
LINE
  5
4FB
  8
DATA
  6
CONTINUOUS
 62
     7
 10
184.9032806585837
 20
-205.3000000000248
 30
0.0
 11
191.10328065858371
 21
-205.3000000000248
 31
0.0
  0
LINE
  5
4FC
  8
DATA
  6
CONTINUOUS
 62
     7
 10
186.6032806585836
 20
-210.3000000000248
 30
0.0
 11
189.40328065858361
 21
-210.3000000000248
 31
0.0
  0
LINE
  5
4FD
  8
DATA
  6
CONTINUOUS
 62
     7
 10
186.25328065858369
 20
-212.8000000000248
 30
0.0
 11
189.75328065858369
 21
-212.8000000000248
 31
0.0
  0
LINE
  5
4FE
  8
DATA
  6
CONTINUOUS
 62
     7
 10
185.80328065858359
 20
-215.3000000000248
 30
0.0
 11
190.20328065858359
 21
-215.3000000000248
 31
0.0
  0
LINE
  5
4FF
  8
DATA
  6
CONTINUOUS
 62
     7
 10
186.8532806585836
 20
-202.8000000000248
 30
0.0
 11
189.15328065858361
 21
-202.8000000000248
 31
0.0
  0
LINE
  5
500
  8
DATA
  6
CONTINUOUS
 62
     7
 10
186.6032806585836
 20
-200.3000000000248
 30
0.0
 11
189.40328065858361
 21
-200.3000000000248
 31
0.0
  0
LINE
  5
501
  8
DATA
  6
CONTINUOUS
 62
     7
 10
186.25328065858369
 20
-197.8000000000248
 30
0.0
 11
189.75328065858369
 21
-197.8000000000248
 31
0.0
  0
LINE
  5
502
  8
DATA
  6
CONTINUOUS
 62
     7
 10
185.80328065858359
 20
-195.3000000000248
 30
0.0
 11
190.20328065858359
 21
-195.3000000000248
 31
0.0
  0
ARC
  5
503
  8
DATA
  6
CONTINUOUS
 62
     7
 10
205.69999999999229
 20
-192.90000000002479
 30
0.0
 40
1.5
 50
0.0
 51
180.0
  0
ARC
  5
504
  8
DATA
  6
CONTINUOUS
 62
     7
 10
205.69999999999229
 20
-217.7000000000248
 30
0.0
 40
1.5
 50
180.0
 51
0.0
  0
LINE
  5
505
  8
DATA
  6
CONTINUOUS
 62
     7
 10
204.19999999999229
 20
-192.90000000002479
 30
0.0
 11
204.19999999999229
 21
-217.7000000000248
 31
0.0
  0
LINE
  5
506
  8
DATA
  6
CONTINUOUS
 62
     7
 10
207.19999999999229
 20
-217.7000000000248
 30
0.0
 11
207.19999999999229
 21
-192.90000000002479
 31
0.0
  0
LINE
  5
507
  8
DATA
  6
CONTINUOUS
 62
     7
 10
204.8999999999923
 20
-206.10000000002489
 30
0.0
 11
204.8999999999923
 21
-204.5000000000249
 31
0.0
  0
LINE
  5
508
  8
DATA
  6
CONTINUOUS
 62
     7
 10
206.4999999999923
 20
-206.10000000002489
 30
0.0
 11
204.8999999999923
 21
-206.10000000002489
 31
0.0
  0
LINE
  5
509
  8
DATA
  6
CONTINUOUS
 62
     7
 10
206.4999999999923
 20
-204.5000000000249
 30
0.0
 11
206.4999999999923
 21
-206.10000000002489
 31
0.0
  0
LINE
  5
50A
  8
DATA
  6
CONTINUOUS
 62
     7
 10
204.8999999999923
 20
-204.5000000000249
 30
0.0
 11
206.4999999999923
 21
-204.5000000000249
 31
0.0
  0
LINE
  5
50B
  8
DATA
  6
CONTINUOUS
 62
     7
 10
204.8999999999923
 20
-204.5000000000249
 30
0.0
 11
204.69999999999229
 21
-204.50099397632471
 31
0.0
  0
LINE
  5
50C
  8
DATA
  6
CONTINUOUS
 62
     7
 10
204.8999999999923
 20
-206.10000000002489
 30
0.0
 11
204.69999999999229
 21
-206.10000000002489
 31
0.0
  0
LINE
  5
50D
  8
DATA
  6
CONTINUOUS
 62
     7
 10
206.4999999999923
 20
-206.10000000002489
 30
0.0
 11
206.69999999999229
 21
-206.10000000002489
 31
0.0
  0
LINE
  5
50E
  8
DATA
  6
CONTINUOUS
 62
     7
 10
204.69999999999229
 20
-202.72500000002489
 30
0.0
 11
206.70328065858371
 21
-202.72500000002489
 31
0.0
  0
LINE
  5
50F
  8
DATA
  6
CONTINUOUS
 62
     7
 10
204.69999999999229
 20
-207.8750000000249
 30
0.0
 11
206.66328065858369
 21
-207.8750000000249
 31
0.0
  0
LINE
  5
510
  8
DATA
  6
CONTINUOUS
 62
     7
 10
204.69999999999229
 20
-202.72500000002489
 30
0.0
 11
204.7088262615913
 21
-204.50095011085051
 31
0.0
  0
LINE
  5
511
  8
DATA
  6
CONTINUOUS
 62
     7
 10
204.69999999999229
 20
-206.10000000002489
 30
0.0
 11
204.69999999999229
 21
-207.8750000000249
 31
0.0
  0
LINE
  5
512
  8
DATA
  6
CONTINUOUS
 62
     7
 10
206.66328065858369
 20
-207.8750000000249
 30
0.0
 11
206.66328065858369
 21
-206.1009939763247
 31
0.0
  0
LINE
  5
513
  8
DATA
  6
CONTINUOUS
 62
     7
 10
206.4999999999923
 20
-204.5000000000249
 30
0.0
 11
206.70328065858371
 21
-204.5000000000249
 31
0.0
  0
LINE
  5
514
  8
DATA
  6
CONTINUOUS
 62
     7
 10
206.70328065858371
 20
-204.5000000000249
 30
0.0
 11
206.70328065858371
 21
-202.72500000002489
 31
0.0
  0
LINE
  5
515
  8
DATA
  6
CONTINUOUS
 62
     7
 10
198.65328065858361
 20
-207.8000000000248
 30
0.0
 11
200.95328065858359
 21
-207.8000000000248
 31
0.0
  0
LINE
  5
516
  8
DATA
  6
CONTINUOUS
 62
     7
 10
196.70328065858371
 20
-205.3000000000248
 30
0.0
 11
202.9032806585837
 21
-205.3000000000248
 31
0.0
  0
LINE
  5
517
  8
DATA
  6
CONTINUOUS
 62
     7
 10
198.40328065858361
 20
-210.3000000000248
 30
0.0
 11
201.20328065858359
 21
-210.3000000000248
 31
0.0
  0
LINE
  5
518
  8
DATA
  6
CONTINUOUS
 62
     7
 10
198.05328065858359
 20
-212.8000000000248
 30
0.0
 11
201.5532806585837
 21
-212.8000000000248
 31
0.0
  0
LINE
  5
519
  8
DATA
  6
CONTINUOUS
 62
     7
 10
197.60328065858371
 20
-215.3000000000248
 30
0.0
 11
202.00328065858369
 21
-215.3000000000248
 31
0.0
  0
LINE
  5
51A
  8
DATA
  6
CONTINUOUS
 62
     7
 10
198.65328065858361
 20
-202.8000000000248
 30
0.0
 11
200.95328065858359
 21
-202.8000000000248
 31
0.0
  0
LINE
  5
51B
  8
DATA
  6
CONTINUOUS
 62
     7
 10
198.40328065858361
 20
-200.3000000000248
 30
0.0
 11
201.20328065858359
 21
-200.3000000000248
 31
0.0
  0
LINE
  5
51C
  8
DATA
  6
CONTINUOUS
 62
     7
 10
198.05328065858359
 20
-197.8000000000248
 30
0.0
 11
201.5532806585837
 21
-197.8000000000248
 31
0.0
  0
LINE
  5
51D
  8
DATA
  6
CONTINUOUS
 62
     7
 10
197.60328065858371
 20
-195.3000000000248
 30
0.0
 11
202.00328065858369
 21
-195.3000000000248
 31
0.0
  0
ARC
  5
51E
  8
DATA
  6
CONTINUOUS
 62
     7
 10
217.49999999999241
 20
-192.90000000002479
 30
0.0
 40
1.5
 50
0.0
 51
180.0
  0
ARC
  5
51F
  8
DATA
  6
CONTINUOUS
 62
     7
 10
217.49999999999241
 20
-217.7000000000248
 30
0.0
 40
1.5
 50
180.0
 51
0.0
  0
LINE
  5
520
  8
DATA
  6
CONTINUOUS
 62
     7
 10
215.99999999999241
 20
-192.90000000002479
 30
0.0
 11
215.99999999999241
 21
-217.7000000000248
 31
0.0
  0
LINE
  5
521
  8
DATA
  6
CONTINUOUS
 62
     7
 10
218.99999999999241
 20
-217.7000000000248
 30
0.0
 11
218.99999999999241
 21
-192.90000000002479
 31
0.0
  0
LINE
  5
522
  8
DATA
  6
CONTINUOUS
 62
     7
 10
216.69999999999229
 20
-206.10000000002489
 30
0.0
 11
216.69999999999229
 21
-204.5000000000249
 31
0.0
  0
LINE
  5
523
  8
DATA
  6
CONTINUOUS
 62
     7
 10
218.29999999999231
 20
-206.10000000002489
 30
0.0
 11
216.69999999999229
 21
-206.10000000002489
 31
0.0
  0
LINE
  5
524
  8
DATA
  6
CONTINUOUS
 62
     7
 10
218.29999999999231
 20
-204.5000000000249
 30
0.0
 11
218.29999999999231
 21
-206.10000000002489
 31
0.0
  0
LINE
  5
525
  8
DATA
  6
CONTINUOUS
 62
     7
 10
216.69999999999229
 20
-204.5000000000249
 30
0.0
 11
218.29999999999231
 21
-204.5000000000249
 31
0.0
  0
LINE
  5
526
  8
DATA
  6
CONTINUOUS
 62
     7
 10
216.69999999999229
 20
-204.5000000000249
 30
0.0
 11
216.49999999999241
 21
-204.50099397632471
 31
0.0
  0
LINE
  5
527
  8
DATA
  6
CONTINUOUS
 62
     7
 10
216.69999999999229
 20
-206.10000000002489
 30
0.0
 11
216.49999999999241
 21
-206.10000000002489
 31
0.0
  0
LINE
  5
528
  8
DATA
  6
CONTINUOUS
 62
     7
 10
218.29999999999231
 20
-206.10000000002489
 30
0.0
 11
218.49999999999241
 21
-206.10000000002489
 31
0.0
  0
LINE
  5
529
  8
DATA
  6
CONTINUOUS
 62
     7
 10
216.49999999999241
 20
-202.72500000002489
 30
0.0
 11
218.50328065858369
 21
-202.72500000002489
 31
0.0
  0
LINE
  5
52A
  8
DATA
  6
CONTINUOUS
 62
     7
 10
216.49999999999241
 20
-207.8750000000249
 30
0.0
 11
218.4632806585837
 21
-207.8750000000249
 31
0.0
  0
LINE
  5
52B
  8
DATA
  6
CONTINUOUS
 62
     7
 10
216.49999999999241
 20
-202.72500000002489
 30
0.0
 11
216.5088262615912
 21
-204.50095011085051
 31
0.0
  0
LINE
  5
52C
  8
DATA
  6
CONTINUOUS
 62
     7
 10
216.49999999999241
 20
-206.10000000002489
 30
0.0
 11
216.49999999999241
 21
-207.8750000000249
 31
0.0
  0
LINE
  5
52D
  8
DATA
  6
CONTINUOUS
 62
     7
 10
218.4632806585837
 20
-207.8750000000249
 30
0.0
 11
218.4632806585837
 21
-206.1009939763247
 31
0.0
  0
LINE
  5
52E
  8
DATA
  6
CONTINUOUS
 62
     7
 10
218.29999999999231
 20
-204.5000000000249
 30
0.0
 11
218.50328065858369
 21
-204.5000000000249
 31
0.0
  0
LINE
  5
52F
  8
DATA
  6
CONTINUOUS
 62
     7
 10
218.50328065858369
 20
-204.5000000000249
 30
0.0
 11
218.50328065858369
 21
-202.72500000002489
 31
0.0
  0
LINE
  5
530
  8
DATA
  6
CONTINUOUS
 62
     7
 10
210.45328065858371
 20
-207.8000000000248
 30
0.0
 11
212.75328065858369
 21
-207.8000000000248
 31
0.0
  0
LINE
  5
531
  8
DATA
  6
CONTINUOUS
 62
     7
 10
208.50328065858369
 20
-205.3000000000248
 30
0.0
 11
214.70328065858371
 21
-205.3000000000248
 31
0.0
  0
LINE
  5
532
  8
DATA
  6
CONTINUOUS
 62
     7
 10
210.20328065858371
 20
-210.3000000000248
 30
0.0
 11
213.00328065858369
 21
-210.3000000000248
 31
0.0
  0
LINE
  5
533
  8
DATA
  6
CONTINUOUS
 62
     7
 10
209.85328065858371
 20
-212.8000000000248
 30
0.0
 11
213.35328065858371
 21
-212.8000000000248
 31
0.0
  0
LINE
  5
534
  8
DATA
  6
CONTINUOUS
 62
     7
 10
209.4032806585837
 20
-215.3000000000248
 30
0.0
 11
213.8032806585837
 21
-215.3000000000248
 31
0.0
  0
LINE
  5
535
  8
DATA
  6
CONTINUOUS
 62
     7
 10
210.45328065858371
 20
-202.8000000000248
 30
0.0
 11
212.75328065858369
 21
-202.8000000000248
 31
0.0
  0
LINE
  5
536
  8
DATA
  6
CONTINUOUS
 62
     7
 10
210.20328065858371
 20
-200.3000000000248
 30
0.0
 11
213.00328065858369
 21
-200.3000000000248
 31
0.0
  0
LINE
  5
537
  8
DATA
  6
CONTINUOUS
 62
     7
 10
209.85328065858371
 20
-197.8000000000248
 30
0.0
 11
213.35328065858371
 21
-197.8000000000248
 31
0.0
  0
LINE
  5
538
  8
DATA
  6
CONTINUOUS
 62
     7
 10
209.4032806585837
 20
-195.3000000000248
 30
0.0
 11
213.8032806585837
 21
-195.3000000000248
 31
0.0
  0
TEXT
  5
539
  8
DATA
 62
     7
 10
26.940079906755798
 20
-190.28968823331419
 30
0.0
 40
1.764577907986109
  1
500
 41
0.7
 11
26.940079906755798
 21
-188.52511032532809
 31
0.0
 73
     3
  0
TEXT
  5
53A
  8
DATA
 62
     7
 10
38.865287301736053
 20
-190.28968823331419
 30
0.0
 40
1.764577907986109
  1
630
 41
0.7
 11
38.865287301736053
 21
-188.52511032532809
 31
0.0
 73
     3
  0
TEXT
  5
53B
  8
DATA
 62
     7
 10
50.69658915048111
 20
-190.28968823331419
 30
0.0
 40
1.764577907986109
  1
800
 41
0.7
 11
50.69658915048111
 21
-188.52511032532809
 31
0.0
 73
     3
  0
TEXT
  5
53C
  8
DATA
 62
     7
 10
62.96611688165698
 20
-190.16448083833379
 30
0.0
 40
1.764577907986109
  1
1k
 41
0.7
 11
62.96611688165698
 21
-188.39990293034771
 31
0.0
 73
     3
  0
TEXT
  5
53D
  8
DATA
 62
     7
 10
73.075817049423804
 20
-190.16448083833379
 30
0.0
 40
1.764577907986109
  1
1.25k
 41
0.7
 11
73.075817049423804
 21
-188.39990293034771
 31
0.0
 73
     3
  0
TEXT
  5
53E
  8
DATA
 62
     7
 10
85.470552175579911
 20
-190.19578268707889
 30
0.0
 40
1.764577907986109
  1
1.6k
 41
0.7
 11
85.470552175579911
 21
-188.43120477909281
 31
0.0
 73
     3
  0
TEXT
  5
53F
  8
DATA
 62
     7
 10
98.491324276637215
 20
-190.19578268707889
 30
0.0
 40
1.764577907986109
  1
2k
 41
0.7
 11
98.491324276637215
 21
-188.43120477909281
 31
0.0
 73
     3
  0
TEXT
  5
540
  8
DATA
 62
     7
 10
109.2270614193052
 20
-190.19578268707889
 30
0.0
 40
1.764577907986109
  1
2.5k
 41
0.7
 11
109.2270614193052
 21
-188.43120477909281
 31
0.0
 73
     3
  0
TEXT
  5
541
  8
DATA
 62
     7
 10
120.3071188981688
 20
-190.19578268707889
 30
0.0
 40
1.764577907986109
  1
3.15k
 41
0.7
 11
120.3071188981688
 21
-188.43120477909281
 31
0.0
 73
     3
  0
TEXT
  5
542
  8
DATA
 62
     7
 10
133.5783057891866
 20
-190.19578268707889
 30
0.0
 40
1.764577907986109
  1
4k
 41
0.7
 11
133.5783057891866
 21
-188.43120477909281
 31
0.0
 73
     3
  0
TEXT
  5
543
  8
DATA
 62
     7
 10
145.59741873040201
 20
-190.19578268707889
 30
0.0
 40
1.764577907986109
  1
5k
 41
0.7
 11
145.59741873040201
 21
-188.43120477909281
 31
0.0
 73
     3
  0
TEXT
  5
544
  8
DATA
 62
     7
 10
156.23925032683479
 20
-190.16448083833379
 30
0.0
 40
1.764577907986109
  1
6.3k
 41
0.7
 11
156.23925032683479
 21
-188.39990293034771
 31
0.0
 73
     3
  0
TEXT
  5
545
  8
DATA
 62
     7
 10
169.38522982287239
 20
-190.19578268707889
 30
0.0
 40
1.764577907986109
  1
8k
 41
0.7
 11
169.38522982287239
 21
-188.43120477909281
 31
0.0
 73
     3
  0
TEXT
  5
546
  8
DATA
 62
     7
 10
180.43398545299101
 20
-190.16448083833379
 30
0.0
 40
1.764577907986109
  1
10k
 41
0.7
 11
180.43398545299101
 21
-188.39990293034771
 31
0.0
 73
     3
  0
TEXT
  5
547
  8
DATA
 62
     7
 10
191.1697225956589
 20
-190.19578268707889
 30
0.0
 40
1.764577907986109
  1
12.5k
 41
0.7
 11
191.1697225956589
 21
-188.43120477909281
 31
0.0
 73
     3
  0
TEXT
  5
548
  8
DATA
 62
     7
 10
203.94007990675581
 20
-190.19578268707889
 30
0.0
 40
1.764577907986109
  1
16k
 41
0.7
 11
203.94007990675581
 21
-188.43120477909281
 31
0.0
 73
     3
  0
TEXT
  5
549
  8
DATA
 62
     7
 10
216.11570209169659
 20
-190.19578268707889
 30
0.0
 40
1.764577907986109
  1
20k
 41
0.7
 11
216.11570209169659
 21
-188.43120477909281
 31
0.0
 73
     3
  0
TEXT
  5
54A
  8
DATA
 62
     7
 10
3.37138175550119
 20
-190.28968823331419
 30
0.0
 40
1.764577907986109
  1
315
 41
0.7
 11
3.37138175550119
 21
-188.52511032532809
 31
0.0
 73
     3
  0
TEXT
  5
54B
  8
DATA
 62
     7
 10
-8.3034108495186416
 20
-190.28968823331419
 30
0.0
 40
1.764577907986109
  1
250
 41
0.7
 11
-8.3034108495186416
 21
-188.52511032532809
 31
0.0
 73
     3
  0
TEXT
  5
54C
  8
DATA
 62
     7
 10
-20.228618244498769
 20
-190.28968823331419
 30
0.0
 40
1.764577907986109
  1
200
 41
0.7
 11
-20.228618244498769
 21
-188.52511032532809
 31
0.0
 73
     3
  0
TEXT
  5
54D
  8
DATA
 62
     7
 10
-32.153825639478967
 20
-190.28968823331419
 30
0.0
 40
1.764577907986109
  1
160
 41
0.7
 11
-32.153825639478967
 21
-188.52511032532809
 31
0.0
 73
     3
  0
TEXT
  5
54E
  8
DATA
 62
     7
 10
-43.922523790733933
 20
-190.25838638456909
 30
0.0
 40
1.764577907986109
  1
125
 41
0.7
 11
-43.922523790733933
 21
-188.49380847658301
 31
0.0
 73
     3
  0
TEXT
  5
54F
  8
DATA
 62
     7
 10
-55.722523790733931
 20
-190.28968823331419
 30
0.0
 40
1.764577907986109
  1
100
 41
0.7
 11
-55.722523790733931
 21
-188.52511032532809
 31
0.0
 73
     3
  0
TEXT
  5
550
  8
DATA
 62
     7
 10
-66.896486815833001
 20
-190.28968823331419
 30
0.0
 40
1.764577907986109
  1
80
 41
0.7
 11
-66.896486815833001
 21
-188.52511032532809
 31
0.0
 73
     3
  0
TEXT
  5
551
  8
DATA
 62
     7
 10
-78.727788664578043
 20
-190.28968823331419
 30
0.0
 40
1.764577907986109
  1
63
 41
0.7
 11
-78.727788664578043
 21
-188.52511032532809
 31
0.0
 73
     3
  0
TEXT
  5
552
  8
DATA
 62
     7
 10
-90.527788664578082
 20
-190.28968823331419
 30
0.0
 40
1.764577907986109
  1
50
 41
0.7
 11
-90.527788664578082
 21
-188.52511032532809
 31
0.0
 73
     3
  0
TEXT
  5
553
  8
DATA
 62
     7
 10
-102.265184967088
 20
-190.25838638456909
 30
0.0
 40
1.764577907986109
  1
40
 41
0.7
 11
-102.265184967088
 21
-188.49380847658301
 31
0.0
 73
     3
  0
TEXT
  5
554
  8
DATA
 62
     7
 10
-115.1607496731645
 20
-190.28968823331419
 30
0.0
 40
1.764577907986109
  1
31.5
 41
0.7
 11
-115.1607496731645
 21
-188.52511032532809
 31
0.0
 73
     3
  0
TEXT
  5
555
  8
DATA
 62
     7
 10
-125.77127942085281
 20
-190.32099008205901
 30
0.0
 40
1.764577907986109
  1
25
 41
0.7
 11
-125.77127942085281
 21
-188.5564121740729
 31
0.0
 73
     3
  0
TEXT
  5
556
  8
DATA
 62
     7
 10
-137.5399775721078
 20
-190.3522919308042
 30
0.0
 40
1.764577907986109
  1
20
 41
0.7
 11
-137.5399775721078
 21
-188.58771402281809
 31
0.0
 73
     3
  0
TEXT
  5
557
  8
DATA
 62
     7
 10
-140.99562100630061
 20
-206.17302175410251
 30
0.0
 40
1.764577907986109
  1
0
 41
0.7
 11
-140.99562100630061
 21
-204.4084438461164
 31
0.0
 73
     3
  0
TEXT
  5
558
  8
DATA
 62
     7
 10
-141.8166228561719
 20
-196.3730217541025
 30
0.0
 40
1.764577907986109
  1
+6
 41
0.7
 11
-141.8166228561719
 21
-194.60844384611639
 31
0.0
 73
     3
  0
TEXT
  5
559
  8
DATA
 62
     7
 10
-141.72822211622341
 20
-216.1393223090638
 30
0.0
 40
1.764577907986109
  1
-6
 41
0.7
 11
-141.72822211622341
 21
-214.37474440107769
 31
0.0
 73
     3
  0
TEXT
  5
55A
  8
DATA
 62
     7
 10
220.72647917868659
 20
-206.25092156911541
 30
0.0
 40
1.764577907986109
  1
0
 41
0.7
 11
220.72647917868659
 21
-204.4863436611293
 31
0.0
 73
     3
  0
TEXT
  5
55B
  8
DATA
 62
     7
 10
219.60218232346759
 20
-216.1382239739481
 30
0.0
 40
1.764577907986109
  1
-12
 41
0.7
 11
219.60218232346759
 21
-214.37364606596199
 31
0.0
 73
     3
  0
TEXT
  5
55C
  8
DATA
 62
     7
 10
219.65798195349331
 20
-196.11832045919249
 30
0.0
 40
1.764577907986109
  1
+12
 41
0.7
 11
219.65798195349331
 21
-194.35374255120641
 31
0.0
 73
     3
  0
POLYLINE
  5
55D
  8
DATA
  6
CONTINUOUS
 62
     7
 66
     1
 10
0.0
 20
0.0
 30
0.0
 70
     1
  0
VERTEX
  5
BAF
  8
DATA
  6
CONTINUOUS
 62
     7
 10
-137.51676412510781
 20
-75.000000000103171
 30
0.0
  0
VERTEX
  5
BB0
  8
DATA
  6
CONTINUOUS
 62
     7
 10
-135.51676412510781
 20
-75.000000000103171
 30
0.0
  0
VERTEX
  5
BB1
  8
DATA
  6
CONTINUOUS
 62
     7
 10
-135.51676412510781
 20
-81.800000000103182
 30
0.0
  0
VERTEX
  5
BB2
  8
DATA
  6
CONTINUOUS
 62
     7
 10
-137.51676412510781
 20
-81.800000000103182
 30
0.0
  0
SEQEND
  5
BB3
  8
DATA
  6
CONTINUOUS
 62
     7
  0
POLYLINE
  5
564
  8
DATA
  6
CONTINUOUS
 62
     7
 66
     1
 10
0.0
 20
0.0
 30
0.0
 70
     1
  0
VERTEX
  5
BB4
  8
DATA
  6
CONTINUOUS
 62
     7
 10
-125.7167641251078
 20
-75.000000000103171
 30
0.0
  0
VERTEX
  5
BB5
  8
DATA
  6
CONTINUOUS
 62
     7
 10
-123.7167641251078
 20
-75.000000000103171
 30
0.0
  0
VERTEX
  5
BB6
  8
DATA
  6
CONTINUOUS
 62
     7
 10
-123.7167641251078
 20
-81.800000000103182
 30
0.0
  0
VERTEX
  5
BB7
  8
DATA
  6
CONTINUOUS
 62
     7
 10
-125.7167641251078
 20
-81.800000000103182
 30
0.0
  0
SEQEND
  5
BB8
  8
DATA
  6
CONTINUOUS
 62
     7
  0
POLYLINE
  5
56B
  8
DATA
  6
CONTINUOUS
 62
     7
 66
     1
 10
0.0
 20
0.0
 30
0.0
 70
     1
  0
VERTEX
  5
BB9
  8
DATA
  6
CONTINUOUS
 62
     7
 10
-113.9167641251078
 20
-75.000000000103171
 30
0.0
  0
VERTEX
  5
BBA
  8
DATA
  6
CONTINUOUS
 62
     7
 10
-111.9167641251078
 20
-75.000000000103171
 30
0.0
  0
VERTEX
  5
BBB
  8
DATA
  6
CONTINUOUS
 62
     7
 10
-111.9167641251078
 20
-81.800000000103182
 30
0.0
  0
VERTEX
  5
BBC
  8
DATA
  6
CONTINUOUS
 62
     7
 10
-113.9167641251078
 20
-81.800000000103182
 30
0.0
  0
SEQEND
  5
BBD
  8
DATA
  6
CONTINUOUS
 62
     7
  0
POLYLINE
  5
572
  8
DATA
  6
CONTINUOUS
 62
     7
 66
     1
 10
0.0
 20
0.0
 30
0.0
 70
     1
  0
VERTEX
  5
BBE
  8
DATA
  6
CONTINUOUS
 62
     7
 10
-102.11676412510791
 20
-75.000000000103171
 30
0.0
  0
VERTEX
  5
BBF
  8
DATA
  6
CONTINUOUS
 62
     7
 10
-100.11676412510791
 20
-75.000000000103171
 30
0.0
  0
VERTEX
  5
BC0
  8
DATA
  6
CONTINUOUS
 62
     7
 10
-100.11676412510791
 20
-81.800000000103182
 30
0.0
  0
VERTEX
  5
BC1
  8
DATA
  6
CONTINUOUS
 62
     7
 10
-102.11676412510791
 20
-81.800000000103182
 30
0.0
  0
SEQEND
  5
BC2
  8
DATA
  6
CONTINUOUS
 62
     7
  0
POLYLINE
  5
579
  8
DATA
  6
CONTINUOUS
 62
     7
 66
     1
 10
0.0
 20
0.0
 30
0.0
 70
     1
  0
VERTEX
  5
BC3
  8
DATA
  6
CONTINUOUS
 62
     7
 10
-90.316764125107895
 20
-75.000000000103171
 30
0.0
  0
VERTEX
  5
BC4
  8
DATA
  6
CONTINUOUS
 62
     7
 10
-88.316764125107866
 20
-75.000000000103171
 30
0.0
  0
VERTEX
  5
BC5
  8
DATA
  6
CONTINUOUS
 62
     7
 10
-88.316764125107866
 20
-81.800000000103182
 30
0.0
  0
VERTEX
  5
BC6
  8
DATA
  6
CONTINUOUS
 62
     7
 10
-90.316764125107895
 20
-81.800000000103182
 30
0.0
  0
SEQEND
  5
BC7
  8
DATA
  6
CONTINUOUS
 62
     7
  0
POLYLINE
  5
580
  8
DATA
  6
CONTINUOUS
 62
     7
 66
     1
 10
0.0
 20
0.0
 30
0.0
 70
     1
  0
VERTEX
  5
BC8
  8
DATA
  6
CONTINUOUS
 62
     7
 10
-78.516764125107841
 20
-75.000000000103171
 30
0.0
  0
VERTEX
  5
BC9
  8
DATA
  6
CONTINUOUS
 62
     7
 10
-76.516764125107841
 20
-75.000000000103171
 30
0.0
  0
VERTEX
  5
BCA
  8
DATA
  6
CONTINUOUS
 62
     7
 10
-76.516764125107841
 20
-81.800000000103182
 30
0.0
  0
VERTEX
  5
BCB
  8
DATA
  6
CONTINUOUS
 62
     7
 10
-78.516764125107841
 20
-81.800000000103182
 30
0.0
  0
SEQEND
  5
BCC
  8
DATA
  6
CONTINUOUS
 62
     7
  0
POLYLINE
  5
587
  8
DATA
  6
CONTINUOUS
 62
     7
 66
     1
 10
0.0
 20
0.0
 30
0.0
 70
     1
  0
VERTEX
  5
BCD
  8
DATA
  6
CONTINUOUS
 62
     7
 10
-66.716764125107844
 20
-75.000000000103171
 30
0.0
  0
VERTEX
  5
BCE
  8
DATA
  6
CONTINUOUS
 62
     7
 10
-64.716764125107844
 20
-75.000000000103171
 30
0.0
  0
VERTEX
  5
BCF
  8
DATA
  6
CONTINUOUS
 62
     7
 10
-64.716764125107844
 20
-81.800000000103182
 30
0.0
  0
VERTEX
  5
BD0
  8
DATA
  6
CONTINUOUS
 62
     7
 10
-66.716764125107844
 20
-81.800000000103182
 30
0.0
  0
SEQEND
  5
BD1
  8
DATA
  6
CONTINUOUS
 62
     7
  0
POLYLINE
  5
58E
  8
DATA
  6
CONTINUOUS
 62
     7
 66
     1
 10
0.0
 20
0.0
 30
0.0
 70
     1
  0
VERTEX
  5
BD2
  8
DATA
  6
CONTINUOUS
 62
     7
 10
-54.916764125107889
 20
-75.000000000103171
 30
0.0
  0
VERTEX
  5
BD3
  8
DATA
  6
CONTINUOUS
 62
     7
 10
-52.916764125107882
 20
-75.000000000103171
 30
0.0
  0
VERTEX
  5
BD4
  8
DATA
  6
CONTINUOUS
 62
     7
 10
-52.916764125107882
 20
-81.800000000103182
 30
0.0
  0
VERTEX
  5
BD5
  8
DATA
  6
CONTINUOUS
 62
     7
 10
-54.916764125107889
 20
-81.800000000103182
 30
0.0
  0
SEQEND
  5
BD6
  8
DATA
  6
CONTINUOUS
 62
     7
  0
POLYLINE
  5
595
  8
DATA
  6
CONTINUOUS
 62
     7
 66
     1
 10
0.0
 20
0.0
 30
0.0
 70
     1
  0
VERTEX
  5
BD7
  8
DATA
  6
CONTINUOUS
 62
     7
 10
-43.116764125107871
 20
-75.000000000103171
 30
0.0
  0
VERTEX
  5
BD8
  8
DATA
  6
CONTINUOUS
 62
     7
 10
-41.116764125107878
 20
-75.000000000103171
 30
0.0
  0
VERTEX
  5
BD9
  8
DATA
  6
CONTINUOUS
 62
     7
 10
-41.116764125107878
 20
-81.800000000103182
 30
0.0
  0
VERTEX
  5
BDA
  8
DATA
  6
CONTINUOUS
 62
     7
 10
-43.116764125107871
 20
-81.800000000103182
 30
0.0
  0
SEQEND
  5
BDB
  8
DATA
  6
CONTINUOUS
 62
     7
  0
POLYLINE
  5
59C
  8
DATA
  6
CONTINUOUS
 62
     7
 66
     1
 10
0.0
 20
0.0
 30
0.0
 70
     1
  0
VERTEX
  5
BDC
  8
DATA
  6
CONTINUOUS
 62
     7
 10
-31.31676412510787
 20
-75.000000000103171
 30
0.0
  0
VERTEX
  5
BDD
  8
DATA
  6
CONTINUOUS
 62
     7
 10
-29.31676412510787
 20
-75.000000000103171
 30
0.0
  0
VERTEX
  5
BDE
  8
DATA
  6
CONTINUOUS
 62
     7
 10
-29.31676412510787
 20
-81.800000000103182
 30
0.0
  0
VERTEX
  5
BDF
  8
DATA
  6
CONTINUOUS
 62
     7
 10
-31.31676412510787
 20
-81.800000000103182
 30
0.0
  0
SEQEND
  5
BE0
  8
DATA
  6
CONTINUOUS
 62
     7
  0
POLYLINE
  5
5A3
  8
DATA
  6
CONTINUOUS
 62
     7
 66
     1
 10
0.0
 20
0.0
 30
0.0
 70
     1
  0
VERTEX
  5
BE1
  8
DATA
  6
CONTINUOUS
 62
     7
 10
-19.516764125107851
 20
-75.000000000103171
 30
0.0
  0
VERTEX
  5
BE2
  8
DATA
  6
CONTINUOUS
 62
     7
 10
-17.516764125107851
 20
-75.000000000103171
 30
0.0
  0
VERTEX
  5
BE3
  8
DATA
  6
CONTINUOUS
 62
     7
 10
-17.516764125107851
 20
-81.800000000103182
 30
0.0
  0
VERTEX
  5
BE4
  8
DATA
  6
CONTINUOUS
 62
     7
 10
-19.516764125107851
 20
-81.800000000103182
 30
0.0
  0
SEQEND
  5
BE5
  8
DATA
  6
CONTINUOUS
 62
     7
  0
POLYLINE
  5
5AA
  8
DATA
  6
CONTINUOUS
 62
     7
 66
     1
 10
0.0
 20
0.0
 30
0.0
 70
     1
  0
VERTEX
  5
BE6
  8
DATA
  6
CONTINUOUS
 62
     7
 10
-7.7167641251078969
 20
-75.000000000103171
 30
0.0
  0
VERTEX
  5
BE7
  8
DATA
  6
CONTINUOUS
 62
     7
 10
-5.7167641251078978
 20
-75.000000000103171
 30
0.0
  0
VERTEX
  5
BE8
  8
DATA
  6
CONTINUOUS
 62
     7
 10
-5.7167641251078978
 20
-81.800000000103182
 30
0.0
  0
VERTEX
  5
BE9
  8
DATA
  6
CONTINUOUS
 62
     7
 10
-7.7167641251078969
 20
-81.800000000103182
 30
0.0
  0
SEQEND
  5
BEA
  8
DATA
  6
CONTINUOUS
 62
     7
  0
POLYLINE
  5
5B1
  8
DATA
  6
CONTINUOUS
 62
     7
 66
     1
 10
0.0
 20
0.0
 30
0.0
 70
     1
  0
VERTEX
  5
BEB
  8
DATA
  6
CONTINUOUS
 62
     7
 10
4.08323587489211
 20
-75.000000000103171
 30
0.0
  0
VERTEX
  5
BEC
  8
DATA
  6
CONTINUOUS
 62
     7
 10
6.08323587489211
 20
-75.000000000103171
 30
0.0
  0
VERTEX
  5
BED
  8
DATA
  6
CONTINUOUS
 62
     7
 10
6.08323587489211
 20
-81.800000000103182
 30
0.0
  0
VERTEX
  5
BEE
  8
DATA
  6
CONTINUOUS
 62
     7
 10
4.08323587489211
 20
-81.800000000103182
 30
0.0
  0
SEQEND
  5
BEF
  8
DATA
  6
CONTINUOUS
 62
     7
  0
POLYLINE
  5
5B8
  8
DATA
  6
CONTINUOUS
 62
     7
 66
     1
 10
0.0
 20
0.0
 30
0.0
  0
VERTEX
  5
BF0
  8
DATA
  6
CONTINUOUS
 62
     7
 10
17.883235874892119
 20
-77.882203563717297
 30
0.0
  0
VERTEX
  5
BF1
  8
DATA
  6
CONTINUOUS
 62
     7
 10
17.883235874892119
 20
-81.800000000103182
 30
0.0
  0
VERTEX
  5
BF2
  8
DATA
  6
CONTINUOUS
 62
     7
 10
15.883235874892121
 20
-81.800000000103182
 30
0.0
  0
VERTEX
  5
BF3
  8
DATA
  6
CONTINUOUS
 62
     7
 10
15.883235874892121
 20
-78.000000000103171
 30
0.0
  0
SEQEND
  5
BF4
  8
DATA
  6
CONTINUOUS
 62
     7
  0
LINE
  5
5BF
  8
DATA
  6
CONTINUOUS
 62
     7
 10
15.883235874892121
 20
-75.000000000103171
 30
0.0
 11
17.883235874892119
 21
-75.000000000103171
 31
0.0
  0
POLYLINE
  5
5C0
  8
DATA
  6
CONTINUOUS
 62
     7
 66
     1
 10
0.0
 20
0.0
 30
0.0
 70
     1
  0
VERTEX
  5
BF5
  8
DATA
  6
CONTINUOUS
 62
     7
 10
27.68323587489213
 20
-75.000000000103171
 30
0.0
  0
VERTEX
  5
BF6
  8
DATA
  6
CONTINUOUS
 62
     7
 10
29.68323587489213
 20
-75.000000000103171
 30
0.0
  0
VERTEX
  5
BF7
  8
DATA
  6
CONTINUOUS
 62
     7
 10
29.68323587489213
 20
-81.800000000103182
 30
0.0
  0
VERTEX
  5
BF8
  8
DATA
  6
CONTINUOUS
 62
     7
 10
27.68323587489213
 20
-81.800000000103182
 30
0.0
  0
SEQEND
  5
BF9
  8
DATA
  6
CONTINUOUS
 62
     7
  0
POLYLINE
  5
5C7
  8
DATA
  6
CONTINUOUS
 62
     7
 66
     1
 10
0.0
 20
0.0
 30
0.0
 70
     1
  0
VERTEX
  5
BFA
  8
DATA
  6
CONTINUOUS
 62
     7
 10
39.483235874892152
 20
-75.000000000103171
 30
0.0
  0
VERTEX
  5
BFB
  8
DATA
  6
CONTINUOUS
 62
     7
 10
41.483235874892152
 20
-75.000000000103171
 30
0.0
  0
VERTEX
  5
BFC
  8
DATA
  6
CONTINUOUS
 62
     7
 10
41.483235874892152
 20
-81.800000000103182
 30
0.0
  0
VERTEX
  5
BFD
  8
DATA
  6
CONTINUOUS
 62
     7
 10
39.483235874892152
 20
-81.800000000103182
 30
0.0
  0
SEQEND
  5
BFE
  8
DATA
  6
CONTINUOUS
 62
     7
  0
POLYLINE
  5
5CE
  8
DATA
  6
CONTINUOUS
 62
     7
 66
     1
 10
0.0
 20
0.0
 30
0.0
 70
     1
  0
VERTEX
  5
BFF
  8
DATA
  6
CONTINUOUS
 62
     7
 10
51.283235874892164
 20
-75.000000000103171
 30
0.0
  0
VERTEX
  5
C00
  8
DATA
  6
CONTINUOUS
 62
     7
 10
53.283235874892149
 20
-75.000000000103171
 30
0.0
  0
VERTEX
  5
C01
  8
DATA
  6
CONTINUOUS
 62
     7
 10
53.283235874892149
 20
-81.800000000103182
 30
0.0
  0
VERTEX
  5
C02
  8
DATA
  6
CONTINUOUS
 62
     7
 10
51.283235874892164
 20
-81.800000000103182
 30
0.0
  0
SEQEND
  5
C03
  8
DATA
  6
CONTINUOUS
 62
     7
  0
POLYLINE
  5
5D5
  8
DATA
  6
CONTINUOUS
 62
     7
 66
     1
 10
0.0
 20
0.0
 30
0.0
 70
     1
  0
VERTEX
  5
C04
  8
DATA
  6
CONTINUOUS
 62
     7
 10
63.083235874892161
 20
-75.000000000103171
 30
0.0
  0
VERTEX
  5
C05
  8
DATA
  6
CONTINUOUS
 62
     7
 10
65.083235874892168
 20
-75.000000000103171
 30
0.0
  0
VERTEX
  5
C06
  8
DATA
  6
CONTINUOUS
 62
     7
 10
65.083235874892168
 20
-81.800000000103182
 30
0.0
  0
VERTEX
  5
C07
  8
DATA
  6
CONTINUOUS
 62
     7
 10
63.083235874892161
 20
-81.800000000103182
 30
0.0
  0
SEQEND
  5
C08
  8
DATA
  6
CONTINUOUS
 62
     7
  0
POLYLINE
  5
5DC
  8
DATA
  6
CONTINUOUS
 62
     7
 66
     1
 10
0.0
 20
0.0
 30
0.0
 70
     1
  0
VERTEX
  5
C09
  8
DATA
  6
CONTINUOUS
 62
     7
 10
74.883235874892193
 20
-75.000000000103171
 30
0.0
  0
VERTEX
  5
C0A
  8
DATA
  6
CONTINUOUS
 62
     7
 10
76.883235874892193
 20
-75.000000000103171
 30
0.0
  0
VERTEX
  5
C0B
  8
DATA
  6
CONTINUOUS
 62
     7
 10
76.883235874892193
 20
-81.800000000103182
 30
0.0
  0
VERTEX
  5
C0C
  8
DATA
  6
CONTINUOUS
 62
     7
 10
74.883235874892193
 20
-81.800000000103182
 30
0.0
  0
SEQEND
  5
C0D
  8
DATA
  6
CONTINUOUS
 62
     7
  0
POLYLINE
  5
5E3
  8
DATA
  6
CONTINUOUS
 62
     7
 66
     1
 10
0.0
 20
0.0
 30
0.0
 70
     1
  0
VERTEX
  5
C0E
  8
DATA
  6
CONTINUOUS
 62
     7
 10
86.683235874892191
 20
-75.000000000103171
 30
0.0
  0
VERTEX
  5
C0F
  8
DATA
  6
CONTINUOUS
 62
     7
 10
88.683235874892205
 20
-75.000000000103171
 30
0.0
  0
VERTEX
  5
C10
  8
DATA
  6
CONTINUOUS
 62
     7
 10
88.683235874892205
 20
-81.800000000103182
 30
0.0
  0
VERTEX
  5
C11
  8
DATA
  6
CONTINUOUS
 62
     7
 10
86.683235874892191
 20
-81.800000000103182
 30
0.0
  0
SEQEND
  5
C12
  8
DATA
  6
CONTINUOUS
 62
     7
  0
POLYLINE
  5
5EA
  8
DATA
  6
CONTINUOUS
 62
     7
 66
     1
 10
0.0
 20
0.0
 30
0.0
 70
     1
  0
VERTEX
  5
C13
  8
DATA
  6
CONTINUOUS
 62
     7
 10
98.483235874892202
 20
-75.000000000103171
 30
0.0
  0
VERTEX
  5
C14
  8
DATA
  6
CONTINUOUS
 62
     7
 10
100.4832358748922
 20
-75.000000000103171
 30
0.0
  0
VERTEX
  5
C15
  8
DATA
  6
CONTINUOUS
 62
     7
 10
100.4832358748922
 20
-81.800000000103182
 30
0.0
  0
VERTEX
  5
C16
  8
DATA
  6
CONTINUOUS
 62
     7
 10
98.483235874892202
 20
-81.800000000103182
 30
0.0
  0
SEQEND
  5
C17
  8
DATA
  6
CONTINUOUS
 62
     7
  0
POLYLINE
  5
5F1
  8
DATA
  6
CONTINUOUS
 62
     7
 66
     1
 10
0.0
 20
0.0
 30
0.0
 70
     1
  0
VERTEX
  5
C18
  8
DATA
  6
CONTINUOUS
 62
     7
 10
110.2832358748922
 20
-75.000000000103171
 30
0.0
  0
VERTEX
  5
C19
  8
DATA
  6
CONTINUOUS
 62
     7
 10
112.2832358748922
 20
-75.000000000103171
 30
0.0
  0
VERTEX
  5
C1A
  8
DATA
  6
CONTINUOUS
 62
     7
 10
112.2832358748922
 20
-81.800000000103182
 30
0.0
  0
VERTEX
  5
C1B
  8
DATA
  6
CONTINUOUS
 62
     7
 10
110.2832358748922
 20
-81.800000000103182
 30
0.0
  0
SEQEND
  5
C1C
  8
DATA
  6
CONTINUOUS
 62
     7
  0
POLYLINE
  5
5F8
  8
DATA
  6
CONTINUOUS
 62
     7
 66
     1
 10
0.0
 20
0.0
 30
0.0
 70
     1
  0
VERTEX
  5
C1D
  8
DATA
  6
CONTINUOUS
 62
     7
 10
122.0832358748922
 20
-75.000000000103171
 30
0.0
  0
VERTEX
  5
C1E
  8
DATA
  6
CONTINUOUS
 62
     7
 10
124.0832358748922
 20
-75.000000000103171
 30
0.0
  0
VERTEX
  5
C1F
  8
DATA
  6
CONTINUOUS
 62
     7
 10
124.0832358748922
 20
-81.800000000103182
 30
0.0
  0
VERTEX
  5
C20
  8
DATA
  6
CONTINUOUS
 62
     7
 10
122.0832358748922
 20
-81.800000000103182
 30
0.0
  0
SEQEND
  5
C21
  8
DATA
  6
CONTINUOUS
 62
     7
  0
POLYLINE
  5
5FF
  8
DATA
  6
CONTINUOUS
 62
     7
 66
     1
 10
0.0
 20
0.0
 30
0.0
 70
     1
  0
VERTEX
  5
C22
  8
DATA
  6
CONTINUOUS
 62
     7
 10
133.88323587489219
 20
-75.000000000103171
 30
0.0
  0
VERTEX
  5
C23
  8
DATA
  6
CONTINUOUS
 62
     7
 10
135.88323587489219
 20
-75.000000000103171
 30
0.0
  0
VERTEX
  5
C24
  8
DATA
  6
CONTINUOUS
 62
     7
 10
135.88323587489219
 20
-81.800000000103182
 30
0.0
  0
VERTEX
  5
C25
  8
DATA
  6
CONTINUOUS
 62
     7
 10
133.88323587489219
 20
-81.800000000103182
 30
0.0
  0
SEQEND
  5
C26
  8
DATA
  6
CONTINUOUS
 62
     7
  0
POLYLINE
  5
606
  8
DATA
  6
CONTINUOUS
 62
     7
 66
     1
 10
0.0
 20
0.0
 30
0.0
 70
     1
  0
VERTEX
  5
C27
  8
DATA
  6
CONTINUOUS
 62
     7
 10
145.6832358748922
 20
-75.000000000103171
 30
0.0
  0
VERTEX
  5
C28
  8
DATA
  6
CONTINUOUS
 62
     7
 10
147.6832358748922
 20
-75.000000000103171
 30
0.0
  0
VERTEX
  5
C29
  8
DATA
  6
CONTINUOUS
 62
     7
 10
147.6832358748922
 20
-81.800000000103182
 30
0.0
  0
VERTEX
  5
C2A
  8
DATA
  6
CONTINUOUS
 62
     7
 10
145.6832358748922
 20
-81.800000000103182
 30
0.0
  0
SEQEND
  5
C2B
  8
DATA
  6
CONTINUOUS
 62
     7
  0
POLYLINE
  5
60D
  8
DATA
  6
CONTINUOUS
 62
     7
 66
     1
 10
0.0
 20
0.0
 30
0.0
 70
     1
  0
VERTEX
  5
C2C
  8
DATA
  6
CONTINUOUS
 62
     7
 10
157.48323587489219
 20
-75.000000000103171
 30
0.0
  0
VERTEX
  5
C2D
  8
DATA
  6
CONTINUOUS
 62
     7
 10
159.4832358748923
 20
-75.000000000103171
 30
0.0
  0
VERTEX
  5
C2E
  8
DATA
  6
CONTINUOUS
 62
     7
 10
159.4832358748923
 20
-81.800000000103182
 30
0.0
  0
VERTEX
  5
C2F
  8
DATA
  6
CONTINUOUS
 62
     7
 10
157.48323587489219
 20
-81.800000000103182
 30
0.0
  0
SEQEND
  5
C30
  8
DATA
  6
CONTINUOUS
 62
     7
  0
POLYLINE
  5
614
  8
DATA
  6
CONTINUOUS
 62
     7
 66
     1
 10
0.0
 20
0.0
 30
0.0
 70
     1
  0
VERTEX
  5
C31
  8
DATA
  6
CONTINUOUS
 62
     7
 10
169.28323587489231
 20
-75.000000000103171
 30
0.0
  0
VERTEX
  5
C32
  8
DATA
  6
CONTINUOUS
 62
     7
 10
171.28323587489231
 20
-75.000000000103171
 30
0.0
  0
VERTEX
  5
C33
  8
DATA
  6
CONTINUOUS
 62
     7
 10
171.28323587489231
 20
-81.800000000103182
 30
0.0
  0
VERTEX
  5
C34
  8
DATA
  6
CONTINUOUS
 62
     7
 10
169.28323587489231
 20
-81.800000000103182
 30
0.0
  0
SEQEND
  5
C35
  8
DATA
  6
CONTINUOUS
 62
     7
  0
POLYLINE
  5
61B
  8
DATA
  6
CONTINUOUS
 62
     7
 66
     1
 10
0.0
 20
0.0
 30
0.0
 70
     1
  0
VERTEX
  5
C36
  8
DATA
  6
CONTINUOUS
 62
     7
 10
181.0832358748923
 20
-75.000000000103171
 30
0.0
  0
VERTEX
  5
C37
  8
DATA
  6
CONTINUOUS
 62
     7
 10
183.0832358748923
 20
-75.000000000103171
 30
0.0
  0
VERTEX
  5
C38
  8
DATA
  6
CONTINUOUS
 62
     7
 10
183.0832358748923
 20
-81.800000000103182
 30
0.0
  0
VERTEX
  5
C39
  8
DATA
  6
CONTINUOUS
 62
     7
 10
181.0832358748923
 20
-81.800000000103182
 30
0.0
  0
SEQEND
  5
C3A
  8
DATA
  6
CONTINUOUS
 62
     7
  0
POLYLINE
  5
622
  8
DATA
  6
CONTINUOUS
 62
     7
 66
     1
 10
0.0
 20
0.0
 30
0.0
 70
     1
  0
VERTEX
  5
C3B
  8
DATA
  6
CONTINUOUS
 62
     7
 10
192.88323587489231
 20
-75.000000000103171
 30
0.0
  0
VERTEX
  5
C3C
  8
DATA
  6
CONTINUOUS
 62
     7
 10
194.88323587489231
 20
-75.000000000103171
 30
0.0
  0
VERTEX
  5
C3D
  8
DATA
  6
CONTINUOUS
 62
     7
 10
194.88323587489231
 20
-81.800000000103182
 30
0.0
  0
VERTEX
  5
C3E
  8
DATA
  6
CONTINUOUS
 62
     7
 10
192.88323587489231
 20
-81.800000000103182
 30
0.0
  0
SEQEND
  5
C3F
  8
DATA
  6
CONTINUOUS
 62
     7
  0
POLYLINE
  5
629
  8
DATA
  6
CONTINUOUS
 62
     7
 66
     1
 10
0.0
 20
0.0
 30
0.0
 70
     1
  0
VERTEX
  5
C40
  8
DATA
  6
CONTINUOUS
 62
     7
 10
204.68323587489229
 20
-75.000000000103171
 30
0.0
  0
VERTEX
  5
C41
  8
DATA
  6
CONTINUOUS
 62
     7
 10
206.68323587489229
 20
-75.000000000103171
 30
0.0
  0
VERTEX
  5
C42
  8
DATA
  6
CONTINUOUS
 62
     7
 10
206.68323587489229
 20
-81.800000000103182
 30
0.0
  0
VERTEX
  5
C43
  8
DATA
  6
CONTINUOUS
 62
     7
 10
204.68323587489229
 20
-81.800000000103182
 30
0.0
  0
SEQEND
  5
C44
  8
DATA
  6
CONTINUOUS
 62
     7
  0
POLYLINE
  5
630
  8
DATA
  6
CONTINUOUS
 62
     7
 66
     1
 10
0.0
 20
0.0
 30
0.0
 70
     1
  0
VERTEX
  5
C45
  8
DATA
  6
CONTINUOUS
 62
     7
 10
216.48323587489239
 20
-75.000000000103171
 30
0.0
  0
VERTEX
  5
C46
  8
DATA
  6
CONTINUOUS
 62
     7
 10
218.48323587489239
 20
-75.000000000103171
 30
0.0
  0
VERTEX
  5
C47
  8
DATA
  6
CONTINUOUS
 62
     7
 10
218.48323587489239
 20
-81.800000000103182
 30
0.0
  0
VERTEX
  5
C48
  8
DATA
  6
CONTINUOUS
 62
     7
 10
216.48323587489239
 20
-81.800000000103182
 30
0.0
  0
SEQEND
  5
C49
  8
DATA
  6
CONTINUOUS
 62
     7
  0
ARC
  5
637
  8
DATA
  6
CONTINUOUS
 62
     7
 10
349.10300576840359
 20
-204.5950894097935
 30
0.0
 40
5.9151895989233809
 50
154.1943458963473
 51
205.80565410365369
  0
LINE
  5
638
  8
DATA
  6
CONTINUOUS
 62
     7
 10
343.20488220392292
 20
-204.14608338609341
 30
0.0
 11
346.2095463599357
 21
-204.14608338609341
 31
0.0
  0
LINE
  5
639
  8
DATA
  6
CONTINUOUS
 62
     7
 10
343.20488220392292
 20
-205.04409543349371
 30
0.0
 11
346.2095463599357
 21
-205.04409543349371
 31
0.0
  0
LINE
  5
63A
  8
DATA
  6
CONTINUOUS
 62
     7
 10
346.2095463599357
 20
-204.14608338609341
 30
0.0
 11
346.2095463599357
 21
-205.04608338609339
 31
0.0
  0
LINE
  5
63B
  8
DATA
  6
CONTINUOUS
 62
     7
 10
343.77770361817659
 20
-202.0200894097936
 30
0.0
 11
346.18781616948041
 21
-202.0200894097936
 31
0.0
  0
LINE
  5
63C
  8
DATA
  6
CONTINUOUS
 62
     7
 10
343.77770361817659
 20
-207.1700894097936
 30
0.0
 11
346.18781616948041
 21
-207.1700894097936
 31
0.0
  0
LINE
  5
63D
  8
DATA
  6
CONTINUOUS
 62
     7
 10
346.18781616948041
 20
-202.0200894097936
 30
0.0
 11
350.00513633572092
 21
-202.0200894097936
 31
0.0
  0
LINE
  5
63E
  8
DATA
  6
CONTINUOUS
 62
     7
 10
346.18781616948041
 20
-207.1700894097936
 30
0.0
 11
350.00513633572092
 21
-207.1700894097936
 31
0.0
  0
LINE
  5
63F
  8
DATA
  6
CONTINUOUS
 62
     7
 10
350.00513633572092
 20
-202.0200894097936
 30
0.0
 11
350.00513633572092
 21
-207.1700894097936
 31
0.0
  0
LINE
  5
640
  8
DATA
  6
CONTINUOUS
 62
     7
 10
344.99902125459869
 20
-201.23493388877651
 30
0.0
 11
344.99902125459869
 21
-198.17243298113519
 31
0.0
  0
LINE
  5
641
  8
DATA
  6
CONTINUOUS
 62
     7
 10
343.42025999275842
 20
-202.09953424759311
 30
0.0
 11
333.49902125459852
 21
-202.62727951675959
 31
0.0
  0
LINE
  5
642
  8
DATA
  6
CONTINUOUS
 62
     7
 10
348.49902125459869
 20
-199.79954081726811
 30
0.0
 11
348.49902125459869
 21
-201.23493388877651
 31
0.0
  0
LINE
  5
643
  8
DATA
  6
CONTINUOUS
 62
     7
 10
346.4999999998505
 20
-217.4230727976622
 30
0.0
 11
346.4999999998505
 21
-212.49968513098929
 31
0.0
  0
LINE
  5
644
  8
DATA
  6
CONTINUOUS
 62
     7
 10
348.49902125459869
 20
-201.23493388877651
 30
0.0
 11
348.49902125459869
 21
-202.0200894097936
 31
0.0
  0
LINE
  5
645
  8
DATA
  6
CONTINUOUS
 62
     7
 10
344.99902125459869
 20
-201.23493388877651
 30
0.0
 11
344.99902125459869
 21
-202.0200894097936
 31
0.0
  0
LINE
  5
646
  8
DATA
  6
CONTINUOUS
 62
     7
 10
348.49902125459869
 20
-208.92727951675971
 30
0.0
 11
348.49902125459869
 21
-207.1700894097936
 31
0.0
  0
LINE
  5
647
  8
DATA
  6
CONTINUOUS
 62
     7
 10
345.00746380323278
 20
-207.1700894097936
 30
0.0
 11
345.00746380323278
 21
-210.85985318608991
 31
0.0
  0
LINE
  5
648
  8
DATA
  6
CONTINUOUS
 62
     7
 10
333.49902125459852
 20
-206.42727951675971
 30
0.0
 11
343.70112577633199
 21
-206.94916144595609
 31
0.0
  0
LINE
  5
649
  8
DATA
  6
CONTINUOUS
 62
     7
 10
348.49902125459869
 20
-208.92727951675971
 30
0.0
 11
348.49902125459869
 21
-211.22262922799229
 31
0.0
  0
LINE
  5
64A
  8
DATA
  6
CONTINUOUS
 62
     7
 10
346.4999999998505
 20
-212.49968513098929
 30
0.0
 11
346.99999999985062
 21
-212.49968513098929
 31
0.0
  0
LINE
  5
64B
  8
DATA
  6
CONTINUOUS
 62
     7
 10
345.99999999985062
 20
-212.87307279766219
 30
0.0
 11
346.4999999998505
 21
-212.87307279766219
 31
0.0
  0
LINE
  5
64C
  8
DATA
  6
CONTINUOUS
 62
     7
 10
345.47840767151462
 20
-211.45870555573941
 30
0.0
 11
345.47840767151462
 21
-214.45870555573941
 31
0.0
  0
ARC
  5
64D
  8
DATA
  6
CONTINUOUS
 62
     7
 10
345.97840767151462
 20
-214.45870555573941
 30
0.0
 40
0.5
 50
180.0
 51
270.0
  0
LINE
  5
64E
  8
DATA
  6
CONTINUOUS
 62
     7
 10
349.99999999985062
 20
-210.10870555573931
 30
0.0
 11
348.49902125459869
 21
-210.10870555573931
 31
0.0
  0
LINE
  5
64F
  8
DATA
  6
CONTINUOUS
 62
     7
 10
345.47840767151462
 20
-211.45870555573941
 30
0.0
 11
345.47840767151462
 21
-210.96371949229939
 31
0.0
  0
LINE
  5
650
  8
DATA
  6
CONTINUOUS
 62
     7
 10
345.99999999985062
 20
-212.87307279766219
 30
0.0
 11
345.99999999985062
 21
-211.00842740615681
 31
0.0
  0
POLYLINE
  5
651
  8
DATA
  6
CONTINUOUS
 62
     7
 66
     1
 10
0.0
 20
0.0
 30
0.0
 70
   129
  0
VERTEX
  5
C4A
  8
DATA
  6
CONTINUOUS
 62
     7
 10
-83.028342236452175
 20
210.41556430986449
 30
0.0
 42
-0.4142135623730951
  0
VERTEX
  5
C4B
  8
DATA
  6
CONTINUOUS
 62
     7
 10
-86.028342236452175
 20
207.41556430986449
 30
0.0
  0
VERTEX
  5
C4C
  8
DATA
  6
CONTINUOUS
 62
     7
 10
-188.0283422364522
 20
207.41556430986449
 30
0.0
 42
-0.4142135623730951
  0
VERTEX
  5
C4D
  8
DATA
  6
CONTINUOUS
 62
     7
 10
-191.02834223645209
 20
210.41556430986449
 30
0.0
  0
VERTEX
  5
C4E
  8
DATA
  6
CONTINUOUS
 62
     7
 10
-191.02834223645209
 20
238.41556430986449
 30
0.0
 42
-0.4142135623730951
  0
VERTEX
  5
C4F
  8
DATA
  6
CONTINUOUS
 62
     7
 10
-188.0283422364522
 20
241.41556430986449
 30
0.0
  0
VERTEX
  5
C50
  8
DATA
  6
CONTINUOUS
 62
     7
 10
-86.028342236452175
 20
241.41556430986449
 30
0.0
 42
-0.4142135623730925
  0
VERTEX
  5
C51
  8
DATA
  6
CONTINUOUS
 62
     7
 10
-83.028342236452175
 20
238.41556430986449
 30
0.0
  0
SEQEND
  5
C52
  8
DATA
  6
CONTINUOUS
 62
     7
  0
CIRCLE
  5
65B
  8
DATA
  6
CONTINUOUS
 62
     7
 10
-125.0283422364521
 20
231.41556430986441
 30
0.0
 40
4.5
  0
CIRCLE
  5
65C
  8
DATA
  6
CONTINUOUS
 62
     7
 10
-150.0283422364522
 20
231.41556430986441
 30
0.0
 40
4.5
  0
CIRCLE
  5
65D
  8
DATA
  6
CONTINUOUS
 62
     7
 10
-125.0283422364521
 20
231.41556430986441
 30
0.0
 40
3.125
  0
CIRCLE
  5
65E
  8
DATA
  6
CONTINUOUS
 62
     7
 10
-150.0283422364522
 20
231.41556430986441
 30
0.0
 40
3.125
  0
TEXT
  5
65F
  8
DATA
 62
     7
 10
-116.9018617023133
 20
220.0106329011291
 30
0.0
 40
2.30859375
  1
  OUTPUT
 50
180.0
 41
0.7
 11
-116.9018617023133
 21
217.7020391511291
 31
0.0
 73
     3
  0
TEXT
  5
660
  8
DATA
 62
     7
 10
-145.65059805985771
 20
220.04134152638039
 30
0.0
 40
2.30859375
  1
 INPUT
 50
180.0
 41
0.7
 11
-145.65059805985771
 21
217.73274777638039
 31
0.0
 73
     3
  0
LINE
  5
661
  8
DATA
  6
CONTINUOUS
 62
     7
 10
-104.2105904255843
 20
210.6155643098646
 30
0.0
 11
-113.090176995204
 21
210.6155643098646
 31
0.0
  0
LINE
  5
662
  8
DATA
  6
CONTINUOUS
 62
     7
 10
-113.090176995204
 20
218.85432401872359
 30
0.0
 11
-118.2105904255843
 21
218.85432401872359
 31
0.0
  0
LINE
  5
663
  8
DATA
  6
CONTINUOUS
 62
     7
 10
-113.090176995204
 20
210.6155643098646
 30
0.0
 11
-113.090176995204
 21
218.85432401872359
 31
0.0
  0
LINE
  5
664
  8
DATA
  6
CONTINUOUS
 62
     7
 10
-169.84609404732009
 20
210.6155643098646
 30
0.0
 11
-160.9665074777003
 21
210.6155643098646
 31
0.0
  0
LINE
  5
665
  8
DATA
  6
CONTINUOUS
 62
     7
 10
-160.9665074777003
 20
218.85432401872359
 30
0.0
 11
-155.84609404732009
 21
218.85432401872359
 31
0.0
  0
LINE
  5
666
  8
DATA
  6
CONTINUOUS
 62
     7
 10
-160.9665074777003
 20
210.6155643098646
 30
0.0
 11
-160.9665074777003
 21
218.85432401872359
 31
0.0
  0
LINE
  5
667
  8
DATA
  6
CONTINUOUS
 62
     7
 10
-78.505419805986094
 20
229.0498651800601
 30
0.0
 11
-78.505419805986094
 21
228.24986518006011
 31
0.0
  0
LINE
  5
668
  8
DATA
  6
CONTINUOUS
 62
     7
 10
-78.022601781681473
 20
229.0498651800601
 30
0.0
 11
-77.468345523259373
 21
230.0098651800601
 31
0.0
  0
LINE
  5
669
  8
DATA
  6
CONTINUOUS
 62
     7
 10
-78.522601781681473
 20
229.0498651800601
 30
0.0
 11
-77.968345523259373
 21
230.0098651800601
 31
0.0
  0
LINE
  5
66A
  8
DATA
  6
CONTINUOUS
 62
     7
 10
-79.022601781681473
 20
229.0498651800601
 30
0.0
 11
-78.468345523259373
 21
230.0098651800601
 31
0.0
  0
LINE
  5
66B
  8
DATA
  6
CONTINUOUS
 62
     7
 10
-79.335419805986191
 20
229.0498651800601
 30
0.0
 11
-77.675419805986138
 21
229.0498651800601
 31
0.0
  0
LINE
  5
66C
  8
DATA
  6
CONTINUOUS
 62
     7
 10
-80.125074434216657
 20
221.20036683587679
 30
0.0
 11
-80.125074434216657
 21
220.40036683587681
 31
0.0
  0
LINE
  5
66D
  8
DATA
  6
CONTINUOUS
 62
     7
 10
-79.642256409912008
 20
221.20036683587679
 30
0.0
 11
-79.088000151489936
 21
222.16036683587669
 31
0.0
  0
LINE
  5
66E
  8
DATA
  6
CONTINUOUS
 62
     7
 10
-80.142256409912008
 20
221.20036683587679
 30
0.0
 11
-79.588000151489936
 21
222.16036683587669
 31
0.0
  0
LINE
  5
66F
  8
DATA
  6
CONTINUOUS
 62
     7
 10
-80.642256409912008
 20
221.20036683587679
 30
0.0
 11
-80.088000151489936
 21
222.16036683587669
 31
0.0
  0
LINE
  5
670
  8
DATA
  6
CONTINUOUS
 62
     7
 10
-80.955074434216698
 20
221.20036683587679
 30
0.0
 11
-79.295074434216673
 21
221.20036683587679
 31
0.0
  0
ARC
  5
671
  8
DATA
  6
CONTINUOUS
 62
     7
 10
368.95850567981921
 20
-195.36811446561069
 30
0.0
 40
0.75
 50
0.0
 51
180.0
  0
ARC
  5
672
  8
DATA
  6
CONTINUOUS
 62
     7
 10
368.95850567981921
 20
-209.76811446561069
 30
0.0
 40
0.75
 50
180.0
 51
0.0
  0
LINE
  5
673
  8
DATA
  6
CONTINUOUS
 62
     7
 10
368.20850567981921
 20
-209.76811446561069
 30
0.0
 11
368.20850567981921
 21
-195.36811446561069
 31
0.0
  0
LINE
  5
674
  8
DATA
  6
CONTINUOUS
 62
     7
 10
369.70850567981921
 20
-195.36811446561069
 30
0.0
 11
369.70850567981921
 21
-209.76811446561069
 31
0.0
  0
ARC
  5
675
  8
DATA
  6
CONTINUOUS
 62
     7
 10
373.95850567981921
 20
-195.36811446561069
 30
0.0
 40
0.75
 50
0.0
 51
180.0
  0
ARC
  5
676
  8
DATA
  6
CONTINUOUS
 62
     7
 10
373.95850567981921
 20
-209.76811446561069
 30
0.0
 40
0.75
 50
180.0
 51
0.0
  0
LINE
  5
677
  8
DATA
  6
CONTINUOUS
 62
     7
 10
373.20850567981921
 20
-209.76811446561069
 30
0.0
 11
373.20850567981921
 21
-195.36811446561069
 31
0.0
  0
LINE
  5
678
  8
DATA
  6
CONTINUOUS
 62
     7
 10
374.70850567981921
 20
-195.36811446561069
 30
0.0
 11
374.70850567981921
 21
-209.76811446561069
 31
0.0
  0
ARC
  5
679
  8
DATA
  6
CONTINUOUS
 62
     7
 10
378.95850567981921
 20
-195.36811446561069
 30
0.0
 40
0.75
 50
0.0
 51
180.0
  0
ARC
  5
67A
  8
DATA
  6
CONTINUOUS
 62
     7
 10
378.95850567981921
 20
-209.76811446561069
 30
0.0
 40
0.75
 50
180.0
 51
0.0
  0
LINE
  5
67B
  8
DATA
  6
CONTINUOUS
 62
     7
 10
378.20850567981921
 20
-209.76811446561069
 30
0.0
 11
378.20850567981921
 21
-195.36811446561069
 31
0.0
  0
LINE
  5
67C
  8
DATA
  6
CONTINUOUS
 62
     7
 10
379.70850567981921
 20
-195.36811446561069
 30
0.0
 11
379.70850567981921
 21
-209.76811446561069
 31
0.0
  0
ARC
  5
67D
  8
DATA
  6
CONTINUOUS
 62
     7
 10
383.95850567981921
 20
-195.36811446561069
 30
0.0
 40
0.75
 50
0.0
 51
180.0
  0
ARC
  5
67E
  8
DATA
  6
CONTINUOUS
 62
     7
 10
383.95850567981921
 20
-209.76811446561069
 30
0.0
 40
0.75
 50
180.0
 51
0.0
  0
LINE
  5
67F
  8
DATA
  6
CONTINUOUS
 62
     7
 10
383.20850567981921
 20
-209.76811446561069
 30
0.0
 11
383.20850567981921
 21
-195.36811446561069
 31
0.0
  0
LINE
  5
680
  8
DATA
  6
CONTINUOUS
 62
     7
 10
384.70850567981921
 20
-195.36811446561069
 30
0.0
 11
384.70850567981921
 21
-209.76811446561069
 31
0.0
  0
ARC
  5
681
  8
DATA
  6
CONTINUOUS
 62
     7
 10
388.95850567981921
 20
-195.36811446561069
 30
0.0
 40
0.75
 50
0.0
 51
180.0
  0
ARC
  5
682
  8
DATA
  6
CONTINUOUS
 62
     7
 10
388.95850567981921
 20
-209.76811446561069
 30
0.0
 40
0.75
 50
180.0
 51
0.0
  0
LINE
  5
683
  8
DATA
  6
CONTINUOUS
 62
     7
 10
388.20850567981921
 20
-209.76811446561069
 30
0.0
 11
388.20850567981921
 21
-195.36811446561069
 31
0.0
  0
LINE
  5
684
  8
DATA
  6
CONTINUOUS
 62
     7
 10
389.70850567981921
 20
-195.36811446561069
 30
0.0
 11
389.70850567981921
 21
-209.76811446561069
 31
0.0
  0
ARC
  5
685
  8
DATA
  6
CONTINUOUS
 62
     7
 10
393.95850567981921
 20
-195.36811446561069
 30
0.0
 40
0.75
 50
0.0
 51
180.0
  0
ARC
  5
686
  8
DATA
  6
CONTINUOUS
 62
     7
 10
393.95850567981921
 20
-209.76811446561069
 30
0.0
 40
0.75
 50
180.0
 51
0.0
  0
LINE
  5
687
  8
DATA
  6
CONTINUOUS
 62
     7
 10
393.20850567981921
 20
-209.76811446561069
 30
0.0
 11
393.20850567981921
 21
-195.36811446561069
 31
0.0
  0
LINE
  5
688
  8
DATA
  6
CONTINUOUS
 62
     7
 10
394.70850567981921
 20
-195.36811446561069
 30
0.0
 11
394.70850567981921
 21
-209.76811446561069
 31
0.0
  0
ARC
  5
689
  8
DATA
  6
CONTINUOUS
 62
     7
 10
398.95850567981921
 20
-195.36811446561069
 30
0.0
 40
0.75
 50
0.0
 51
180.0
  0
ARC
  5
68A
  8
DATA
  6
CONTINUOUS
 62
     7
 10
398.95850567981921
 20
-209.76811446561069
 30
0.0
 40
0.75
 50
180.0
 51
0.0
  0
LINE
  5
68B
  8
DATA
  6
CONTINUOUS
 62
     7
 10
398.20850567981921
 20
-209.76811446561069
 30
0.0
 11
398.20850567981921
 21
-195.36811446561069
 31
0.0
  0
LINE
  5
68C
  8
DATA
  6
CONTINUOUS
 62
     7
 10
399.70850567981921
 20
-195.36811446561069
 30
0.0
 11
399.70850567981921
 21
-209.76811446561069
 31
0.0
  0
ARC
  5
68D
  8
DATA
  6
CONTINUOUS
 62
     7
 10
403.95850567981921
 20
-195.36811446561069
 30
0.0
 40
0.75
 50
0.0
 51
180.0
  0
ARC
  5
68E
  8
DATA
  6
CONTINUOUS
 62
     7
 10
403.95850567981921
 20
-209.76811446561069
 30
0.0
 40
0.75
 50
180.0
 51
0.0
  0
LINE
  5
68F
  8
DATA
  6
CONTINUOUS
 62
     7
 10
403.20850567981921
 20
-209.76811446561069
 30
0.0
 11
403.20850567981921
 21
-195.36811446561069
 31
0.0
  0
LINE
  5
690
  8
DATA
  6
CONTINUOUS
 62
     7
 10
404.7085056798191
 20
-195.36811446561069
 30
0.0
 11
404.7085056798191
 21
-209.76811446561069
 31
0.0
  0
ARC
  5
691
  8
DATA
  6
CONTINUOUS
 62
     7
 10
408.95850567981921
 20
-195.36811446561069
 30
0.0
 40
0.75
 50
0.0
 51
180.0
  0
ARC
  5
692
  8
DATA
  6
CONTINUOUS
 62
     7
 10
408.95850567981921
 20
-209.76811446561069
 30
0.0
 40
0.75
 50
180.0
 51
0.0
  0
LINE
  5
693
  8
DATA
  6
CONTINUOUS
 62
     7
 10
408.20850567981921
 20
-209.76811446561069
 30
0.0
 11
408.20850567981921
 21
-195.36811446561069
 31
0.0
  0
LINE
  5
694
  8
DATA
  6
CONTINUOUS
 62
     7
 10
409.70850567981893
 20
-195.36811446561069
 30
0.0
 11
409.70850567981893
 21
-209.76811446561069
 31
0.0
  0
ARC
  5
695
  8
DATA
  6
CONTINUOUS
 62
     7
 10
413.95850567981921
 20
-195.36811446561069
 30
0.0
 40
0.75
 50
0.0
 51
180.0
  0
ARC
  5
696
  8
DATA
  6
CONTINUOUS
 62
     7
 10
413.95850567981921
 20
-209.76811446561069
 30
0.0
 40
0.75
 50
180.0
 51
0.0
  0
LINE
  5
697
  8
DATA
  6
CONTINUOUS
 62
     7
 10
413.2085056798191
 20
-209.76811446561069
 30
0.0
 11
413.2085056798191
 21
-195.36811446561069
 31
0.0
  0
LINE
  5
698
  8
DATA
  6
CONTINUOUS
 62
     7
 10
414.70850567981921
 20
-195.36811446561069
 30
0.0
 11
414.70850567981921
 21
-209.76811446561069
 31
0.0
  0
ARC
  5
699
  8
DATA
  6
CONTINUOUS
 62
     7
 10
418.95850567981921
 20
-195.36811446561069
 30
0.0
 40
0.75
 50
0.0
 51
180.0
  0
ARC
  5
69A
  8
DATA
  6
CONTINUOUS
 62
     7
 10
418.95850567981921
 20
-209.76811446561069
 30
0.0
 40
0.75
 50
180.0
 51
0.0
  0
LINE
  5
69B
  8
DATA
  6
CONTINUOUS
 62
     7
 10
418.20850567981893
 20
-209.76811446561069
 30
0.0
 11
418.20850567981893
 21
-195.36811446561069
 31
0.0
  0
LINE
  5
69C
  8
DATA
  6
CONTINUOUS
 62
     7
 10
419.70850567981921
 20
-195.36811446561069
 30
0.0
 11
419.70850567981921
 21
-209.76811446561069
 31
0.0
  0
ARC
  5
69D
  8
DATA
  6
CONTINUOUS
 62
     7
 10
423.95850567981893
 20
-195.36811446561069
 30
0.0
 40
0.75
 50
0.0
 51
180.0
  0
ARC
  5
69E
  8
DATA
  6
CONTINUOUS
 62
     7
 10
423.95850567981893
 20
-209.76811446561069
 30
0.0
 40
0.75
 50
180.0
 51
0.0
  0
LINE
  5
69F
  8
DATA
  6
CONTINUOUS
 62
     7
 10
423.20850567981921
 20
-209.76811446561069
 30
0.0
 11
423.20850567981921
 21
-195.36811446561069
 31
0.0
  0
LINE
  5
6A0
  8
DATA
  6
CONTINUOUS
 62
     7
 10
424.70850567981921
 20
-195.36811446561069
 30
0.0
 11
424.70850567981921
 21
-209.76811446561069
 31
0.0
  0
ARC
  5
6A1
  8
DATA
  6
CONTINUOUS
 62
     7
 10
428.95850567981921
 20
-195.36811446561069
 30
0.0
 40
0.75
 50
0.0
 51
180.0
  0
ARC
  5
6A2
  8
DATA
  6
CONTINUOUS
 62
     7
 10
428.95850567981921
 20
-209.76811446561069
 30
0.0
 40
0.75
 50
180.0
 51
0.0
  0
LINE
  5
6A3
  8
DATA
  6
CONTINUOUS
 62
     7
 10
428.20850567981921
 20
-209.76811446561069
 30
0.0
 11
428.20850567981921
 21
-195.36811446561069
 31
0.0
  0
LINE
  5
6A4
  8
DATA
  6
CONTINUOUS
 62
     7
 10
429.7085056798191
 20
-195.36811446561069
 30
0.0
 11
429.7085056798191
 21
-209.76811446561069
 31
0.0
  0
ARC
  5
6A5
  8
DATA
  6
CONTINUOUS
 62
     7
 10
433.95850567981921
 20
-195.36811446561069
 30
0.0
 40
0.75
 50
0.0
 51
180.0
  0
ARC
  5
6A6
  8
DATA
  6
CONTINUOUS
 62
     7
 10
433.95850567981921
 20
-209.76811446561069
 30
0.0
 40
0.75
 50
180.0
 51
0.0
  0
LINE
  5
6A7
  8
DATA
  6
CONTINUOUS
 62
     7
 10
433.20850567981921
 20
-209.76811446561069
 30
0.0
 11
433.20850567981921
 21
-195.36811446561069
 31
0.0
  0
LINE
  5
6A8
  8
DATA
  6
CONTINUOUS
 62
     7
 10
434.70850567981893
 20
-195.36811446561069
 30
0.0
 11
434.70850567981893
 21
-209.76811446561069
 31
0.0
  0
ARC
  5
6A9
  8
DATA
  6
CONTINUOUS
 62
     7
 10
438.95850567981921
 20
-195.36811446561069
 30
0.0
 40
0.75
 50
0.0
 51
180.0
  0
ARC
  5
6AA
  8
DATA
  6
CONTINUOUS
 62
     7
 10
438.95850567981921
 20
-209.76811446561069
 30
0.0
 40
0.75
 50
180.0
 51
0.0
  0
LINE
  5
6AB
  8
DATA
  6
CONTINUOUS
 62
     7
 10
438.2085056798191
 20
-209.76811446561069
 30
0.0
 11
438.2085056798191
 21
-195.36811446561069
 31
0.0
  0
LINE
  5
6AC
  8
DATA
  6
CONTINUOUS
 62
     7
 10
439.70850567981921
 20
-195.36811446561069
 30
0.0
 11
439.70850567981921
 21
-209.76811446561069
 31
0.0
  0
ARC
  5
6AD
  8
DATA
  6
CONTINUOUS
 62
     7
 10
443.95850567981921
 20
-195.36811446561069
 30
0.0
 40
0.75
 50
0.0
 51
180.0
  0
ARC
  5
6AE
  8
DATA
  6
CONTINUOUS
 62
     7
 10
443.95850567981921
 20
-209.76811446561069
 30
0.0
 40
0.75
 50
180.0
 51
0.0
  0
LINE
  5
6AF
  8
DATA
  6
CONTINUOUS
 62
     7
 10
443.20850567981921
 20
-209.76811446561069
 30
0.0
 11
443.20850567981921
 21
-195.36811446561069
 31
0.0
  0
LINE
  5
6B0
  8
DATA
  6
CONTINUOUS
 62
     7
 10
444.70850567981921
 20
-195.36811446561069
 30
0.0
 11
444.70850567981921
 21
-209.76811446561069
 31
0.0
  0
ARC
  5
6B1
  8
DATA
  6
CONTINUOUS
 62
     7
 10
448.95850567981893
 20
-195.36811446561069
 30
0.0
 40
0.75
 50
0.0
 51
180.0
  0
ARC
  5
6B2
  8
DATA
  6
CONTINUOUS
 62
     7
 10
448.95850567981893
 20
-209.76811446561069
 30
0.0
 40
0.75
 50
180.0
 51
0.0
  0
LINE
  5
6B3
  8
DATA
  6
CONTINUOUS
 62
     7
 10
448.20850567981921
 20
-209.76811446561069
 30
0.0
 11
448.20850567981921
 21
-195.36811446561069
 31
0.0
  0
LINE
  5
6B4
  8
DATA
  6
CONTINUOUS
 62
     7
 10
449.70850567981921
 20
-195.36811446561069
 30
0.0
 11
449.70850567981921
 21
-209.76811446561069
 31
0.0
  0
ARC
  5
6B5
  8
DATA
  6
CONTINUOUS
 62
     7
 10
453.95850567981921
 20
-195.36811446561069
 30
0.0
 40
0.75
 50
0.0
 51
180.0
  0
ARC
  5
6B6
  8
DATA
  6
CONTINUOUS
 62
     7
 10
453.95850567981921
 20
-209.76811446561069
 30
0.0
 40
0.75
 50
180.0
 51
0.0
  0
LINE
  5
6B7
  8
DATA
  6
CONTINUOUS
 62
     7
 10
453.20850567981921
 20
-209.76811446561069
 30
0.0
 11
453.20850567981921
 21
-195.36811446561069
 31
0.0
  0
LINE
  5
6B8
  8
DATA
  6
CONTINUOUS
 62
     7
 10
454.7085056798191
 20
-195.36811446561069
 30
0.0
 11
454.7085056798191
 21
-209.76811446561069
 31
0.0
  0
ARC
  5
6B9
  8
DATA
  6
CONTINUOUS
 62
     7
 10
458.95850567981921
 20
-195.36811446561069
 30
0.0
 40
0.75
 50
0.0
 51
180.0
  0
ARC
  5
6BA
  8
DATA
  6
CONTINUOUS
 62
     7
 10
458.95850567981921
 20
-209.76811446561069
 30
0.0
 40
0.75
 50
180.0
 51
0.0
  0
LINE
  5
6BB
  8
DATA
  6
CONTINUOUS
 62
     7
 10
458.20850567981921
 20
-209.76811446561069
 30
0.0
 11
458.20850567981921
 21
-195.36811446561069
 31
0.0
  0
LINE
  5
6BC
  8
DATA
  6
CONTINUOUS
 62
     7
 10
459.70850567981893
 20
-195.36811446561069
 30
0.0
 11
459.70850567981893
 21
-209.76811446561069
 31
0.0
  0
ARC
  5
6BD
  8
DATA
  6
CONTINUOUS
 62
     7
 10
463.95850567981921
 20
-195.36811446561069
 30
0.0
 40
0.75
 50
0.0
 51
180.0
  0
ARC
  5
6BE
  8
DATA
  6
CONTINUOUS
 62
     7
 10
463.95850567981921
 20
-209.76811446561069
 30
0.0
 40
0.75
 50
180.0
 51
0.0
  0
LINE
  5
6BF
  8
DATA
  6
CONTINUOUS
 62
     7
 10
463.2085056798191
 20
-209.76811446561069
 30
0.0
 11
463.2085056798191
 21
-195.36811446561069
 31
0.0
  0
LINE
  5
6C0
  8
DATA
  6
CONTINUOUS
 62
     7
 10
464.70850567981921
 20
-195.36811446561069
 30
0.0
 11
464.70850567981921
 21
-209.76811446561069
 31
0.0
  0
ARC
  5
6C1
  8
DATA
  6
CONTINUOUS
 62
     7
 10
229.23961287113971
 20
-56.034446590700632
 30
0.0
 40
0.75
 50
270.0
 51
90.0
  0
ARC
  5
6C2
  8
DATA
  6
CONTINUOUS
 62
     7
 10
214.83961287113971
 20
-56.034446590700632
 30
0.0
 40
0.75
 50
90.0
 51
270.0
  0
LINE
  5
6C3
  8
DATA
  6
CONTINUOUS
 62
     7
 10
214.83961287113971
 20
-55.284446590700632
 30
0.0
 11
229.23961287113971
 21
-55.284446590700632
 31
0.0
  0
LINE
  5
6C4
  8
DATA
  6
CONTINUOUS
 62
     7
 10
229.23961287113971
 20
-56.784446590700647
 30
0.0
 11
214.83961287113971
 21
-56.784446590700647
 31
0.0
  0
ARC
  5
6C5
  8
DATA
  6
CONTINUOUS
 62
     7
 10
229.23961287113971
 20
-51.034446590700632
 30
0.0
 40
0.75
 50
270.0
 51
90.0
  0
ARC
  5
6C6
  8
DATA
  6
CONTINUOUS
 62
     7
 10
214.83961287113971
 20
-51.034446590700632
 30
0.0
 40
0.75
 50
90.0
 51
270.0
  0
LINE
  5
6C7
  8
DATA
  6
CONTINUOUS
 62
     7
 10
214.83961287113971
 20
-50.284446590700632
 30
0.0
 11
229.23961287113971
 21
-50.284446590700632
 31
0.0
  0
LINE
  5
6C8
  8
DATA
  6
CONTINUOUS
 62
     7
 10
229.23961287113971
 20
-51.784446590700647
 30
0.0
 11
214.83961287113971
 21
-51.784446590700647
 31
0.0
  0
ARC
  5
6C9
  8
DATA
  6
CONTINUOUS
 62
     7
 10
229.23961287113971
 20
-46.034446590700632
 30
0.0
 40
0.75
 50
270.0
 51
90.0
  0
ARC
  5
6CA
  8
DATA
  6
CONTINUOUS
 62
     7
 10
214.83961287113971
 20
-46.034446590700632
 30
0.0
 40
0.75
 50
90.0
 51
270.0
  0
LINE
  5
6CB
  8
DATA
  6
CONTINUOUS
 62
     7
 10
214.83961287113971
 20
-45.284446590700632
 30
0.0
 11
229.23961287113971
 21
-45.284446590700632
 31
0.0
  0
LINE
  5
6CC
  8
DATA
  6
CONTINUOUS
 62
     7
 10
229.23961287113971
 20
-46.784446590700647
 30
0.0
 11
214.83961287113971
 21
-46.784446590700647
 31
0.0
  0
ARC
  5
6CD
  8
DATA
  6
CONTINUOUS
 62
     7
 10
229.23961287113971
 20
-41.034446590700647
 30
0.0
 40
0.75
 50
270.0
 51
90.0
  0
ARC
  5
6CE
  8
DATA
  6
CONTINUOUS
 62
     7
 10
214.83961287113971
 20
-41.034446590700647
 30
0.0
 40
0.7499999999999716
 50
90.0
 51
270.0
  0
LINE
  5
6CF
  8
DATA
  6
CONTINUOUS
 62
     7
 10
214.83961287113971
 20
-40.284446590700689
 30
0.0
 11
229.23961287113971
 21
-40.284446590700689
 31
0.0
  0
LINE
  5
6D0
  8
DATA
  6
CONTINUOUS
 62
     7
 10
229.23961287113971
 20
-41.784446590700647
 30
0.0
 11
214.83961287113971
 21
-41.784446590700647
 31
0.0
  0
ARC
  5
6D1
  8
DATA
  6
CONTINUOUS
 62
     7
 10
229.23961287113971
 20
-36.034446590700711
 30
0.0
 40
0.75
 50
270.0
 51
90.0
  0
ARC
  5
6D2
  8
DATA
  6
CONTINUOUS
 62
     7
 10
214.83961287113971
 20
-36.034446590700711
 30
0.0
 40
0.75
 50
90.0
 51
270.0
  0
LINE
  5
6D3
  8
DATA
  6
CONTINUOUS
 62
     7
 10
214.83961287113971
 20
-35.284446590700703
 30
0.0
 11
229.23961287113971
 21
-35.284446590700703
 31
0.0
  0
LINE
  5
6D4
  8
DATA
  6
CONTINUOUS
 62
     7
 10
229.23961287113971
 20
-36.784446590700703
 30
0.0
 11
214.83961287113971
 21
-36.784446590700703
 31
0.0
  0
ARC
  5
6D5
  8
DATA
  6
CONTINUOUS
 62
     7
 10
229.23961287113971
 20
-31.034446590700689
 30
0.0
 40
0.75
 50
270.0
 51
90.0
  0
ARC
  5
6D6
  8
DATA
  6
CONTINUOUS
 62
     7
 10
214.83961287113971
 20
-31.034446590700689
 30
0.0
 40
0.75
 50
90.0
 51
270.0
  0
LINE
  5
6D7
  8
DATA
  6
CONTINUOUS
 62
     7
 10
214.83961287113971
 20
-30.284446590700689
 30
0.0
 11
229.23961287113971
 21
-30.284446590700689
 31
0.0
  0
LINE
  5
6D8
  8
DATA
  6
CONTINUOUS
 62
     7
 10
229.23961287113971
 20
-31.784446590700689
 30
0.0
 11
214.83961287113971
 21
-31.784446590700689
 31
0.0
  0
ARC
  5
6D9
  8
DATA
  6
CONTINUOUS
 62
     7
 10
229.23961287113971
 20
-26.034446590700689
 30
0.0
 40
0.75
 50
270.0
 51
90.0
  0
ARC
  5
6DA
  8
DATA
  6
CONTINUOUS
 62
     7
 10
214.83961287113971
 20
-26.034446590700689
 30
0.0
 40
0.75
 50
90.0
 51
270.0
  0
LINE
  5
6DB
  8
DATA
  6
CONTINUOUS
 62
     7
 10
214.83961287113971
 20
-25.284446590700689
 30
0.0
 11
229.23961287113971
 21
-25.284446590700689
 31
0.0
  0
LINE
  5
6DC
  8
DATA
  6
CONTINUOUS
 62
     7
 10
229.23961287113971
 20
-26.784446590700689
 30
0.0
 11
214.83961287113971
 21
-26.784446590700689
 31
0.0
  0
ARC
  5
6DD
  8
DATA
  6
CONTINUOUS
 62
     7
 10
229.23961287113971
 20
-21.0344465907007
 30
0.0
 40
0.75
 50
270.0
 51
90.0
  0
ARC
  5
6DE
  8
DATA
  6
CONTINUOUS
 62
     7
 10
214.83961287113971
 20
-21.0344465907007
 30
0.0
 40
0.75
 50
90.0
 51
270.0
  0
LINE
  5
6DF
  8
DATA
  6
CONTINUOUS
 62
     7
 10
214.83961287113971
 20
-20.284446590700689
 30
0.0
 11
229.23961287113971
 21
-20.284446590700689
 31
0.0
  0
LINE
  5
6E0
  8
DATA
  6
CONTINUOUS
 62
     7
 10
229.23961287113971
 20
-21.784446590700689
 30
0.0
 11
214.83961287113971
 21
-21.784446590700689
 31
0.0
  0
ARC
  5
6E1
  8
DATA
  6
CONTINUOUS
 62
     7
 10
229.23961287113971
 20
-16.034446590700689
 30
0.0
 40
0.75
 50
270.0
 51
90.0
  0
ARC
  5
6E2
  8
DATA
  6
CONTINUOUS
 62
     7
 10
214.83961287113971
 20
-16.034446590700689
 30
0.0
 40
0.75
 50
90.0
 51
270.0
  0
LINE
  5
6E3
  8
DATA
  6
CONTINUOUS
 62
     7
 10
214.83961287113971
 20
-15.284446590700689
 30
0.0
 11
229.23961287113971
 21
-15.284446590700689
 31
0.0
  0
LINE
  5
6E4
  8
DATA
  6
CONTINUOUS
 62
     7
 10
229.23961287113971
 20
-16.784446590700689
 30
0.0
 11
214.83961287113971
 21
-16.784446590700689
 31
0.0
  0
ARC
  5
6E5
  8
DATA
  6
CONTINUOUS
 62
     7
 10
229.23961287113971
 20
-11.034446590700689
 30
0.0
 40
0.75
 50
270.0
 51
90.0
  0
ARC
  5
6E6
  8
DATA
  6
CONTINUOUS
 62
     7
 10
214.83961287113971
 20
-11.034446590700689
 30
0.0
 40
0.75
 50
90.0
 51
270.0
  0
LINE
  5
6E7
  8
DATA
  6
CONTINUOUS
 62
     7
 10
214.83961287113971
 20
-10.284446590700689
 30
0.0
 11
229.23961287113971
 21
-10.284446590700689
 31
0.0
  0
LINE
  5
6E8
  8
DATA
  6
CONTINUOUS
 62
     7
 10
229.23961287113971
 20
-11.784446590700689
 30
0.0
 11
214.83961287113971
 21
-11.784446590700689
 31
0.0
  0
ARC
  5
6E9
  8
DATA
  6
CONTINUOUS
 62
     7
 10
229.23961287113971
 20
-6.0344465907006963
 30
0.0
 40
0.75
 50
270.0
 51
90.0
  0
ARC
  5
6EA
  8
DATA
  6
CONTINUOUS
 62
     7
 10
214.83961287113971
 20
-6.0344465907006963
 30
0.0
 40
0.75
 50
90.0
 51
270.0
  0
LINE
  5
6EB
  8
DATA
  6
CONTINUOUS
 62
     7
 10
214.83961287113971
 20
-5.2844465907006963
 30
0.0
 11
229.23961287113971
 21
-5.2844465907006963
 31
0.0
  0
LINE
  5
6EC
  8
DATA
  6
CONTINUOUS
 62
     7
 10
229.23961287113971
 20
-6.7844465907006963
 30
0.0
 11
214.83961287113971
 21
-6.7844465907006963
 31
0.0
  0
ARC
  5
6ED
  8
DATA
  6
CONTINUOUS
 62
     7
 10
229.23961287113971
 20
-1.034446590700695
 30
0.0
 40
0.75
 50
270.0
 51
90.0
  0
ARC
  5
6EE
  8
DATA
  6
CONTINUOUS
 62
     7
 10
214.83961287113971
 20
-1.034446590700695
 30
0.0
 40
0.75
 50
90.0
 51
270.0
  0
LINE
  5
6EF
  8
DATA
  6
CONTINUOUS
 62
     7
 10
214.83961287113971
 20
-0.2844465907006963
 30
0.0
 11
229.23961287113971
 21
-0.2844465907006963
 31
0.0
  0
LINE
  5
6F0
  8
DATA
  6
CONTINUOUS
 62
     7
 10
229.23961287113971
 20
-1.784446590700695
 30
0.0
 11
214.83961287113971
 21
-1.784446590700695
 31
0.0
  0
ARC
  5
6F1
  8
DATA
  6
CONTINUOUS
 62
     7
 10
229.23961287113971
 20
3.9655534092993041
 30
0.0
 40
0.75
 50
270.0
 51
90.0
  0
ARC
  5
6F2
  8
DATA
  6
CONTINUOUS
 62
     7
 10
214.83961287113971
 20
3.9655534092993041
 30
0.0
 40
0.75
 50
90.0
 51
270.0
  0
LINE
  5
6F3
  8
DATA
  6
CONTINUOUS
 62
     7
 10
214.83961287113971
 20
4.715553409299301
 30
0.0
 11
229.23961287113971
 21
4.715553409299301
 31
0.0
  0
LINE
  5
6F4
  8
DATA
  6
CONTINUOUS
 62
     7
 10
229.23961287113971
 20
3.2155534092993041
 30
0.0
 11
214.83961287113971
 21
3.2155534092993041
 31
0.0
  0
ARC
  5
6F5
  8
DATA
  6
CONTINUOUS
 62
     7
 10
229.23961287113971
 20
8.9655534092992983
 30
0.0
 40
0.75
 50
270.0
 51
90.0
  0
ARC
  5
6F6
  8
DATA
  6
CONTINUOUS
 62
     7
 10
214.83961287113971
 20
8.9655534092992983
 30
0.0
 40
0.75
 50
90.0
 51
270.0
  0
LINE
  5
6F7
  8
DATA
  6
CONTINUOUS
 62
     7
 10
214.83961287113971
 20
9.7155534092993037
 30
0.0
 11
229.23961287113971
 21
9.7155534092993037
 31
0.0
  0
LINE
  5
6F8
  8
DATA
  6
CONTINUOUS
 62
     7
 10
229.23961287113971
 20
8.2155534092992983
 30
0.0
 11
214.83961287113971
 21
8.2155534092992983
 31
0.0
  0
ARC
  5
6F9
  8
DATA
  6
CONTINUOUS
 62
     7
 10
229.23961287113971
 20
13.9655534092993
 30
0.0
 40
0.75
 50
270.0
 51
90.0
  0
ARC
  5
6FA
  8
DATA
  6
CONTINUOUS
 62
     7
 10
214.83961287113971
 20
13.9655534092993
 30
0.0
 40
0.75
 50
90.0
 51
270.0
  0
LINE
  5
6FB
  8
DATA
  6
CONTINUOUS
 62
     7
 10
214.83961287113971
 20
14.7155534092993
 30
0.0
 11
229.23961287113971
 21
14.7155534092993
 31
0.0
  0
LINE
  5
6FC
  8
DATA
  6
CONTINUOUS
 62
     7
 10
229.23961287113971
 20
13.2155534092993
 30
0.0
 11
214.83961287113971
 21
13.2155534092993
 31
0.0
  0
ARC
  5
6FD
  8
DATA
  6
CONTINUOUS
 62
     7
 10
229.23961287113971
 20
18.9655534092993
 30
0.0
 40
0.75
 50
270.0
 51
90.0
  0
ARC
  5
6FE
  8
DATA
  6
CONTINUOUS
 62
     7
 10
214.83961287113971
 20
18.9655534092993
 30
0.0
 40
0.75
 50
90.0
 51
270.0
  0
LINE
  5
6FF
  8
DATA
  6
CONTINUOUS
 62
     7
 10
214.83961287113971
 20
19.7155534092993
 30
0.0
 11
229.23961287113971
 21
19.7155534092993
 31
0.0
  0
LINE
  5
700
  8
DATA
  6
CONTINUOUS
 62
     7
 10
229.23961287113971
 20
18.2155534092993
 30
0.0
 11
214.83961287113971
 21
18.2155534092993
 31
0.0
  0
ARC
  5
701
  8
DATA
  6
CONTINUOUS
 62
     7
 10
229.23961287113971
 20
23.965553409299311
 30
0.0
 40
0.75
 50
270.0
 51
90.0
  0
ARC
  5
702
  8
DATA
  6
CONTINUOUS
 62
     7
 10
214.83961287113971
 20
23.965553409299311
 30
0.0
 40
0.75
 50
90.0
 51
270.0
  0
LINE
  5
703
  8
DATA
  6
CONTINUOUS
 62
     7
 10
214.83961287113971
 20
24.715553409299311
 30
0.0
 11
229.23961287113971
 21
24.715553409299311
 31
0.0
  0
LINE
  5
704
  8
DATA
  6
CONTINUOUS
 62
     7
 10
229.23961287113971
 20
23.215553409299311
 30
0.0
 11
214.83961287113971
 21
23.215553409299311
 31
0.0
  0
ARC
  5
705
  8
DATA
  6
CONTINUOUS
 62
     7
 10
229.23961287113971
 20
28.965553409299311
 30
0.0
 40
0.75
 50
270.0
 51
90.0
  0
ARC
  5
706
  8
DATA
  6
CONTINUOUS
 62
     7
 10
214.83961287113971
 20
28.965553409299311
 30
0.0
 40
0.75
 50
90.0
 51
270.0
  0
LINE
  5
707
  8
DATA
  6
CONTINUOUS
 62
     7
 10
214.83961287113971
 20
29.715553409299311
 30
0.0
 11
229.23961287113971
 21
29.715553409299311
 31
0.0
  0
LINE
  5
708
  8
DATA
  6
CONTINUOUS
 62
     7
 10
229.23961287113971
 20
28.215553409299311
 30
0.0
 11
214.83961287113971
 21
28.215553409299311
 31
0.0
  0
ARC
  5
709
  8
DATA
  6
CONTINUOUS
 62
     7
 10
229.23961287113971
 20
33.965553409299311
 30
0.0
 40
0.75
 50
270.0
 51
90.0
  0
ARC
  5
70A
  8
DATA
  6
CONTINUOUS
 62
     7
 10
214.83961287113971
 20
33.965553409299311
 30
0.0
 40
0.75
 50
90.0
 51
270.0
  0
LINE
  5
70B
  8
DATA
  6
CONTINUOUS
 62
     7
 10
214.83961287113971
 20
34.715553409299297
 30
0.0
 11
229.23961287113971
 21
34.715553409299297
 31
0.0
  0
LINE
  5
70C
  8
DATA
  6
CONTINUOUS
 62
     7
 10
229.23961287113971
 20
33.215553409299297
 30
0.0
 11
214.83961287113971
 21
33.215553409299297
 31
0.0
  0
ARC
  5
70D
  8
DATA
  6
CONTINUOUS
 62
     7
 10
229.23961287113971
 20
38.965553409299297
 30
0.0
 40
0.75
 50
270.0
 51
90.0
  0
ARC
  5
70E
  8
DATA
  6
CONTINUOUS
 62
     7
 10
214.83961287113971
 20
38.965553409299297
 30
0.0
 40
0.75
 50
90.0
 51
270.0
  0
LINE
  5
70F
  8
DATA
  6
CONTINUOUS
 62
     7
 10
214.83961287113971
 20
39.715553409299297
 30
0.0
 11
229.23961287113971
 21
39.715553409299297
 31
0.0
  0
LINE
  5
710
  8
DATA
  6
CONTINUOUS
 62
     7
 10
229.23961287113971
 20
38.215553409299297
 30
0.0
 11
214.83961287113971
 21
38.215553409299297
 31
0.0
  0
ARC
  5
711
  8
DATA
  6
CONTINUOUS
 62
     7
 10
203.9396128711397
 20
-56.034446590700632
 30
0.0
 40
0.75
 50
270.0
 51
90.0
  0
ARC
  5
712
  8
DATA
  6
CONTINUOUS
 62
     7
 10
189.53961287113961
 20
-56.034446590700632
 30
0.0
 40
0.75
 50
90.0
 51
270.0
  0
LINE
  5
713
  8
DATA
  6
CONTINUOUS
 62
     7
 10
189.53961287113961
 20
-55.284446590700632
 30
0.0
 11
203.9396128711397
 21
-55.284446590700632
 31
0.0
  0
LINE
  5
714
  8
DATA
  6
CONTINUOUS
 62
     7
 10
203.9396128711397
 20
-56.784446590700647
 30
0.0
 11
189.53961287113961
 21
-56.784446590700647
 31
0.0
  0
ARC
  5
715
  8
DATA
  6
CONTINUOUS
 62
     7
 10
203.9396128711397
 20
-51.034446590700632
 30
0.0
 40
0.75
 50
270.0
 51
90.0
  0
ARC
  5
716
  8
DATA
  6
CONTINUOUS
 62
     7
 10
189.53961287113961
 20
-51.034446590700632
 30
0.0
 40
0.75
 50
90.0
 51
270.0
  0
LINE
  5
717
  8
DATA
  6
CONTINUOUS
 62
     7
 10
189.53961287113961
 20
-50.284446590700632
 30
0.0
 11
203.9396128711397
 21
-50.284446590700632
 31
0.0
  0
LINE
  5
718
  8
DATA
  6
CONTINUOUS
 62
     7
 10
203.9396128711397
 20
-51.784446590700647
 30
0.0
 11
189.53961287113961
 21
-51.784446590700647
 31
0.0
  0
ARC
  5
719
  8
DATA
  6
CONTINUOUS
 62
     7
 10
203.9396128711397
 20
-46.034446590700632
 30
0.0
 40
0.75
 50
270.0
 51
90.0
  0
ARC
  5
71A
  8
DATA
  6
CONTINUOUS
 62
     7
 10
189.53961287113961
 20
-46.034446590700632
 30
0.0
 40
0.75
 50
90.0
 51
270.0
  0
LINE
  5
71B
  8
DATA
  6
CONTINUOUS
 62
     7
 10
189.53961287113961
 20
-45.284446590700632
 30
0.0
 11
203.9396128711397
 21
-45.284446590700632
 31
0.0
  0
LINE
  5
71C
  8
DATA
  6
CONTINUOUS
 62
     7
 10
203.9396128711397
 20
-46.784446590700647
 30
0.0
 11
189.53961287113961
 21
-46.784446590700647
 31
0.0
  0
ARC
  5
71D
  8
DATA
  6
CONTINUOUS
 62
     7
 10
203.9396128711397
 20
-41.034446590700647
 30
0.0
 40
0.75
 50
270.0
 51
90.0
  0
ARC
  5
71E
  8
DATA
  6
CONTINUOUS
 62
     7
 10
189.53961287113961
 20
-41.034446590700647
 30
0.0
 40
0.7499999999999716
 50
90.0
 51
270.0
  0
LINE
  5
71F
  8
DATA
  6
CONTINUOUS
 62
     7
 10
189.53961287113961
 20
-40.284446590700689
 30
0.0
 11
203.9396128711397
 21
-40.284446590700689
 31
0.0
  0
LINE
  5
720
  8
DATA
  6
CONTINUOUS
 62
     7
 10
203.9396128711397
 20
-41.784446590700647
 30
0.0
 11
189.53961287113961
 21
-41.784446590700647
 31
0.0
  0
ARC
  5
721
  8
DATA
  6
CONTINUOUS
 62
     7
 10
203.9396128711397
 20
-36.034446590700711
 30
0.0
 40
0.75
 50
270.0
 51
90.0
  0
ARC
  5
722
  8
DATA
  6
CONTINUOUS
 62
     7
 10
189.53961287113961
 20
-36.034446590700711
 30
0.0
 40
0.75
 50
90.0
 51
270.0
  0
LINE
  5
723
  8
DATA
  6
CONTINUOUS
 62
     7
 10
189.53961287113961
 20
-35.284446590700703
 30
0.0
 11
203.9396128711397
 21
-35.284446590700703
 31
0.0
  0
LINE
  5
724
  8
DATA
  6
CONTINUOUS
 62
     7
 10
203.9396128711397
 20
-36.784446590700703
 30
0.0
 11
189.53961287113961
 21
-36.784446590700703
 31
0.0
  0
ARC
  5
725
  8
DATA
  6
CONTINUOUS
 62
     7
 10
203.9396128711397
 20
-31.034446590700689
 30
0.0
 40
0.75
 50
270.0
 51
90.0
  0
ARC
  5
726
  8
DATA
  6
CONTINUOUS
 62
     7
 10
189.53961287113961
 20
-31.034446590700689
 30
0.0
 40
0.75
 50
90.0
 51
270.0
  0
LINE
  5
727
  8
DATA
  6
CONTINUOUS
 62
     7
 10
189.53961287113961
 20
-30.284446590700689
 30
0.0
 11
203.9396128711397
 21
-30.284446590700689
 31
0.0
  0
LINE
  5
728
  8
DATA
  6
CONTINUOUS
 62
     7
 10
203.9396128711397
 20
-31.784446590700689
 30
0.0
 11
189.53961287113961
 21
-31.784446590700689
 31
0.0
  0
ARC
  5
729
  8
DATA
  6
CONTINUOUS
 62
     7
 10
203.9396128711397
 20
-26.034446590700689
 30
0.0
 40
0.75
 50
270.0
 51
90.0
  0
ARC
  5
72A
  8
DATA
  6
CONTINUOUS
 62
     7
 10
189.53961287113961
 20
-26.034446590700689
 30
0.0
 40
0.75
 50
90.0
 51
270.0
  0
LINE
  5
72B
  8
DATA
  6
CONTINUOUS
 62
     7
 10
189.53961287113961
 20
-25.284446590700689
 30
0.0
 11
203.9396128711397
 21
-25.284446590700689
 31
0.0
  0
LINE
  5
72C
  8
DATA
  6
CONTINUOUS
 62
     7
 10
203.9396128711397
 20
-26.784446590700689
 30
0.0
 11
189.53961287113961
 21
-26.784446590700689
 31
0.0
  0
ARC
  5
72D
  8
DATA
  6
CONTINUOUS
 62
     7
 10
203.9396128711397
 20
-21.0344465907007
 30
0.0
 40
0.75
 50
270.0
 51
90.0
  0
ARC
  5
72E
  8
DATA
  6
CONTINUOUS
 62
     7
 10
189.53961287113961
 20
-21.0344465907007
 30
0.0
 40
0.75
 50
90.0
 51
270.0
  0
LINE
  5
72F
  8
DATA
  6
CONTINUOUS
 62
     7
 10
189.53961287113961
 20
-20.284446590700689
 30
0.0
 11
203.9396128711397
 21
-20.284446590700689
 31
0.0
  0
LINE
  5
730
  8
DATA
  6
CONTINUOUS
 62
     7
 10
203.9396128711397
 20
-21.784446590700689
 30
0.0
 11
189.53961287113961
 21
-21.784446590700689
 31
0.0
  0
ARC
  5
731
  8
DATA
  6
CONTINUOUS
 62
     7
 10
203.9396128711397
 20
-16.034446590700689
 30
0.0
 40
0.75
 50
270.0
 51
90.0
  0
ARC
  5
732
  8
DATA
  6
CONTINUOUS
 62
     7
 10
189.53961287113961
 20
-16.034446590700689
 30
0.0
 40
0.75
 50
90.0
 51
270.0
  0
LINE
  5
733
  8
DATA
  6
CONTINUOUS
 62
     7
 10
189.53961287113961
 20
-15.284446590700689
 30
0.0
 11
203.9396128711397
 21
-15.284446590700689
 31
0.0
  0
LINE
  5
734
  8
DATA
  6
CONTINUOUS
 62
     7
 10
203.9396128711397
 20
-16.784446590700689
 30
0.0
 11
189.53961287113961
 21
-16.784446590700689
 31
0.0
  0
ARC
  5
735
  8
DATA
  6
CONTINUOUS
 62
     7
 10
203.9396128711397
 20
-11.034446590700689
 30
0.0
 40
0.75
 50
270.0
 51
90.0
  0
ARC
  5
736
  8
DATA
  6
CONTINUOUS
 62
     7
 10
189.53961287113961
 20
-11.034446590700689
 30
0.0
 40
0.75
 50
90.0
 51
270.0
  0
LINE
  5
737
  8
DATA
  6
CONTINUOUS
 62
     7
 10
189.53961287113961
 20
-10.284446590700689
 30
0.0
 11
203.9396128711397
 21
-10.284446590700689
 31
0.0
  0
LINE
  5
738
  8
DATA
  6
CONTINUOUS
 62
     7
 10
203.9396128711397
 20
-11.784446590700689
 30
0.0
 11
189.53961287113961
 21
-11.784446590700689
 31
0.0
  0
ARC
  5
739
  8
DATA
  6
CONTINUOUS
 62
     7
 10
203.9396128711397
 20
-6.0344465907006963
 30
0.0
 40
0.75
 50
270.0
 51
90.0
  0
ARC
  5
73A
  8
DATA
  6
CONTINUOUS
 62
     7
 10
189.53961287113961
 20
-6.0344465907006963
 30
0.0
 40
0.75
 50
90.0
 51
270.0
  0
LINE
  5
73B
  8
DATA
  6
CONTINUOUS
 62
     7
 10
189.53961287113961
 20
-5.2844465907006963
 30
0.0
 11
203.9396128711397
 21
-5.2844465907006963
 31
0.0
  0
LINE
  5
73C
  8
DATA
  6
CONTINUOUS
 62
     7
 10
203.9396128711397
 20
-6.7844465907006963
 30
0.0
 11
189.53961287113961
 21
-6.7844465907006963
 31
0.0
  0
ARC
  5
73D
  8
DATA
  6
CONTINUOUS
 62
     7
 10
203.9396128711397
 20
-1.034446590700695
 30
0.0
 40
0.75
 50
270.0
 51
90.0
  0
ARC
  5
73E
  8
DATA
  6
CONTINUOUS
 62
     7
 10
189.53961287113961
 20
-1.034446590700695
 30
0.0
 40
0.75
 50
90.0
 51
270.0
  0
LINE
  5
73F
  8
DATA
  6
CONTINUOUS
 62
     7
 10
189.53961287113961
 20
-0.2844465907006963
 30
0.0
 11
203.9396128711397
 21
-0.2844465907006963
 31
0.0
  0
LINE
  5
740
  8
DATA
  6
CONTINUOUS
 62
     7
 10
203.9396128711397
 20
-1.784446590700695
 30
0.0
 11
189.53961287113961
 21
-1.784446590700695
 31
0.0
  0
ARC
  5
741
  8
DATA
  6
CONTINUOUS
 62
     7
 10
203.9396128711397
 20
3.9655534092993041
 30
0.0
 40
0.75
 50
270.0
 51
90.0
  0
ARC
  5
742
  8
DATA
  6
CONTINUOUS
 62
     7
 10
189.53961287113961
 20
3.9655534092993041
 30
0.0
 40
0.75
 50
90.0
 51
270.0
  0
LINE
  5
743
  8
DATA
  6
CONTINUOUS
 62
     7
 10
189.53961287113961
 20
4.715553409299301
 30
0.0
 11
203.9396128711397
 21
4.715553409299301
 31
0.0
  0
LINE
  5
744
  8
DATA
  6
CONTINUOUS
 62
     7
 10
203.9396128711397
 20
3.2155534092993041
 30
0.0
 11
189.53961287113961
 21
3.2155534092993041
 31
0.0
  0
ARC
  5
745
  8
DATA
  6
CONTINUOUS
 62
     7
 10
203.9396128711397
 20
8.9655534092992983
 30
0.0
 40
0.75
 50
270.0
 51
90.0
  0
ARC
  5
746
  8
DATA
  6
CONTINUOUS
 62
     7
 10
189.53961287113961
 20
8.9655534092992983
 30
0.0
 40
0.75
 50
90.0
 51
270.0
  0
LINE
  5
747
  8
DATA
  6
CONTINUOUS
 62
     7
 10
189.53961287113961
 20
9.7155534092993037
 30
0.0
 11
203.9396128711397
 21
9.7155534092993037
 31
0.0
  0
LINE
  5
748
  8
DATA
  6
CONTINUOUS
 62
     7
 10
203.9396128711397
 20
8.2155534092992983
 30
0.0
 11
189.53961287113961
 21
8.2155534092992983
 31
0.0
  0
ARC
  5
749
  8
DATA
  6
CONTINUOUS
 62
     7
 10
203.9396128711397
 20
13.9655534092993
 30
0.0
 40
0.75
 50
270.0
 51
90.0
  0
ARC
  5
74A
  8
DATA
  6
CONTINUOUS
 62
     7
 10
189.53961287113961
 20
13.9655534092993
 30
0.0
 40
0.75
 50
90.0
 51
270.0
  0
LINE
  5
74B
  8
DATA
  6
CONTINUOUS
 62
     7
 10
189.53961287113961
 20
14.7155534092993
 30
0.0
 11
203.9396128711397
 21
14.7155534092993
 31
0.0
  0
LINE
  5
74C
  8
DATA
  6
CONTINUOUS
 62
     7
 10
203.9396128711397
 20
13.2155534092993
 30
0.0
 11
189.53961287113961
 21
13.2155534092993
 31
0.0
  0
ARC
  5
74D
  8
DATA
  6
CONTINUOUS
 62
     7
 10
203.9396128711397
 20
18.9655534092993
 30
0.0
 40
0.75
 50
270.0
 51
90.0
  0
ARC
  5
74E
  8
DATA
  6
CONTINUOUS
 62
     7
 10
189.53961287113961
 20
18.9655534092993
 30
0.0
 40
0.75
 50
90.0
 51
270.0
  0
LINE
  5
74F
  8
DATA
  6
CONTINUOUS
 62
     7
 10
189.53961287113961
 20
19.7155534092993
 30
0.0
 11
203.9396128711397
 21
19.7155534092993
 31
0.0
  0
LINE
  5
750
  8
DATA
  6
CONTINUOUS
 62
     7
 10
203.9396128711397
 20
18.2155534092993
 30
0.0
 11
189.53961287113961
 21
18.2155534092993
 31
0.0
  0
ARC
  5
751
  8
DATA
  6
CONTINUOUS
 62
     7
 10
203.9396128711397
 20
23.965553409299311
 30
0.0
 40
0.75
 50
270.0
 51
90.0
  0
ARC
  5
752
  8
DATA
  6
CONTINUOUS
 62
     7
 10
189.53961287113961
 20
23.965553409299311
 30
0.0
 40
0.75
 50
90.0
 51
270.0
  0
LINE
  5
753
  8
DATA
  6
CONTINUOUS
 62
     7
 10
189.53961287113961
 20
24.715553409299311
 30
0.0
 11
203.9396128711397
 21
24.715553409299311
 31
0.0
  0
LINE
  5
754
  8
DATA
  6
CONTINUOUS
 62
     7
 10
203.9396128711397
 20
23.215553409299311
 30
0.0
 11
189.53961287113961
 21
23.215553409299311
 31
0.0
  0
ARC
  5
755
  8
DATA
  6
CONTINUOUS
 62
     7
 10
203.9396128711397
 20
28.965553409299311
 30
0.0
 40
0.75
 50
270.0
 51
90.0
  0
ARC
  5
756
  8
DATA
  6
CONTINUOUS
 62
     7
 10
189.53961287113961
 20
28.965553409299311
 30
0.0
 40
0.75
 50
90.0
 51
270.0
  0
LINE
  5
757
  8
DATA
  6
CONTINUOUS
 62
     7
 10
189.53961287113961
 20
29.715553409299311
 30
0.0
 11
203.9396128711397
 21
29.715553409299311
 31
0.0
  0
LINE
  5
758
  8
DATA
  6
CONTINUOUS
 62
     7
 10
203.9396128711397
 20
28.215553409299311
 30
0.0
 11
189.53961287113961
 21
28.215553409299311
 31
0.0
  0
ARC
  5
759
  8
DATA
  6
CONTINUOUS
 62
     7
 10
203.9396128711397
 20
33.965553409299311
 30
0.0
 40
0.75
 50
270.0
 51
90.0
  0
ARC
  5
75A
  8
DATA
  6
CONTINUOUS
 62
     7
 10
189.53961287113961
 20
33.965553409299311
 30
0.0
 40
0.75
 50
90.0
 51
270.0
  0
LINE
  5
75B
  8
DATA
  6
CONTINUOUS
 62
     7
 10
189.53961287113961
 20
34.715553409299297
 30
0.0
 11
203.9396128711397
 21
34.715553409299297
 31
0.0
  0
LINE
  5
75C
  8
DATA
  6
CONTINUOUS
 62
     7
 10
203.9396128711397
 20
33.215553409299297
 30
0.0
 11
189.53961287113961
 21
33.215553409299297
 31
0.0
  0
ARC
  5
75D
  8
DATA
  6
CONTINUOUS
 62
     7
 10
203.9396128711397
 20
38.965553409299297
 30
0.0
 40
0.75
 50
270.0
 51
90.0
  0
ARC
  5
75E
  8
DATA
  6
CONTINUOUS
 62
     7
 10
189.53961287113961
 20
38.965553409299297
 30
0.0
 40
0.75
 50
90.0
 51
270.0
  0
LINE
  5
75F
  8
DATA
  6
CONTINUOUS
 62
     7
 10
189.53961287113961
 20
39.715553409299297
 30
0.0
 11
203.9396128711397
 21
39.715553409299297
 31
0.0
  0
LINE
  5
760
  8
DATA
  6
CONTINUOUS
 62
     7
 10
203.9396128711397
 20
38.215553409299297
 30
0.0
 11
189.53961287113961
 21
38.215553409299297
 31
0.0
  0
ARC
  5
761
  8
DATA
  6
CONTINUOUS
 62
     7
 10
178.6396128711396
 20
-56.034446590700632
 30
0.0
 40
0.75
 50
270.0
 51
90.0
  0
ARC
  5
762
  8
DATA
  6
CONTINUOUS
 62
     7
 10
164.23961287113971
 20
-56.034446590700632
 30
0.0
 40
0.75
 50
90.0
 51
270.0
  0
LINE
  5
763
  8
DATA
  6
CONTINUOUS
 62
     7
 10
164.23961287113971
 20
-55.284446590700632
 30
0.0
 11
178.6396128711396
 21
-55.284446590700632
 31
0.0
  0
LINE
  5
764
  8
DATA
  6
CONTINUOUS
 62
     7
 10
178.6396128711396
 20
-56.784446590700647
 30
0.0
 11
164.23961287113971
 21
-56.784446590700647
 31
0.0
  0
ARC
  5
765
  8
DATA
  6
CONTINUOUS
 62
     7
 10
178.6396128711396
 20
-51.034446590700632
 30
0.0
 40
0.75
 50
270.0
 51
90.0
  0
ARC
  5
766
  8
DATA
  6
CONTINUOUS
 62
     7
 10
164.23961287113971
 20
-51.034446590700632
 30
0.0
 40
0.75
 50
90.0
 51
270.0
  0
LINE
  5
767
  8
DATA
  6
CONTINUOUS
 62
     7
 10
164.23961287113971
 20
-50.284446590700632
 30
0.0
 11
178.6396128711396
 21
-50.284446590700632
 31
0.0
  0
LINE
  5
768
  8
DATA
  6
CONTINUOUS
 62
     7
 10
178.6396128711396
 20
-51.784446590700647
 30
0.0
 11
164.23961287113971
 21
-51.784446590700647
 31
0.0
  0
ARC
  5
769
  8
DATA
  6
CONTINUOUS
 62
     7
 10
178.6396128711396
 20
-46.034446590700632
 30
0.0
 40
0.75
 50
270.0
 51
90.0
  0
ARC
  5
76A
  8
DATA
  6
CONTINUOUS
 62
     7
 10
164.23961287113971
 20
-46.034446590700632
 30
0.0
 40
0.75
 50
90.0
 51
270.0
  0
LINE
  5
76B
  8
DATA
  6
CONTINUOUS
 62
     7
 10
164.23961287113971
 20
-45.284446590700632
 30
0.0
 11
178.6396128711396
 21
-45.284446590700632
 31
0.0
  0
LINE
  5
76C
  8
DATA
  6
CONTINUOUS
 62
     7
 10
178.6396128711396
 20
-46.784446590700647
 30
0.0
 11
164.23961287113971
 21
-46.784446590700647
 31
0.0
  0
ARC
  5
76D
  8
DATA
  6
CONTINUOUS
 62
     7
 10
178.6396128711396
 20
-41.034446590700647
 30
0.0
 40
0.75
 50
270.0
 51
90.0
  0
ARC
  5
76E
  8
DATA
  6
CONTINUOUS
 62
     7
 10
164.23961287113971
 20
-41.034446590700647
 30
0.0
 40
0.7499999999999716
 50
90.0
 51
270.0
  0
LINE
  5
76F
  8
DATA
  6
CONTINUOUS
 62
     7
 10
164.23961287113971
 20
-40.284446590700689
 30
0.0
 11
178.6396128711396
 21
-40.284446590700689
 31
0.0
  0
LINE
  5
770
  8
DATA
  6
CONTINUOUS
 62
     7
 10
178.6396128711396
 20
-41.784446590700647
 30
0.0
 11
164.23961287113971
 21
-41.784446590700647
 31
0.0
  0
ARC
  5
771
  8
DATA
  6
CONTINUOUS
 62
     7
 10
178.6396128711396
 20
-36.034446590700711
 30
0.0
 40
0.75
 50
270.0
 51
90.0
  0
ARC
  5
772
  8
DATA
  6
CONTINUOUS
 62
     7
 10
164.23961287113971
 20
-36.034446590700711
 30
0.0
 40
0.75
 50
90.0
 51
270.0
  0
LINE
  5
773
  8
DATA
  6
CONTINUOUS
 62
     7
 10
164.23961287113971
 20
-35.284446590700703
 30
0.0
 11
178.6396128711396
 21
-35.284446590700703
 31
0.0
  0
LINE
  5
774
  8
DATA
  6
CONTINUOUS
 62
     7
 10
178.6396128711396
 20
-36.784446590700703
 30
0.0
 11
164.23961287113971
 21
-36.784446590700703
 31
0.0
  0
ARC
  5
775
  8
DATA
  6
CONTINUOUS
 62
     7
 10
178.6396128711396
 20
-31.034446590700689
 30
0.0
 40
0.75
 50
270.0
 51
90.0
  0
ARC
  5
776
  8
DATA
  6
CONTINUOUS
 62
     7
 10
164.23961287113971
 20
-31.034446590700689
 30
0.0
 40
0.75
 50
90.0
 51
270.0
  0
LINE
  5
777
  8
DATA
  6
CONTINUOUS
 62
     7
 10
164.23961287113971
 20
-30.284446590700689
 30
0.0
 11
178.6396128711396
 21
-30.284446590700689
 31
0.0
  0
LINE
  5
778
  8
DATA
  6
CONTINUOUS
 62
     7
 10
178.6396128711396
 20
-31.784446590700689
 30
0.0
 11
164.23961287113971
 21
-31.784446590700689
 31
0.0
  0
ARC
  5
779
  8
DATA
  6
CONTINUOUS
 62
     7
 10
178.6396128711396
 20
-26.034446590700689
 30
0.0
 40
0.75
 50
270.0
 51
90.0
  0
ARC
  5
77A
  8
DATA
  6
CONTINUOUS
 62
     7
 10
164.23961287113971
 20
-26.034446590700689
 30
0.0
 40
0.75
 50
90.0
 51
270.0
  0
LINE
  5
77B
  8
DATA
  6
CONTINUOUS
 62
     7
 10
164.23961287113971
 20
-25.284446590700689
 30
0.0
 11
178.6396128711396
 21
-25.284446590700689
 31
0.0
  0
LINE
  5
77C
  8
DATA
  6
CONTINUOUS
 62
     7
 10
178.6396128711396
 20
-26.784446590700689
 30
0.0
 11
164.23961287113971
 21
-26.784446590700689
 31
0.0
  0
ARC
  5
77D
  8
DATA
  6
CONTINUOUS
 62
     7
 10
178.6396128711396
 20
-21.0344465907007
 30
0.0
 40
0.75
 50
270.0
 51
90.0
  0
ARC
  5
77E
  8
DATA
  6
CONTINUOUS
 62
     7
 10
164.23961287113971
 20
-21.0344465907007
 30
0.0
 40
0.75
 50
90.0
 51
270.0
  0
LINE
  5
77F
  8
DATA
  6
CONTINUOUS
 62
     7
 10
164.23961287113971
 20
-20.284446590700689
 30
0.0
 11
178.6396128711396
 21
-20.284446590700689
 31
0.0
  0
LINE
  5
780
  8
DATA
  6
CONTINUOUS
 62
     7
 10
178.6396128711396
 20
-21.784446590700689
 30
0.0
 11
164.23961287113971
 21
-21.784446590700689
 31
0.0
  0
ARC
  5
781
  8
DATA
  6
CONTINUOUS
 62
     7
 10
178.6396128711396
 20
-16.034446590700689
 30
0.0
 40
0.75
 50
270.0
 51
90.0
  0
ARC
  5
782
  8
DATA
  6
CONTINUOUS
 62
     7
 10
164.23961287113971
 20
-16.034446590700689
 30
0.0
 40
0.75
 50
90.0
 51
270.0
  0
LINE
  5
783
  8
DATA
  6
CONTINUOUS
 62
     7
 10
164.23961287113971
 20
-15.284446590700689
 30
0.0
 11
178.6396128711396
 21
-15.284446590700689
 31
0.0
  0
LINE
  5
784
  8
DATA
  6
CONTINUOUS
 62
     7
 10
178.6396128711396
 20
-16.784446590700689
 30
0.0
 11
164.23961287113971
 21
-16.784446590700689
 31
0.0
  0
ARC
  5
785
  8
DATA
  6
CONTINUOUS
 62
     7
 10
178.6396128711396
 20
-11.034446590700689
 30
0.0
 40
0.75
 50
270.0
 51
90.0
  0
ARC
  5
786
  8
DATA
  6
CONTINUOUS
 62
     7
 10
164.23961287113971
 20
-11.034446590700689
 30
0.0
 40
0.75
 50
90.0
 51
270.0
  0
LINE
  5
787
  8
DATA
  6
CONTINUOUS
 62
     7
 10
164.23961287113971
 20
-10.284446590700689
 30
0.0
 11
178.6396128711396
 21
-10.284446590700689
 31
0.0
  0
LINE
  5
788
  8
DATA
  6
CONTINUOUS
 62
     7
 10
178.6396128711396
 20
-11.784446590700689
 30
0.0
 11
164.23961287113971
 21
-11.784446590700689
 31
0.0
  0
ARC
  5
789
  8
DATA
  6
CONTINUOUS
 62
     7
 10
178.6396128711396
 20
-6.0344465907006963
 30
0.0
 40
0.75
 50
270.0
 51
90.0
  0
ARC
  5
78A
  8
DATA
  6
CONTINUOUS
 62
     7
 10
164.23961287113971
 20
-6.0344465907006963
 30
0.0
 40
0.75
 50
90.0
 51
270.0
  0
LINE
  5
78B
  8
DATA
  6
CONTINUOUS
 62
     7
 10
164.23961287113971
 20
-5.2844465907006963
 30
0.0
 11
178.6396128711396
 21
-5.2844465907006963
 31
0.0
  0
LINE
  5
78C
  8
DATA
  6
CONTINUOUS
 62
     7
 10
178.6396128711396
 20
-6.7844465907006963
 30
0.0
 11
164.23961287113971
 21
-6.7844465907006963
 31
0.0
  0
ARC
  5
78D
  8
DATA
  6
CONTINUOUS
 62
     7
 10
178.6396128711396
 20
-1.034446590700695
 30
0.0
 40
0.75
 50
270.0
 51
90.0
  0
ARC
  5
78E
  8
DATA
  6
CONTINUOUS
 62
     7
 10
164.23961287113971
 20
-1.034446590700695
 30
0.0
 40
0.75
 50
90.0
 51
270.0
  0
LINE
  5
78F
  8
DATA
  6
CONTINUOUS
 62
     7
 10
164.23961287113971
 20
-0.2844465907006963
 30
0.0
 11
178.6396128711396
 21
-0.2844465907006963
 31
0.0
  0
LINE
  5
790
  8
DATA
  6
CONTINUOUS
 62
     7
 10
178.6396128711396
 20
-1.784446590700695
 30
0.0
 11
164.23961287113971
 21
-1.784446590700695
 31
0.0
  0
ARC
  5
791
  8
DATA
  6
CONTINUOUS
 62
     7
 10
178.6396128711396
 20
3.9655534092993041
 30
0.0
 40
0.75
 50
270.0
 51
90.0
  0
ARC
  5
792
  8
DATA
  6
CONTINUOUS
 62
     7
 10
164.23961287113971
 20
3.9655534092993041
 30
0.0
 40
0.75
 50
90.0
 51
270.0
  0
LINE
  5
793
  8
DATA
  6
CONTINUOUS
 62
     7
 10
164.23961287113971
 20
4.715553409299301
 30
0.0
 11
178.6396128711396
 21
4.715553409299301
 31
0.0
  0
LINE
  5
794
  8
DATA
  6
CONTINUOUS
 62
     7
 10
178.6396128711396
 20
3.2155534092993041
 30
0.0
 11
164.23961287113971
 21
3.2155534092993041
 31
0.0
  0
ARC
  5
795
  8
DATA
  6
CONTINUOUS
 62
     7
 10
178.6396128711396
 20
8.9655534092992983
 30
0.0
 40
0.75
 50
270.0
 51
90.0
  0
ARC
  5
796
  8
DATA
  6
CONTINUOUS
 62
     7
 10
164.23961287113971
 20
8.9655534092992983
 30
0.0
 40
0.75
 50
90.0
 51
270.0
  0
LINE
  5
797
  8
DATA
  6
CONTINUOUS
 62
     7
 10
164.23961287113971
 20
9.7155534092993037
 30
0.0
 11
178.6396128711396
 21
9.7155534092993037
 31
0.0
  0
LINE
  5
798
  8
DATA
  6
CONTINUOUS
 62
     7
 10
178.6396128711396
 20
8.2155534092992983
 30
0.0
 11
164.23961287113971
 21
8.2155534092992983
 31
0.0
  0
ARC
  5
799
  8
DATA
  6
CONTINUOUS
 62
     7
 10
178.6396128711396
 20
13.9655534092993
 30
0.0
 40
0.75
 50
270.0
 51
90.0
  0
ARC
  5
79A
  8
DATA
  6
CONTINUOUS
 62
     7
 10
164.23961287113971
 20
13.9655534092993
 30
0.0
 40
0.75
 50
90.0
 51
270.0
  0
LINE
  5
79B
  8
DATA
  6
CONTINUOUS
 62
     7
 10
164.23961287113971
 20
14.7155534092993
 30
0.0
 11
178.6396128711396
 21
14.7155534092993
 31
0.0
  0
LINE
  5
79C
  8
DATA
  6
CONTINUOUS
 62
     7
 10
178.6396128711396
 20
13.2155534092993
 30
0.0
 11
164.23961287113971
 21
13.2155534092993
 31
0.0
  0
ARC
  5
79D
  8
DATA
  6
CONTINUOUS
 62
     7
 10
178.6396128711396
 20
18.9655534092993
 30
0.0
 40
0.75
 50
270.0
 51
90.0
  0
ARC
  5
79E
  8
DATA
  6
CONTINUOUS
 62
     7
 10
164.23961287113971
 20
18.9655534092993
 30
0.0
 40
0.75
 50
90.0
 51
270.0
  0
LINE
  5
79F
  8
DATA
  6
CONTINUOUS
 62
     7
 10
164.23961287113971
 20
19.7155534092993
 30
0.0
 11
178.6396128711396
 21
19.7155534092993
 31
0.0
  0
LINE
  5
7A0
  8
DATA
  6
CONTINUOUS
 62
     7
 10
178.6396128711396
 20
18.2155534092993
 30
0.0
 11
164.23961287113971
 21
18.2155534092993
 31
0.0
  0
ARC
  5
7A1
  8
DATA
  6
CONTINUOUS
 62
     7
 10
178.6396128711396
 20
23.965553409299311
 30
0.0
 40
0.75
 50
270.0
 51
90.0
  0
ARC
  5
7A2
  8
DATA
  6
CONTINUOUS
 62
     7
 10
164.23961287113971
 20
23.965553409299311
 30
0.0
 40
0.75
 50
90.0
 51
270.0
  0
LINE
  5
7A3
  8
DATA
  6
CONTINUOUS
 62
     7
 10
164.23961287113971
 20
24.715553409299311
 30
0.0
 11
178.6396128711396
 21
24.715553409299311
 31
0.0
  0
LINE
  5
7A4
  8
DATA
  6
CONTINUOUS
 62
     7
 10
178.6396128711396
 20
23.215553409299311
 30
0.0
 11
164.23961287113971
 21
23.215553409299311
 31
0.0
  0
ARC
  5
7A5
  8
DATA
  6
CONTINUOUS
 62
     7
 10
178.6396128711396
 20
28.965553409299311
 30
0.0
 40
0.75
 50
270.0
 51
90.0
  0
ARC
  5
7A6
  8
DATA
  6
CONTINUOUS
 62
     7
 10
164.23961287113971
 20
28.965553409299311
 30
0.0
 40
0.75
 50
90.0
 51
270.0
  0
LINE
  5
7A7
  8
DATA
  6
CONTINUOUS
 62
     7
 10
164.23961287113971
 20
29.715553409299311
 30
0.0
 11
178.6396128711396
 21
29.715553409299311
 31
0.0
  0
LINE
  5
7A8
  8
DATA
  6
CONTINUOUS
 62
     7
 10
178.6396128711396
 20
28.215553409299311
 30
0.0
 11
164.23961287113971
 21
28.215553409299311
 31
0.0
  0
ARC
  5
7A9
  8
DATA
  6
CONTINUOUS
 62
     7
 10
178.6396128711396
 20
33.965553409299311
 30
0.0
 40
0.75
 50
270.0
 51
90.0
  0
ARC
  5
7AA
  8
DATA
  6
CONTINUOUS
 62
     7
 10
164.23961287113971
 20
33.965553409299311
 30
0.0
 40
0.75
 50
90.0
 51
270.0
  0
LINE
  5
7AB
  8
DATA
  6
CONTINUOUS
 62
     7
 10
164.23961287113971
 20
34.715553409299297
 30
0.0
 11
178.6396128711396
 21
34.715553409299297
 31
0.0
  0
LINE
  5
7AC
  8
DATA
  6
CONTINUOUS
 62
     7
 10
178.6396128711396
 20
33.215553409299297
 30
0.0
 11
164.23961287113971
 21
33.215553409299297
 31
0.0
  0
ARC
  5
7AD
  8
DATA
  6
CONTINUOUS
 62
     7
 10
178.6396128711396
 20
38.965553409299297
 30
0.0
 40
0.75
 50
270.0
 51
90.0
  0
ARC
  5
7AE
  8
DATA
  6
CONTINUOUS
 62
     7
 10
164.23961287113971
 20
38.965553409299297
 30
0.0
 40
0.75
 50
90.0
 51
270.0
  0
LINE
  5
7AF
  8
DATA
  6
CONTINUOUS
 62
     7
 10
164.23961287113971
 20
39.715553409299297
 30
0.0
 11
178.6396128711396
 21
39.715553409299297
 31
0.0
  0
LINE
  5
7B0
  8
DATA
  6
CONTINUOUS
 62
     7
 10
178.6396128711396
 20
38.215553409299297
 30
0.0
 11
164.23961287113971
 21
38.215553409299297
 31
0.0
  0
LINE
  5
7B1
  8
DATA
  6
CONTINUOUS
 62
     7
 10
-181.06811776474839
 20
78.828766053990293
 30
0.0
 11
-181.06811776474839
 21
75.82876605399035
 31
0.0
  0
LINE
  5
7B2
  8
DATA
  6
CONTINUOUS
 62
     7
 10
-176.26811776474841
 20
78.828766053990293
 30
0.0
 11
-176.26811776474841
 21
75.82876605399035
 31
0.0
  0
LINE
  5
7B3
  8
DATA
  6
CONTINUOUS
 62
     7
 10
-183.56811776474839
 20
78.828766053990293
 30
0.0
 11
-173.76811776474841
 21
78.828766053990293
 31
0.0
  0
LINE
  5
7B4
  8
DATA
  6
CONTINUOUS
 62
     7
 10
-183.56811776474839
 20
78.828766053990293
 30
0.0
 11
-183.56811776474839
 21
78.999999999896275
 31
0.0
  0
LINE
  5
7B5
  8
DATA
  6
CONTINUOUS
 62
     7
 10
-173.76811776474841
 20
78.828766053990293
 30
0.0
 11
-173.76811776474841
 21
78.999999999896275
 31
0.0
  0
LINE
  5
7B6
  8
DATA
  6
CONTINUOUS
 62
     7
 10
-191.0000000000079
 20
-219.0000000000249
 30
0.0
 11
-191.0000000000079
 21
-187.0000000000249
 31
0.0
  0
ARC
  5
7B7
  8
DATA
  6
CONTINUOUS
 62
     7
 10
-188.0000000000079
 20
-219.0000000000249
 30
0.0
 40
3.0
 50
180.0
 51
270.0
  0
LINE
  5
7B8
  8
DATA
  6
CONTINUOUS
 62
     7
 10
220.99999999999221
 20
-222.0000000000249
 30
0.0
 11
-188.0000000000079
 21
-222.0000000000249
 31
0.0
  0
ARC
  5
7B9
  8
DATA
  6
CONTINUOUS
 62
     7
 10
220.99999999999221
 20
-219.0000000000249
 30
0.0
 40
3.0
 50
270.0
 51
0.0
  0
LINE
  5
7BA
  8
DATA
  6
CONTINUOUS
 62
     7
 10
223.99999999999221
 20
-187.0000000000249
 30
0.0
 11
223.99999999999221
 21
-219.0000000000249
 31
0.0
  0
ARC
  5
7BB
  8
DATA
  6
CONTINUOUS
 62
     7
 10
220.99999999999221
 20
-187.0000000000249
 30
0.0
 40
3.0
 50
0.0
 51
90.0
  0
LINE
  5
7BC
  8
DATA
  6
CONTINUOUS
 62
     7
 10
-188.0000000000079
 20
-184.0000000000249
 30
0.0
 11
220.99999999999221
 21
-184.0000000000249
 31
0.0
  0
ARC
  5
7BD
  8
DATA
  6
CONTINUOUS
 62
     7
 10
-188.0000000000079
 20
-187.00000000002481
 30
0.0
 40
2.9999999999999432
 50
90.0
 51
180.00000000000111
  0
CIRCLE
  5
7BE
  8
DATA
  6
CONTINUOUS
 62
     7
 10
16.961983085055682
 20
-185.6071053098531
 30
0.0
 40
2.8000000000000109
  0
POLYLINE
  5
7BF
  8
DATA
  6
CONTINUOUS
 62
     7
 66
     1
 10
0.0
 20
0.0
 30
0.0
 70
     1
  0
VERTEX
  5
C53
  8
DATA
  6
CONTINUOUS
 62
     7
 10
18.361983085055702
 20
-185.6071053098531
 30
0.0
  0
VERTEX
  5
C54
  8
DATA
  6
CONTINUOUS
 62
     7
 10
17.661983085055731
 20
-184.39466974455479
 30
0.0
  0
VERTEX
  5
C55
  8
DATA
  6
CONTINUOUS
 62
     7
 10
16.261983085055679
 20
-184.39466974455479
 30
0.0
  0
VERTEX
  5
C56
  8
DATA
  6
CONTINUOUS
 62
     7
 10
15.561983085055701
 20
-185.6071053098531
 30
0.0
  0
VERTEX
  5
C57
  8
DATA
  6
CONTINUOUS
 62
     7
 10
16.261983085055679
 20
-186.81954087515109
 30
0.0
  0
VERTEX
  5
C58
  8
DATA
  6
CONTINUOUS
 62
     7
 10
17.661983085055731
 20
-186.81954087515109
 30
0.0
  0
SEQEND
  5
C59
  8
DATA
  6
CONTINUOUS
 62
     7
  0
CIRCLE
  5
7C8
  8
DATA
  6
CONTINUOUS
 62
     7
 10
-169.71737410669269
 20
-203.9491678913468
 30
0.0
 40
4.75
  0
CIRCLE
  5
7C9
  8
DATA
  6
CONTINUOUS
 62
     7
 10
-169.71737410669269
 20
-203.9491678913468
 30
0.0
 40
6.6499999999999764
  0
CIRCLE
  5
7CA
  8
DATA
  6
CONTINUOUS
 62
     7
 10
-169.71737410669269
 20
-203.9491678913468
 30
0.0
 40
6.25
  0
POLYLINE
  5
7CB
  8
DATA
  6
CONTINUOUS
 62
     7
 66
     1
 10
0.0
 20
0.0
 30
0.0
 70
   129
  0
VERTEX
  5
C5A
  8
DATA
  6
CONTINUOUS
 62
     7
 10
-169.50330446172319
 20
-196.73283378404801
 30
0.0
  0
VERTEX
  5
C5B
  8
DATA
  6
CONTINUOUS
 62
     7
 10
-169.50330446172319
 20
-196.73283378404801
 30
0.0
 42
-0.4142135623730475
  0
VERTEX
  5
C5C
  8
DATA
  6
CONTINUOUS
 62
     7
 10
-168.80330446172329
 20
-197.43283378404811
 30
0.0
  0
VERTEX
  5
C5D
  8
DATA
  6
CONTINUOUS
 62
     7
 10
-168.8033044617232
 20
-203.1928337840483
 30
0.0
  0
VERTEX
  5
C5E
  8
DATA
  6
CONTINUOUS
 62
     7
 10
-168.8033044617232
 20
-203.1928337840483
 30
0.0
 42
-0.4142135623730713
  0
VERTEX
  5
C5F
  8
DATA
  6
CONTINUOUS
 62
     7
 10
-169.50330446172319
 20
-203.89283378404821
 30
0.0
  0
VERTEX
  5
C60
  8
DATA
  6
CONTINUOUS
 62
     7
 10
-169.70330446172321
 20
-203.89283378404821
 30
0.0
  0
VERTEX
  5
C61
  8
DATA
  6
CONTINUOUS
 62
     7
 10
-169.70330446172321
 20
-203.89283378404821
 30
0.0
 42
-0.4142135623730951
  0
VERTEX
  5
C62
  8
DATA
  6
CONTINUOUS
 62
     7
 10
-170.4033044617232
 20
-203.1928337840481
 30
0.0
  0
VERTEX
  5
C63
  8
DATA
  6
CONTINUOUS
 62
     7
 10
-170.40330446172311
 20
-197.43283378404811
 30
0.0
  0
VERTEX
  5
C64
  8
DATA
  6
CONTINUOUS
 62
     7
 10
-170.40330446172311
 20
-197.43283378404811
 30
0.0
 42
-0.4142135623730475
  0
VERTEX
  5
C65
  8
DATA
  6
CONTINUOUS
 62
     7
 10
-169.70330446172301
 20
-196.73283378404801
 30
0.0
  0
SEQEND
  5
C66
  8
DATA
  6
CONTINUOUS
 62
     7
  0
LINE
  5
7D9
  8
DATA
  6
CONTINUOUS
 62
     7
 10
-174.39952105013921
 20
-203.14916789134679
 30
0.0
 11
-175.91596265570939
 21
-203.14916789134679
 31
0.0
  0
LINE
  5
7DA
  8
DATA
  6
CONTINUOUS
 62
     7
 10
-174.39952105013921
 20
-204.74916789134679
 30
0.0
 11
-175.91596265570939
 21
-204.74916789134679
 31
0.0
  0
LINE
  5
7DB
  8
DATA
  6
CONTINUOUS
 62
     7
 10
-165.0352271632463
 20
-203.14916789134679
 30
0.0
 11
-163.5187855576761
 21
-203.14916789134679
 31
0.0
  0
LINE
  5
7DC
  8
DATA
  6
CONTINUOUS
 62
     7
 10
-165.0352271632463
 20
-204.74916789134679
 30
0.0
 11
-163.5187855576761
 21
-204.74916789134679
 31
0.0
  0
LINE
  5
7DD
  8
DATA
  6
CONTINUOUS
 62
     7
 10
-173.59383738586141
 20
-201.20407546207639
 30
0.0
 11
-174.66612352843691
 21
-200.13178931950111
 31
0.0
  0
LINE
  5
7DE
  8
DATA
  6
CONTINUOUS
 62
     7
 10
-172.46246653596751
 20
-200.0727046121736
 30
0.0
 11
-173.53475267853841
 21
-199.00041846960261
 31
0.0
  0
LINE
  5
7DF
  8
DATA
  6
CONTINUOUS
 62
     7
 10
-166.97228167742239
 20
-200.072704612178
 30
0.0
 11
-165.89999553484699
 21
-199.00041846960261
 31
0.0
  0
LINE
  5
7E0
  8
DATA
  6
CONTINUOUS
 62
     7
 10
-164.76862468494861
 20
-200.13178931950119
 30
0.0
 11
-165.84091082751951
 21
-201.20407546207221
 31
0.0
  0
LINE
  5
7E1
  8
DATA
  6
CONTINUOUS
 62
     7
 10
-164.76862468494861
 20
-207.7665464631925
 30
0.0
 11
-165.84091082751951
 21
-206.69426032062159
 31
0.0
  0
LINE
  5
7E2
  8
DATA
  6
CONTINUOUS
 62
     7
 10
-165.89999553484711
 20
-208.8979173130908
 30
0.0
 11
-166.97228167742239
 21
-207.82563117051561
 31
0.0
  0
ARC
  5
7E3
  8
DATA
  6
CONTINUOUS
 62
     7
 10
-169.79339384174199
 20
-203.87100403386879
 30
0.0
 40
7.6000000000000378
 50
300.65928338484542
 51
240.88271410567211
  0
LINE
  5
7E4
  8
DATA
  6
CONTINUOUS
 62
     7
 10
-177.3929918844932
 20
-203.9491678913468
 30
0.0
 11
-178.3673741066909
 21
-203.9491678913468
 31
0.0
  0
LINE
  5
7E5
  8
DATA
  6
CONTINUOUS
 62
     7
 10
-161.0673741066928
 20
-203.9491678913468
 30
0.0
 11
-162.19379579899081
 21
-203.9491678913468
 31
0.0
  0
LINE
  5
7E6
  8
DATA
  6
CONTINUOUS
 62
     7
 10
-173.4915460264335
 20
-210.51055751424889
 30
0.0
 11
-174.01739611338431
 21
-211.45465326818399
 31
0.0
  0
LINE
  5
7E7
  8
DATA
  6
CONTINUOUS
 62
     7
 10
-175.06589305485451
 20
-209.3446456048637
 30
0.0
 11
-175.79632128583191
 21
-210.10293918976609
 31
0.0
  0
LINE
  5
7E8
  8
DATA
  6
CONTINUOUS
 62
     7
 10
-176.3190113128407
 20
-207.76668325846319
 30
0.0
 11
-177.20586912931691
 21
-208.27871085753861
 31
0.0
  0
LINE
  5
7E9
  8
DATA
  6
CONTINUOUS
 62
     7
 10
-177.06749546406141
 20
-206.07269556270691
 30
0.0
 11
-178.02398415539901
 21
-206.36220114820571
 31
0.0
  0
LINE
  5
7EA
  8
DATA
  6
CONTINUOUS
 62
     7
 10
-177.3929918844932
 20
-203.9491678913468
 30
0.0
 11
-178.3673741066909
 21
-203.9491678913468
 31
0.0
  0
LINE
  5
7EB
  8
DATA
  6
CONTINUOUS
 62
     7
 10
-177.1349662409495
 20
-201.90598120773939
 30
0.0
 11
-178.83496624094951
 21
-201.65206420182719
 31
0.0
  0
LINE
  5
7EC
  8
DATA
  6
CONTINUOUS
 62
     7
 10
-176.39717727529271
 20
-200.1093495623937
 30
0.0
 11
-177.21414921563601
 21
-199.63397809645801
 31
0.0
  0
LINE
  5
7ED
  8
DATA
  6
CONTINUOUS
 62
     7
 10
-175.25237014107731
 20
-198.58332233361219
 30
0.0
 11
-175.9178382443549
 21
-197.9178542303344
 31
0.0
  0
LINE
  5
7EE
  8
DATA
  6
CONTINUOUS
 62
     7
 10
-173.6308352731098
 20
-197.3109702488421
 30
0.0
 11
-174.10290422916589
 21
-196.49332283227719
 31
0.0
  0
LINE
  5
7EF
  8
DATA
  6
CONTINUOUS
 62
     7
 10
-171.58874275978809
 20
-196.4861057770816
 30
0.0
 11
-171.8145581606629
 21
-195.5572480249684
 31
0.0
  0
LINE
  5
7F0
  8
DATA
  6
CONTINUOUS
 62
     7
 10
-167.57977539348539
 20
-196.6005230755286
 30
0.0
 11
-167.28943020848391
 21
-195.6469038370544
 31
0.0
  0
LINE
  5
7F1
  8
DATA
  6
CONTINUOUS
 62
     7
 10
-165.87006338027251
 20
-197.36197353078609
 30
0.0
 11
-165.34265570598109
 21
-196.48697391675
 31
0.0
  0
LINE
  5
7F2
  8
DATA
  6
CONTINUOUS
 62
     7
 10
-164.39196386096091
 20
-198.52455154996531
 30
0.0
 11
-163.66730547864859
 21
-197.7800036968253
 31
0.0
  0
LINE
  5
7F3
  8
DATA
  6
CONTINUOUS
 62
     7
 10
-163.10985548050971
 20
-200.25295000249261
 30
0.0
 11
-162.17190281319481
 21
-199.71970421861371
 31
0.0
  0
LINE
  5
7F4
  8
DATA
  6
CONTINUOUS
 62
     7
 10
-162.44845091094359
 20
-201.91861745756611
 30
0.0
 11
-160.7484509109436
 21
-201.62571294084819
 31
0.0
  0
LINE
  5
7F5
  8
DATA
  6
CONTINUOUS
 62
     7
 10
-161.4393422229079
 20
-206.2220650044012
 30
0.0
 11
-162.47964349994999
 21
-205.9371734213897
 31
0.0
  0
LINE
  5
7F6
  8
DATA
  6
CONTINUOUS
 62
     7
 10
-163.2405875797505
 20
-207.72077416892779
 30
0.0
 11
-162.2446553130487
 21
-208.30588383699919
 31
0.0
  0
LINE
  5
7F7
  8
DATA
  6
CONTINUOUS
 62
     7
 10
-163.51690996903039
 20
-209.98048155235909
 30
0.0
 11
-164.3365279168311
 21
-209.1608636045585
 31
0.0
  0
LINE
  5
7F8
  8
DATA
  6
CONTINUOUS
 62
     7
 10
-165.3318439842229
 20
-211.40501295041091
 30
0.0
 11
-165.9179125835752
 21
-210.40863701666331
 31
0.0
  0
LINE
  5
7F9
  8
DATA
  6
CONTINUOUS
 62
     7
 10
-169.5737686303824
 20
-196.2741780672863
 30
0.0
 11
-169.5737686303824
 21
-194.7741780672861
 31
0.0
  0
TEXT
  5
7FA
  8
DATA
 62
     7
 10
-176.1674508274194
 20
-213.8417238821545
 30
0.0
 40
1.588120117187497
  1
-12
 41
0.7
 11
-176.1674508274194
 21
-212.25360376496701
 31
0.0
 73
     3
  0
TEXT
  5
7FB
  8
DATA
 62
     7
 10
-170.1403458914281
 20
-194.45631353229501
 30
0.0
 40
1.588120117187497
  1
0
 41
0.7
 11
-170.1403458914281
 21
-192.8681934151075
 31
0.0
 73
     3
  0
TEXT
  5
7FC
  8
DATA
 62
     7
 10
-165.25568075949559
 20
-213.84870680546021
 30
0.0
 40
1.588120117187497
  1
+12
 41
0.7
 11
-165.25568075949559
 21
-212.2605866882727
 31
0.0
 73
     3
  0
LINE
  5
7FD
  8
DATA
  6
CONTINUOUS
 62
     7
 10
-173.499853273311
 20
-206.81173707558099
 30
0.0
 11
-174.53742032191769
 21
-207.91765287832729
 31
0.0
  0
LINE
  5
7FE
  8
DATA
  6
CONTINUOUS
 62
     7
 10
-173.3705667629747
 20
-209.0123915558126
 30
0.0
 11
-172.33299971437231
 21
-207.90647575307091
 31
0.0
  0
LINE
  5
7FF
  8
DATA
  6
CONTINUOUS
 62
     7
 10
-170.4033044617232
 20
-208.64938060441099
 30
0.0
 11
-170.4033044617232
 21
-210.16141382563259
 31
0.0
  0
LINE
  5
800
  8
DATA
  6
CONTINUOUS
 62
     7
 10
-168.80330446172329
 20
-208.6103884057774
 30
0.0
 11
-168.80330446172329
 21
-210.13196472483151
 31
0.0
  0
LINE
  5
801
  8
DATA
  6
CONTINUOUS
 62
     7
 10
-173.91946152804479
 20
-75.00802258075673
 30
0.0
 11
-173.91946152804479
 21
-76.508022580756673
 31
0.0
  0
LINE
  5
802
  8
DATA
  6
CONTINUOUS
 62
     7
 10
-165.11946152804481
 20
-75.000000000103171
 30
0.0
 11
-165.11946152804481
 21
-76.508022580756673
 31
0.0
  0
LINE
  5
803
  8
DATA
  6
CONTINUOUS
 62
     7
 10
-174.2472002275365
 20
-76.508022580756673
 30
0.0
 11
-176.17430806366951
 21
-76.508022580756673
 31
0.0
  0
LINE
  5
804
  8
DATA
  6
CONTINUOUS
 62
     7
 10
-176.17430806366951
 20
-76.508022580756673
 30
0.0
 11
-175.8743080636695
 21
-80.008022580756673
 31
0.0
  0
LINE
  5
805
  8
DATA
  6
CONTINUOUS
 62
     7
 10
-175.8743080636695
 20
-80.008022580756673
 30
0.0
 11
-174.2472002275365
 21
-91.508022580756801
 31
0.0
  0
LINE
  5
806
  8
DATA
  6
CONTINUOUS
 62
     7
 10
-163.1880651593986
 20
-80.008022580756673
 30
0.0
 11
-164.7917228285533
 21
-91.508022580756801
 31
0.0
  0
LINE
  5
807
  8
DATA
  6
CONTINUOUS
 62
     7
 10
-164.7917228285533
 20
-76.508022580756673
 30
0.0
 11
-174.2472002275365
 21
-76.508022580756673
 31
0.0
  0
LINE
  5
808
  8
DATA
  6
CONTINUOUS
 62
     7
 10
-162.86461499242029
 20
-76.508022580756673
 30
0.0
 11
-163.1646149924203
 21
-80.008022580756673
 31
0.0
  0
LINE
  5
809
  8
DATA
  6
CONTINUOUS
 62
     7
 10
-164.7917228285533
 20
-76.508022580756673
 30
0.0
 11
-162.86461499242029
 21
-76.508022580756673
 31
0.0
  0
LINE
  5
80A
  8
DATA
  6
CONTINUOUS
 62
     7
 10
-171.41946152804499
 20
-91.508022580756915
 30
0.0
 11
-172.031186611534
 21
-80.008022580756574
 31
0.0
  0
LINE
  5
80B
  8
DATA
  6
CONTINUOUS
 62
     7
 10
-173.11946152804501
 20
-91.508022580756915
 30
0.0
 11
-173.7311866115341
 21
-80.008022580756574
 31
0.0
  0
LINE
  5
80C
  8
DATA
  6
CONTINUOUS
 62
     7
 10
-167.61946152804501
 20
-91.508022580756915
 30
0.0
 11
-167.031186611534
 21
-80.008022580756574
 31
0.0
  0
LINE
  5
80D
  8
DATA
  6
CONTINUOUS
 62
     7
 10
-165.91946152804491
 20
-91.508022580756915
 30
0.0
 11
-165.33118661153401
 21
-80.008022580756574
 31
0.0
  0
LINE
  5
80E
  8
DATA
  6
CONTINUOUS
 62
     7
 10
-168.86946152804501
 20
-80.008022580756673
 30
0.0
 11
-163.1646149924203
 21
-80.008022580756673
 31
0.0
  0
LINE
  5
80F
  8
DATA
  6
CONTINUOUS
 62
     7
 10
-170.16946152804491
 20
-80.008022580756673
 30
0.0
 11
-175.8743080636695
 21
-80.008022580756673
 31
0.0
  0
LINE
  5
810
  8
DATA
  6
CONTINUOUS
 62
     7
 10
-168.86946152804501
 20
-91.508022580756801
 30
0.0
 11
-164.79172282855339
 21
-91.508022580756801
 31
0.0
  0
LINE
  5
811
  8
DATA
  6
CONTINUOUS
 62
     7
 10
-170.16946152804491
 20
-91.508022580756801
 30
0.0
 11
-174.2472002275365
 21
-91.508022580756801
 31
0.0
  0
LINE
  5
812
  8
DATA
  6
CONTINUOUS
 62
     7
 10
-170.16946152804491
 20
-80.008022580756673
 30
0.0
 11
-175.8743080636695
 21
-80.008022580756673
 31
0.0
  0
LINE
  5
813
  8
DATA
  6
CONTINUOUS
 62
     7
 10
-168.86946152804501
 20
-80.008022580756673
 30
0.0
 11
-163.1646149924203
 21
-80.008022580756673
 31
0.0
  0
LINE
  5
814
  8
DATA
  6
CONTINUOUS
 62
     7
 10
-170.16946152804491
 20
-91.508022580756801
 30
0.0
 11
-174.2472002275365
 21
-91.508022580756801
 31
0.0
  0
LINE
  5
815
  8
DATA
  6
CONTINUOUS
 62
     7
 10
-168.86946152804501
 20
-91.508022580756801
 30
0.0
 11
-164.7917228285533
 21
-91.508022580756801
 31
0.0
  0
ARC
  5
816
  8
DATA
  6
CONTINUOUS
 62
     7
 10
-169.5194615280449
 20
-91.075100648987956
 30
0.0
 40
0.9248994851090245
 50
225.34960338810239
 51
314.65039661189741
  0
LINE
  5
817
  8
DATA
  6
CONTINUOUS
 62
     7
 10
-170.16946152804491
 20
-91.733081695486433
 30
0.0
 11
-170.16946152804491
 21
-76.508022580756673
 31
0.0
  0
LINE
  5
818
  8
DATA
  6
CONTINUOUS
 62
     7
 10
-168.86946152804501
 20
-91.733081695486433
 30
0.0
 11
-168.86946152804501
 21
-76.508022580756673
 31
0.0
  0
POLYLINE
  5
819
  8
DATA
  6
CONTINUOUS
 62
     7
 66
     1
 10
0.0
 20
0.0
 30
0.0
 70
     1
  0
VERTEX
  5
C67
  8
DATA
  6
CONTINUOUS
 62
     7
 10
-174.26866718271489
 20
-75.000410096400799
 30
0.0
  0
VERTEX
  5
C68
  8
DATA
  6
CONTINUOUS
 62
     7
 10
-170.51866718271489
 20
-75.000410096400799
 30
0.0
  0
VERTEX
  5
C69
  8
DATA
  6
CONTINUOUS
 62
     7
 10
-170.51866718271489
 20
-76.000410096400785
 30
0.0
  0
VERTEX
  5
C6A
  8
DATA
  6
CONTINUOUS
 62
     7
 10
-174.26866718271489
 20
-76.000410096400785
 30
0.0
  0
SEQEND
  5
C6B
  8
DATA
  6
CONTINUOUS
 62
     7
  0
LINE
  5
820
  8
DATA
  6
CONTINUOUS
 62
     7
 10
348.49902125459892
 20
-197.3724329811352
 30
0.0
 11
333.87564165059848
 21
-199.1905510085941
 31
0.0
  0
LINE
  5
821
  8
DATA
  6
CONTINUOUS
 62
     7
 10
332.99902125459852
 20
-204.02727951675971
 30
0.0
 11
332.99902125459852
 21
-200.18291055700249
 31
0.0
  0
LINE
  5
822
  8
DATA
  6
CONTINUOUS
 62
     7
 10
348.49902125459869
 20
-197.87243298113509
 30
0.0
 11
348.49902125459892
 21
-197.3724329811352
 31
0.0
  0
ARC
  5
823
  8
DATA
  6
CONTINUOUS
 62
     7
 10
333.99902125459852
 20
-200.18291055700249
 30
0.0
 40
1.0000000000000691
 50
97.087189574138819
 51
180.0
  0
ARC
  5
824
  8
DATA
  6
CONTINUOUS
 62
     7
 10
333.49902125459852
 20
-204.02727951675971
 30
0.0
 40
0.5
 50
180.0
 51
270.0
  0
LINE
  5
825
  8
DATA
  6
CONTINUOUS
 62
     7
 10
-181.06811776474839
 20
77.328766053990293
 30
0.0
 11
-181.06811776474839
 21
74.999999999896275
 31
0.0
  0
LINE
  5
826
  8
DATA
  6
CONTINUOUS
 62
     7
 10
-176.26811776474841
 20
77.328766053990293
 30
0.0
 11
-176.26811776474841
 21
74.999999999896275
 31
0.0
  0
LINE
  5
827
  8
DATA
  6
CONTINUOUS
 62
     7
 10
343.42025999275842
 20
-202.09953424759311
 30
0.0
 11
343.74001477236231
 21
-202.09953424759311
 31
0.0
  0
LINE
  5
828
  8
DATA
  6
CONTINUOUS
 62
     7
 10
346.99999999985062
 20
-187.9118026303685
 30
0.0
 11
346.99999999985062
 21
-183.3118026303685
 31
0.0
  0
LINE
  5
829
  8
DATA
  6
CONTINUOUS
 62
     7
 10
347.49999999985062
 20
-182.8118026303685
 30
0.0
 11
349.99999999985062
 21
-182.8118026303685
 31
0.0
  0
ARC
  5
82A
  8
DATA
  6
CONTINUOUS
 62
     7
 10
347.49999999985062
 20
-183.3118026303685
 30
0.0
 40
0.5
 50
90.0
 51
180.0
  0
ARC
  5
82B
  8
DATA
  6
CONTINUOUS
 62
     7
 10
347.49999999985062
 20
-187.9118026303685
 30
0.0
 40
0.5
 50
180.0
 51
240.57860238591039
  0
LINE
  5
82C
  8
DATA
  6
CONTINUOUS
 62
     7
 10
347.49999999985062
 20
-193.98283304840271
 30
0.0
 11
349.99999999985062
 21
-193.98283304840271
 31
0.0
  0
LINE
  5
82D
  8
DATA
  6
CONTINUOUS
 62
     7
 10
347.49999999985062
 20
-188.28283304840261
 30
0.0
 11
349.99999999985062
 21
-188.28283304840261
 31
0.0
  0
LINE
  5
82E
  8
DATA
  6
CONTINUOUS
 62
     7
 10
346.99999999985062
 20
-193.48283304840271
 30
0.0
 11
346.99999999985062
 21
-188.78283304840261
 31
0.0
  0
ARC
  5
82F
  8
DATA
  6
CONTINUOUS
 62
     7
 10
347.49999999985062
 20
-193.48283304840271
 30
0.0
 40
0.5
 50
180.0
 51
270.0
  0
ARC
  5
830
  8
DATA
  6
CONTINUOUS
 62
     7
 10
347.49999999985062
 20
-188.78283304840261
 30
0.0
 40
0.5
 50
90.0
 51
180.0
  0
LINE
  5
831
  8
DATA
  6
CONTINUOUS
 62
     7
 10
348.49902125459869
 20
-211.22262922799229
 30
0.0
 11
344.99902125459869
 21
-210.85867588540609
 31
0.0
  0
LINE
  5
832
  8
DATA
  6
CONTINUOUS
 62
     7
 10
345.47840767151462
 20
-211.1556912968401
 30
0.0
 11
345.47840767151462
 21
-210.90852568221371
 31
0.0
  0
LINE
  5
833
  8
DATA
  6
CONTINUOUS
 62
     7
 10
345.99999999985062
 20
-211.36569129684011
 30
0.0
 11
345.99999999985062
 21
-210.96276433117529
 31
0.0
  0
LINE
  5
834
  8
DATA
  6
CONTINUOUS
 62
     7
 10
-225.0000000000079
 20
-225.0000000000249
 30
0.0
 11
-225.0000000000079
 21
-180.0000000000249
 31
0.0
  0
LINE
  5
835
  8
DATA
  6
CONTINUOUS
 62
     7
 10
257.9999999999921
 20
-225.0000000000249
 30
0.0
 11
-225.0000000000079
 21
-225.0000000000249
 31
0.0
  0
LINE
  5
836
  8
DATA
  6
CONTINUOUS
 62
     7
 10
257.9999999999921
 20
-180.0000000000249
 30
0.0
 11
257.9999999999921
 21
-225.0000000000249
 31
0.0
  0
LINE
  5
837
  8
DATA
  6
CONTINUOUS
 62
     7
 10
-225.0000000000079
 20
-180.0000000000249
 30
0.0
 11
257.9999999999921
 21
-180.0000000000249
 31
0.0
  0
POLYLINE
  5
838
  8
DATA
  6
CONTINUOUS
 62
     7
 66
     1
 10
0.0
 20
0.0
 30
0.0
 70
     1
  0
VERTEX
  5
C6C
  8
DATA
  6
CONTINUOUS
 62
     7
 10
-225.0000000003522
 20
245.00000000011411
 30
0.0
  0
VERTEX
  5
C6D
  8
DATA
  6
CONTINUOUS
 62
     7
 10
257.99999999964768
 20
245.00000000011411
 30
0.0
  0
VERTEX
  5
C6E
  8
DATA
  6
CONTINUOUS
 62
     7
 10
257.99999999964768
 20
200.00000000011411
 30
0.0
  0
VERTEX
  5
C6F
  8
DATA
  6
CONTINUOUS
 62
     7
 10
-225.0000000003522
 20
200.00000000011411
 30
0.0
  0
SEQEND
  5
C70
  8
DATA
  6
CONTINUOUS
 62
     7
  0
LINE
  5
83F
  8
DATA
  6
CONTINUOUS
 62
     7
 10
235.9999999996478
 20
244.40000000011409
 30
0.0
 11
235.9999999996478
 21
245.00000000011411
 31
0.0
  0
LINE
  5
840
  8
DATA
  6
CONTINUOUS
 62
     7
 10
230.6999999996477
 20
244.40000000011409
 30
0.0
 11
230.6999999996477
 21
245.00000000011411
 31
0.0
  0
TEXT
  5
841
  8
DATA
 62
     7
 10
-174.4894211486131
 20
214.0585315560628
 30
0.0
 40
2.0360514322916661
  1
PUSH
 50
180.0
 41
0.7
 11
-174.4894211486131
 21
212.0224801237712
 31
0.0
 73
     3
  0
ARC
  5
842
  8
DATA
  6
CONTINUOUS
 62
     7
 10
-177.1341919944428
 20
225.72540589608309
 30
0.0
 40
10.899999999999871
 50
289.23581260751018
 51
250.76418739248899
  0
CIRCLE
  5
843
  8
DATA
  6
CONTINUOUS
 62
     7
 10
-177.1341919944428
 20
225.72540589608309
 30
0.0
 40
9.8500000000000245
  0
CIRCLE
  5
844
  8
DATA
  6
CONTINUOUS
 62
     7
 10
-177.1341919944428
 20
225.72540589608309
 30
0.0
 40
7.8500000000000218
  0
CIRCLE
  5
845
  8
DATA
  6
CONTINUOUS
 62
     7
 10
-177.1341919944428
 20
229.6465439172255
 30
0.0
 40
1.264999999999985
  0
CIRCLE
  5
846
  8
DATA
  6
CONTINUOUS
 62
     7
 10
-173.20271040855681
 20
225.72540589608309
 30
0.0
 40
1.2649999999999271
  0
CIRCLE
  5
847
  8
DATA
  6
CONTINUOUS
 62
     7
 10
-181.06863641383009
 20
225.72540589608309
 30
0.0
 40
1.264999999999985
  0
ARC
  5
848
  8
DATA
  6
CONTINUOUS
 62
     7
 10
-178.96204955426461
 20
212.70707206949689
 30
0.0
 40
3.1721424401781881
 50
93.110794313929887
 51
266.88920568607
  0
ARC
  5
849
  8
DATA
  6
CONTINUOUS
 62
     7
 10
-175.30633443462119
 20
212.70707206949689
 30
0.0
 40
3.1721424401781322
 50
273.11079431393
 51
86.889205686070113
  0
LINE
  5
84A
  8
DATA
  6
CONTINUOUS
 62
     7
 10
-175.1341919944428
 20
209.5396038942711
 30
0.0
 11
-179.1341919944428
 21
209.5396038942711
 31
0.0
  0
LINE
  5
84B
  8
DATA
  6
CONTINUOUS
 62
     7
 10
-179.1341919944428
 20
215.87454024472291
 30
0.0
 11
-175.134191994492
 21
215.87454024472291
 31
0.0
  0
CIRCLE
  5
84C
  8
DATA
  6
CONTINUOUS
 62
     7
 10
-167.3203365230801
 20
215.66374144191221
 30
0.0
 40
2.7499999999999032
  0
CIRCLE
  5
84D
  8
DATA
  6
CONTINUOUS
 62
     7
 10
-96.72151825077502
 20
225.37838077258709
 30
0.0
 40
11.0
  0
CIRCLE
  5
84E
  8
DATA
  6
CONTINUOUS
 62
     7
 10
-96.721426841817049
 20
225.31322489497219
 30
0.0
 40
8.2499999999999876
  0
CIRCLE
  5
84F
  8
DATA
  6
CONTINUOUS
 62
     7
 10
-92.725560052213766
 20
225.5955539250638
 30
0.0
 40
1.175000000000036
  0
CIRCLE
  5
850
  8
DATA
  6
CONTINUOUS
 62
     7
 10
-100.72173174167359
 20
225.5783807725872
 30
0.0
 40
1.17500000000001
  0
CIRCLE
  5
851
  8
DATA
  6
CONTINUOUS
 62
     7
 10
-96.7215691288187
 20
229.26214323092819
 30
0.0
 40
1.17500000000001
  0
LINE
  5
852
  8
DATA
  6
CONTINUOUS
 62
     7
 10
-202.00000000035141
 20
244.40000000011409
 30
0.0
 11
-202.00000000035141
 21
245.00000000011411
 31
0.0
  0
LINE
  5
853
  8
DATA
  6
CONTINUOUS
 62
     7
 10
-196.70000000035131
 20
244.40000000011409
 30
0.0
 11
-196.70000000035131
 21
245.00000000011411
 31
0.0
  0
LINE
  5
854
  8
DATA
  6
CONTINUOUS
 62
     7
 10
-183.56811776474839
 20
78.999999999896275
 30
0.0
 11
-173.76811776474841
 21
78.999999999896275
 31
0.0
  0
LINE
  5
855
  8
DATA
  6
CONTINUOUS
 62
     7
 10
-167.3203365230801
 20
213.91215197958249
 30
0.0
 11
-167.3203365230801
 21
217.41215197958249
 31
0.0
  0
LINE
  5
856
  8
DATA
  6
CONTINUOUS
 62
     7
 10
-165.54319323882609
 20
215.6621519795824
 30
0.0
 11
-169.04319323882601
 21
215.6621519795824
 31
0.0
  0
CIRCLE
  5
857
  8
DATA
  6
CONTINUOUS
 62
     7
 10
-86.820336523080101
 20
215.66374144191221
 30
0.0
 40
2.7499999999999032
  0
LINE
  5
858
  8
DATA
  6
CONTINUOUS
 62
     7
 10
-86.820336523080101
 20
213.91215197958249
 30
0.0
 11
-86.820336523080101
 21
217.41215197958249
 31
0.0
  0
LINE
  5
859
  8
DATA
  6
CONTINUOUS
 62
     7
 10
-85.043193238826191
 20
215.6621519795824
 30
0.0
 11
-88.543193238826007
 21
215.6621519795824
 31
0.0
  0
LINE
  5
85A
  8
DATA
  6
CONTINUOUS
 62
     7
 10
369.99999999985039
 20
-222.1499999996642
 30
0.0
 11
369.99999999985039
 21
-217.84999999966439
 31
0.0
  0
LINE
  5
85B
  8
DATA
  6
CONTINUOUS
 62
     7
 10
367.84999999985052
 20
-219.9999999996642
 30
0.0
 11
372.14999999985048
 21
-219.9999999996642
 31
0.0
  0
LINE
  5
85C
  8
DATA
  6
CONTINUOUS
 62
     7
 10
369.99999999985039
 20
-222.1499999996642
 30
0.0
 11
369.99999999985039
 21
-217.84999999966439
 31
0.0
  0
LINE
  5
85D
  8
DATA
  6
CONTINUOUS
 62
     7
 10
367.84999999985052
 20
-219.9999999996642
 30
0.0
 11
372.14999999985048
 21
-219.9999999996642
 31
0.0
  0
CIRCLE
  5
85E
  8
DATA
  6
CONTINUOUS
 62
     7
 10
481.99999999985027
 20
-219.9999999996644
 30
0.0
 40
3.350000000000021
  0
LINE
  5
85F
  8
DATA
  6
CONTINUOUS
 62
     7
 10
481.99999999985027
 20
-222.1499999996642
 30
0.0
 11
481.99999999985027
 21
-217.84999999966439
 31
0.0
  0
LINE
  5
860
  8
DATA
  6
CONTINUOUS
 62
     7
 10
479.84999999985041
 20
-219.9999999996642
 30
0.0
 11
484.14999999985048
 21
-219.9999999996642
 31
0.0
  0
LINE
  5
861
  8
DATA
  6
CONTINUOUS
 62
     7
 10
481.99999999985027
 20
-222.1499999996642
 30
0.0
 11
481.99999999985027
 21
-217.84999999966439
 31
0.0
  0
LINE
  5
862
  8
DATA
  6
CONTINUOUS
 62
     7
 10
479.84999999985041
 20
-219.9999999996642
 30
0.0
 11
484.14999999985048
 21
-219.9999999996642
 31
0.0
  0
TEXT
  5
863
  8
DATA
 62
     7
 10
-68.455787309753546
 20
211.82278406944059
 30
0.0
 40
2.7781250000000002
  1
PHONE:
 50
180.0
 41
0.7
 11
-68.455787309753546
 21
209.0446590694406
 31
0.0
 73
     3
  0
TEXT
  5
864
  8
DATA
 62
     7
 10
-68.371745183617534
 20
215.30269381770111
 30
0.0
 40
2.4432617187500001
  1
TIP +
 50
180.0
 41
0.7
 11
-68.371745183617534
 21
212.85943209895109
 31
0.0
 73
     3
  0
TEXT
  5
865
  8
DATA
 62
     7
 10
-68.438175240353971
 20
219.04706751805659
 30
0.0
 40
2.4432617187500001
  1
RING -
 50
180.0
 41
0.7
 11
-68.438175240353971
 21
216.6038057993066
 31
0.0
 73
     3
  0
TEXT
  5
866
  8
DATA
 62
     7
 10
-68.414605297090404
 20
222.59992763152971
 30
0.0
 40
2.7781250000000002
  1
SLEEVE
 50
180.0
 41
0.7
 11
-68.414605297090404
 21
219.82180263152969
 31
0.0
 73
     3
  0
TEXT
  5
867
  8
DATA
 62
     7
 10
-68.409782754538099
 20
226.64082531592351
 30
0.0
 40
2.7781250000000002
  1
XLR:
 50
180.0
 41
0.7
 11
-68.409782754538099
 21
223.8627003159236
 31
0.0
 73
     3
  0
TEXT
  5
868
  8
DATA
 62
     7
 10
-68.435763969077811
 20
230.18162907301561
 30
0.0
 40
2.4432617187500001
  1
PIN 1
 50
180.0
 41
0.7
 11
-68.435763969077811
 21
227.73836735426559
 31
0.0
 73
     3
  0
TEXT
  5
869
  8
DATA
 62
     7
 10
-68.497371483261915
 20
234.10600277337119
 30
0.0
 40
2.4432617187500001
  1
PIN 2 +
 50
180.0
 41
0.7
 11
-68.497371483261915
 21
231.66274105462119
 31
0.0
 73
     3
  0
TEXT
  5
86A
  8
DATA
 62
     7
 10
-68.343352697801649
 20
237.6872553726601
 30
0.0
 40
2.4432617187500001
  1
PIN 3 -
 50
180.0
 41
0.7
 11
-68.343352697801649
 21
235.24399365391011
 31
0.0
 73
     3
  0
LINE
  5
86B
  8
DATA
  6
CONTINUOUS
 62
     7
 10
-68.278244231755281
 20
212.26736010590321
 30
0.0
 11
-76.828244231755235
 21
212.26736010590321
 31
0.0
  0
LINE
  5
86C
  8
DATA
  6
CONTINUOUS
 62
     7
 10
-68.06297692702104
 20
227.2415047949624
 30
0.0
 11
-73.962976927021046
 21
227.2415047949624
 31
0.0
  0
LINE
  5
86D
  8
DATA
  6
CONTINUOUS
 62
     7
 10
223.13219967803519
 20
233.35720748073871
 30
0.0
 11
198.3705527816675
 21
233.35720748073871
 31
0.0
  0
LINE
  5
86E
  8
DATA
  6
CONTINUOUS
 62
     7
 10
223.13219967803519
 20
210.03548266706539
 30
0.0
 11
198.3705527816675
 21
210.03548266706539
 31
0.0
  0
LINE
  5
86F
  8
DATA
  6
CONTINUOUS
 62
     7
 10
195.3705527816675
 20
213.03548266706539
 30
0.0
 11
195.3705527816675
 21
230.35720748073871
 31
0.0
  0
LINE
  5
870
  8
DATA
  6
CONTINUOUS
 62
     7
 10
226.13219967803531
 20
213.03548266706539
 30
0.0
 11
226.13219967803531
 21
230.35720748073871
 31
0.0
  0
ARC
  5
871
  8
DATA
  6
CONTINUOUS
 62
     7
 10
198.3705527816675
 20
230.35720748073871
 30
0.0
 40
3.0
 50
90.0
 51
180.0
  0
ARC
  5
872
  8
DATA
  6
CONTINUOUS
 62
     7
 10
198.3705527816675
 20
213.03548266706539
 30
0.0
 40
3.0
 50
180.0
 51
270.0
  0
ARC
  5
873
  8
DATA
  6
CONTINUOUS
 62
     7
 10
223.13219967803519
 20
230.35720748073871
 30
0.0
 40
3.0
 50
0.0
 51
90.0
  0
ARC
  5
874
  8
DATA
  6
CONTINUOUS
 62
     7
 10
223.13219967803519
 20
213.03548266706539
 30
0.0
 40
3.0
 50
270.0
 51
0.0
  0
LINE
  5
875
  8
DATA
  6
CONTINUOUS
 62
     7
 10
220.81721227201319
 20
214.1913490496425
 30
0.0
 11
200.9918469346257
 21
214.1913490496425
 31
0.0
  0
LINE
  5
876
  8
DATA
  6
CONTINUOUS
 62
     7
 10
198.9918469346257
 20
223.4226292336671
 30
0.0
 11
198.9918469346257
 21
216.1913490496425
 31
0.0
  0
LINE
  5
877
  8
DATA
  6
CONTINUOUS
 62
     7
 10
222.81721227201319
 20
223.41711571969441
 30
0.0
 11
222.81721227201319
 21
216.1913490496425
 31
0.0
  0
ARC
  5
878
  8
DATA
  6
CONTINUOUS
 62
     7
 10
200.9918469346257
 20
216.1913490496425
 30
0.0
 40
2.0
 50
180.0
 51
270.0
  0
ARC
  5
879
  8
DATA
  6
CONTINUOUS
 62
     7
 10
220.81721227201319
 20
216.1913490496425
 30
0.0
 40
2.0
 50
270.0
 51
0.0
  0
LINE
  5
87A
  8
DATA
  6
CONTINUOUS
 62
     7
 10
216.36478460470479
 20
229.86954338700261
 30
0.0
 11
205.3126406237312
 21
229.86954338700261
 31
0.0
  0
LINE
  5
87B
  8
DATA
  6
CONTINUOUS
 62
     7
 10
199.55743879116071
 20
224.81635563363281
 30
0.0
 11
203.87823248026621
 21
229.26326978696841
 31
0.0
  0
LINE
  5
87C
  8
DATA
  6
CONTINUOUS
 62
     7
 10
222.2314258343863
 20
224.83132928206749
 30
0.0
 11
217.7789981670779
 21
229.2837569493758
 31
0.0
  0
ARC
  5
87D
  8
DATA
  6
CONTINUOUS
 62
     7
 10
205.3126406237312
 20
227.86954338700261
 30
0.0
 40
2.0000000000000142
 50
89.999999999999545
 51
135.82412325926899
  0
ARC
  5
87E
  8
DATA
  6
CONTINUOUS
 62
     7
 10
216.36478460470479
 20
227.86954338700261
 30
0.0
 40
2.0000000000000151
 50
44.999999999999417
 51
89.999999999999176
  0
ARC
  5
87F
  8
DATA
  6
CONTINUOUS
 62
     7
 10
200.9918469346257
 20
223.4226292336671
 30
0.0
 40
1.999999999999998
 50
135.82412325926961
 51
180.0
  0
ARC
  5
880
  8
DATA
  6
CONTINUOUS
 62
     7
 10
220.81721227201319
 20
223.41711571969429
 30
0.0
 40
1.999999999999984
 50
0.0000000000003979
 51
45.000000000000568
  0
LINE
  5
881
  8
DATA
  6
CONTINUOUS
 62
     7
 10
202.85581616096599
 20
217.2220638805729
 30
0.0
 11
202.85581616096599
 21
222.44813888057459
 31
0.0
  0
LINE
  5
882
  8
DATA
  6
CONTINUOUS
 62
     7
 10
204.19689116096509
 20
217.2220638805729
 30
0.0
 11
202.85581616096599
 21
217.2220638805729
 31
0.0
  0
LINE
  5
883
  8
DATA
  6
CONTINUOUS
 62
     7
 10
204.19689116096509
 20
222.44813888057459
 30
0.0
 11
204.19689116096509
 21
217.2220638805729
 31
0.0
  0
LINE
  5
884
  8
DATA
  6
CONTINUOUS
 62
     7
 10
202.85581616096599
 20
222.44813888057459
 30
0.0
 11
204.19689116096509
 21
222.44813888057459
 31
0.0
  0
LINE
  5
885
  8
DATA
  6
CONTINUOUS
 62
     7
 10
210.23399116096539
 20
221.35046388057489
 30
0.0
 11
210.23399116096539
 21
226.57668888057611
 31
0.0
  0
LINE
  5
886
  8
DATA
  6
CONTINUOUS
 62
     7
 10
211.5751411609657
 20
221.35046388057489
 30
0.0
 11
210.23399116096539
 21
221.35046388057489
 31
0.0
  0
LINE
  5
887
  8
DATA
  6
CONTINUOUS
 62
     7
 10
211.5751411609657
 20
226.57668888057611
 30
0.0
 11
211.5751411609657
 21
221.35046388057489
 31
0.0
  0
LINE
  5
888
  8
DATA
  6
CONTINUOUS
 62
     7
 10
210.23399116096539
 20
226.57668888057611
 30
0.0
 11
211.5751411609657
 21
226.57668888057611
 31
0.0
  0
LINE
  5
889
  8
DATA
  6
CONTINUOUS
 62
     7
 10
217.61226616096599
 20
217.2222388805753
 30
0.0
 11
217.61226616096599
 21
222.44831388057409
 31
0.0
  0
LINE
  5
88A
  8
DATA
  6
CONTINUOUS
 62
     7
 10
218.95331616096539
 20
217.2222388805753
 30
0.0
 11
217.61226616096599
 21
217.2222388805753
 31
0.0
  0
LINE
  5
88B
  8
DATA
  6
CONTINUOUS
 62
     7
 10
218.95331616096539
 20
222.44831388057409
 30
0.0
 11
218.95331616096539
 21
217.2222388805753
 31
0.0
  0
LINE
  5
88C
  8
DATA
  6
CONTINUOUS
 62
     7
 10
217.61226616096599
 20
222.44831388057409
 30
0.0
 11
218.95331616096539
 21
222.44831388057409
 31
0.0
  0
CIRCLE
  5
88D
  8
DATA
  6
CONTINUOUS
 62
     7
 10
-187.19585644861371
 20
235.5392613674459
 30
0.0
 40
2.7499999999999032
  0
LINE
  5
88E
  8
DATA
  6
CONTINUOUS
 62
     7
 10
-188.9474459109434
 20
235.5392613674459
 30
0.0
 11
-185.4474459109434
 21
235.5392613674459
 31
0.0
  0
LINE
  5
88F
  8
DATA
  6
CONTINUOUS
 62
     7
 10
-187.1974459109436
 20
237.31640465169971
 30
0.0
 11
-187.1974459109436
 21
233.8164046517
 31
0.0
  0
CIRCLE
  5
890
  8
DATA
  6
CONTINUOUS
 62
     7
 10
-106.7258564486138
 20
235.5392613674459
 30
0.0
 40
2.7499999999999032
  0
LINE
  5
891
  8
DATA
  6
CONTINUOUS
 62
     7
 10
-108.4774459109435
 20
235.5392613674459
 30
0.0
 11
-104.9774459109435
 21
235.5392613674459
 31
0.0
  0
LINE
  5
892
  8
DATA
  6
CONTINUOUS
 62
     7
 10
-106.7274459109436
 20
237.31640465169971
 30
0.0
 11
-106.7274459109436
 21
233.8164046517
 31
0.0
  0
POLYLINE
  5
893
  8
DATA
  6
CONTINUOUS
 62
     7
 66
     1
 10
0.0
 20
0.0
 30
0.0
 70
     1
  0
VERTEX
  5
C71
  8
DATA
  6
CONTINUOUS
 62
     7
 10
-154.35846925537439
 20
238.91556430986461
 30
0.0
  0
VERTEX
  5
C72
  8
DATA
  6
CONTINUOUS
 62
     7
 10
-158.6885962742966
 20
231.41556430986461
 30
0.0
  0
VERTEX
  5
C73
  8
DATA
  6
CONTINUOUS
 62
     7
 10
-154.3584692553745
 20
223.91556430986461
 30
0.0
  0
VERTEX
  5
C74
  8
DATA
  6
CONTINUOUS
 62
     7
 10
-145.69821521753011
 20
223.91556430986449
 30
0.0
  0
VERTEX
  5
C75
  8
DATA
  6
CONTINUOUS
 62
     7
 10
-141.36808819860781
 20
231.41556430986441
 30
0.0
  0
VERTEX
  5
C76
  8
DATA
  6
CONTINUOUS
 62
     7
 10
-145.69821521752999
 20
238.91556430986449
 30
0.0
  0
SEQEND
  5
C77
  8
DATA
  6
CONTINUOUS
 62
     7
  0
POLYLINE
  5
89C
  8
DATA
  6
CONTINUOUS
 62
     7
 66
     1
 10
0.0
 20
0.0
 30
0.0
 70
     1
  0
VERTEX
  5
C78
  8
DATA
  6
CONTINUOUS
 62
     7
 10
-129.35846925537439
 20
238.91556430986461
 30
0.0
  0
VERTEX
  5
C79
  8
DATA
  6
CONTINUOUS
 62
     7
 10
-133.6885962742966
 20
231.41556430986461
 30
0.0
  0
VERTEX
  5
C7A
  8
DATA
  6
CONTINUOUS
 62
     7
 10
-129.3584692553745
 20
223.91556430986461
 30
0.0
  0
VERTEX
  5
C7B
  8
DATA
  6
CONTINUOUS
 62
     7
 10
-120.69821521753011
 20
223.91556430986449
 30
0.0
  0
VERTEX
  5
C7C
  8
DATA
  6
CONTINUOUS
 62
     7
 10
-116.36808819860779
 20
231.41556430986441
 30
0.0
  0
VERTEX
  5
C7D
  8
DATA
  6
CONTINUOUS
 62
     7
 10
-120.69821521753001
 20
238.91556430986449
 30
0.0
  0
SEQEND
  5
C7E
  8
DATA
  6
CONTINUOUS
 62
     7
  0
TEXT
  5
8A5
  8
DATA
 62
     7
 10
340.7826508869515
 20
-419.5352020752714
 30
0.0
 40
9.2604166666666661
  1
1ch 31バンド・グラフィックイコライザー
 41
0.7
 11
340.7826508869515
 21
-410.27478540860483
 31
0.0
 73
     3
  0
LINE
  5
8A6
  8
DATA
  6
CONTINUOUS
 62
     7
 10
-154.52834223645209
 20
78.999999999896275
 30
0.0
 11
-154.52834223645209
 21
74.999999999896275
 31
0.0
  0
LINE
  5
8A7
  8
DATA
  6
CONTINUOUS
 62
     7
 10
-154.52834223645209
 20
78.999999999896275
 30
0.0
 11
-145.52834223645209
 21
78.999999999896275
 31
0.0
  0
LINE
  5
8A8
  8
DATA
  6
CONTINUOUS
 62
     7
 10
-129.52834223645209
 20
78.999999999896275
 30
0.0
 11
-120.5283422364521
 21
78.999999999896275
 31
0.0
  0
LINE
  5
8A9
  8
DATA
  6
CONTINUOUS
 62
     7
 10
258.00000000022101
 20
-72.000000000103114
 30
0.0
 11
258.00000000022101
 21
-75.000000000103171
 31
0.0
  0
LINE
  5
8AA
  8
DATA
  6
CONTINUOUS
 62
     7
 10
14.700558169180409
 20
-78.000000000103171
 30
0.0
 11
17.30055816918043
 21
-78.000000000103171
 31
0.0
  0
LINE
  5
8AB
  8
DATA
  6
CONTINUOUS
 62
     7
 10
13.2005581691804
 20
-76.500000000103171
 30
0.0
 11
13.2005581691804
 21
-75.000000000103171
 31
0.0
  0
LINE
  5
8AC
  8
DATA
  6
CONTINUOUS
 62
     7
 10
18.80055816918043
 20
-76.500000000103171
 30
0.0
 11
18.80055816918043
 21
-75.000000000103171
 31
0.0
  0
ARC
  5
8AD
  8
DATA
  6
CONTINUOUS
 62
     7
 10
14.700558169180409
 20
-76.500000000103171
 30
0.0
 40
1.5
 50
180.0
 51
270.0
  0
ARC
  5
8AE
  8
DATA
  6
CONTINUOUS
 62
     7
 10
17.30055816918043
 20
-76.500000000103171
 30
0.0
 40
1.5
 50
270.0
 51
0.0
  0
LINE
  5
8AF
  8
DATA
  6
CONTINUOUS
 62
     7
 10
-145.52834223645209
 20
74.999999999896275
 30
0.0
 11
-145.52834223645209
 21
78.999999999896275
 31
0.0
  0
LINE
  5
8B0
  8
DATA
  6
CONTINUOUS
 62
     7
 10
-129.52834223645209
 20
74.999999999896275
 30
0.0
 11
-129.52834223645209
 21
78.999999999896275
 31
0.0
  0
LINE
  5
8B1
  8
DATA
  6
CONTINUOUS
 62
     7
 10
-120.5283422364521
 20
74.999999999896275
 30
0.0
 11
-120.5283422364521
 21
78.999999999896275
 31
0.0
  0
ENDSEC
  0
EOF
