  0
SECTION
  2
HEADER
  9
$ACADVER
  1
AC1009
  9
$INSBASE
 10
0.0
 20
0.0
 30
0.0
  9
$EXTMIN
 10
-350.05492912598987
 20
-533.92134323131711
 30
-0.0000000349181948
  9
$EXTMAX
 10
550.05493750814912
 20
804.20877005749651
 30
0.0000000814935747
  9
$LIMMIN
 10
0.0
 20
0.0
  9
$LIMMAX
 10
0.0
 20
0.0
  9
$ORTHOMODE
 70
     0
  9
$REGENMODE
 70
     1
  9
$FILLMODE
 70
     1
  9
$QTEXTMODE
 70
     0
  9
$MIRRTEXT
 70
     1
  9
$DRAGMODE
 70
     2
  9
$LTSCALE
 40
25.399999999999999
  9
$OSMODE
 70
   231
  9
$ATTMODE
 70
     1
  9
$TEXTSIZE
 40
0.0
  9
$TRACEWID
 40
1.0
  9
$TEXTSTYLE
  7
STANDARD
  9
$CLAYER
  8
DATA
  9
$CELTYPE
  6
BYLAYER
  9
$CECOLOR
 62
   256
  9
$DIMSCALE
 40
1.0
  9
$DIMASZ
 40
0.18
  9
$DIMEXO
 40
0.0625
  9
$DIMDLI
 40
0.38
  9
$DIMRND
 40
0.0
  9
$DIMDLE
 40
0.0
  9
$DIMEXE
 40
0.18
  9
$DIMTP
 40
0.0
  9
$DIMTM
 40
0.0
  9
$DIMTXT
 40
0.18
  9
$DIMCEN
 40
0.09
  9
$DIMTSZ
 40
0.0
  9
$DIMTOL
 70
     0
  9
$DIMLIM
 70
     0
  9
$DIMTIH
 70
     1
  9
$DIMTOH
 70
     1
  9
$DIMSE1
 70
     0
  9
$DIMSE2
 70
     0
  9
$DIMTAD
 70
     0
  9
$DIMZIN
 70
     0
  9
$DIMBLK
  1

  9
$DIMASO
 70
     1
  9
$DIMSHO
 70
     1
  9
$DIMPOST
  1

  9
$DIMAPOST
  1

  9
$DIMALT
 70
     0
  9
$DIMALTD
 70
     2
  9
$DIMALTF
 40
25.399999999999999
  9
$DIMLFAC
 40
1.0
  9
$DIMTOFL
 70
     0
  9
$DIMTVP
 40
0.0
  9
$DIMTIX
 70
     0
  9
$DIMSOXD
 70
     0
  9
$DIMSAH
 70
     0
  9
$DIMBLK1
  1

  9
$DIMBLK2
  1

  9
$DIMSTYLE
  2
STANDARD
  9
$DIMCLRD
 70
     0
  9
$DIMCLRE
 70
     0
  9
$DIMCLRT
 70
     0
  9
$DIMTFAC
 40
1.0
  9
$DIMGAP
 40
0.09
  9
$LUNITS
 70
     2
  9
$LUPREC
 70
     4
  9
$SKETCHINC
 40
0.1
  9
$FILLETRAD
 40
0.0
  9
$AUNITS
 70
     0
  9
$AUPREC
 70
     0
  9
$MENU
  1
acad
  9
$ELEVATION
 40
0.0
  9
$PELEVATION
 40
0.0
  9
$THICKNESS
 40
0.0
  9
$LIMCHECK
 70
     0
  9
$BLIPMODE
 70
     0
  9
$CHAMFERA
 40
0.0
  9
$CHAMFERB
 40
0.0
  9
$SKPOLY
 70
     0
  9
$TDCREATE
 40
2456059.6993055558
  9
$TDUPDATE
 40
2456059.7759092939
  9
$TDINDWG
 40
0.0007455903
  9
$TDUSRTIMER
 40
0.0007455903
  9
$USRTIMER
 70
     1
  9
$ANGBASE
 50
0.0
  9
$ANGDIR
 70
     0
  9
$PDMODE
 70
     1
  9
$PDSIZE
 40
-2.0
  9
$PLINEWID
 40
0.0
  9
$COORDS
 70
     2
  9
$SPLFRAME
 70
     0
  9
$SPLINETYPE
 70
     6
  9
$SPLINESEGS
 70
     8
  9
$ATTDIA
 70
     0
  9
$ATTREQ
 70
     1
  9
$HANDLING
 70
     1
  9
$HANDSEED
  5
733
  9
$SURFTAB1
 70
     6
  9
$SURFTAB2
 70
     6
  9
$SURFTYPE
 70
     6
  9
$SURFU
 70
     6
  9
$SURFV
 70
     6
  9
$UCSNAME
  2

  9
$UCSORG
 10
0.0
 20
0.0
 30
0.0
  9
$UCSXDIR
 10
1.0
 20
0.0
 30
0.0
  9
$UCSYDIR
 10
0.0
 20
1.0
 30
0.0
  9
$PUCSNAME
  2

  9
$PUCSORG
 10
0.0
 20
0.0
 30
0.0
  9
$PUCSXDIR
 10
1.0
 20
0.0
 30
0.0
  9
$PUCSYDIR
 10
0.0
 20
1.0
 30
0.0
  9
$USERI1
 70
     0
  9
$USERI2
 70
     0
  9
$USERI3
 70
     0
  9
$USERI4
 70
     0
  9
$USERI5
 70
     0
  9
$USERR1
 40
0.0
  9
$USERR2
 40
0.0
  9
$USERR3
 40
0.0
  9
$USERR4
 40
0.0
  9
$USERR5
 40
0.0
  9
$WORLDVIEW
 70
     1
  9
$SHADEDGE
 70
     3
  9
$SHADEDIF
 70
    70
  9
$TILEMODE
 70
     1
  9
$MAXACTVP
 70
    64
  9
$PLIMCHECK
 70
     0
  9
$PEXTMIN
 10
1.0000000000000000E+020
 20
1.0000000000000000E+020
 30
1.0000000000000000E+020
  9
$PEXTMAX
 10
-1.0000000000000000E+020
 20
-1.0000000000000000E+020
 30
-1.0000000000000000E+020
  9
$PLIMMIN
 10
0.0
 20
0.0
  9
$PLIMMAX
 10
12.0
 20
9.0
  9
$UNITMODE
 70
     0
  9
$VISRETAIN
 70
     0
  9
$PLINEGEN
 70
     1
  9
$PSLTSCALE
 70
     0
  0
ENDSEC
  0
SECTION
  2
TABLES
  0
TABLE
  2
VPORT
 70
     1
  0
VPORT
  2
*ACTIVE
 70
     0
 10
0.0
 20
0.0
 11
1.0
 21
1.0
 12
100.0000041910795
 22
135.1437134130897
 13
0.0
 23
0.0
 14
1.0
 24
1.0
 15
0.0
 25
0.0
 16
0.0
 26
0.0
 36
1.0
 17
0.0
 27
0.0
 37
0.0
 40
1348.5978847095871
 41
2.1540469973890342
 42
50.0
 43
0.0
 44
0.0
 50
0.0
 51
0.0
 71
     0
 72
  2000
 73
     1
 74
     1
 75
     0
 76
     0
 77
     0
 78
     0
  0
ENDTAB
  0
TABLE
  2
LTYPE
 70
     1
  0
LTYPE
  2
CONTINUOUS
 70
     0
  3
Solid line
 72
    65
 73
     0
 40
0.0
  0
ENDTAB
  0
TABLE
  2
LAYER
 70
     5
  0
LAYER
  2
0
 70
     0
 62
     7
  6
CONTINUOUS
  0
LAYER
  2
DATA
 70
     0
 62
     7
  6
CONTINUOUS
  0
LAYER
  2
HIBINO-BASE
 70
     0
 62
     7
  6
CONTINUOUS
  0
LAYER
  2
SPEC
 70
     0
 62
     7
  6
CONTINUOUS
  0
LAYER
  2
DIMNSIONS
 70
     0
 62
     7
  6
CONTINUOUS
  0
ENDTAB
  0
TABLE
  2
STYLE
 70
     4
  0
STYLE
  2
STANDARD
 70
     0
 40
0.0
 41
1.0
 50
0.0
 71
     0
 42
0.0
  3
txt
  4
BIGFONT.SHX
  0
ENDTAB
  0
TABLE
  2
VIEW
 70
     0
  0
ENDTAB
  0
TABLE
  2
UCS
 70
     0
  0
ENDTAB
  0
TABLE
  2
APPID
 70
     4
  0
APPID
  2
ACAD
 70
     0
  0
APPID
  2
ACADANNOTATIVE
 70
     0
  0
APPID
  2
ACAD_NAV_VCDISPLAY
 70
     0
  0
APPID
  2
ACAD_MLEADERVER
 70
     0
  0
ENDTAB
  0
TABLE
  2
DIMSTYLE
 70
     2
  0
DIMSTYLE
  2
STANDARD
 70
     0
  3

  4

  5

  6

  7

 40
1.0
 41
0.18
 42
0.0625
 43
0.38
 44
0.18
 45
0.0
 46
0.0
 47
0.0
 48
0.0
140
0.18
141
0.09
142
0.0
143
25.399999999999999
144
1.0
145
0.0
146
1.0
147
0.09
 71
     0
 72
     0
 73
     1
 74
     1
 75
     0
 76
     0
 77
     0
 78
     0
170
     0
171
     2
172
     0
173
     0
174
     0
175
     0
176
     0
177
     0
178
     0
  0
ENDTAB
  0
ENDSEC
  0
SECTION
  2
BLOCKS
  0
BLOCK
  8
0
  2
$MODEL_SPACE
 70
     0
 10
0.0
 20
0.0
 30
0.0
  3
$MODEL_SPACE
  1

  0
ENDBLK
  5
6CF
  8
0
  0
BLOCK
 67
     1
  8
0
  2
$PAPER_SPACE
 70
     0
 10
0.0
 20
0.0
 30
0.0
  3
$PAPER_SPACE
  1

  0
ENDBLK
  5
6CB
 67
     1
  8
0
  0
ENDSEC
  0
SECTION
  2
ENTITIES
  0
LINE
  5
2D
  8
HIBINO-BASE
  6
CONTINUOUS
 62
     7
 10
-350.0
 20
804.12725999999986
 30
0.0
 11
549.99999999999989
 21
804.12725999999986
 31
0.0
  0
LINE
  5
2E
  8
HIBINO-BASE
  6
CONTINUOUS
 62
     7
 10
549.99999999999989
 20
-495.87273999999991
 30
0.0
 11
-350.0
 21
-495.87273999999991
 31
0.0
  0
LINE
  5
2F
  8
HIBINO-BASE
  6
CONTINUOUS
 62
     7
 10
-350.0
 20
-495.87273999999991
 30
0.0
 11
-350.0
 21
804.12725999999986
 31
0.0
  0
TEXT
  5
30
  8
HIBINO-BASE
 62
     7
 10
-314.07999999999993
 20
-527.91612899999984
 30
0.0
 40
18.00022089843748
  1
Hibino Corporation
 41
0.7
 11
-314.07999999999993
 21
-509.91590810156231
 31
0.0
 73
     3
  0
LINE
  5
31
  8
HIBINO-BASE
  6
CONTINUOUS
 62
     7
 10
549.99999999999989
 20
804.12725999999986
 30
0.0
 11
549.99999999999989
 21
-495.87273999999991
 31
0.0
  0
LINE
  5
32
  8
HIBINO-BASE
  6
CONTINUOUS
 62
     7
 10
100.0
 20
-383.37274000000002
 30
0.0
 11
549.99999999999989
 21
-383.37274000000002
 31
0.0
  0
LINE
  5
33
  8
HIBINO-BASE
  6
CONTINUOUS
 62
     7
 10
100.0
 20
-495.87273999999991
 30
0.0
 11
100.0
 21
-383.37274000000002
 31
0.0
  0
TEXT
  5
34
  8
HIBINO-BASE
 62
     7
 10
104.5
 20
-395.91620666666671
 30
0.0
 40
8.1442057291666661
  1
NOTE
 41
0.7
 11
104.5
 21
-387.77200093750002
 31
0.0
 73
     3
  0
LINE
  5
35
  8
HIBINO-BASE
  6
CONTINUOUS
 62
     7
 10
275.0
 20
-495.87273999999991
 30
0.0
 11
275.0
 21
-383.37274000000002
 31
0.0
  0
TEXT
  5
36
  8
HIBINO-BASE
 62
     7
 10
279.5
 20
-395.91620666666671
 30
0.0
 40
8.1442057291666661
  1
TITLE
 41
0.7
 11
279.5
 21
-387.77200093750002
 31
0.0
 73
     3
  0
TEXT
  5
37
  8
HIBINO-BASE
 62
     7
 10
350.34195
 20
-527.91612899999984
 30
0.0
 40
18.00022089843748
  1
ヒビノ株式会社
 41
0.7
 11
350.34195
 21
-509.91590810156231
 31
0.0
 73
     3
  0
LINE
  5
38
  8
HIBINO-BASE
  6
CONTINUOUS
 62
     7
 10
100.0
 20
-445.87273999999991
 30
0.0
 11
549.99999999999989
 21
-445.87273999999991
 31
0.0
  0
TEXT
  5
39
  8
HIBINO-BASE
 62
     7
 10
342.0
 20
-458.13460666666663
 30
0.0
 40
8.1442057291666661
  1
DRAWN
 41
0.7
 11
342.0
 21
-449.9904009375
 31
0.0
 73
     3
  0
TEXT
  5
3A
  8
HIBINO-BASE
 62
     7
 10
217.0
 20
-458.13460666666663
 30
0.0
 40
8.1442057291666661
  1
DATE
 41
0.7
 11
217.0
 21
-449.9904009375
 31
0.0
 73
     3
  0
TEXT
  5
3B
  8
HIBINO-BASE
 62
     7
 10
167.0
 20
-458.13460666666663
 30
0.0
 40
8.1442057291666661
  1
SCALE
 41
0.7
 11
167.0
 21
-449.9904009375
 31
0.0
 73
     3
  0
TEXT
  5
3C
  8
HIBINO-BASE
 62
     7
 10
279.5
 20
-458.13460666666663
 30
0.0
 40
8.1442057291666661
  1
DESIGN
 41
0.7
 11
279.5
 21
-449.9904009375
 31
0.0
 73
     3
  0
TEXT
  5
3D
  8
HIBINO-BASE
 62
     7
 10
467.0
 20
-458.13460666666663
 30
0.0
 40
8.1442057291666661
  1
DRAWING NO.
 41
0.7
 11
467.0
 21
-449.9904009375
 31
0.0
 73
     3
  0
TEXT
  5
3E
  8
HIBINO-BASE
 62
     7
 10
404.49999999999989
 20
-458.13460666666663
 30
0.0
 40
8.1442057291666661
  1
CHECK
 41
0.7
 11
404.49999999999989
 21
-449.9904009375
 31
0.0
 73
     3
  0
LINE
  5
3F
  8
HIBINO-BASE
  6
CONTINUOUS
 62
     7
 10
171.875
 20
-489.62273999999991
 30
0.0
 11
190.625
 21
-470.87273999999991
 31
0.0
  0
TEXT
  5
40
  8
HIBINO-BASE
 62
     7
 10
168.75
 20
-476.41745666666651
 30
0.0
 40
8.1442057291666661
  1
1
 41
0.7
 11
168.75
 21
-468.27325093749982
 31
0.0
 73
     3
  0
LINE
  5
41
  8
HIBINO-BASE
  6
CONTINUOUS
 62
     7
 10
162.5
 20
-495.87273999999991
 30
0.0
 11
162.5
 21
-445.87273999999991
 31
0.0
  0
LINE
  5
42
  8
HIBINO-BASE
  6
CONTINUOUS
 62
     7
 10
212.5
 20
-495.87273999999991
 30
0.0
 11
212.5
 21
-445.87273999999991
 31
0.0
  0
LINE
  5
43
  8
HIBINO-BASE
  6
CONTINUOUS
 62
     7
 10
337.5
 20
-445.87273999999991
 30
0.0
 11
337.5
 21
-495.87273999999991
 31
0.0
  0
LINE
  5
44
  8
HIBINO-BASE
  6
CONTINUOUS
 62
     7
 10
462.5
 20
-445.87273999999991
 30
0.0
 11
462.5
 21
-495.87273999999991
 31
0.0
  0
LINE
  5
45
  8
HIBINO-BASE
  6
CONTINUOUS
 62
     7
 10
400.0
 20
-495.87273999999991
 30
0.0
 11
400.0
 21
-445.87273999999991
 31
0.0
  0
TEXT
  5
46
  8
HIBINO-BASE
 62
     7
 10
216.78270000000001
 20
-481.55450666666661
 30
0.0
 40
8.1442057291666661
  1
'12.03.
 41
0.7
 11
216.78270000000001
 21
-473.41030093749993
 31
0.0
 73
     3
  0
TEXT
  5
47
  8
HIBINO-BASE
 62
     7
 10
187.5
 20
-485.79245666666651
 30
0.0
 40
8.1442057291666661
  1
5
 41
0.7
 11
187.5
 21
-477.64825093749982
 31
0.0
 73
     3
  0
TEXT
  5
48
  8
HIBINO-BASE
 62
     7
 10
345.02905005517312
 20
-481.55450666666661
 30
0.0
 40
8.1442057291666661
  1
Ootake
 41
0.7
 11
345.02905005517312
 21
-473.41030093749993
 31
0.0
 73
     3
  0
TEXT
  5
49
  8
HIBINO-BASE
 62
     7
 10
119.4166666666667
 20
-485.99274000000003
 30
0.0
 40
16.288411458333329
  1
A4
 41
0.7
 11
119.4166666666667
 21
-469.70432854166671
 31
0.0
 73
     3
  0
TEXT
  5
4A
  8
HIBINO-BASE
 62
     7
 10
104.7916666666666
 20
-458.97001499999971
 30
0.0
 40
8.1442057291666661
  1
PAPER SIZE
 41
0.7
 11
104.7916666666666
 21
-450.82580927083302
 31
0.0
 73
     3
  0
LINE
  5
4B
  8
SPEC
  6
CONTINUOUS
 62
     7
 10
-312.5
 20
754.12725999999998
 30
0.0
 11
425.0
 21
754.12725999999998
 31
0.0
  0
LINE
  5
4C
  8
SPEC
  6
CONTINUOUS
 62
     7
 10
-150.0
 20
735.37725999999998
 30
0.0
 11
425.0
 21
735.37725999999998
 31
0.0
  0
LINE
  5
4D
  8
SPEC
  6
CONTINUOUS
 62
     7
 10
-150.0
 20
660.37725999999998
 30
0.0
 11
425.0
 21
660.37725999999998
 31
0.0
  0
LINE
  5
4E
  8
SPEC
  6
CONTINUOUS
 62
     7
 10
-150.0
 20
679.12725999999998
 30
0.0
 11
425.0
 21
679.12725999999998
 31
0.0
  0
LINE
  5
4F
  8
SPEC
  6
CONTINUOUS
 62
     7
 10
-312.5
 20
697.87725999999998
 30
0.0
 11
425.0
 21
697.87725999999998
 31
0.0
  0
LINE
  5
50
  8
SPEC
  6
CONTINUOUS
 62
     7
 10
-312.5
 20
641.62725999999998
 30
0.0
 11
425.0
 21
641.62725999999998
 31
0.0
  0
LINE
  5
51
  8
SPEC
  6
CONTINUOUS
 62
     7
 10
-312.5
 20
604.12725999999998
 30
0.0
 11
425.0
 21
604.12725999999998
 31
0.0
  0
LINE
  5
52
  8
SPEC
  6
CONTINUOUS
 62
     7
 10
-312.5
 20
622.87725999999998
 30
0.0
 11
425.0
 21
622.87725999999998
 31
0.0
  0
LINE
  5
53
  8
SPEC
  6
CONTINUOUS
 62
     7
 10
-312.5
 20
585.37725999999998
 30
0.0
 11
425.0
 21
585.37725999999998
 31
0.0
  0
LINE
  5
54
  8
SPEC
  6
CONTINUOUS
 62
     7
 10
-312.5
 20
566.62725999999998
 30
0.0
 11
425.0
 21
566.62725999999998
 31
0.0
  0
LINE
  5
55
  8
SPEC
  6
CONTINUOUS
 62
     7
 10
-150.0
 20
716.62725999999998
 30
0.0
 11
425.0
 21
716.62725999999998
 31
0.0
  0
TEXT
  5
56
  8
SPEC
 62
     7
 10
-145.65993635524629
 20
739.47680435524614
 30
0.0
 40
9.5015562499999984
  1
端子・形式：XLR、電子バランス
 41
0.7
 11
-145.65993635524629
 21
748.97836060524605
 31
0.0
 73
     3
  0
LINE
  5
57
  8
SPEC
  6
CONTINUOUS
 62
     7
 10
-312.5
 20
754.12725999999998
 30
0.0
 11
-312.5
 21
510.37725999999992
 31
0.0
  0
TEXT
  5
58
  8
SPEC
 62
     7
 10
-306.25
 20
761.09361000000013
 30
0.0
 40
12.21630859375
  1
仕様
 41
0.7
 11
-306.25
 21
773.30991859375013
 31
0.0
 73
     3
  0
LINE
  5
59
  8
SPEC
  6
CONTINUOUS
 62
     7
 10
-150.0
 20
754.12725999999998
 30
0.0
 11
-150.0
 21
510.37725999999992
 31
0.0
  0
LINE
  5
5A
  8
SPEC
  6
CONTINUOUS
 62
     7
 10
425.0
 20
754.12725999999998
 30
0.0
 11
425.0
 21
510.37725999999992
 31
0.0
  0
TEXT
  5
5B
  8
SPEC
 62
     7
 10
-145.03514110533521
 20
570.87677392977605
 30
0.0
 40
9.5015562499999984
  1
AC100V、50/60Hz
 41
0.7
 11
-145.03514110533521
 21
580.37833017977619
 31
0.0
 73
     3
  0
TEXT
  5
5C
  8
SPEC
 62
     7
 10
-146.12226918466041
 20
590.40583907315545
 30
0.0
 40
9.5015562499999984
  1
106dB(ウェイト無し)
 41
0.7
 11
-146.12226918466041
 21
599.90739532315547
 31
0.0
 73
     3
  0
TEXT
  5
5D
  8
SPEC
 62
     7
 10
-308.0
 20
739.87547088329177
 30
0.0
 40
9.5015562499999984
  1
音声入力
 41
0.7
 11
-308.0
 21
749.3770271332919
 31
0.0
 73
     3
  0
TEXT
  5
5E
  8
SPEC
 62
     7
 10
-308.0
 20
627.8925191330103
 30
0.0
 40
9.5015562499999984
  1
周波数特性
 41
0.7
 11
-308.0
 21
637.39407538301043
 31
0.0
 73
     3
  0
TEXT
  5
5F
  8
SPEC
 62
     7
 10
-308.04870015518981
 20
609.04087110379601
 30
0.0
 40
9.5015562499999984
  1
THD+N
 41
0.7
 11
-308.04870015518981
 21
618.54242735379603
 31
0.0
 73
     3
  0
TEXT
  5
60
  8
SPEC
 62
     7
 10
-308.07427437050518
 20
684.03243481656955
 30
0.0
 40
9.5015562499999984
  1
音声出力
 41
0.7
 11
-308.07427437050518
 21
693.53399106656946
 31
0.0
 73
     3
  0
TEXT
  5
61
  8
SPEC
 62
     7
 10
-309.01745624960807
 20
590.55235058880965
 30
0.0
 40
9.5015562499999984
  1
ダイナミックレンジ
 41
0.7
 11
-309.01745624960807
 21
600.05390683880955
 31
0.0
 73
     3
  0
TEXT
  5
62
  8
SPEC
 62
     7
 10
-308.43553541543969
 20
571.76459039245924
 30
0.0
 40
9.5015562499999984
  1
電源
 41
0.7
 11
-308.43553541543969
 21
581.26614664245915
 31
0.0
 73
     3
  0
TEXT
  5
63
  8
SPEC
 62
     7
 10
-145.34319672483511
 20
627.44408110065945
 30
0.0
 40
9.5015562499999984
  1
3Hz～90kHz(+0/-3dB)
 41
0.7
 11
-145.34319672483511
 21
636.94563735065935
 31
0.0
 73
     3
  0
TEXT
  5
64
  8
SPEC
 62
     7
 10
-145.29150726026671
 20
609.00508532879917
 30
0.0
 40
9.5015562499999984
  1
0.004%%%(+4dBu、1kHz）
 41
0.7
 11
-145.29150726026671
 21
618.5066415787993
 31
0.0
 73
     3
  0
TEXT
  5
65
  8
SPEC
 62
     7
 10
-145.5
 20
702.61339185333406
 30
0.0
 40
9.5015562499999984
  1
最大レベル：+22dBu
 41
0.7
 11
-145.5
 21
712.11494810333409
 31
0.0
 73
     3
  0
TEXT
  5
66
  8
SPEC
 62
     7
 10
-146.29968177623161
 20
721.20661342098492
 30
0.0
 40
9.5015562499999984
  1
インピーダンス：50k\U+03A9
 41
0.7
 11
-146.29968177623161
 21
730.70816967098494
 31
0.0
 73
     3
  0
TEXT
  5
67
  8
SPEC
 62
     7
 10
-145.71181884150039
 20
683.924912583641
 30
0.0
 40
9.5015562499999984
  1
端子・形式：XLR、電子バランス
 41
0.7
 11
-145.71181884150039
 21
693.42646883364102
 31
0.0
 73
     3
  0
TEXT
  5
68
  8
SPEC
 62
     7
 10
-145.5
 20
646.52531433894319
 30
0.0
 40
9.5015562499999984
  1
最大レベル：+20dBu
 41
0.7
 11
-145.5
 21
656.02687058894321
 31
0.0
 73
     3
  0
TEXT
  5
69
  8
SPEC
 62
     7
 10
-146.2369788307856
 20
665.48762700078726
 30
0.0
 40
9.5015562499999984
  1
インピーダンス：120\U+03A9
 41
0.7
 11
-146.2369788307856
 21
674.98918325078739
 31
0.0
 73
     3
  0
LINE
  5
6A
  8
SPEC
  6
CONTINUOUS
 62
     7
 10
-312.5
 20
547.87725999999998
 30
0.0
 11
425.0
 21
547.87725999999998
 31
0.0
  0
LINE
  5
6B
  8
SPEC
  6
CONTINUOUS
 62
     7
 10
-312.5
 20
529.12725999999998
 30
0.0
 11
425.0
 21
529.12725999999998
 31
0.0
  0
LINE
  5
6C
  8
SPEC
  6
CONTINUOUS
 62
     7
 10
-312.5
 20
510.37725999999992
 30
0.0
 11
425.0
 21
510.37725999999992
 31
0.0
  0
TEXT
  5
6D
  8
SPEC
 62
     7
 10
-146.01781780284591
 20
552.50213891739679
 30
0.0
 40
9.5015733506944464
  1
15W
 41
0.7
 11
-146.01781780284591
 21
562.00371226809125
 31
0.0
 73
     3
  0
TEXT
  5
6E
  8
SPEC
 62
     7
 10
-308.20987156993101
 20
553.30334772050514
 30
0.0
 40
9.5015733506944464
  1
消費電力
 41
0.7
 11
-308.20987156993101
 21
562.80492107119971
 31
0.0
 73
     3
  0
TEXT
  5
6F
  8
SPEC
 62
     7
 10
-308.48939036367489
 20
534.59255444671635
 30
0.0
 40
9.5015733506944464
  1
寸法
 41
0.7
 11
-308.48939036367489
 21
544.09412779741092
 31
0.0
 73
     3
  0
TEXT
  5
70
  8
SPEC
 62
     7
 10
-308.41183861628087
 20
515.63151982990576
 30
0.0
 40
9.5015733506944464
  1
重量
 41
0.7
 11
-308.41183861628087
 21
525.13309318060021
 31
0.0
 73
     3
  0
TEXT
  5
71
  8
SPEC
 62
     7
 10
-145.12101756768831
 20
533.29242822719505
 30
0.0
 40
9.5015733506944464
  1
483(W)\U+00D745(H)\U+00D7150(D)mm(突起部含まず)
 41
0.7
 11
-145.12101756768831
 21
542.7940015778895
 31
0.0
 73
     3
  0
TEXT
  5
72
  8
SPEC
 62
     7
 10
-146.16142306099141
 20
515.71364141754793
 30
0.0
 40
9.5015733506944464
  1
約1.7kg
 41
0.7
 11
-146.16142306099141
 21
525.21521476824239
 31
0.0
 73
     3
  0
TEXT
  5
73
  8
DIMNSIONS
 62
     7
 10
-0.0000000000000149
 20
-434.52528999999993
 30
0.0
 40
12.21630859375
  1
(単位：mm)
 41
0.7
 11
-0.0000000000000142
 21
-422.30898140624993
 31
0.0
 73
     3
  0
LINE
  5
74
  8
DIMNSIONS
  6
CONTINUOUS
 62
     7
 10
-225.0000000001497
 20
-234.9999999949525
 30
0.0
 11
-225.0000000001497
 21
-285.0
 31
0.0
  0
LINE
  5
75
  8
DIMNSIONS
  6
CONTINUOUS
 62
     7
 10
257.99999999985027
 20
-234.9999999949525
 30
0.0
 11
257.99999999985027
 21
-285.0
 31
0.0
  0
LINE
  5
76
  8
DIMNSIONS
  6
CONTINUOUS
 62
     7
 10
-225.0000000001497
 20
-275.0
 30
0.0
 11
257.99999999985027
 21
-275.0
 31
0.0
  0
LINE
  5
77
  8
DIMNSIONS
  6
CONTINUOUS
 62
     7
 10
-225.0000000001497
 20
-275.0
 30
0.0
 11
-212.496887207181
 21
-271.6498010242488
 31
0.0
  0
LINE
  5
78
  8
DIMNSIONS
  6
CONTINUOUS
 62
     7
 10
-225.0000000001497
 20
-275.0
 30
0.0
 11
-212.496887207181
 21
-278.3501989757512
 31
0.0
  0
LINE
  5
79
  8
DIMNSIONS
  6
CONTINUOUS
 62
     7
 10
257.99999999985027
 20
-275.0
 30
0.0
 11
245.4968872068815
 21
-278.3501989757512
 31
0.0
  0
LINE
  5
7A
  8
DIMNSIONS
  6
CONTINUOUS
 62
     7
 10
257.99999999985027
 20
-275.0
 30
0.0
 11
245.4968872068815
 21
-271.6498010242488
 31
0.0
  0
TEXT
  5
7B
  8
DIMNSIONS
 62
     7
 10
3.270833333183587
 20
-270.03055555555551
 30
0.0
 40
13.57367621527778
  1
483
 41
0.7
 11
3.270833333183587
 21
-256.45687934027768
 31
0.0
 73
     3
  0
LINE
  5
7C
  8
DIMNSIONS
  6
CONTINUOUS
 62
     7
 10
-235.0000000001497
 20
-224.9999999949525
 30
0.0
 11
-285.0
 21
-224.9999999949525
 31
0.0
  0
LINE
  5
7D
  8
DIMNSIONS
  6
CONTINUOUS
 62
     7
 10
-235.0000000001497
 20
-179.99900601865269
 30
0.0
 11
-285.0
 21
-179.99900601865269
 31
0.0
  0
LINE
  5
7E
  8
DIMNSIONS
  6
CONTINUOUS
 62
     7
 10
-275.0
 20
-224.9999999949525
 30
0.0
 11
-275.0
 21
-179.99900601865269
 31
0.0
  0
LINE
  5
7F
  8
DIMNSIONS
  6
CONTINUOUS
 62
     7
 10
-275.0
 20
-224.9999999949525
 30
0.0
 11
-278.3501989757512
 21
-212.49688720198381
 31
0.0
  0
LINE
  5
80
  8
DIMNSIONS
  6
CONTINUOUS
 62
     7
 10
-275.0
 20
-224.9999999949525
 30
0.0
 11
-271.6498010242488
 21
-212.49688720198381
 31
0.0
  0
LINE
  5
81
  8
DIMNSIONS
  6
CONTINUOUS
 62
     7
 10
-275.0
 20
-179.99900601865269
 30
0.0
 11
-271.6498010242488
 21
-192.5021188116213
 31
0.0
  0
LINE
  5
82
  8
DIMNSIONS
  6
CONTINUOUS
 62
     7
 10
-275.0
 20
-179.99900601865269
 30
0.0
 11
-278.3501989757512
 21
-192.5021188116213
 31
0.0
  0
TEXT
  5
83
  8
DIMNSIONS
 62
     7
 10
-279.96944444444449
 20
-211.31894745124711
 30
0.0
 40
13.57367621527778
  1
45
 50
90.0
 41
0.7
 11
-293.54312065972232
 21
-211.31894745124711
 31
0.0
 73
     3
  0
LINE
  5
84
  8
DIMNSIONS
  6
CONTINUOUS
 62
     7
 10
-235.0000000002197
 20
-75.000000000223153
 30
0.0
 11
-285.0
 21
-75.000000000223153
 31
0.0
  0
LINE
  5
85
  8
DIMNSIONS
  6
CONTINUOUS
 62
     7
 10
-213.00000000021981
 20
74.999999999776293
 30
0.0
 11
-285.0
 21
74.999999999776293
 31
0.0
  0
LINE
  5
86
  8
DIMNSIONS
  6
CONTINUOUS
 62
     7
 10
-275.0
 20
-75.000000000223153
 30
0.0
 11
-275.0
 21
74.999999999776293
 31
0.0
  0
LINE
  5
87
  8
DIMNSIONS
  6
CONTINUOUS
 62
     7
 10
-275.0
 20
-75.000000000223153
 30
0.0
 11
-278.3501989757512
 21
-62.496887207254389
 31
0.0
  0
LINE
  5
88
  8
DIMNSIONS
  6
CONTINUOUS
 62
     7
 10
-275.0
 20
-75.000000000223153
 30
0.0
 11
-271.6498010242488
 21
-62.496887207254389
 31
0.0
  0
LINE
  5
89
  8
DIMNSIONS
  6
CONTINUOUS
 62
     7
 10
-275.0
 20
74.999999999776293
 30
0.0
 11
-271.6498010242488
 21
62.496887206807529
 31
0.0
  0
LINE
  5
8A
  8
DIMNSIONS
  6
CONTINUOUS
 62
     7
 10
-275.0
 20
74.999999999776293
 30
0.0
 11
-278.3501989757512
 21
62.496887206807529
 31
0.0
  0
TEXT
  5
8B
  8
DIMNSIONS
 62
     7
 10
-279.96944444444449
 20
-13.22916666689011
 30
0.0
 40
13.57367621527778
  1
150
 50
90.0
 41
0.7
 11
-293.54312065972232
 21
-13.22916666689011
 31
0.0
 73
     3
  0
LINE
  5
8C
  8
DIMNSIONS
  6
CONTINUOUS
 62
     7
 10
-235.0000000002197
 20
-75.000000000223153
 30
0.0
 11
-260.0
 21
-75.000000000223153
 31
0.0
  0
LINE
  5
8D
  8
DIMNSIONS
  6
CONTINUOUS
 62
     7
 10
-235.0000000002197
 20
-72.000000000223125
 30
0.0
 11
-260.0
 21
-72.000000000223125
 31
0.0
  0
LINE
  5
8E
  8
DIMNSIONS
  6
CONTINUOUS
 62
     7
 10
-250.0
 20
-72.000000000223125
 30
0.0
 11
-250.0
 21
-75.000000000223153
 31
0.0
  0
LINE
  5
8F
  8
DIMNSIONS
  6
CONTINUOUS
 62
     7
 10
-250.0
 20
-75.000000000223153
 30
0.0
 11
-250.0
 21
-100.0000000002231
 31
0.0
  0
LINE
  5
90
  8
DIMNSIONS
  6
CONTINUOUS
 62
     7
 10
-250.0
 20
-75.000000000223153
 30
0.0
 11
-246.6498010242488
 21
-87.503112793191889
 31
0.0
  0
LINE
  5
91
  8
DIMNSIONS
  6
CONTINUOUS
 62
     7
 10
-250.0
 20
-75.000000000223153
 30
0.0
 11
-253.3501989757512
 21
-87.503112793191889
 31
0.0
  0
LINE
  5
92
  8
DIMNSIONS
  6
CONTINUOUS
 62
     7
 10
-250.0
 20
-72.000000000223125
 30
0.0
 11
-250.0
 21
-53.680555555555529
 31
0.0
  0
LINE
  5
93
  8
DIMNSIONS
  6
CONTINUOUS
 62
     7
 10
-250.0
 20
-72.000000000223125
 30
0.0
 11
-253.3501989757512
 21
-59.496887207254389
 31
0.0
  0
LINE
  5
94
  8
DIMNSIONS
  6
CONTINUOUS
 62
     7
 10
-250.0
 20
-72.000000000223125
 30
0.0
 11
-246.6498010242488
 21
-59.496887207254389
 31
0.0
  0
TEXT
  5
95
  8
DIMNSIONS
 62
     7
 10
-254.96944444444449
 20
-62.5
 30
0.0
 40
13.57367621527778
  1
3
 50
90.0
 41
0.7
 11
-268.54312065972232
 21
-62.5
 31
0.0
 73
     3
  0
LINE
  5
96
  8
DIMNSIONS
  6
CONTINUOUS
 62
     7
 10
-124.0890011853475
 20
-92.000000000223125
 30
0.0
 11
-285.0
 21
-92.000000000223125
 31
0.0
  0
LINE
  5
97
  8
DIMNSIONS
  6
CONTINUOUS
 62
     7
 10
-235.0000000002197
 20
-75.000000000223153
 30
0.0
 11
-285.0
 21
-75.000000000223153
 31
0.0
  0
LINE
  5
98
  8
DIMNSIONS
  6
CONTINUOUS
 62
     7
 10
-275.0
 20
-75.000000000223153
 30
0.0
 11
-275.0
 21
-92.000000000223125
 31
0.0
  0
LINE
  5
99
  8
DIMNSIONS
  6
CONTINUOUS
 62
     7
 10
-275.0
 20
-92.000000000223125
 30
0.0
 11
-275.0
 21
-117.6388888888889
 31
0.0
  0
LINE
  5
9A
  8
DIMNSIONS
  6
CONTINUOUS
 62
     7
 10
-275.0
 20
-92.000000000223125
 30
0.0
 11
-271.6498010242488
 21
-104.5031127931918
 31
0.0
  0
LINE
  5
9B
  8
DIMNSIONS
  6
CONTINUOUS
 62
     7
 10
-275.0
 20
-92.000000000223125
 30
0.0
 11
-278.3501989757512
 21
-104.5031127931918
 31
0.0
  0
LINE
  5
9C
  8
DIMNSIONS
  6
CONTINUOUS
 62
     7
 10
-275.0
 20
-75.000000000223153
 30
0.0
 11
-275.0
 21
-50.000000000223139
 31
0.0
  0
LINE
  5
9D
  8
DIMNSIONS
  6
CONTINUOUS
 62
     7
 10
-275.0
 20
-75.000000000223153
 30
0.0
 11
-278.3501989757512
 21
-62.496887207254389
 31
0.0
  0
LINE
  5
9E
  8
DIMNSIONS
  6
CONTINUOUS
 62
     7
 10
-275.0
 20
-75.000000000223153
 30
0.0
 11
-271.6498010242488
 21
-62.496887207254389
 31
0.0
  0
TEXT
  5
9F
  8
DIMNSIONS
 62
     7
 10
-279.96944444444449
 20
-117.6388888888889
 30
0.0
 40
13.57367621527778
  1
17
 50
90.0
 41
0.7
 11
-293.54312065972232
 21
-117.6388888888889
 31
0.0
 73
     3
  0
TEXT
  5
A0
  8
DATA
 62
     7
 10
351.70241964215609
 20
-440.2182899999998
 30
0.0
 40
12.21630859375
  1
223XS
 41
0.7
 11
351.70241964215609
 21
-428.00198140624991
 31
0.0
 73
     3
  0
TEXT
  5
A1
  8
DATA
 62
     7
 10
351.70241964215609
 20
-403.9682899999998
 30
0.0
 40
12.21630859375
  1
dbx
 41
0.7
 11
351.70241964215609
 21
-391.75198140624991
 31
0.0
 73
     3
  0
TEXT
  5
A2
  8
DATA
 62
     7
 10
-300.0
 20
-474.68273999999991
 30
0.0
 40
8.1442057291666661
  1
仕様および外観は予告なく変更されることがありますので、ご了承ください。
 41
0.7
 11
-300.0
 21
-466.53853427083322
 31
0.0
 73
     3
  0
TEXT
  5
A3
  8
DATA
 62
     7
 10
315.20733356720177
 20
-420.50695713751389
 30
0.0
 40
8.1442057291666661
  1
ステレオ 2-Way/モノラル3-Way クロスオーバー
 41
0.7
 11
315.20733356720177
 21
-412.36275140834721
 31
0.0
 73
     3
  0
LINE
  5
A4
  8
DATA
  6
CONTINUOUS
 62
     7
 10
500.0000000002176
 20
-180.60000000029839
 30
0.0
 11
350.00000000021703
 21
-180.60000000029839
 31
0.0
  0
LINE
  5
A5
  8
DATA
  6
CONTINUOUS
 62
     7
 10
500.0000000002176
 20
-225.0000000002982
 30
0.0
 11
500.0000000002176
 21
-180.60000000029839
 31
0.0
  0
LINE
  5
A6
  8
DATA
  6
CONTINUOUS
 62
     7
 10
350.00000000021703
 20
-225.0000000002982
 30
0.0
 11
500.0000000002176
 21
-225.0000000002982
 31
0.0
  0
LINE
  5
A7
  8
DATA
  6
CONTINUOUS
 62
     7
 10
350.00000000021703
 20
-180.60000000029839
 30
0.0
 11
350.00000000021703
 21
-225.0000000002982
 31
0.0
  0
LINE
  5
A8
  8
DATA
  6
CONTINUOUS
 62
     7
 10
-225.00000000021981
 20
-75.000000000223153
 30
0.0
 11
-225.00000000021981
 21
-72.000000000223125
 31
0.0
  0
LINE
  5
A9
  8
DATA
  6
CONTINUOUS
 62
     7
 10
256.99999999977922
 20
-75.000000000223153
 30
0.0
 11
-225.00000000021981
 21
-75.000000000223153
 31
0.0
  0
LINE
  5
AA
  8
DATA
  6
CONTINUOUS
 62
     7
 10
256.99999999977922
 20
-72.000000000223125
 30
0.0
 11
256.99999999977922
 21
-75.000000000223153
 31
0.0
  0
LINE
  5
AB
  8
DATA
  6
CONTINUOUS
 62
     7
 10
-225.00000000021981
 20
-72.000000000223125
 30
0.0
 11
256.99999999977922
 21
-72.000000000223125
 31
0.0
  0
ARC
  5
AC
  8
DATA
  6
CONTINUOUS
 62
     7
 10
-217.84129757367671
 20
-186.99900601865281
 30
0.0
 40
3.1999999999999882
 50
90.0
 51
270.0
  0
ARC
  5
AD
  8
DATA
  6
CONTINUOUS
 62
     7
 10
-213.2412975736768
 20
-186.99900601865281
 30
0.0
 40
3.1999999999999882
 50
270.0
 51
90.0
  0
LINE
  5
AE
  8
DATA
  6
CONTINUOUS
 62
     7
 10
-217.84129757367671
 20
-183.79900601865279
 30
0.0
 11
-213.2412975736768
 21
-183.79900601865279
 31
0.0
  0
LINE
  5
AF
  8
DATA
  6
CONTINUOUS
 62
     7
 10
-217.84129757367671
 20
-190.1990060186528
 30
0.0
 11
-213.2412975736768
 21
-190.1990060186528
 31
0.0
  0
ARC
  5
B0
  8
DATA
  6
CONTINUOUS
 62
     7
 10
247.15870242632221
 20
-186.99900601865281
 30
0.0
 40
3.1999999999999882
 50
90.0
 51
270.0
  0
ARC
  5
B1
  8
DATA
  6
CONTINUOUS
 62
     7
 10
251.75870242632209
 20
-186.99900601865281
 30
0.0
 40
3.1999999999999882
 50
270.0
 51
90.0
  0
LINE
  5
B2
  8
DATA
  6
CONTINUOUS
 62
     7
 10
247.15870242632221
 20
-183.79900601865279
 30
0.0
 11
251.75870242632209
 21
-183.79900601865279
 31
0.0
  0
LINE
  5
B3
  8
DATA
  6
CONTINUOUS
 62
     7
 10
247.15870242632221
 20
-190.1990060186528
 30
0.0
 11
251.75870242632209
 21
-190.1990060186528
 31
0.0
  0
ARC
  5
B4
  8
DATA
  6
CONTINUOUS
 62
     7
 10
-217.84129757367671
 20
-218.5990060186528
 30
0.0
 40
3.1999999999999882
 50
90.0
 51
270.0
  0
ARC
  5
B5
  8
DATA
  6
CONTINUOUS
 62
     7
 10
-213.2412975736768
 20
-218.5990060186528
 30
0.0
 40
3.1999999999999882
 50
270.0
 51
90.0
  0
LINE
  5
B6
  8
DATA
  6
CONTINUOUS
 62
     7
 10
-217.84129757367671
 20
-221.79900601865279
 30
0.0
 11
-213.2412975736768
 21
-221.79900601865279
 31
0.0
  0
LINE
  5
B7
  8
DATA
  6
CONTINUOUS
 62
     7
 10
-217.84129757367671
 20
-215.39900601865281
 30
0.0
 11
-213.2412975736768
 21
-215.39900601865281
 31
0.0
  0
ARC
  5
B8
  8
DATA
  6
CONTINUOUS
 62
     7
 10
247.15870242632221
 20
-218.5990060186528
 30
0.0
 40
3.1999999999999882
 50
90.0
 51
270.0
  0
ARC
  5
B9
  8
DATA
  6
CONTINUOUS
 62
     7
 10
251.75870242632209
 20
-218.5990060186528
 30
0.0
 40
3.1999999999999882
 50
270.0
 51
90.0
  0
LINE
  5
BA
  8
DATA
  6
CONTINUOUS
 62
     7
 10
247.15870242632221
 20
-221.79900601865279
 30
0.0
 11
251.75870242632209
 21
-221.79900601865279
 31
0.0
  0
LINE
  5
BB
  8
DATA
  6
CONTINUOUS
 62
     7
 10
247.15870242632221
 20
-215.39900601865281
 30
0.0
 11
251.75870242632209
 21
-215.39900601865281
 31
0.0
  0
CIRCLE
  5
BC
  8
DATA
  6
CONTINUOUS
 62
     7
 10
16.958702426322141
 20
-185.60611132848081
 30
0.0
 40
2.8000000000000109
  0
LINE
  5
BD
  8
DATA
  6
CONTINUOUS
 62
     7
 10
17.658702426322119
 20
-186.81854689377909
 30
0.0
 11
18.358702426322171
 21
-185.60611132848081
 31
0.0
  0
LINE
  5
BE
  8
DATA
  6
CONTINUOUS
 62
     7
 10
16.258702426322142
 20
-186.81854689377909
 30
0.0
 11
17.658702426322119
 21
-186.81854689377909
 31
0.0
  0
LINE
  5
BF
  8
DATA
  6
CONTINUOUS
 62
     7
 10
15.5587024263221
 20
-185.60611132848081
 30
0.0
 11
16.258702426322142
 21
-186.81854689377909
 31
0.0
  0
LINE
  5
C0
  8
DATA
  6
CONTINUOUS
 62
     7
 10
16.258702426322142
 20
-184.3936757631827
 30
0.0
 11
15.5587024263221
 21
-185.60611132848081
 31
0.0
  0
LINE
  5
C1
  8
DATA
  6
CONTINUOUS
 62
     7
 10
17.658702426322119
 20
-184.3936757631827
 30
0.0
 11
16.258702426322142
 21
-184.3936757631827
 31
0.0
  0
LINE
  5
C2
  8
DATA
  6
CONTINUOUS
 62
     7
 10
18.358702426322171
 20
-185.60611132848081
 30
0.0
 11
17.658702426322119
 21
-184.3936757631827
 31
0.0
  0
CIRCLE
  5
C3
  8
DATA
  6
CONTINUOUS
 62
     7
 10
-194.8307394047182
 20
-191.0818390673912
 30
0.0
 40
2.7999999999999541
  0
LINE
  5
C4
  8
DATA
  6
CONTINUOUS
 62
     7
 10
-194.1307394047181
 20
-192.29427463268939
 30
0.0
 11
-193.43073940471811
 21
-191.0818390673912
 31
0.0
  0
LINE
  5
C5
  8
DATA
  6
CONTINUOUS
 62
     7
 10
-195.5307394047181
 20
-192.29427463268939
 30
0.0
 11
-194.1307394047181
 21
-192.29427463268939
 31
0.0
  0
LINE
  5
C6
  8
DATA
  6
CONTINUOUS
 62
     7
 10
-196.23073940471809
 20
-191.0818390673912
 30
0.0
 11
-195.5307394047181
 21
-192.29427463268939
 31
0.0
  0
LINE
  5
C7
  8
DATA
  6
CONTINUOUS
 62
     7
 10
-195.5307394047181
 20
-189.86940350209281
 30
0.0
 11
-196.23073940471809
 21
-191.0818390673912
 31
0.0
  0
LINE
  5
C8
  8
DATA
  6
CONTINUOUS
 62
     7
 10
-194.1307394047181
 20
-189.86940350209281
 30
0.0
 11
-195.5307394047181
 21
-189.86940350209281
 31
0.0
  0
LINE
  5
C9
  8
DATA
  6
CONTINUOUS
 62
     7
 10
-193.43073940471811
 20
-191.0818390673912
 30
0.0
 11
-194.1307394047181
 21
-189.86940350209281
 31
0.0
  0
CIRCLE
  5
CA
  8
DATA
  6
CONTINUOUS
 62
     7
 10
228.74814425736369
 20
-191.0818390673912
 30
0.0
 40
2.7999999999999949
  0
LINE
  5
CB
  8
DATA
  6
CONTINUOUS
 62
     7
 10
228.04814425736359
 20
-192.29427463268939
 30
0.0
 11
227.34814425736371
 21
-191.0818390673912
 31
0.0
  0
LINE
  5
CC
  8
DATA
  6
CONTINUOUS
 62
     7
 10
229.44814425736371
 20
-192.29427463268939
 30
0.0
 11
228.04814425736359
 21
-192.29427463268939
 31
0.0
  0
LINE
  5
CD
  8
DATA
  6
CONTINUOUS
 62
     7
 10
230.14814425736361
 20
-191.0818390673912
 30
0.0
 11
229.44814425736371
 21
-192.29427463268939
 31
0.0
  0
LINE
  5
CE
  8
DATA
  6
CONTINUOUS
 62
     7
 10
229.44814425736359
 20
-189.86940350209281
 30
0.0
 11
230.14814425736361
 21
-191.0818390673912
 31
0.0
  0
LINE
  5
CF
  8
DATA
  6
CONTINUOUS
 62
     7
 10
228.04814425736359
 20
-189.86940350209281
 30
0.0
 11
229.44814425736359
 21
-189.86940350209281
 31
0.0
  0
LINE
  5
D0
  8
DATA
  6
CONTINUOUS
 62
     7
 10
227.34814425736371
 20
-191.0818390673912
 30
0.0
 11
228.04814425736359
 21
-189.86940350209281
 31
0.0
  0
CIRCLE
  5
D1
  8
DATA
  6
CONTINUOUS
 62
     7
 10
228.74814425736369
 20
-214.51617296991441
 30
0.0
 40
2.7999999999999949
  0
LINE
  5
D2
  8
DATA
  6
CONTINUOUS
 62
     7
 10
228.04814425736359
 20
-213.3037374046161
 30
0.0
 11
227.34814425736371
 21
-214.51617296991441
 31
0.0
  0
LINE
  5
D3
  8
DATA
  6
CONTINUOUS
 62
     7
 10
229.44814425736371
 20
-213.3037374046161
 30
0.0
 11
228.04814425736359
 21
-213.3037374046161
 31
0.0
  0
LINE
  5
D4
  8
DATA
  6
CONTINUOUS
 62
     7
 10
230.14814425736361
 20
-214.51617296991441
 30
0.0
 11
229.44814425736371
 21
-213.3037374046161
 31
0.0
  0
LINE
  5
D5
  8
DATA
  6
CONTINUOUS
 62
     7
 10
229.44814425736359
 20
-215.7286085352126
 30
0.0
 11
230.14814425736361
 21
-214.51617296991441
 31
0.0
  0
LINE
  5
D6
  8
DATA
  6
CONTINUOUS
 62
     7
 10
228.04814425736359
 20
-215.7286085352126
 30
0.0
 11
229.44814425736359
 21
-215.7286085352126
 31
0.0
  0
LINE
  5
D7
  8
DATA
  6
CONTINUOUS
 62
     7
 10
227.34814425736371
 20
-214.51617296991441
 30
0.0
 11
228.04814425736359
 21
-215.7286085352126
 31
0.0
  0
LINE
  5
D8
  8
DATA
  6
CONTINUOUS
 62
     7
 10
-203.00000000021981
 20
-71.509467757640394
 30
0.0
 11
234.99999999977919
 21
-71.509467757640394
 31
0.0
  0
LINE
  5
D9
  8
DATA
  6
CONTINUOUS
 62
     7
 10
-203.00000000021981
 20
74.999999999776293
 30
0.0
 11
-203.00000000021981
 21
-71.509467757640394
 31
0.0
  0
LINE
  5
DA
  8
DATA
  6
CONTINUOUS
 62
     7
 10
234.99999999977919
 20
74.999999999776293
 30
0.0
 11
-203.00000000021981
 21
74.999999999776293
 31
0.0
  0
LINE
  5
DB
  8
DATA
  6
CONTINUOUS
 62
     7
 10
234.99999999977919
 20
-71.509467757640394
 30
0.0
 11
234.99999999977919
 21
75.0
 31
0.0
  0
LINE
  5
DC
  8
DATA
  6
CONTINUOUS
 62
     7
 10
-194.0000000002197
 20
-72.000000000223125
 30
0.0
 11
-194.0000000002197
 21
-71.510000000223116
 31
0.0
  0
LINE
  5
DD
  8
DATA
  6
CONTINUOUS
 62
     7
 10
225.99999999977919
 20
-72.000000000223125
 30
0.0
 11
-194.0000000002197
 21
-72.000000000223125
 31
0.0
  0
LINE
  5
DE
  8
DATA
  6
CONTINUOUS
 62
     7
 10
225.99999999977919
 20
-71.510000000223116
 30
0.0
 11
225.99999999977919
 21
-72.000000000223125
 31
0.0
  0
LINE
  5
DF
  8
DATA
  6
CONTINUOUS
 62
     7
 10
-194.0000000002197
 20
-71.510000000223116
 30
0.0
 11
225.99999999977919
 21
-71.510000000223116
 31
0.0
  0
LINE
  5
E0
  8
DATA
  6
CONTINUOUS
 62
     7
 10
-203.00000000021981
 20
-71.509467757640394
 30
0.0
 11
-203.00000000021981
 21
-72.000000000223125
 31
0.0
  0
LINE
  5
E1
  8
DATA
  6
CONTINUOUS
 62
     7
 10
234.99999999977919
 20
-71.509467757640394
 30
0.0
 11
234.99999999977919
 21
-72.000000000223125
 31
0.0
  0
ARC
  5
E2
  8
DATA
  6
CONTINUOUS
 62
     7
 10
-200.46153846175801
 20
-55.000000000223139
 30
0.0
 40
4.8384615384617167
 50
136.99713135190601
 51
223.00286864809399
  0
LINE
  5
E3
  8
DATA
  6
CONTINUOUS
 62
     7
 10
-204.0000000002197
 20
-51.700000000223127
 30
0.0
 11
-203.00000000021981
 21
-51.700000000223127
 31
0.0
  0
LINE
  5
E4
  8
DATA
  6
CONTINUOUS
 62
     7
 10
-204.0000000002197
 20
-58.30000000022315
 30
0.0
 11
-203.00000000021981
 21
-58.30000000022315
 31
0.0
  0
ARC
  5
E5
  8
DATA
  6
CONTINUOUS
 62
     7
 10
-200.46153846175801
 20
56.999999999776271
 30
0.0
 40
4.8384615384617167
 50
136.99713135190601
 51
223.00286864809399
  0
LINE
  5
E6
  8
DATA
  6
CONTINUOUS
 62
     7
 10
-204.0000000002197
 20
60.29999999977629
 30
0.0
 11
-203.00000000021981
 21
60.29999999977629
 31
0.0
  0
LINE
  5
E7
  8
DATA
  6
CONTINUOUS
 62
     7
 10
-204.0000000002197
 20
53.69999999977626
 30
0.0
 11
-203.00000000021981
 21
53.69999999977626
 31
0.0
  0
ARC
  5
E8
  8
DATA
  6
CONTINUOUS
 62
     7
 10
232.46153846131739
 20
-55.000000000223139
 30
0.0
 40
4.8384615384617167
 50
316.99713135190598
 51
43.002868648094001
  0
LINE
  5
E9
  8
DATA
  6
CONTINUOUS
 62
     7
 10
235.99999999977919
 20
-51.700000000223127
 30
0.0
 11
234.99999999977919
 21
-51.700000000223127
 31
0.0
  0
LINE
  5
EA
  8
DATA
  6
CONTINUOUS
 62
     7
 10
235.99999999977919
 20
-58.30000000022315
 30
0.0
 11
234.99999999977919
 21
-58.30000000022315
 31
0.0
  0
ARC
  5
EB
  8
DATA
  6
CONTINUOUS
 62
     7
 10
232.46153846131739
 20
56.999999999776271
 30
0.0
 40
4.8384615384617167
 50
316.99713135190598
 51
43.002868648094001
  0
LINE
  5
EC
  8
DATA
  6
CONTINUOUS
 62
     7
 10
235.99999999977919
 20
60.29999999977629
 30
0.0
 11
234.99999999977919
 21
60.29999999977629
 31
0.0
  0
LINE
  5
ED
  8
DATA
  6
CONTINUOUS
 62
     7
 10
235.99999999977919
 20
53.69999999977626
 30
0.0
 11
234.99999999977919
 21
53.69999999977626
 31
0.0
  0
LINE
  5
EE
  8
DATA
  6
CONTINUOUS
 62
     7
 10
-197.0894418312613
 20
-78.000000000223153
 30
0.0
 11
-194.4894418312613
 21
-78.000000000223153
 31
0.0
  0
LINE
  5
EF
  8
DATA
  6
CONTINUOUS
 62
     7
 10
-198.5894418312613
 20
-76.500000000223153
 30
0.0
 11
-198.5894418312613
 21
-75.000000000223153
 31
0.0
  0
LINE
  5
F0
  8
DATA
  6
CONTINUOUS
 62
     7
 10
-192.9894418312613
 20
-76.500000000223153
 30
0.0
 11
-192.9894418312613
 21
-75.000000000223153
 31
0.0
  0
ARC
  5
F1
  8
DATA
  6
CONTINUOUS
 62
     7
 10
-197.0894418312613
 20
-76.500000000223153
 30
0.0
 40
1.5
 50
180.0
 51
270.0
  0
ARC
  5
F2
  8
DATA
  6
CONTINUOUS
 62
     7
 10
-194.4894418312613
 20
-76.500000000223153
 30
0.0
 40
1.5
 50
270.0
 51
0.0
  0
LINE
  5
F3
  8
DATA
  6
CONTINUOUS
 62
     7
 10
229.0894418308207
 20
-78.000000000223153
 30
0.0
 11
226.48944183082079
 21
-78.000000000223153
 31
0.0
  0
LINE
  5
F4
  8
DATA
  6
CONTINUOUS
 62
     7
 10
230.5894418308207
 20
-76.500000000223153
 30
0.0
 11
230.5894418308207
 21
-75.000000000223153
 31
0.0
  0
LINE
  5
F5
  8
DATA
  6
CONTINUOUS
 62
     7
 10
224.98944183082071
 20
-76.500000000223153
 30
0.0
 11
224.98944183082071
 21
-75.000000000223153
 31
0.0
  0
ARC
  5
F6
  8
DATA
  6
CONTINUOUS
 62
     7
 10
229.0894418308207
 20
-76.500000000223153
 30
0.0
 40
1.5
 50
270.0
 51
0.0
  0
ARC
  5
F7
  8
DATA
  6
CONTINUOUS
 62
     7
 10
226.48944183082079
 20
-76.500000000223153
 30
0.0
 40
1.5
 50
180.0
 51
270.0
  0
LINE
  5
F8
  8
DATA
  6
CONTINUOUS
 62
     7
 10
195.49999999977919
 20
74.999999999776293
 30
0.0
 11
195.49999999977919
 21
76.499999999776293
 31
0.0
  0
LINE
  5
F9
  8
DATA
  6
CONTINUOUS
 62
     7
 10
225.49999999977919
 20
74.999999999776293
 30
0.0
 11
195.49999999977919
 21
74.999999999776293
 31
0.0
  0
LINE
  5
FA
  8
DATA
  6
CONTINUOUS
 62
     7
 10
225.49999999977919
 20
76.499999999776293
 30
0.0
 11
225.49999999977919
 21
74.999999999776293
 31
0.0
  0
LINE
  5
FB
  8
DATA
  6
CONTINUOUS
 62
     7
 10
195.49999999977919
 20
76.499999999776293
 30
0.0
 11
225.49999999977919
 21
76.499999999776293
 31
0.0
  0
ARC
  5
FC
  8
DATA
  6
CONTINUOUS
 62
     7
 10
251.80000000011461
 20
206.40000000000001
 30
0.0
 40
3.1999999999999882
 50
270.0
 51
90.0
  0
ARC
  5
FD
  8
DATA
  6
CONTINUOUS
 62
     7
 10
247.2000000001147
 20
206.40000000000001
 30
0.0
 40
3.1999999999999882
 50
90.0
 51
270.0
  0
LINE
  5
FE
  8
DATA
  6
CONTINUOUS
 62
     7
 10
251.80000000011461
 20
203.19999999999999
 30
0.0
 11
247.2000000001147
 21
203.19999999999999
 31
0.0
  0
LINE
  5
FF
  8
DATA
  6
CONTINUOUS
 62
     7
 10
251.80000000011461
 20
209.59999999999999
 30
0.0
 11
247.2000000001147
 21
209.59999999999999
 31
0.0
  0
ARC
  5
100
  8
DATA
  6
CONTINUOUS
 62
     7
 10
-213.1999999998842
 20
206.40000000000001
 30
0.0
 40
3.1999999999999882
 50
270.0
 51
90.0
  0
ARC
  5
101
  8
DATA
  6
CONTINUOUS
 62
     7
 10
-217.79999999988411
 20
206.40000000000001
 30
0.0
 40
3.1999999999999882
 50
90.0
 51
270.0
  0
LINE
  5
102
  8
DATA
  6
CONTINUOUS
 62
     7
 10
-213.1999999998842
 20
203.19999999999999
 30
0.0
 11
-217.79999999988411
 21
203.19999999999999
 31
0.0
  0
LINE
  5
103
  8
DATA
  6
CONTINUOUS
 62
     7
 10
-213.1999999998842
 20
209.59999999999999
 30
0.0
 11
-217.79999999988411
 21
209.59999999999999
 31
0.0
  0
ARC
  5
104
  8
DATA
  6
CONTINUOUS
 62
     7
 10
251.80000000011461
 20
238.0
 30
0.0
 40
3.1999999999999882
 50
270.0
 51
90.0
  0
ARC
  5
105
  8
DATA
  6
CONTINUOUS
 62
     7
 10
247.2000000001147
 20
238.0
 30
0.0
 40
3.1999999999999882
 50
90.0
 51
270.0
  0
LINE
  5
106
  8
DATA
  6
CONTINUOUS
 62
     7
 10
251.80000000011461
 20
241.19999999999999
 30
0.0
 11
247.2000000001147
 21
241.19999999999999
 31
0.0
  0
LINE
  5
107
  8
DATA
  6
CONTINUOUS
 62
     7
 10
251.80000000011461
 20
234.80000000000001
 30
0.0
 11
247.2000000001147
 21
234.80000000000001
 31
0.0
  0
ARC
  5
108
  8
DATA
  6
CONTINUOUS
 62
     7
 10
-213.1999999998842
 20
238.0
 30
0.0
 40
3.1999999999999882
 50
270.0
 51
90.0
  0
ARC
  5
109
  8
DATA
  6
CONTINUOUS
 62
     7
 10
-217.79999999988411
 20
238.0
 30
0.0
 40
3.1999999999999882
 50
90.0
 51
270.0
  0
LINE
  5
10A
  8
DATA
  6
CONTINUOUS
 62
     7
 10
-213.1999999998842
 20
241.19999999999999
 30
0.0
 11
-217.79999999988411
 21
241.19999999999999
 31
0.0
  0
LINE
  5
10B
  8
DATA
  6
CONTINUOUS
 62
     7
 10
-213.1999999998842
 20
234.80000000000001
 30
0.0
 11
-217.79999999988411
 21
234.80000000000001
 31
0.0
  0
LINE
  5
10C
  8
DATA
  6
CONTINUOUS
 62
     7
 10
236.0000000001146
 20
244.39999999999989
 30
0.0
 11
236.0000000001146
 21
200.0
 31
0.0
  0
LINE
  5
10D
  8
DATA
  6
CONTINUOUS
 62
     7
 10
-201.99999999988421
 20
244.39999999999989
 30
0.0
 11
-201.99999999988421
 21
200.0
 31
0.0
  0
LINE
  5
10E
  8
DATA
  6
CONTINUOUS
 62
     7
 10
230.7000000001147
 20
205.30000000000001
 30
0.0
 11
-196.6999999998842
 21
205.30000000000001
 31
0.0
  0
LINE
  5
10F
  8
DATA
  6
CONTINUOUS
 62
     7
 10
-196.6999999998842
 20
240.0
 30
0.0
 11
-196.6999999998842
 21
205.30000000000001
 31
0.0
  0
LINE
  5
110
  8
DATA
  6
CONTINUOUS
 62
     7
 10
230.7000000001147
 20
240.0
 30
0.0
 11
230.7000000001147
 21
205.30000000000001
 31
0.0
  0
LINE
  5
111
  8
DATA
  6
CONTINUOUS
 62
     7
 10
230.7000000001147
 20
205.30000000000001
 30
0.0
 11
236.0000000001146
 21
200.0
 31
0.0
  0
LINE
  5
112
  8
DATA
  6
CONTINUOUS
 62
     7
 10
-196.6999999998842
 20
205.30000000000001
 30
0.0
 11
-201.99999999988421
 21
200.0
 31
0.0
  0
TEXT
  5
113
  8
DATA
 62
     7
 10
217.3322176518304
 20
208.74979345161091
 30
0.0
 40
2.171788194444443
  1
15 WATTS
 50
180.0
 41
0.7
 11
217.3322176518304
 21
206.57800525716641
 31
0.0
 73
     3
  0
TEXT
  5
114
  8
DATA
 62
     7
 10
219.8759783758716
 20
237.33366634122811
 30
0.0
 40
2.171788194444443
  1
100V～50/60Hz
 50
180.0
 41
0.7
 11
219.8759783758716
 21
235.16187814678369
 31
0.0
 73
     3
  0
TEXT
  5
115
  8
DATA
 62
     7
 10
218.00000000011471
 20
240.75671976080829
 30
0.0
 40
2.171788194444443
  1
120～60Hz
 50
180.0
 41
0.7
 11
218.00000000011471
 21
238.58493156636391
 31
0.0
 73
     3
  0
ARC
  5
116
  8
DATA
  6
CONTINUOUS
 62
     7
 10
233.46153846165291
 20
238.44301119082959
 30
0.0
 40
4.8384615384617167
 50
316.99713135190598
 51
43.002868648094001
  0
LINE
  5
117
  8
DATA
  6
CONTINUOUS
 62
     7
 10
237.0000000001146
 20
235.14301119082961
 30
0.0
 11
236.0000000001146
 21
235.14301119082961
 31
0.0
  0
LINE
  5
118
  8
DATA
  6
CONTINUOUS
 62
     7
 10
237.0000000001146
 20
241.74301119082961
 30
0.0
 11
236.0000000001146
 21
241.74301119082961
 31
0.0
  0
ARC
  5
119
  8
DATA
  6
CONTINUOUS
 62
     7
 10
-199.46153846142241
 20
238.44301119082959
 30
0.0
 40
4.8384615384617167
 50
136.99713135190601
 51
223.00286864809399
  0
LINE
  5
11A
  8
DATA
  6
CONTINUOUS
 62
     7
 10
-202.9999999998843
 20
235.14301119082961
 30
0.0
 11
-201.9999999998843
 21
235.14301119082961
 31
0.0
  0
LINE
  5
11B
  8
DATA
  6
CONTINUOUS
 62
     7
 10
-202.9999999998843
 20
241.74301119082961
 30
0.0
 11
-201.9999999998843
 21
241.74301119082961
 31
0.0
  0
LINE
  5
11C
  8
DATA
  6
CONTINUOUS
 62
     7
 10
353.00000000021703
 20
-180.60000000029839
 30
0.0
 11
353.00000000021703
 21
-225.0000000002982
 31
0.0
  0
CIRCLE
  5
11D
  8
DATA
  6
CONTINUOUS
 62
     7
 10
370.00000000021691
 20
-220.00000000029829
 30
0.0
 40
3.350000000000021
  0
CIRCLE
  5
11E
  8
DATA
  6
CONTINUOUS
 62
     7
 10
482.00000000021782
 20
-220.00000000029829
 30
0.0
 40
3.350000000000021
  0
LINE
  5
11F
  8
DATA
  6
CONTINUOUS
 62
     7
 10
501.5000000002176
 20
-190.60000000029839
 30
0.0
 11
501.5000000002176
 21
-213.9580068702663
 31
0.0
  0
LINE
  5
120
  8
DATA
  6
CONTINUOUS
 62
     7
 10
501.5000000002176
 20
-190.60000000029839
 30
0.0
 11
500.0000000002176
 21
-190.60000000029839
 31
0.0
  0
TEXT
  5
121
  8
DATA
 62
     7
 10
-223.7570876115106
 20
-208.1089428290511
 30
0.0
 40
1.923828125
  1
PROFESSIONAL PRODUCTS  
 41
0.7
 11
-223.7570876115106
 21
-206.18511470405119
 31
0.0
 73
     3
  0
TEXT
  5
122
  8
DATA
 62
     7
 10
231.19060249964599
 20
-200.83960811957169
 30
0.0
 40
6.7868381076388884
  1
223XS
 41
0.7
 11
231.19060249964599
 21
-194.05277001193281
 31
0.0
 73
     3
  0
TEXT
  5
123
  8
DATA
 62
     7
 10
225.20916662795921
 20
-205.45270233200139
 30
0.0
 40
2.8504720052083319
  1
Stereo 2-Way/Mono
 41
0.7
 11
225.20916662795921
 21
-202.60223032679309
 31
0.0
 73
     3
  0
TEXT
  5
124
  8
DATA
 62
     7
 10
225.20916662795921
 20
-209.15686899866819
 30
0.0
 40
2.8504720052083319
  1
  3-Way Crossover
 41
0.7
 11
225.20916662795921
 21
-206.3063969934598
 31
0.0
 73
     3
  0
LINE
  5
125
  8
DATA
  6
CONTINUOUS
 62
     7
 10
347.00000000021691
 20
-193.48283304903671
 30
0.0
 11
347.00000000021691
 21
-188.78283304903661
 31
0.0
  0
ARC
  5
126
  8
DATA
  6
CONTINUOUS
 62
     7
 10
347.50000000021691
 20
-193.48283304903671
 30
0.0
 40
0.5
 50
180.0
 51
270.0
  0
LINE
  5
127
  8
DATA
  6
CONTINUOUS
 62
     7
 10
350.00000000021703
 20
-193.98283304903671
 30
0.0
 11
347.50000000021691
 21
-193.98283304903671
 31
0.0
  0
LINE
  5
128
  8
DATA
  6
CONTINUOUS
 62
     7
 10
350.00000000021703
 20
-188.2828330490367
 30
0.0
 11
350.00000000021703
 21
-193.98283304903671
 31
0.0
  0
LINE
  5
129
  8
DATA
  6
CONTINUOUS
 62
     7
 10
347.50000000021691
 20
-188.2828330490367
 30
0.0
 11
350.00000000021703
 21
-188.2828330490367
 31
0.0
  0
ARC
  5
12A
  8
DATA
  6
CONTINUOUS
 62
     7
 10
347.50000000021691
 20
-188.78283304903661
 30
0.0
 40
0.5
 50
90.0
 51
180.0
  0
LINE
  5
12B
  8
DATA
  6
CONTINUOUS
 62
     7
 10
347.00000000021691
 20
-216.91716695155981
 30
0.0
 11
347.00000000021691
 21
-212.21716695155999
 31
0.0
  0
ARC
  5
12C
  8
DATA
  6
CONTINUOUS
 62
     7
 10
347.50000000021691
 20
-216.91716695155981
 30
0.0
 40
0.5
 50
180.0
 51
270.0
  0
LINE
  5
12D
  8
DATA
  6
CONTINUOUS
 62
     7
 10
350.00000000021703
 20
-217.41716695155989
 30
0.0
 11
347.50000000021691
 21
-217.41716695155989
 31
0.0
  0
LINE
  5
12E
  8
DATA
  6
CONTINUOUS
 62
     7
 10
350.00000000021703
 20
-211.71716695155999
 30
0.0
 11
350.00000000021703
 21
-217.41716695155989
 31
0.0
  0
LINE
  5
12F
  8
DATA
  6
CONTINUOUS
 62
     7
 10
347.50000000021691
 20
-211.71716695155999
 30
0.0
 11
350.00000000021703
 21
-211.71716695155999
 31
0.0
  0
ARC
  5
130
  8
DATA
  6
CONTINUOUS
 62
     7
 10
347.50000000021691
 20
-212.21716695155999
 30
0.0
 40
0.5
 50
90.0
 51
180.0
  0
CIRCLE
  5
131
  8
DATA
  6
CONTINUOUS
 62
     7
 10
-194.8307394047182
 20
-214.51617296991441
 30
0.0
 40
2.7999999999999541
  0
LINE
  5
132
  8
DATA
  6
CONTINUOUS
 62
     7
 10
-194.1307394047181
 20
-213.3037374046161
 30
0.0
 11
-193.43073940471811
 21
-214.51617296991441
 31
0.0
  0
LINE
  5
133
  8
DATA
  6
CONTINUOUS
 62
     7
 10
-195.5307394047181
 20
-213.3037374046161
 30
0.0
 11
-194.1307394047181
 21
-213.3037374046161
 31
0.0
  0
LINE
  5
134
  8
DATA
  6
CONTINUOUS
 62
     7
 10
-196.23073940471809
 20
-214.51617296991441
 30
0.0
 11
-195.5307394047181
 21
-213.3037374046161
 31
0.0
  0
LINE
  5
135
  8
DATA
  6
CONTINUOUS
 62
     7
 10
-195.5307394047181
 20
-215.7286085352126
 30
0.0
 11
-196.23073940471809
 21
-214.51617296991441
 31
0.0
  0
LINE
  5
136
  8
DATA
  6
CONTINUOUS
 62
     7
 10
-194.1307394047181
 20
-215.7286085352126
 30
0.0
 11
-195.5307394047181
 21
-215.7286085352126
 31
0.0
  0
LINE
  5
137
  8
DATA
  6
CONTINUOUS
 62
     7
 10
-193.43073940471811
 20
-214.51617296991441
 30
0.0
 11
-194.1307394047181
 21
-215.7286085352126
 31
0.0
  0
LINE
  5
138
  8
DATA
  6
CONTINUOUS
 62
     7
 10
347.00000000021691
 20
-187.78283304903661
 30
0.0
 11
347.00000000021691
 21
-183.3471864922619
 31
0.0
  0
LINE
  5
139
  8
DATA
  6
CONTINUOUS
 62
     7
 10
347.50000000021691
 20
-182.8471864922619
 30
0.0
 11
350.00000000021703
 21
-182.8471864922619
 31
0.0
  0
ARC
  5
13A
  8
DATA
  6
CONTINUOUS
 62
     7
 10
347.50000000021691
 20
-183.3471864922619
 30
0.0
 40
0.5
 50
90.0
 51
180.0
  0
ARC
  5
13B
  8
DATA
  6
CONTINUOUS
 62
     7
 10
347.50000000021691
 20
-187.78283304903661
 30
0.0
 40
0.5
 50
180.0
 51
270.0
  0
LINE
  5
13C
  8
DATA
  6
CONTINUOUS
 62
     7
 10
-225.0000000001497
 20
-224.9999999949525
 30
0.0
 11
-225.0000000001497
 21
-179.99900601865269
 31
0.0
  0
LINE
  5
13D
  8
DATA
  6
CONTINUOUS
 62
     7
 10
257.99999999985027
 20
-224.9999999949525
 30
0.0
 11
-225.0000000001497
 21
-224.9999999949525
 31
0.0
  0
LINE
  5
13E
  8
DATA
  6
CONTINUOUS
 62
     7
 10
-225.0000000001497
 20
-179.99900601865269
 30
0.0
 11
257.99999999985027
 21
-179.99900601865269
 31
0.0
  0
LINE
  5
13F
  8
DATA
  6
CONTINUOUS
 62
     7
 10
-224.99999999988481
 20
200.0
 30
0.0
 11
-224.99999999988481
 21
245.0
 31
0.0
  0
LINE
  5
140
  8
DATA
  6
CONTINUOUS
 62
     7
 10
258.00000000011471
 20
200.0
 30
0.0
 11
-224.99999999988481
 21
200.0
 31
0.0
  0
LINE
  5
141
  8
DATA
  6
CONTINUOUS
 62
     7
 10
258.00000000011471
 20
245.0
 30
0.0
 11
258.00000000011471
 21
200.0
 31
0.0
  0
LINE
  5
142
  8
DATA
  6
CONTINUOUS
 62
     7
 10
-224.99999999988481
 20
245.0
 30
0.0
 11
258.00000000011471
 21
245.0
 31
0.0
  0
LINE
  5
143
  8
DATA
  6
CONTINUOUS
 62
     7
 10
236.0000000001146
 20
244.39999999999989
 30
0.0
 11
236.0000000001146
 21
245.0
 31
0.0
  0
LINE
  5
144
  8
DATA
  6
CONTINUOUS
 62
     7
 10
-201.99999999988421
 20
244.39999999999989
 30
0.0
 11
-201.99999999988421
 21
245.0
 31
0.0
  0
ARC
  5
145
  8
DATA
  6
CONTINUOUS
 62
     7
 10
-112.22326673756859
 20
-202.5949031657895
 30
0.0
 40
4.7499999999998463
 50
98.302906098070949
 51
78.90503603199943
  0
ARC
  5
146
  8
DATA
  6
CONTINUOUS
 62
     7
 10
-112.22326673756901
 20
-202.5949031657899
 30
0.0
 40
6.2500000000001998
 50
96.300838472254284
 51
81.590263166657877
  0
LINE
  5
147
  8
DATA
  6
CONTINUOUS
 62
     7
 10
-112.209197092599
 20
-195.37856905849111
 30
0.0
 11
-112.00919709259919
 21
-195.378569058491
 31
0.0
  0
ARC
  5
148
  8
DATA
  6
CONTINUOUS
 62
     7
 10
-112.209197092599
 20
-196.07856905849121
 30
0.0
 40
0.7000000000000455
 50
90.0
 51
179.99999999999071
  0
LINE
  5
149
  8
DATA
  6
CONTINUOUS
 62
     7
 10
-112.9091970925992
 20
-201.838569058491
 30
0.0
 11
-112.9091970925991
 21
-196.0785690584911
 31
0.0
  0
ARC
  5
14A
  8
DATA
  6
CONTINUOUS
 62
     7
 10
-112.2091970925993
 20
-201.8385690584912
 30
0.0
 40
0.6999999999999318
 50
180.0
 51
270.0
  0
LINE
  5
14B
  8
DATA
  6
CONTINUOUS
 62
     7
 10
-112.00919709259919
 20
-202.53856905849111
 30
0.0
 11
-112.2091970925991
 21
-202.53856905849111
 31
0.0
  0
ARC
  5
14C
  8
DATA
  6
CONTINUOUS
 62
     7
 10
-112.00919709259919
 20
-201.83856905849109
 30
0.0
 40
0.7000000000000455
 50
270.0
 51
359.99999999999528
  0
LINE
  5
14D
  8
DATA
  6
CONTINUOUS
 62
     7
 10
-111.30919709259921
 20
-196.0785690584911
 30
0.0
 11
-111.30919709259921
 21
-201.8385690584912
 31
0.0
  0
ARC
  5
14E
  8
DATA
  6
CONTINUOUS
 62
     7
 10
-112.00919709259929
 20
-196.0785690584911
 30
0.0
 40
0.7000000000000455
 50
0.0
 51
89.999999999990649
  0
LINE
  5
14F
  8
DATA
  6
CONTINUOUS
 62
     7
 10
-116.9054136810152
 20
-201.79490316578969
 30
0.0
 11
-118.4218552865854
 21
-201.79490316578969
 31
0.0
  0
LINE
  5
150
  8
DATA
  6
CONTINUOUS
 62
     7
 10
-116.9054136810152
 20
-203.39490316578971
 30
0.0
 11
-118.4218552865854
 21
-203.39490316578971
 31
0.0
  0
LINE
  5
151
  8
DATA
  6
CONTINUOUS
 62
     7
 10
-107.5411197941223
 20
-201.79490316578969
 30
0.0
 11
-106.0246781885522
 21
-201.79490316578969
 31
0.0
  0
LINE
  5
152
  8
DATA
  6
CONTINUOUS
 62
     7
 10
-107.5411197941223
 20
-203.39490316578971
 30
0.0
 11
-106.0246781885522
 21
-203.39490316578971
 31
0.0
  0
LINE
  5
153
  8
DATA
  6
CONTINUOUS
 62
     7
 10
-116.0997300167375
 20
-199.84981073651929
 30
0.0
 11
-117.1720161593129
 21
-198.77752459394401
 31
0.0
  0
LINE
  5
154
  8
DATA
  6
CONTINUOUS
 62
     7
 10
-114.9683591668435
 20
-198.71843988661641
 30
0.0
 11
-116.0406453094144
 21
-197.64615374404551
 31
0.0
  0
LINE
  5
155
  8
DATA
  6
CONTINUOUS
 62
     7
 10
-109.47817430829841
 20
-198.7184398866209
 30
0.0
 11
-108.405888165723
 21
-197.64615374404551
 31
0.0
  0
LINE
  5
156
  8
DATA
  6
CONTINUOUS
 62
     7
 10
-107.2745173158246
 20
-198.77752459394409
 30
0.0
 11
-108.3468034583955
 21
-199.849810736515
 31
0.0
  0
LINE
  5
157
  8
DATA
  6
CONTINUOUS
 62
     7
 10
-107.2745173158246
 20
-206.4122817376354
 30
0.0
 11
-108.3468034583955
 21
-205.33999559506441
 31
0.0
  0
LINE
  5
158
  8
DATA
  6
CONTINUOUS
 62
     7
 10
-108.405888165723
 20
-207.54365258753381
 30
0.0
 11
-109.47817430829841
 21
-206.47136644495839
 31
0.0
  0
ARC
  5
159
  8
DATA
  6
CONTINUOUS
 62
     7
 10
-112.291684499113
 20
-202.4603980099825
 30
0.0
 40
6.8400000000000372
 50
93.853979695462726
 51
240.88271410567279
  0
ARC
  5
15A
  8
DATA
  6
CONTINUOUS
 62
     7
 10
-112.291684499113
 20
-202.4603980099825
 30
0.0
 40
6.8400000000000372
 50
300.65928338484559
 51
82.830667981082485
  0
LINE
  5
15B
  8
DATA
  6
CONTINUOUS
 62
     7
 10
-104.4382667375687
 20
-202.53074548171281
 30
0.0
 11
-105.45204626063691
 21
-202.53074548171281
 31
0.0
  0
LINE
  5
15C
  8
DATA
  6
CONTINUOUS
 62
     7
 10
-115.6200214653352
 20
-208.4359961423246
 30
0.0
 11
-116.09328654359101
 21
-209.2856823208661
 31
0.0
  0
LINE
  5
15D
  8
DATA
  6
CONTINUOUS
 62
     7
 10
-117.0369337909142
 20
-207.38667542387799
 30
0.0
 11
-117.69431919879391
 21
-208.06913965029011
 31
0.0
  0
LINE
  5
15E
  8
DATA
  6
CONTINUOUS
 62
     7
 10
-118.1647402231019
 20
-205.96650931211749
 30
0.0
 11
-118.9629122579304
 21
-206.42733415128541
 31
0.0
  0
LINE
  5
15F
  8
DATA
  6
CONTINUOUS
 62
     7
 10
-118.8383759592006
 20
-204.4419203859369
 30
0.0
 11
-119.69921578140431
 21
-204.7024754128858
 31
0.0
  0
LINE
  5
160
  8
DATA
  6
CONTINUOUS
 62
     7
 10
-119.1313227375891
 20
-202.53074548171281
 30
0.0
 11
-120.008266737567
 21
-202.53074548171281
 31
0.0
  0
LINE
  5
161
  8
DATA
  6
CONTINUOUS
 62
     7
 10
-118.89909965839971
 20
-200.69187746646611
 30
0.0
 11
-119.7557206529809
 21
-200.56393003226279
 31
0.0
  0
LINE
  5
162
  8
DATA
  6
CONTINUOUS
 62
     7
 10
-118.2350895893086
 20
-199.07490898565499
 30
0.0
 11
-118.9703643356176
 21
-198.6470746663129
 31
0.0
  0
LINE
  5
163
  8
DATA
  6
CONTINUOUS
 62
     7
 10
-117.2047631685147
 20
-197.7014844797516
 30
0.0
 11
-117.8036844614645
 21
-197.1025631868016
 31
0.0
  0
LINE
  5
164
  8
DATA
  6
CONTINUOUS
 62
     7
 10
-115.7453817873441
 20
-196.5563676034586
 30
0.0
 11
-116.1702438477945
 21
-195.82048492855009
 31
0.0
  0
LINE
  5
165
  8
DATA
  6
CONTINUOUS
 62
     7
 10
-113.9074985253546
 20
-195.8139895788741
 30
0.0
 11
-114.11073238614181
 21
-194.97801760197231
 31
0.0
  0
LINE
  5
166
  8
DATA
  6
CONTINUOUS
 62
     7
 10
-110.2994278956821
 20
-195.91696514747639
 30
0.0
 11
-110.0381172291807
 21
-195.05870783284971
 31
0.0
  0
LINE
  5
167
  8
DATA
  6
CONTINUOUS
 62
     7
 10
-108.7606870837905
 20
-196.6022705572081
 30
0.0
 11
-108.2860201769283
 21
-195.81477090457551
 31
0.0
  0
LINE
  5
168
  8
DATA
  6
CONTINUOUS
 62
     7
 10
-107.43039751641
 20
-197.64859077446931
 30
0.0
 11
-106.77820497232899
 21
-196.97849770664359
 31
0.0
  0
LINE
  5
169
  8
DATA
  6
CONTINUOUS
 62
     7
 10
-106.2764999740039
 20
-199.20414938174409
 30
0.0
 11
-105.4323425734205
 21
-198.72422817625301
 31
0.0
  0
LINE
  5
16A
  8
DATA
  6
CONTINUOUS
 62
     7
 10
-105.6812358613943
 20
-200.7032500913102
 30
0.0
 11
-104.69870143208939
 21
-200.53396257826651
 31
0.0
  0
LINE
  5
16B
  8
DATA
  6
CONTINUOUS
 62
     7
 10
-104.7730380421623
 20
-204.57635288346171
 30
0.0
 11
-105.7093091915003
 21
-204.31995045875141
 31
0.0
  0
LINE
  5
16C
  8
DATA
  6
CONTINUOUS
 62
     7
 10
-106.3941588633207
 20
-205.92519113153571
 30
0.0
 11
-105.49781982328901
 21
-206.45178983279999
 31
0.0
  0
LINE
  5
16D
  8
DATA
  6
CONTINUOUS
 62
     7
 10
-106.6428490136725
 20
-207.95892777662391
 30
0.0
 11
-107.3805051666932
 21
-207.22127162360329
 31
0.0
  0
LINE
  5
16E
  8
DATA
  6
CONTINUOUS
 62
     7
 10
-108.2762896273457
 20
-209.2410060348704
 30
0.0
 11
-108.8037513667629
 21
-208.3442676944978
 31
0.0
  0
LINE
  5
16F
  8
DATA
  6
CONTINUOUS
 62
     7
 10
-112.09402180888939
 20
-195.37856905849111
 30
0.0
 11
-112.09402180888939
 21
-194.60625464005821
 31
0.0
  0
TEXT
  5
170
  8
DATA
 62
     7
 10
-119.1446675636944
 20
-211.61729378500939
 30
0.0
 40
1.5390625
  1
-12
 41
0.7
 11
-119.1446675636944
 21
-210.07823128500939
 31
0.0
 73
     3
  0
TEXT
  5
171
  8
DATA
 62
     7
 10
-108.5326099861477
 20
-211.56840969841679
 30
0.0
 40
1.5390625
  1
+12
 41
0.7
 11
-108.5326099861477
 21
-210.02934719841679
 31
0.0
 73
     3
  0
LINE
  5
172
  8
DATA
  6
CONTINUOUS
 62
     7
 10
-116.00574590418699
 20
-205.45747235002401
 30
0.0
 11
-117.0433129527937
 21
-206.5633881527701
 31
0.0
  0
LINE
  5
173
  8
DATA
  6
CONTINUOUS
 62
     7
 10
-115.87645939385079
 20
-207.65812683025561
 30
0.0
 11
-114.8388923452483
 21
-206.55221102751381
 31
0.0
  0
LINE
  5
174
  8
DATA
  6
CONTINUOUS
 62
     7
 10
-112.9091970925992
 20
-207.29511587885381
 30
0.0
 11
-112.9091970925992
 21
-208.80714910007541
 31
0.0
  0
LINE
  5
175
  8
DATA
  6
CONTINUOUS
 62
     7
 10
-111.30919709259921
 20
-207.2561236802203
 30
0.0
 11
-111.30919709259921
 21
-208.7776999992744
 31
0.0
  0
LINE
  5
176
  8
DATA
  6
CONTINUOUS
 62
     7
 10
348.49580761591881
 20
-197.4305380108749
 30
0.0
 11
348.49580761591881
 21
-195.50343017474199
 31
0.0
  0
LINE
  5
177
  8
DATA
  6
CONTINUOUS
 62
     7
 10
348.49580761591881
 20
-195.50343017474199
 30
0.0
 11
344.99580761591869
 21
-195.803430174742
 31
0.0
  0
LINE
  5
178
  8
DATA
  6
CONTINUOUS
 62
     7
 10
344.99580761591869
 20
-195.803430174742
 30
0.0
 11
333.49580761591841
 21
-197.4305380108749
 31
0.0
  0
LINE
  5
179
  8
DATA
  6
CONTINUOUS
 62
     7
 10
344.99580761591869
 20
-208.48967307901279
 30
0.0
 11
333.49580761591841
 21
-206.88601540985809
 31
0.0
  0
LINE
  5
17A
  8
DATA
  6
CONTINUOUS
 62
     7
 10
333.49580761591841
 20
-197.4305380108749
 30
0.0
 11
333.49580761591841
 21
-206.88601540985809
 31
0.0
  0
LINE
  5
17B
  8
DATA
  6
CONTINUOUS
 62
     7
 10
349.99580761591881
 20
-197.75827671036649
 30
0.0
 11
348.49580761591881
 21
-197.75827671036649
 31
0.0
  0
LINE
  5
17C
  8
DATA
  6
CONTINUOUS
 62
     7
 10
349.99580761591881
 20
-206.5582767103665
 30
0.0
 11
348.49580761591881
 21
-206.5582767103665
 31
0.0
  0
LINE
  5
17D
  8
DATA
  6
CONTINUOUS
 62
     7
 10
333.49580761591841
 20
-198.55827671036641
 30
0.0
 11
344.99580761591881
 21
-197.94655162687741
 31
0.0
  0
LINE
  5
17E
  8
DATA
  6
CONTINUOUS
 62
     7
 10
333.49580761591841
 20
-205.75827671036649
 30
0.0
 11
344.99580761591881
 21
-206.3465516268775
 31
0.0
  0
LINE
  5
17F
  8
DATA
  6
CONTINUOUS
 62
     7
 10
344.99580761591869
 20
-198.8659310823833
 30
0.0
 11
344.99580761591869
 21
-195.803430174742
 31
0.0
  0
LINE
  5
180
  8
DATA
  6
CONTINUOUS
 62
     7
 10
343.41704635407842
 20
-199.73053144119999
 30
0.0
 11
333.49580761591841
 21
-200.25827671036649
 31
0.0
  0
LINE
  5
181
  8
DATA
  6
CONTINUOUS
 62
     7
 10
348.49580761591881
 20
-197.4305380108749
 30
0.0
 11
348.49580761591881
 21
-198.8659310823833
 31
0.0
  0
LINE
  5
182
  8
DATA
  6
CONTINUOUS
 62
     7
 10
348.49580761591881
 20
-198.8659310823833
 30
0.0
 11
348.49580761591881
 21
-199.65108660340039
 31
0.0
  0
LINE
  5
183
  8
DATA
  6
CONTINUOUS
 62
     7
 10
344.99580761591869
 20
-198.8659310823833
 30
0.0
 11
344.99580761591869
 21
-199.65108660340039
 31
0.0
  0
LINE
  5
184
  8
DATA
  6
CONTINUOUS
 62
     7
 10
348.49580761591881
 20
-206.5582767103665
 30
0.0
 11
348.49580761591881
 21
-204.80108660340039
 31
0.0
  0
LINE
  5
185
  8
DATA
  6
CONTINUOUS
 62
     7
 10
345.00425016455279
 20
-204.80108660340039
 30
0.0
 11
345.00425016455279
 21
-208.4908503796967
 31
0.0
  0
LINE
  5
186
  8
DATA
  6
CONTINUOUS
 62
     7
 10
333.49580761591841
 20
-204.0582767103665
 30
0.0
 11
343.697912137652
 21
-204.58015863956291
 31
0.0
  0
LINE
  5
187
  8
DATA
  6
CONTINUOUS
 62
     7
 10
348.49580761591881
 20
-206.5582767103665
 30
0.0
 11
348.49580761591881
 21
-208.8536264215991
 31
0.0
  0
LINE
  5
188
  8
DATA
  6
CONTINUOUS
 62
     7
 10
348.49580761591881
 20
-195.0051204565261
 30
0.0
 11
333.85682030595729
 21
-197.05969529342801
 31
0.0
  0
LINE
  5
189
  8
DATA
  6
CONTINUOUS
 62
     7
 10
332.99580761591841
 20
-201.65827671036649
 30
0.0
 11
332.99580761591841
 21
-198.0499894556192
 31
0.0
  0
LINE
  5
18A
  8
DATA
  6
CONTINUOUS
 62
     7
 10
348.49580761591881
 20
-195.50343017474199
 30
0.0
 11
348.49580761591881
 21
-195.0051204565261
 31
0.0
  0
ARC
  5
18B
  8
DATA
  6
CONTINUOUS
 62
     7
 10
333.99580761591852
 20
-198.0499894556192
 30
0.0
 40
1.000000000000085
 50
97.989250486650405
 51
179.99999999999679
  0
ARC
  5
18C
  8
DATA
  6
CONTINUOUS
 62
     7
 10
333.49580761591841
 20
-201.65827671036649
 30
0.0
 40
0.5
 50
180.0
 51
270.0
  0
LINE
  5
18D
  8
DATA
  6
CONTINUOUS
 62
     7
 10
343.41704635407842
 20
-199.73053144119999
 30
0.0
 11
343.73096417942838
 21
-199.71383305790241
 31
0.0
  0
LINE
  5
18E
  8
DATA
  6
CONTINUOUS
 62
     7
 10
344.99580761591869
 20
-208.48967307901279
 30
0.0
 11
348.49580761591881
 21
-208.8536264215991
 31
0.0
  0
LINE
  5
18F
  8
DATA
  6
CONTINUOUS
 62
     7
 10
345.00425016455279
 20
-204.80108660340039
 30
0.0
 11
345.00425016455279
 21
-199.537416464725
 31
0.0
  0
LINE
  5
190
  8
DATA
  6
CONTINUOUS
 62
     7
 10
348.49580761591881
 20
-204.80108660340039
 30
0.0
 11
348.49580761591881
 21
-199.537416464725
 31
0.0
  0
LINE
  5
191
  8
DATA
  6
CONTINUOUS
 62
     7
 10
343.73096417942838
 20
-199.71383305790241
 30
0.0
 11
344.99580761591869
 21
-199.64655162687751
 31
0.0
  0
LINE
  5
192
  8
DATA
  6
CONTINUOUS
 62
     7
 10
343.697912137652
 20
-204.58015863956291
 30
0.0
 11
345.00425016455279
 21
-204.64698349988549
 31
0.0
  0
LINE
  5
193
  8
DATA
  6
CONTINUOUS
 62
     7
 10
-117.5699285903367
 20
-76.454430174525541
 30
0.0
 11
-119.49703642646971
 21
-76.454430174525541
 31
0.0
  0
LINE
  5
194
  8
DATA
  6
CONTINUOUS
 62
     7
 10
-119.49703642646971
 20
-76.454430174525541
 30
0.0
 11
-119.19703642646969
 21
-79.954430174525569
 31
0.0
  0
LINE
  5
195
  8
DATA
  6
CONTINUOUS
 62
     7
 10
-119.19703642646969
 20
-79.954430174525569
 30
0.0
 11
-117.5699285903367
 21
-91.454430174525754
 31
0.0
  0
LINE
  5
196
  8
DATA
  6
CONTINUOUS
 62
     7
 10
-106.5107935221989
 20
-79.954430174525569
 30
0.0
 11
-108.1144511913536
 21
-91.454430174525754
 31
0.0
  0
LINE
  5
197
  8
DATA
  6
CONTINUOUS
 62
     7
 10
-108.1144511913536
 20
-76.454430174525541
 30
0.0
 11
-117.5699285903367
 21
-76.454430174525541
 31
0.0
  0
LINE
  5
198
  8
DATA
  6
CONTINUOUS
 62
     7
 10
-106.18734335522061
 20
-76.454430174525541
 30
0.0
 11
-106.4873433552205
 21
-79.954430174525569
 31
0.0
  0
LINE
  5
199
  8
DATA
  6
CONTINUOUS
 62
     7
 10
-108.1144511913536
 20
-76.454430174525541
 30
0.0
 11
-106.18734335522061
 21
-76.454430174525541
 31
0.0
  0
LINE
  5
19A
  8
DATA
  6
CONTINUOUS
 62
     7
 10
-114.7421898908452
 20
-91.454430174525797
 30
0.0
 11
-115.3539149743343
 21
-79.954430174525498
 31
0.0
  0
LINE
  5
19B
  8
DATA
  6
CONTINUOUS
 62
     7
 10
-116.4421898908452
 20
-91.454430174525797
 30
0.0
 11
-117.0539149743343
 21
-79.954430174525498
 31
0.0
  0
LINE
  5
19C
  8
DATA
  6
CONTINUOUS
 62
     7
 10
-110.9421898908452
 20
-91.454430174525797
 30
0.0
 11
-110.3539149743342
 21
-79.954430174525498
 31
0.0
  0
LINE
  5
19D
  8
DATA
  6
CONTINUOUS
 62
     7
 10
-109.2421898908452
 20
-91.454430174525797
 30
0.0
 11
-108.6539149743342
 21
-79.954430174525498
 31
0.0
  0
LINE
  5
19E
  8
DATA
  6
CONTINUOUS
 62
     7
 10
-112.1921898908451
 20
-79.954430174525569
 30
0.0
 11
-106.4873433552205
 21
-79.954430174525569
 31
0.0
  0
LINE
  5
19F
  8
DATA
  6
CONTINUOUS
 62
     7
 10
-113.4921898908451
 20
-79.954430174525569
 30
0.0
 11
-119.19703642646969
 21
-79.954430174525569
 31
0.0
  0
LINE
  5
1A0
  8
DATA
  6
CONTINUOUS
 62
     7
 10
-112.1921898908451
 20
-91.454430174525754
 30
0.0
 11
-108.1144511913536
 21
-91.454430174525754
 31
0.0
  0
LINE
  5
1A1
  8
DATA
  6
CONTINUOUS
 62
     7
 10
-113.4921898908451
 20
-91.454430174525754
 30
0.0
 11
-117.5699285903367
 21
-91.454430174525754
 31
0.0
  0
LINE
  5
1A2
  8
DATA
  6
CONTINUOUS
 62
     7
 10
-113.4921898908451
 20
-79.954430174525569
 30
0.0
 11
-119.19703642646969
 21
-79.954430174525569
 31
0.0
  0
LINE
  5
1A3
  8
DATA
  6
CONTINUOUS
 62
     7
 10
-112.1921898908451
 20
-79.954430174525569
 30
0.0
 11
-106.4873433552205
 21
-79.954430174525569
 31
0.0
  0
LINE
  5
1A4
  8
DATA
  6
CONTINUOUS
 62
     7
 10
-113.4921898908451
 20
-91.454430174525754
 30
0.0
 11
-117.5699285903367
 21
-91.454430174525754
 31
0.0
  0
LINE
  5
1A5
  8
DATA
  6
CONTINUOUS
 62
     7
 10
-112.1921898908451
 20
-91.454430174525754
 30
0.0
 11
-108.1144511913536
 21
-91.454430174525754
 31
0.0
  0
ARC
  5
1A6
  8
DATA
  6
CONTINUOUS
 62
     7
 10
-112.84218989084511
 20
-91.029530689416688
 30
0.0
 40
0.924899485108996
 50
225.34960338822449
 51
314.65039661177542
  0
LINE
  5
1A7
  8
DATA
  6
CONTINUOUS
 62
     7
 10
-113.4921898908451
 20
-91.687511735917994
 30
0.0
 11
-113.4921898908451
 21
-76.454430174525541
 31
0.0
  0
LINE
  5
1A8
  8
DATA
  6
CONTINUOUS
 62
     7
 10
-112.1921898908451
 20
-91.687511735917994
 30
0.0
 11
-112.1921898908451
 21
-76.454430174525541
 31
0.0
  0
LINE
  5
1A9
  8
DATA
  6
CONTINUOUS
 62
     7
 10
-117.2214068160124
 20
-75.947240498657237
 30
0.0
 11
-117.2214068160124
 21
-76.457900462857069
 31
0.0
  0
LINE
  5
1AA
  8
DATA
  6
CONTINUOUS
 62
     7
 10
-108.42140681601239
 20
-75.000109001634343
 30
0.0
 11
-108.42140681601239
 21
-76.454430174525541
 31
0.0
  0
LINE
  5
1AB
  8
DATA
  6
CONTINUOUS
 62
     7
 10
-117.2214068160124
 20
-75.947240498657237
 30
0.0
 11
-117.2214068160124
 21
-75.000109001634343
 31
0.0
  0
CIRCLE
  5
1AC
  8
DATA
  6
CONTINUOUS
 62
     7
 10
16.958702426322141
 20
-220.15977945858981
 30
0.0
 40
2.8000000000000109
  0
LINE
  5
1AD
  8
DATA
  6
CONTINUOUS
 62
     7
 10
17.658702426322119
 20
-221.4351527625592
 30
0.0
 11
18.358702426322171
 21
-220.22271719726101
 31
0.0
  0
LINE
  5
1AE
  8
DATA
  6
CONTINUOUS
 62
     7
 10
16.258702426322142
 20
-221.4351527625592
 30
0.0
 11
17.658702426322119
 21
-221.4351527625592
 31
0.0
  0
LINE
  5
1AF
  8
DATA
  6
CONTINUOUS
 62
     7
 10
15.5587024263221
 20
-220.22271719726101
 30
0.0
 11
16.258702426322142
 21
-221.4351527625592
 31
0.0
  0
LINE
  5
1B0
  8
DATA
  6
CONTINUOUS
 62
     7
 10
16.258702426322142
 20
-219.01028163196281
 30
0.0
 11
15.5587024263221
 21
-220.22271719726101
 31
0.0
  0
LINE
  5
1B1
  8
DATA
  6
CONTINUOUS
 62
     7
 10
17.658702426322119
 20
-219.01028163196281
 30
0.0
 11
16.258702426322142
 21
-219.01028163196281
 31
0.0
  0
LINE
  5
1B2
  8
DATA
  6
CONTINUOUS
 62
     7
 10
18.358702426322171
 20
-220.22271719726101
 30
0.0
 11
17.658702426322119
 21
-219.01028163196281
 31
0.0
  0
ARC
  5
1B3
  8
DATA
  6
CONTINUOUS
 62
     7
 10
-93.431977701419626
 20
-74.661833060313953
 30
0.0
 40
1.537499999999969
 50
192.68038349181489
 51
347.31961650818522
  0
LINE
  5
1B4
  8
DATA
  6
CONTINUOUS
 62
     7
 10
347.00000000021691
 20
-222.70357460421661
 30
0.0
 11
347.00000000021691
 21
-218.00357460421651
 31
0.0
  0
ARC
  5
1B5
  8
DATA
  6
CONTINUOUS
 62
     7
 10
347.50000000021691
 20
-222.70357460421661
 30
0.0
 40
0.5
 50
180.0
 51
270.0
  0
LINE
  5
1B6
  8
DATA
  6
CONTINUOUS
 62
     7
 10
350.00000000021703
 20
-223.20357460421661
 30
0.0
 11
347.50000000021691
 21
-223.20357460421661
 31
0.0
  0
LINE
  5
1B7
  8
DATA
  6
CONTINUOUS
 62
     7
 10
350.00000000021703
 20
-217.5035746042166
 30
0.0
 11
350.00000000021703
 21
-223.20357460421661
 31
0.0
  0
LINE
  5
1B8
  8
DATA
  6
CONTINUOUS
 62
     7
 10
347.50000000021691
 20
-217.5035746042166
 30
0.0
 11
350.00000000021703
 21
-217.5035746042166
 31
0.0
  0
ARC
  5
1B9
  8
DATA
  6
CONTINUOUS
 62
     7
 10
347.50000000021691
 20
-218.00357460421651
 30
0.0
 40
0.5
 50
90.0
 51
180.0
  0
LINE
  5
1BA
  8
DATA
  6
CONTINUOUS
 62
     7
 10
-196.6999999998842
 20
240.0
 30
0.0
 11
-196.6999999998842
 21
245.0
 31
0.0
  0
LINE
  5
1BB
  8
DATA
  6
CONTINUOUS
 62
     7
 10
230.7000000001147
 20
240.0
 30
0.0
 11
230.7000000001147
 21
245.0
 31
0.0
  0
ARC
  5
1BC
  8
DATA
  6
CONTINUOUS
 62
     7
 10
-80.223266737568608
 20
-202.5949031657895
 30
0.0
 40
4.7499999999998463
 50
98.302906098070949
 51
78.90503603199943
  0
ARC
  5
1BD
  8
DATA
  6
CONTINUOUS
 62
     7
 10
-80.223266737568906
 20
-202.5949031657897
 30
0.0
 40
6.2500000000001501
 50
96.300838472254853
 51
81.590263166658303
  0
LINE
  5
1BE
  8
DATA
  6
CONTINUOUS
 62
     7
 10
-80.209197092599055
 20
-195.37856905849111
 30
0.0
 11
-80.009197092599237
 21
-195.378569058491
 31
0.0
  0
ARC
  5
1BF
  8
DATA
  6
CONTINUOUS
 62
     7
 10
-80.209197092599055
 20
-196.07856905849121
 30
0.0
 40
0.7000000000000455
 50
90.0
 51
179.99999999999071
  0
LINE
  5
1C0
  8
DATA
  6
CONTINUOUS
 62
     7
 10
-80.909197092599186
 20
-201.838569058491
 30
0.0
 11
-80.909197092599044
 21
-196.0785690584911
 31
0.0
  0
ARC
  5
1C1
  8
DATA
  6
CONTINUOUS
 62
     7
 10
-80.209197092599254
 20
-201.8385690584912
 30
0.0
 40
0.6999999999999318
 50
180.0
 51
270.0
  0
LINE
  5
1C2
  8
DATA
  6
CONTINUOUS
 62
     7
 10
-80.009197092599237
 20
-202.53856905849111
 30
0.0
 11
-80.209197092599155
 21
-202.53856905849111
 31
0.0
  0
ARC
  5
1C3
  8
DATA
  6
CONTINUOUS
 62
     7
 10
-80.009197092599237
 20
-201.8385690584912
 30
0.0
 40
0.6999999999999889
 50
270.0
 51
0.0
  0
LINE
  5
1C4
  8
DATA
  6
CONTINUOUS
 62
     7
 10
-79.309197092599291
 20
-196.0785690584911
 30
0.0
 11
-79.309197092599291
 21
-201.8385690584912
 31
0.0
  0
ARC
  5
1C5
  8
DATA
  6
CONTINUOUS
 62
     7
 10
-80.009197092599322
 20
-196.0785690584911
 30
0.0
 40
0.7000000000000455
 50
0.0
 51
89.999999999990649
  0
LINE
  5
1C6
  8
DATA
  6
CONTINUOUS
 62
     7
 10
-84.905413681015219
 20
-201.79490316578969
 30
0.0
 11
-86.421855286585426
 21
-201.79490316578969
 31
0.0
  0
LINE
  5
1C7
  8
DATA
  6
CONTINUOUS
 62
     7
 10
-84.905413681015219
 20
-203.39490316578971
 30
0.0
 11
-86.421855286585426
 21
-203.39490316578971
 31
0.0
  0
LINE
  5
1C8
  8
DATA
  6
CONTINUOUS
 62
     7
 10
-75.541119794122267
 20
-201.79490316578969
 30
0.0
 11
-74.024678188552187
 21
-201.79490316578969
 31
0.0
  0
LINE
  5
1C9
  8
DATA
  6
CONTINUOUS
 62
     7
 10
-75.541119794122267
 20
-203.39490316578971
 30
0.0
 11
-74.024678188552187
 21
-203.39490316578971
 31
0.0
  0
LINE
  5
1CA
  8
DATA
  6
CONTINUOUS
 62
     7
 10
-84.099730016737524
 20
-199.84981073651929
 30
0.0
 11
-85.172016159312932
 21
-198.77752459394401
 31
0.0
  0
LINE
  5
1CB
  8
DATA
  6
CONTINUOUS
 62
     7
 10
-82.968359166843541
 20
-198.71843988661641
 30
0.0
 11
-84.04064530941443
 21
-197.64615374404551
 31
0.0
  0
LINE
  5
1CC
  8
DATA
  6
CONTINUOUS
 62
     7
 10
-77.478174308298364
 20
-198.7184398866209
 30
0.0
 11
-76.40588816572307
 21
-197.64615374404551
 31
0.0
  0
LINE
  5
1CD
  8
DATA
  6
CONTINUOUS
 62
     7
 10
-75.274517315824554
 20
-198.77752459394409
 30
0.0
 11
-76.346803458395541
 21
-199.849810736515
 31
0.0
  0
LINE
  5
1CE
  8
DATA
  6
CONTINUOUS
 62
     7
 10
-75.274517315824554
 20
-206.4122817376354
 30
0.0
 11
-76.346803458395541
 21
-205.33999559506441
 31
0.0
  0
LINE
  5
1CF
  8
DATA
  6
CONTINUOUS
 62
     7
 10
-76.40588816572307
 20
-207.54365258753381
 30
0.0
 11
-77.478174308298364
 21
-206.47136644495839
 31
0.0
  0
ARC
  5
1D0
  8
DATA
  6
CONTINUOUS
 62
     7
 10
-80.29168449911306
 20
-202.4603980099825
 30
0.0
 40
6.8400000000000372
 50
93.853979695462726
 51
240.88271410567279
  0
ARC
  5
1D1
  8
DATA
  6
CONTINUOUS
 62
     7
 10
-80.29168449911306
 20
-202.4603980099825
 30
0.0
 40
6.8400000000000372
 50
300.65928338484559
 51
82.830667981082485
  0
LINE
  5
1D2
  8
DATA
  6
CONTINUOUS
 62
     7
 10
-72.438266737568668
 20
-202.53074548171281
 30
0.0
 11
-73.452046260636934
 21
-202.53074548171281
 31
0.0
  0
LINE
  5
1D3
  8
DATA
  6
CONTINUOUS
 62
     7
 10
-83.620021465335256
 20
-208.4359961423246
 30
0.0
 11
-84.093286543590978
 21
-209.2856823208661
 31
0.0
  0
LINE
  5
1D4
  8
DATA
  6
CONTINUOUS
 62
     7
 10
-85.036933790914262
 20
-207.38667542387799
 30
0.0
 11
-85.694319198793949
 21
-208.06913965029011
 31
0.0
  0
LINE
  5
1D5
  8
DATA
  6
CONTINUOUS
 62
     7
 10
-86.164740223101916
 20
-205.96650931211749
 30
0.0
 11
-86.962912257930455
 21
-206.42733415128541
 31
0.0
  0
LINE
  5
1D6
  8
DATA
  6
CONTINUOUS
 62
     7
 10
-86.838375959200633
 20
-204.4419203859369
 30
0.0
 11
-87.699215781404348
 21
-204.7024754128858
 31
0.0
  0
LINE
  5
1D7
  8
DATA
  6
CONTINUOUS
 62
     7
 10
-87.131322737589059
 20
-202.53074548171281
 30
0.0
 11
-88.008266737567027
 21
-202.53074548171281
 31
0.0
  0
LINE
  5
1D8
  8
DATA
  6
CONTINUOUS
 62
     7
 10
-86.899099658399777
 20
-200.69187746646611
 30
0.0
 11
-87.755720652980884
 21
-200.56393003226279
 31
0.0
  0
LINE
  5
1D9
  8
DATA
  6
CONTINUOUS
 62
     7
 10
-86.235089589308657
 20
-199.07490898565499
 30
0.0
 11
-86.970364335617603
 21
-198.6470746663129
 31
0.0
  0
LINE
  5
1DA
  8
DATA
  6
CONTINUOUS
 62
     7
 10
-85.204763168514745
 20
-197.7014844797516
 30
0.0
 11
-85.803684461464542
 21
-197.1025631868016
 31
0.0
  0
LINE
  5
1DB
  8
DATA
  6
CONTINUOUS
 62
     7
 10
-83.745381787344115
 20
-196.5563676034586
 30
0.0
 11
-84.170243847794566
 21
-195.82048492855009
 31
0.0
  0
LINE
  5
1DC
  8
DATA
  6
CONTINUOUS
 62
     7
 10
-81.907498525354569
 20
-195.8139895788741
 30
0.0
 11
-82.110732386141791
 21
-194.97801760197231
 31
0.0
  0
LINE
  5
1DD
  8
DATA
  6
CONTINUOUS
 62
     7
 10
-78.299427895682058
 20
-195.91696514747639
 30
0.0
 11
-78.038117229180742
 21
-195.05870783284971
 31
0.0
  0
LINE
  5
1DE
  8
DATA
  6
CONTINUOUS
 62
     7
 10
-76.760687083790543
 20
-196.6022705572081
 30
0.0
 11
-76.286020176928304
 21
-195.81477090457551
 31
0.0
  0
LINE
  5
1DF
  8
DATA
  6
CONTINUOUS
 62
     7
 10
-75.430397516409982
 20
-197.64859077446931
 30
0.0
 11
-74.778204972328993
 21
-196.97849770664359
 31
0.0
  0
LINE
  5
1E0
  8
DATA
  6
CONTINUOUS
 62
     7
 10
-74.276499974003926
 20
-199.20414938174409
 30
0.0
 11
-73.432342573420513
 21
-198.72422817625301
 31
0.0
  0
LINE
  5
1E1
  8
DATA
  6
CONTINUOUS
 62
     7
 10
-73.681235861394342
 20
-200.7032500913102
 30
0.0
 11
-72.698701432089422
 21
-200.53396257826651
 31
0.0
  0
LINE
  5
1E2
  8
DATA
  6
CONTINUOUS
 62
     7
 10
-72.773038042162341
 20
-204.57635288346171
 30
0.0
 11
-73.709309191500296
 21
-204.31995045875141
 31
0.0
  0
LINE
  5
1E3
  8
DATA
  6
CONTINUOUS
 62
     7
 10
-74.394158863320698
 20
-205.92519113153571
 30
0.0
 11
-73.497819823289063
 21
-206.45178983279999
 31
0.0
  0
LINE
  5
1E4
  8
DATA
  6
CONTINUOUS
 62
     7
 10
-74.642849013672574
 20
-207.95892777662391
 30
0.0
 11
-75.380505166693254
 21
-207.22127162360329
 31
0.0
  0
LINE
  5
1E5
  8
DATA
  6
CONTINUOUS
 62
     7
 10
-76.276289627345776
 20
-209.2410060348704
 30
0.0
 11
-76.803751366762938
 21
-208.3442676944978
 31
0.0
  0
LINE
  5
1E6
  8
DATA
  6
CONTINUOUS
 62
     7
 10
-80.094021808889423
 20
-195.37856905849111
 30
0.0
 11
-80.094021808889423
 21
-194.60625464005821
 31
0.0
  0
TEXT
  5
1E7
  8
DATA
 62
     7
 10
-86.046200084553305
 20
-211.61729378500939
 30
0.0
 40
1.5390625
  1
45
 41
0.7
 11
-86.046200084553305
 21
-210.07823128500939
 31
0.0
 73
     3
  0
TEXT
  5
1E8
  8
DATA
 62
     7
 10
-76.532609986147762
 20
-211.56840969841679
 30
0.0
 40
1.5390625
  1
960
 41
0.7
 11
-76.532609986147762
 21
-210.02934719841679
 31
0.0
 73
     3
  0
LINE
  5
1E9
  8
DATA
  6
CONTINUOUS
 62
     7
 10
-84.005745904187009
 20
-205.45747235002401
 30
0.0
 11
-85.04331295279367
 21
-206.5633881527701
 31
0.0
  0
LINE
  5
1EA
  8
DATA
  6
CONTINUOUS
 62
     7
 10
-83.876459393850794
 20
-207.65812683025561
 30
0.0
 11
-82.838892345248311
 21
-206.55221102751381
 31
0.0
  0
LINE
  5
1EB
  8
DATA
  6
CONTINUOUS
 62
     7
 10
-80.909197092599186
 20
-207.29511587885381
 30
0.0
 11
-80.909197092599186
 21
-208.80714910007541
 31
0.0
  0
LINE
  5
1EC
  8
DATA
  6
CONTINUOUS
 62
     7
 10
-79.309197092599291
 20
-207.2561236802203
 30
0.0
 11
-79.309197092599291
 21
-208.7776999992744
 31
0.0
  0
ARC
  5
1ED
  8
DATA
  6
CONTINUOUS
 62
     7
 10
-55.723266737568579
 20
-202.5949031657895
 30
0.0
 40
4.749999999999849
 50
98.302906098071276
 51
78.9050360319997
  0
ARC
  5
1EE
  8
DATA
  6
CONTINUOUS
 62
     7
 10
-55.72326673756892
 20
-202.5949031657897
 30
0.0
 40
6.2500000000001501
 50
96.300838472254853
 51
81.590263166658303
  0
LINE
  5
1EF
  8
DATA
  6
CONTINUOUS
 62
     7
 10
-55.709197092599041
 20
-195.37856905849111
 30
0.0
 11
-55.509197092599223
 21
-195.378569058491
 31
0.0
  0
ARC
  5
1F0
  8
DATA
  6
CONTINUOUS
 62
     7
 10
-55.709197092599041
 20
-196.07856905849121
 30
0.0
 40
0.7000000000000455
 50
90.0
 51
179.99999999999071
  0
LINE
  5
1F1
  8
DATA
  6
CONTINUOUS
 62
     7
 10
-56.4091970925992
 20
-201.838569058491
 30
0.0
 11
-56.409197092599094
 21
-196.0785690584911
 31
0.0
  0
ARC
  5
1F2
  8
DATA
  6
CONTINUOUS
 62
     7
 10
-55.709197092599283
 20
-201.8385690584912
 30
0.0
 40
0.6999999999999318
 50
180.0
 51
270.0
  0
LINE
  5
1F3
  8
DATA
  6
CONTINUOUS
 62
     7
 10
-55.509197092599223
 20
-202.53856905849111
 30
0.0
 11
-55.70919709259914
 21
-202.53856905849111
 31
0.0
  0
ARC
  5
1F4
  8
DATA
  6
CONTINUOUS
 62
     7
 10
-55.509197092599223
 20
-201.8385690584912
 30
0.0
 40
0.6999999999999318
 50
270.0
 51
0.0000000000046612
  0
LINE
  5
1F5
  8
DATA
  6
CONTINUOUS
 62
     7
 10
-54.809197092599291
 20
-196.0785690584911
 30
0.0
 11
-54.809197092599291
 21
-201.8385690584912
 31
0.0
  0
ARC
  5
1F6
  8
DATA
  6
CONTINUOUS
 62
     7
 10
-55.509197092599337
 20
-196.0785690584911
 30
0.0
 40
0.7000000000000455
 50
0.0
 51
89.999999999990649
  0
LINE
  5
1F7
  8
DATA
  6
CONTINUOUS
 62
     7
 10
-60.405413681015212
 20
-201.79490316578969
 30
0.0
 11
-61.921855286585419
 21
-201.79490316578969
 31
0.0
  0
LINE
  5
1F8
  8
DATA
  6
CONTINUOUS
 62
     7
 10
-60.405413681015212
 20
-203.39490316578971
 30
0.0
 11
-61.921855286585419
 21
-203.39490316578971
 31
0.0
  0
LINE
  5
1F9
  8
DATA
  6
CONTINUOUS
 62
     7
 10
-51.041119794122288
 20
-201.79490316578969
 30
0.0
 11
-49.52467818855218
 21
-201.79490316578969
 31
0.0
  0
LINE
  5
1FA
  8
DATA
  6
CONTINUOUS
 62
     7
 10
-51.041119794122288
 20
-203.39490316578971
 30
0.0
 11
-49.52467818855218
 21
-203.39490316578971
 31
0.0
  0
LINE
  5
1FB
  8
DATA
  6
CONTINUOUS
 62
     7
 10
-59.599730016737517
 20
-199.84981073651929
 30
0.0
 11
-60.67201615931296
 21
-198.77752459394401
 31
0.0
  0
LINE
  5
1FC
  8
DATA
  6
CONTINUOUS
 62
     7
 10
-58.468359166843541
 20
-198.71843988661641
 30
0.0
 11
-59.540645309414423
 21
-197.64615374404551
 31
0.0
  0
LINE
  5
1FD
  8
DATA
  6
CONTINUOUS
 62
     7
 10
-52.978174308298378
 20
-198.7184398866209
 30
0.0
 11
-51.905888165723113
 21
-197.64615374404551
 31
0.0
  0
LINE
  5
1FE
  8
DATA
  6
CONTINUOUS
 62
     7
 10
-50.774517315824561
 20
-198.77752459394409
 30
0.0
 11
-51.846803458395541
 21
-199.849810736515
 31
0.0
  0
LINE
  5
1FF
  8
DATA
  6
CONTINUOUS
 62
     7
 10
-50.774517315824561
 20
-206.4122817376354
 30
0.0
 11
-51.846803458395541
 21
-205.33999559506441
 31
0.0
  0
LINE
  5
200
  8
DATA
  6
CONTINUOUS
 62
     7
 10
-51.905888165723113
 20
-207.54365258753381
 30
0.0
 11
-52.978174308298378
 21
-206.47136644495839
 31
0.0
  0
ARC
  5
201
  8
DATA
  6
CONTINUOUS
 62
     7
 10
-55.79168449911306
 20
-202.4603980099825
 30
0.0
 40
6.8400000000000372
 50
93.853979695462726
 51
240.88271410567279
  0
ARC
  5
202
  8
DATA
  6
CONTINUOUS
 62
     7
 10
-55.79168449911306
 20
-202.4603980099825
 30
0.0
 40
6.8400000000000372
 50
300.65928338484559
 51
82.830667981082485
  0
LINE
  5
203
  8
DATA
  6
CONTINUOUS
 62
     7
 10
-47.93826673756864
 20
-202.53074548171281
 30
0.0
 11
-48.952046260636919
 21
-202.53074548171281
 31
0.0
  0
LINE
  5
204
  8
DATA
  6
CONTINUOUS
 62
     7
 10
-59.120021465335249
 20
-208.4359961423246
 30
0.0
 11
-59.593286543590992
 21
-209.2856823208661
 31
0.0
  0
LINE
  5
205
  8
DATA
  6
CONTINUOUS
 62
     7
 10
-60.536933790914262
 20
-207.38667542387799
 30
0.0
 11
-61.194319198793963
 21
-208.06913965029011
 31
0.0
  0
LINE
  5
206
  8
DATA
  6
CONTINUOUS
 62
     7
 10
-61.664740223101902
 20
-205.96650931211749
 30
0.0
 11
-62.462912257930462
 21
-206.42733415128541
 31
0.0
  0
LINE
  5
207
  8
DATA
  6
CONTINUOUS
 62
     7
 10
-62.338375959200633
 20
-204.4419203859369
 30
0.0
 11
-63.199215781404362
 21
-204.7024754128858
 31
0.0
  0
LINE
  5
208
  8
DATA
  6
CONTINUOUS
 62
     7
 10
-62.631322737589088
 20
-202.53074548171281
 30
0.0
 11
-63.508266737566991
 21
-202.53074548171281
 31
0.0
  0
LINE
  5
209
  8
DATA
  6
CONTINUOUS
 62
     7
 10
-62.399099658399749
 20
-200.69187746646611
 30
0.0
 11
-63.255720652980877
 21
-200.56393003226279
 31
0.0
  0
LINE
  5
20A
  8
DATA
  6
CONTINUOUS
 62
     7
 10
-61.73508958930865
 20
-199.07490898565499
 30
0.0
 11
-62.470364335617617
 21
-198.6470746663129
 31
0.0
  0
LINE
  5
20B
  8
DATA
  6
CONTINUOUS
 62
     7
 10
-60.704763168514731
 20
-197.7014844797516
 30
0.0
 11
-61.303684461464577
 21
-197.1025631868016
 31
0.0
  0
LINE
  5
20C
  8
DATA
  6
CONTINUOUS
 62
     7
 10
-59.24538178734413
 20
-196.5563676034586
 30
0.0
 11
-59.670243847794573
 21
-195.82048492855009
 31
0.0
  0
LINE
  5
20D
  8
DATA
  6
CONTINUOUS
 62
     7
 10
-57.407498525354598
 20
-195.8139895788741
 30
0.0
 11
-57.610732386141841
 21
-194.97801760197231
 31
0.0
  0
LINE
  5
20E
  8
DATA
  6
CONTINUOUS
 62
     7
 10
-53.799427895682093
 20
-195.91696514747639
 30
0.0
 11
-53.538117229180749
 21
-195.05870783284971
 31
0.0
  0
LINE
  5
20F
  8
DATA
  6
CONTINUOUS
 62
     7
 10
-52.260687083790522
 20
-196.6022705572081
 30
0.0
 11
-51.78602017692829
 21
-195.81477090457551
 31
0.0
  0
LINE
  5
210
  8
DATA
  6
CONTINUOUS
 62
     7
 10
-50.930397516409997
 20
-197.64859077446931
 30
0.0
 11
-50.278204972329
 21
-196.97849770664359
 31
0.0
  0
LINE
  5
211
  8
DATA
  6
CONTINUOUS
 62
     7
 10
-49.776499974003919
 20
-199.20414938174409
 30
0.0
 11
-48.932342573420513
 21
-198.72422817625301
 31
0.0
  0
LINE
  5
212
  8
DATA
  6
CONTINUOUS
 62
     7
 10
-49.181235861394349
 20
-200.7032500913102
 30
0.0
 11
-48.198701432089443
 21
-200.53396257826651
 31
0.0
  0
LINE
  5
213
  8
DATA
  6
CONTINUOUS
 62
     7
 10
-48.273038042162362
 20
-204.57635288346171
 30
0.0
 11
-49.209309191500282
 21
-204.31995045875141
 31
0.0
  0
LINE
  5
214
  8
DATA
  6
CONTINUOUS
 62
     7
 10
-49.894158863320712
 20
-205.92519113153571
 30
0.0
 11
-48.997819823289049
 21
-206.45178983279999
 31
0.0
  0
LINE
  5
215
  8
DATA
  6
CONTINUOUS
 62
     7
 10
-50.142849013672581
 20
-207.95892777662391
 30
0.0
 11
-50.880505166693247
 21
-207.22127162360329
 31
0.0
  0
LINE
  5
216
  8
DATA
  6
CONTINUOUS
 62
     7
 10
-51.776289627345783
 20
-209.2410060348704
 30
0.0
 11
-52.303751366762931
 21
-208.3442676944978
 31
0.0
  0
LINE
  5
217
  8
DATA
  6
CONTINUOUS
 62
     7
 10
-55.594021808889408
 20
-195.37856905849111
 30
0.0
 11
-55.594021808889408
 21
-194.60625464005821
 31
0.0
  0
TEXT
  5
218
  8
DATA
 62
     7
 10
-62.839747960439212
 20
-211.7612937850094
 30
0.0
 40
1.846875
  1
-∞
 41
0.7
 11
-62.839747960439212
 21
-209.91441878500939
 31
0.0
 73
     3
  0
TEXT
  5
219
  8
DATA
 62
     7
 10
-51.757993116362471
 20
-211.56840969841679
 30
0.0
 40
1.5390625
  1
+6
 41
0.7
 11
-51.757993116362471
 21
-210.02934719841679
 31
0.0
 73
     3
  0
LINE
  5
21A
  8
DATA
  6
CONTINUOUS
 62
     7
 10
-59.505745904187009
 20
-205.45747235002401
 30
0.0
 11
-60.543312952793677
 21
-206.5633881527701
 31
0.0
  0
LINE
  5
21B
  8
DATA
  6
CONTINUOUS
 62
     7
 10
-59.37645939385078
 20
-207.65812683025561
 30
0.0
 11
-58.338892345248347
 21
-206.55221102751381
 31
0.0
  0
LINE
  5
21C
  8
DATA
  6
CONTINUOUS
 62
     7
 10
-56.4091970925992
 20
-207.29511587885381
 30
0.0
 11
-56.4091970925992
 21
-208.80714910007541
 31
0.0
  0
LINE
  5
21D
  8
DATA
  6
CONTINUOUS
 62
     7
 10
-54.809197092599291
 20
-207.2561236802203
 30
0.0
 11
-54.809197092599291
 21
-208.7776999992744
 31
0.0
  0
ARC
  5
21E
  8
DATA
  6
CONTINUOUS
 62
     7
 10
-23.22326673756859
 20
-202.5949031657895
 30
0.0
 40
4.7499999999998463
 50
98.302906098070949
 51
78.905036031999259
  0
ARC
  5
21F
  8
DATA
  6
CONTINUOUS
 62
     7
 10
-23.223266737568991
 20
-202.59490316578999
 30
0.0
 40
6.250000000000254
 50
96.300838472254014
 51
81.590263166657806
  0
LINE
  5
220
  8
DATA
  6
CONTINUOUS
 62
     7
 10
-23.20919709259903
 20
-195.37856905849111
 30
0.0
 11
-23.009197092599209
 21
-195.378569058491
 31
0.0
  0
ARC
  5
221
  8
DATA
  6
CONTINUOUS
 62
     7
 10
-23.20919709259903
 20
-196.07856905849121
 30
0.0
 40
0.7000000000000455
 50
90.0
 51
179.99999999999071
  0
LINE
  5
222
  8
DATA
  6
CONTINUOUS
 62
     7
 10
-23.909197092599179
 20
-201.838569058491
 30
0.0
 11
-23.909197092599069
 21
-196.0785690584911
 31
0.0
  0
ARC
  5
223
  8
DATA
  6
CONTINUOUS
 62
     7
 10
-23.209197092599251
 20
-201.8385690584912
 30
0.0
 40
0.6999999999999318
 50
180.0
 51
270.0
  0
LINE
  5
224
  8
DATA
  6
CONTINUOUS
 62
     7
 10
-23.009197092599209
 20
-202.53856905849111
 30
0.0
 11
-23.20919709259914
 21
-202.53856905849111
 31
0.0
  0
ARC
  5
225
  8
DATA
  6
CONTINUOUS
 62
     7
 10
-23.009197092599209
 20
-201.8385690584912
 30
0.0
 40
0.6999999999999318
 50
270.0
 51
0.0000000000046612
  0
LINE
  5
226
  8
DATA
  6
CONTINUOUS
 62
     7
 10
-22.309197092599291
 20
-196.0785690584911
 30
0.0
 11
-22.309197092599291
 21
-201.8385690584912
 31
0.0
  0
ARC
  5
227
  8
DATA
  6
CONTINUOUS
 62
     7
 10
-23.009197092599319
 20
-196.0785690584911
 30
0.0
 40
0.7000000000000455
 50
0.0
 51
89.999999999990649
  0
LINE
  5
228
  8
DATA
  6
CONTINUOUS
 62
     7
 10
-27.905413681015201
 20
-201.79490316578969
 30
0.0
 11
-29.42185528658543
 21
-201.79490316578969
 31
0.0
  0
LINE
  5
229
  8
DATA
  6
CONTINUOUS
 62
     7
 10
-27.905413681015201
 20
-203.39490316578971
 30
0.0
 11
-29.42185528658543
 21
-203.39490316578971
 31
0.0
  0
LINE
  5
22A
  8
DATA
  6
CONTINUOUS
 62
     7
 10
-18.54111979412227
 20
-201.79490316578969
 30
0.0
 11
-17.024678188552169
 21
-201.79490316578969
 31
0.0
  0
LINE
  5
22B
  8
DATA
  6
CONTINUOUS
 62
     7
 10
-18.54111979412227
 20
-203.39490316578971
 30
0.0
 11
-17.024678188552169
 21
-203.39490316578971
 31
0.0
  0
LINE
  5
22C
  8
DATA
  6
CONTINUOUS
 62
     7
 10
-27.09973001673751
 20
-199.84981073651929
 30
0.0
 11
-28.17201615931295
 21
-198.77752459394401
 31
0.0
  0
LINE
  5
22D
  8
DATA
  6
CONTINUOUS
 62
     7
 10
-25.968359166843541
 20
-198.71843988661641
 30
0.0
 11
-27.040645309414401
 21
-197.64615374404551
 31
0.0
  0
LINE
  5
22E
  8
DATA
  6
CONTINUOUS
 62
     7
 10
-20.478174308298371
 20
-198.7184398866209
 30
0.0
 11
-19.40588816572307
 21
-197.64615374404551
 31
0.0
  0
LINE
  5
22F
  8
DATA
  6
CONTINUOUS
 62
     7
 10
-18.274517315824529
 20
-198.77752459394409
 30
0.0
 11
-19.34680345839552
 21
-199.849810736515
 31
0.0
  0
LINE
  5
230
  8
DATA
  6
CONTINUOUS
 62
     7
 10
-18.274517315824529
 20
-206.4122817376354
 30
0.0
 11
-19.34680345839552
 21
-205.33999559506441
 31
0.0
  0
LINE
  5
231
  8
DATA
  6
CONTINUOUS
 62
     7
 10
-19.40588816572307
 20
-207.54365258753381
 30
0.0
 11
-20.478174308298371
 21
-206.47136644495839
 31
0.0
  0
ARC
  5
232
  8
DATA
  6
CONTINUOUS
 62
     7
 10
-23.29168449911305
 20
-202.4603980099825
 30
0.0
 40
6.8400000000000372
 50
93.853979695462726
 51
240.88271410567279
  0
ARC
  5
233
  8
DATA
  6
CONTINUOUS
 62
     7
 10
-23.29168449911305
 20
-202.4603980099825
 30
0.0
 40
6.8400000000000372
 50
300.65928338484559
 51
82.830667981082485
  0
LINE
  5
234
  8
DATA
  6
CONTINUOUS
 62
     7
 10
-15.43826673756865
 20
-202.53074548171281
 30
0.0
 11
-16.452046260636902
 21
-202.53074548171281
 31
0.0
  0
LINE
  5
235
  8
DATA
  6
CONTINUOUS
 62
     7
 10
-26.620021465335238
 20
-208.4359961423246
 30
0.0
 11
-27.093286543590981
 21
-209.2856823208661
 31
0.0
  0
LINE
  5
236
  8
DATA
  6
CONTINUOUS
 62
     7
 10
-28.036933790914269
 20
-207.38667542387799
 30
0.0
 11
-28.694319198793959
 21
-208.06913965029011
 31
0.0
  0
LINE
  5
237
  8
DATA
  6
CONTINUOUS
 62
     7
 10
-29.164740223101909
 20
-205.96650931211749
 30
0.0
 11
-29.962912257930451
 21
-206.42733415128541
 31
0.0
  0
LINE
  5
238
  8
DATA
  6
CONTINUOUS
 62
     7
 10
-29.83837595920064
 20
-204.4419203859369
 30
0.0
 11
-30.699215781404359
 21
-204.7024754128858
 31
0.0
  0
LINE
  5
239
  8
DATA
  6
CONTINUOUS
 62
     7
 10
-30.131322737589091
 20
-202.53074548171281
 30
0.0
 11
-31.008266737567009
 21
-202.53074548171281
 31
0.0
  0
LINE
  5
23A
  8
DATA
  6
CONTINUOUS
 62
     7
 10
-29.899099658399749
 20
-200.69187746646611
 30
0.0
 11
-30.75572065298088
 21
-200.56393003226279
 31
0.0
  0
LINE
  5
23B
  8
DATA
  6
CONTINUOUS
 62
     7
 10
-29.235089589308661
 20
-199.07490898565499
 30
0.0
 11
-29.970364335617621
 21
-198.6470746663129
 31
0.0
  0
LINE
  5
23C
  8
DATA
  6
CONTINUOUS
 62
     7
 10
-28.204763168514731
 20
-197.7014844797516
 30
0.0
 11
-28.803684461464591
 21
-197.1025631868016
 31
0.0
  0
LINE
  5
23D
  8
DATA
  6
CONTINUOUS
 62
     7
 10
-26.745381787344112
 20
-196.5563676034586
 30
0.0
 11
-27.170243847794548
 21
-195.82048492855009
 31
0.0
  0
LINE
  5
23E
  8
DATA
  6
CONTINUOUS
 62
     7
 10
-24.90749852535459
 20
-195.8139895788741
 30
0.0
 11
-25.110732386141819
 21
-194.97801760197231
 31
0.0
  0
LINE
  5
23F
  8
DATA
  6
CONTINUOUS
 62
     7
 10
-21.299427895682069
 20
-195.91696514747639
 30
0.0
 11
-21.038117229180731
 21
-195.05870783284971
 31
0.0
  0
LINE
  5
240
  8
DATA
  6
CONTINUOUS
 62
     7
 10
-19.760687083790511
 20
-196.6022705572081
 30
0.0
 11
-19.286020176928272
 21
-195.81477090457551
 31
0.0
  0
LINE
  5
241
  8
DATA
  6
CONTINUOUS
 62
     7
 10
-18.430397516409968
 20
-197.64859077446931
 30
0.0
 11
-17.778204972328979
 21
-196.97849770664359
 31
0.0
  0
LINE
  5
242
  8
DATA
  6
CONTINUOUS
 62
     7
 10
-17.276499974003912
 20
-199.20414938174409
 30
0.0
 11
-16.432342573420499
 21
-198.72422817625301
 31
0.0
  0
LINE
  5
243
  8
DATA
  6
CONTINUOUS
 62
     7
 10
-16.681235861394331
 20
-200.7032500913102
 30
0.0
 11
-15.69870143208942
 21
-200.53396257826651
 31
0.0
  0
LINE
  5
244
  8
DATA
  6
CONTINUOUS
 62
     7
 10
-15.773038042162341
 20
-204.57635288346171
 30
0.0
 11
-16.709309191500271
 21
-204.31995045875141
 31
0.0
  0
LINE
  5
245
  8
DATA
  6
CONTINUOUS
 62
     7
 10
-17.39415886332068
 20
-205.92519113153571
 30
0.0
 11
-16.497819823289031
 21
-206.45178983279999
 31
0.0
  0
LINE
  5
246
  8
DATA
  6
CONTINUOUS
 62
     7
 10
-17.64284901367256
 20
-207.95892777662391
 30
0.0
 11
-18.38050516669324
 21
-207.22127162360329
 31
0.0
  0
LINE
  5
247
  8
DATA
  6
CONTINUOUS
 62
     7
 10
-19.276289627345761
 20
-209.2410060348704
 30
0.0
 11
-19.803751366762931
 21
-208.3442676944978
 31
0.0
  0
LINE
  5
248
  8
DATA
  6
CONTINUOUS
 62
     7
 10
-23.094021808889408
 20
-195.37856905849111
 30
0.0
 11
-23.094021808889408
 21
-194.60625464005821
 31
0.0
  0
LINE
  5
249
  8
DATA
  6
CONTINUOUS
 62
     7
 10
-27.005745904186998
 20
-205.45747235002401
 30
0.0
 11
-28.04331295279367
 21
-206.5633881527701
 31
0.0
  0
LINE
  5
24A
  8
DATA
  6
CONTINUOUS
 62
     7
 10
-26.87645939385078
 20
-207.65812683025561
 30
0.0
 11
-25.838892345248318
 21
-206.55221102751381
 31
0.0
  0
LINE
  5
24B
  8
DATA
  6
CONTINUOUS
 62
     7
 10
-23.909197092599179
 20
-207.29511587885381
 30
0.0
 11
-23.909197092599179
 21
-208.80714910007541
 31
0.0
  0
LINE
  5
24C
  8
DATA
  6
CONTINUOUS
 62
     7
 10
-22.309197092599291
 20
-207.2561236802203
 30
0.0
 11
-22.309197092599291
 21
-208.7776999992744
 31
0.0
  0
TEXT
  5
24D
  8
DATA
 62
     7
 10
-103.9940372915178
 20
-200.876728907721
 30
0.0
 40
1.5390625
  1
+6
 41
0.7
 11
-103.9940372915178
 21
-199.33766640772089
 31
0.0
 73
     3
  0
TEXT
  5
24E
  8
DATA
 62
     7
 10
-122.5567289129186
 20
-201.1542433881265
 30
0.0
 40
1.5390625
  1
-6
 41
0.7
 11
-122.5567289129186
 21
-199.6151808881265
 31
0.0
 73
     3
  0
TEXT
  5
24F
  8
DATA
 62
     7
 10
-112.4015325210088
 20
-193.77519638686181
 30
0.0
 40
1.5390625
  1
0
 41
0.7
 11
-112.4015325210088
 21
-192.23613388686181
 31
0.0
 73
     3
  0
TEXT
  5
250
  8
DATA
 62
     7
 10
-113.1984674792912
 20
-212.97952294592849
 30
0.0
 40
1.764577907986109
  1
dB
 41
0.7
 11
-113.1984674792912
 21
-211.21494503794241
 31
0.0
 73
     3
  0
TEXT
  5
251
  8
DATA
 62
     7
 10
-114.35742819172459
 20
-215.79654502554089
 30
0.0
 40
1.764577907986109
  1
GAIN
 41
0.7
 11
-114.35742819172459
 21
-214.03196711755481
 31
0.0
 73
     3
  0
TEXT
  5
252
  8
DATA
 62
     7
 10
-114.7925048269522
 20
-220.4212615123005
 30
0.0
 40
1.764577907986109
  1
INPUT
 41
0.7
 11
-114.7925048269522
 21
-218.6566836043144
 31
0.0
 73
     3
  0
TEXT
  5
253
  8
DATA
 62
     7
 10
-115.9669794015266
 20
-224.0634674740931
 30
0.0
 40
2.1162109375
  1
INPUT
 41
0.7
 11
-115.9669794015266
 21
-221.9472565365931
 31
0.0
 73
     3
  0
TEXT
  5
254
  8
DATA
 62
     7
 10
-90.494037291517856
 20
-203.34828073578771
 30
0.0
 40
1.5390625
  1
70
 41
0.7
 11
-90.494037291517856
 21
-201.80921823578771
 31
0.0
 73
     3
  0
TEXT
  5
255
  8
DATA
 62
     7
 10
-72.029813261844851
 20
-203.2557759089859
 30
0.0
 40
1.5390625
  1
680
 41
0.7
 11
-72.029813261844851
 21
-201.7167134089859
 31
0.0
 73
     3
  0
TEXT
  5
256
  8
DATA
 62
     7
 10
-81.443271087381703
 20
-194.19904699621739
 30
0.0
 40
1.5390625
  1
240
 41
0.7
 11
-81.443271087381703
 21
-192.65998449621739
 31
0.0
 73
     3
  0
TEXT
  5
257
  8
DATA
 62
     7
 10
-89.237308435042635
 20
-197.3617385613247
 30
0.0
 40
1.5390625
  1
140
 41
0.7
 11
-89.237308435042635
 21
-195.8226760613247
 31
0.0
 73
     3
  0
TEXT
  5
258
  8
DATA
 62
     7
 10
-74.574616869935383
 20
-197.20057951707651
 30
0.0
 40
1.5390625
  1
350
 41
0.7
 11
-74.574616869935383
 21
-195.66151701707651
 31
0.0
 73
     3
  0
TEXT
  5
259
  8
DATA
 62
     7
 10
-85.718754667069504
 20
-215.79654502554089
 30
0.0
 40
1.764577907986109
  1
XOVER FREQ
 41
0.7
 11
-85.718754667069504
 21
-214.03196711755481
 31
0.0
 73
     3
  0
TEXT
  5
25A
  8
DATA
 62
     7
 10
-84.300167431246408
 20
-220.4212615123005
 30
0.0
 40
1.764577907986109
  1
LOW/MID
 41
0.7
 11
-84.300167431246408
 21
-218.6566836043144
 31
0.0
 73
     3
  0
TEXT
  5
25B
  8
DATA
 62
     7
 10
-85.959793954636112
 20
-224.0634674740931
 30
0.0
 40
2.1162109375
  1
LOW/HIGH
 41
0.7
 11
-85.959793954636112
 21
-221.9472565365931
 31
0.0
 73
     3
  0
TEXT
  5
25C
  8
DATA
 62
     7
 10
-81.333045734658938
 20
-212.97952294592849
 30
0.0
 40
1.764577907986109
  1
Hz
 41
0.7
 11
-81.333045734658938
 21
-211.21494503794241
 31
0.0
 73
     3
  0
TEXT
  5
25D
  8
DATA
 62
     7
 10
-100.69676752733599
 20
-220.4212615123005
 30
0.0
 40
1.764577907986109
  1
LOE CUT
 41
0.7
 11
-100.69676752733599
 21
-218.6566836043144
 31
0.0
 73
     3
  0
TEXT
  5
25E
  8
DATA
 62
     7
 10
-101.5325434413698
 20
-224.0634674740931
 30
0.0
 40
2.1162109375
  1
LOW CUT
 41
0.7
 11
-101.5325434413698
 21
-221.9472565365931
 31
0.0
 73
     3
  0
TEXT
  5
25F
  8
DATA
 62
     7
 10
-58.304099182866651
 20
-215.79654502554089
 30
0.0
 40
1.764577907986109
  1
GAIN
 41
0.7
 11
-58.304099182866651
 21
-214.03196711755481
 31
0.0
 73
     3
  0
TEXT
  5
260
  8
DATA
 62
     7
 10
-61.965924038071492
 20
-220.4212615123005
 30
0.0
 40
1.764577907986109
  1
LOW OUTPUT
 41
0.7
 11
-61.965924038071492
 21
-218.6566836043144
 31
0.0
 73
     3
  0
TEXT
  5
261
  8
DATA
 62
     7
 10
-62.801699952105281
 20
-224.0634674740931
 30
0.0
 40
2.1162109375
  1
LOW OUTPUT
 41
0.7
 11
-62.801699952105281
 21
-221.9472565365931
 31
0.0
 73
     3
  0
TEXT
  5
262
  8
DATA
 62
     7
 10
-57.100000000150047
 20
-212.97952294592849
 30
0.0
 40
1.764577907986109
  1
dB
 41
0.7
 11
-57.100000000150047
 21
-211.21494503794241
 31
0.0
 73
     3
  0
TEXT
  5
263
  8
DATA
 62
     7
 10
-57.437308435042659
 20
-194.2184674740933
 30
0.0
 40
1.5390625
  1
-10
 41
0.7
 11
-57.437308435042659
 21
-192.6794049740933
 31
0.0
 73
     3
  0
TEXT
  5
264
  8
DATA
 62
     7
 10
-67.080579522274249
 20
-202.7811590392007
 30
0.0
 40
1.5390625
  1
-30
 41
0.7
 11
-67.080579522274249
 21
-201.2420965392007
 31
0.0
 73
     3
  0
TEXT
  5
265
  8
DATA
 62
     7
 10
-47.325383130364763
 20
-203.14981325664701
 30
0.0
 40
1.5390625
  1
0
 41
0.7
 11
-47.325383130364763
 21
-201.61075075664701
 31
0.0
 73
     3
  0
TEXT
  5
266
  8
DATA
 62
     7
 10
-19.217787070848541
 20
-211.56840969841679
 30
0.0
 40
1.5390625
  1
+6
 41
0.7
 11
-19.217787070848541
 21
-210.02934719841679
 31
0.0
 73
     3
  0
TEXT
  5
267
  8
DATA
 62
     7
 10
-25.763893137352682
 20
-215.79654502554089
 30
0.0
 40
1.764577907986109
  1
GAIN
 41
0.7
 11
-25.763893137352682
 21
-214.03196711755481
 31
0.0
 73
     3
  0
TEXT
  5
268
  8
DATA
 62
     7
 10
-30.261493906591301
 20
-224.0634674740931
 30
0.0
 40
2.1162109375
  1
HIGH OUTPUT
 41
0.7
 11
-30.261493906591301
 21
-221.9472565365931
 31
0.0
 73
     3
  0
TEXT
  5
269
  8
DATA
 62
     7
 10
-24.55979395463612
 20
-212.97952294592849
 30
0.0
 40
1.764577907986109
  1
dB
 41
0.7
 11
-24.55979395463612
 21
-211.21494503794241
 31
0.0
 73
     3
  0
TEXT
  5
26A
  8
DATA
 62
     7
 10
-24.897102389528701
 20
-194.2184674740933
 30
0.0
 40
1.5390625
  1
-10
 41
0.7
 11
-24.897102389528701
 21
-192.6794049740933
 31
0.0
 73
     3
  0
TEXT
  5
26B
  8
DATA
 62
     7
 10
-34.540373476760308
 20
-202.7811590392007
 30
0.0
 40
1.5390625
  1
-30
 41
0.7
 11
-34.540373476760308
 21
-201.2420965392007
 31
0.0
 73
     3
  0
TEXT
  5
26C
  8
DATA
 62
     7
 10
-14.785177084850771
 20
-203.14981325664701
 30
0.0
 40
1.5390625
  1
0
 41
0.7
 11
-14.785177084850771
 21
-201.61075075664701
 31
0.0
 73
     3
  0
CIRCLE
  5
26D
  8
DATA
  6
CONTINUOUS
 62
     7
 10
-100.6053734767619
 20
-211.000756601777
 30
0.0
 40
2.6349999999984561
  0
CIRCLE
  5
26E
  8
DATA
  6
CONTINUOUS
 62
     7
 10
-100.6053734767619
 20
-211.000756601777
 30
0.0
 40
1.6999999999982831
  0
CIRCLE
  5
26F
  8
DATA
  6
CONTINUOUS
 62
     7
 10
-93.59556986866987
 20
-211.000756601777
 30
0.0
 40
1.5
  0
TEXT
  5
270
  8
DATA
 62
     7
 10
-98.762691452670836
 20
-206.99614938559711
 30
0.0
 40
1.5390625
  1
40Hz
 41
0.7
 11
-98.762691452670836
 21
-205.45708688559711
 31
0.0
 73
     3
  0
CIRCLE
  5
271
  8
DATA
  6
CONTINUOUS
 62
     7
 10
-68.04168449911306
 20
-211.000756601777
 30
0.0
 40
1.5
  0
TEXT
  5
272
  8
DATA
 62
     7
 10
-69.311925192241418
 20
-208.2319252996304
 30
0.0
 40
1.5390625
  1
X10
 41
0.7
 11
-69.311925192241418
 21
-206.6928627996304
 31
0.0
 73
     3
  0
CIRCLE
  5
273
  8
DATA
  6
CONTINUOUS
 62
     7
 10
-43.396680644898041
 20
-211.000756601777
 30
0.0
 40
2.6349999999985121
  0
CIRCLE
  5
274
  8
DATA
  6
CONTINUOUS
 62
     7
 10
-43.396680644898041
 20
-211.000756601777
 30
0.0
 40
1.6999999999983391
  0
CIRCLE
  5
275
  8
DATA
  6
CONTINUOUS
 62
     7
 10
-36.386877036806041
 20
-211.000756601777
 30
0.0
 40
1.5
  0
TEXT
  5
276
  8
DATA
 62
     7
 10
-42.309195012716557
 20
-206.99614938559711
 30
0.0
 40
1.5390625
  1
\U+03A6INV
 41
0.7
 11
-42.309195012716557
 21
-205.45708688559711
 31
0.0
 73
     3
  0
CIRCLE
  5
277
  8
DATA
  6
CONTINUOUS
 62
     7
 10
-11.17622993945252
 20
-211.000756601777
 30
0.0
 40
2.6349999999984561
  0
CIRCLE
  5
278
  8
DATA
  6
CONTINUOUS
 62
     7
 10
-11.17622993945252
 20
-211.000756601777
 30
0.0
 40
1.6999999999982249
  0
CIRCLE
  5
279
  8
DATA
  6
CONTINUOUS
 62
     7
 10
-4.166426331360582
 20
-211.000756601777
 30
0.0
 40
1.5
  0
TEXT
  5
27A
  8
DATA
 62
     7
 10
-10.088744307271041
 20
-206.99614938559711
 30
0.0
 40
1.5390625
  1
\U+03A6INV
 41
0.7
 11
-10.088744307271041
 21
-205.45708688559711
 31
0.0
 73
     3
  0
CIRCLE
  5
27B
  8
DATA
  6
CONTINUOUS
 62
     7
 10
13.20870242632213
 20
-211.000756601777
 30
0.0
 40
1.5
  0
CIRCLE
  5
27C
  8
DATA
  6
CONTINUOUS
 62
     7
 10
20.708702426322141
 20
-211.000756601777
 30
0.0
 40
1.5
  0
TEXT
  5
27D
  8
DATA
 62
     7
 10
11.01328221897263
 20
-215.6965450255409
 30
0.0
 40
1.764577907986109
  1
MONO
 41
0.7
 11
11.01328221897263
 21
-213.93196711755479
 31
0.0
 73
     3
  0
TEXT
  5
27E
  8
DATA
 62
     7
 10
17.26183207007594
 20
-215.68240045419449
 30
0.0
 40
1.7699218750000001
  1
STEREO
 41
0.7
 11
17.26183207007594
 21
-213.9124785791945
 31
0.0
 73
     3
  0
ARC
  5
27F
  8
DATA
  6
CONTINUOUS
 62
     7
 10
68.736733262431343
 20
-202.59490316578959
 30
0.0
 40
4.7499999999998952
 50
98.302906098070224
 51
78.905036031998733
  0
ARC
  5
280
  8
DATA
  6
CONTINUOUS
 62
     7
 10
68.736733262431102
 20
-202.5949031657897
 30
0.0
 40
6.2500000000001501
 50
96.300838472254796
 51
81.590263166658403
  0
LINE
  5
281
  8
DATA
  6
CONTINUOUS
 62
     7
 10
68.750802907400981
 20
-195.37856905849111
 30
0.0
 11
68.950802907400799
 21
-195.378569058491
 31
0.0
  0
ARC
  5
282
  8
DATA
  6
CONTINUOUS
 62
     7
 10
68.750802907400981
 20
-196.07856905849121
 30
0.0
 40
0.7000000000000455
 50
90.0
 51
179.99999999999071
  0
LINE
  5
283
  8
DATA
  6
CONTINUOUS
 62
     7
 10
68.050802907400822
 20
-201.838569058491
 30
0.0
 11
68.050802907400936
 21
-196.0785690584911
 31
0.0
  0
ARC
  5
284
  8
DATA
  6
CONTINUOUS
 62
     7
 10
68.750802907400811
 20
-201.8385690584912
 30
0.0
 40
0.6999999999999889
 50
180.0
 51
270.0
  0
LINE
  5
285
  8
DATA
  6
CONTINUOUS
 62
     7
 10
68.950802907400799
 20
-202.53856905849111
 30
0.0
 11
68.750802907400853
 21
-202.53856905849111
 31
0.0
  0
ARC
  5
286
  8
DATA
  6
CONTINUOUS
 62
     7
 10
68.950802907400799
 20
-201.8385690584912
 30
0.0
 40
0.6999999999999318
 50
270.0
 51
0.0000000000046612
  0
LINE
  5
287
  8
DATA
  6
CONTINUOUS
 62
     7
 10
69.650802907400717
 20
-196.0785690584911
 30
0.0
 11
69.650802907400717
 21
-201.8385690584912
 31
0.0
  0
ARC
  5
288
  8
DATA
  6
CONTINUOUS
 62
     7
 10
68.950802907400686
 20
-196.0785690584911
 30
0.0
 40
0.7000000000000455
 50
0.0
 51
89.999999999990649
  0
LINE
  5
289
  8
DATA
  6
CONTINUOUS
 62
     7
 10
64.054586318984789
 20
-201.79490316578969
 30
0.0
 11
62.538144713414603
 21
-201.79490316578969
 31
0.0
  0
LINE
  5
28A
  8
DATA
  6
CONTINUOUS
 62
     7
 10
64.054586318984789
 20
-203.39490316578971
 30
0.0
 11
62.538144713414603
 21
-203.39490316578971
 31
0.0
  0
LINE
  5
28B
  8
DATA
  6
CONTINUOUS
 62
     7
 10
73.418880205877727
 20
-201.79490316578969
 30
0.0
 11
74.935321811447807
 21
-201.79490316578969
 31
0.0
  0
LINE
  5
28C
  8
DATA
  6
CONTINUOUS
 62
     7
 10
73.418880205877727
 20
-203.39490316578971
 30
0.0
 11
74.935321811447807
 21
-203.39490316578971
 31
0.0
  0
LINE
  5
28D
  8
DATA
  6
CONTINUOUS
 62
     7
 10
64.860269983262469
 20
-199.84981073651929
 30
0.0
 11
63.787983840687083
 21
-198.77752459394401
 31
0.0
  0
LINE
  5
28E
  8
DATA
  6
CONTINUOUS
 62
     7
 10
65.991640833156481
 20
-198.71843988661641
 30
0.0
 11
64.919354690585607
 21
-197.64615374404551
 31
0.0
  0
LINE
  5
28F
  8
DATA
  6
CONTINUOUS
 62
     7
 10
71.481825691701616
 20
-198.7184398866209
 30
0.0
 11
72.554111834276924
 21
-197.64615374404551
 31
0.0
  0
LINE
  5
290
  8
DATA
  6
CONTINUOUS
 62
     7
 10
73.685482684175469
 20
-198.77752459394409
 30
0.0
 11
72.613196541604481
 21
-199.849810736515
 31
0.0
  0
LINE
  5
291
  8
DATA
  6
CONTINUOUS
 62
     7
 10
73.685482684175469
 20
-206.4122817376354
 30
0.0
 11
72.613196541604481
 21
-205.33999559506441
 31
0.0
  0
LINE
  5
292
  8
DATA
  6
CONTINUOUS
 62
     7
 10
72.554111834276924
 20
-207.54365258753381
 30
0.0
 11
71.481825691701616
 21
-206.47136644495839
 31
0.0
  0
ARC
  5
293
  8
DATA
  6
CONTINUOUS
 62
     7
 10
68.668315500886962
 20
-202.4603980099825
 30
0.0
 40
6.8400000000000372
 50
93.853979695462726
 51
240.88271410567279
  0
ARC
  5
294
  8
DATA
  6
CONTINUOUS
 62
     7
 10
68.668315500886962
 20
-202.4603980099825
 30
0.0
 40
6.8400000000000372
 50
300.65928338484559
 51
82.830667981082485
  0
LINE
  5
295
  8
DATA
  6
CONTINUOUS
 62
     7
 10
76.52173326243134
 20
-202.53074548171281
 30
0.0
 11
75.507953739363103
 21
-202.53074548171281
 31
0.0
  0
LINE
  5
296
  8
DATA
  6
CONTINUOUS
 62
     7
 10
65.33997853466478
 20
-208.4359961423246
 30
0.0
 11
64.86671345640903
 21
-209.2856823208661
 31
0.0
  0
LINE
  5
297
  8
DATA
  6
CONTINUOUS
 62
     7
 10
63.923066209085761
 20
-207.38667542387799
 30
0.0
 11
63.265680801206067
 21
-208.06913965029011
 31
0.0
  0
LINE
  5
298
  8
DATA
  6
CONTINUOUS
 62
     7
 10
62.795259776898099
 20
-205.96650931211749
 30
0.0
 11
61.99708774206956
 21
-206.42733415128541
 31
0.0
  0
LINE
  5
299
  8
DATA
  6
CONTINUOUS
 62
     7
 10
62.121624040799382
 20
-204.4419203859369
 30
0.0
 11
61.260784218595632
 21
-204.7024754128858
 31
0.0
  0
LINE
  5
29A
  8
DATA
  6
CONTINUOUS
 62
     7
 10
61.82867726241092
 20
-202.53074548171281
 30
0.0
 11
60.951733262433002
 21
-202.53074548171281
 31
0.0
  0
LINE
  5
29B
  8
DATA
  6
CONTINUOUS
 62
     7
 10
62.060900341600259
 20
-200.69187746646611
 30
0.0
 11
61.204279347019131
 21
-200.56393003226279
 31
0.0
  0
LINE
  5
29C
  8
DATA
  6
CONTINUOUS
 62
     7
 10
62.724910410691372
 20
-199.07490898565499
 30
0.0
 11
61.989635664382398
 21
-198.6470746663129
 31
0.0
  0
LINE
  5
29D
  8
DATA
  6
CONTINUOUS
 62
     7
 10
63.755236831485291
 20
-197.7014844797516
 30
0.0
 11
63.156315538535431
 21
-197.1025631868016
 31
0.0
  0
LINE
  5
29E
  8
DATA
  6
CONTINUOUS
 62
     7
 10
65.214618212655893
 20
-196.5563676034586
 30
0.0
 11
64.789756152205456
 21
-195.82048492855009
 31
0.0
  0
LINE
  5
29F
  8
DATA
  6
CONTINUOUS
 62
     7
 10
67.052501474645439
 20
-195.8139895788741
 30
0.0
 11
66.849267613858174
 21
-194.97801760197231
 31
0.0
  0
LINE
  5
2A0
  8
DATA
  6
CONTINUOUS
 62
     7
 10
70.660572104317936
 20
-195.91696514747639
 30
0.0
 11
70.92188277081928
 21
-195.05870783284971
 31
0.0
  0
LINE
  5
2A1
  8
DATA
  6
CONTINUOUS
 62
     7
 10
72.199312916209493
 20
-196.6022705572081
 30
0.0
 11
72.673979823071733
 21
-195.81477090457551
 31
0.0
  0
LINE
  5
2A2
  8
DATA
  6
CONTINUOUS
 62
     7
 10
73.529602483590011
 20
-197.64859077446931
 30
0.0
 11
74.181795027671058
 21
-196.97849770664359
 31
0.0
  0
LINE
  5
2A3
  8
DATA
  6
CONTINUOUS
 62
     7
 10
74.683500025996096
 20
-199.20414938174409
 30
0.0
 11
75.527657426579509
 21
-198.72422817625301
 31
0.0
  0
LINE
  5
2A4
  8
DATA
  6
CONTINUOUS
 62
     7
 10
75.278764138605695
 20
-200.7032500913102
 30
0.0
 11
76.261298567910572
 21
-200.53396257826651
 31
0.0
  0
LINE
  5
2A5
  8
DATA
  6
CONTINUOUS
 62
     7
 10
76.186961957837653
 20
-204.57635288346171
 30
0.0
 11
75.250690808499741
 21
-204.31995045875141
 31
0.0
  0
LINE
  5
2A6
  8
DATA
  6
CONTINUOUS
 62
     7
 10
74.565841136679325
 20
-205.92519113153571
 30
0.0
 11
75.462180176710973
 21
-206.45178983279999
 31
0.0
  0
LINE
  5
2A7
  8
DATA
  6
CONTINUOUS
 62
     7
 10
74.317150986327462
 20
-207.95892777662391
 30
0.0
 11
73.579494833306754
 21
-207.22127162360329
 31
0.0
  0
LINE
  5
2A8
  8
DATA
  6
CONTINUOUS
 62
     7
 10
72.683710372654204
 20
-209.2410060348704
 30
0.0
 11
72.156248633237098
 21
-208.3442676944978
 31
0.0
  0
LINE
  5
2A9
  8
DATA
  6
CONTINUOUS
 62
     7
 10
68.865978191110585
 20
-195.37856905849111
 30
0.0
 11
68.865978191110585
 21
-194.60625464005821
 31
0.0
  0
TEXT
  5
2AA
  8
DATA
 62
     7
 10
62.913799915446731
 20
-211.61729378500939
 30
0.0
 40
1.5390625
  1
45
 41
0.7
 11
62.913799915446731
 21
-210.07823128500939
 31
0.0
 73
     3
  0
TEXT
  5
2AB
  8
DATA
 62
     7
 10
72.427390013852261
 20
-211.56840969841679
 30
0.0
 40
1.5390625
  1
960
 41
0.7
 11
72.427390013852261
 21
-210.02934719841679
 31
0.0
 73
     3
  0
LINE
  5
2AC
  8
DATA
  6
CONTINUOUS
 62
     7
 10
64.954254095813013
 20
-205.45747235002401
 30
0.0
 11
63.916687047206352
 21
-206.5633881527701
 31
0.0
  0
LINE
  5
2AD
  8
DATA
  6
CONTINUOUS
 62
     7
 10
65.083540606149214
 20
-207.65812683025561
 30
0.0
 11
66.121107654751683
 21
-206.55221102751381
 31
0.0
  0
LINE
  5
2AE
  8
DATA
  6
CONTINUOUS
 62
     7
 10
68.050802907400822
 20
-207.29511587885381
 30
0.0
 11
68.050802907400822
 21
-208.80714910007541
 31
0.0
  0
LINE
  5
2AF
  8
DATA
  6
CONTINUOUS
 62
     7
 10
69.650802907400717
 20
-207.2561236802203
 30
0.0
 11
69.650802907400717
 21
-208.7776999992744
 31
0.0
  0
ARC
  5
2B0
  8
DATA
  6
CONTINUOUS
 62
     7
 10
93.236733262431358
 20
-202.59490316578959
 30
0.0
 40
4.7499999999998979
 50
98.30290609807065
 51
78.905036031999146
  0
ARC
  5
2B1
  8
DATA
  6
CONTINUOUS
 62
     7
 10
93.236733262431045
 20
-202.5949031657899
 30
0.0
 40
6.2500000000001998
 50
96.300838472254284
 51
81.590263166658005
  0
LINE
  5
2B2
  8
DATA
  6
CONTINUOUS
 62
     7
 10
93.250802907400939
 20
-195.37856905849111
 30
0.0
 11
93.450802907400785
 21
-195.378569058491
 31
0.0
  0
ARC
  5
2B3
  8
DATA
  6
CONTINUOUS
 62
     7
 10
93.250802907400939
 20
-196.07856905849121
 30
0.0
 40
0.7000000000000455
 50
90.0
 51
179.99999999999071
  0
LINE
  5
2B4
  8
DATA
  6
CONTINUOUS
 62
     7
 10
92.550802907400794
 20
-201.838569058491
 30
0.0
 11
92.550802907400907
 21
-196.0785690584911
 31
0.0
  0
ARC
  5
2B5
  8
DATA
  6
CONTINUOUS
 62
     7
 10
93.250802907400796
 20
-201.8385690584912
 30
0.0
 40
0.6999999999999889
 50
180.0
 51
270.0
  0
LINE
  5
2B6
  8
DATA
  6
CONTINUOUS
 62
     7
 10
93.450802907400785
 20
-202.53856905849111
 30
0.0
 11
93.250802907400839
 21
-202.53856905849111
 31
0.0
  0
ARC
  5
2B7
  8
DATA
  6
CONTINUOUS
 62
     7
 10
93.450802907400785
 20
-201.8385690584912
 30
0.0
 40
0.6999999999999318
 50
270.0
 51
0.0000000000046612
  0
LINE
  5
2B8
  8
DATA
  6
CONTINUOUS
 62
     7
 10
94.150802907400717
 20
-196.0785690584911
 30
0.0
 11
94.150802907400717
 21
-201.8385690584912
 31
0.0
  0
ARC
  5
2B9
  8
DATA
  6
CONTINUOUS
 62
     7
 10
93.450802907400686
 20
-196.0785690584911
 30
0.0
 40
0.7000000000000455
 50
0.0
 51
89.999999999990649
  0
LINE
  5
2BA
  8
DATA
  6
CONTINUOUS
 62
     7
 10
88.554586318984775
 20
-201.79490316578969
 30
0.0
 11
87.038144713414553
 21
-201.79490316578969
 31
0.0
  0
LINE
  5
2BB
  8
DATA
  6
CONTINUOUS
 62
     7
 10
88.554586318984775
 20
-203.39490316578971
 30
0.0
 11
87.038144713414553
 21
-203.39490316578971
 31
0.0
  0
LINE
  5
2BC
  8
DATA
  6
CONTINUOUS
 62
     7
 10
97.918880205877727
 20
-201.79490316578969
 30
0.0
 11
99.435321811447821
 21
-201.79490316578969
 31
0.0
  0
LINE
  5
2BD
  8
DATA
  6
CONTINUOUS
 62
     7
 10
97.918880205877727
 20
-203.39490316578971
 30
0.0
 11
99.435321811447821
 21
-203.39490316578971
 31
0.0
  0
LINE
  5
2BE
  8
DATA
  6
CONTINUOUS
 62
     7
 10
89.360269983262484
 20
-199.84981073651929
 30
0.0
 11
88.287983840687062
 21
-198.77752459394401
 31
0.0
  0
LINE
  5
2BF
  8
DATA
  6
CONTINUOUS
 62
     7
 10
90.491640833156424
 20
-198.71843988661641
 30
0.0
 11
89.419354690585536
 21
-197.64615374404551
 31
0.0
  0
LINE
  5
2C0
  8
DATA
  6
CONTINUOUS
 62
     7
 10
95.981825691701616
 20
-198.7184398866209
 30
0.0
 11
97.054111834276924
 21
-197.64615374404551
 31
0.0
  0
LINE
  5
2C1
  8
DATA
  6
CONTINUOUS
 62
     7
 10
98.18548268417544
 20
-198.77752459394409
 30
0.0
 11
97.113196541604481
 21
-199.849810736515
 31
0.0
  0
LINE
  5
2C2
  8
DATA
  6
CONTINUOUS
 62
     7
 10
98.18548268417544
 20
-206.4122817376354
 30
0.0
 11
97.113196541604481
 21
-205.33999559506441
 31
0.0
  0
LINE
  5
2C3
  8
DATA
  6
CONTINUOUS
 62
     7
 10
97.054111834276924
 20
-207.54365258753381
 30
0.0
 11
95.981825691701616
 21
-206.47136644495839
 31
0.0
  0
ARC
  5
2C4
  8
DATA
  6
CONTINUOUS
 62
     7
 10
93.168315500886905
 20
-202.4603980099825
 30
0.0
 40
6.8400000000000372
 50
93.853979695462726
 51
240.88271410567279
  0
ARC
  5
2C5
  8
DATA
  6
CONTINUOUS
 62
     7
 10
93.168315500886905
 20
-202.4603980099825
 30
0.0
 40
6.8400000000000372
 50
300.65928338484559
 51
82.830667981082485
  0
LINE
  5
2C6
  8
DATA
  6
CONTINUOUS
 62
     7
 10
101.0217332624313
 20
-202.53074548171281
 30
0.0
 11
100.0079537393631
 21
-202.53074548171281
 31
0.0
  0
LINE
  5
2C7
  8
DATA
  6
CONTINUOUS
 62
     7
 10
89.839978534664723
 20
-208.4359961423246
 30
0.0
 11
89.366713456409016
 21
-209.2856823208661
 31
0.0
  0
LINE
  5
2C8
  8
DATA
  6
CONTINUOUS
 62
     7
 10
88.423066209085732
 20
-207.38667542387799
 30
0.0
 11
87.765680801206059
 21
-208.06913965029011
 31
0.0
  0
LINE
  5
2C9
  8
DATA
  6
CONTINUOUS
 62
     7
 10
87.295259776898078
 20
-205.96650931211749
 30
0.0
 11
86.497087742069539
 21
-206.42733415128541
 31
0.0
  0
LINE
  5
2CA
  8
DATA
  6
CONTINUOUS
 62
     7
 10
86.621624040799375
 20
-204.4419203859369
 30
0.0
 11
85.76078421859566
 21
-204.7024754128858
 31
0.0
  0
LINE
  5
2CB
  8
DATA
  6
CONTINUOUS
 62
     7
 10
86.328677262410935
 20
-202.53074548171281
 30
0.0
 11
85.451733262432995
 21
-202.53074548171281
 31
0.0
  0
LINE
  5
2CC
  8
DATA
  6
CONTINUOUS
 62
     7
 10
86.560900341600259
 20
-200.69187746646611
 30
0.0
 11
85.704279347019124
 21
-200.56393003226279
 31
0.0
  0
LINE
  5
2CD
  8
DATA
  6
CONTINUOUS
 62
     7
 10
87.224910410691336
 20
-199.07490898565499
 30
0.0
 11
86.489635664382376
 21
-198.6470746663129
 31
0.0
  0
LINE
  5
2CE
  8
DATA
  6
CONTINUOUS
 62
     7
 10
88.255236831485277
 20
-197.7014844797516
 30
0.0
 11
87.656315538535424
 21
-197.1025631868016
 31
0.0
  0
LINE
  5
2CF
  8
DATA
  6
CONTINUOUS
 62
     7
 10
89.714618212655864
 20
-196.5563676034586
 30
0.0
 11
89.289756152205413
 21
-195.82048492855009
 31
0.0
  0
LINE
  5
2D0
  8
DATA
  6
CONTINUOUS
 62
     7
 10
91.552501474645396
 20
-195.8139895788741
 30
0.0
 11
91.34926761385816
 21
-194.97801760197231
 31
0.0
  0
LINE
  5
2D1
  8
DATA
  6
CONTINUOUS
 62
     7
 10
95.160572104317907
 20
-195.91696514747639
 30
0.0
 11
95.421882770819266
 21
-195.05870783284971
 31
0.0
  0
LINE
  5
2D2
  8
DATA
  6
CONTINUOUS
 62
     7
 10
96.699312916209493
 20
-196.6022705572081
 30
0.0
 11
97.173979823071747
 21
-195.81477090457551
 31
0.0
  0
LINE
  5
2D3
  8
DATA
  6
CONTINUOUS
 62
     7
 10
98.029602483589997
 20
-197.64859077446931
 30
0.0
 11
98.681795027671001
 21
-196.97849770664359
 31
0.0
  0
LINE
  5
2D4
  8
DATA
  6
CONTINUOUS
 62
     7
 10
99.183500025996054
 20
-199.20414938174409
 30
0.0
 11
100.02765742657949
 21
-198.72422817625301
 31
0.0
  0
LINE
  5
2D5
  8
DATA
  6
CONTINUOUS
 62
     7
 10
99.778764138605624
 20
-200.7032500913102
 30
0.0
 11
100.7612985679105
 21
-200.53396257826651
 31
0.0
  0
LINE
  5
2D6
  8
DATA
  6
CONTINUOUS
 62
     7
 10
100.6869619578376
 20
-204.57635288346171
 30
0.0
 11
99.750690808499712
 21
-204.31995045875141
 31
0.0
  0
LINE
  5
2D7
  8
DATA
  6
CONTINUOUS
 62
     7
 10
99.065841136679325
 20
-205.92519113153571
 30
0.0
 11
99.962180176710987
 21
-206.45178983279999
 31
0.0
  0
LINE
  5
2D8
  8
DATA
  6
CONTINUOUS
 62
     7
 10
98.817150986327434
 20
-207.95892777662391
 30
0.0
 11
98.079494833306768
 21
-207.22127162360329
 31
0.0
  0
LINE
  5
2D9
  8
DATA
  6
CONTINUOUS
 62
     7
 10
97.183710372654232
 20
-209.2410060348704
 30
0.0
 11
96.656248633237055
 21
-208.3442676944978
 31
0.0
  0
LINE
  5
2DA
  8
DATA
  6
CONTINUOUS
 62
     7
 10
93.365978191110557
 20
-195.37856905849111
 30
0.0
 11
93.365978191110557
 21
-194.60625464005821
 31
0.0
  0
TEXT
  5
2DB
  8
DATA
 62
     7
 10
97.202006883637523
 20
-211.56840969841679
 30
0.0
 40
1.5390625
  1
+6
 41
0.7
 11
97.202006883637523
 21
-210.02934719841679
 31
0.0
 73
     3
  0
LINE
  5
2DC
  8
DATA
  6
CONTINUOUS
 62
     7
 10
89.454254095813013
 20
-205.45747235002401
 30
0.0
 11
88.416687047206338
 21
-206.5633881527701
 31
0.0
  0
LINE
  5
2DD
  8
DATA
  6
CONTINUOUS
 62
     7
 10
89.583540606149214
 20
-207.65812683025561
 30
0.0
 11
90.621107654751683
 21
-206.55221102751381
 31
0.0
  0
LINE
  5
2DE
  8
DATA
  6
CONTINUOUS
 62
     7
 10
92.550802907400794
 20
-207.29511587885381
 30
0.0
 11
92.550802907400794
 21
-208.80714910007541
 31
0.0
  0
LINE
  5
2DF
  8
DATA
  6
CONTINUOUS
 62
     7
 10
94.150802907400717
 20
-207.2561236802203
 30
0.0
 11
94.150802907400717
 21
-208.7776999992744
 31
0.0
  0
ARC
  5
2E0
  8
DATA
  6
CONTINUOUS
 62
     7
 10
125.7367332624309
 20
-202.59490316578999
 30
0.0
 40
4.7500000000002878
 50
98.302906098064867
 51
78.905036031995223
  0
ARC
  5
2E1
  8
DATA
  6
CONTINUOUS
 62
     7
 10
125.736733262431
 20
-202.5949031657897
 30
0.0
 40
6.2500000000001474
 50
96.300838472254469
 51
81.590263166658147
  0
LINE
  5
2E2
  8
DATA
  6
CONTINUOUS
 62
     7
 10
125.7508029074009
 20
-195.37856905849111
 30
0.0
 11
125.9508029074008
 21
-195.378569058491
 31
0.0
  0
ARC
  5
2E3
  8
DATA
  6
CONTINUOUS
 62
     7
 10
125.7508029074009
 20
-196.07856905849121
 30
0.0
 40
0.7000000000000455
 50
90.0
 51
179.99999999999071
  0
LINE
  5
2E4
  8
DATA
  6
CONTINUOUS
 62
     7
 10
125.05080290740079
 20
-201.838569058491
 30
0.0
 11
125.05080290740079
 21
-196.0785690584911
 31
0.0
  0
ARC
  5
2E5
  8
DATA
  6
CONTINUOUS
 62
     7
 10
125.7508029074007
 20
-201.8385690584912
 30
0.0
 40
0.6999999999999602
 50
180.0
 51
270.00000000000239
  0
LINE
  5
2E6
  8
DATA
  6
CONTINUOUS
 62
     7
 10
125.9508029074008
 20
-202.53856905849111
 30
0.0
 11
125.7508029074008
 21
-202.53856905849111
 31
0.0
  0
ARC
  5
2E7
  8
DATA
  6
CONTINUOUS
 62
     7
 10
125.9508029074008
 20
-201.8385690584912
 30
0.0
 40
0.6999999999999889
 50
270.0
 51
0.0
  0
LINE
  5
2E8
  8
DATA
  6
CONTINUOUS
 62
     7
 10
126.6508029074007
 20
-196.0785690584911
 30
0.0
 11
126.6508029074007
 21
-201.8385690584912
 31
0.0
  0
ARC
  5
2E9
  8
DATA
  6
CONTINUOUS
 62
     7
 10
125.9508029074006
 20
-196.0785690584911
 30
0.0
 40
0.7000000000000668
 50
0.0
 51
89.999999999988404
  0
LINE
  5
2EA
  8
DATA
  6
CONTINUOUS
 62
     7
 10
121.0545863189848
 20
-201.79490316578969
 30
0.0
 11
119.5381447134146
 21
-201.79490316578969
 31
0.0
  0
LINE
  5
2EB
  8
DATA
  6
CONTINUOUS
 62
     7
 10
121.0545863189848
 20
-203.39490316578971
 30
0.0
 11
119.5381447134146
 21
-203.39490316578971
 31
0.0
  0
LINE
  5
2EC
  8
DATA
  6
CONTINUOUS
 62
     7
 10
130.41888020587771
 20
-201.79490316578969
 30
0.0
 11
131.93532181144781
 21
-201.79490316578969
 31
0.0
  0
LINE
  5
2ED
  8
DATA
  6
CONTINUOUS
 62
     7
 10
130.41888020587771
 20
-203.39490316578971
 30
0.0
 11
131.93532181144781
 21
-203.39490316578971
 31
0.0
  0
LINE
  5
2EE
  8
DATA
  6
CONTINUOUS
 62
     7
 10
121.8602699832625
 20
-199.84981073651929
 30
0.0
 11
120.7879838406871
 21
-198.77752459394401
 31
0.0
  0
LINE
  5
2EF
  8
DATA
  6
CONTINUOUS
 62
     7
 10
122.9916408331565
 20
-198.71843988661641
 30
0.0
 11
121.91935469058561
 21
-197.64615374404551
 31
0.0
  0
LINE
  5
2F0
  8
DATA
  6
CONTINUOUS
 62
     7
 10
128.4818256917016
 20
-198.7184398866209
 30
0.0
 11
129.55411183427691
 21
-197.64615374404551
 31
0.0
  0
LINE
  5
2F1
  8
DATA
  6
CONTINUOUS
 62
     7
 10
130.68548268417541
 20
-198.77752459394409
 30
0.0
 11
129.6131965416044
 21
-199.849810736515
 31
0.0
  0
LINE
  5
2F2
  8
DATA
  6
CONTINUOUS
 62
     7
 10
130.68548268417541
 20
-206.4122817376354
 30
0.0
 11
129.6131965416044
 21
-205.33999559506441
 31
0.0
  0
LINE
  5
2F3
  8
DATA
  6
CONTINUOUS
 62
     7
 10
129.55411183427691
 20
-207.54365258753381
 30
0.0
 11
128.4818256917016
 21
-206.47136644495839
 31
0.0
  0
ARC
  5
2F4
  8
DATA
  6
CONTINUOUS
 62
     7
 10
125.66831550088691
 20
-202.4603980099825
 30
0.0
 40
6.8400000000000372
 50
93.853979695462726
 51
240.88271410567279
  0
ARC
  5
2F5
  8
DATA
  6
CONTINUOUS
 62
     7
 10
125.66831550088691
 20
-202.4603980099825
 30
0.0
 40
6.8400000000000327
 50
300.65928338484559
 51
82.830667981082541
  0
LINE
  5
2F6
  8
DATA
  6
CONTINUOUS
 62
     7
 10
133.5217332624313
 20
-202.53074548171281
 30
0.0
 11
132.5079537393631
 21
-202.53074548171281
 31
0.0
  0
LINE
  5
2F7
  8
DATA
  6
CONTINUOUS
 62
     7
 10
122.3399785346647
 20
-208.4359961423246
 30
0.0
 11
121.866713456409
 21
-209.2856823208661
 31
0.0
  0
LINE
  5
2F8
  8
DATA
  6
CONTINUOUS
 62
     7
 10
120.9230662090857
 20
-207.38667542387799
 30
0.0
 11
120.265680801206
 21
-208.06913965029011
 31
0.0
  0
LINE
  5
2F9
  8
DATA
  6
CONTINUOUS
 62
     7
 10
119.79525977689811
 20
-205.96650931211749
 30
0.0
 11
118.9970877420695
 21
-206.42733415128541
 31
0.0
  0
LINE
  5
2FA
  8
DATA
  6
CONTINUOUS
 62
     7
 10
119.1216240407994
 20
-204.4419203859369
 30
0.0
 11
118.2607842185956
 21
-204.7024754128858
 31
0.0
  0
LINE
  5
2FB
  8
DATA
  6
CONTINUOUS
 62
     7
 10
118.82867726241091
 20
-202.53074548171281
 30
0.0
 11
117.951733262433
 21
-202.53074548171281
 31
0.0
  0
LINE
  5
2FC
  8
DATA
  6
CONTINUOUS
 62
     7
 10
119.0609003416003
 20
-200.69187746646611
 30
0.0
 11
118.2042793470191
 21
-200.56393003226279
 31
0.0
  0
LINE
  5
2FD
  8
DATA
  6
CONTINUOUS
 62
     7
 10
119.72491041069129
 20
-199.07490898565499
 30
0.0
 11
118.9896356643824
 21
-198.6470746663129
 31
0.0
  0
LINE
  5
2FE
  8
DATA
  6
CONTINUOUS
 62
     7
 10
120.75523683148531
 20
-197.7014844797516
 30
0.0
 11
120.1563155385354
 21
-197.1025631868016
 31
0.0
  0
LINE
  5
2FF
  8
DATA
  6
CONTINUOUS
 62
     7
 10
122.21461821265579
 20
-196.5563676034586
 30
0.0
 11
121.7897561522054
 21
-195.82048492855009
 31
0.0
  0
LINE
  5
300
  8
DATA
  6
CONTINUOUS
 62
     7
 10
124.0525014746454
 20
-195.8139895788741
 30
0.0
 11
123.8492676138581
 21
-194.97801760197231
 31
0.0
  0
LINE
  5
301
  8
DATA
  6
CONTINUOUS
 62
     7
 10
127.66057210431779
 20
-195.91696514747639
 30
0.0
 11
127.9218827708192
 21
-195.05870783284971
 31
0.0
  0
LINE
  5
302
  8
DATA
  6
CONTINUOUS
 62
     7
 10
129.19931291620941
 20
-196.6022705572081
 30
0.0
 11
129.6739798230717
 21
-195.81477090457551
 31
0.0
  0
LINE
  5
303
  8
DATA
  6
CONTINUOUS
 62
     7
 10
130.52960248359
 20
-197.64859077446931
 30
0.0
 11
131.181795027671
 21
-196.97849770664359
 31
0.0
  0
LINE
  5
304
  8
DATA
  6
CONTINUOUS
 62
     7
 10
131.68350002599601
 20
-199.20414938174409
 30
0.0
 11
132.52765742657951
 21
-198.72422817625301
 31
0.0
  0
LINE
  5
305
  8
DATA
  6
CONTINUOUS
 62
     7
 10
132.2787641386056
 20
-200.7032500913102
 30
0.0
 11
133.2612985679105
 21
-200.53396257826651
 31
0.0
  0
LINE
  5
306
  8
DATA
  6
CONTINUOUS
 62
     7
 10
133.18696195783761
 20
-204.57635288346171
 30
0.0
 11
132.25069080849971
 21
-204.31995045875141
 31
0.0
  0
LINE
  5
307
  8
DATA
  6
CONTINUOUS
 62
     7
 10
131.5658411366793
 20
-205.92519113153571
 30
0.0
 11
132.4621801767108
 21
-206.45178983279999
 31
0.0
  0
LINE
  5
308
  8
DATA
  6
CONTINUOUS
 62
     7
 10
131.31715098632739
 20
-207.95892777662391
 30
0.0
 11
130.57949483330671
 21
-207.22127162360329
 31
0.0
  0
LINE
  5
309
  8
DATA
  6
CONTINUOUS
 62
     7
 10
129.68371037265419
 20
-209.2410060348704
 30
0.0
 11
129.156248633237
 21
-208.3442676944978
 31
0.0
  0
LINE
  5
30A
  8
DATA
  6
CONTINUOUS
 62
     7
 10
125.8659781911106
 20
-195.37856905849111
 30
0.0
 11
125.8659781911106
 21
-194.60625464005821
 31
0.0
  0
LINE
  5
30B
  8
DATA
  6
CONTINUOUS
 62
     7
 10
121.954254095813
 20
-205.45747235002401
 30
0.0
 11
120.9166870472063
 21
-206.5633881527701
 31
0.0
  0
LINE
  5
30C
  8
DATA
  6
CONTINUOUS
 62
     7
 10
122.0835406061492
 20
-207.65812683025561
 30
0.0
 11
123.1211076547517
 21
-206.55221102751381
 31
0.0
  0
LINE
  5
30D
  8
DATA
  6
CONTINUOUS
 62
     7
 10
125.05080290740079
 20
-207.29511587885381
 30
0.0
 11
125.05080290740079
 21
-208.80714910007541
 31
0.0
  0
LINE
  5
30E
  8
DATA
  6
CONTINUOUS
 62
     7
 10
126.6508029074007
 20
-207.2561236802203
 30
0.0
 11
126.6508029074007
 21
-208.7776999992744
 31
0.0
  0
TEXT
  5
30F
  8
DATA
 62
     7
 10
35.761532520708784
 20
-212.97952294592849
 30
0.0
 40
1.764577907986109
  1
dB
 41
0.7
 11
35.761532520708784
 21
-211.21494503794241
 31
0.0
 73
     3
  0
TEXT
  5
310
  8
DATA
 62
     7
 10
34.6025718082754
 20
-215.79654502554089
 30
0.0
 40
1.764577907986109
  1
GAIN
 41
0.7
 11
34.6025718082754
 21
-214.03196711755481
 31
0.0
 73
     3
  0
TEXT
  5
311
  8
DATA
 62
     7
 10
33.812298781138232
 20
-224.0634674740931
 30
0.0
 40
2.1162109375
  1
INPUT
 41
0.7
 11
33.812298781138232
 21
-221.9472565365931
 31
0.0
 73
     3
  0
TEXT
  5
312
  8
DATA
 62
     7
 10
58.465962708482209
 20
-203.34828073578771
 30
0.0
 40
1.5390625
  1
70
 41
0.7
 11
58.465962708482209
 21
-201.80921823578771
 31
0.0
 73
     3
  0
TEXT
  5
313
  8
DATA
 62
     7
 10
76.930186738155186
 20
-203.2557759089859
 30
0.0
 40
1.5390625
  1
680
 41
0.7
 11
76.930186738155186
 21
-201.7167134089859
 31
0.0
 73
     3
  0
TEXT
  5
314
  8
DATA
 62
     7
 10
67.51672891261839
 20
-194.19904699621739
 30
0.0
 40
1.5390625
  1
240
 41
0.7
 11
67.51672891261839
 21
-192.65998449621739
 31
0.0
 73
     3
  0
TEXT
  5
315
  8
DATA
 62
     7
 10
59.722691564957429
 20
-197.3617385613247
 30
0.0
 40
1.5390625
  1
140
 41
0.7
 11
59.722691564957429
 21
-195.8226760613247
 31
0.0
 73
     3
  0
TEXT
  5
316
  8
DATA
 62
     7
 10
74.385383130064668
 20
-197.20057951707651
 30
0.0
 40
1.5390625
  1
350
 41
0.7
 11
74.385383130064668
 21
-195.66151701707651
 31
0.0
 73
     3
  0
TEXT
  5
317
  8
DATA
 62
     7
 10
63.241245332930582
 20
-215.79654502554089
 30
0.0
 40
1.764577907986109
  1
XOVER FREQ
 41
0.7
 11
63.241245332930582
 21
-214.03196711755481
 31
0.0
 73
     3
  0
TEXT
  5
318
  8
DATA
 62
     7
 10
64.659832568753615
 20
-220.4212615123005
 30
0.0
 40
1.764577907986109
  1
MID/HIGH
 41
0.7
 11
64.659832568753615
 21
-218.6566836043144
 31
0.0
 73
     3
  0
TEXT
  5
319
  8
DATA
 62
     7
 10
63.000206045363903
 20
-224.0634674740931
 30
0.0
 40
2.1162109375
  1
LOW/HIGH
 41
0.7
 11
63.000206045363903
 21
-221.9472565365931
 31
0.0
 73
     3
  0
TEXT
  5
31A
  8
DATA
 62
     7
 10
67.626954265341098
 20
-212.97952294592849
 30
0.0
 40
1.764577907986109
  1
Hz
 41
0.7
 11
67.626954265341098
 21
-211.21494503794241
 31
0.0
 73
     3
  0
TEXT
  5
31B
  8
DATA
 62
     7
 10
47.42745655863024
 20
-224.0634674740931
 30
0.0
 40
2.1162109375
  1
LOW CUT
 41
0.7
 11
47.42745655863024
 21
-221.9472565365931
 31
0.0
 73
     3
  0
TEXT
  5
31C
  8
DATA
 62
     7
 10
90.655900817133414
 20
-215.79654502554089
 30
0.0
 40
1.764577907986109
  1
GAIN
 41
0.7
 11
90.655900817133414
 21
-214.03196711755481
 31
0.0
 73
     3
  0
TEXT
  5
31D
  8
DATA
 62
     7
 10
86.994075961928573
 20
-220.4212615123005
 30
0.0
 40
1.764577907986109
  1
MID OUTPUT
 41
0.7
 11
86.994075961928573
 21
-218.6566836043144
 31
0.0
 73
     3
  0
TEXT
  5
31E
  8
DATA
 62
     7
 10
86.158300047894784
 20
-224.0634674740931
 30
0.0
 40
2.1162109375
  1
LOW OUTPUT
 41
0.7
 11
86.158300047894784
 21
-221.9472565365931
 31
0.0
 73
     3
  0
TEXT
  5
31F
  8
DATA
 62
     7
 10
91.859999999849933
 20
-212.97952294592849
 30
0.0
 40
1.764577907986109
  1
dB
 41
0.7
 11
91.859999999849933
 21
-211.21494503794241
 31
0.0
 73
     3
  0
TEXT
  5
320
  8
DATA
 62
     7
 10
91.522691564957356
 20
-194.2184674740933
 30
0.0
 40
1.5390625
  1
-10
 41
0.7
 11
91.522691564957356
 21
-192.6794049740933
 31
0.0
 73
     3
  0
TEXT
  5
321
  8
DATA
 62
     7
 10
81.879420477725773
 20
-202.7811590392007
 30
0.0
 40
1.5390625
  1
-30
 41
0.7
 11
81.879420477725773
 21
-201.2420965392007
 31
0.0
 73
     3
  0
TEXT
  5
322
  8
DATA
 62
     7
 10
101.63461686963529
 20
-203.14981325664701
 30
0.0
 40
1.5390625
  1
0
 41
0.7
 11
101.63461686963529
 21
-201.61075075664701
 31
0.0
 73
     3
  0
TEXT
  5
323
  8
DATA
 62
     7
 10
129.74221292915141
 20
-211.56840969841679
 30
0.0
 40
1.5390625
  1
+6
 41
0.7
 11
129.74221292915141
 21
-210.02934719841679
 31
0.0
 73
     3
  0
TEXT
  5
324
  8
DATA
 62
     7
 10
123.1961068626473
 20
-215.79654502554089
 30
0.0
 40
1.764577907986109
  1
GAIN
 41
0.7
 11
123.1961068626473
 21
-214.03196711755481
 31
0.0
 73
     3
  0
TEXT
  5
325
  8
DATA
 62
     7
 10
118.6985060934087
 20
-224.0634674740931
 30
0.0
 40
2.1162109375
  1
HIGH OUTPUT
 41
0.7
 11
118.6985060934087
 21
-221.9472565365931
 31
0.0
 73
     3
  0
TEXT
  5
326
  8
DATA
 62
     7
 10
124.4002060453639
 20
-212.97952294592849
 30
0.0
 40
1.764577907986109
  1
dB
 41
0.7
 11
124.4002060453639
 21
-211.21494503794241
 31
0.0
 73
     3
  0
TEXT
  5
327
  8
DATA
 62
     7
 10
124.0628976104713
 20
-194.2184674740933
 30
0.0
 40
1.5390625
  1
-10
 41
0.7
 11
124.0628976104713
 21
-192.6794049740933
 31
0.0
 73
     3
  0
TEXT
  5
328
  8
DATA
 62
     7
 10
114.4196265232397
 20
-202.7811590392007
 30
0.0
 40
1.5390625
  1
-30
 41
0.7
 11
114.4196265232397
 21
-201.2420965392007
 31
0.0
 73
     3
  0
TEXT
  5
329
  8
DATA
 62
     7
 10
134.17482291514921
 20
-203.14981325664701
 30
0.0
 40
1.5390625
  1
0
 41
0.7
 11
134.17482291514921
 21
-201.61075075664701
 31
0.0
 73
     3
  0
CIRCLE
  5
32A
  8
DATA
  6
CONTINUOUS
 62
     7
 10
48.354626523238103
 20
-211.000756601777
 30
0.0
 40
2.6349999999985121
  0
CIRCLE
  5
32B
  8
DATA
  6
CONTINUOUS
 62
     7
 10
48.354626523238103
 20
-211.000756601777
 30
0.0
 40
1.6999999999983391
  0
CIRCLE
  5
32C
  8
DATA
  6
CONTINUOUS
 62
     7
 10
55.36443013133011
 20
-211.000756601777
 30
0.0
 40
1.5
  0
TEXT
  5
32D
  8
DATA
 62
     7
 10
50.197308547329158
 20
-206.99614938559711
 30
0.0
 40
1.5390625
  1
40Hz
 41
0.7
 11
50.197308547329158
 21
-205.45708688559711
 31
0.0
 73
     3
  0
CIRCLE
  5
32E
  8
DATA
  6
CONTINUOUS
 62
     7
 10
80.918315500887019
 20
-211.000756601777
 30
0.0
 40
1.5
  0
TEXT
  5
32F
  8
DATA
 62
     7
 10
79.648074807758604
 20
-208.2319252996304
 30
0.0
 40
1.5390625
  1
X10
 41
0.7
 11
79.648074807758604
 21
-206.6928627996304
 31
0.0
 73
     3
  0
CIRCLE
  5
330
  8
DATA
  6
CONTINUOUS
 62
     7
 10
105.563319355102
 20
-211.000756601777
 30
0.0
 40
2.6349999999984881
  0
CIRCLE
  5
331
  8
DATA
  6
CONTINUOUS
 62
     7
 10
105.563319355102
 20
-211.000756601777
 30
0.0
 40
1.6999999999982851
  0
CIRCLE
  5
332
  8
DATA
  6
CONTINUOUS
 62
     7
 10
112.573122963194
 20
-211.000756601777
 30
0.0
 40
1.5000000000000031
  0
TEXT
  5
333
  8
DATA
 62
     7
 10
106.65080498728339
 20
-206.99614938559711
 30
0.0
 40
1.5390625
  1
\U+03A6INV
 41
0.7
 11
106.65080498728339
 21
-205.45708688559711
 31
0.0
 73
     3
  0
CIRCLE
  5
334
  8
DATA
  6
CONTINUOUS
 62
     7
 10
137.7837700605474
 20
-211.000756601777
 30
0.0
 40
2.6349999999984841
  0
CIRCLE
  5
335
  8
DATA
  6
CONTINUOUS
 62
     7
 10
137.7837700605474
 20
-211.000756601777
 30
0.0
 40
1.6999999999982831
  0
CIRCLE
  5
336
  8
DATA
  6
CONTINUOUS
 62
     7
 10
144.7935736686394
 20
-211.000756601777
 30
0.0
 40
1.5
  0
TEXT
  5
337
  8
DATA
 62
     7
 10
138.87125569272891
 20
-206.99614938559711
 30
0.0
 40
1.5390625
  1
\U+03A6INV
 41
0.7
 11
138.87125569272891
 21
-205.45708688559711
 31
0.0
 73
     3
  0
ARC
  5
338
  8
DATA
  6
CONTINUOUS
 62
     7
 10
36.618779787282811
 20
-202.5949031657897
 30
0.0
 40
4.7499999999999947
 50
98.302906098069215
 51
78.905036031998208
  0
ARC
  5
339
  8
DATA
  6
CONTINUOUS
 62
     7
 10
36.61877978728262
 20
-202.5949031657897
 30
0.0
 40
6.2500000000001501
 50
96.300838472254853
 51
81.590263166658445
  0
LINE
  5
33A
  8
DATA
  6
CONTINUOUS
 62
     7
 10
36.632849432252492
 20
-195.37856905849111
 30
0.0
 11
36.832849432252331
 21
-195.378569058491
 31
0.0
  0
ARC
  5
33B
  8
DATA
  6
CONTINUOUS
 62
     7
 10
36.632849432252492
 20
-196.07856905849121
 30
0.0
 40
0.7000000000000455
 50
90.0
 51
179.99999999999071
  0
LINE
  5
33C
  8
DATA
  6
CONTINUOUS
 62
     7
 10
35.932849432252347
 20
-201.838569058491
 30
0.0
 11
35.932849432252461
 21
-196.0785690584911
 31
0.0
  0
ARC
  5
33D
  8
DATA
  6
CONTINUOUS
 62
     7
 10
36.632849432252272
 20
-201.8385690584912
 30
0.0
 40
0.6999999999999318
 50
180.0
 51
270.00000000000921
  0
LINE
  5
33E
  8
DATA
  6
CONTINUOUS
 62
     7
 10
36.832849432252331
 20
-202.53856905849111
 30
0.0
 11
36.632849432252392
 21
-202.53856905849111
 31
0.0
  0
ARC
  5
33F
  8
DATA
  6
CONTINUOUS
 62
     7
 10
36.832849432252331
 20
-201.8385690584912
 30
0.0
 40
0.6999999999999889
 50
270.0
 51
0.0
  0
LINE
  5
340
  8
DATA
  6
CONTINUOUS
 62
     7
 10
37.532849432252249
 20
-196.0785690584911
 30
0.0
 11
37.532849432252249
 21
-201.8385690584912
 31
0.0
  0
ARC
  5
341
  8
DATA
  6
CONTINUOUS
 62
     7
 10
36.83284943225221
 20
-196.0785690584911
 30
0.0
 40
0.7000000000000455
 50
0.0
 51
89.999999999990649
  0
LINE
  5
342
  8
DATA
  6
CONTINUOUS
 62
     7
 10
31.936632843836321
 20
-201.79490316578969
 30
0.0
 11
30.42019123826611
 21
-201.79490316578969
 31
0.0
  0
LINE
  5
343
  8
DATA
  6
CONTINUOUS
 62
     7
 10
31.936632843836321
 20
-203.39490316578971
 30
0.0
 11
30.42019123826611
 21
-203.39490316578971
 31
0.0
  0
LINE
  5
344
  8
DATA
  6
CONTINUOUS
 62
     7
 10
41.300926730729252
 20
-201.79490316578969
 30
0.0
 11
42.817368336299353
 21
-201.79490316578969
 31
0.0
  0
LINE
  5
345
  8
DATA
  6
CONTINUOUS
 62
     7
 10
41.300926730729252
 20
-203.39490316578971
 30
0.0
 11
42.817368336299353
 21
-203.39490316578971
 31
0.0
  0
LINE
  5
346
  8
DATA
  6
CONTINUOUS
 62
     7
 10
32.742316508114008
 20
-199.84981073651929
 30
0.0
 11
31.670030365538601
 21
-198.77752459394401
 31
0.0
  0
LINE
  5
347
  8
DATA
  6
CONTINUOUS
 62
     7
 10
33.873687358007999
 20
-198.71843988661641
 30
0.0
 11
32.801401215437131
 21
-197.64615374404551
 31
0.0
  0
LINE
  5
348
  8
DATA
  6
CONTINUOUS
 62
     7
 10
39.363872216553148
 20
-198.7184398866209
 30
0.0
 11
40.436158359128427
 21
-197.64615374404551
 31
0.0
  0
LINE
  5
349
  8
DATA
  6
CONTINUOUS
 62
     7
 10
41.567529209026972
 20
-198.77752459394409
 30
0.0
 11
40.495243066455998
 21
-199.849810736515
 31
0.0
  0
LINE
  5
34A
  8
DATA
  6
CONTINUOUS
 62
     7
 10
41.567529209026972
 20
-206.4122817376354
 30
0.0
 11
40.495243066455998
 21
-205.33999559506441
 31
0.0
  0
LINE
  5
34B
  8
DATA
  6
CONTINUOUS
 62
     7
 10
40.436158359128427
 20
-207.54365258753381
 30
0.0
 11
39.363872216553148
 21
-206.47136644495839
 31
0.0
  0
ARC
  5
34C
  8
DATA
  6
CONTINUOUS
 62
     7
 10
36.55036202573848
 20
-202.4603980099825
 30
0.0
 40
6.8400000000000372
 50
93.853979695462726
 51
240.88271410567279
  0
ARC
  5
34D
  8
DATA
  6
CONTINUOUS
 62
     7
 10
36.55036202573848
 20
-202.4603980099825
 30
0.0
 40
6.8400000000000372
 50
300.65928338484559
 51
82.830667981082485
  0
LINE
  5
34E
  8
DATA
  6
CONTINUOUS
 62
     7
 10
44.403779787282843
 20
-202.53074548171281
 30
0.0
 11
43.390000264214613
 21
-202.53074548171281
 31
0.0
  0
LINE
  5
34F
  8
DATA
  6
CONTINUOUS
 62
     7
 10
33.222025059516277
 20
-208.4359961423246
 30
0.0
 11
32.748759981260562
 21
-209.2856823208661
 31
0.0
  0
LINE
  5
350
  8
DATA
  6
CONTINUOUS
 62
     7
 10
31.805112733937278
 20
-207.38667542387799
 30
0.0
 11
31.147727326057581
 21
-208.06913965029011
 31
0.0
  0
LINE
  5
351
  8
DATA
  6
CONTINUOUS
 62
     7
 10
30.677306301749638
 20
-205.96650931211749
 30
0.0
 11
29.879134266921088
 21
-206.42733415128541
 31
0.0
  0
LINE
  5
352
  8
DATA
  6
CONTINUOUS
 62
     7
 10
30.003670565650911
 20
-204.4419203859369
 30
0.0
 11
29.142830743447181
 21
-204.7024754128858
 31
0.0
  0
LINE
  5
353
  8
DATA
  6
CONTINUOUS
 62
     7
 10
29.710723787262449
 20
-202.53074548171281
 30
0.0
 11
28.833779787284531
 21
-202.53074548171281
 31
0.0
  0
LINE
  5
354
  8
DATA
  6
CONTINUOUS
 62
     7
 10
29.942946866451791
 20
-200.69187746646611
 30
0.0
 11
29.08632587187066
 21
-200.56393003226279
 31
0.0
  0
LINE
  5
355
  8
DATA
  6
CONTINUOUS
 62
     7
 10
30.60695693554289
 20
-199.07490898565499
 30
0.0
 11
29.87168218923393
 21
-198.6470746663129
 31
0.0
  0
LINE
  5
356
  8
DATA
  6
CONTINUOUS
 62
     7
 10
31.637283356336809
 20
-197.7014844797516
 30
0.0
 11
31.038362063386959
 21
-197.1025631868016
 31
0.0
  0
LINE
  5
357
  8
DATA
  6
CONTINUOUS
 62
     7
 10
33.09666473750741
 20
-196.5563676034586
 30
0.0
 11
32.671802677056967
 21
-195.82048492855009
 31
0.0
  0
LINE
  5
358
  8
DATA
  6
CONTINUOUS
 62
     7
 10
34.934547999496949
 20
-195.8139895788741
 30
0.0
 11
34.731314138709692
 21
-194.97801760197231
 31
0.0
  0
LINE
  5
359
  8
DATA
  6
CONTINUOUS
 62
     7
 10
38.542618629169461
 20
-195.91696514747639
 30
0.0
 11
38.803929295670798
 21
-195.05870783284971
 31
0.0
  0
LINE
  5
35A
  8
DATA
  6
CONTINUOUS
 62
     7
 10
40.081359441060997
 20
-196.6022705572081
 30
0.0
 11
40.556026347923243
 21
-195.81477090457551
 31
0.0
  0
LINE
  5
35B
  8
DATA
  6
CONTINUOUS
 62
     7
 10
41.411649008441522
 20
-197.64859077446931
 30
0.0
 11
42.06384155252254
 21
-196.97849770664359
 31
0.0
  0
LINE
  5
35C
  8
DATA
  6
CONTINUOUS
 62
     7
 10
42.565546550847607
 20
-199.20414938174409
 30
0.0
 11
43.409703951431027
 21
-198.72422817625301
 31
0.0
  0
LINE
  5
35D
  8
DATA
  6
CONTINUOUS
 62
     7
 10
43.160810663457198
 20
-200.7032500913102
 30
0.0
 11
44.14334509276209
 21
-200.53396257826651
 31
0.0
  0
LINE
  5
35E
  8
DATA
  6
CONTINUOUS
 62
     7
 10
44.069008482689192
 20
-204.57635288346171
 30
0.0
 11
43.132737333351251
 21
-204.31995045875141
 31
0.0
  0
LINE
  5
35F
  8
DATA
  6
CONTINUOUS
 62
     7
 10
42.447887661530842
 20
-205.92519113153571
 30
0.0
 11
43.344226701562491
 21
-206.45178983279999
 31
0.0
  0
LINE
  5
360
  8
DATA
  6
CONTINUOUS
 62
     7
 10
42.199197511178973
 20
-207.95892777662391
 30
0.0
 11
41.461541358158279
 21
-207.22127162360329
 31
0.0
  0
LINE
  5
361
  8
DATA
  6
CONTINUOUS
 62
     7
 10
40.565756897505757
 20
-209.2410060348704
 30
0.0
 11
40.038295158088602
 21
-208.3442676944978
 31
0.0
  0
LINE
  5
362
  8
DATA
  6
CONTINUOUS
 62
     7
 10
36.748024715962117
 20
-195.37856905849111
 30
0.0
 11
36.748024715962117
 21
-194.60625464005821
 31
0.0
  0
TEXT
  5
363
  8
DATA
 62
     7
 10
29.697378961157089
 20
-211.61729378500939
 30
0.0
 40
1.5390625
  1
-12
 41
0.7
 11
29.697378961157089
 21
-210.07823128500939
 31
0.0
 73
     3
  0
TEXT
  5
364
  8
DATA
 62
     7
 10
40.309436538703778
 20
-211.56840969841679
 30
0.0
 40
1.5390625
  1
+12
 41
0.7
 11
40.309436538703778
 21
-210.02934719841679
 31
0.0
 73
     3
  0
LINE
  5
365
  8
DATA
  6
CONTINUOUS
 62
     7
 10
32.836300620664531
 20
-205.45747235002401
 30
0.0
 11
31.79873357205787
 21
-206.5633881527701
 31
0.0
  0
LINE
  5
366
  8
DATA
  6
CONTINUOUS
 62
     7
 10
32.965587131000753
 20
-207.65812683025561
 30
0.0
 11
34.0031541796032
 21
-206.55221102751381
 31
0.0
  0
LINE
  5
367
  8
DATA
  6
CONTINUOUS
 62
     7
 10
35.932849432252347
 20
-207.29511587885381
 30
0.0
 11
35.932849432252347
 21
-208.80714910007541
 31
0.0
  0
LINE
  5
368
  8
DATA
  6
CONTINUOUS
 62
     7
 10
37.532849432252249
 20
-207.2561236802203
 30
0.0
 11
37.532849432252249
 21
-208.7776999992744
 31
0.0
  0
TEXT
  5
369
  8
DATA
 62
     7
 10
44.848009233333762
 20
-200.876728907721
 30
0.0
 40
1.5390625
  1
+6
 41
0.7
 11
44.848009233333762
 21
-199.33766640772089
 31
0.0
 73
     3
  0
TEXT
  5
36A
  8
DATA
 62
     7
 10
26.28531761193301
 20
-201.1542433881265
 30
0.0
 40
1.5390625
  1
-6
 41
0.7
 11
26.28531761193301
 21
-199.6151808881265
 31
0.0
 73
     3
  0
TEXT
  5
36B
  8
DATA
 62
     7
 10
36.440514003842743
 20
-193.77519638686181
 30
0.0
 40
1.5390625
  1
0
 41
0.7
 11
36.440514003842743
 21
-192.23613388686181
 31
0.0
 73
     3
  0
TEXT
  5
36C
  8
DATA
 62
     7
 10
120.1526381795244
 20
-220.4212615123005
 30
0.0
 40
1.764577907986109
  1
HIGH OUTPUT
 41
0.7
 11
120.1526381795244
 21
-218.6566836043144
 31
0.0
 73
     3
  0
LINE
  5
36D
  8
DATA
  6
CONTINUOUS
 62
     7
 10
-84.77813012298742
 20
-76.454430174525541
 30
0.0
 11
-86.705237959120353
 21
-76.454430174525541
 31
0.0
  0
LINE
  5
36E
  8
DATA
  6
CONTINUOUS
 62
     7
 10
-86.705237959120353
 20
-76.454430174525541
 30
0.0
 11
-86.405237959120427
 21
-79.954430174525569
 31
0.0
  0
LINE
  5
36F
  8
DATA
  6
CONTINUOUS
 62
     7
 10
-86.405237959120427
 20
-79.954430174525569
 30
0.0
 11
-84.77813012298742
 21
-91.454430174525754
 31
0.0
  0
LINE
  5
370
  8
DATA
  6
CONTINUOUS
 62
     7
 10
-73.718995054849501
 20
-79.954430174525569
 30
0.0
 11
-75.3226527240042
 21
-91.454430174525754
 31
0.0
  0
LINE
  5
371
  8
DATA
  6
CONTINUOUS
 62
     7
 10
-75.3226527240042
 20
-76.454430174525541
 30
0.0
 11
-84.77813012298742
 21
-76.454430174525541
 31
0.0
  0
LINE
  5
372
  8
DATA
  6
CONTINUOUS
 62
     7
 10
-73.395544887871182
 20
-76.454430174525541
 30
0.0
 11
-73.695544887871264
 21
-79.954430174525569
 31
0.0
  0
LINE
  5
373
  8
DATA
  6
CONTINUOUS
 62
     7
 10
-75.3226527240042
 20
-76.454430174525541
 30
0.0
 11
-73.395544887871182
 21
-76.454430174525541
 31
0.0
  0
LINE
  5
374
  8
DATA
  6
CONTINUOUS
 62
     7
 10
-81.950391423495944
 20
-91.454430174525797
 30
0.0
 11
-82.562116506984907
 21
-79.954430174525498
 31
0.0
  0
LINE
  5
375
  8
DATA
  6
CONTINUOUS
 62
     7
 10
-83.650391423495975
 20
-91.454430174525797
 30
0.0
 11
-84.262116506984938
 21
-79.954430174525498
 31
0.0
  0
LINE
  5
376
  8
DATA
  6
CONTINUOUS
 62
     7
 10
-78.150391423495861
 20
-91.454430174525797
 30
0.0
 11
-77.562116506984907
 21
-79.954430174525498
 31
0.0
  0
LINE
  5
377
  8
DATA
  6
CONTINUOUS
 62
     7
 10
-76.450391423495816
 20
-91.454430174525797
 30
0.0
 11
-75.862116506984862
 21
-79.954430174525498
 31
0.0
  0
LINE
  5
378
  8
DATA
  6
CONTINUOUS
 62
     7
 10
-79.400391423495861
 20
-79.954430174525569
 30
0.0
 11
-73.695544887871264
 21
-79.954430174525569
 31
0.0
  0
LINE
  5
379
  8
DATA
  6
CONTINUOUS
 62
     7
 10
-80.700391423495816
 20
-79.954430174525569
 30
0.0
 11
-86.405237959120427
 21
-79.954430174525569
 31
0.0
  0
LINE
  5
37A
  8
DATA
  6
CONTINUOUS
 62
     7
 10
-79.400391423495861
 20
-91.454430174525754
 30
0.0
 11
-75.322652724004286
 21
-91.454430174525754
 31
0.0
  0
LINE
  5
37B
  8
DATA
  6
CONTINUOUS
 62
     7
 10
-80.700391423495816
 20
-91.454430174525754
 30
0.0
 11
-84.778130122987349
 21
-91.454430174525754
 31
0.0
  0
LINE
  5
37C
  8
DATA
  6
CONTINUOUS
 62
     7
 10
-80.700391423495816
 20
-79.954430174525569
 30
0.0
 11
-86.405237959120427
 21
-79.954430174525569
 31
0.0
  0
LINE
  5
37D
  8
DATA
  6
CONTINUOUS
 62
     7
 10
-79.400391423495861
 20
-79.954430174525569
 30
0.0
 11
-73.695544887871264
 21
-79.954430174525569
 31
0.0
  0
LINE
  5
37E
  8
DATA
  6
CONTINUOUS
 62
     7
 10
-80.700391423495816
 20
-91.454430174525754
 30
0.0
 11
-84.77813012298742
 21
-91.454430174525754
 31
0.0
  0
LINE
  5
37F
  8
DATA
  6
CONTINUOUS
 62
     7
 10
-79.400391423495861
 20
-91.454430174525754
 30
0.0
 11
-75.3226527240042
 21
-91.454430174525754
 31
0.0
  0
ARC
  5
380
  8
DATA
  6
CONTINUOUS
 62
     7
 10
-80.050391423495839
 20
-91.029530689416688
 30
0.0
 40
0.924899485108996
 50
225.34960338822449
 51
314.65039661177542
  0
LINE
  5
381
  8
DATA
  6
CONTINUOUS
 62
     7
 10
-80.700391423495816
 20
-91.687511735917994
 30
0.0
 11
-80.700391423495816
 21
-76.454430174525541
 31
0.0
  0
LINE
  5
382
  8
DATA
  6
CONTINUOUS
 62
     7
 10
-79.400391423495861
 20
-91.687511735917994
 30
0.0
 11
-79.400391423495861
 21
-76.454430174525541
 31
0.0
  0
LINE
  5
383
  8
DATA
  6
CONTINUOUS
 62
     7
 10
-84.429608348663123
 20
-75.947240498657237
 30
0.0
 11
-84.429608348663123
 21
-76.457900462857069
 31
0.0
  0
LINE
  5
384
  8
DATA
  6
CONTINUOUS
 62
     7
 10
-75.629608348663041
 20
-75.000109001634343
 30
0.0
 11
-75.629608348663041
 21
-76.454430174525541
 31
0.0
  0
LINE
  5
385
  8
DATA
  6
CONTINUOUS
 62
     7
 10
-84.429608348663123
 20
-75.947240498657237
 30
0.0
 11
-84.429608348663123
 21
-75.000109001634343
 31
0.0
  0
LINE
  5
386
  8
DATA
  6
CONTINUOUS
 62
     7
 10
-61.074533188288783
 20
-76.454430174525541
 30
0.0
 11
-63.001641024421687
 21
-76.454430174525541
 31
0.0
  0
LINE
  5
387
  8
DATA
  6
CONTINUOUS
 62
     7
 10
-63.001641024421687
 20
-76.454430174525541
 30
0.0
 11
-62.701641024421733
 21
-79.954430174525569
 31
0.0
  0
LINE
  5
388
  8
DATA
  6
CONTINUOUS
 62
     7
 10
-62.701641024421733
 20
-79.954430174525569
 30
0.0
 11
-61.074533188288783
 21
-91.454430174525754
 31
0.0
  0
LINE
  5
389
  8
DATA
  6
CONTINUOUS
 62
     7
 10
-50.01539812015082
 20
-79.954430174525569
 30
0.0
 11
-51.619055789305541
 21
-91.454430174525754
 31
0.0
  0
LINE
  5
38A
  8
DATA
  6
CONTINUOUS
 62
     7
 10
-51.619055789305541
 20
-76.454430174525541
 30
0.0
 11
-61.074533188288783
 21
-76.454430174525541
 31
0.0
  0
LINE
  5
38B
  8
DATA
  6
CONTINUOUS
 62
     7
 10
-49.691947953172523
 20
-76.454430174525541
 30
0.0
 11
-49.991947953172577
 21
-79.954430174525569
 31
0.0
  0
LINE
  5
38C
  8
DATA
  6
CONTINUOUS
 62
     7
 10
-51.619055789305541
 20
-76.454430174525541
 30
0.0
 11
-49.691947953172523
 21
-76.454430174525541
 31
0.0
  0
LINE
  5
38D
  8
DATA
  6
CONTINUOUS
 62
     7
 10
-58.246794488797249
 20
-91.454430174525797
 30
0.0
 11
-58.858519572286227
 21
-79.954430174525498
 31
0.0
  0
LINE
  5
38E
  8
DATA
  6
CONTINUOUS
 62
     7
 10
-59.946794488797288
 20
-91.454430174525797
 30
0.0
 11
-60.558519572286272
 21
-79.954430174525498
 31
0.0
  0
LINE
  5
38F
  8
DATA
  6
CONTINUOUS
 62
     7
 10
-54.446794488797181
 20
-91.454430174525797
 30
0.0
 11
-53.858519572286227
 21
-79.954430174525498
 31
0.0
  0
LINE
  5
390
  8
DATA
  6
CONTINUOUS
 62
     7
 10
-52.746794488797143
 20
-91.454430174525797
 30
0.0
 11
-52.158519572286167
 21
-79.954430174525498
 31
0.0
  0
LINE
  5
391
  8
DATA
  6
CONTINUOUS
 62
     7
 10
-55.696794488797181
 20
-79.954430174525569
 30
0.0
 11
-49.991947953172577
 21
-79.954430174525569
 31
0.0
  0
LINE
  5
392
  8
DATA
  6
CONTINUOUS
 62
     7
 10
-56.996794488797143
 20
-79.954430174525569
 30
0.0
 11
-62.701641024421733
 21
-79.954430174525569
 31
0.0
  0
LINE
  5
393
  8
DATA
  6
CONTINUOUS
 62
     7
 10
-55.696794488797181
 20
-91.454430174525754
 30
0.0
 11
-51.619055789305641
 21
-91.454430174525754
 31
0.0
  0
LINE
  5
394
  8
DATA
  6
CONTINUOUS
 62
     7
 10
-56.996794488797143
 20
-91.454430174525754
 30
0.0
 11
-61.074533188288662
 21
-91.454430174525754
 31
0.0
  0
LINE
  5
395
  8
DATA
  6
CONTINUOUS
 62
     7
 10
-56.996794488797143
 20
-79.954430174525569
 30
0.0
 11
-62.701641024421733
 21
-79.954430174525569
 31
0.0
  0
LINE
  5
396
  8
DATA
  6
CONTINUOUS
 62
     7
 10
-55.696794488797181
 20
-79.954430174525569
 30
0.0
 11
-49.991947953172577
 21
-79.954430174525569
 31
0.0
  0
LINE
  5
397
  8
DATA
  6
CONTINUOUS
 62
     7
 10
-56.996794488797143
 20
-91.454430174525754
 30
0.0
 11
-61.074533188288783
 21
-91.454430174525754
 31
0.0
  0
LINE
  5
398
  8
DATA
  6
CONTINUOUS
 62
     7
 10
-55.696794488797181
 20
-91.454430174525754
 30
0.0
 11
-51.619055789305541
 21
-91.454430174525754
 31
0.0
  0
ARC
  5
399
  8
DATA
  6
CONTINUOUS
 62
     7
 10
-56.346794488797151
 20
-91.029530689416688
 30
0.0
 40
0.924899485108996
 50
225.34960338822449
 51
314.65039661177542
  0
LINE
  5
39A
  8
DATA
  6
CONTINUOUS
 62
     7
 10
-56.996794488797143
 20
-91.687511735917994
 30
0.0
 11
-56.996794488797143
 21
-76.454430174525541
 31
0.0
  0
LINE
  5
39B
  8
DATA
  6
CONTINUOUS
 62
     7
 10
-55.696794488797181
 20
-91.687511735917994
 30
0.0
 11
-55.696794488797181
 21
-76.454430174525541
 31
0.0
  0
LINE
  5
39C
  8
DATA
  6
CONTINUOUS
 62
     7
 10
-60.726011413964422
 20
-75.947240498657237
 30
0.0
 11
-60.726011413964422
 21
-76.457900462857069
 31
0.0
  0
LINE
  5
39D
  8
DATA
  6
CONTINUOUS
 62
     7
 10
-51.92601141396436
 20
-75.000109001634343
 30
0.0
 11
-51.92601141396436
 21
-76.454430174525541
 31
0.0
  0
LINE
  5
39E
  8
DATA
  6
CONTINUOUS
 62
     7
 10
-60.726011413964422
 20
-75.947240498657237
 30
0.0
 11
-60.726011413964422
 21
-75.000109001634343
 31
0.0
  0
LINE
  5
39F
  8
DATA
  6
CONTINUOUS
 62
     7
 10
-28.574533188288768
 20
-76.454430174525541
 30
0.0
 11
-30.501641024421691
 21
-76.454430174525541
 31
0.0
  0
LINE
  5
3A0
  8
DATA
  6
CONTINUOUS
 62
     7
 10
-30.501641024421691
 20
-76.454430174525541
 30
0.0
 11
-30.201641024421729
 21
-79.954430174525569
 31
0.0
  0
LINE
  5
3A1
  8
DATA
  6
CONTINUOUS
 62
     7
 10
-30.201641024421729
 20
-79.954430174525569
 30
0.0
 11
-28.574533188288768
 21
-91.454430174525754
 31
0.0
  0
LINE
  5
3A2
  8
DATA
  6
CONTINUOUS
 62
     7
 10
-17.515398120150799
 20
-79.954430174525569
 30
0.0
 11
-19.119055789305492
 21
-91.454430174525754
 31
0.0
  0
LINE
  5
3A3
  8
DATA
  6
CONTINUOUS
 62
     7
 10
-19.119055789305492
 20
-76.454430174525541
 30
0.0
 11
-28.574533188288768
 21
-76.454430174525541
 31
0.0
  0
LINE
  5
3A4
  8
DATA
  6
CONTINUOUS
 62
     7
 10
-17.191947953172491
 20
-76.454430174525541
 30
0.0
 11
-17.491947953172549
 21
-79.954430174525569
 31
0.0
  0
LINE
  5
3A5
  8
DATA
  6
CONTINUOUS
 62
     7
 10
-19.119055789305492
 20
-76.454430174525541
 30
0.0
 11
-17.191947953172491
 21
-76.454430174525541
 31
0.0
  0
LINE
  5
3A6
  8
DATA
  6
CONTINUOUS
 62
     7
 10
-25.746794488797221
 20
-91.454430174525797
 30
0.0
 11
-26.358519572286198
 21
-79.954430174525498
 31
0.0
  0
LINE
  5
3A7
  8
DATA
  6
CONTINUOUS
 62
     7
 10
-27.446794488797259
 20
-91.454430174525797
 30
0.0
 11
-28.058519572286269
 21
-79.954430174525498
 31
0.0
  0
LINE
  5
3A8
  8
DATA
  6
CONTINUOUS
 62
     7
 10
-21.946794488797149
 20
-91.454430174525797
 30
0.0
 11
-21.358519572286198
 21
-79.954430174525498
 31
0.0
  0
LINE
  5
3A9
  8
DATA
  6
CONTINUOUS
 62
     7
 10
-20.246794488797111
 20
-91.454430174525797
 30
0.0
 11
-19.658519572286149
 21
-79.954430174525498
 31
0.0
  0
LINE
  5
3AA
  8
DATA
  6
CONTINUOUS
 62
     7
 10
-23.196794488797149
 20
-79.954430174525569
 30
0.0
 11
-17.491947953172549
 21
-79.954430174525569
 31
0.0
  0
LINE
  5
3AB
  8
DATA
  6
CONTINUOUS
 62
     7
 10
-24.496794488797111
 20
-79.954430174525569
 30
0.0
 11
-30.201641024421729
 21
-79.954430174525569
 31
0.0
  0
LINE
  5
3AC
  8
DATA
  6
CONTINUOUS
 62
     7
 10
-23.196794488797149
 20
-91.454430174525754
 30
0.0
 11
-19.119055789305609
 21
-91.454430174525754
 31
0.0
  0
LINE
  5
3AD
  8
DATA
  6
CONTINUOUS
 62
     7
 10
-24.496794488797111
 20
-91.454430174525754
 30
0.0
 11
-28.574533188288669
 21
-91.454430174525754
 31
0.0
  0
LINE
  5
3AE
  8
DATA
  6
CONTINUOUS
 62
     7
 10
-24.496794488797111
 20
-79.954430174525569
 30
0.0
 11
-30.201641024421729
 21
-79.954430174525569
 31
0.0
  0
LINE
  5
3AF
  8
DATA
  6
CONTINUOUS
 62
     7
 10
-23.196794488797149
 20
-79.954430174525569
 30
0.0
 11
-17.491947953172549
 21
-79.954430174525569
 31
0.0
  0
LINE
  5
3B0
  8
DATA
  6
CONTINUOUS
 62
     7
 10
-24.496794488797111
 20
-91.454430174525754
 30
0.0
 11
-28.574533188288768
 21
-91.454430174525754
 31
0.0
  0
LINE
  5
3B1
  8
DATA
  6
CONTINUOUS
 62
     7
 10
-23.196794488797149
 20
-91.454430174525754
 30
0.0
 11
-19.119055789305492
 21
-91.454430174525754
 31
0.0
  0
ARC
  5
3B2
  8
DATA
  6
CONTINUOUS
 62
     7
 10
-23.84679448879713
 20
-91.029530689416688
 30
0.0
 40
0.924899485108996
 50
225.34960338822449
 51
314.65039661177542
  0
LINE
  5
3B3
  8
DATA
  6
CONTINUOUS
 62
     7
 10
-24.496794488797111
 20
-91.687511735917994
 30
0.0
 11
-24.496794488797111
 21
-76.454430174525541
 31
0.0
  0
LINE
  5
3B4
  8
DATA
  6
CONTINUOUS
 62
     7
 10
-23.196794488797149
 20
-91.687511735917994
 30
0.0
 11
-23.196794488797149
 21
-76.454430174525541
 31
0.0
  0
LINE
  5
3B5
  8
DATA
  6
CONTINUOUS
 62
     7
 10
-28.226011413964429
 20
-75.947240498657237
 30
0.0
 11
-28.226011413964429
 21
-76.457900462857069
 31
0.0
  0
LINE
  5
3B6
  8
DATA
  6
CONTINUOUS
 62
     7
 10
-19.426011413964329
 20
-75.000109001634343
 30
0.0
 11
-19.426011413964329
 21
-76.454430174525541
 31
0.0
  0
LINE
  5
3B7
  8
DATA
  6
CONTINUOUS
 62
     7
 10
-28.226011413964429
 20
-75.947240498657237
 30
0.0
 11
-28.226011413964429
 21
-75.000109001634343
 31
0.0
  0
ARC
  5
3B8
  8
DATA
  6
CONTINUOUS
 62
     7
 10
-67.881977701419586
 20
-74.661833060313953
 30
0.0
 40
1.537499999999969
 50
192.68038349181489
 51
347.31961650818522
  0
ARC
  5
3B9
  8
DATA
  6
CONTINUOUS
 62
     7
 10
-36.231977701419609
 20
-74.661833060313953
 30
0.0
 40
1.537499999999969
 50
192.68038349181489
 51
347.31961650818522
  0
ARC
  5
3BA
  8
DATA
  6
CONTINUOUS
 62
     7
 10
-4.0119777014195517
 20
-74.661833060313953
 30
0.0
 40
1.537499999999969
 50
192.68038349181489
 51
347.31961650818522
  0
LINE
  5
3BB
  8
DATA
  6
CONTINUOUS
 62
     7
 10
31.270071409663259
 20
-76.454430174525541
 30
0.0
 11
29.342963573530302
 21
-76.454430174525541
 31
0.0
  0
LINE
  5
3BC
  8
DATA
  6
CONTINUOUS
 62
     7
 10
29.342963573530302
 20
-76.454430174525541
 30
0.0
 11
29.642963573530309
 21
-79.954430174525569
 31
0.0
  0
LINE
  5
3BD
  8
DATA
  6
CONTINUOUS
 62
     7
 10
29.642963573530309
 20
-79.954430174525569
 30
0.0
 11
31.270071409663259
 21
-91.454430174525754
 31
0.0
  0
LINE
  5
3BE
  8
DATA
  6
CONTINUOUS
 62
     7
 10
42.329206477801129
 20
-79.954430174525569
 30
0.0
 11
40.725548808646458
 21
-91.454430174525754
 31
0.0
  0
LINE
  5
3BF
  8
DATA
  6
CONTINUOUS
 62
     7
 10
40.725548808646458
 20
-76.454430174525541
 30
0.0
 11
31.270071409663259
 21
-76.454430174525541
 31
0.0
  0
LINE
  5
3C0
  8
DATA
  6
CONTINUOUS
 62
     7
 10
42.652656644779448
 20
-76.454430174525541
 30
0.0
 11
42.352656644779451
 21
-79.954430174525569
 31
0.0
  0
LINE
  5
3C1
  8
DATA
  6
CONTINUOUS
 62
     7
 10
40.725548808646458
 20
-76.454430174525541
 30
0.0
 11
42.652656644779448
 21
-76.454430174525541
 31
0.0
  0
LINE
  5
3C2
  8
DATA
  6
CONTINUOUS
 62
     7
 10
34.0978101091548
 20
-91.454430174525797
 30
0.0
 11
33.486085025665759
 21
-79.954430174525498
 31
0.0
  0
LINE
  5
3C3
  8
DATA
  6
CONTINUOUS
 62
     7
 10
32.397810109154747
 20
-91.454430174525797
 30
0.0
 11
31.78608502566572
 21
-79.954430174525498
 31
0.0
  0
LINE
  5
3C4
  8
DATA
  6
CONTINUOUS
 62
     7
 10
37.897810109154797
 20
-91.454430174525797
 30
0.0
 11
38.48608502566583
 21
-79.954430174525498
 31
0.0
  0
LINE
  5
3C5
  8
DATA
  6
CONTINUOUS
 62
     7
 10
39.597810109154857
 20
-91.454430174525797
 30
0.0
 11
40.186085025665811
 21
-79.954430174525498
 31
0.0
  0
LINE
  5
3C6
  8
DATA
  6
CONTINUOUS
 62
     7
 10
36.647810109154868
 20
-79.954430174525569
 30
0.0
 11
42.352656644779451
 21
-79.954430174525569
 31
0.0
  0
LINE
  5
3C7
  8
DATA
  6
CONTINUOUS
 62
     7
 10
35.347810109154914
 20
-79.954430174525569
 30
0.0
 11
29.642963573530309
 21
-79.954430174525569
 31
0.0
  0
LINE
  5
3C8
  8
DATA
  6
CONTINUOUS
 62
     7
 10
36.647810109154868
 20
-91.454430174525754
 30
0.0
 11
40.725548808646387
 21
-91.454430174525754
 31
0.0
  0
LINE
  5
3C9
  8
DATA
  6
CONTINUOUS
 62
     7
 10
35.347810109154914
 20
-79.954430174525569
 30
0.0
 11
29.642963573530309
 21
-79.954430174525569
 31
0.0
  0
LINE
  5
3CA
  8
DATA
  6
CONTINUOUS
 62
     7
 10
36.647810109154868
 20
-79.954430174525569
 30
0.0
 11
42.352656644779451
 21
-79.954430174525569
 31
0.0
  0
LINE
  5
3CB
  8
DATA
  6
CONTINUOUS
 62
     7
 10
36.647810109154868
 20
-91.454430174525754
 30
0.0
 11
40.725548808646458
 21
-91.454430174525754
 31
0.0
  0
ARC
  5
3CC
  8
DATA
  6
CONTINUOUS
 62
     7
 10
35.997810109154891
 20
-91.029530689416688
 30
0.0
 40
0.924899485108996
 50
225.34960338822449
 51
314.65039661177542
  0
LINE
  5
3CD
  8
DATA
  6
CONTINUOUS
 62
     7
 10
35.347810109154914
 20
-91.687511735917994
 30
0.0
 11
35.347810109154914
 21
-76.454430174525541
 31
0.0
  0
LINE
  5
3CE
  8
DATA
  6
CONTINUOUS
 62
     7
 10
36.647810109154868
 20
-91.687511735917994
 30
0.0
 11
36.647810109154868
 21
-76.454430174525541
 31
0.0
  0
LINE
  5
3CF
  8
DATA
  6
CONTINUOUS
 62
     7
 10
31.61859318398761
 20
-75.947240498657237
 30
0.0
 11
31.61859318398761
 21
-76.457900462857069
 31
0.0
  0
LINE
  5
3D0
  8
DATA
  6
CONTINUOUS
 62
     7
 10
40.418593183987632
 20
-75.000109001634343
 30
0.0
 11
40.418593183987632
 21
-76.454430174525541
 31
0.0
  0
LINE
  5
3D1
  8
DATA
  6
CONTINUOUS
 62
     7
 10
31.61859318398761
 20
-75.947240498657237
 30
0.0
 11
31.61859318398761
 21
-75.000109001634343
 31
0.0
  0
ARC
  5
3D2
  8
DATA
  6
CONTINUOUS
 62
     7
 10
55.40802229858042
 20
-74.661833060313953
 30
0.0
 40
1.5374999999999761
 50
192.68038349181481
 51
347.31961650818522
  0
LINE
  5
3D3
  8
DATA
  6
CONTINUOUS
 62
     7
 10
64.06186987701264
 20
-76.454430174525541
 30
0.0
 11
62.134762040879657
 21
-76.454430174525541
 31
0.0
  0
LINE
  5
3D4
  8
DATA
  6
CONTINUOUS
 62
     7
 10
62.134762040879657
 20
-76.454430174525541
 30
0.0
 11
62.434762040879683
 21
-79.954430174525569
 31
0.0
  0
LINE
  5
3D5
  8
DATA
  6
CONTINUOUS
 62
     7
 10
62.434762040879683
 20
-79.954430174525569
 30
0.0
 11
64.06186987701264
 21
-91.454430174525754
 31
0.0
  0
LINE
  5
3D6
  8
DATA
  6
CONTINUOUS
 62
     7
 10
75.121004945150503
 20
-79.954430174525569
 30
0.0
 11
73.517347275995803
 21
-91.454430174525754
 31
0.0
  0
LINE
  5
3D7
  8
DATA
  6
CONTINUOUS
 62
     7
 10
73.517347275995803
 20
-76.454430174525541
 30
0.0
 11
64.06186987701264
 21
-76.454430174525541
 31
0.0
  0
LINE
  5
3D8
  8
DATA
  6
CONTINUOUS
 62
     7
 10
75.444455112128807
 20
-76.454430174525541
 30
0.0
 11
75.14445511212881
 21
-79.954430174525569
 31
0.0
  0
LINE
  5
3D9
  8
DATA
  6
CONTINUOUS
 62
     7
 10
73.517347275995803
 20
-76.454430174525541
 30
0.0
 11
75.444455112128807
 21
-76.454430174525541
 31
0.0
  0
LINE
  5
3DA
  8
DATA
  6
CONTINUOUS
 62
     7
 10
66.889608576504159
 20
-91.454430174525797
 30
0.0
 11
66.277883493015139
 21
-79.954430174525498
 31
0.0
  0
LINE
  5
3DB
  8
DATA
  6
CONTINUOUS
 62
     7
 10
65.189608576504114
 20
-91.454430174525797
 30
0.0
 11
64.577883493015079
 21
-79.954430174525498
 31
0.0
  0
LINE
  5
3DC
  8
DATA
  6
CONTINUOUS
 62
     7
 10
70.68960857650417
 20
-91.454430174525797
 30
0.0
 11
71.277883493015182
 21
-79.954430174525498
 31
0.0
  0
LINE
  5
3DD
  8
DATA
  6
CONTINUOUS
 62
     7
 10
72.389608576504173
 20
-91.454430174525797
 30
0.0
 11
72.977883493015156
 21
-79.954430174525498
 31
0.0
  0
LINE
  5
3DE
  8
DATA
  6
CONTINUOUS
 62
     7
 10
69.439608576504227
 20
-79.954430174525569
 30
0.0
 11
75.14445511212881
 21
-79.954430174525569
 31
0.0
  0
LINE
  5
3DF
  8
DATA
  6
CONTINUOUS
 62
     7
 10
68.139608576504273
 20
-79.954430174525569
 30
0.0
 11
62.434762040879683
 21
-79.954430174525569
 31
0.0
  0
LINE
  5
3E0
  8
DATA
  6
CONTINUOUS
 62
     7
 10
69.439608576504227
 20
-91.454430174525754
 30
0.0
 11
73.517347275995732
 21
-91.454430174525754
 31
0.0
  0
LINE
  5
3E1
  8
DATA
  6
CONTINUOUS
 62
     7
 10
68.139608576504273
 20
-91.454430174525754
 30
0.0
 11
64.061869877012683
 21
-91.454430174525754
 31
0.0
  0
LINE
  5
3E2
  8
DATA
  6
CONTINUOUS
 62
     7
 10
68.139608576504273
 20
-79.954430174525569
 30
0.0
 11
62.434762040879683
 21
-79.954430174525569
 31
0.0
  0
LINE
  5
3E3
  8
DATA
  6
CONTINUOUS
 62
     7
 10
69.439608576504227
 20
-79.954430174525569
 30
0.0
 11
75.14445511212881
 21
-79.954430174525569
 31
0.0
  0
LINE
  5
3E4
  8
DATA
  6
CONTINUOUS
 62
     7
 10
68.139608576504273
 20
-91.454430174525754
 30
0.0
 11
64.06186987701264
 21
-91.454430174525754
 31
0.0
  0
LINE
  5
3E5
  8
DATA
  6
CONTINUOUS
 62
     7
 10
69.439608576504227
 20
-91.454430174525754
 30
0.0
 11
73.517347275995803
 21
-91.454430174525754
 31
0.0
  0
ARC
  5
3E6
  8
DATA
  6
CONTINUOUS
 62
     7
 10
68.78960857650425
 20
-91.029530689416688
 30
0.0
 40
0.924899485108996
 50
225.34960338822449
 51
314.65039661177542
  0
LINE
  5
3E7
  8
DATA
  6
CONTINUOUS
 62
     7
 10
68.139608576504273
 20
-91.687511735917994
 30
0.0
 11
68.139608576504273
 21
-76.454430174525541
 31
0.0
  0
LINE
  5
3E8
  8
DATA
  6
CONTINUOUS
 62
     7
 10
69.439608576504227
 20
-91.687511735917994
 30
0.0
 11
69.439608576504227
 21
-76.454430174525541
 31
0.0
  0
LINE
  5
3E9
  8
DATA
  6
CONTINUOUS
 62
     7
 10
64.41039165133698
 20
-75.947240498657237
 30
0.0
 11
64.41039165133698
 21
-76.457900462857069
 31
0.0
  0
LINE
  5
3EA
  8
DATA
  6
CONTINUOUS
 62
     7
 10
73.210391651336991
 20
-75.000109001634343
 30
0.0
 11
73.210391651336991
 21
-76.454430174525541
 31
0.0
  0
LINE
  5
3EB
  8
DATA
  6
CONTINUOUS
 62
     7
 10
64.41039165133698
 20
-75.947240498657237
 30
0.0
 11
64.41039165133698
 21
-75.000109001634343
 31
0.0
  0
LINE
  5
3EC
  8
DATA
  6
CONTINUOUS
 62
     7
 10
87.765466811711292
 20
-76.454430174525541
 30
0.0
 11
85.838358975578345
 21
-76.454430174525541
 31
0.0
  0
LINE
  5
3ED
  8
DATA
  6
CONTINUOUS
 62
     7
 10
85.838358975578345
 20
-76.454430174525541
 30
0.0
 11
86.138358975578342
 21
-79.954430174525569
 31
0.0
  0
LINE
  5
3EE
  8
DATA
  6
CONTINUOUS
 62
     7
 10
86.138358975578342
 20
-79.954430174525569
 30
0.0
 11
87.765466811711292
 21
-91.454430174525754
 31
0.0
  0
LINE
  5
3EF
  8
DATA
  6
CONTINUOUS
 62
     7
 10
98.824601879849183
 20
-79.954430174525569
 30
0.0
 11
97.220944210694483
 21
-91.454430174525754
 31
0.0
  0
LINE
  5
3F0
  8
DATA
  6
CONTINUOUS
 62
     7
 10
97.220944210694483
 20
-76.454430174525541
 30
0.0
 11
87.765466811711292
 21
-76.454430174525541
 31
0.0
  0
LINE
  5
3F1
  8
DATA
  6
CONTINUOUS
 62
     7
 10
99.148052046827502
 20
-76.454430174525541
 30
0.0
 11
98.84805204682749
 21
-79.954430174525569
 31
0.0
  0
LINE
  5
3F2
  8
DATA
  6
CONTINUOUS
 62
     7
 10
97.220944210694483
 20
-76.454430174525541
 30
0.0
 11
99.148052046827502
 21
-76.454430174525541
 31
0.0
  0
LINE
  5
3F3
  8
DATA
  6
CONTINUOUS
 62
     7
 10
90.593205511202797
 20
-91.454430174525797
 30
0.0
 11
89.981480427713791
 21
-79.954430174525498
 31
0.0
  0
LINE
  5
3F4
  8
DATA
  6
CONTINUOUS
 62
     7
 10
88.893205511202765
 20
-91.454430174525797
 30
0.0
 11
88.281480427713703
 21
-79.954430174525498
 31
0.0
  0
LINE
  5
3F5
  8
DATA
  6
CONTINUOUS
 62
     7
 10
94.393205511202851
 20
-91.454430174525797
 30
0.0
 11
94.981480427713848
 21
-79.954430174525498
 31
0.0
  0
LINE
  5
3F6
  8
DATA
  6
CONTINUOUS
 62
     7
 10
96.093205511202868
 20
-91.454430174525797
 30
0.0
 11
96.681480427713851
 21
-79.954430174525498
 31
0.0
  0
LINE
  5
3F7
  8
DATA
  6
CONTINUOUS
 62
     7
 10
93.143205511202851
 20
-79.954430174525569
 30
0.0
 11
98.84805204682749
 21
-79.954430174525569
 31
0.0
  0
LINE
  5
3F8
  8
DATA
  6
CONTINUOUS
 62
     7
 10
91.843205511202925
 20
-79.954430174525569
 30
0.0
 11
86.138358975578342
 21
-79.954430174525569
 31
0.0
  0
LINE
  5
3F9
  8
DATA
  6
CONTINUOUS
 62
     7
 10
93.143205511202851
 20
-91.454430174525754
 30
0.0
 11
97.220944210694427
 21
-91.454430174525754
 31
0.0
  0
LINE
  5
3FA
  8
DATA
  6
CONTINUOUS
 62
     7
 10
91.843205511202925
 20
-91.454430174525754
 30
0.0
 11
87.765466811711363
 21
-91.454430174525754
 31
0.0
  0
LINE
  5
3FB
  8
DATA
  6
CONTINUOUS
 62
     7
 10
91.843205511202925
 20
-79.954430174525569
 30
0.0
 11
86.138358975578342
 21
-79.954430174525569
 31
0.0
  0
LINE
  5
3FC
  8
DATA
  6
CONTINUOUS
 62
     7
 10
93.143205511202851
 20
-79.954430174525569
 30
0.0
 11
98.84805204682749
 21
-79.954430174525569
 31
0.0
  0
LINE
  5
3FD
  8
DATA
  6
CONTINUOUS
 62
     7
 10
91.843205511202925
 20
-91.454430174525754
 30
0.0
 11
87.765466811711292
 21
-91.454430174525754
 31
0.0
  0
LINE
  5
3FE
  8
DATA
  6
CONTINUOUS
 62
     7
 10
93.143205511202851
 20
-91.454430174525754
 30
0.0
 11
97.220944210694483
 21
-91.454430174525754
 31
0.0
  0
ARC
  5
3FF
  8
DATA
  6
CONTINUOUS
 62
     7
 10
92.49320551120293
 20
-91.029530689416688
 30
0.0
 40
0.924899485108996
 50
225.34960338822449
 51
314.65039661177542
  0
LINE
  5
400
  8
DATA
  6
CONTINUOUS
 62
     7
 10
91.843205511202925
 20
-91.687511735917994
 30
0.0
 11
91.843205511202925
 21
-76.454430174525541
 31
0.0
  0
LINE
  5
401
  8
DATA
  6
CONTINUOUS
 62
     7
 10
93.143205511202851
 20
-91.687511735917994
 30
0.0
 11
93.143205511202851
 21
-76.454430174525541
 31
0.0
  0
LINE
  5
402
  8
DATA
  6
CONTINUOUS
 62
     7
 10
88.113988586035646
 20
-75.947240498657237
 30
0.0
 11
88.113988586035646
 21
-76.457900462857069
 31
0.0
  0
LINE
  5
403
  8
DATA
  6
CONTINUOUS
 62
     7
 10
96.913988586035615
 20
-75.000109001634343
 30
0.0
 11
96.913988586035615
 21
-76.454430174525541
 31
0.0
  0
LINE
  5
404
  8
DATA
  6
CONTINUOUS
 62
     7
 10
88.113988586035646
 20
-75.947240498657237
 30
0.0
 11
88.113988586035646
 21
-75.000109001634343
 31
0.0
  0
LINE
  5
405
  8
DATA
  6
CONTINUOUS
 62
     7
 10
120.26546681171131
 20
-76.454430174525541
 30
0.0
 11
118.3383589755783
 21
-76.454430174525541
 31
0.0
  0
LINE
  5
406
  8
DATA
  6
CONTINUOUS
 62
     7
 10
118.3383589755783
 20
-76.454430174525541
 30
0.0
 11
118.6383589755783
 21
-79.954430174525569
 31
0.0
  0
LINE
  5
407
  8
DATA
  6
CONTINUOUS
 62
     7
 10
118.6383589755783
 20
-79.954430174525569
 30
0.0
 11
120.26546681171131
 21
-91.454430174525754
 31
0.0
  0
LINE
  5
408
  8
DATA
  6
CONTINUOUS
 62
     7
 10
131.32460187984921
 20
-79.954430174525569
 30
0.0
 11
129.72094421069451
 21
-91.454430174525754
 31
0.0
  0
LINE
  5
409
  8
DATA
  6
CONTINUOUS
 62
     7
 10
129.72094421069451
 20
-76.454430174525541
 30
0.0
 11
120.26546681171131
 21
-76.454430174525541
 31
0.0
  0
LINE
  5
40A
  8
DATA
  6
CONTINUOUS
 62
     7
 10
131.6480520468275
 20
-76.454430174525541
 30
0.0
 11
131.34805204682749
 21
-79.954430174525569
 31
0.0
  0
LINE
  5
40B
  8
DATA
  6
CONTINUOUS
 62
     7
 10
129.72094421069451
 20
-76.454430174525541
 30
0.0
 11
131.6480520468275
 21
-76.454430174525541
 31
0.0
  0
LINE
  5
40C
  8
DATA
  6
CONTINUOUS
 62
     7
 10
123.0932055112028
 20
-91.454430174525797
 30
0.0
 11
122.48148042771381
 21
-79.954430174525498
 31
0.0
  0
LINE
  5
40D
  8
DATA
  6
CONTINUOUS
 62
     7
 10
121.39320551120279
 20
-91.454430174525797
 30
0.0
 11
120.7814804277137
 21
-79.954430174525498
 31
0.0
  0
LINE
  5
40E
  8
DATA
  6
CONTINUOUS
 62
     7
 10
126.89320551120279
 20
-91.454430174525797
 30
0.0
 11
127.48148042771381
 21
-79.954430174525498
 31
0.0
  0
LINE
  5
40F
  8
DATA
  6
CONTINUOUS
 62
     7
 10
128.59320551120291
 20
-91.454430174525797
 30
0.0
 11
129.18148042771381
 21
-79.954430174525498
 31
0.0
  0
LINE
  5
410
  8
DATA
  6
CONTINUOUS
 62
     7
 10
125.64320551120279
 20
-79.954430174525569
 30
0.0
 11
131.34805204682749
 21
-79.954430174525569
 31
0.0
  0
LINE
  5
411
  8
DATA
  6
CONTINUOUS
 62
     7
 10
124.3432055112029
 20
-79.954430174525569
 30
0.0
 11
118.6383589755783
 21
-79.954430174525569
 31
0.0
  0
LINE
  5
412
  8
DATA
  6
CONTINUOUS
 62
     7
 10
125.64320551120279
 20
-91.454430174525754
 30
0.0
 11
129.7209442106944
 21
-91.454430174525754
 31
0.0
  0
LINE
  5
413
  8
DATA
  6
CONTINUOUS
 62
     7
 10
124.3432055112029
 20
-91.454430174525754
 30
0.0
 11
120.26546681171131
 21
-91.454430174525754
 31
0.0
  0
LINE
  5
414
  8
DATA
  6
CONTINUOUS
 62
     7
 10
124.3432055112029
 20
-79.954430174525569
 30
0.0
 11
118.6383589755783
 21
-79.954430174525569
 31
0.0
  0
LINE
  5
415
  8
DATA
  6
CONTINUOUS
 62
     7
 10
125.64320551120279
 20
-79.954430174525569
 30
0.0
 11
131.34805204682749
 21
-79.954430174525569
 31
0.0
  0
LINE
  5
416
  8
DATA
  6
CONTINUOUS
 62
     7
 10
124.3432055112029
 20
-91.454430174525754
 30
0.0
 11
120.26546681171131
 21
-91.454430174525754
 31
0.0
  0
LINE
  5
417
  8
DATA
  6
CONTINUOUS
 62
     7
 10
125.64320551120279
 20
-91.454430174525754
 30
0.0
 11
129.72094421069451
 21
-91.454430174525754
 31
0.0
  0
ARC
  5
418
  8
DATA
  6
CONTINUOUS
 62
     7
 10
124.9932055112029
 20
-91.029530689416688
 30
0.0
 40
0.924899485108996
 50
225.34960338822449
 51
314.65039661177542
  0
LINE
  5
419
  8
DATA
  6
CONTINUOUS
 62
     7
 10
124.3432055112029
 20
-91.687511735917994
 30
0.0
 11
124.3432055112029
 21
-76.454430174525541
 31
0.0
  0
LINE
  5
41A
  8
DATA
  6
CONTINUOUS
 62
     7
 10
125.64320551120279
 20
-91.687511735917994
 30
0.0
 11
125.64320551120279
 21
-76.454430174525541
 31
0.0
  0
LINE
  5
41B
  8
DATA
  6
CONTINUOUS
 62
     7
 10
120.6139885860356
 20
-75.947240498657237
 30
0.0
 11
120.6139885860356
 21
-76.457900462857069
 31
0.0
  0
LINE
  5
41C
  8
DATA
  6
CONTINUOUS
 62
     7
 10
129.4139885860356
 20
-75.000109001634343
 30
0.0
 11
129.4139885860356
 21
-76.454430174525541
 31
0.0
  0
LINE
  5
41D
  8
DATA
  6
CONTINUOUS
 62
     7
 10
120.6139885860356
 20
-75.947240498657237
 30
0.0
 11
120.6139885860356
 21
-75.000109001634343
 31
0.0
  0
ARC
  5
41E
  8
DATA
  6
CONTINUOUS
 62
     7
 10
80.958022298580488
 20
-74.661833060313953
 30
0.0
 40
1.537499999999963
 50
192.68038349181489
 51
347.31961650818522
  0
ARC
  5
41F
  8
DATA
  6
CONTINUOUS
 62
     7
 10
112.60802229858049
 20
-74.661833060313953
 30
0.0
 40
1.537499999999969
 50
192.68038349181489
 51
347.31961650818522
  0
ARC
  5
420
  8
DATA
  6
CONTINUOUS
 62
     7
 10
144.82802229858041
 20
-74.661833060313953
 30
0.0
 40
1.537499999999969
 50
192.68038349181489
 51
347.31961650818522
  0
LINE
  5
421
  8
DATA
  6
CONTINUOUS
 62
     7
 10
9.9152166060130043
 20
-71.509467757640394
 30
0.0
 11
9.9152166060130043
 21
-72.000000000223125
 31
0.0
  0
LINE
  5
422
  8
DATA
  6
CONTINUOUS
 62
     7
 10
15.825774774971631
 20
-78.000000000223153
 30
0.0
 11
18.42577477497171
 21
-78.000000000223153
 31
0.0
  0
LINE
  5
423
  8
DATA
  6
CONTINUOUS
 62
     7
 10
14.325774774971579
 20
-76.500000000223153
 30
0.0
 11
14.325774774971579
 21
-75.000000000223153
 31
0.0
  0
LINE
  5
424
  8
DATA
  6
CONTINUOUS
 62
     7
 10
19.92577477497176
 20
-76.500000000223153
 30
0.0
 11
19.92577477497176
 21
-75.000000000223153
 31
0.0
  0
ARC
  5
425
  8
DATA
  6
CONTINUOUS
 62
     7
 10
15.825774774971631
 20
-76.500000000223153
 30
0.0
 40
1.5000000000000551
 50
180.0
 51
270.0
  0
ARC
  5
426
  8
DATA
  6
CONTINUOUS
 62
     7
 10
18.42577477497171
 20
-76.500000000223153
 30
0.0
 40
1.5
 50
270.0
 51
0.0
  0
ARC
  5
427
  8
DATA
  6
CONTINUOUS
 62
     7
 10
13.36802229858044
 20
-74.661833060313953
 30
0.0
 40
1.537499999999969
 50
192.68038349181489
 51
308.53030146189519
  0
ARC
  5
428
  8
DATA
  6
CONTINUOUS
 62
     7
 10
13.36802229858044
 20
-74.661833060313953
 30
0.0
 40
1.537499999999937
 50
347.29414000494171
 51
347.31961650818511
  0
ARC
  5
429
  8
DATA
  6
CONTINUOUS
 62
     7
 10
20.868022298580438
 20
-74.661833060313953
 30
0.0
 40
1.537499999999969
 50
192.68038349181489
 51
192.7058599950557
  0
ARC
  5
42A
  8
DATA
  6
CONTINUOUS
 62
     7
 10
20.868022298580438
 20
-74.661833060313953
 30
0.0
 40
1.5374999999999761
 50
232.20457797026921
 51
347.31961650818522
  0
LINE
  5
42B
  8
DATA
  6
CONTINUOUS
 62
     7
 10
346.00000000021691
 20
-213.3760793893654
 30
0.0
 11
346.00000000021691
 21
-208.59409570040279
 31
0.0
  0
LINE
  5
42C
  8
DATA
  6
CONTINUOUS
 62
     7
 10
347.00000000021691
 20
-213.3760793893654
 30
0.0
 11
346.00000000021691
 21
-213.3760793893654
 31
0.0
  0
LINE
  5
42D
  8
DATA
  6
CONTINUOUS
 62
     7
 10
350.00000000021703
 20
-208.1060793893686
 30
0.0
 11
348.49580761591881
 21
-208.1060793893686
 31
0.0
  0
ARC
  5
42E
  8
DATA
  6
CONTINUOUS
 62
     7
 10
350.33883402687582
 20
-210.74166058774739
 30
0.0
 40
1.537499999999969
 50
102.68038349181479
 51
219.38110775284761
  0
ARC
  5
42F
  8
DATA
  6
CONTINUOUS
 62
     7
 10
350.33883402687582
 20
-210.74166058774739
 30
0.0
 40
1.5374999999999901
 50
257.26865533724919
 51
257.31961650818511
  0
LINE
  5
430
  8
DATA
  6
CONTINUOUS
 62
     7
 10
501.5000000002176
 20
-213.9580068702663
 30
0.0
 11
500.0000000002176
 21
-213.9580068702663
 31
0.0
  0
LINE
  5
431
  8
DATA
  6
CONTINUOUS
 62
     7
 10
503.99837616874368
 20
-186.4012233851461
 30
0.0
 11
503.99837616874368
 21
-191.9012233851461
 31
0.0
  0
LINE
  5
432
  8
DATA
  6
CONTINUOUS
 62
     7
 10
502.99837616874368
 20
-192.9012233851461
 30
0.0
 11
502.49837616874362
 21
-192.9012233851461
 31
0.0
  0
LINE
  5
433
  8
DATA
  6
CONTINUOUS
 62
     7
 10
502.69837616874372
 20
-192.60122338514611
 30
0.0
 11
502.49837616874362
 21
-192.60122338514611
 31
0.0
  0
LINE
  5
434
  8
DATA
  6
CONTINUOUS
 62
     7
 10
503.69837616874361
 20
-186.4012233851461
 30
0.0
 11
503.69837616874361
 21
-191.60122338514611
 31
0.0
  0
LINE
  5
435
  8
DATA
  6
CONTINUOUS
 62
     7
 10
503.69837616874361
 20
-186.4012233851461
 30
0.0
 11
503.99837616874368
 21
-186.4012233851461
 31
0.0
  0
ARC
  5
436
  8
DATA
  6
CONTINUOUS
 62
     7
 10
502.69837616874372
 20
-191.60122338514611
 30
0.0
 40
1.0
 50
270.0
 51
0.0
  0
ARC
  5
437
  8
DATA
  6
CONTINUOUS
 62
     7
 10
502.99837616874368
 20
-191.9012233851461
 30
0.0
 40
1.0
 50
270.0
 51
0.0
  0
LINE
  5
438
  8
DATA
  6
CONTINUOUS
 62
     7
 10
502.69837616874372
 20
-192.60122338514611
 30
0.0
 11
501.5000000002176
 21
-192.60122338514611
 31
0.0
  0
LINE
  5
439
  8
DATA
  6
CONTINUOUS
 62
     7
 10
500.0000000002176
 20
-192.60122338514611
 30
0.0
 11
499.99881094640182
 21
-192.60122338514611
 31
0.0
  0
LINE
  5
43A
  8
DATA
  6
CONTINUOUS
 62
     7
 10
502.49837616874362
 20
-192.9012233851461
 30
0.0
 11
501.5000000002176
 21
-192.9012233851461
 31
0.0
  0
LINE
  5
43B
  8
DATA
  6
CONTINUOUS
 62
     7
 10
500.0000000002176
 20
-192.9012233851461
 30
0.0
 11
499.99881094640182
 21
-192.9012233851461
 31
0.0
  0
LINE
  5
43C
  8
DATA
  6
CONTINUOUS
 62
     7
 10
-103.07718004945779
 20
-79.000000000223153
 30
0.0
 11
-97.807180049461053
 21
-79.000000000223153
 31
0.0
  0
LINE
  5
43D
  8
DATA
  6
CONTINUOUS
 62
     7
 10
-103.07718004945779
 20
-79.000000000223153
 30
0.0
 11
-103.07718004945779
 21
-75.000000000223153
 31
0.0
  0
LINE
  5
43E
  8
DATA
  6
CONTINUOUS
 62
     7
 10
-97.807180049461053
 20
-79.000000000223153
 30
0.0
 11
-97.807180049461053
 21
-75.000000000223153
 31
0.0
  0
LINE
  5
43F
  8
DATA
  6
CONTINUOUS
 62
     7
 10
-45.868487217594101
 20
-79.000000000223153
 30
0.0
 11
-45.868487217594101
 21
-75.000000000223153
 31
0.0
  0
LINE
  5
440
  8
DATA
  6
CONTINUOUS
 62
     7
 10
-40.598487217597132
 20
-79.000000000223153
 30
0.0
 11
-40.598487217597132
 21
-75.000000000223153
 31
0.0
  0
LINE
  5
441
  8
DATA
  6
CONTINUOUS
 62
     7
 10
-13.64803651214863
 20
-79.000000000223153
 30
0.0
 11
-13.64803651214863
 21
-75.000000000223153
 31
0.0
  0
LINE
  5
442
  8
DATA
  6
CONTINUOUS
 62
     7
 10
-8.3780365121516631
 20
-79.000000000223153
 30
0.0
 11
-8.3780365121516631
 21
-75.000000000223153
 31
0.0
  0
LINE
  5
443
  8
DATA
  6
CONTINUOUS
 62
     7
 10
-45.868487217594101
 20
-79.000000000223153
 30
0.0
 11
-40.598487217597132
 21
-79.000000000223153
 31
0.0
  0
LINE
  5
444
  8
DATA
  6
CONTINUOUS
 62
     7
 10
-13.64803651214863
 20
-79.000000000223153
 30
0.0
 11
-8.3780365121516631
 21
-79.000000000223153
 31
0.0
  0
LINE
  5
445
  8
DATA
  6
CONTINUOUS
 62
     7
 10
45.762819950542038
 20
-79.000000000223153
 30
0.0
 11
51.032819950539007
 21
-79.000000000223153
 31
0.0
  0
LINE
  5
446
  8
DATA
  6
CONTINUOUS
 62
     7
 10
45.762819950542038
 20
-79.000000000223153
 30
0.0
 11
45.762819950542038
 21
-75.000000000223153
 31
0.0
  0
LINE
  5
447
  8
DATA
  6
CONTINUOUS
 62
     7
 10
51.032819950539007
 20
-79.000000000223153
 30
0.0
 11
51.032819950539007
 21
-75.000000000223153
 31
0.0
  0
LINE
  5
448
  8
DATA
  6
CONTINUOUS
 62
     7
 10
102.9715127824059
 20
-79.000000000223153
 30
0.0
 11
102.9715127824059
 21
-75.000000000223153
 31
0.0
  0
LINE
  5
449
  8
DATA
  6
CONTINUOUS
 62
     7
 10
108.24151278240291
 20
-79.000000000223153
 30
0.0
 11
108.24151278240291
 21
-75.000000000223153
 31
0.0
  0
LINE
  5
44A
  8
DATA
  6
CONTINUOUS
 62
     7
 10
135.1919634878513
 20
-79.000000000223153
 30
0.0
 11
135.1919634878513
 21
-75.000000000223153
 31
0.0
  0
LINE
  5
44B
  8
DATA
  6
CONTINUOUS
 62
     7
 10
140.46196348784829
 20
-79.000000000223153
 30
0.0
 11
140.46196348784829
 21
-75.000000000223153
 31
0.0
  0
LINE
  5
44C
  8
DATA
  6
CONTINUOUS
 62
     7
 10
102.9715127824059
 20
-79.000000000223153
 30
0.0
 11
108.24151278240291
 21
-79.000000000223153
 31
0.0
  0
LINE
  5
44D
  8
DATA
  6
CONTINUOUS
 62
     7
 10
135.1919634878513
 20
-79.000000000223153
 30
0.0
 11
140.46196348784829
 21
-79.000000000223153
 31
0.0
  0
CIRCLE
  5
44E
  8
DATA
  6
CONTINUOUS
 62
     7
 10
-24.244309609731332
 20
231.27479183057349
 30
0.0
 40
2.600000000000021
  0
CIRCLE
  5
44F
  8
DATA
  6
CONTINUOUS
 62
     7
 10
-24.244309609731332
 20
231.27479183057349
 30
0.0
 40
1.6499999999999759
  0
TEXT
  5
450
  8
DATA
 62
     7
 10
-69.06368038172053
 20
209.4347270650191
 30
0.0
 40
2.714735243055554
  1
 CHANNEL ONE 
 50
180.0
 41
0.7
 11
-69.06368038172053
 21
206.71999182196359
 31
0.0
 73
     3
  0
TEXT
  5
451
  8
DATA
 62
     7
 10
-122.1349457167459
 20
212.5025098778745
 30
0.0
 40
1.923828125
  1
 INPUT
 50
180.0
 41
0.7
 11
-122.1349457167459
 21
210.5786817528745
 31
0.0
 73
     3
  0
LINE
  5
452
  8
DATA
  6
CONTINUOUS
 62
     7
 10
-21.54316889413748
 20
216.47208955546651
 30
0.0
 11
-25.893168894137389
 21
216.47208955546651
 31
0.0
  0
LINE
  5
453
  8
DATA
  6
CONTINUOUS
 62
     7
 10
-22.493168894137408
 20
213.67208955546661
 30
0.0
 11
-25.893168894137389
 21
213.67208955546661
 31
0.0
  0
LINE
  5
454
  8
DATA
  6
CONTINUOUS
 62
     7
 10
-25.893168894137389
 20
216.47208955546651
 30
0.0
 11
-26.843168894137431
 21
216.47208955546651
 31
0.0
  0
LINE
  5
455
  8
DATA
  6
CONTINUOUS
 62
     7
 10
-22.493168894137408
 20
213.67208955546661
 30
0.0
 11
-22.143168894137389
 21
216.27208955546661
 31
0.0
  0
LINE
  5
456
  8
DATA
  6
CONTINUOUS
 62
     7
 10
-25.893168894137389
 20
213.67208955546661
 30
0.0
 11
-26.243168894137408
 21
216.27208955546661
 31
0.0
  0
LINE
  5
457
  8
DATA
  6
CONTINUOUS
 62
     7
 10
-26.843168894137431
 20
216.47208955546651
 30
0.0
 11
-26.843168894137431
 21
216.27208955546661
 31
0.0
  0
LINE
  5
458
  8
DATA
  6
CONTINUOUS
 62
     7
 10
-21.54316889413748
 20
216.47208955546651
 30
0.0
 11
-21.54316889413748
 21
216.27208955546661
 31
0.0
  0
LINE
  5
459
  8
DATA
  6
CONTINUOUS
 62
     7
 10
-26.843168894137431
 20
216.27208955546661
 30
0.0
 11
-21.553168894137471
 21
216.27208955546661
 31
0.0
  0
LINE
  5
45A
  8
DATA
  6
CONTINUOUS
 62
     7
 10
-21.54316889413748
 20
221.9820168956704
 30
0.0
 11
-25.893168894137389
 21
221.9820168956704
 31
0.0
  0
LINE
  5
45B
  8
DATA
  6
CONTINUOUS
 62
     7
 10
-25.893168894137389
 20
221.9820168956704
 30
0.0
 11
-26.843168894137431
 21
221.9820168956704
 31
0.0
  0
LINE
  5
45C
  8
DATA
  6
CONTINUOUS
 62
     7
 10
-22.345091971060491
 20
220.28201689567041
 30
0.0
 11
-22.143168894137389
 21
221.78201689567041
 31
0.0
  0
LINE
  5
45D
  8
DATA
  6
CONTINUOUS
 62
     7
 10
-26.041245817214321
 20
220.28201689567041
 30
0.0
 11
-26.243168894137408
 21
221.78201689567041
 31
0.0
  0
LINE
  5
45E
  8
DATA
  6
CONTINUOUS
 62
     7
 10
-26.843168894137431
 20
221.9820168956704
 30
0.0
 11
-26.843168894137431
 21
221.78201689567041
 31
0.0
  0
LINE
  5
45F
  8
DATA
  6
CONTINUOUS
 62
     7
 10
-21.54316889413748
 20
221.9820168956704
 30
0.0
 11
-21.54316889413748
 21
221.78201689567041
 31
0.0
  0
LINE
  5
460
  8
DATA
  6
CONTINUOUS
 62
     7
 10
-26.843168894137431
 20
221.78201689567041
 30
0.0
 11
-21.553168894137471
 21
221.78201689567041
 31
0.0
  0
LINE
  5
461
  8
DATA
  6
CONTINUOUS
 62
     7
 10
-22.345091971060491
 20
220.28201689567041
 30
0.0
 11
-26.041245817214321
 21
220.28201689567041
 31
0.0
  0
TEXT
  5
462
  8
DATA
 62
     7
 10
-114.41546403007401
 20
210.32320902432971
 30
0.0
 40
2.0360514322916661
  1
PUSH
 50
180.0
 41
0.7
 11
-114.41546403007401
 21
208.28715759203811
 31
0.0
 73
     3
  0
ARC
  5
463
  8
DATA
  6
CONTINUOUS
 62
     7
 10
-117.0602348759038
 20
221.99008336434991
 30
0.0
 40
10.899999999999871
 50
289.23581260751109
 51
250.76418739248879
  0
CIRCLE
  5
464
  8
DATA
  6
CONTINUOUS
 62
     7
 10
-117.0602348759038
 20
221.99008336434991
 30
0.0
 40
9.8500000000000227
  0
CIRCLE
  5
465
  8
DATA
  6
CONTINUOUS
 62
     7
 10
-117.0602348759038
 20
221.99008336434991
 30
0.0
 40
7.8500000000000218
  0
CIRCLE
  5
466
  8
DATA
  6
CONTINUOUS
 62
     7
 10
-117.0602348759038
 20
225.91122138549241
 30
0.0
 40
1.264999999999985
  0
CIRCLE
  5
467
  8
DATA
  6
CONTINUOUS
 62
     7
 10
-113.1287532900176
 20
221.99008336434991
 30
0.0
 40
1.264999999999985
  0
CIRCLE
  5
468
  8
DATA
  6
CONTINUOUS
 62
     7
 10
-120.99467929529111
 20
221.99008336434991
 30
0.0
 40
1.264999999999985
  0
ARC
  5
469
  8
DATA
  6
CONTINUOUS
 62
     7
 10
-118.8880924357255
 20
208.97174953776391
 30
0.0
 40
3.172142440178161
 50
93.110794313929901
 51
266.88920568607011
  0
ARC
  5
46A
  8
DATA
  6
CONTINUOUS
 62
     7
 10
-115.23237731608209
 20
208.97174953776391
 30
0.0
 40
3.172142440178161
 50
273.11079431392989
 51
86.889205686070085
  0
LINE
  5
46B
  8
DATA
  6
CONTINUOUS
 62
     7
 10
-115.0602348759038
 20
205.80428136253801
 30
0.0
 11
-119.0602348759038
 21
205.80428136253801
 31
0.0
  0
LINE
  5
46C
  8
DATA
  6
CONTINUOUS
 62
     7
 10
-119.0602348759038
 20
212.13921771298979
 30
0.0
 11
-115.0602348759529
 21
212.13921771298979
 31
0.0
  0
CIRCLE
  5
46D
  8
DATA
  6
CONTINUOUS
 62
     7
 10
-127.04728267485579
 20
231.73000837250851
 30
0.0
 40
2.749999999999984
  0
CIRCLE
  5
46E
  8
DATA
  6
CONTINUOUS
 62
     7
 10
-107.24637940454041
 20
211.928418910179
 30
0.0
 40
2.7499999999999849
  0
CIRCLE
  5
46F
  8
DATA
  6
CONTINUOUS
 62
     7
 10
-72.469716287650868
 20
222.16275663038601
 30
0.0
 40
11.00000000000011
  0
CIRCLE
  5
470
  8
DATA
  6
CONTINUOUS
 62
     7
 10
-72.46962487869294
 20
222.09760075277109
 30
0.0
 40
8.2500000000000409
  0
CIRCLE
  5
471
  8
DATA
  6
CONTINUOUS
 62
     7
 10
-68.473758089089742
 20
222.3799297828628
 30
0.0
 40
1.1749999999999201
  0
CIRCLE
  5
472
  8
DATA
  6
CONTINUOUS
 62
     7
 10
-76.469929778549542
 20
222.362756630386
 30
0.0
 40
1.1749999999999541
  0
CIRCLE
  5
473
  8
DATA
  6
CONTINUOUS
 62
     7
 10
-72.469767165694563
 20
226.04651908872719
 30
0.0
 40
1.1749999999999541
  0
CIRCLE
  5
474
  8
DATA
  6
CONTINUOUS
 62
     7
 10
-82.398898532485802
 20
231.9982913436242
 30
0.0
 40
2.7500000000000462
  0
CIRCLE
  5
475
  8
DATA
  6
CONTINUOUS
 62
     7
 10
-62.601385398485291
 20
212.19649786573129
 30
0.0
 40
2.749999999999984
  0
CIRCLE
  5
476
  8
DATA
  6
CONTINUOUS
 62
     7
 10
-45.469716287650883
 20
222.16275663038601
 30
0.0
 40
11.00000000000011
  0
CIRCLE
  5
477
  8
DATA
  6
CONTINUOUS
 62
     7
 10
-45.469624878692962
 20
222.09760075277109
 30
0.0
 40
8.2500000000000409
  0
CIRCLE
  5
478
  8
DATA
  6
CONTINUOUS
 62
     7
 10
-41.473758089089742
 20
222.3799297828628
 30
0.0
 40
1.1749999999999201
  0
CIRCLE
  5
479
  8
DATA
  6
CONTINUOUS
 62
     7
 10
-49.469929778549542
 20
222.362756630386
 30
0.0
 40
1.1749999999999541
  0
CIRCLE
  5
47A
  8
DATA
  6
CONTINUOUS
 62
     7
 10
-45.469767165694563
 20
226.04651908872719
 30
0.0
 40
1.1749999999999541
  0
CIRCLE
  5
47B
  8
DATA
  6
CONTINUOUS
 62
     7
 10
-55.398898532485802
 20
231.9982913436242
 30
0.0
 40
2.7500000000000462
  0
CIRCLE
  5
47C
  8
DATA
  6
CONTINUOUS
 62
     7
 10
-35.601385398485313
 20
212.19649786573129
 30
0.0
 40
2.749999999999984
  0
ARC
  5
47D
  8
DATA
  6
CONTINUOUS
 62
     7
 10
-33.262022612425227
 20
209.93168987720171
 30
0.0
 40
2.0
 50
270.0
 51
0.0
  0
LINE
  5
47E
  8
DATA
  6
CONTINUOUS
 62
     7
 10
-31.262022612425241
 20
239.93168987720171
 30
0.0
 11
-31.262022612425241
 21
209.93168987720171
 31
0.0
  0
ARC
  5
47F
  8
DATA
  6
CONTINUOUS
 62
     7
 10
-33.262022612425227
 20
239.93168987720171
 30
0.0
 40
2.0
 50
0.0
 51
90.0
  0
LINE
  5
480
  8
DATA
  6
CONTINUOUS
 62
     7
 10
-129.2620226124252
 20
241.93168987720171
 30
0.0
 11
-33.262022612425227
 21
241.93168987720171
 31
0.0
  0
ARC
  5
481
  8
DATA
  6
CONTINUOUS
 62
     7
 10
-129.2620226124252
 20
239.93168987720171
 30
0.0
 40
2.0
 50
90.0
 51
180.0
  0
LINE
  5
482
  8
DATA
  6
CONTINUOUS
 62
     7
 10
-131.2620226124252
 20
209.93168987720171
 30
0.0
 11
-131.2620226124252
 21
239.93168987720171
 31
0.0
  0
ARC
  5
483
  8
DATA
  6
CONTINUOUS
 62
     7
 10
-129.2620226124252
 20
209.93168987720171
 30
0.0
 40
2.0
 50
180.0
 51
270.0
  0
LINE
  5
484
  8
DATA
  6
CONTINUOUS
 62
     7
 10
-121.8848846479503
 20
207.93168987720171
 30
0.0
 11
-129.2620226124252
 21
207.93168987720171
 31
0.0
  0
TEXT
  5
485
  8
DATA
 62
     7
 10
13.58453596992603
 20
210.32320902432971
 30
0.0
 40
2.0360514322916661
  1
PUSH
 50
180.0
 41
0.7
 11
13.58453596992603
 21
208.28715759203811
 31
0.0
 73
     3
  0
ARC
  5
486
  8
DATA
  6
CONTINUOUS
 62
     7
 10
10.93976512409618
 20
221.99008336434991
 30
0.0
 40
10.899999999999871
 50
289.23581260751109
 51
250.76418739248879
  0
CIRCLE
  5
487
  8
DATA
  6
CONTINUOUS
 62
     7
 10
10.93976512409618
 20
221.99008336434991
 30
0.0
 40
9.8500000000000227
  0
CIRCLE
  5
488
  8
DATA
  6
CONTINUOUS
 62
     7
 10
10.93976512409618
 20
221.99008336434991
 30
0.0
 40
7.8500000000000218
  0
CIRCLE
  5
489
  8
DATA
  6
CONTINUOUS
 62
     7
 10
10.93976512409618
 20
225.91122138549241
 30
0.0
 40
1.264999999999985
  0
CIRCLE
  5
48A
  8
DATA
  6
CONTINUOUS
 62
     7
 10
14.871246709982399
 20
221.99008336434991
 30
0.0
 40
1.264999999999985
  0
CIRCLE
  5
48B
  8
DATA
  6
CONTINUOUS
 62
     7
 10
7.005320704708863
 20
221.99008336434991
 30
0.0
 40
1.264999999999985
  0
ARC
  5
48C
  8
DATA
  6
CONTINUOUS
 62
     7
 10
9.1119075642744605
 20
208.97174953776391
 30
0.0
 40
3.172142440178161
 50
93.110794313929901
 51
266.88920568607011
  0
ARC
  5
48D
  8
DATA
  6
CONTINUOUS
 62
     7
 10
12.76762268391791
 20
208.97174953776391
 30
0.0
 40
3.172142440178161
 50
273.11079431392989
 51
86.889205686070085
  0
LINE
  5
48E
  8
DATA
  6
CONTINUOUS
 62
     7
 10
12.93976512409618
 20
205.80428136253801
 30
0.0
 11
8.9397651240961782
 21
205.80428136253801
 31
0.0
  0
LINE
  5
48F
  8
DATA
  6
CONTINUOUS
 62
     7
 10
8.9397651240961782
 20
212.13921771298979
 30
0.0
 11
12.939765124047071
 21
212.13921771298979
 31
0.0
  0
CIRCLE
  5
490
  8
DATA
  6
CONTINUOUS
 62
     7
 10
0.9527173251441212
 20
231.73000837250851
 30
0.0
 40
2.750000000000024
  0
CIRCLE
  5
491
  8
DATA
  6
CONTINUOUS
 62
     7
 10
20.753620595459591
 20
211.928418910179
 30
0.0
 40
2.7499999999999849
  0
CIRCLE
  5
492
  8
DATA
  6
CONTINUOUS
 62
     7
 10
55.530283712349153
 20
222.16275663038601
 30
0.0
 40
11.000000000000121
  0
CIRCLE
  5
493
  8
DATA
  6
CONTINUOUS
 62
     7
 10
55.530375121307102
 20
222.09760075277109
 30
0.0
 40
8.2500000000000568
  0
CIRCLE
  5
494
  8
DATA
  6
CONTINUOUS
 62
     7
 10
59.526241910910301
 20
222.3799297828628
 30
0.0
 40
1.1749999999999201
  0
CIRCLE
  5
495
  8
DATA
  6
CONTINUOUS
 62
     7
 10
51.530070221450487
 20
222.362756630386
 30
0.0
 40
1.1749999999999541
  0
CIRCLE
  5
496
  8
DATA
  6
CONTINUOUS
 62
     7
 10
55.530232834305473
 20
226.04651908872719
 30
0.0
 40
1.1749999999999681
  0
CIRCLE
  5
497
  8
DATA
  6
CONTINUOUS
 62
     7
 10
45.601101467514219
 20
231.9982913436242
 30
0.0
 40
2.7500000000000462
  0
CIRCLE
  5
498
  8
DATA
  6
CONTINUOUS
 62
     7
 10
65.398614601514751
 20
212.19649786573129
 30
0.0
 40
2.749999999999984
  0
CIRCLE
  5
499
  8
DATA
  6
CONTINUOUS
 62
     7
 10
82.530283712349174
 20
222.16275663038601
 30
0.0
 40
11.000000000000099
  0
CIRCLE
  5
49A
  8
DATA
  6
CONTINUOUS
 62
     7
 10
82.53037512130706
 20
222.09760075277109
 30
0.0
 40
8.2500000000000391
  0
CIRCLE
  5
49B
  8
DATA
  6
CONTINUOUS
 62
     7
 10
86.526241910910301
 20
222.3799297828628
 30
0.0
 40
1.1749999999999201
  0
CIRCLE
  5
49C
  8
DATA
  6
CONTINUOUS
 62
     7
 10
78.530070221450501
 20
222.362756630386
 30
0.0
 40
1.1749999999999541
  0
CIRCLE
  5
49D
  8
DATA
  6
CONTINUOUS
 62
     7
 10
82.530232834305494
 20
226.04651908872719
 30
0.0
 40
1.1749999999999541
  0
CIRCLE
  5
49E
  8
DATA
  6
CONTINUOUS
 62
     7
 10
72.601101467514241
 20
231.9982913436242
 30
0.0
 40
2.7500000000000431
  0
CIRCLE
  5
49F
  8
DATA
  6
CONTINUOUS
 62
     7
 10
92.398614601514709
 20
212.19649786573129
 30
0.0
 40
2.749999999999984
  0
ARC
  5
4A0
  8
DATA
  6
CONTINUOUS
 62
     7
 10
94.737977387574844
 20
209.93168987720171
 30
0.0
 40
2.0
 50
270.0
 51
0.0
  0
LINE
  5
4A1
  8
DATA
  6
CONTINUOUS
 62
     7
 10
96.737977387574844
 20
239.93168987720171
 30
0.0
 11
96.737977387574844
 21
209.93168987720171
 31
0.0
  0
ARC
  5
4A2
  8
DATA
  6
CONTINUOUS
 62
     7
 10
94.737977387574844
 20
239.93168987720171
 30
0.0
 40
2.0
 50
0.0
 51
90.0
  0
LINE
  5
4A3
  8
DATA
  6
CONTINUOUS
 62
     7
 10
-1.2620226124252121
 20
241.93168987720171
 30
0.0
 11
94.737977387574844
 21
241.93168987720171
 31
0.0
  0
ARC
  5
4A4
  8
DATA
  6
CONTINUOUS
 62
     7
 10
-1.2620226124252121
 20
239.93168987720171
 30
0.0
 40
2.0
 50
90.0
 51
180.0
  0
LINE
  5
4A5
  8
DATA
  6
CONTINUOUS
 62
     7
 10
-3.262022612425211
 20
209.93168987720171
 30
0.0
 11
-3.262022612425211
 21
239.93168987720171
 31
0.0
  0
ARC
  5
4A6
  8
DATA
  6
CONTINUOUS
 62
     7
 10
-1.2620226124252121
 20
209.93168987720171
 30
0.0
 40
2.0
 50
180.0
 51
270.0
  0
LINE
  5
4A7
  8
DATA
  6
CONTINUOUS
 62
     7
 10
6.1151153520491874
 20
207.93168987720171
 30
0.0
 11
-1.2620226124252121
 21
207.93168987720171
 31
0.0
  0
LINE
  5
4A8
  8
DATA
  6
CONTINUOUS
 62
     7
 10
-29.262022612425241
 20
241.93168987720171
 30
0.0
 11
-19.262022612425209
 21
241.93168987720171
 31
0.0
  0
LINE
  5
4A9
  8
DATA
  6
CONTINUOUS
 62
     7
 10
-17.262022612425209
 20
209.93168987720171
 30
0.0
 11
-17.262022612425209
 21
239.93168987720171
 31
0.0
  0
ARC
  5
4AA
  8
DATA
  6
CONTINUOUS
 62
     7
 10
-19.262022612425209
 20
209.93168987720171
 30
0.0
 40
2.0
 50
270.0
 51
0.0
  0
ARC
  5
4AB
  8
DATA
  6
CONTINUOUS
 62
     7
 10
-19.262022612425209
 20
239.93168987720171
 30
0.0
 40
2.0
 50
0.0
 51
90.0
  0
ARC
  5
4AC
  8
DATA
  6
CONTINUOUS
 62
     7
 10
-29.262022612425241
 20
239.93168987720171
 30
0.0
 40
2.0
 50
90.0
 51
180.0
  0
ARC
  5
4AD
  8
DATA
  6
CONTINUOUS
 62
     7
 10
-29.262022612425241
 20
209.93168987720171
 30
0.0
 40
2.0
 50
180.0
 51
270.0
  0
LINE
  5
4AE
  8
DATA
  6
CONTINUOUS
 62
     7
 10
-5.262022612425211
 20
241.93168987720171
 30
0.0
 11
-15.262022612425209
 21
241.93168987720171
 31
0.0
  0
ARC
  5
4AF
  8
DATA
  6
CONTINUOUS
 62
     7
 10
-5.262022612425211
 20
209.93168987720171
 30
0.0
 40
2.0
 50
270.0
 51
0.0
  0
ARC
  5
4B0
  8
DATA
  6
CONTINUOUS
 62
     7
 10
-15.262022612425209
 20
209.93168987720171
 30
0.0
 40
2.0
 50
180.0
 51
270.0
  0
ARC
  5
4B1
  8
DATA
  6
CONTINUOUS
 62
     7
 10
-5.262022612425211
 20
239.93168987720171
 30
0.0
 40
2.0
 50
0.0
 51
90.0
  0
ARC
  5
4B2
  8
DATA
  6
CONTINUOUS
 62
     7
 10
-15.262022612425209
 20
239.93168987720171
 30
0.0
 40
2.0
 50
90.0
 51
180.0
  0
CIRCLE
  5
4B3
  8
DATA
  6
CONTINUOUS
 62
     7
 10
-10.164090928364899
 20
231.27479183057349
 30
0.0
 40
2.600000000000021
  0
CIRCLE
  5
4B4
  8
DATA
  6
CONTINUOUS
 62
     7
 10
-10.164090928364899
 20
231.27479183057349
 30
0.0
 40
1.6499999999999759
  0
LINE
  5
4B5
  8
DATA
  6
CONTINUOUS
 62
     7
 10
-7.5534009811764919
 20
216.47208955546651
 30
0.0
 11
-11.9034009811764
 21
216.47208955546651
 31
0.0
  0
LINE
  5
4B6
  8
DATA
  6
CONTINUOUS
 62
     7
 10
-8.5034009811764832
 20
213.67208955546661
 30
0.0
 11
-11.9034009811764
 21
213.67208955546661
 31
0.0
  0
LINE
  5
4B7
  8
DATA
  6
CONTINUOUS
 62
     7
 10
-11.9034009811764
 20
216.47208955546651
 30
0.0
 11
-12.853400981176391
 21
216.47208955546651
 31
0.0
  0
LINE
  5
4B8
  8
DATA
  6
CONTINUOUS
 62
     7
 10
-8.5034009811764832
 20
213.67208955546661
 30
0.0
 11
-8.1534009811764605
 21
216.27208955546661
 31
0.0
  0
LINE
  5
4B9
  8
DATA
  6
CONTINUOUS
 62
     7
 10
-11.9034009811764
 20
213.67208955546661
 30
0.0
 11
-12.253400981176419
 21
216.27208955546661
 31
0.0
  0
LINE
  5
4BA
  8
DATA
  6
CONTINUOUS
 62
     7
 10
-12.853400981176391
 20
216.47208955546651
 30
0.0
 11
-12.853400981176391
 21
216.27208955546661
 31
0.0
  0
LINE
  5
4BB
  8
DATA
  6
CONTINUOUS
 62
     7
 10
-7.5534009811764919
 20
216.47208955546651
 30
0.0
 11
-7.5534009811764919
 21
216.27208955546661
 31
0.0
  0
LINE
  5
4BC
  8
DATA
  6
CONTINUOUS
 62
     7
 10
-12.853400981176391
 20
216.27208955546661
 30
0.0
 11
-7.563400981176482
 21
216.27208955546661
 31
0.0
  0
LINE
  5
4BD
  8
DATA
  6
CONTINUOUS
 62
     7
 10
-7.5534009811764919
 20
221.9820168956704
 30
0.0
 11
-11.9034009811764
 21
221.9820168956704
 31
0.0
  0
LINE
  5
4BE
  8
DATA
  6
CONTINUOUS
 62
     7
 10
-11.9034009811764
 20
221.9820168956704
 30
0.0
 11
-12.853400981176391
 21
221.9820168956704
 31
0.0
  0
LINE
  5
4BF
  8
DATA
  6
CONTINUOUS
 62
     7
 10
-8.3553240580995531
 20
220.28201689567041
 30
0.0
 11
-8.1534009811764605
 21
221.78201689567041
 31
0.0
  0
LINE
  5
4C0
  8
DATA
  6
CONTINUOUS
 62
     7
 10
-12.05147790425333
 20
220.28201689567041
 30
0.0
 11
-12.253400981176419
 21
221.78201689567041
 31
0.0
  0
LINE
  5
4C1
  8
DATA
  6
CONTINUOUS
 62
     7
 10
-12.853400981176391
 20
221.9820168956704
 30
0.0
 11
-12.853400981176391
 21
221.78201689567041
 31
0.0
  0
LINE
  5
4C2
  8
DATA
  6
CONTINUOUS
 62
     7
 10
-7.5534009811764919
 20
221.9820168956704
 30
0.0
 11
-7.5534009811764919
 21
221.78201689567041
 31
0.0
  0
LINE
  5
4C3
  8
DATA
  6
CONTINUOUS
 62
     7
 10
-12.853400981176391
 20
221.78201689567041
 30
0.0
 11
-7.563400981176482
 21
221.78201689567041
 31
0.0
  0
LINE
  5
4C4
  8
DATA
  6
CONTINUOUS
 62
     7
 10
-8.3553240580995531
 20
220.28201689567041
 30
0.0
 11
-12.05147790425333
 21
220.28201689567041
 31
0.0
  0
TEXT
  5
4C5
  8
DATA
 62
     7
 10
-112.61858741217679
 20
236.6778399520876
 30
0.0
 40
1.923828125
  1
 INPUT
 50
180.0
 41
0.7
 11
-112.61858741217679
 21
234.7540118270876
 31
0.0
 73
     3
  0
LINE
  5
4C6
  8
DATA
  6
CONTINUOUS
 62
     7
 10
-33.262022612425227
 20
207.93168987720171
 30
0.0
 11
-69.00118038172053
 21
207.93168987720171
 31
0.0
  0
LINE
  5
4C7
  8
DATA
  6
CONTINUOUS
 62
     7
 10
-112.2355851038574
 20
207.93168987720171
 30
0.0
 11
-91.401180381720465
 21
207.93168987720171
 31
0.0
  0
TEXT
  5
4C8
  8
DATA
 62
     7
 10
-50.463701011164893
 20
212.60821183026209
 30
0.0
 40
1.923828125
  1
 HIGH
 50
180.0
 41
0.7
 11
-50.463701011164893
 21
210.68438370526209
 31
0.0
 73
     3
  0
TEXT
  5
4C9
  8
DATA
 62
     7
 10
-78.987327097454724
 20
213.0934701094485
 30
0.0
 40
1.923828125
  1
 LOW/LF SUM
 50
180.0
 41
0.7
 11
-78.987327097454724
 21
211.16964198444859
 31
0.0
 73
     3
  0
TEXT
  5
4CA
  8
DATA
 62
     7
 10
-39.201180381720512
 20
236.26043292163121
 30
0.0
 40
1.923828125
  1
 NOT USED
 50
180.0
 41
0.7
 11
-39.201180381720512
 21
234.33660479663121
 31
0.0
 73
     3
  0
TEXT
  5
4CB
  8
DATA
 62
     7
 10
-69.597626635530034
 20
236.19435854599629
 30
0.0
 40
1.923828125
  1
 LOW
 50
180.0
 41
0.7
 11
-69.597626635530034
 21
234.27053042099629
 31
0.0
 73
     3
  0
TEXT
  5
4CC
  8
DATA
 62
     7
 10
-88.387327097454687
 20
236.0291726069089
 30
0.0
 40
1.923828125
  1
 XOVER FREQ
 50
180.0
 41
0.7
 11
-88.387327097454687
 21
234.10534448190899
 31
0.0
 73
     3
  0
TEXT
  5
4CD
  8
DATA
 62
     7
 10
-88.387327097454687
 20
238.52917260690899
 30
0.0
 40
1.923828125
  1
   LOW/MID
 50
180.0
 41
0.7
 11
-88.387327097454687
 21
236.6053444819089
 31
0.0
 73
     3
  0
CIRCLE
  5
4CE
  8
DATA
  6
CONTINUOUS
 62
     7
 10
-94.896738198982277
 20
229.90093306176459
 30
0.0
 40
2.600000000000021
  0
CIRCLE
  5
4CF
  8
DATA
  6
CONTINUOUS
 62
     7
 10
-94.896738198982277
 20
229.90093306176459
 30
0.0
 40
1.6499999999999759
  0
LINE
  5
4D0
  8
DATA
  6
CONTINUOUS
 62
     7
 10
-89.41339240792972
 20
221.23369730742451
 30
0.0
 11
-93.763392407929629
 21
221.23369730742451
 31
0.0
  0
LINE
  5
4D1
  8
DATA
  6
CONTINUOUS
 62
     7
 10
-90.363392407929723
 20
218.43369730742461
 30
0.0
 11
-93.763392407929629
 21
218.43369730742461
 31
0.0
  0
LINE
  5
4D2
  8
DATA
  6
CONTINUOUS
 62
     7
 10
-93.763392407929629
 20
221.23369730742451
 30
0.0
 11
-94.713392407929689
 21
221.23369730742451
 31
0.0
  0
LINE
  5
4D3
  8
DATA
  6
CONTINUOUS
 62
     7
 10
-90.363392407929723
 20
218.43369730742461
 30
0.0
 11
-90.013392407929686
 21
221.03369730742449
 31
0.0
  0
LINE
  5
4D4
  8
DATA
  6
CONTINUOUS
 62
     7
 10
-93.763392407929629
 20
218.43369730742461
 30
0.0
 11
-94.113392407929652
 21
221.03369730742449
 31
0.0
  0
LINE
  5
4D5
  8
DATA
  6
CONTINUOUS
 62
     7
 10
-94.713392407929689
 20
221.23369730742451
 30
0.0
 11
-94.713392407929689
 21
221.03369730742449
 31
0.0
  0
LINE
  5
4D6
  8
DATA
  6
CONTINUOUS
 62
     7
 10
-89.41339240792972
 20
221.23369730742451
 30
0.0
 11
-89.41339240792972
 21
221.03369730742449
 31
0.0
  0
LINE
  5
4D7
  8
DATA
  6
CONTINUOUS
 62
     7
 10
-94.713392407929689
 20
221.03369730742449
 30
0.0
 11
-89.423392407929711
 21
221.03369730742449
 31
0.0
  0
LINE
  5
4D8
  8
DATA
  6
CONTINUOUS
 62
     7
 10
-89.41339240792972
 20
224.22913185771171
 30
0.0
 11
-93.763392407929629
 21
224.22913185771171
 31
0.0
  0
LINE
  5
4D9
  8
DATA
  6
CONTINUOUS
 62
     7
 10
-93.763392407929629
 20
224.22913185771171
 30
0.0
 11
-94.713392407929689
 21
224.22913185771171
 31
0.0
  0
LINE
  5
4DA
  8
DATA
  6
CONTINUOUS
 62
     7
 10
-90.215315484852766
 20
222.52913185771169
 30
0.0
 11
-90.013392407929686
 21
224.02913185771169
 31
0.0
  0
LINE
  5
4DB
  8
DATA
  6
CONTINUOUS
 62
     7
 10
-93.911469331006572
 20
222.52913185771169
 30
0.0
 11
-94.113392407929652
 21
224.02913185771169
 31
0.0
  0
LINE
  5
4DC
  8
DATA
  6
CONTINUOUS
 62
     7
 10
-94.713392407929689
 20
224.22913185771171
 30
0.0
 11
-94.713392407929689
 21
224.02913185771169
 31
0.0
  0
LINE
  5
4DD
  8
DATA
  6
CONTINUOUS
 62
     7
 10
-89.41339240792972
 20
224.22913185771171
 30
0.0
 11
-89.41339240792972
 21
224.02913185771169
 31
0.0
  0
LINE
  5
4DE
  8
DATA
  6
CONTINUOUS
 62
     7
 10
-94.713392407929689
 20
224.02913185771169
 30
0.0
 11
-89.423392407929711
 21
224.02913185771169
 31
0.0
  0
LINE
  5
4DF
  8
DATA
  6
CONTINUOUS
 62
     7
 10
-90.215315484852766
 20
222.52913185771169
 30
0.0
 11
-93.911469331006572
 21
222.52913185771169
 31
0.0
  0
TEXT
  5
4E0
  8
DATA
 62
     7
 10
-88.56992006699835
 20
216.31087713990499
 30
0.0
 40
1.923828125
  1
 LOW/HIGH
 50
180.0
 41
0.7
 11
-88.56992006699835
 21
214.38704901490499
 31
0.0
 73
     3
  0
TEXT
  5
4E1
  8
DATA
 62
     7
 10
-96.350736163446683
 20
221.00998870335741
 30
0.0
 40
1.923828125
  1
X1
 50
180.0
 41
0.7
 11
-96.350736163446683
 21
219.08616057835741
 31
0.0
 73
     3
  0
TEXT
  5
4E2
  8
DATA
 62
     7
 10
-96.350736163446683
 20
223.50998870335741
 30
0.0
 40
1.923828125
  1
X10
 50
180.0
 41
0.7
 11
-96.350736163446683
 21
221.58616057835741
 31
0.0
 73
     3
  0
TEXT
  5
4E3
  8
DATA
 62
     7
 10
59.092621191890089
 20
209.4347270650191
 30
0.0
 40
2.714735243055554
  1
 CHANNEL TWO 
 50
180.0
 41
0.7
 11
59.092621191890089
 21
206.71999182196359
 31
0.0
 73
     3
  0
TEXT
  5
4E4
  8
DATA
 62
     7
 10
6.0213558568646999
 20
212.5025098778745
 30
0.0
 40
1.923828125
  1
 INPUT
 50
180.0
 41
0.7
 11
6.0213558568646999
 21
210.5786817528745
 31
0.0
 73
     3
  0
TEXT
  5
4E5
  8
DATA
 62
     7
 10
17.16897447615586
 20
236.6778399520876
 30
0.0
 40
1.923828125
  1
 NOT USED
 50
180.0
 41
0.7
 11
17.16897447615586
 21
234.7540118270876
 31
0.0
 73
     3
  0
TEXT
  5
4E6
  8
DATA
 62
     7
 10
77.692600562445705
 20
212.60821183026209
 30
0.0
 40
1.923828125
  1
 HIGH
 50
180.0
 41
0.7
 11
77.692600562445705
 21
210.68438370526209
 31
0.0
 73
     3
  0
TEXT
  5
4E7
  8
DATA
 62
     7
 10
49.16897447615586
 20
213.0934701094485
 30
0.0
 40
1.923828125
  1
 LOW
 50
180.0
 41
0.7
 11
49.16897447615586
 21
211.16964198444859
 31
0.0
 73
     3
  0
TEXT
  5
4E8
  8
DATA
 62
     7
 10
85.809119156354583
 20
236.26043292163121
 30
0.0
 40
1.923828125
  1
 HIGH
 50
180.0
 41
0.7
 11
85.809119156354583
 21
234.33660479663121
 31
0.0
 73
     3
  0
TEXT
  5
4E9
  8
DATA
 62
     7
 10
58.558674938080571
 20
236.19435854599629
 30
0.0
 40
1.923828125
  1
 MID
 50
180.0
 41
0.7
 11
58.558674938080571
 21
234.27053042099629
 31
0.0
 73
     3
  0
TEXT
  5
4EA
  8
DATA
 62
     7
 10
39.76897447615589
 20
236.0291726069089
 30
0.0
 40
1.923828125
  1
 XOVER FREQ
 50
180.0
 41
0.7
 11
39.76897447615589
 21
234.10534448190899
 31
0.0
 73
     3
  0
TEXT
  5
4EB
  8
DATA
 62
     7
 10
39.76897447615589
 20
238.52917260690899
 30
0.0
 40
1.923828125
  1
   MID/HIGH
 50
180.0
 41
0.7
 11
39.76897447615589
 21
236.6053444819089
 31
0.0
 73
     3
  0
CIRCLE
  5
4EC
  8
DATA
  6
CONTINUOUS
 62
     7
 10
33.259563374628321
 20
229.90093306176459
 30
0.0
 40
2.600000000000021
  0
CIRCLE
  5
4ED
  8
DATA
  6
CONTINUOUS
 62
     7
 10
33.259563374628321
 20
229.90093306176459
 30
0.0
 40
1.6499999999999759
  0
LINE
  5
4EE
  8
DATA
  6
CONTINUOUS
 62
     7
 10
38.742909165680871
 20
221.23369730742451
 30
0.0
 11
34.392909165680962
 21
221.23369730742451
 31
0.0
  0
LINE
  5
4EF
  8
DATA
  6
CONTINUOUS
 62
     7
 10
37.792909165680889
 20
218.43369730742461
 30
0.0
 11
34.392909165680962
 21
218.43369730742461
 31
0.0
  0
LINE
  5
4F0
  8
DATA
  6
CONTINUOUS
 62
     7
 10
34.392909165680962
 20
221.23369730742451
 30
0.0
 11
33.442909165680923
 21
221.23369730742451
 31
0.0
  0
LINE
  5
4F1
  8
DATA
  6
CONTINUOUS
 62
     7
 10
37.792909165680889
 20
218.43369730742461
 30
0.0
 11
38.142909165680898
 21
221.03369730742449
 31
0.0
  0
LINE
  5
4F2
  8
DATA
  6
CONTINUOUS
 62
     7
 10
34.392909165680962
 20
218.43369730742461
 30
0.0
 11
34.042909165680932
 21
221.03369730742449
 31
0.0
  0
LINE
  5
4F3
  8
DATA
  6
CONTINUOUS
 62
     7
 10
33.442909165680923
 20
221.23369730742451
 30
0.0
 11
33.442909165680923
 21
221.03369730742449
 31
0.0
  0
LINE
  5
4F4
  8
DATA
  6
CONTINUOUS
 62
     7
 10
38.742909165680871
 20
221.23369730742451
 30
0.0
 11
38.742909165680871
 21
221.03369730742449
 31
0.0
  0
LINE
  5
4F5
  8
DATA
  6
CONTINUOUS
 62
     7
 10
33.442909165680923
 20
221.03369730742449
 30
0.0
 11
38.73290916568088
 21
221.03369730742449
 31
0.0
  0
LINE
  5
4F6
  8
DATA
  6
CONTINUOUS
 62
     7
 10
38.742909165680871
 20
224.22913185771171
 30
0.0
 11
34.392909165680962
 21
224.22913185771171
 31
0.0
  0
LINE
  5
4F7
  8
DATA
  6
CONTINUOUS
 62
     7
 10
34.392909165680962
 20
224.22913185771171
 30
0.0
 11
33.442909165680923
 21
224.22913185771171
 31
0.0
  0
LINE
  5
4F8
  8
DATA
  6
CONTINUOUS
 62
     7
 10
37.940986088757811
 20
222.52913185771169
 30
0.0
 11
38.142909165680898
 21
224.02913185771169
 31
0.0
  0
LINE
  5
4F9
  8
DATA
  6
CONTINUOUS
 62
     7
 10
34.244832242604033
 20
222.52913185771169
 30
0.0
 11
34.042909165680932
 21
224.02913185771169
 31
0.0
  0
LINE
  5
4FA
  8
DATA
  6
CONTINUOUS
 62
     7
 10
33.442909165680923
 20
224.22913185771171
 30
0.0
 11
33.442909165680923
 21
224.02913185771169
 31
0.0
  0
LINE
  5
4FB
  8
DATA
  6
CONTINUOUS
 62
     7
 10
38.742909165680871
 20
224.22913185771171
 30
0.0
 11
38.742909165680871
 21
224.02913185771169
 31
0.0
  0
LINE
  5
4FC
  8
DATA
  6
CONTINUOUS
 62
     7
 10
33.442909165680923
 20
224.02913185771169
 30
0.0
 11
38.73290916568088
 21
224.02913185771169
 31
0.0
  0
LINE
  5
4FD
  8
DATA
  6
CONTINUOUS
 62
     7
 10
37.940986088757811
 20
222.52913185771169
 30
0.0
 11
34.244832242604033
 21
222.52913185771169
 31
0.0
  0
TEXT
  5
4FE
  8
DATA
 62
     7
 10
39.586381506612263
 20
216.31087713990499
 30
0.0
 40
1.923828125
  1
 LOW/HIGH
 50
180.0
 41
0.7
 11
39.586381506612263
 21
214.38704901490499
 31
0.0
 73
     3
  0
TEXT
  5
4FF
  8
DATA
 62
     7
 10
31.805565410163911
 20
221.00998870335741
 30
0.0
 40
1.923828125
  1
X1
 50
180.0
 41
0.7
 11
31.805565410163911
 21
219.08616057835741
 31
0.0
 73
     3
  0
TEXT
  5
500
  8
DATA
 62
     7
 10
31.805565410163911
 20
223.50998870335741
 30
0.0
 40
1.923828125
  1
X10
 50
180.0
 41
0.7
 11
31.805565410163911
 21
221.58616057835741
 31
0.0
 73
     3
  0
LINE
  5
501
  8
DATA
  6
CONTINUOUS
 62
     7
 10
94.737977387574844
 20
207.93168987720171
 30
0.0
 11
59.198819618279572
 21
207.93168987720171
 31
0.0
  0
LINE
  5
502
  8
DATA
  6
CONTINUOUS
 62
     7
 10
15.76441489614284
 20
207.93168987720171
 30
0.0
 11
36.198819618279572
 21
207.93168987720171
 31
0.0
  0
TEXT
  5
503
  8
DATA
 62
     7
 10
-6.8680250028819634
 20
209.21375894888399
 30
0.0
 40
2.7318359375000001
  1
MODE
 50
180.0
 41
0.7
 11
-6.8680250028819643
 21
206.481923011384
 31
0.0
 73
     3
  0
TEXT
  5
504
  8
DATA
 62
     7
 10
-18.857941907803038
 20
209.21375894888399
 30
0.0
 40
2.7318359375000001
  1
LF SUM
 50
180.0
 41
0.7
 11
-18.857941907803038
 21
206.481923011384
 31
0.0
 73
     3
  0
TEXT
  5
505
  8
DATA
 62
     7
 10
-5.4972065611498371
 20
212.06752047496639
 30
0.0
 40
1.923828125
  1
 STEREO
 50
180.0
 41
0.7
 11
-5.4972065611498371
 21
210.14369234996639
 31
0.0
 73
     3
  0
TEXT
  5
506
  8
DATA
 62
     7
 10
-18.83540348752787
 20
212.00571740134441
 30
0.0
 40
1.923828125
  1
 LOW SUM
 50
180.0
 41
0.7
 11
-18.83540348752787
 21
210.08188927634441
 31
0.0
 73
     3
  0
TEXT
  5
507
  8
DATA
 62
     7
 10
-5.4348696240433707
 20
219.27706970656101
 30
0.0
 40
1.923828125
  1
 STEREO
 50
180.0
 41
0.7
 11
-5.4348696240433707
 21
217.35324158156101
 31
0.0
 73
     3
  0
TEXT
  5
508
  8
DATA
 62
     7
 10
-19.59560497069652
 20
219.38661893815541
 30
0.0
 40
1.923828125
  1
 NORMAL
 50
180.0
 41
0.7
 11
-19.59560497069652
 21
217.46279081315541
 31
0.0
 73
     3
  0
TEXT
  5
509
  8
DATA
 62
     7
 10
-6.5534342237479688
 20
224.977069706561
 30
0.0
 40
1.923828125
  1
 MONO
 50
180.0
 41
0.7
 11
-6.5534342237479688
 21
223.053241581561
 31
0.0
 73
     3
  0
TEXT
  5
50A
  8
DATA
 62
     7
 10
-19.396672697665391
 20
225.157971243372
 30
0.0
 40
1.923828125
  1
 SUMMED
 50
180.0
 41
0.7
 11
-19.396672697665391
 21
223.234143118372
 31
0.0
 73
     3
  0
TEXT
  5
50B
  8
DATA
 62
     7
 10
-6.5534342237479688
 20
237.23833891669841
 30
0.0
 40
1.923828125
  1
 MONO
 50
180.0
 41
0.7
 11
-6.5534342237479688
 21
235.31451079169841
 31
0.0
 73
     3
  0
TEXT
  5
50C
  8
DATA
 62
     7
 10
-17.949460403177351
 20
237.41924045350939
 30
0.0
 40
1.923828125
  1
 NOT USED
 50
180.0
 41
0.7
 11
-17.949460403177351
 21
235.4954123285093
 31
0.0
 73
     3
  0
CIRCLE
  5
50D
  8
DATA
  6
CONTINUOUS
 62
     7
 10
143.99943502293871
 20
220.10704684977179
 30
0.0
 40
3.350000000000021
  0
CIRCLE
  5
50E
  8
DATA
  6
CONTINUOUS
 62
     7
 10
110.9994350229387
 20
220.10704684977179
 30
0.0
 40
3.350000000000025
  0
TEXT
  5
50F
  8
DATA
 62
     7
 10
-120.9627858042028
 20
-185.93058638714871
 30
0.0
 40
2.693359375
  1
CHANNEL ONE
 41
0.7
 11
-120.9627858042028
 21
-183.23722701214871
 31
0.0
 73
     3
  0
TEXT
  5
510
  8
DATA
 62
     7
 10
28.011759403325591
 20
-185.87109873608759
 30
0.0
 40
2.693359375
  1
CHANNEL TWO
 41
0.7
 11
28.011759403325591
 21
-183.17773936108759
 31
0.0
 73
     3
  0
TEXT
  5
511
  8
DATA
 62
     7
 10
-30.28930459347125
 20
-211.8169415738636
 30
0.0
 40
1.846875
  1
-∞
 41
0.7
 11
-30.28930459347125
 21
-209.97006657386359
 31
0.0
 73
     3
  0
TEXT
  5
512
  8
DATA
 62
     7
 10
85.979027465961494
 20
-211.49561098139731
 30
0.0
 40
1.846875
  1
-∞
 41
0.7
 11
85.979027465961494
 21
-209.64873598139729
 31
0.0
 73
     3
  0
TEXT
  5
513
  8
DATA
 62
     7
 10
118.2316109862945
 20
-211.6114164746196
 30
0.0
 40
1.846875
  1
-∞
 41
0.7
 11
118.2316109862945
 21
-209.76454147461959
 31
0.0
 73
     3
  0
LINE
  5
514
  8
DATA
  6
CONTINUOUS
 62
     7
 10
-119.3958481799754
 20
78.822927197905614
 30
0.0
 11
-119.3958481799754
 21
75.822927197906381
 31
0.0
  0
LINE
  5
515
  8
DATA
  6
CONTINUOUS
 62
     7
 10
-114.59584817998299
 20
78.822927197905614
 30
0.0
 11
-114.59584817998299
 21
75.822927197906381
 31
0.0
  0
LINE
  5
516
  8
DATA
  6
CONTINUOUS
 62
     7
 10
-121.89584817997201
 20
78.822927197905614
 30
0.0
 11
-112.09584817998299
 21
78.822927197905614
 31
0.0
  0
LINE
  5
517
  8
DATA
  6
CONTINUOUS
 62
     7
 10
-121.89584817997201
 20
79.022927197905702
 30
0.0
 11
-112.09584817998299
 21
79.022927197905702
 31
0.0
  0
LINE
  5
518
  8
DATA
  6
CONTINUOUS
 62
     7
 10
-121.89584817997201
 20
78.822927197905614
 30
0.0
 11
-121.89584817997201
 21
79.022927197905702
 31
0.0
  0
LINE
  5
519
  8
DATA
  6
CONTINUOUS
 62
     7
 10
-112.09584817998299
 20
78.822927197905614
 30
0.0
 11
-112.09584817998299
 21
79.022927197905702
 31
0.0
  0
LINE
  5
51A
  8
DATA
  6
CONTINUOUS
 62
     7
 10
-119.3958481799754
 20
75.822927197906381
 30
0.0
 11
-119.3958481799754
 21
74.999999999776293
 31
0.0
  0
LINE
  5
51B
  8
DATA
  6
CONTINUOUS
 62
     7
 10
-114.59584817998299
 20
75.822927197906381
 30
0.0
 11
-114.59584817998299
 21
74.999999999776293
 31
0.0
  0
LINE
  5
51C
  8
DATA
  6
CONTINUOUS
 62
     7
 10
8.7841518200246327
 20
78.822927197905614
 30
0.0
 11
8.7841518200246327
 21
75.822927197906381
 31
0.0
  0
LINE
  5
51D
  8
DATA
  6
CONTINUOUS
 62
     7
 10
13.58415182001708
 20
78.822927197905614
 30
0.0
 11
13.58415182001708
 21
75.822927197906381
 31
0.0
  0
LINE
  5
51E
  8
DATA
  6
CONTINUOUS
 62
     7
 10
6.2841518200279278
 20
78.822927197905614
 30
0.0
 11
16.08415182001708
 21
78.822927197905614
 31
0.0
  0
LINE
  5
51F
  8
DATA
  6
CONTINUOUS
 62
     7
 10
6.2841518200279278
 20
79.022927197905702
 30
0.0
 11
16.08415182001708
 21
79.022927197905702
 31
0.0
  0
LINE
  5
520
  8
DATA
  6
CONTINUOUS
 62
     7
 10
6.2841518200279278
 20
78.822927197905614
 30
0.0
 11
6.2841518200279278
 21
79.022927197905702
 31
0.0
  0
LINE
  5
521
  8
DATA
  6
CONTINUOUS
 62
     7
 10
16.08415182001708
 20
78.822927197905614
 30
0.0
 11
16.08415182001708
 21
79.022927197905702
 31
0.0
  0
LINE
  5
522
  8
DATA
  6
CONTINUOUS
 62
     7
 10
8.7841518200246327
 20
75.822927197906381
 30
0.0
 11
8.7841518200246327
 21
74.999999999776293
 31
0.0
  0
LINE
  5
523
  8
DATA
  6
CONTINUOUS
 62
     7
 10
13.58415182001708
 20
75.822927197906381
 30
0.0
 11
13.58415182001708
 21
74.999999999776293
 31
0.0
  0
LINE
  5
524
  8
DATA
  6
CONTINUOUS
 62
     7
 10
-26.682296564528951
 20
77.499999999776293
 30
0.0
 11
-21.482296564529008
 21
77.499999999776293
 31
0.0
  0
LINE
  5
525
  8
DATA
  6
CONTINUOUS
 62
     7
 10
-12.60207788316252
 20
77.499999999776293
 30
0.0
 11
-7.4020778831624758
 21
77.499999999776293
 31
0.0
  0
LINE
  5
526
  8
DATA
  6
CONTINUOUS
 62
     7
 10
-26.682296564528951
 20
77.499999999776293
 30
0.0
 11
-26.682296564528951
 21
74.999999999776293
 31
0.0
  0
LINE
  5
527
  8
DATA
  6
CONTINUOUS
 62
     7
 10
-21.482296564529008
 20
77.499999999776293
 30
0.0
 11
-21.482296564529008
 21
74.999999999776293
 31
0.0
  0
LINE
  5
528
  8
DATA
  6
CONTINUOUS
 62
     7
 10
-12.60207788316252
 20
77.499999999776293
 30
0.0
 11
-12.60207788316252
 21
74.999999999776293
 31
0.0
  0
LINE
  5
529
  8
DATA
  6
CONTINUOUS
 62
     7
 10
-7.4020778831624758
 20
77.499999999776293
 30
0.0
 11
-7.4020778831624758
 21
74.999999999776293
 31
0.0
  0
LINE
  5
52A
  8
DATA
  6
CONTINUOUS
 62
     7
 10
257.99999999985027
 20
-224.9999999949525
 30
0.0
 11
257.99999999985027
 21
-179.99900601865269
 31
0.0
  0
LINE
  5
52B
  8
DATA
  6
CONTINUOUS
 62
     7
 10
-124.0000000001497
 20
-186.99900601865269
 30
0.0
 11
6.958702426322132
 21
-186.99900601865269
 31
0.0
  0
LINE
  5
52C
  8
DATA
  6
CONTINUOUS
 62
     7
 10
26.95870242632213
 20
-186.99900601865269
 30
0.0
 11
155.9999999998503
 21
-186.99900601865269
 31
0.0
  0
LINE
  5
52D
  8
DATA
  6
CONTINUOUS
 62
     7
 10
155.9999999998503
 20
-220.9999999949525
 30
0.0
 11
26.95870242632213
 21
-220.9999999949525
 31
0.0
  0
LINE
  5
52E
  8
DATA
  6
CONTINUOUS
 62
     7
 10
6.958702426322132
 20
-220.9999999949525
 30
0.0
 11
-124.0000000001497
 21
-220.9999999949525
 31
0.0
  0
LINE
  5
52F
  8
DATA
  6
CONTINUOUS
 62
     7
 10
-126.0000000001497
 20
-218.9999999949525
 30
0.0
 11
-126.0000000001497
 21
-188.99900601865269
 31
0.0
  0
LINE
  5
530
  8
DATA
  6
CONTINUOUS
 62
     7
 10
8.9587024263221338
 20
-188.99900601865269
 30
0.0
 11
8.9587024263221338
 21
-218.9999999949525
 31
0.0
  0
LINE
  5
531
  8
DATA
  6
CONTINUOUS
 62
     7
 10
24.95870242632213
 20
-188.99900601865269
 30
0.0
 11
24.95870242632213
 21
-218.9999999949525
 31
0.0
  0
LINE
  5
532
  8
DATA
  6
CONTINUOUS
 62
     7
 10
157.9999999998503
 20
-218.9999999949525
 30
0.0
 11
157.9999999998503
 21
-188.99900601865269
 31
0.0
  0
ARC
  5
533
  8
DATA
  6
CONTINUOUS
 62
     7
 10
155.9999999998503
 20
-188.99900601865269
 30
0.0
 40
2.0
 50
0.0
 51
90.0
  0
ARC
  5
534
  8
DATA
  6
CONTINUOUS
 62
     7
 10
155.9999999998503
 20
-218.9999999949525
 30
0.0
 40
2.0
 50
270.0
 51
0.0
  0
ARC
  5
535
  8
DATA
  6
CONTINUOUS
 62
     7
 10
26.95870242632213
 20
-188.99900601865269
 30
0.0
 40
2.0
 50
90.0
 51
180.0
  0
ARC
  5
536
  8
DATA
  6
CONTINUOUS
 62
     7
 10
26.95870242632213
 20
-218.9999999949525
 30
0.0
 40
2.0
 50
180.0
 51
270.0
  0
ARC
  5
537
  8
DATA
  6
CONTINUOUS
 62
     7
 10
6.958702426322132
 20
-188.99900601865269
 30
0.0
 40
2.0
 50
0.0
 51
90.0
  0
ARC
  5
538
  8
DATA
  6
CONTINUOUS
 62
     7
 10
6.958702426322132
 20
-218.9999999949525
 30
0.0
 40
2.0
 50
270.0
 51
0.0
  0
ARC
  5
539
  8
DATA
  6
CONTINUOUS
 62
     7
 10
-124.0000000001497
 20
-188.99900601865269
 30
0.0
 40
2.0
 50
90.0
 51
180.0
  0
ARC
  5
53A
  8
DATA
  6
CONTINUOUS
 62
     7
 10
-124.0000000001497
 20
-218.9999999949525
 30
0.0
 40
2.0
 50
180.0
 51
270.0
  0
LINE
  5
53B
  8
DATA
  6
CONTINUOUS
 62
     7
 10
-127.04728267485579
 20
229.9784189101789
 30
0.0
 11
-127.04728267485579
 21
233.47841891017879
 31
0.0
  0
LINE
  5
53C
  8
DATA
  6
CONTINUOUS
 62
     7
 10
-128.770139390602
 20
231.72841891017879
 30
0.0
 11
-125.2701393906019
 21
231.72841891017879
 31
0.0
  0
LINE
  5
53D
  8
DATA
  6
CONTINUOUS
 62
     7
 10
-107.24637940454041
 20
210.17682944784929
 30
0.0
 11
-107.24637940454041
 21
213.67682944784929
 31
0.0
  0
LINE
  5
53E
  8
DATA
  6
CONTINUOUS
 62
     7
 10
-108.9692361202865
 20
211.928418910179
 30
0.0
 11
-105.4692361202865
 21
211.928418910179
 31
0.0
  0
LINE
  5
53F
  8
DATA
  6
CONTINUOUS
 62
     7
 10
-108.9692361202865
 20
211.928418910179
 30
0.0
 11
-105.4692361202865
 21
211.928418910179
 31
0.0
  0
LINE
  5
540
  8
DATA
  6
CONTINUOUS
 62
     7
 10
-107.24637940454041
 20
210.17682944784929
 30
0.0
 11
-107.24637940454041
 21
213.67682944784929
 31
0.0
  0
LINE
  5
541
  8
DATA
  6
CONTINUOUS
 62
     7
 10
-82.398898532485802
 20
230.24670188129451
 30
0.0
 11
-82.398898532485802
 21
233.74670188129451
 31
0.0
  0
LINE
  5
542
  8
DATA
  6
CONTINUOUS
 62
     7
 10
-84.121755248231949
 20
231.9982913436242
 30
0.0
 11
-80.621755248231807
 21
231.99670188129451
 31
0.0
  0
LINE
  5
543
  8
DATA
  6
CONTINUOUS
 62
     7
 10
-62.601385398485291
 20
210.44490840340171
 30
0.0
 11
-62.601385398485291
 21
213.9449084034016
 31
0.0
  0
LINE
  5
544
  8
DATA
  6
CONTINUOUS
 62
     7
 10
-64.324242114231239
 20
212.19649786573129
 30
0.0
 11
-60.824242114231339
 21
212.1949084034016
 31
0.0
  0
LINE
  5
545
  8
DATA
  6
CONTINUOUS
 62
     7
 10
-55.398898532485802
 20
230.24670188129451
 30
0.0
 11
-55.398898532485802
 21
233.74670188129451
 31
0.0
  0
LINE
  5
546
  8
DATA
  6
CONTINUOUS
 62
     7
 10
-57.121755248231963
 20
231.9982913436242
 30
0.0
 11
-53.62175524823185
 21
231.9982913436242
 31
0.0
  0
LINE
  5
547
  8
DATA
  6
CONTINUOUS
 62
     7
 10
-35.601385398485313
 20
210.44490840340171
 30
0.0
 11
-35.601385398485313
 21
213.9449084034016
 31
0.0
  0
LINE
  5
548
  8
DATA
  6
CONTINUOUS
 62
     7
 10
-37.324242114231247
 20
212.1949084034016
 30
0.0
 11
-33.82424211423136
 21
212.1949084034016
 31
0.0
  0
LINE
  5
549
  8
DATA
  6
CONTINUOUS
 62
     7
 10
-0.7701393906019263
 20
231.72841891017879
 30
0.0
 11
2.729860609398072
 21
231.72841891017879
 31
0.0
  0
LINE
  5
54A
  8
DATA
  6
CONTINUOUS
 62
     7
 10
0.9527173251441212
 20
229.9784189101789
 30
0.0
 11
0.9527173251441212
 21
233.47841891017879
 31
0.0
  0
LINE
  5
54B
  8
DATA
  6
CONTINUOUS
 62
     7
 10
20.753620595459591
 20
210.17682944784929
 30
0.0
 11
20.753620595459591
 21
213.67682944784929
 31
0.0
  0
LINE
  5
54C
  8
DATA
  6
CONTINUOUS
 62
     7
 10
19.03076387971355
 20
211.92682944784929
 30
0.0
 11
22.53076387971355
 21
211.92682944784929
 31
0.0
  0
LINE
  5
54D
  8
DATA
  6
CONTINUOUS
 62
     7
 10
43.878244751768072
 20
231.99670188129451
 30
0.0
 11
47.378244751768172
 21
231.99670188129451
 31
0.0
  0
LINE
  5
54E
  8
DATA
  6
CONTINUOUS
 62
     7
 10
45.601101467514219
 20
230.24670188129451
 30
0.0
 11
45.601101467514219
 21
233.74670188129451
 31
0.0
  0
LINE
  5
54F
  8
DATA
  6
CONTINUOUS
 62
     7
 10
72.601101467514241
 20
230.24670188129451
 30
0.0
 11
72.601101467514241
 21
233.74670188129451
 31
0.0
  0
LINE
  5
550
  8
DATA
  6
CONTINUOUS
 62
     7
 10
70.878244751768094
 20
231.99670188129451
 30
0.0
 11
74.378244751768193
 21
231.99670188129451
 31
0.0
  0
LINE
  5
551
  8
DATA
  6
CONTINUOUS
 62
     7
 10
65.398614601514751
 20
210.44490840340171
 30
0.0
 11
65.398614601514751
 21
213.9449084034016
 31
0.0
  0
LINE
  5
552
  8
DATA
  6
CONTINUOUS
 62
     7
 10
63.675757885768817
 20
212.1949084034016
 30
0.0
 11
67.175757885768704
 21
212.1949084034016
 31
0.0
  0
LINE
  5
553
  8
DATA
  6
CONTINUOUS
 62
     7
 10
92.398614601514709
 20
210.44490840340171
 30
0.0
 11
92.398614601514709
 21
213.9449084034016
 31
0.0
  0
LINE
  5
554
  8
DATA
  6
CONTINUOUS
 62
     7
 10
90.675757885768789
 20
212.1949084034016
 30
0.0
 11
94.175757885768746
 21
212.1949084034016
 31
0.0
  0
LINE
  5
555
  8
DATA
  6
CONTINUOUS
 62
     7
 10
110.9994350229387
 20
217.95704684977181
 30
0.0
 11
110.9994350229387
 21
222.2570468497718
 31
0.0
  0
LINE
  5
556
  8
DATA
  6
CONTINUOUS
 62
     7
 10
108.84943502293871
 20
220.10704684977179
 30
0.0
 11
113.1494350229387
 21
220.10704684977179
 31
0.0
  0
LINE
  5
557
  8
DATA
  6
CONTINUOUS
 62
     7
 10
141.84943502293871
 20
220.10704684977179
 30
0.0
 11
146.14943502293869
 21
220.10704684977179
 31
0.0
  0
LINE
  5
558
  8
DATA
  6
CONTINUOUS
 62
     7
 10
143.99943502293871
 20
217.95704684977181
 30
0.0
 11
143.99943502293871
 21
222.2570468497718
 31
0.0
  0
LINE
  5
559
  8
DATA
  6
CONTINUOUS
 62
     7
 10
223.44404047946861
 20
233.3704898454107
 30
0.0
 11
223.38437213424919
 21
233.3704898454107
 31
0.0
  0
LINE
  5
55A
  8
DATA
  6
CONTINUOUS
 62
     7
 10
226.1213495607893
 20
230.70493739531241
 30
0.0
 11
226.1213495607893
 21
230.76305267737479
 31
0.0
  0
POLYLINE
  5
55B
  8
DATA
  6
CONTINUOUS
 62
     7
 66
     1
 10
0.0
 20
0.0
 30
0.0
  0
VERTEX
  5
6EF
  8
DATA
  6
CONTINUOUS
 62
     7
 10
226.1213495607893
 20
212.682942192707
 30
0.0
  0
VERTEX
  5
6F0
  8
DATA
  6
CONTINUOUS
 62
     7
 10
226.1213495607893
 20
212.71431748183861
 30
0.0
  0
VERTEX
  5
6F1
  8
DATA
  6
CONTINUOUS
 62
     7
 10
226.1213495607893
 20
212.71431748183861
 30
0.0
  0
SEQEND
  5
6F2
  8
DATA
  6
CONTINUOUS
 62
     7
  0
POLYLINE
  5
561
  8
DATA
  6
CONTINUOUS
 62
     7
 66
     1
 10
0.0
 20
0.0
 30
0.0
  0
VERTEX
  5
6F3
  8
DATA
  6
CONTINUOUS
 62
     7
 10
198.01069248891429
 20
210.0487650317373
 30
0.0
  0
VERTEX
  5
6F4
  8
DATA
  6
CONTINUOUS
 62
     7
 10
198.07035742080799
 20
210.0487650317373
 30
0.0
  0
VERTEX
  5
6F5
  8
DATA
  6
CONTINUOUS
 62
     7
 10
198.07035742080799
 20
210.0487650317373
 30
0.0
  0
SEQEND
  5
6F6
  8
DATA
  6
CONTINUOUS
 62
     7
  0
LINE
  5
567
  8
DATA
  6
CONTINUOUS
 62
     7
 10
223.09494041971919
 20
233.3704898454107
 30
0.0
 11
198.33329352335181
 21
233.3704898454107
 31
0.0
  0
LINE
  5
568
  8
DATA
  6
CONTINUOUS
 62
     7
 10
223.09494041971919
 20
210.0487650317373
 30
0.0
 11
198.33329352335181
 21
210.0487650317373
 31
0.0
  0
LINE
  5
569
  8
DATA
  6
CONTINUOUS
 62
     7
 10
195.33329352335181
 20
213.0487650317373
 30
0.0
 11
195.33329352335181
 21
230.3704898454107
 31
0.0
  0
LINE
  5
56A
  8
DATA
  6
CONTINUOUS
 62
     7
 10
226.09494041971919
 20
213.0487650317373
 30
0.0
 11
226.09494041971919
 21
230.3704898454107
 31
0.0
  0
ARC
  5
56B
  8
DATA
  6
CONTINUOUS
 62
     7
 10
198.33329352335181
 20
230.3704898454107
 30
0.0
 40
3.0
 50
90.0
 51
180.0
  0
ARC
  5
56C
  8
DATA
  6
CONTINUOUS
 62
     7
 10
198.33329352335181
 20
213.0487650317373
 30
0.0
 40
3.0
 50
180.0
 51
270.0
  0
ARC
  5
56D
  8
DATA
  6
CONTINUOUS
 62
     7
 10
223.09494041971919
 20
230.3704898454107
 30
0.0
 40
3.0000000000000981
 50
0.0
 51
90.0
  0
ARC
  5
56E
  8
DATA
  6
CONTINUOUS
 62
     7
 10
223.09494041971919
 20
213.0487650317373
 30
0.0
 40
3.0
 50
270.0
 51
0.0
  0
LINE
  5
56F
  8
DATA
  6
CONTINUOUS
 62
     7
 10
220.77995301369711
 20
214.20463141431441
 30
0.0
 11
200.95458767631001
 21
214.20463141431441
 31
0.0
  0
LINE
  5
570
  8
DATA
  6
CONTINUOUS
 62
     7
 10
198.95458767631001
 20
223.435911598339
 30
0.0
 11
198.95458767631001
 21
216.20463141431441
 31
0.0
  0
LINE
  5
571
  8
DATA
  6
CONTINUOUS
 62
     7
 10
222.779953013697
 20
223.4303980843664
 30
0.0
 11
222.779953013697
 21
216.20463141431441
 31
0.0
  0
ARC
  5
572
  8
DATA
  6
CONTINUOUS
 62
     7
 10
200.95458767631001
 20
216.20463141431441
 30
0.0
 40
2.0
 50
180.0
 51
270.0
  0
ARC
  5
573
  8
DATA
  6
CONTINUOUS
 62
     7
 10
220.77995301369711
 20
216.20463141431441
 30
0.0
 40
2.0
 50
270.0
 51
0.0
  0
LINE
  5
574
  8
DATA
  6
CONTINUOUS
 62
     7
 10
216.32752534638871
 20
229.88282575167469
 30
0.0
 11
205.2753813654152
 21
229.88282575167469
 31
0.0
  0
LINE
  5
575
  8
DATA
  6
CONTINUOUS
 62
     7
 10
199.52017953284491
 20
224.82963799830469
 30
0.0
 11
203.84097322195049
 21
229.2765521516404
 31
0.0
  0
LINE
  5
576
  8
DATA
  6
CONTINUOUS
 62
     7
 10
222.1941665760701
 20
224.84461164673939
 30
0.0
 11
217.74173890876179
 21
229.29703931404771
 31
0.0
  0
ARC
  5
577
  8
DATA
  6
CONTINUOUS
 62
     7
 10
205.2753813654152
 20
227.8828257516746
 30
0.0
 40
2.0000000000000142
 50
90.0
 51
135.82412325926731
  0
ARC
  5
578
  8
DATA
  6
CONTINUOUS
 62
     7
 10
216.32752534638871
 20
227.88282575167469
 30
0.0
 40
2.0000000000000262
 50
44.999999999999133
 51
89.999999999999176
  0
ARC
  5
579
  8
DATA
  6
CONTINUOUS
 62
     7
 10
200.95458767631001
 20
223.435911598339
 30
0.0
 40
1.999999999999998
 50
135.82412325926961
 51
180.0
  0
ARC
  5
57A
  8
DATA
  6
CONTINUOUS
 62
     7
 10
220.77995301369711
 20
223.4303980843662
 30
0.0
 40
1.9999999999998861
 50
0.0000000000003979
 51
45.000000000001421
  0
LINE
  5
57B
  8
DATA
  6
CONTINUOUS
 62
     7
 10
202.8185569026503
 20
217.23534624524501
 30
0.0
 11
202.8185569026503
 21
222.46142124524661
 31
0.0
  0
LINE
  5
57C
  8
DATA
  6
CONTINUOUS
 62
     7
 10
204.15963190264921
 20
217.23534624524501
 30
0.0
 11
202.8185569026503
 21
217.23534624524501
 31
0.0
  0
LINE
  5
57D
  8
DATA
  6
CONTINUOUS
 62
     7
 10
204.15963190264921
 20
222.46142124524661
 30
0.0
 11
204.15963190264921
 21
217.23534624524501
 31
0.0
  0
LINE
  5
57E
  8
DATA
  6
CONTINUOUS
 62
     7
 10
202.8185569026503
 20
222.46142124524661
 30
0.0
 11
204.15963190264921
 21
222.46142124524661
 31
0.0
  0
LINE
  5
57F
  8
DATA
  6
CONTINUOUS
 62
     7
 10
210.19673190264939
 20
221.36374624524689
 30
0.0
 11
210.19673190264939
 21
226.58997124524811
 31
0.0
  0
LINE
  5
580
  8
DATA
  6
CONTINUOUS
 62
     7
 10
211.5378819026497
 20
221.36374624524689
 30
0.0
 11
210.19673190264939
 21
221.36374624524689
 31
0.0
  0
LINE
  5
581
  8
DATA
  6
CONTINUOUS
 62
     7
 10
211.5378819026497
 20
226.58997124524811
 30
0.0
 11
211.5378819026497
 21
221.36374624524689
 31
0.0
  0
LINE
  5
582
  8
DATA
  6
CONTINUOUS
 62
     7
 10
210.19673190264939
 20
226.58997124524811
 30
0.0
 11
211.5378819026497
 21
226.58997124524811
 31
0.0
  0
LINE
  5
583
  8
DATA
  6
CONTINUOUS
 62
     7
 10
217.57500690264999
 20
217.23552124524741
 30
0.0
 11
217.57500690264999
 21
222.4615962452462
 31
0.0
  0
LINE
  5
584
  8
DATA
  6
CONTINUOUS
 62
     7
 10
218.9160569026493
 20
217.23552124524741
 30
0.0
 11
217.57500690264999
 21
217.23552124524741
 31
0.0
  0
LINE
  5
585
  8
DATA
  6
CONTINUOUS
 62
     7
 10
218.9160569026493
 20
222.4615962452462
 30
0.0
 11
218.9160569026493
 21
217.23552124524741
 31
0.0
  0
LINE
  5
586
  8
DATA
  6
CONTINUOUS
 62
     7
 10
217.57500690264999
 20
222.4615962452462
 30
0.0
 11
218.9160569026493
 21
222.4615962452462
 31
0.0
  0
LINE
  5
587
  8
DATA
  6
CONTINUOUS
 62
     7
 10
370.00000000021691
 20
-222.15000000029829
 30
0.0
 11
370.00000000021691
 21
-217.85000000029839
 31
0.0
  0
LINE
  5
588
  8
DATA
  6
CONTINUOUS
 62
     7
 10
367.85000000021688
 20
-220.00000000029829
 30
0.0
 11
372.15000000021689
 21
-220.00000000029829
 31
0.0
  0
LINE
  5
589
  8
DATA
  6
CONTINUOUS
 62
     7
 10
479.85000000021768
 20
-220.00000000029829
 30
0.0
 11
484.15000000021757
 21
-220.00000000029829
 31
0.0
  0
LINE
  5
58A
  8
DATA
  6
CONTINUOUS
 62
     7
 10
482.00000000021782
 20
-222.15000000029829
 30
0.0
 11
482.00000000021782
 21
-217.85000000029839
 31
0.0
  0
ENDSEC
  0
EOF
