  0
SECTION
  2
HEADER
  9
$ACADVER
  1
AC1009
  9
$INSBASE
 10
0.0
 20
0.0
 30
0.0
  9
$EXTMIN
 10
-350.0138286357938
 20
-533.96217660606169
 30
-0.0000000000112498
  9
$EXTMAX
 10
550.00053495402597
 20
804.14751843759132
 30
0.0000000000002956
  9
$LIMMIN
 10
0.0
 20
0.0
  9
$LIMMAX
 10
0.0
 20
0.0
  9
$ORTHOMODE
 70
     0
  9
$REGENMODE
 70
     1
  9
$FILLMODE
 70
     1
  9
$QTEXTMODE
 70
     0
  9
$MIRRTEXT
 70
     1
  9
$DRAGMODE
 70
     2
  9
$LTSCALE
 40
25.399999999999999
  9
$OSMODE
 70
   231
  9
$ATTMODE
 70
     1
  9
$TEXTSIZE
 40
0.0
  9
$TRACEWID
 40
1.0
  9
$TEXTSTYLE
  7
STANDARD
  9
$CLAYER
  8
DATA
  9
$CELTYPE
  6
BYLAYER
  9
$CECOLOR
 62
   256
  9
$DIMSCALE
 40
1.0
  9
$DIMASZ
 40
0.18
  9
$DIMEXO
 40
0.0625
  9
$DIMDLI
 40
0.38
  9
$DIMRND
 40
0.0
  9
$DIMDLE
 40
0.0
  9
$DIMEXE
 40
0.18
  9
$DIMTP
 40
0.0
  9
$DIMTM
 40
0.0
  9
$DIMTXT
 40
0.18
  9
$DIMCEN
 40
0.09
  9
$DIMTSZ
 40
0.0
  9
$DIMTOL
 70
     0
  9
$DIMLIM
 70
     0
  9
$DIMTIH
 70
     1
  9
$DIMTOH
 70
     1
  9
$DIMSE1
 70
     0
  9
$DIMSE2
 70
     0
  9
$DIMTAD
 70
     0
  9
$DIMZIN
 70
     0
  9
$DIMBLK
  1

  9
$DIMASO
 70
     1
  9
$DIMSHO
 70
     1
  9
$DIMPOST
  1

  9
$DIMAPOST
  1

  9
$DIMALT
 70
     0
  9
$DIMALTD
 70
     2
  9
$DIMALTF
 40
25.399999999999999
  9
$DIMLFAC
 40
1.0
  9
$DIMTOFL
 70
     0
  9
$DIMTVP
 40
0.0
  9
$DIMTIX
 70
     0
  9
$DIMSOXD
 70
     0
  9
$DIMSAH
 70
     0
  9
$DIMBLK1
  1

  9
$DIMBLK2
  1

  9
$DIMSTYLE
  2
STANDARD
  9
$DIMCLRD
 70
     0
  9
$DIMCLRE
 70
     0
  9
$DIMCLRT
 70
     0
  9
$DIMTFAC
 40
1.0
  9
$DIMGAP
 40
0.09
  9
$LUNITS
 70
     2
  9
$LUPREC
 70
     4
  9
$SKETCHINC
 40
0.1
  9
$FILLETRAD
 40
0.0
  9
$AUNITS
 70
     0
  9
$AUPREC
 70
     0
  9
$MENU
  1
acad
  9
$ELEVATION
 40
0.0
  9
$PELEVATION
 40
0.0
  9
$THICKNESS
 40
0.0
  9
$LIMCHECK
 70
     0
  9
$BLIPMODE
 70
     0
  9
$CHAMFERA
 40
0.0
  9
$CHAMFERB
 40
0.0
  9
$SKPOLY
 70
     0
  9
$TDCREATE
 40
2456059.6981944451
  9
$TDUPDATE
 40
2456059.7736448268
  9
$TDINDWG
 40
0.0012921412
  9
$TDUSRTIMER
 40
0.001291794
  9
$USRTIMER
 70
     1
  9
$ANGBASE
 50
0.0
  9
$ANGDIR
 70
     0
  9
$PDMODE
 70
     1
  9
$PDSIZE
 40
-2.0
  9
$PLINEWID
 40
0.0
  9
$COORDS
 70
     2
  9
$SPLFRAME
 70
     0
  9
$SPLINETYPE
 70
     6
  9
$SPLINESEGS
 70
     8
  9
$ATTDIA
 70
     0
  9
$ATTREQ
 70
     1
  9
$HANDLING
 70
     1
  9
$HANDSEED
  5
B2D
  9
$SURFTAB1
 70
     6
  9
$SURFTAB2
 70
     6
  9
$SURFTYPE
 70
     6
  9
$SURFU
 70
     6
  9
$SURFV
 70
     6
  9
$UCSNAME
  2

  9
$UCSORG
 10
0.0
 20
0.0
 30
0.0
  9
$UCSXDIR
 10
1.0
 20
0.0
 30
0.0
  9
$UCSYDIR
 10
0.0
 20
1.0
 30
0.0
  9
$PUCSNAME
  2

  9
$PUCSORG
 10
0.0
 20
0.0
 30
0.0
  9
$PUCSXDIR
 10
1.0
 20
0.0
 30
0.0
  9
$PUCSYDIR
 10
0.0
 20
1.0
 30
0.0
  9
$USERI1
 70
     0
  9
$USERI2
 70
     0
  9
$USERI3
 70
     0
  9
$USERI4
 70
     0
  9
$USERI5
 70
     0
  9
$USERR1
 40
0.0
  9
$USERR2
 40
0.0
  9
$USERR3
 40
0.0
  9
$USERR4
 40
0.0
  9
$USERR5
 40
0.0
  9
$WORLDVIEW
 70
     1
  9
$SHADEDGE
 70
     3
  9
$SHADEDIF
 70
    70
  9
$TILEMODE
 70
     1
  9
$MAXACTVP
 70
    64
  9
$PLIMCHECK
 70
     0
  9
$PEXTMIN
 10
1.0000000000000000E+020
 20
1.0000000000000000E+020
 30
1.0000000000000000E+020
  9
$PEXTMAX
 10
-1.0000000000000000E+020
 20
-1.0000000000000000E+020
 30
-1.0000000000000000E+020
  9
$PLIMMIN
 10
0.0
 20
0.0
  9
$PLIMMAX
 10
12.0
 20
9.0
  9
$UNITMODE
 70
     0
  9
$VISRETAIN
 70
     0
  9
$PLINEGEN
 70
     1
  9
$PSLTSCALE
 70
     0
  0
ENDSEC
  0
SECTION
  2
TABLES
  0
TABLE
  2
VPORT
 70
     1
  0
VPORT
  2
*ACTIVE
 70
     0
 10
0.0
 20
0.0
 11
1.0
 21
1.0
 12
99.993353159116054
 22
135.0926709157647
 13
0.0
 23
0.0
 14
1.0
 24
1.0
 15
0.0
 25
0.0
 16
0.0
 26
0.0
 36
1.0
 17
0.0
 27
0.0
 37
0.0
 40
1348.57730673891
 41
2.1540469973890342
 42
50.0
 43
0.0
 44
0.0
 50
0.0
 51
0.0
 71
     0
 72
  2000
 73
     1
 74
     1
 75
     0
 76
     0
 77
     0
 78
     0
  0
ENDTAB
  0
TABLE
  2
LTYPE
 70
     1
  0
LTYPE
  2
CONTINUOUS
 70
     0
  3
Solid line
 72
    65
 73
     0
 40
0.0
  0
ENDTAB
  0
TABLE
  2
LAYER
 70
     5
  0
LAYER
  2
0
 70
     0
 62
     7
  6
CONTINUOUS
  0
LAYER
  2
DATA
 70
     0
 62
     7
  6
CONTINUOUS
  0
LAYER
  2
HIBINO-BASE
 70
     0
 62
     7
  6
CONTINUOUS
  0
LAYER
  2
SPEC
 70
     0
 62
     7
  6
CONTINUOUS
  0
LAYER
  2
DIMNSIONS
 70
     0
 62
     7
  6
CONTINUOUS
  0
ENDTAB
  0
TABLE
  2
STYLE
 70
     2
  0
STYLE
  2
STANDARD
 70
     0
 40
0.0
 41
1.0
 50
0.0
 71
     0
 42
0.0
  3
txt
  4
BIGFONT.SHX
  0
ENDTAB
  0
TABLE
  2
VIEW
 70
     0
  0
ENDTAB
  0
TABLE
  2
UCS
 70
     0
  0
ENDTAB
  0
TABLE
  2
APPID
 70
     4
  0
APPID
  2
ACAD
 70
     0
  0
APPID
  2
ACADANNOTATIVE
 70
     0
  0
APPID
  2
ACAD_NAV_VCDISPLAY
 70
     0
  0
APPID
  2
ACAD_MLEADERVER
 70
     0
  0
ENDTAB
  0
TABLE
  2
DIMSTYLE
 70
     2
  0
DIMSTYLE
  2
STANDARD
 70
     0
  3

  4

  5

  6

  7

 40
1.0
 41
0.18
 42
0.0625
 43
0.38
 44
0.18
 45
0.0
 46
0.0
 47
0.0
 48
0.0
140
0.18
141
0.09
142
0.0
143
25.399999999999999
144
1.0
145
0.0
146
1.0
147
0.09
 71
     0
 72
     0
 73
     1
 74
     1
 75
     0
 76
     0
 77
     0
 78
     0
170
     0
171
     2
172
     0
173
     0
174
     0
175
     0
176
     0
177
     0
178
     0
  0
ENDTAB
  0
ENDSEC
  0
SECTION
  2
BLOCKS
  0
BLOCK
  8
0
  2
$MODEL_SPACE
 70
     0
 10
0.0
 20
0.0
 30
0.0
  3
$MODEL_SPACE
  1

  0
ENDBLK
  5
A01
  8
0
  0
BLOCK
 67
     1
  8
0
  2
$PAPER_SPACE
 70
     0
 10
0.0
 20
0.0
 30
0.0
  3
$PAPER_SPACE
  1

  0
ENDBLK
  5
9FD
 67
     1
  8
0
  0
ENDSEC
  0
SECTION
  2
ENTITIES
  0
LINE
  5
2D
  8
HIBINO-BASE
  6
CONTINUOUS
 62
     7
 10
-350.0
 20
804.12725999999986
 30
0.0
 11
549.99999999999989
 21
804.12725999999986
 31
0.0
  0
LINE
  5
2E
  8
HIBINO-BASE
  6
CONTINUOUS
 62
     7
 10
549.99999999999989
 20
-495.87273999999991
 30
0.0
 11
-350.0
 21
-495.87273999999991
 31
0.0
  0
LINE
  5
2F
  8
HIBINO-BASE
  6
CONTINUOUS
 62
     7
 10
-350.0
 20
-495.87273999999991
 30
0.0
 11
-350.0
 21
804.12725999999986
 31
0.0
  0
TEXT
  5
30
  8
HIBINO-BASE
 62
     7
 10
-314.07999999999993
 20
-527.91612899999984
 30
0.0
 40
18.00022089843748
  1
Hibino Corporation
 41
0.7
 11
-314.07999999999993
 21
-509.91590810156231
 31
0.0
 73
     3
  0
LINE
  5
31
  8
HIBINO-BASE
  6
CONTINUOUS
 62
     7
 10
549.99999999999989
 20
804.12725999999986
 30
0.0
 11
549.99999999999989
 21
-495.87273999999991
 31
0.0
  0
LINE
  5
32
  8
HIBINO-BASE
  6
CONTINUOUS
 62
     7
 10
100.0
 20
-383.37274000000002
 30
0.0
 11
549.99999999999989
 21
-383.37274000000002
 31
0.0
  0
LINE
  5
33
  8
HIBINO-BASE
  6
CONTINUOUS
 62
     7
 10
100.0
 20
-495.87273999999991
 30
0.0
 11
100.0
 21
-383.37274000000002
 31
0.0
  0
TEXT
  5
34
  8
HIBINO-BASE
 62
     7
 10
104.5
 20
-395.91620666666671
 30
0.0
 40
8.1442057291666661
  1
NOTE
 41
0.7
 11
104.5
 21
-387.77200093750002
 31
0.0
 73
     3
  0
LINE
  5
35
  8
HIBINO-BASE
  6
CONTINUOUS
 62
     7
 10
275.0
 20
-495.87273999999991
 30
0.0
 11
275.0
 21
-383.37274000000002
 31
0.0
  0
TEXT
  5
36
  8
HIBINO-BASE
 62
     7
 10
279.5
 20
-395.91620666666671
 30
0.0
 40
8.1442057291666661
  1
TITLE
 41
0.7
 11
279.5
 21
-387.77200093750002
 31
0.0
 73
     3
  0
TEXT
  5
37
  8
HIBINO-BASE
 62
     7
 10
350.34195
 20
-527.91612899999984
 30
0.0
 40
18.00022089843748
  1
ヒビノ株式会社
 41
0.7
 11
350.34195
 21
-509.91590810156231
 31
0.0
 73
     3
  0
LINE
  5
38
  8
HIBINO-BASE
  6
CONTINUOUS
 62
     7
 10
100.0
 20
-445.87273999999991
 30
0.0
 11
549.99999999999989
 21
-445.87273999999991
 31
0.0
  0
TEXT
  5
39
  8
HIBINO-BASE
 62
     7
 10
342.0
 20
-458.13460666666663
 30
0.0
 40
8.1442057291666661
  1
DRAWN
 41
0.7
 11
342.0
 21
-449.9904009375
 31
0.0
 73
     3
  0
TEXT
  5
3A
  8
HIBINO-BASE
 62
     7
 10
217.0
 20
-458.13460666666663
 30
0.0
 40
8.1442057291666661
  1
DATE
 41
0.7
 11
217.0
 21
-449.9904009375
 31
0.0
 73
     3
  0
TEXT
  5
3B
  8
HIBINO-BASE
 62
     7
 10
167.0
 20
-458.13460666666663
 30
0.0
 40
8.1442057291666661
  1
SCALE
 41
0.7
 11
167.0
 21
-449.9904009375
 31
0.0
 73
     3
  0
TEXT
  5
3C
  8
HIBINO-BASE
 62
     7
 10
279.5
 20
-458.13460666666663
 30
0.0
 40
8.1442057291666661
  1
DESIGN
 41
0.7
 11
279.5
 21
-449.9904009375
 31
0.0
 73
     3
  0
TEXT
  5
3D
  8
HIBINO-BASE
 62
     7
 10
467.0
 20
-458.13460666666663
 30
0.0
 40
8.1442057291666661
  1
DRAWING NO.
 41
0.7
 11
467.0
 21
-449.9904009375
 31
0.0
 73
     3
  0
TEXT
  5
3E
  8
HIBINO-BASE
 62
     7
 10
404.49999999999989
 20
-458.13460666666663
 30
0.0
 40
8.1442057291666661
  1
CHECK
 41
0.7
 11
404.49999999999989
 21
-449.9904009375
 31
0.0
 73
     3
  0
LINE
  5
3F
  8
HIBINO-BASE
  6
CONTINUOUS
 62
     7
 10
171.875
 20
-489.62273999999991
 30
0.0
 11
190.625
 21
-470.87273999999991
 31
0.0
  0
TEXT
  5
40
  8
HIBINO-BASE
 62
     7
 10
168.75
 20
-476.41745666666651
 30
0.0
 40
8.1442057291666661
  1
1
 41
0.7
 11
168.75
 21
-468.27325093749982
 31
0.0
 73
     3
  0
LINE
  5
41
  8
HIBINO-BASE
  6
CONTINUOUS
 62
     7
 10
162.5
 20
-495.87273999999991
 30
0.0
 11
162.5
 21
-445.87273999999991
 31
0.0
  0
LINE
  5
42
  8
HIBINO-BASE
  6
CONTINUOUS
 62
     7
 10
212.5
 20
-495.87273999999991
 30
0.0
 11
212.5
 21
-445.87273999999991
 31
0.0
  0
LINE
  5
43
  8
HIBINO-BASE
  6
CONTINUOUS
 62
     7
 10
337.5
 20
-445.87273999999991
 30
0.0
 11
337.5
 21
-495.87273999999991
 31
0.0
  0
LINE
  5
44
  8
HIBINO-BASE
  6
CONTINUOUS
 62
     7
 10
462.5
 20
-445.87273999999991
 30
0.0
 11
462.5
 21
-495.87273999999991
 31
0.0
  0
LINE
  5
45
  8
HIBINO-BASE
  6
CONTINUOUS
 62
     7
 10
400.0
 20
-495.87273999999991
 30
0.0
 11
400.0
 21
-445.87273999999991
 31
0.0
  0
TEXT
  5
46
  8
HIBINO-BASE
 62
     7
 10
216.78270000000001
 20
-481.55450666666661
 30
0.0
 40
8.1442057291666661
  1
'12.03.
 41
0.7
 11
216.78270000000001
 21
-473.41030093749993
 31
0.0
 73
     3
  0
TEXT
  5
47
  8
HIBINO-BASE
 62
     7
 10
187.5
 20
-485.79245666666651
 30
0.0
 40
8.1442057291666661
  1
5
 41
0.7
 11
187.5
 21
-477.64825093749982
 31
0.0
 73
     3
  0
TEXT
  5
48
  8
HIBINO-BASE
 62
     7
 10
345.02905005517312
 20
-481.55450666666661
 30
0.0
 40
8.1442057291666661
  1
Ootake
 41
0.7
 11
345.02905005517312
 21
-473.41030093749993
 31
0.0
 73
     3
  0
TEXT
  5
49
  8
HIBINO-BASE
 62
     7
 10
119.4166666666667
 20
-485.99274000000003
 30
0.0
 40
16.288411458333329
  1
A4
 41
0.7
 11
119.4166666666667
 21
-469.70432854166671
 31
0.0
 73
     3
  0
TEXT
  5
4A
  8
HIBINO-BASE
 62
     7
 10
104.7916666666666
 20
-458.97001499999959
 30
0.0
 40
8.1442057291666661
  1
PAPER SIZE
 41
0.7
 11
104.7916666666666
 21
-450.82580927083291
 31
0.0
 73
     3
  0
LINE
  5
4B
  8
SPEC
  6
CONTINUOUS
 62
     7
 10
-312.5
 20
754.12725999999998
 30
0.0
 11
425.0
 21
754.12725999999998
 31
0.0
  0
LINE
  5
4C
  8
SPEC
  6
CONTINUOUS
 62
     7
 10
-312.5
 20
735.37725999999998
 30
0.0
 11
425.0
 21
735.37725999999998
 31
0.0
  0
LINE
  5
4D
  8
SPEC
  6
CONTINUOUS
 62
     7
 10
-150.0
 20
660.37725999999998
 30
0.0
 11
425.0
 21
660.37725999999998
 31
0.0
  0
LINE
  5
4E
  8
SPEC
  6
CONTINUOUS
 62
     7
 10
-312.5
 20
679.12725999999998
 30
0.0
 11
425.0
 21
679.12725999999998
 31
0.0
  0
LINE
  5
4F
  8
SPEC
  6
CONTINUOUS
 62
     7
 10
-150.0
 20
697.87725999999998
 30
0.0
 11
425.0
 21
697.87725999999998
 31
0.0
  0
LINE
  5
50
  8
SPEC
  6
CONTINUOUS
 62
     7
 10
-150.0
 20
641.62725999999998
 30
0.0
 11
425.0
 21
641.62725999999998
 31
0.0
  0
LINE
  5
51
  8
SPEC
  6
CONTINUOUS
 62
     7
 10
-150.0
 20
604.12725999999998
 30
0.0
 11
425.0
 21
604.12725999999998
 31
0.0
  0
LINE
  5
52
  8
SPEC
  6
CONTINUOUS
 62
     7
 10
-312.5
 20
622.87725999999998
 30
0.0
 11
425.0
 21
622.87725999999998
 31
0.0
  0
LINE
  5
53
  8
SPEC
  6
CONTINUOUS
 62
     7
 10
-150.0
 20
585.37725999999998
 30
0.0
 11
425.0
 21
585.37725999999998
 31
0.0
  0
LINE
  5
54
  8
SPEC
  6
CONTINUOUS
 62
     7
 10
-312.5
 20
566.62725999999998
 30
0.0
 11
425.0
 21
566.62725999999998
 31
0.0
  0
LINE
  5
55
  8
SPEC
  6
CONTINUOUS
 62
     7
 10
-150.0
 20
716.62725999999998
 30
0.0
 11
425.0
 21
716.62725999999998
 31
0.0
  0
TEXT
  5
56
  8
SPEC
 62
     7
 10
-146.11205332389119
 20
739.85222525142729
 30
0.0
 40
9.5015733506944464
  1
1
 41
0.7
 11
-146.11205332389119
 21
749.35379860212174
 31
0.0
 73
     3
  0
LINE
  5
57
  8
SPEC
  6
CONTINUOUS
 62
     7
 10
-312.5
 20
754.12725999999998
 30
0.0
 11
-312.5
 21
435.37725999999992
 31
0.0
  0
TEXT
  5
58
  8
SPEC
 62
     7
 10
-306.25
 20
761.09361000000013
 30
0.0
 40
12.21630859375
  1
仕様
 41
0.7
 11
-306.25
 21
773.30991859375013
 31
0.0
 73
     3
  0
LINE
  5
59
  8
SPEC
  6
CONTINUOUS
 62
     7
 10
-150.0
 20
754.12725999999998
 30
0.0
 11
-150.0
 21
435.37725999999992
 31
0.0
  0
LINE
  5
5A
  8
SPEC
  6
CONTINUOUS
 62
     7
 10
425.0
 20
754.12725999999998
 30
0.0
 11
425.0
 21
435.37725999999992
 31
0.0
  0
TEXT
  5
5B
  8
SPEC
 62
     7
 10
-308.68327491551622
 20
739.73030628439687
 30
0.0
 40
9.5015733506944464
  1
チャンネル数
 41
0.7
 11
-308.68327491551622
 21
749.23187963509145
 31
0.0
 73
     3
  0
TEXT
  5
5C
  8
SPEC
 62
     7
 10
-309.21185085457199
 20
665.16755941728354
 30
0.0
 40
9.5015733506944464
  1
ライン入力
 41
0.7
 11
-309.21185085457199
 21
674.669132767978
 31
0.0
 73
     3
  0
TEXT
  5
5D
  8
SPEC
 62
     7
 10
-308.60249678529919
 20
721.493468003771
 30
0.0
 40
9.5015733506944464
  1
マイクロホン入力
 41
0.7
 11
-308.60249678529919
 21
730.99504135446546
 31
0.0
 73
     3
  0
TEXT
  5
5E
  8
SPEC
 62
     7
 10
-145.39644956180581
 20
683.85903011372375
 30
0.0
 40
9.5015733506944464
  1
最大レベル：30dB(0.25Vrms)
 41
0.7
 11
-145.39644956180581
 21
693.36060346441809
 31
0.0
 73
     3
  0
TEXT
  5
5F
  8
SPEC
 62
     7
 10
-146.03758300008681
 20
702.72772049193941
 30
0.0
 40
9.5015733506944464
  1
インピーダンス：4.2K\U+03A9
 41
0.7
 11
-146.03758300008681
 21
712.22929384263387
 31
0.0
 73
     3
  0
TEXT
  5
60
  8
SPEC
 62
     7
 10
-145.49564996183389
 20
721.06078543863919
 30
0.0
 40
9.5015733506944464
  1
端子・形式：XLR、フローテングバランス
 41
0.7
 11
-145.49564996183389
 21
730.56235878933364
 31
0.0
 73
     3
  0
TEXT
  5
61
  8
SPEC
 62
     7
 10
-145.6309749480273
 20
628.01920597495871
 30
0.0
 40
9.5015733506944464
  1
最大レベル：+21dBu
 41
0.7
 11
-145.6309749480273
 21
637.52077932565317
 31
0.0
 73
     3
  0
TEXT
  5
62
  8
SPEC
 62
     7
 10
-145.28314501973969
 20
534.00893826837751
 30
0.0
 40
9.5015733506944464
  1
0.08%%%(+10dBu、20Hz～20kHz)
 41
0.7
 11
-145.28314501973969
 21
543.51051161907185
 31
0.0
 73
     3
  0
TEXT
  5
63
  8
SPEC
 62
     7
 10
-308.03216448071998
 20
533.87680886954615
 30
0.0
 40
9.5015733506944464
  1
THD
 41
0.7
 11
-308.03216448071998
 21
543.37838222024061
 31
0.0
 73
     3
  0
TEXT
  5
64
  8
SPEC
 62
     7
 10
-308.36859225443351
 20
496.93711358422308
 30
0.0
 40
9.5015733506944464
  1
電源
 41
0.7
 11
-308.36859225443351
 21
506.4386869349176
 31
0.0
 73
     3
  0
LINE
  5
65
  8
SPEC
  6
CONTINUOUS
 62
     7
 10
-312.5
 20
547.87725999999998
 30
0.0
 11
425.0
 21
547.87725999999998
 31
0.0
  0
LINE
  5
66
  8
SPEC
  6
CONTINUOUS
 62
     7
 10
-312.5
 20
529.12725999999998
 30
0.0
 11
425.0
 21
529.12725999999998
 31
0.0
  0
LINE
  5
67
  8
SPEC
  6
CONTINUOUS
 62
     7
 10
-312.5
 20
510.37725999999992
 30
0.0
 11
425.0
 21
510.37725999999992
 31
0.0
  0
LINE
  5
68
  8
SPEC
  6
CONTINUOUS
 62
     7
 10
-312.5
 20
491.62725999999992
 30
0.0
 11
425.0
 21
491.62725999999992
 31
0.0
  0
LINE
  5
69
  8
SPEC
  6
CONTINUOUS
 62
     7
 10
-312.5
 20
472.87725999999992
 30
0.0
 11
425.0
 21
472.87725999999992
 31
0.0
  0
TEXT
  5
6A
  8
SPEC
 62
     7
 10
-145.13356618576151
 20
496.39506076950357
 30
0.0
 40
9.5015733506944464
  1
AC100V、50/60Hz
 41
0.7
 11
-145.13356618576151
 21
505.89663412019809
 31
0.0
 73
     3
  0
TEXT
  5
6B
  8
SPEC
 62
     7
 10
-146.1086496867926
 20
477.49761291506161
 30
0.0
 40
9.5015733506944464
  1
15W
 41
0.7
 11
-146.1086496867926
 21
486.99918626575612
 31
0.0
 73
     3
  0
TEXT
  5
6C
  8
SPEC
 62
     7
 10
-308.26332633025743
 20
478.30961292937951
 30
0.0
 40
9.5015733506944464
  1
消費電力
 41
0.7
 11
-308.26332633025743
 21
487.81118628007403
 31
0.0
 73
     3
  0
TEXT
  5
6D
  8
SPEC
 62
     7
 10
-308.53646610692368
 20
459.12490999303782
 30
0.0
 40
9.5015733506944464
  1
寸法
 41
0.7
 11
-308.53646610692368
 21
468.62648334373222
 31
0.0
 73
     3
  0
TEXT
  5
6E
  8
SPEC
 62
     7
 10
-308.24177624555392
 20
440.970761745701
 30
0.0
 40
9.5015733506944464
  1
重量
 41
0.7
 11
-308.24177624555392
 21
450.47233509639551
 31
0.0
 73
     3
  0
TEXT
  5
6F
  8
SPEC
 62
     7
 10
-145.27657429854071
 20
459.00796300630958
 30
0.0
 40
9.5015733506944464
  1
483(W)\U+00D745(H)\U+00D7150(D)mm(突起部含まず)
 41
0.7
 11
-145.27657429854071
 21
468.50953635700398
 31
0.0
 73
     3
  0
TEXT
  5
70
  8
SPEC
 62
     7
 10
-145.69414118567551
 20
441.0366364228567
 30
0.0
 40
9.5015733506944464
  1
約2.2kg
 41
0.7
 11
-145.69414118567551
 21
450.53820977355122
 31
0.0
 73
     3
  0
TEXT
  5
71
  8
SPEC
 62
     7
 10
-146.13109159158071
 20
646.79644680507636
 30
0.0
 40
9.5015733506944464
  1
インピーダンス：20K\U+03A9
 41
0.7
 11
-146.13109159158071
 21
656.29802015577093
 31
0.0
 73
     3
  0
TEXT
  5
72
  8
SPEC
 62
     7
 10
-145.4969958057263
 20
665.22354294995932
 30
0.0
 40
9.5015733506944464
  1
端子・形式：標準フォーンジャック(3P)、フローティングバランス
 41
0.7
 11
-145.4969958057263
 21
674.72511630065378
 31
0.0
 73
     3
  0
TEXT
  5
73
  8
SPEC
 62
     7
 10
-308.11163536293719
 20
608.92214615208832
 30
0.0
 40
9.5015733506944464
  1
音声出力
 41
0.7
 11
-308.11163536293719
 21
618.42371950278277
 31
0.0
 73
     3
  0
TEXT
  5
74
  8
SPEC
 62
     7
 10
-145.38325020529379
 20
571.36391515705679
 30
0.0
 40
9.5015733506944464
  1
最大レベル：+21dBu
 41
0.7
 11
-145.38325020529379
 21
580.86548850775125
 31
0.0
 73
     3
  0
TEXT
  5
75
  8
SPEC
 62
     7
 10
-146.21957411384281
 20
590.44662635947407
 30
0.0
 40
9.5015733506944464
  1
インピーダンス：200\U+03A9
 41
0.7
 11
-146.21957411384281
 21
599.94819971016864
 31
0.0
 73
     3
  0
TEXT
  5
76
  8
SPEC
 62
     7
 10
-145.65527691070969
 20
609.15906583306571
 30
0.0
 40
9.5015733506944464
  1
端子・形式：標準フォーンジャック(3P)
 41
0.7
 11
-145.65527691070969
 21
618.66063918376005
 31
0.0
 73
     3
  0
TEXT
  5
77
  8
SPEC
 62
     7
 10
-145.46723425457569
 20
552.54561784873556
 30
0.0
 40
9.5015733506944464
  1
20Hz～20kHz(\U+00B10.5dB)
 41
0.7
 11
-145.46723425457569
 21
562.04719119943013
 31
0.0
 73
     3
  0
TEXT
  5
78
  8
SPEC
 62
     7
 10
-308.02826442841712
 20
552.52878296924234
 30
0.0
 40
9.5015733506944464
  1
周波数特性
 41
0.7
 11
-308.02826442841712
 21
562.03035631993669
 31
0.0
 73
     3
  0
TEXT
  5
79
  8
SPEC
 62
     7
 10
-146.19291202349859
 20
514.66700196332965
 30
0.0
 40
9.5015733506944464
  1
105dB
 41
0.7
 11
-146.19291202349859
 21
524.16857531402422
 31
0.0
 73
     3
  0
TEXT
  5
7A
  8
SPEC
 62
     7
 10
-309.01587585971652
 20
515.9292118227653
 30
0.0
 40
9.5015733506944464
  1
ダイナミックレンジ
 41
0.7
 11
-309.01587585971652
 21
525.43078517345975
 31
0.0
 73
     3
  0
LINE
  5
7B
  8
SPEC
  6
CONTINUOUS
 62
     7
 10
-312.5
 20
454.12725999999992
 30
0.0
 11
425.0
 21
454.12725999999992
 31
0.0
  0
LINE
  5
7C
  8
SPEC
  6
CONTINUOUS
 62
     7
 10
-312.5
 20
435.37725999999992
 30
0.0
 11
425.0
 21
435.37725999999992
 31
0.0
  0
TEXT
  5
7D
  8
DIMNSIONS
 62
     7
 10
-0.0000000000000149
 20
-434.52528999999993
 30
0.0
 40
12.21630859375
  1
(単位：mm)
 41
0.7
 11
-0.0000000000000142
 21
-422.30898140624993
 31
0.0
 73
     3
  0
LINE
  5
7E
  8
DIMNSIONS
  6
CONTINUOUS
 62
     7
 10
-225.0000000000079
 20
-235.0000000000249
 30
0.0
 11
-225.0000000000079
 21
-285.0
 31
0.0
  0
LINE
  5
7F
  8
DIMNSIONS
  6
CONTINUOUS
 62
     7
 10
257.9999999999921
 20
-235.0000000000249
 30
0.0
 11
257.9999999999921
 21
-285.0
 31
0.0
  0
LINE
  5
80
  8
DIMNSIONS
  6
CONTINUOUS
 62
     7
 10
-225.0000000000079
 20
-275.0
 30
0.0
 11
257.9999999999921
 21
-275.0
 31
0.0
  0
LINE
  5
81
  8
DIMNSIONS
  6
CONTINUOUS
 62
     7
 10
-225.0000000000079
 20
-275.0
 30
0.0
 11
-212.49688720703909
 21
-271.6498010242488
 31
0.0
  0
LINE
  5
82
  8
DIMNSIONS
  6
CONTINUOUS
 62
     7
 10
-225.0000000000079
 20
-275.0
 30
0.0
 11
-212.49688720703909
 21
-278.3501989757512
 31
0.0
  0
LINE
  5
83
  8
DIMNSIONS
  6
CONTINUOUS
 62
     7
 10
257.9999999999921
 20
-275.0
 30
0.0
 11
245.49688720702341
 21
-278.3501989757512
 31
0.0
  0
LINE
  5
84
  8
DIMNSIONS
  6
CONTINUOUS
 62
     7
 10
257.9999999999921
 20
-275.0
 30
0.0
 11
245.49688720702341
 21
-271.6498010242488
 31
0.0
  0
TEXT
  5
85
  8
DIMNSIONS
 62
     7
 10
3.2708333333254669
 20
-270.03055555555551
 30
0.0
 40
13.57367621527778
  1
483
 41
0.7
 11
3.2708333333254682
 21
-256.45687934027768
 31
0.0
 73
     3
  0
LINE
  5
86
  8
DIMNSIONS
  6
CONTINUOUS
 62
     7
 10
-235.0000000000079
 20
-225.0000000000249
 30
0.0
 11
-285.0
 21
-225.0000000000249
 31
0.0
  0
LINE
  5
87
  8
DIMNSIONS
  6
CONTINUOUS
 62
     7
 10
-235.0000000000079
 20
-180.0000000000249
 30
0.0
 11
-285.0
 21
-180.0000000000249
 31
0.0
  0
LINE
  5
88
  8
DIMNSIONS
  6
CONTINUOUS
 62
     7
 10
-275.0
 20
-225.0000000000249
 30
0.0
 11
-275.0
 21
-180.0000000000249
 31
0.0
  0
LINE
  5
89
  8
DIMNSIONS
  6
CONTINUOUS
 62
     7
 10
-275.0
 20
-225.0000000000249
 30
0.0
 11
-278.3501989757512
 21
-212.49688720705609
 31
0.0
  0
LINE
  5
8A
  8
DIMNSIONS
  6
CONTINUOUS
 62
     7
 10
-275.0
 20
-225.0000000000249
 30
0.0
 11
-271.6498010242488
 21
-212.49688720705609
 31
0.0
  0
LINE
  5
8B
  8
DIMNSIONS
  6
CONTINUOUS
 62
     7
 10
-275.0
 20
-180.0000000000249
 30
0.0
 11
-271.6498010242488
 21
-192.50311279299359
 31
0.0
  0
LINE
  5
8C
  8
DIMNSIONS
  6
CONTINUOUS
 62
     7
 10
-275.0
 20
-180.0000000000249
 30
0.0
 11
-278.3501989757512
 21
-192.50311279299359
 31
0.0
  0
TEXT
  5
8D
  8
DIMNSIONS
 62
     7
 10
-279.96944444444449
 20
-211.3194444444693
 30
0.0
 40
13.57367621527778
  1
45
 50
90.0
 41
0.7
 11
-293.54312065972232
 21
-211.3194444444693
 31
0.0
 73
     3
  0
LINE
  5
8E
  8
DIMNSIONS
  6
CONTINUOUS
 62
     7
 10
-234.999999999778
 20
-75.000000000103171
 30
0.0
 11
-260.0
 21
-75.000000000103171
 31
0.0
  0
LINE
  5
8F
  8
DIMNSIONS
  6
CONTINUOUS
 62
     7
 10
-234.999999999778
 20
-72.000000000103114
 30
0.0
 11
-260.0
 21
-72.000000000103114
 31
0.0
  0
LINE
  5
90
  8
DIMNSIONS
  6
CONTINUOUS
 62
     7
 10
-250.0
 20
-72.000000000103114
 30
0.0
 11
-250.0
 21
-75.000000000103171
 31
0.0
  0
LINE
  5
91
  8
DIMNSIONS
  6
CONTINUOUS
 62
     7
 10
-250.0
 20
-75.000000000103171
 30
0.0
 11
-250.0
 21
-100.0000000001031
 31
0.0
  0
LINE
  5
92
  8
DIMNSIONS
  6
CONTINUOUS
 62
     7
 10
-250.0
 20
-75.000000000103171
 30
0.0
 11
-246.6498010242488
 21
-87.503112793071921
 31
0.0
  0
LINE
  5
93
  8
DIMNSIONS
  6
CONTINUOUS
 62
     7
 10
-250.0
 20
-75.000000000103171
 30
0.0
 11
-253.3501989757512
 21
-87.503112793071921
 31
0.0
  0
LINE
  5
94
  8
DIMNSIONS
  6
CONTINUOUS
 62
     7
 10
-250.0
 20
-72.000000000103114
 30
0.0
 11
-250.0
 21
-53.680555555555529
 31
0.0
  0
LINE
  5
95
  8
DIMNSIONS
  6
CONTINUOUS
 62
     7
 10
-250.0
 20
-72.000000000103114
 30
0.0
 11
-253.3501989757512
 21
-59.496887207134371
 31
0.0
  0
LINE
  5
96
  8
DIMNSIONS
  6
CONTINUOUS
 62
     7
 10
-250.0
 20
-72.000000000103114
 30
0.0
 11
-246.6498010242488
 21
-59.496887207134371
 31
0.0
  0
TEXT
  5
97
  8
DIMNSIONS
 62
     7
 10
-254.96944444444449
 20
-62.5
 30
0.0
 40
13.57367621527778
  1
3
 50
90.0
 41
0.7
 11
-268.54312065972232
 21
-62.5
 31
0.0
 73
     3
  0
LINE
  5
98
  8
DIMNSIONS
  6
CONTINUOUS
 62
     7
 10
-179.73500000000001
 20
-92.000000000103142
 30
0.0
 11
-285.0
 21
-92.000000000103142
 31
0.0
  0
LINE
  5
99
  8
DIMNSIONS
  6
CONTINUOUS
 62
     7
 10
-234.999999999778
 20
-75.000000000103171
 30
0.0
 11
-285.0
 21
-75.000000000103171
 31
0.0
  0
LINE
  5
9A
  8
DIMNSIONS
  6
CONTINUOUS
 62
     7
 10
-275.0
 20
-75.000000000103171
 30
0.0
 11
-275.0
 21
-92.000000000103142
 31
0.0
  0
LINE
  5
9B
  8
DIMNSIONS
  6
CONTINUOUS
 62
     7
 10
-275.0
 20
-92.000000000103142
 30
0.0
 11
-275.0
 21
-117.6388888888889
 31
0.0
  0
LINE
  5
9C
  8
DIMNSIONS
  6
CONTINUOUS
 62
     7
 10
-275.0
 20
-92.000000000103142
 30
0.0
 11
-271.6498010242488
 21
-104.50311279307191
 31
0.0
  0
LINE
  5
9D
  8
DIMNSIONS
  6
CONTINUOUS
 62
     7
 10
-275.0
 20
-92.000000000103142
 30
0.0
 11
-278.3501989757512
 21
-104.50311279307191
 31
0.0
  0
LINE
  5
9E
  8
DIMNSIONS
  6
CONTINUOUS
 62
     7
 10
-275.0
 20
-75.000000000103171
 30
0.0
 11
-275.0
 21
-50.000000000103171
 31
0.0
  0
LINE
  5
9F
  8
DIMNSIONS
  6
CONTINUOUS
 62
     7
 10
-275.0
 20
-75.000000000103171
 30
0.0
 11
-278.3501989757512
 21
-62.496887207134421
 31
0.0
  0
LINE
  5
A0
  8
DIMNSIONS
  6
CONTINUOUS
 62
     7
 10
-275.0
 20
-75.000000000103171
 30
0.0
 11
-271.6498010242488
 21
-62.496887207134421
 31
0.0
  0
TEXT
  5
A1
  8
DIMNSIONS
 62
     7
 10
-279.96944444444449
 20
-117.6388888888889
 30
0.0
 40
13.57367621527778
  1
17
 50
90.0
 41
0.7
 11
-293.54312065972232
 21
-117.6388888888889
 31
0.0
 73
     3
  0
LINE
  5
A2
  8
DIMNSIONS
  6
CONTINUOUS
 62
     7
 10
-234.999999999778
 20
-75.000000000103171
 30
0.0
 11
-285.0
 21
-75.000000000103171
 31
0.0
  0
LINE
  5
A3
  8
DIMNSIONS
  6
CONTINUOUS
 62
     7
 10
-212.999999999778
 20
74.999999999896275
 30
0.0
 11
-285.0
 21
74.999999999896275
 31
0.0
  0
LINE
  5
A4
  8
DIMNSIONS
  6
CONTINUOUS
 62
     7
 10
-275.0
 20
-75.000000000103171
 30
0.0
 11
-275.0
 21
74.999999999896275
 31
0.0
  0
LINE
  5
A5
  8
DIMNSIONS
  6
CONTINUOUS
 62
     7
 10
-275.0
 20
-75.000000000103171
 30
0.0
 11
-278.3501989757512
 21
-62.496887207134421
 31
0.0
  0
LINE
  5
A6
  8
DIMNSIONS
  6
CONTINUOUS
 62
     7
 10
-275.0
 20
-75.000000000103171
 30
0.0
 11
-271.6498010242488
 21
-62.496887207134421
 31
0.0
  0
LINE
  5
A7
  8
DIMNSIONS
  6
CONTINUOUS
 62
     7
 10
-275.0
 20
74.999999999896275
 30
0.0
 11
-271.6498010242488
 21
62.496887206927511
 31
0.0
  0
LINE
  5
A8
  8
DIMNSIONS
  6
CONTINUOUS
 62
     7
 10
-275.0
 20
74.999999999896275
 30
0.0
 11
-278.3501989757512
 21
62.496887206927511
 31
0.0
  0
TEXT
  5
A9
  8
DIMNSIONS
 62
     7
 10
-279.96944444444449
 20
-13.229166666770141
 30
0.0
 40
13.57367621527778
  1
150
 50
90.0
 41
0.7
 11
-293.54312065972232
 21
-13.229166666770141
 31
0.0
 73
     3
  0
LINE
  5
AA
  8
DIMNSIONS
  6
CONTINUOUS
 62
     7
 10
-212.999999999778
 20
74.999999999896275
 30
0.0
 11
-285.0
 21
74.999999999896275
 31
0.0
  0
LINE
  5
AB
  8
DIMNSIONS
  6
CONTINUOUS
 62
     7
 10
-183.2889721296817
 20
78.999999999896275
 30
0.0
 11
-285.0
 21
78.999999999896275
 31
0.0
  0
LINE
  5
AC
  8
DIMNSIONS
  6
CONTINUOUS
 62
     7
 10
-275.0
 20
78.999999999896275
 30
0.0
 11
-275.0
 21
74.999999999896275
 31
0.0
  0
LINE
  5
AD
  8
DIMNSIONS
  6
CONTINUOUS
 62
     7
 10
-275.0
 20
74.999999999896275
 30
0.0
 11
-275.0
 21
49.999999999896261
 31
0.0
  0
LINE
  5
AE
  8
DIMNSIONS
  6
CONTINUOUS
 62
     7
 10
-275.0
 20
74.999999999896275
 30
0.0
 11
-271.6498010242488
 21
62.496887206927511
 31
0.0
  0
LINE
  5
AF
  8
DIMNSIONS
  6
CONTINUOUS
 62
     7
 10
-275.0
 20
74.999999999896275
 30
0.0
 11
-278.3501989757512
 21
62.496887206927511
 31
0.0
  0
LINE
  5
B0
  8
DIMNSIONS
  6
CONTINUOUS
 62
     7
 10
-275.0
 20
78.999999999896275
 30
0.0
 11
-275.0
 21
108.8194444444444
 31
0.0
  0
LINE
  5
B1
  8
DIMNSIONS
  6
CONTINUOUS
 62
     7
 10
-275.0
 20
78.999999999896275
 30
0.0
 11
-278.3501989757512
 21
91.503112792865011
 31
0.0
  0
LINE
  5
B2
  8
DIMNSIONS
  6
CONTINUOUS
 62
     7
 10
-275.0
 20
78.999999999896275
 30
0.0
 11
-271.6498010242488
 21
91.503112792865011
 31
0.0
  0
TEXT
  5
B3
  8
DIMNSIONS
 62
     7
 10
-279.96944444444449
 20
100.0
 30
0.0
 40
13.57367621527778
  1
4
 50
90.0
 41
0.7
 11
-293.54312065972232
 21
100.0
 31
0.0
 73
     3
  0
TEXT
  5
B4
  8
DATA
 62
     7
 10
347.51118065563082
 20
-440.2182899999998
 30
0.0
 40
12.21630859375
  1
286S
 41
0.7
 11
347.51118065563082
 21
-428.00198140624991
 31
0.0
 73
     3
  0
TEXT
  5
B5
  8
DATA
 62
     7
 10
348.30212822844157
 20
-401.66443108847881
 30
0.0
 40
12.21630859375
  1
dbx
 41
0.7
 11
348.30212822844157
 21
-389.44812249472892
 31
0.0
 73
     3
  0
TEXT
  5
B6
  8
DATA
 62
     7
 10
-300.0
 20
-474.68273999999991
 30
0.0
 40
8.1442057291666661
  1
仕様および外観は予告なく変更されることがありますので、ご了承ください。
 41
0.7
 11
-300.0
 21
-466.53853427083322
 31
0.0
 73
     3
  0
LINE
  5
B7
  8
DATA
  6
CONTINUOUS
 62
     7
 10
499.99999999985113
 20
-180.59999999966439
 30
0.0
 11
349.99999999985062
 21
-180.59999999966439
 31
0.0
  0
LINE
  5
B8
  8
DATA
  6
CONTINUOUS
 62
     7
 10
499.99999999985113
 20
-224.9999999996644
 30
0.0
 11
499.99999999985113
 21
-180.59999999966439
 31
0.0
  0
LINE
  5
B9
  8
DATA
  6
CONTINUOUS
 62
     7
 10
349.99999999985062
 20
-224.9999999996644
 30
0.0
 11
499.99999999985113
 21
-224.9999999996644
 31
0.0
  0
LINE
  5
BA
  8
DATA
  6
CONTINUOUS
 62
     7
 10
349.99999999985062
 20
-180.59999999966439
 30
0.0
 11
349.99999999985062
 21
-224.9999999996644
 31
0.0
  0
LINE
  5
BB
  8
DATA
  6
CONTINUOUS
 62
     7
 10
-224.999999999778
 20
-75.000000000103171
 30
0.0
 11
-224.999999999778
 21
-72.000000000103114
 31
0.0
  0
LINE
  5
BC
  8
DATA
  6
CONTINUOUS
 62
     7
 10
258.00000000022101
 20
-75.000000000103171
 30
0.0
 11
-224.999999999778
 21
-75.000000000103171
 31
0.0
  0
LINE
  5
BD
  8
DATA
  6
CONTINUOUS
 62
     7
 10
-224.999999999778
 20
-72.000000000103114
 30
0.0
 11
258.00000000022101
 21
-72.000000000103114
 31
0.0
  0
ARC
  5
BE
  8
DATA
  6
CONTINUOUS
 62
     7
 10
-217.8380169149433
 20
-187.0000000000249
 30
0.0
 40
3.19999999999993
 50
90.0
 51
270.0
  0
ARC
  5
BF
  8
DATA
  6
CONTINUOUS
 62
     7
 10
-213.23801691494339
 20
-187.0000000000249
 30
0.0
 40
3.2000000000000441
 50
270.0
 51
90.0
  0
LINE
  5
C0
  8
DATA
  6
CONTINUOUS
 62
     7
 10
-217.8380169149433
 20
-183.80000000002499
 30
0.0
 11
-213.23801691494339
 21
-183.80000000002499
 31
0.0
  0
LINE
  5
C1
  8
DATA
  6
CONTINUOUS
 62
     7
 10
-217.8380169149433
 20
-190.2000000000248
 30
0.0
 11
-213.23801691494339
 21
-190.2000000000248
 31
0.0
  0
ARC
  5
C2
  8
DATA
  6
CONTINUOUS
 62
     7
 10
247.16198308505571
 20
-187.0000000000249
 30
0.0
 40
3.19999999999993
 50
90.0
 51
270.0
  0
ARC
  5
C3
  8
DATA
  6
CONTINUOUS
 62
     7
 10
251.76198308505559
 20
-187.0000000000249
 30
0.0
 40
3.2000000000000441
 50
270.0
 51
90.0
  0
LINE
  5
C4
  8
DATA
  6
CONTINUOUS
 62
     7
 10
247.16198308505571
 20
-183.80000000002499
 30
0.0
 11
251.76198308505559
 21
-183.80000000002499
 31
0.0
  0
LINE
  5
C5
  8
DATA
  6
CONTINUOUS
 62
     7
 10
247.16198308505571
 20
-190.2000000000248
 30
0.0
 11
251.76198308505559
 21
-190.2000000000248
 31
0.0
  0
ARC
  5
C6
  8
DATA
  6
CONTINUOUS
 62
     7
 10
-217.8380169149433
 20
-218.60000000002489
 30
0.0
 40
3.19999999999993
 50
90.0
 51
270.0
  0
ARC
  5
C7
  8
DATA
  6
CONTINUOUS
 62
     7
 10
-213.23801691494339
 20
-218.60000000002489
 30
0.0
 40
3.2000000000000441
 50
270.0
 51
90.0
  0
LINE
  5
C8
  8
DATA
  6
CONTINUOUS
 62
     7
 10
-217.8380169149433
 20
-221.80000000002499
 30
0.0
 11
-213.23801691494339
 21
-221.80000000002499
 31
0.0
  0
LINE
  5
C9
  8
DATA
  6
CONTINUOUS
 62
     7
 10
-217.8380169149433
 20
-215.40000000002499
 30
0.0
 11
-213.23801691494339
 21
-215.40000000002499
 31
0.0
  0
ARC
  5
CA
  8
DATA
  6
CONTINUOUS
 62
     7
 10
247.16198308505571
 20
-218.60000000002489
 30
0.0
 40
3.19999999999993
 50
90.0
 51
270.0
  0
ARC
  5
CB
  8
DATA
  6
CONTINUOUS
 62
     7
 10
251.76198308505559
 20
-218.60000000002489
 30
0.0
 40
3.2000000000000441
 50
270.0
 51
90.0
  0
LINE
  5
CC
  8
DATA
  6
CONTINUOUS
 62
     7
 10
247.16198308505571
 20
-221.80000000002499
 30
0.0
 11
251.76198308505559
 21
-221.80000000002499
 31
0.0
  0
LINE
  5
CD
  8
DATA
  6
CONTINUOUS
 62
     7
 10
247.16198308505571
 20
-215.40000000002499
 30
0.0
 11
251.76198308505559
 21
-215.40000000002499
 31
0.0
  0
CIRCLE
  5
CE
  8
DATA
  6
CONTINUOUS
 62
     7
 10
228.9994701317994
 20
-191.08283304876321
 30
0.0
 40
2.800000000000082
  0
POLYLINE
  5
CF
  8
DATA
  6
CONTINUOUS
 62
     7
 66
     1
 10
0.0
 20
0.0
 30
0.0
 70
     1
  0
VERTEX
  5
A1E
  8
DATA
  6
CONTINUOUS
 62
     7
 10
227.59947013179931
 20
-191.08283304876321
 30
0.0
  0
VERTEX
  5
A1F
  8
DATA
  6
CONTINUOUS
 62
     7
 10
228.2994701317993
 20
-189.8703974834651
 30
0.0
  0
VERTEX
  5
A20
  8
DATA
  6
CONTINUOUS
 62
     7
 10
229.69947013179939
 20
-189.8703974834651
 30
0.0
  0
VERTEX
  5
A21
  8
DATA
  6
CONTINUOUS
 62
     7
 10
230.3994701317994
 20
-191.08283304876321
 30
0.0
  0
VERTEX
  5
A22
  8
DATA
  6
CONTINUOUS
 62
     7
 10
229.69947013179939
 20
-192.2952686140616
 30
0.0
  0
VERTEX
  5
A23
  8
DATA
  6
CONTINUOUS
 62
     7
 10
228.2994701317993
 20
-192.2952686140616
 30
0.0
  0
SEQEND
  5
A24
  8
DATA
  6
CONTINUOUS
 62
     7
  0
CIRCLE
  5
D8
  8
DATA
  6
CONTINUOUS
 62
     7
 10
228.9994701317994
 20
-214.5171669512865
 30
0.0
 40
2.800000000000082
  0
POLYLINE
  5
D9
  8
DATA
  6
CONTINUOUS
 62
     7
 66
     1
 10
0.0
 20
0.0
 30
0.0
 70
     1
  0
VERTEX
  5
A25
  8
DATA
  6
CONTINUOUS
 62
     7
 10
227.59947013179931
 20
-214.5171669512865
 30
0.0
  0
VERTEX
  5
A26
  8
DATA
  6
CONTINUOUS
 62
     7
 10
228.2994701317993
 20
-215.72960251658481
 30
0.0
  0
VERTEX
  5
A27
  8
DATA
  6
CONTINUOUS
 62
     7
 10
229.69947013179939
 20
-215.72960251658481
 30
0.0
  0
VERTEX
  5
A28
  8
DATA
  6
CONTINUOUS
 62
     7
 10
230.3994701317994
 20
-214.5171669512865
 30
0.0
  0
VERTEX
  5
A29
  8
DATA
  6
CONTINUOUS
 62
     7
 10
229.69947013179939
 20
-213.30473138598839
 30
0.0
  0
VERTEX
  5
A2A
  8
DATA
  6
CONTINUOUS
 62
     7
 10
228.2994701317993
 20
-213.30473138598839
 30
0.0
  0
SEQEND
  5
A2B
  8
DATA
  6
CONTINUOUS
 62
     7
  0
LINE
  5
E2
  8
DATA
  6
CONTINUOUS
 62
     7
 10
-202.999999999778
 20
-71.509467757520369
 30
0.0
 11
235.00000000022101
 21
-71.509467757520369
 31
0.0
  0
LINE
  5
E3
  8
DATA
  6
CONTINUOUS
 62
     7
 10
-202.999999999778
 20
74.999999999896275
 30
0.0
 11
-202.999999999778
 21
-71.509467757520369
 31
0.0
  0
LINE
  5
E4
  8
DATA
  6
CONTINUOUS
 62
     7
 10
235.00000000022101
 20
74.999999999896275
 30
0.0
 11
-202.999999999778
 21
74.999999999896275
 31
0.0
  0
LINE
  5
E5
  8
DATA
  6
CONTINUOUS
 62
     7
 10
235.00000000022101
 20
-71.509467757520369
 30
0.0
 11
235.00000000022101
 21
74.999999999896275
 31
0.0
  0
POLYLINE
  5
E6
  8
DATA
  6
CONTINUOUS
 62
     7
 66
     1
 10
0.0
 20
0.0
 30
0.0
 70
     1
  0
VERTEX
  5
A2C
  8
DATA
  6
CONTINUOUS
 62
     7
 10
-193.999999999778
 20
-71.500000000103114
 30
0.0
  0
VERTEX
  5
A2D
  8
DATA
  6
CONTINUOUS
 62
     7
 10
226.00000000022101
 20
-71.500000000103114
 30
0.0
  0
VERTEX
  5
A2E
  8
DATA
  6
CONTINUOUS
 62
     7
 10
226.00000000022101
 20
-72.000000000103114
 30
0.0
  0
VERTEX
  5
A2F
  8
DATA
  6
CONTINUOUS
 62
     7
 10
-193.999999999778
 20
-72.000000000103114
 30
0.0
  0
SEQEND
  5
A30
  8
DATA
  6
CONTINUOUS
 62
     7
  0
LINE
  5
ED
  8
DATA
  6
CONTINUOUS
 62
     7
 10
-202.999999999778
 20
-71.509467757520369
 30
0.0
 11
-202.999999999778
 21
-72.000000000103114
 31
0.0
  0
LINE
  5
EE
  8
DATA
  6
CONTINUOUS
 62
     7
 10
235.00000000022101
 20
-71.509467757520369
 30
0.0
 11
235.00000000022101
 21
-72.000000000103114
 31
0.0
  0
ARC
  5
EF
  8
DATA
  6
CONTINUOUS
 62
     7
 10
-200.4615384613162
 20
-55.000000000103121
 30
0.0
 40
4.8384615384616803
 50
136.99713135190649
 51
223.00286864809451
  0
LINE
  5
F0
  8
DATA
  6
CONTINUOUS
 62
     7
 10
-203.999999999778
 20
-51.700000000103159
 30
0.0
 11
-202.999999999778
 21
-51.700000000103159
 31
0.0
  0
LINE
  5
F1
  8
DATA
  6
CONTINUOUS
 62
     7
 10
-203.999999999778
 20
-58.300000000103182
 30
0.0
 11
-202.999999999778
 21
-58.300000000103182
 31
0.0
  0
ARC
  5
F2
  8
DATA
  6
CONTINUOUS
 62
     7
 10
-200.4615384613162
 20
56.999999999896261
 30
0.0
 40
4.8384615384617158
 50
136.99713135190601
 51
223.00286864809399
  0
LINE
  5
F3
  8
DATA
  6
CONTINUOUS
 62
     7
 10
-203.999999999778
 20
60.299999999896272
 30
0.0
 11
-202.999999999778
 21
60.299999999896272
 31
0.0
  0
LINE
  5
F4
  8
DATA
  6
CONTINUOUS
 62
     7
 10
-203.999999999778
 20
53.699999999896249
 30
0.0
 11
-202.999999999778
 21
53.699999999896249
 31
0.0
  0
ARC
  5
F5
  8
DATA
  6
CONTINUOUS
 62
     7
 10
232.4615384617592
 20
-55.000000000103121
 30
0.0
 40
4.8384615384617549
 50
316.99713135190552
 51
43.002868648093511
  0
LINE
  5
F6
  8
DATA
  6
CONTINUOUS
 62
     7
 10
236.00000000022101
 20
-51.700000000103159
 30
0.0
 11
235.00000000022101
 21
-51.700000000103159
 31
0.0
  0
LINE
  5
F7
  8
DATA
  6
CONTINUOUS
 62
     7
 10
236.00000000022101
 20
-58.300000000103182
 30
0.0
 11
235.00000000022101
 21
-58.300000000103182
 31
0.0
  0
ARC
  5
F8
  8
DATA
  6
CONTINUOUS
 62
     7
 10
232.4615384617592
 20
56.999999999896261
 30
0.0
 40
4.8384615384617158
 50
316.99713135190598
 51
43.002868648093987
  0
LINE
  5
F9
  8
DATA
  6
CONTINUOUS
 62
     7
 10
236.00000000022101
 20
60.299999999896272
 30
0.0
 11
235.00000000022101
 21
60.299999999896272
 31
0.0
  0
LINE
  5
FA
  8
DATA
  6
CONTINUOUS
 62
     7
 10
236.00000000022101
 20
53.699999999896249
 30
0.0
 11
235.00000000022101
 21
53.699999999896249
 31
0.0
  0
LINE
  5
FB
  8
DATA
  6
CONTINUOUS
 62
     7
 10
-197.0894418308196
 20
-78.000000000103171
 30
0.0
 11
-194.48944183081949
 21
-78.000000000103171
 31
0.0
  0
LINE
  5
FC
  8
DATA
  6
CONTINUOUS
 62
     7
 10
-198.5894418308196
 20
-76.500000000103171
 30
0.0
 11
-198.5894418308196
 21
-75.000000000103171
 31
0.0
  0
LINE
  5
FD
  8
DATA
  6
CONTINUOUS
 62
     7
 10
-192.98944183081949
 20
-76.500000000103171
 30
0.0
 11
-192.98944183081949
 21
-75.000000000103171
 31
0.0
  0
ARC
  5
FE
  8
DATA
  6
CONTINUOUS
 62
     7
 10
-197.0894418308196
 20
-76.500000000103171
 30
0.0
 40
1.5
 50
180.0
 51
270.0
  0
ARC
  5
FF
  8
DATA
  6
CONTINUOUS
 62
     7
 10
-194.48944183081949
 20
-76.500000000103171
 30
0.0
 40
1.5
 50
270.0
 51
0.0
  0
LINE
  5
100
  8
DATA
  6
CONTINUOUS
 62
     7
 10
229.08944183126249
 20
-78.000000000103171
 30
0.0
 11
226.4894418312625
 21
-78.000000000103171
 31
0.0
  0
LINE
  5
101
  8
DATA
  6
CONTINUOUS
 62
     7
 10
230.58944183126249
 20
-76.500000000103171
 30
0.0
 11
230.58944183126249
 21
-75.000000000103171
 31
0.0
  0
LINE
  5
102
  8
DATA
  6
CONTINUOUS
 62
     7
 10
224.9894418312625
 20
-76.500000000103171
 30
0.0
 11
224.9894418312625
 21
-75.000000000103171
 31
0.0
  0
ARC
  5
103
  8
DATA
  6
CONTINUOUS
 62
     7
 10
229.08944183126249
 20
-76.500000000103171
 30
0.0
 40
1.5
 50
270.0
 51
0.0
  0
ARC
  5
104
  8
DATA
  6
CONTINUOUS
 62
     7
 10
226.4894418312625
 20
-76.500000000103171
 30
0.0
 40
1.5
 50
180.0
 51
270.0
  0
LINE
  5
105
  8
DATA
  6
CONTINUOUS
 62
     7
 10
195.50000000022101
 20
74.999999999896275
 30
0.0
 11
195.50000000022101
 21
76.499999999896275
 31
0.0
  0
LINE
  5
106
  8
DATA
  6
CONTINUOUS
 62
     7
 10
225.50000000022101
 20
76.499999999896275
 30
0.0
 11
225.50000000022101
 21
74.999999999896275
 31
0.0
  0
LINE
  5
107
  8
DATA
  6
CONTINUOUS
 62
     7
 10
195.50000000022101
 20
76.499999999896275
 30
0.0
 11
225.50000000022101
 21
76.499999999896275
 31
0.0
  0
ARC
  5
108
  8
DATA
  6
CONTINUOUS
 62
     7
 10
251.7999999996477
 20
206.40000000011409
 30
0.0
 40
3.1999999999999882
 50
270.0
 51
90.0
  0
ARC
  5
109
  8
DATA
  6
CONTINUOUS
 62
     7
 10
247.1999999996477
 20
206.40000000011409
 30
0.0
 40
3.2000000000000002
 50
90.0
 51
270.0
  0
LINE
  5
10A
  8
DATA
  6
CONTINUOUS
 62
     7
 10
251.7999999996477
 20
203.2000000001141
 30
0.0
 11
247.1999999996477
 21
203.2000000001141
 31
0.0
  0
LINE
  5
10B
  8
DATA
  6
CONTINUOUS
 62
     7
 10
251.7999999996477
 20
209.60000000011411
 30
0.0
 11
247.1999999996477
 21
209.60000000011411
 31
0.0
  0
ARC
  5
10C
  8
DATA
  6
CONTINUOUS
 62
     7
 10
-213.20000000035151
 20
206.40000000011409
 30
0.0
 40
3.1999999999999882
 50
270.0
 51
90.0
  0
ARC
  5
10D
  8
DATA
  6
CONTINUOUS
 62
     7
 10
-217.80000000035139
 20
206.40000000011409
 30
0.0
 40
3.2000000000000002
 50
90.0
 51
270.0
  0
LINE
  5
10E
  8
DATA
  6
CONTINUOUS
 62
     7
 10
-213.20000000035151
 20
203.2000000001141
 30
0.0
 11
-217.80000000035139
 21
203.2000000001141
 31
0.0
  0
LINE
  5
10F
  8
DATA
  6
CONTINUOUS
 62
     7
 10
-213.20000000035151
 20
209.60000000011411
 30
0.0
 11
-217.80000000035139
 21
209.60000000011411
 31
0.0
  0
ARC
  5
110
  8
DATA
  6
CONTINUOUS
 62
     7
 10
251.7999999996477
 20
238.00000000011411
 30
0.0
 40
3.1999999999999882
 50
270.0
 51
90.0
  0
ARC
  5
111
  8
DATA
  6
CONTINUOUS
 62
     7
 10
247.1999999996477
 20
238.00000000011411
 30
0.0
 40
3.1999999999999722
 50
90.0
 51
270.0
  0
LINE
  5
112
  8
DATA
  6
CONTINUOUS
 62
     7
 10
251.7999999996477
 20
241.2000000001141
 30
0.0
 11
247.1999999996477
 21
241.2000000001141
 31
0.0
  0
LINE
  5
113
  8
DATA
  6
CONTINUOUS
 62
     7
 10
251.7999999996477
 20
234.8000000001141
 30
0.0
 11
247.1999999996477
 21
234.8000000001141
 31
0.0
  0
ARC
  5
114
  8
DATA
  6
CONTINUOUS
 62
     7
 10
-213.20000000035151
 20
238.00000000011411
 30
0.0
 40
3.1999999999999882
 50
270.0
 51
90.0
  0
ARC
  5
115
  8
DATA
  6
CONTINUOUS
 62
     7
 10
-217.80000000035139
 20
238.00000000011411
 30
0.0
 40
3.1999999999999722
 50
90.0
 51
270.0
  0
LINE
  5
116
  8
DATA
  6
CONTINUOUS
 62
     7
 10
-213.20000000035151
 20
241.2000000001141
 30
0.0
 11
-217.80000000035139
 21
241.2000000001141
 31
0.0
  0
LINE
  5
117
  8
DATA
  6
CONTINUOUS
 62
     7
 10
-213.20000000035151
 20
234.8000000001141
 30
0.0
 11
-217.80000000035139
 21
234.8000000001141
 31
0.0
  0
LINE
  5
118
  8
DATA
  6
CONTINUOUS
 62
     7
 10
235.9999999996478
 20
244.40000000011409
 30
0.0
 11
235.9999999996478
 21
200.00000000011411
 31
0.0
  0
LINE
  5
119
  8
DATA
  6
CONTINUOUS
 62
     7
 10
-202.00000000035141
 20
244.40000000011409
 30
0.0
 11
-202.00000000035141
 21
200.00000000011411
 31
0.0
  0
LINE
  5
11A
  8
DATA
  6
CONTINUOUS
 62
     7
 10
230.6999999996477
 20
205.3000000001141
 30
0.0
 11
-196.70000000035131
 21
205.3000000001141
 31
0.0
  0
LINE
  5
11B
  8
DATA
  6
CONTINUOUS
 62
     7
 10
-196.70000000035131
 20
244.40000000011409
 30
0.0
 11
-196.70000000035131
 21
205.3000000001141
 31
0.0
  0
LINE
  5
11C
  8
DATA
  6
CONTINUOUS
 62
     7
 10
230.6999999996477
 20
244.40000000011409
 30
0.0
 11
230.6999999996477
 21
205.3000000001141
 31
0.0
  0
LINE
  5
11D
  8
DATA
  6
CONTINUOUS
 62
     7
 10
230.6999999996477
 20
205.3000000001141
 30
0.0
 11
235.9999999996478
 21
200.00000000011411
 31
0.0
  0
LINE
  5
11E
  8
DATA
  6
CONTINUOUS
 62
     7
 10
-196.70000000035131
 20
205.3000000001141
 30
0.0
 11
-202.00000000035141
 21
200.00000000011411
 31
0.0
  0
LINE
  5
11F
  8
DATA
  6
CONTINUOUS
 62
     7
 10
223.48129973778481
 20
233.35720748073871
 30
0.0
 11
223.4216313925653
 21
233.35720748073871
 31
0.0
  0
LINE
  5
120
  8
DATA
  6
CONTINUOUS
 62
     7
 10
226.15860881910541
 20
230.69165503064039
 30
0.0
 11
226.15860881910541
 21
230.74977031270279
 31
0.0
  0
POLYLINE
  5
121
  8
DATA
  6
CONTINUOUS
 62
     7
 66
     1
 10
0.0
 20
0.0
 30
0.0
  0
VERTEX
  5
A31
  8
DATA
  6
CONTINUOUS
 62
     7
 10
226.15860881910541
 20
212.66965982803501
 30
0.0
  0
VERTEX
  5
A32
  8
DATA
  6
CONTINUOUS
 62
     7
 10
226.15860881910541
 20
212.70103511716661
 30
0.0
  0
VERTEX
  5
A33
  8
DATA
  6
CONTINUOUS
 62
     7
 10
226.15860881910541
 20
212.70103511716661
 30
0.0
  0
SEQEND
  5
A34
  8
DATA
  6
CONTINUOUS
 62
     7
  0
POLYLINE
  5
127
  8
DATA
  6
CONTINUOUS
 62
     7
 66
     1
 10
0.0
 20
0.0
 30
0.0
  0
VERTEX
  5
A35
  8
DATA
  6
CONTINUOUS
 62
     7
 10
198.04795174723
 20
210.03548266706539
 30
0.0
  0
VERTEX
  5
A36
  8
DATA
  6
CONTINUOUS
 62
     7
 10
198.10761667912371
 20
210.03548266706539
 30
0.0
  0
VERTEX
  5
A37
  8
DATA
  6
CONTINUOUS
 62
     7
 10
198.10761667912371
 20
210.03548266706539
 30
0.0
  0
SEQEND
  5
A38
  8
DATA
  6
CONTINUOUS
 62
     7
  0
TEXT
  5
12D
  8
DATA
 62
     7
 10
217.33221765136349
 20
208.74979345172511
 30
0.0
 40
2.171788194444443
  1
15 WATTS
 50
180.0
 41
0.7
 11
217.33221765136349
 21
206.57800525728069
 31
0.0
 73
     3
  0
TEXT
  5
12E
  8
DATA
 62
     7
 10
219.81663144533681
 20
236.6196985899648
 30
0.0
 40
2.171788194444443
  1
100V～50/60Hz
 50
180.0
 41
0.7
 11
219.81663144533681
 21
234.44791039552041
 31
0.0
 73
     3
  0
ARC
  5
12F
  8
DATA
  6
CONTINUOUS
 62
     7
 10
233.461538461186
 20
238.44301119094371
 30
0.0
 40
4.8384615384617158
 50
316.99713135190598
 51
43.002868648093852
  0
LINE
  5
130
  8
DATA
  6
CONTINUOUS
 62
     7
 10
236.9999999996478
 20
235.14301119094361
 30
0.0
 11
235.9999999996478
 21
235.14301119094361
 31
0.0
  0
LINE
  5
131
  8
DATA
  6
CONTINUOUS
 62
     7
 10
236.9999999996478
 20
241.74301119094369
 30
0.0
 11
235.9999999996478
 21
241.74301119094369
 31
0.0
  0
ARC
  5
132
  8
DATA
  6
CONTINUOUS
 62
     7
 10
-199.4615384618896
 20
238.44301119094371
 30
0.0
 40
4.838461538461706
 50
136.99713135190601
 51
223.00286864809399
  0
LINE
  5
133
  8
DATA
  6
CONTINUOUS
 62
     7
 10
-203.00000000035141
 20
235.14301119094361
 30
0.0
 11
-202.00000000035141
 21
235.14301119094361
 31
0.0
  0
LINE
  5
134
  8
DATA
  6
CONTINUOUS
 62
     7
 10
-203.00000000035141
 20
241.74301119094369
 30
0.0
 11
-202.00000000035141
 21
241.74301119094369
 31
0.0
  0
LINE
  5
135
  8
DATA
  6
CONTINUOUS
 62
     7
 10
352.9999999998505
 20
-180.59999999966439
 30
0.0
 11
352.9999999998505
 21
-224.9999999996644
 31
0.0
  0
CIRCLE
  5
136
  8
DATA
  6
CONTINUOUS
 62
     7
 10
369.99999999985039
 20
-219.9999999996644
 30
0.0
 40
3.350000000000021
  0
LINE
  5
137
  8
DATA
  6
CONTINUOUS
 62
     7
 10
501.49999999985113
 20
-190.59999999966439
 30
0.0
 11
501.49999999985113
 21
-213.9999999996644
 31
0.0
  0
LINE
  5
138
  8
DATA
  6
CONTINUOUS
 62
     7
 10
501.49999999985113
 20
-190.59999999966439
 30
0.0
 11
499.99999999985113
 21
-190.59999999966439
 31
0.0
  0
LINE
  5
139
  8
DATA
  6
CONTINUOUS
 62
     7
 10
501.49999999985113
 20
-213.9999999996644
 30
0.0
 11
499.99999999985113
 21
-213.9999999996644
 31
0.0
  0
LINE
  5
13A
  8
DATA
  6
CONTINUOUS
 62
     7
 10
502.99999999985113
 20
-187.09999999966439
 30
0.0
 11
502.99999999985113
 21
-192.59999999966439
 31
0.0
  0
LINE
  5
13B
  8
DATA
  6
CONTINUOUS
 62
     7
 10
501.99999999985101
 20
-193.59999999966439
 30
0.0
 11
501.49999999985113
 21
-193.59999999966439
 31
0.0
  0
LINE
  5
13C
  8
DATA
  6
CONTINUOUS
 62
     7
 10
501.69999999985112
 20
-193.29999999966421
 30
0.0
 11
501.49999999985113
 21
-193.29999999966421
 31
0.0
  0
LINE
  5
13D
  8
DATA
  6
CONTINUOUS
 62
     7
 10
502.69999999985112
 20
-187.09999999966439
 30
0.0
 11
502.69999999985112
 21
-192.29999999966421
 31
0.0
  0
LINE
  5
13E
  8
DATA
  6
CONTINUOUS
 62
     7
 10
502.69999999985112
 20
-187.09999999966439
 30
0.0
 11
502.99999999985113
 21
-187.09999999966439
 31
0.0
  0
ARC
  5
13F
  8
DATA
  6
CONTINUOUS
 62
     7
 10
501.69999999985112
 20
-192.29999999966421
 30
0.0
 40
1.0
 50
270.0
 51
0.0
  0
ARC
  5
140
  8
DATA
  6
CONTINUOUS
 62
     7
 10
501.99999999985101
 20
-192.59999999966439
 30
0.0
 40
1.0
 50
270.0
 51
0.0
  0
TEXT
  5
141
  8
DATA
 62
     7
 10
-171.4933397523254
 20
-213.129625398201
 30
0.0
 40
1.6288411458333321
  1
dB
 41
0.7
 11
-171.4933397523254
 21
-211.50078425236771
 31
0.0
 73
     3
  0
TEXT
  5
142
  8
DATA
 62
     7
 10
-223.91341643529739
 20
-208.49984825047181
 30
0.0
 40
2.1162109375
  1
PROFESSIONAL PRODUCTS  
 41
0.7
 11
-223.91341643529739
 21
-206.38363731297181
 31
0.0
 73
     3
  0
TEXT
  5
143
  8
DATA
 62
     7
 10
238.7687403006133
 20
-208.139698416383
 30
0.0
 40
1.995330403645833
  1
 MicPreamp/ 
 41
0.7
 11
238.7687403006133
 21
-206.1443680127372
 31
0.0
 73
     3
  0
TEXT
  5
144
  8
DATA
 62
     7
 10
238.7687403006133
 20
-210.73261508304969
 30
0.0
 40
1.995330403645833
  1
  Processor
 41
0.7
 11
238.7687403006133
 21
-208.7372846794039
 31
0.0
 73
     3
  0
CIRCLE
  5
145
  8
DATA
  6
CONTINUOUS
 62
     7
 10
-196.04042487621641
 20
-214.5171669512865
 30
0.0
 40
2.8000000000000109
  0
POLYLINE
  5
146
  8
DATA
  6
CONTINUOUS
 62
     7
 66
     1
 10
0.0
 20
0.0
 30
0.0
 70
     1
  0
VERTEX
  5
A39
  8
DATA
  6
CONTINUOUS
 62
     7
 10
-194.6404248762164
 20
-214.5171669512865
 30
0.0
  0
VERTEX
  5
A3A
  8
DATA
  6
CONTINUOUS
 62
     7
 10
-195.34042487621639
 20
-215.72960251658481
 30
0.0
  0
VERTEX
  5
A3B
  8
DATA
  6
CONTINUOUS
 62
     7
 10
-196.74042487621639
 20
-215.72960251658481
 30
0.0
  0
VERTEX
  5
A3C
  8
DATA
  6
CONTINUOUS
 62
     7
 10
-197.44042487621641
 20
-214.5171669512865
 30
0.0
  0
VERTEX
  5
A3D
  8
DATA
  6
CONTINUOUS
 62
     7
 10
-196.74042487621639
 20
-213.30473138598839
 30
0.0
  0
VERTEX
  5
A3E
  8
DATA
  6
CONTINUOUS
 62
     7
 10
-195.34042487621639
 20
-213.30473138598839
 30
0.0
  0
SEQEND
  5
A3F
  8
DATA
  6
CONTINUOUS
 62
     7
  0
LINE
  5
14F
  8
DATA
  6
CONTINUOUS
 62
     7
 10
348.49902125459869
 20
-196.0863751875344
 30
0.0
 11
344.99902125459869
 21
-196.38637518753441
 31
0.0
  0
LINE
  5
150
  8
DATA
  6
CONTINUOUS
 62
     7
 10
344.99902125459869
 20
-196.38637518753441
 30
0.0
 11
333.49902125459852
 21
-198.01348302366731
 31
0.0
  0
LINE
  5
151
  8
DATA
  6
CONTINUOUS
 62
     7
 10
344.99902125459869
 20
-209.07261809180531
 30
0.0
 11
333.49902125459852
 21
-207.4689604226505
 31
0.0
  0
LINE
  5
152
  8
DATA
  6
CONTINUOUS
 62
     7
 10
333.49902125459852
 20
-198.01348302366731
 30
0.0
 11
333.49902125459852
 21
-207.4689604226505
 31
0.0
  0
LINE
  5
153
  8
DATA
  6
CONTINUOUS
 62
     7
 10
349.99902125459852
 20
-198.3412217231589
 30
0.0
 11
348.49902125459869
 21
-198.3412217231589
 31
0.0
  0
LINE
  5
154
  8
DATA
  6
CONTINUOUS
 62
     7
 10
349.99902125459852
 20
-207.14122172315891
 30
0.0
 11
348.49902125459869
 21
-207.14122172315891
 31
0.0
  0
LINE
  5
155
  8
DATA
  6
CONTINUOUS
 62
     7
 10
333.49902125459852
 20
-199.14122172315879
 30
0.0
 11
344.9990212545988
 21
-198.5294966396697
 31
0.0
  0
LINE
  5
156
  8
DATA
  6
CONTINUOUS
 62
     7
 10
333.49902125459852
 20
-206.34122172315901
 30
0.0
 11
344.9990212545988
 21
-206.92949663966999
 31
0.0
  0
TEXT
  5
157
  8
DATA
 62
     7
 10
237.292091612756
 20
-203.66228354167589
 30
0.0
 40
5.4294704861111107
  1
286S
 41
0.7
 11
237.292091612756
 21
-198.2328130555648
 31
0.0
 73
     3
  0
CIRCLE
  5
158
  8
DATA
  6
CONTINUOUS
 62
     7
 10
-196.04042487621641
 20
-191.1382447223146
 30
0.0
 40
2.8000000000000109
  0
POLYLINE
  5
159
  8
DATA
  6
CONTINUOUS
 62
     7
 66
     1
 10
0.0
 20
0.0
 30
0.0
 70
     1
  0
VERTEX
  5
A40
  8
DATA
  6
CONTINUOUS
 62
     7
 10
-194.6404248762164
 20
-191.1382447223146
 30
0.0
  0
VERTEX
  5
A41
  8
DATA
  6
CONTINUOUS
 62
     7
 10
-195.34042487621639
 20
-192.3506802876129
 30
0.0
  0
VERTEX
  5
A42
  8
DATA
  6
CONTINUOUS
 62
     7
 10
-196.74042487621639
 20
-192.3506802876129
 30
0.0
  0
VERTEX
  5
A43
  8
DATA
  6
CONTINUOUS
 62
     7
 10
-197.44042487621641
 20
-191.1382447223146
 30
0.0
  0
VERTEX
  5
A44
  8
DATA
  6
CONTINUOUS
 62
     7
 10
-196.74042487621639
 20
-189.92580915701649
 30
0.0
  0
VERTEX
  5
A45
  8
DATA
  6
CONTINUOUS
 62
     7
 10
-195.34042487621639
 20
-189.92580915701649
 30
0.0
  0
SEQEND
  5
A46
  8
DATA
  6
CONTINUOUS
 62
     7
  0
TEXT
  5
162
  8
DATA
 62
     7
 10
-172.3004926289706
 20
-215.55230967039731
 30
0.0
 40
1.6288411458333321
  1
GAIN
 41
0.7
 11
-172.3004926289706
 21
-213.92346852456399
 31
0.0
 73
     3
  0
LINE
  5
163
  8
DATA
  6
CONTINUOUS
 62
     7
 10
350.00513633572092
 20
-200.23403161619279
 30
0.0
 11
350.00513633572092
 21
-205.3840316161928
 31
0.0
  0
LINE
  5
164
  8
DATA
  6
CONTINUOUS
 62
     7
 10
345.00746380323278
 20
-200.22904755108129
 30
0.0
 11
333.49902125459852
 21
-200.8412217231589
 31
0.0
  0
LINE
  5
165
  8
DATA
  6
CONTINUOUS
 62
     7
 10
345.00746380323278
 20
-196.30057700935711
 30
0.0
 11
345.00746380323278
 21
-209.0737953924891
 31
0.0
  0
LINE
  5
166
  8
DATA
  6
CONTINUOUS
 62
     7
 10
333.49902125459852
 20
-204.64122172315891
 30
0.0
 11
345.00746380323278
 21
-205.22992851267799
 31
0.0
  0
ARC
  5
167
  8
DATA
  6
CONTINUOUS
 62
     7
 10
-179.02154251066381
 20
238.0061643223286
 30
0.0
 40
3.0
 50
90.0
 51
180.0
  0
LINE
  5
168
  8
DATA
  6
CONTINUOUS
 62
     7
 10
-182.02154251066381
 20
210.00616432232869
 30
0.0
 11
-182.02154251066381
 21
238.0061643223286
 31
0.0
  0
ARC
  5
169
  8
DATA
  6
CONTINUOUS
 62
     7
 10
-179.02154251066381
 20
210.00616432232869
 30
0.0
 40
3.0
 50
180.0
 51
270.0
  0
CIRCLE
  5
16A
  8
DATA
  6
CONTINUOUS
 62
     7
 10
-141.02154251066381
 20
231.00616432232869
 30
0.0
 40
4.5
  0
CIRCLE
  5
16B
  8
DATA
  6
CONTINUOUS
 62
     7
 10
-141.02154251066381
 20
231.00616432232869
 30
0.0
 40
3.125
  0
TEXT
  5
16C
  8
DATA
 62
     7
 10
-131.34849216103291
 20
220.08795997785569
 30
0.0
 40
2.462499999999999
  1
 LINE  INPUT
 50
180.0
 41
0.7
 11
-131.34849216103291
 21
217.62545997785571
 31
0.0
 73
     3
  0
LINE
  5
16D
  8
DATA
  6
CONTINUOUS
 62
     7
 10
-71.588585306824044
 20
235.90400320965901
 30
0.0
 11
-71.588585306824044
 21
234.70400320965911
 31
0.0
  0
LINE
  5
16E
  8
DATA
  6
CONTINUOUS
 62
     7
 10
-70.864358270367049
 20
235.90400320965901
 30
0.0
 11
-70.032973882733941
 21
237.34400320965901
 31
0.0
  0
LINE
  5
16F
  8
DATA
  6
CONTINUOUS
 62
     7
 10
-71.614358270367035
 20
235.90400320965901
 30
0.0
 11
-70.782973882733941
 21
237.34400320965901
 31
0.0
  0
LINE
  5
170
  8
DATA
  6
CONTINUOUS
 62
     7
 10
-72.364358270367063
 20
235.90400320965901
 30
0.0
 11
-71.532973882733941
 21
237.34400320965901
 31
0.0
  0
LINE
  5
171
  8
DATA
  6
CONTINUOUS
 62
     7
 10
-72.833585306824091
 20
235.90400320965901
 30
0.0
 11
-70.343585306824068
 21
235.90400320965901
 31
0.0
  0
LINE
  5
172
  8
DATA
  6
CONTINUOUS
 62
     7
 10
-170.78897212968181
 20
78.828766053990293
 30
0.0
 11
-170.78897212968181
 21
75.82876605399035
 31
0.0
  0
LINE
  5
173
  8
DATA
  6
CONTINUOUS
 62
     7
 10
-165.98897212968171
 20
78.828766053990293
 30
0.0
 11
-165.98897212968171
 21
75.82876605399035
 31
0.0
  0
LINE
  5
174
  8
DATA
  6
CONTINUOUS
 62
     7
 10
-173.28897212968181
 20
78.828766053990293
 30
0.0
 11
-163.48897212968171
 21
78.828766053990293
 31
0.0
  0
LINE
  5
175
  8
DATA
  6
CONTINUOUS
 62
     7
 10
-173.28897212968181
 20
78.828766053990293
 30
0.0
 11
-173.28897212968181
 21
78.999999999896275
 31
0.0
  0
LINE
  5
176
  8
DATA
  6
CONTINUOUS
 62
     7
 10
-163.48897212968171
 20
78.828766053990293
 30
0.0
 11
-163.48897212968171
 21
78.999999999896275
 31
0.0
  0
LINE
  5
177
  8
DATA
  6
CONTINUOUS
 62
     7
 10
-187.4122848777908
 20
-217.0000000000249
 30
0.0
 11
-187.4122848777908
 21
-188.0000000000249
 31
0.0
  0
LINE
  5
178
  8
DATA
  6
CONTINUOUS
 62
     7
 10
219.9959506646
 20
-188.0000000000249
 30
0.0
 11
219.9959506646
 21
-217.0000000000249
 31
0.0
  0
CIRCLE
  5
179
  8
DATA
  6
CONTINUOUS
 62
     7
 10
16.961983085055682
 20
-185.6071053098531
 30
0.0
 40
2.8000000000000109
  0
POLYLINE
  5
17A
  8
DATA
  6
CONTINUOUS
 62
     7
 66
     1
 10
0.0
 20
0.0
 30
0.0
 70
     1
  0
VERTEX
  5
A47
  8
DATA
  6
CONTINUOUS
 62
     7
 10
18.361983085055702
 20
-185.6071053098531
 30
0.0
  0
VERTEX
  5
A48
  8
DATA
  6
CONTINUOUS
 62
     7
 10
17.661983085055731
 20
-184.39466974455479
 30
0.0
  0
VERTEX
  5
A49
  8
DATA
  6
CONTINUOUS
 62
     7
 10
16.261983085055679
 20
-184.39466974455479
 30
0.0
  0
VERTEX
  5
A4A
  8
DATA
  6
CONTINUOUS
 62
     7
 10
15.561983085055701
 20
-185.6071053098531
 30
0.0
  0
VERTEX
  5
A4B
  8
DATA
  6
CONTINUOUS
 62
     7
 10
16.261983085055679
 20
-186.81954087515109
 30
0.0
  0
VERTEX
  5
A4C
  8
DATA
  6
CONTINUOUS
 62
     7
 10
17.661983085055731
 20
-186.81954087515109
 30
0.0
  0
SEQEND
  5
A4D
  8
DATA
  6
CONTINUOUS
 62
     7
  0
CIRCLE
  5
183
  8
DATA
  6
CONTINUOUS
 62
     7
 10
-170.0979288232401
 20
-202.50752508766161
 30
0.0
 40
4.75
  0
CIRCLE
  5
184
  8
DATA
  6
CONTINUOUS
 62
     7
 10
-170.0979288232401
 20
-202.50752508766161
 30
0.0
 40
6.6499999999999764
  0
CIRCLE
  5
185
  8
DATA
  6
CONTINUOUS
 62
     7
 10
-170.0979288232401
 20
-202.50752508766161
 30
0.0
 40
6.25
  0
POLYLINE
  5
186
  8
DATA
  6
CONTINUOUS
 62
     7
 66
     1
 10
0.0
 20
0.0
 30
0.0
 70
   129
  0
VERTEX
  5
A4E
  8
DATA
  6
CONTINUOUS
 62
     7
 10
-169.88385917827051
 20
-195.2911909803629
 30
0.0
  0
VERTEX
  5
A4F
  8
DATA
  6
CONTINUOUS
 62
     7
 10
-169.88385917827051
 20
-195.2911909803629
 30
0.0
 42
-0.4142135623730475
  0
VERTEX
  5
A50
  8
DATA
  6
CONTINUOUS
 62
     7
 10
-169.18385917827061
 20
-195.991190980363
 30
0.0
  0
VERTEX
  5
A51
  8
DATA
  6
CONTINUOUS
 62
     7
 10
-169.18385917827061
 20
-201.75119098036311
 30
0.0
  0
VERTEX
  5
A52
  8
DATA
  6
CONTINUOUS
 62
     7
 10
-169.18385917827061
 20
-201.75119098036311
 30
0.0
 42
-0.4142135623730713
  0
VERTEX
  5
A53
  8
DATA
  6
CONTINUOUS
 62
     7
 10
-169.88385917827051
 20
-202.45119098036309
 30
0.0
  0
VERTEX
  5
A54
  8
DATA
  6
CONTINUOUS
 62
     7
 10
-170.0838591782703
 20
-202.45119098036309
 30
0.0
  0
VERTEX
  5
A55
  8
DATA
  6
CONTINUOUS
 62
     7
 10
-170.0838591782705
 20
-202.45119098036309
 30
0.0
 42
-0.4142135623730713
  0
VERTEX
  5
A56
  8
DATA
  6
CONTINUOUS
 62
     7
 10
-170.7838591782704
 20
-201.75119098036299
 30
0.0
  0
VERTEX
  5
A57
  8
DATA
  6
CONTINUOUS
 62
     7
 10
-170.7838591782704
 20
-195.991190980363
 30
0.0
  0
VERTEX
  5
A58
  8
DATA
  6
CONTINUOUS
 62
     7
 10
-170.7838591782704
 20
-195.991190980363
 30
0.0
 42
-0.4142135623730475
  0
VERTEX
  5
A59
  8
DATA
  6
CONTINUOUS
 62
     7
 10
-170.0838591782703
 20
-195.29119098036301
 30
0.0
  0
SEQEND
  5
A5A
  8
DATA
  6
CONTINUOUS
 62
     7
  0
LINE
  5
194
  8
DATA
  6
CONTINUOUS
 62
     7
 10
-174.78007576668651
 20
-201.70752508766159
 30
0.0
 11
-176.29651737225669
 21
-201.70752508766159
 31
0.0
  0
LINE
  5
195
  8
DATA
  6
CONTINUOUS
 62
     7
 10
-174.78007576668651
 20
-203.30752508766159
 30
0.0
 11
-176.29651737225669
 21
-203.30752508766159
 31
0.0
  0
LINE
  5
196
  8
DATA
  6
CONTINUOUS
 62
     7
 10
-165.4157818797936
 20
-201.70752508766159
 30
0.0
 11
-163.89934027422339
 21
-201.70752508766159
 31
0.0
  0
LINE
  5
197
  8
DATA
  6
CONTINUOUS
 62
     7
 10
-165.4157818797936
 20
-203.30752508766159
 30
0.0
 11
-163.89934027422339
 21
-203.30752508766159
 31
0.0
  0
LINE
  5
198
  8
DATA
  6
CONTINUOUS
 62
     7
 10
-173.97439210240881
 20
-199.76243265839119
 30
0.0
 11
-175.04667824498421
 21
-198.69014651581591
 31
0.0
  0
LINE
  5
199
  8
DATA
  6
CONTINUOUS
 62
     7
 10
-172.8430212525148
 20
-198.6310618084884
 30
0.0
 11
-173.91530739508559
 21
-197.55877566591741
 31
0.0
  0
LINE
  5
19A
  8
DATA
  6
CONTINUOUS
 62
     7
 10
-167.35283639396971
 20
-198.6310618084928
 30
0.0
 11
-166.2805502513944
 21
-197.55877566591741
 31
0.0
  0
LINE
  5
19B
  8
DATA
  6
CONTINUOUS
 62
     7
 10
-165.14917940149579
 20
-198.690146515816
 30
0.0
 11
-166.2214655440668
 21
-199.76243265838701
 31
0.0
  0
LINE
  5
19C
  8
DATA
  6
CONTINUOUS
 62
     7
 10
-165.14917940149579
 20
-206.3249036595073
 30
0.0
 11
-166.2214655440668
 21
-205.2526175169364
 31
0.0
  0
LINE
  5
19D
  8
DATA
  6
CONTINUOUS
 62
     7
 10
-166.2805502513944
 20
-207.4562745094056
 30
0.0
 11
-167.35283639396971
 21
-206.38398836683049
 31
0.0
  0
ARC
  5
19E
  8
DATA
  6
CONTINUOUS
 62
     7
 10
-170.17394855828931
 20
-202.42936123018359
 30
0.0
 40
7.6000000000000378
 50
300.65928338484542
 51
240.88271410567211
  0
LINE
  5
19F
  8
DATA
  6
CONTINUOUS
 62
     7
 10
-177.77354660104061
 20
-202.50752508766161
 30
0.0
 11
-178.74792882323811
 21
-202.50752508766161
 31
0.0
  0
LINE
  5
1A0
  8
DATA
  6
CONTINUOUS
 62
     7
 10
-161.44792882324009
 20
-202.50752508766161
 30
0.0
 11
-162.5743505155381
 21
-202.50752508766161
 31
0.0
  0
LINE
  5
1A1
  8
DATA
  6
CONTINUOUS
 62
     7
 10
-173.87210074298071
 20
-209.0689147105638
 30
0.0
 11
-174.3979508299314
 21
-210.01301046449879
 31
0.0
  0
LINE
  5
1A2
  8
DATA
  6
CONTINUOUS
 62
     7
 10
-175.44644777140181
 20
-207.9030028011785
 30
0.0
 11
-176.1768760023792
 21
-208.66129638608089
 31
0.0
  0
LINE
  5
1A3
  8
DATA
  6
CONTINUOUS
 62
     7
 10
-176.699566029388
 20
-206.32504045477799
 30
0.0
 11
-177.5864238458642
 21
-206.8370680538535
 31
0.0
  0
LINE
  5
1A4
  8
DATA
  6
CONTINUOUS
 62
     7
 10
-177.44805018060879
 20
-204.6310527590218
 30
0.0
 11
-178.4045388719463
 21
-204.9205583445206
 31
0.0
  0
LINE
  5
1A5
  8
DATA
  6
CONTINUOUS
 62
     7
 10
-177.77354660104061
 20
-202.50752508766161
 30
0.0
 11
-178.74792882323811
 21
-202.50752508766161
 31
0.0
  0
LINE
  5
1A6
  8
DATA
  6
CONTINUOUS
 62
     7
 10
-177.51552095749679
 20
-200.4643384040543
 30
0.0
 11
-179.21552095749681
 21
-200.21042139814199
 31
0.0
  0
LINE
  5
1A7
  8
DATA
  6
CONTINUOUS
 62
     7
 10
-176.7777319918398
 20
-198.66770675870859
 30
0.0
 11
-177.59470393218331
 21
-198.19233529277281
 31
0.0
  0
LINE
  5
1A8
  8
DATA
  6
CONTINUOUS
 62
     7
 10
-175.6329248576244
 20
-197.1416795299269
 30
0.0
 11
-176.29839296090211
 21
-196.4762114266494
 31
0.0
  0
LINE
  5
1A9
  8
DATA
  6
CONTINUOUS
 62
     7
 10
-174.01138998965709
 20
-195.86932744515701
 30
0.0
 11
-174.48345894571321
 21
-195.05168002859199
 31
0.0
  0
LINE
  5
1AA
  8
DATA
  6
CONTINUOUS
 62
     7
 10
-171.9692974763355
 20
-195.04446297339641
 30
0.0
 11
-172.19511287721019
 21
-194.11560522128309
 31
0.0
  0
LINE
  5
1AB
  8
DATA
  6
CONTINUOUS
 62
     7
 10
-167.96033011003269
 20
-195.1588802718434
 30
0.0
 11
-167.6699849250312
 21
-194.20526103336911
 31
0.0
  0
LINE
  5
1AC
  8
DATA
  6
CONTINUOUS
 62
     7
 10
-166.25061809681981
 20
-195.9203307271008
 30
0.0
 11
-165.7232104225285
 21
-195.0453311130648
 31
0.0
  0
LINE
  5
1AD
  8
DATA
  6
CONTINUOUS
 62
     7
 10
-164.77251857750821
 20
-197.08290874628011
 30
0.0
 11
-164.04786019519591
 21
-196.3383608931403
 31
0.0
  0
LINE
  5
1AE
  8
DATA
  6
CONTINUOUS
 62
     7
 10
-163.4904101970568
 20
-198.8113071988075
 30
0.0
 11
-162.5524575297421
 21
-198.27806141492849
 31
0.0
  0
LINE
  5
1AF
  8
DATA
  6
CONTINUOUS
 62
     7
 10
-162.82900562749089
 20
-200.476974653881
 30
0.0
 11
-161.12900562749081
 21
-200.1840701371631
 31
0.0
  0
LINE
  5
1B0
  8
DATA
  6
CONTINUOUS
 62
     7
 10
-161.81989693945519
 20
-204.780422200716
 30
0.0
 11
-162.86019821649731
 21
-204.4955306177045
 31
0.0
  0
LINE
  5
1B1
  8
DATA
  6
CONTINUOUS
 62
     7
 10
-163.62114229629779
 20
-206.2791313652427
 30
0.0
 11
-162.62521002959599
 21
-206.86424103331399
 31
0.0
  0
LINE
  5
1B2
  8
DATA
  6
CONTINUOUS
 62
     7
 10
-163.89746468557769
 20
-208.53883874867401
 30
0.0
 11
-164.7170826333784
 21
-207.7192208008733
 31
0.0
  0
LINE
  5
1B3
  8
DATA
  6
CONTINUOUS
 62
     7
 10
-165.71239870077019
 20
-209.96337014672571
 30
0.0
 11
-166.2984673001225
 21
-208.96699421297811
 31
0.0
  0
LINE
  5
1B4
  8
DATA
  6
CONTINUOUS
 62
     7
 10
-169.95432334692981
 20
-194.8325352636011
 30
0.0
 11
-169.95432334692981
 21
-193.3325352636011
 31
0.0
  0
TEXT
  5
1B5
  8
DATA
 62
     7
 10
-176.0873365601789
 20
-212.4000810784693
 30
0.0
 40
1.588120117187497
  1
0
 41
0.7
 11
-176.0873365601789
 21
-210.81196096128181
 31
0.0
 73
     3
  0
TEXT
  5
1B6
  8
DATA
 62
     7
 10
-171.59070314049319
 20
-193.0146707286099
 30
0.0
 40
1.588120117187497
  1
+30
 41
0.7
 11
-171.59070314049319
 21
-191.42655061142241
 31
0.0
 73
     3
  0
TEXT
  5
1B7
  8
DATA
 62
     7
 10
-166.47679460873539
 20
-212.40706400177501
 30
0.0
 40
1.588120117187497
  1
+60
 41
0.7
 11
-166.47679460873539
 21
-210.8189438845875
 31
0.0
 73
     3
  0
LINE
  5
1B8
  8
DATA
  6
CONTINUOUS
 62
     7
 10
-173.8804079898581
 20
-205.37009427189591
 30
0.0
 11
-174.91797503846499
 21
-206.4760100746422
 31
0.0
  0
LINE
  5
1B9
  8
DATA
  6
CONTINUOUS
 62
     7
 10
-173.751121479522
 20
-207.5707487521274
 30
0.0
 11
-172.7135544309196
 21
-206.46483294938579
 31
0.0
  0
LINE
  5
1BA
  8
DATA
  6
CONTINUOUS
 62
     7
 10
-170.7838591782704
 20
-207.20773780072571
 30
0.0
 11
-170.7838591782704
 21
-208.71977102194739
 31
0.0
  0
LINE
  5
1BB
  8
DATA
  6
CONTINUOUS
 62
     7
 10
-169.18385917827061
 20
-207.1687456020922
 30
0.0
 11
-169.18385917827061
 21
-208.69032192114639
 31
0.0
  0
LINE
  5
1BC
  8
DATA
  6
CONTINUOUS
 62
     7
 10
-174.51581093245281
 20
-75.00802258075673
 30
0.0
 11
-174.51581093245281
 21
-76.508022580756673
 31
0.0
  0
LINE
  5
1BD
  8
DATA
  6
CONTINUOUS
 62
     7
 10
-165.7158109324528
 20
-75.000000000103171
 30
0.0
 11
-165.7158109324528
 21
-76.508022580756673
 31
0.0
  0
LINE
  5
1BE
  8
DATA
  6
CONTINUOUS
 62
     7
 10
-174.8435496319444
 20
-76.508022580756673
 30
0.0
 11
-176.77065746807739
 21
-76.508022580756673
 31
0.0
  0
LINE
  5
1BF
  8
DATA
  6
CONTINUOUS
 62
     7
 10
-176.77065746807739
 20
-76.508022580756673
 30
0.0
 11
-176.47065746807741
 21
-80.008022580756673
 31
0.0
  0
LINE
  5
1C0
  8
DATA
  6
CONTINUOUS
 62
     7
 10
-176.47065746807741
 20
-80.008022580756673
 30
0.0
 11
-174.8435496319444
 21
-91.508022580756801
 31
0.0
  0
LINE
  5
1C1
  8
DATA
  6
CONTINUOUS
 62
     7
 10
-163.78441456380651
 20
-80.008022580756673
 30
0.0
 11
-165.38807223296121
 21
-91.508022580756801
 31
0.0
  0
LINE
  5
1C2
  8
DATA
  6
CONTINUOUS
 62
     7
 10
-165.38807223296121
 20
-76.508022580756673
 30
0.0
 11
-174.8435496319444
 21
-76.508022580756673
 31
0.0
  0
LINE
  5
1C3
  8
DATA
  6
CONTINUOUS
 62
     7
 10
-163.46096439682819
 20
-76.508022580756673
 30
0.0
 11
-163.7609643968282
 21
-80.008022580756673
 31
0.0
  0
LINE
  5
1C4
  8
DATA
  6
CONTINUOUS
 62
     7
 10
-165.38807223296121
 20
-76.508022580756673
 30
0.0
 11
-163.46096439682819
 21
-76.508022580756673
 31
0.0
  0
LINE
  5
1C5
  8
DATA
  6
CONTINUOUS
 62
     7
 10
-172.01581093245289
 20
-91.508022580756915
 30
0.0
 11
-172.6275360159419
 21
-80.008022580756574
 31
0.0
  0
LINE
  5
1C6
  8
DATA
  6
CONTINUOUS
 62
     7
 10
-173.71581093245291
 20
-91.508022580756915
 30
0.0
 11
-174.327536015942
 21
-80.008022580756574
 31
0.0
  0
LINE
  5
1C7
  8
DATA
  6
CONTINUOUS
 62
     7
 10
-168.21581093245291
 20
-91.508022580756915
 30
0.0
 11
-167.62753601594181
 21
-80.008022580756574
 31
0.0
  0
LINE
  5
1C8
  8
DATA
  6
CONTINUOUS
 62
     7
 10
-166.51581093245281
 20
-91.508022580756915
 30
0.0
 11
-165.9275360159418
 21
-80.008022580756574
 31
0.0
  0
LINE
  5
1C9
  8
DATA
  6
CONTINUOUS
 62
     7
 10
-169.4658109324528
 20
-80.008022580756673
 30
0.0
 11
-163.7609643968282
 21
-80.008022580756673
 31
0.0
  0
LINE
  5
1CA
  8
DATA
  6
CONTINUOUS
 62
     7
 10
-170.76581093245261
 20
-80.008022580756673
 30
0.0
 11
-176.47065746807741
 21
-80.008022580756673
 31
0.0
  0
LINE
  5
1CB
  8
DATA
  6
CONTINUOUS
 62
     7
 10
-169.4658109324528
 20
-91.508022580756801
 30
0.0
 11
-165.38807223296121
 21
-91.508022580756801
 31
0.0
  0
LINE
  5
1CC
  8
DATA
  6
CONTINUOUS
 62
     7
 10
-170.76581093245261
 20
-91.508022580756801
 30
0.0
 11
-174.8435496319444
 21
-91.508022580756801
 31
0.0
  0
LINE
  5
1CD
  8
DATA
  6
CONTINUOUS
 62
     7
 10
-170.76581093245261
 20
-80.008022580756673
 30
0.0
 11
-176.47065746807741
 21
-80.008022580756673
 31
0.0
  0
LINE
  5
1CE
  8
DATA
  6
CONTINUOUS
 62
     7
 10
-169.4658109324528
 20
-80.008022580756673
 30
0.0
 11
-163.7609643968282
 21
-80.008022580756673
 31
0.0
  0
LINE
  5
1CF
  8
DATA
  6
CONTINUOUS
 62
     7
 10
-170.76581093245261
 20
-91.508022580756801
 30
0.0
 11
-174.8435496319444
 21
-91.508022580756801
 31
0.0
  0
LINE
  5
1D0
  8
DATA
  6
CONTINUOUS
 62
     7
 10
-169.4658109324528
 20
-91.508022580756801
 30
0.0
 11
-165.38807223296121
 21
-91.508022580756801
 31
0.0
  0
ARC
  5
1D1
  8
DATA
  6
CONTINUOUS
 62
     7
 10
-170.1158109324528
 20
-91.075100648987956
 30
0.0
 40
0.9248994851090245
 50
225.34960338810239
 51
314.65039661189741
  0
LINE
  5
1D2
  8
DATA
  6
CONTINUOUS
 62
     7
 10
-170.76581093245261
 20
-91.733081695486433
 30
0.0
 11
-170.76581093245261
 21
-76.508022580756673
 31
0.0
  0
LINE
  5
1D3
  8
DATA
  6
CONTINUOUS
 62
     7
 10
-169.4658109324528
 20
-91.733081695486433
 30
0.0
 11
-169.4658109324528
 21
-76.508022580756673
 31
0.0
  0
LINE
  5
1D4
  8
DATA
  6
CONTINUOUS
 62
     7
 10
348.49902125459892
 20
-195.5863751875344
 30
0.0
 11
333.87564165059848
 21
-197.40449321499341
 31
0.0
  0
LINE
  5
1D5
  8
DATA
  6
CONTINUOUS
 62
     7
 10
332.99902125459852
 20
-202.24122172315899
 30
0.0
 11
332.99902125459852
 21
-198.39685276340171
 31
0.0
  0
LINE
  5
1D6
  8
DATA
  6
CONTINUOUS
 62
     7
 10
348.49902125459892
 20
-209.43657143439151
 30
0.0
 11
348.49902125459892
 21
-195.5863751875344
 31
0.0
  0
ARC
  5
1D7
  8
DATA
  6
CONTINUOUS
 62
     7
 10
333.99902125459852
 20
-198.39685276340171
 30
0.0
 40
1.0000000000000691
 50
97.087189574138819
 51
180.0
  0
ARC
  5
1D8
  8
DATA
  6
CONTINUOUS
 62
     7
 10
333.49902125459852
 20
-202.24122172315899
 30
0.0
 40
0.5
 50
180.0
 51
270.0
  0
LINE
  5
1D9
  8
DATA
  6
CONTINUOUS
 62
     7
 10
-170.78897212968181
 20
77.328766053990293
 30
0.0
 11
-170.78897212968181
 21
74.999999999896275
 31
0.0
  0
LINE
  5
1DA
  8
DATA
  6
CONTINUOUS
 62
     7
 10
-165.98897212968171
 20
77.328766053990293
 30
0.0
 11
-165.98897212968171
 21
74.999999999896275
 31
0.0
  0
LINE
  5
1DB
  8
DATA
  6
CONTINUOUS
 62
     7
 10
347.49999999985062
 20
-193.98283304840271
 30
0.0
 11
349.99999999985062
 21
-193.98283304840271
 31
0.0
  0
LINE
  5
1DC
  8
DATA
  6
CONTINUOUS
 62
     7
 10
347.49999999985062
 20
-188.28283304840261
 30
0.0
 11
349.99999999985062
 21
-188.28283304840261
 31
0.0
  0
LINE
  5
1DD
  8
DATA
  6
CONTINUOUS
 62
     7
 10
346.99999999985062
 20
-193.48283304840271
 30
0.0
 11
346.99999999985062
 21
-188.78283304840261
 31
0.0
  0
ARC
  5
1DE
  8
DATA
  6
CONTINUOUS
 62
     7
 10
347.49999999985062
 20
-193.48283304840271
 30
0.0
 40
0.5
 50
180.0
 51
270.0
  0
ARC
  5
1DF
  8
DATA
  6
CONTINUOUS
 62
     7
 10
347.49999999985062
 20
-188.78283304840261
 30
0.0
 40
0.5
 50
90.0
 51
180.0
  0
LINE
  5
1E0
  8
DATA
  6
CONTINUOUS
 62
     7
 10
348.49902125459869
 20
-209.43657143439151
 30
0.0
 11
344.99902125459869
 21
-209.07261809180531
 31
0.0
  0
LINE
  5
1E1
  8
DATA
  6
CONTINUOUS
 62
     7
 10
-225.0000000000079
 20
-225.0000000000249
 30
0.0
 11
-225.0000000000079
 21
-180.0000000000249
 31
0.0
  0
LINE
  5
1E2
  8
DATA
  6
CONTINUOUS
 62
     7
 10
257.9999999999921
 20
-225.0000000000249
 30
0.0
 11
-225.0000000000079
 21
-225.0000000000249
 31
0.0
  0
LINE
  5
1E3
  8
DATA
  6
CONTINUOUS
 62
     7
 10
257.9999999999921
 20
-180.0000000000249
 30
0.0
 11
257.9999999999921
 21
-225.0000000000249
 31
0.0
  0
LINE
  5
1E4
  8
DATA
  6
CONTINUOUS
 62
     7
 10
-225.0000000000079
 20
-180.0000000000249
 30
0.0
 11
257.9999999999921
 21
-180.0000000000249
 31
0.0
  0
POLYLINE
  5
1E5
  8
DATA
  6
CONTINUOUS
 62
     7
 66
     1
 10
0.0
 20
0.0
 30
0.0
 70
     1
  0
VERTEX
  5
A5B
  8
DATA
  6
CONTINUOUS
 62
     7
 10
-225.0000000003522
 20
245.00000000011411
 30
0.0
  0
VERTEX
  5
A5C
  8
DATA
  6
CONTINUOUS
 62
     7
 10
257.99999999964768
 20
245.00000000011411
 30
0.0
  0
VERTEX
  5
A5D
  8
DATA
  6
CONTINUOUS
 62
     7
 10
257.99999999964768
 20
200.00000000011411
 30
0.0
  0
VERTEX
  5
A5E
  8
DATA
  6
CONTINUOUS
 62
     7
 10
-225.0000000003522
 20
200.00000000011411
 30
0.0
  0
SEQEND
  5
A5F
  8
DATA
  6
CONTINUOUS
 62
     7
  0
LINE
  5
1EC
  8
DATA
  6
CONTINUOUS
 62
     7
 10
235.9999999996478
 20
244.40000000011409
 30
0.0
 11
235.9999999996478
 21
245.00000000011411
 31
0.0
  0
LINE
  5
1ED
  8
DATA
  6
CONTINUOUS
 62
     7
 10
230.6999999996477
 20
244.40000000011409
 30
0.0
 11
230.6999999996477
 21
245.00000000011411
 31
0.0
  0
TEXT
  5
1EE
  8
DATA
 62
     7
 10
-165.48262142282471
 20
213.64913156852711
 30
0.0
 40
2.0360514322916661
  1
PUSH
 50
180.0
 41
0.7
 11
-165.48262142282471
 21
211.6130801362354
 31
0.0
 73
     3
  0
ARC
  5
1EF
  8
DATA
  6
CONTINUOUS
 62
     7
 10
-168.1273922686544
 20
225.3160059085472
 30
0.0
 40
10.899999999999871
 50
289.23581260751018
 51
250.76418739248899
  0
CIRCLE
  5
1F0
  8
DATA
  6
CONTINUOUS
 62
     7
 10
-168.1273922686544
 20
225.3160059085472
 30
0.0
 40
9.8500000000000227
  0
CIRCLE
  5
1F1
  8
DATA
  6
CONTINUOUS
 62
     7
 10
-168.1273922686544
 20
225.3160059085472
 30
0.0
 40
7.8500000000000218
  0
CIRCLE
  5
1F2
  8
DATA
  6
CONTINUOUS
 62
     7
 10
-168.1273922686544
 20
229.23714392968969
 30
0.0
 40
1.264999999999985
  0
CIRCLE
  5
1F3
  8
DATA
  6
CONTINUOUS
 62
     7
 10
-164.19591068276841
 20
225.3160059085472
 30
0.0
 40
1.2649999999999291
  0
CIRCLE
  5
1F4
  8
DATA
  6
CONTINUOUS
 62
     7
 10
-172.06183668804181
 20
225.3160059085472
 30
0.0
 40
1.264999999999985
  0
ARC
  5
1F5
  8
DATA
  6
CONTINUOUS
 62
     7
 10
-169.95524982847621
 20
212.29767208196111
 30
0.0
 40
3.1721424401781881
 50
93.110794313929887
 51
266.88920568607
  0
ARC
  5
1F6
  8
DATA
  6
CONTINUOUS
 62
     7
 10
-166.29953470883279
 20
212.29767208196111
 30
0.0
 40
3.1721424401781322
 50
273.11079431393
 51
86.889205686070113
  0
LINE
  5
1F7
  8
DATA
  6
CONTINUOUS
 62
     7
 10
-166.1273922686544
 20
209.13020390673529
 30
0.0
 11
-170.1273922686544
 21
209.13020390673529
 31
0.0
  0
LINE
  5
1F8
  8
DATA
  6
CONTINUOUS
 62
     7
 10
-170.1273922686544
 20
215.4651402571869
 30
0.0
 11
-166.1273922687036
 21
215.4651402571869
 31
0.0
  0
CIRCLE
  5
1F9
  8
DATA
  6
CONTINUOUS
 62
     7
 10
-158.31353679729159
 20
215.25434145437629
 30
0.0
 40
2.7499999999999032
  0
LINE
  5
1FA
  8
DATA
  6
CONTINUOUS
 62
     7
 10
-202.00000000035141
 20
244.40000000011409
 30
0.0
 11
-202.00000000035141
 21
245.00000000011411
 31
0.0
  0
LINE
  5
1FB
  8
DATA
  6
CONTINUOUS
 62
     7
 10
-196.70000000035131
 20
244.40000000011409
 30
0.0
 11
-196.70000000035131
 21
245.00000000011411
 31
0.0
  0
LINE
  5
1FC
  8
DATA
  6
CONTINUOUS
 62
     7
 10
-173.28897212968181
 20
78.999999999896275
 30
0.0
 11
-163.48897212968171
 21
78.999999999896275
 31
0.0
  0
LINE
  5
1FD
  8
DATA
  6
CONTINUOUS
 62
     7
 10
-158.31353679729159
 20
213.50275199204651
 30
0.0
 11
-158.31353679729159
 21
217.0027519920466
 31
0.0
  0
LINE
  5
1FE
  8
DATA
  6
CONTINUOUS
 62
     7
 10
-156.53639351303781
 20
215.25275199204651
 30
0.0
 11
-160.03639351303761
 21
215.25275199204651
 31
0.0
  0
LINE
  5
1FF
  8
DATA
  6
CONTINUOUS
 62
     7
 10
369.99999999985039
 20
-222.1499999996642
 30
0.0
 11
369.99999999985039
 21
-217.84999999966439
 31
0.0
  0
LINE
  5
200
  8
DATA
  6
CONTINUOUS
 62
     7
 10
367.84999999985052
 20
-219.9999999996642
 30
0.0
 11
372.14999999985048
 21
-219.9999999996642
 31
0.0
  0
LINE
  5
201
  8
DATA
  6
CONTINUOUS
 62
     7
 10
369.99999999985039
 20
-222.1499999996642
 30
0.0
 11
369.99999999985039
 21
-217.84999999966439
 31
0.0
  0
LINE
  5
202
  8
DATA
  6
CONTINUOUS
 62
     7
 10
367.84999999985052
 20
-219.9999999996642
 30
0.0
 11
372.14999999985048
 21
-219.9999999996642
 31
0.0
  0
CIRCLE
  5
203
  8
DATA
  6
CONTINUOUS
 62
     7
 10
481.99999999985027
 20
-219.9999999996644
 30
0.0
 40
3.350000000000021
  0
LINE
  5
204
  8
DATA
  6
CONTINUOUS
 62
     7
 10
481.99999999985027
 20
-222.1499999996642
 30
0.0
 11
481.99999999985027
 21
-217.84999999966439
 31
0.0
  0
LINE
  5
205
  8
DATA
  6
CONTINUOUS
 62
     7
 10
479.84999999985041
 20
-219.9999999996642
 30
0.0
 11
484.14999999985048
 21
-219.9999999996642
 31
0.0
  0
LINE
  5
206
  8
DATA
  6
CONTINUOUS
 62
     7
 10
481.99999999985027
 20
-222.1499999996642
 30
0.0
 11
481.99999999985027
 21
-217.84999999966439
 31
0.0
  0
LINE
  5
207
  8
DATA
  6
CONTINUOUS
 62
     7
 10
479.84999999985041
 20
-219.9999999996642
 30
0.0
 11
484.14999999985048
 21
-219.9999999996642
 31
0.0
  0
TEXT
  5
208
  8
DATA
 62
     7
 10
-52.186124323881423
 20
211.45860949991169
 30
0.0
 40
2.4432617187500001
  1
MIC INPUT/
 50
180.0
 41
0.7
 11
-52.186124323881423
 21
209.01534778116169
 31
0.0
 73
     3
  0
TEXT
  5
209
  8
DATA
 62
     7
 10
-52.014935937295029
 20
229.46866952684351
 30
0.0
 40
2.4432617187500001
  1
TIP=PIN2= +
 50
180.0
 41
0.7
 11
-52.014935937295029
 21
227.02540780809349
 31
0.0
 73
     3
  0
TEXT
  5
20A
  8
DATA
 62
     7
 10
-50.392417944730468
 20
233.27334378454151
 30
0.0
 40
2.4432617187500001
  1
RING=PIN3= -
 50
180.0
 41
0.7
 11
-50.392417944730468
 21
230.83008206579149
 31
0.0
 73
     3
  0
TEXT
  5
20B
  8
DATA
 62
     7
 10
-48.587204456616917
 20
237.4659033406721
 30
0.0
 40
2.4432617187500001
  1
SLEEVE=PIN= 1
 50
180.0
 41
0.7
 11
-48.587204456616917
 21
235.02264162192211
 31
0.0
 73
     3
  0
LINE
  5
20C
  8
DATA
  6
CONTINUOUS
 62
     7
 10
223.13219967803519
 20
233.35720748073871
 30
0.0
 11
198.3705527816675
 21
233.35720748073871
 31
0.0
  0
LINE
  5
20D
  8
DATA
  6
CONTINUOUS
 62
     7
 10
223.13219967803519
 20
210.03548266706539
 30
0.0
 11
198.3705527816675
 21
210.03548266706539
 31
0.0
  0
LINE
  5
20E
  8
DATA
  6
CONTINUOUS
 62
     7
 10
195.3705527816675
 20
213.03548266706539
 30
0.0
 11
195.3705527816675
 21
230.35720748073871
 31
0.0
  0
LINE
  5
20F
  8
DATA
  6
CONTINUOUS
 62
     7
 10
226.13219967803531
 20
213.03548266706539
 30
0.0
 11
226.13219967803531
 21
230.35720748073871
 31
0.0
  0
ARC
  5
210
  8
DATA
  6
CONTINUOUS
 62
     7
 10
198.3705527816675
 20
230.35720748073871
 30
0.0
 40
3.0
 50
90.0
 51
180.0
  0
ARC
  5
211
  8
DATA
  6
CONTINUOUS
 62
     7
 10
198.3705527816675
 20
213.03548266706539
 30
0.0
 40
3.0
 50
180.0
 51
270.0
  0
ARC
  5
212
  8
DATA
  6
CONTINUOUS
 62
     7
 10
223.13219967803519
 20
230.35720748073871
 30
0.0
 40
3.0
 50
0.0
 51
90.0
  0
ARC
  5
213
  8
DATA
  6
CONTINUOUS
 62
     7
 10
223.13219967803519
 20
213.03548266706539
 30
0.0
 40
3.0
 50
270.0
 51
0.0
  0
LINE
  5
214
  8
DATA
  6
CONTINUOUS
 62
     7
 10
220.81721227201319
 20
214.1913490496425
 30
0.0
 11
200.9918469346257
 21
214.1913490496425
 31
0.0
  0
LINE
  5
215
  8
DATA
  6
CONTINUOUS
 62
     7
 10
198.9918469346257
 20
223.4226292336671
 30
0.0
 11
198.9918469346257
 21
216.1913490496425
 31
0.0
  0
LINE
  5
216
  8
DATA
  6
CONTINUOUS
 62
     7
 10
222.81721227201319
 20
223.41711571969441
 30
0.0
 11
222.81721227201319
 21
216.1913490496425
 31
0.0
  0
ARC
  5
217
  8
DATA
  6
CONTINUOUS
 62
     7
 10
200.9918469346257
 20
216.1913490496425
 30
0.0
 40
2.0
 50
180.0
 51
270.0
  0
ARC
  5
218
  8
DATA
  6
CONTINUOUS
 62
     7
 10
220.81721227201319
 20
216.1913490496425
 30
0.0
 40
2.0
 50
270.0
 51
0.0
  0
LINE
  5
219
  8
DATA
  6
CONTINUOUS
 62
     7
 10
216.36478460470479
 20
229.86954338700261
 30
0.0
 11
205.3126406237312
 21
229.86954338700261
 31
0.0
  0
LINE
  5
21A
  8
DATA
  6
CONTINUOUS
 62
     7
 10
199.55743879116071
 20
224.81635563363281
 30
0.0
 11
203.87823248026621
 21
229.26326978696841
 31
0.0
  0
LINE
  5
21B
  8
DATA
  6
CONTINUOUS
 62
     7
 10
222.2314258343863
 20
224.83132928206749
 30
0.0
 11
217.7789981670779
 21
229.2837569493758
 31
0.0
  0
ARC
  5
21C
  8
DATA
  6
CONTINUOUS
 62
     7
 10
205.3126406237312
 20
227.86954338700261
 30
0.0
 40
2.0000000000000142
 50
89.999999999999545
 51
135.82412325926899
  0
ARC
  5
21D
  8
DATA
  6
CONTINUOUS
 62
     7
 10
216.36478460470479
 20
227.86954338700261
 30
0.0
 40
2.0000000000000151
 50
44.999999999999417
 51
89.999999999999176
  0
ARC
  5
21E
  8
DATA
  6
CONTINUOUS
 62
     7
 10
200.9918469346257
 20
223.4226292336671
 30
0.0
 40
1.999999999999998
 50
135.82412325926961
 51
180.0
  0
ARC
  5
21F
  8
DATA
  6
CONTINUOUS
 62
     7
 10
220.81721227201319
 20
223.41711571969429
 30
0.0
 40
1.999999999999984
 50
0.0000000000003979
 51
45.000000000000568
  0
LINE
  5
220
  8
DATA
  6
CONTINUOUS
 62
     7
 10
202.85581616096599
 20
217.2220638805729
 30
0.0
 11
202.85581616096599
 21
222.44813888057459
 31
0.0
  0
LINE
  5
221
  8
DATA
  6
CONTINUOUS
 62
     7
 10
204.19689116096509
 20
217.2220638805729
 30
0.0
 11
202.85581616096599
 21
217.2220638805729
 31
0.0
  0
LINE
  5
222
  8
DATA
  6
CONTINUOUS
 62
     7
 10
204.19689116096509
 20
222.44813888057459
 30
0.0
 11
204.19689116096509
 21
217.2220638805729
 31
0.0
  0
LINE
  5
223
  8
DATA
  6
CONTINUOUS
 62
     7
 10
202.85581616096599
 20
222.44813888057459
 30
0.0
 11
204.19689116096509
 21
222.44813888057459
 31
0.0
  0
LINE
  5
224
  8
DATA
  6
CONTINUOUS
 62
     7
 10
210.23399116096539
 20
221.35046388057489
 30
0.0
 11
210.23399116096539
 21
226.57668888057611
 31
0.0
  0
LINE
  5
225
  8
DATA
  6
CONTINUOUS
 62
     7
 10
211.5751411609657
 20
221.35046388057489
 30
0.0
 11
210.23399116096539
 21
221.35046388057489
 31
0.0
  0
LINE
  5
226
  8
DATA
  6
CONTINUOUS
 62
     7
 10
211.5751411609657
 20
226.57668888057611
 30
0.0
 11
211.5751411609657
 21
221.35046388057489
 31
0.0
  0
LINE
  5
227
  8
DATA
  6
CONTINUOUS
 62
     7
 10
210.23399116096539
 20
226.57668888057611
 30
0.0
 11
211.5751411609657
 21
226.57668888057611
 31
0.0
  0
LINE
  5
228
  8
DATA
  6
CONTINUOUS
 62
     7
 10
217.61226616096599
 20
217.2222388805753
 30
0.0
 11
217.61226616096599
 21
222.44831388057409
 31
0.0
  0
LINE
  5
229
  8
DATA
  6
CONTINUOUS
 62
     7
 10
218.95331616096539
 20
217.2222388805753
 30
0.0
 11
217.61226616096599
 21
217.2222388805753
 31
0.0
  0
LINE
  5
22A
  8
DATA
  6
CONTINUOUS
 62
     7
 10
218.95331616096539
 20
222.44831388057409
 30
0.0
 11
218.95331616096539
 21
217.2222388805753
 31
0.0
  0
LINE
  5
22B
  8
DATA
  6
CONTINUOUS
 62
     7
 10
217.61226616096599
 20
222.44831388057409
 30
0.0
 11
218.95331616096539
 21
222.44831388057409
 31
0.0
  0
CIRCLE
  5
22C
  8
DATA
  6
CONTINUOUS
 62
     7
 10
-178.1890567228254
 20
235.12986137991001
 30
0.0
 40
2.7499999999999032
  0
LINE
  5
22D
  8
DATA
  6
CONTINUOUS
 62
     7
 10
-179.94064618515509
 20
235.12986137991001
 30
0.0
 11
-176.44064618515509
 21
235.12986137991001
 31
0.0
  0
LINE
  5
22E
  8
DATA
  6
CONTINUOUS
 62
     7
 10
-178.19064618515509
 20
236.90700466416391
 30
0.0
 11
-178.19064618515509
 21
233.40700466416411
 31
0.0
  0
POLYLINE
  5
22F
  8
DATA
  6
CONTINUOUS
 62
     7
 66
     1
 10
0.0
 20
0.0
 30
0.0
 70
     1
  0
VERTEX
  5
A60
  8
DATA
  6
CONTINUOUS
 62
     7
 10
-145.35166952958599
 20
238.50616432232869
 30
0.0
  0
VERTEX
  5
A61
  8
DATA
  6
CONTINUOUS
 62
     7
 10
-149.68179654850809
 20
231.00616432232869
 30
0.0
  0
VERTEX
  5
A62
  8
DATA
  6
CONTINUOUS
 62
     7
 10
-145.35166952958599
 20
223.50616432232869
 30
0.0
  0
VERTEX
  5
A63
  8
DATA
  6
CONTINUOUS
 62
     7
 10
-136.69141549174171
 20
223.5061643223286
 30
0.0
  0
VERTEX
  5
A64
  8
DATA
  6
CONTINUOUS
 62
     7
 10
-132.36128847281941
 20
231.0061643223286
 30
0.0
  0
VERTEX
  5
A65
  8
DATA
  6
CONTINUOUS
 62
     7
 10
-136.69141549174171
 20
238.5061643223286
 30
0.0
  0
SEQEND
  5
A66
  8
DATA
  6
CONTINUOUS
 62
     7
  0
TEXT
  5
238
  8
DATA
 62
     7
 10
336.09307506851422
 20
-419.37655867762891
 30
0.0
 40
9.2604166666666661
  1
マイクロホン・プリーアンプ/プロセッサー
 41
0.7
 11
336.09307506851422
 21
-410.11614201096222
 31
0.0
 73
     3
  0
TEXT
  5
239
  8
DATA
 62
     7
 10
-172.3004926289706
 20
-218.23836345670699
 30
0.0
 40
1.6288411458333321
  1
LINE
 41
0.7
 11
-172.3004926289706
 21
-216.6095223108737
 31
0.0
 73
     3
  0
LINE
  5
23A
  8
DATA
  6
CONTINUOUS
 62
     7
 10
-185.4122848777908
 20
-186.0000000000249
 30
0.0
 11
-102.4122848777908
 21
-186.0000000000249
 31
0.0
  0
LINE
  5
23B
  8
DATA
  6
CONTINUOUS
 62
     7
 10
-79.000000000007873
 20
-186.0000000000249
 30
0.0
 11
14.18968552482945
 21
-186.0000000000249
 31
0.0
  0
LINE
  5
23C
  8
DATA
  6
CONTINUOUS
 62
     7
 10
19.734280645281888
 20
-186.0000000000249
 30
0.0
 11
74.499999999992141
 21
-186.0000000000249
 31
0.0
  0
LINE
  5
23D
  8
DATA
  6
CONTINUOUS
 62
     7
 10
79.499999999992141
 20
-186.0000000000249
 30
0.0
 11
124.4999999999921
 21
-186.0000000000249
 31
0.0
  0
LINE
  5
23E
  8
DATA
  6
CONTINUOUS
 62
     7
 10
129.49999999999201
 20
-186.0000000000249
 30
0.0
 11
185.4999999999921
 21
-186.0000000000249
 31
0.0
  0
LINE
  5
23F
  8
DATA
  6
CONTINUOUS
 62
     7
 10
185.4999999999921
 20
-219.0000000000249
 30
0.0
 11
129.49999999999201
 21
-219.0000000000249
 31
0.0
  0
LINE
  5
240
  8
DATA
  6
CONTINUOUS
 62
     7
 10
124.4999999999921
 20
-219.0000000000249
 30
0.0
 11
79.499999999992141
 21
-219.0000000000249
 31
0.0
  0
LINE
  5
241
  8
DATA
  6
CONTINUOUS
 62
     7
 10
74.499999999992141
 20
-219.0000000000249
 30
0.0
 11
18.999999999992141
 21
-219.0000000000249
 31
0.0
  0
LINE
  5
242
  8
DATA
  6
CONTINUOUS
 62
     7
 10
13.99999999999214
 20
-219.0000000000249
 30
0.0
 11
-79.000000000007873
 21
-219.0000000000249
 31
0.0
  0
LINE
  5
243
  8
DATA
  6
CONTINUOUS
 62
     7
 10
-102.4122848777908
 20
-219.0000000000249
 30
0.0
 11
-185.4122848777908
 21
-219.0000000000249
 31
0.0
  0
LINE
  5
244
  8
DATA
  6
CONTINUOUS
 62
     7
 10
-100.4122848777908
 20
-217.0000000000249
 30
0.0
 11
-100.4122848777908
 21
-188.0000000000249
 31
0.0
  0
LINE
  5
245
  8
DATA
  6
CONTINUOUS
 62
     7
 10
-81.000000000007887
 20
-217.0000000000249
 30
0.0
 11
-81.000000000007887
 21
-188.0000000000249
 31
0.0
  0
LINE
  5
246
  8
DATA
  6
CONTINUOUS
 62
     7
 10
15.99999999999214
 20
-217.0000000000249
 30
0.0
 11
15.99999999999214
 21
-188.23666583284009
 31
0.0
  0
LINE
  5
247
  8
DATA
  6
CONTINUOUS
 62
     7
 10
16.999999999992141
 20
-217.0000000000249
 30
0.0
 11
16.999999999992141
 21
-188.40684721120411
 31
0.0
  0
LINE
  5
248
  8
DATA
  6
CONTINUOUS
 62
     7
 10
76.499999999992141
 20
-217.0000000000249
 30
0.0
 11
76.499999999992141
 21
-188.0000000000249
 31
0.0
  0
LINE
  5
249
  8
DATA
  6
CONTINUOUS
 62
     7
 10
77.499999999992141
 20
-217.0000000000249
 30
0.0
 11
77.499999999992141
 21
-188.0000000000249
 31
0.0
  0
LINE
  5
24A
  8
DATA
  6
CONTINUOUS
 62
     7
 10
126.4999999999921
 20
-217.0000000000249
 30
0.0
 11
126.4999999999921
 21
-188.0000000000249
 31
0.0
  0
LINE
  5
24B
  8
DATA
  6
CONTINUOUS
 62
     7
 10
127.4999999999921
 20
-217.0000000000249
 30
0.0
 11
127.4999999999921
 21
-188.0000000000249
 31
0.0
  0
ARC
  5
24C
  8
DATA
  6
CONTINUOUS
 62
     7
 10
-185.4122848777908
 20
-188.0000000000249
 30
0.0
 40
2.0
 50
90.0
 51
180.0
  0
ARC
  5
24D
  8
DATA
  6
CONTINUOUS
 62
     7
 10
-185.4122848777908
 20
-217.0000000000249
 30
0.0
 40
2.0
 50
180.0
 51
270.0
  0
ARC
  5
24E
  8
DATA
  6
CONTINUOUS
 62
     7
 10
-102.4122848777908
 20
-188.0000000000249
 30
0.0
 40
2.0
 50
0.0
 51
90.0
  0
ARC
  5
24F
  8
DATA
  6
CONTINUOUS
 62
     7
 10
-102.4122848777908
 20
-217.0000000000249
 30
0.0
 40
2.0
 50
270.0
 51
0.0
  0
ARC
  5
250
  8
DATA
  6
CONTINUOUS
 62
     7
 10
-79.000000000007873
 20
-188.0000000000249
 30
0.0
 40
2.0
 50
90.0
 51
180.0
  0
ARC
  5
251
  8
DATA
  6
CONTINUOUS
 62
     7
 10
-79.000000000007873
 20
-217.0000000000249
 30
0.0
 40
2.0
 50
180.0
 51
270.0
  0
ARC
  5
252
  8
DATA
  6
CONTINUOUS
 62
     7
 10
13.99999999999214
 20
-217.0000000000249
 30
0.0
 40
2.0
 50
270.0
 51
0.0
  0
ARC
  5
253
  8
DATA
  6
CONTINUOUS
 62
     7
 10
18.999999999992141
 20
-217.0000000000249
 30
0.0
 40
2.0
 50
180.0
 51
270.0
  0
ARC
  5
254
  8
DATA
  6
CONTINUOUS
 62
     7
 10
74.499999999992141
 20
-188.0000000000249
 30
0.0
 40
2.0
 50
0.0
 51
90.0
  0
ARC
  5
255
  8
DATA
  6
CONTINUOUS
 62
     7
 10
74.499999999992141
 20
-217.0000000000249
 30
0.0
 40
2.0
 50
270.0
 51
0.0
  0
ARC
  5
256
  8
DATA
  6
CONTINUOUS
 62
     7
 10
79.499999999992141
 20
-188.0000000000249
 30
0.0
 40
2.0
 50
90.0
 51
180.0
  0
ARC
  5
257
  8
DATA
  6
CONTINUOUS
 62
     7
 10
79.499999999992141
 20
-217.0000000000249
 30
0.0
 40
2.0
 50
180.0
 51
270.0
  0
ARC
  5
258
  8
DATA
  6
CONTINUOUS
 62
     7
 10
124.4999999999921
 20
-188.0000000000249
 30
0.0
 40
2.0
 50
0.0
 51
90.0
  0
ARC
  5
259
  8
DATA
  6
CONTINUOUS
 62
     7
 10
124.4999999999921
 20
-217.0000000000249
 30
0.0
 40
2.0
 50
270.0
 51
0.0
  0
ARC
  5
25A
  8
DATA
  6
CONTINUOUS
 62
     7
 10
129.49999999999201
 20
-188.0000000000249
 30
0.0
 40
2.0
 50
90.0
 51
180.0
  0
ARC
  5
25B
  8
DATA
  6
CONTINUOUS
 62
     7
 10
129.49999999999201
 20
-217.0000000000249
 30
0.0
 40
2.0
 50
180.0
 51
270.0
  0
ARC
  5
25C
  8
DATA
  6
CONTINUOUS
 62
     7
 10
217.9959506646
 20
-188.0000000000249
 30
0.0
 40
2.0
 50
0.0
 51
90.0
  0
ARC
  5
25D
  8
DATA
  6
CONTINUOUS
 62
     7
 10
217.9959506646
 20
-217.0000000000249
 30
0.0
 40
2.0
 50
270.0
 51
0.0
  0
TEXT
  5
25E
  8
DATA
 62
     7
 10
-182.77240943712741
 20
-200.8518118103888
 30
0.0
 40
1.588120117187497
  1
+15
 41
0.7
 11
-182.77240943712741
 21
-199.26369169320131
 31
0.0
 73
     3
  0
TEXT
  5
25F
  8
DATA
 62
     7
 10
-160.69217752442509
 20
-200.42765393321679
 30
0.0
 40
1.588120117187497
  1
+45
 41
0.7
 11
-160.69217752442509
 21
-198.8395338160293
 31
0.0
 73
     3
  0
TEXT
  5
260
  8
DATA
 62
     7
 10
-184.87075660017479
 20
-200.35924923243039
 30
0.0
 40
1.588120117187497
  1
0
 41
0.7
 11
-184.87075660017479
 21
-198.7711291152429
 31
0.0
 73
     3
  0
TEXT
  5
261
  8
DATA
 62
     7
 10
-179.9663944774141
 20
-214.06165043312939
 30
0.0
 40
1.588120117187497
  1
-15
 41
0.7
 11
-179.9663944774141
 21
-212.4735303159419
 31
0.0
 73
     3
  0
TEXT
  5
262
  8
DATA
 62
     7
 10
-171.6541749989421
 20
-190.8252749259394
 30
0.0
 40
1.588120117187497
  1
-15
 41
0.7
 11
-171.6541749989421
 21
-189.23715480875191
 31
0.0
 73
     3
  0
TEXT
  5
263
  8
DATA
 62
     7
 10
-157.78605658659481
 20
-199.022900448793
 30
0.0
 40
1.588120117187497
  1
+30
 41
0.7
 11
-157.78605658659481
 21
-197.43478033160551
 31
0.0
 73
     3
  0
TEXT
  5
264
  8
DATA
 62
     7
 10
-165.0500000000001
 20
-214.47482500000001
 30
0.0
 40
1.588120117187497
  1
+45
 41
0.7
 11
-165.0500000000001
 21
-212.8867048828125
 31
0.0
 73
     3
  0
TEXT
  5
265
  8
DATA
 62
     7
 10
-149.6541384393247
 20
-222.24088309238579
 30
0.0
 40
2.1174934895833322
  1
MIC PREAMP
 41
0.7
 11
-149.6541384393247
 21
-220.12338960280249
 31
0.0
 73
     3
  0
CIRCLE
  5
266
  8
DATA
  6
CONTINUOUS
 62
     7
 10
-130.00000000000779
 20
-210.02859075901699
 30
0.0
 40
2.5
  0
CIRCLE
  5
267
  8
DATA
  6
CONTINUOUS
 62
     7
 10
-112.0000000000078
 20
-210.02859075901699
 30
0.0
 40
2.5
  0
CIRCLE
  5
268
  8
DATA
  6
CONTINUOUS
 62
     7
 10
-94.000000000007844
 20
-210.02859075901699
 30
0.0
 40
2.5
  0
LINE
  5
269
  8
DATA
  6
CONTINUOUS
 62
     7
 10
-159.00000000000779
 20
-206.5000000000249
 30
0.0
 11
-138.50000000000779
 21
-206.5000000000249
 31
0.0
  0
LINE
  5
26A
  8
DATA
  6
CONTINUOUS
 62
     7
 10
-159.00000000000779
 20
-215.0000000000249
 30
0.0
 11
-138.50000000000779
 21
-215.0000000000249
 31
0.0
  0
LINE
  5
26B
  8
DATA
  6
CONTINUOUS
 62
     7
 10
-160.00000000000779
 20
-214.0000000000249
 30
0.0
 11
-160.00000000000779
 21
-207.5000000000249
 31
0.0
  0
LINE
  5
26C
  8
DATA
  6
CONTINUOUS
 62
     7
 10
-137.50000000000779
 20
-214.0000000000249
 30
0.0
 11
-137.50000000000779
 21
-207.5000000000249
 31
0.0
  0
CIRCLE
  5
26D
  8
DATA
  6
CONTINUOUS
 62
     7
 10
-151.25000000000779
 20
-211.641278378132
 30
0.0
 40
1.449999999999988
  0
CIRCLE
  5
26E
  8
DATA
  6
CONTINUOUS
 62
     7
 10
-156.25000000000779
 20
-211.641278378132
 30
0.0
 40
1.449999999999988
  0
CIRCLE
  5
26F
  8
DATA
  6
CONTINUOUS
 62
     7
 10
-146.25000000000779
 20
-211.641278378132
 30
0.0
 40
1.449999999999988
  0
CIRCLE
  5
270
  8
DATA
  6
CONTINUOUS
 62
     7
 10
-141.25000000000779
 20
-211.641278378132
 30
0.0
 40
1.449999999999988
  0
TEXT
  5
271
  8
DATA
 62
     7
 10
-154.08130150147991
 20
-205.80814234221279
 30
0.0
 40
1.6288411458333321
  1
LEVEL(dBu)
 41
0.7
 11
-154.08130150147991
 21
-204.1793011963795
 31
0.0
 73
     3
  0
TEXT
  5
272
  8
DATA
 62
     7
 10
-152.4372358145003
 20
-209.49029478110859
 30
0.0
 40
1.1401888020833331
  1
-10
 41
0.7
 11
-152.4372358145003
 21
-208.3501059790253
 31
0.0
 73
     3
  0
TEXT
  5
273
  8
DATA
 62
     7
 10
-157.63434144060199
 20
-209.49389355665181
 30
0.0
 40
1.1401888020833331
  1
-20
 41
0.7
 11
-157.63434144060199
 21
-208.35370475456841
 31
0.0
 73
     3
  0
TEXT
  5
274
  8
DATA
 62
     7
 10
-146.58599287380511
 20
-209.46660900836321
 30
0.0
 40
1.1401888020833331
  1
0
 41
0.7
 11
-146.58599287380511
 21
-208.32642020627981
 31
0.0
 73
     3
  0
TEXT
  5
275
  8
DATA
 62
     7
 10
-142.97683671789321
 20
-209.4497347057835
 30
0.0
 40
1.1401888020833331
  1
CLIP
 41
0.7
 11
-142.97683671789321
 21
-208.30954590370021
 31
0.0
 73
     3
  0
ARC
  5
276
  8
DATA
  6
CONTINUOUS
 62
     7
 10
-159.00000000000779
 20
-207.5000000000249
 30
0.0
 40
1.0
 50
90.0
 51
180.0
  0
ARC
  5
277
  8
DATA
  6
CONTINUOUS
 62
     7
 10
-159.00000000000779
 20
-214.0000000000249
 30
0.0
 40
1.0
 50
180.0
 51
270.0
  0
ARC
  5
278
  8
DATA
  6
CONTINUOUS
 62
     7
 10
-138.50000000000779
 20
-207.5000000000249
 30
0.0
 40
1.0
 50
0.0
 51
90.0
  0
ARC
  5
279
  8
DATA
  6
CONTINUOUS
 62
     7
 10
-138.50000000000779
 20
-214.0000000000249
 30
0.0
 40
1.0
 50
270.0
 51
0.0
  0
TEXT
  5
27A
  8
DATA
 62
     7
 10
-131.5653161843249
 20
-202.3132020734991
 30
0.0
 40
1.6288411458333321
  1
48V
 41
0.7
 11
-131.5653161843249
 21
-200.68436092766581
 31
0.0
 73
     3
  0
TEXT
  5
27B
  8
DATA
 62
     7
 10
-133.74777641053561
 20
-204.65810166184451
 30
0.0
 40
1.6288411458333321
  1
PHANTOM
 41
0.7
 11
-133.74777641053561
 21
-203.02926051601119
 31
0.0
 73
     3
  0
TEXT
  5
27C
  8
DATA
 62
     7
 10
-132.67619018795071
 20
-206.9527350397764
 30
0.0
 40
1.6288411458333321
  1
POWER
 41
0.7
 11
-132.67619018795071
 21
-205.32389389394311
 31
0.0
 73
     3
  0
TEXT
  5
27D
  8
DATA
 62
     7
 10
-114.22311473464291
 20
-204.65810166184451
 30
0.0
 40
1.6288411458333321
  1
80Hz
 41
0.7
 11
-114.22311473464291
 21
-203.02926051601119
 31
0.0
 73
     3
  0
TEXT
  5
27E
  8
DATA
 62
     7
 10
-116.83174635041961
 20
-206.9527350397764
 30
0.0
 40
1.6288411458333321
  1
HIGH-PASS
 41
0.7
 11
-116.83174635041961
 21
-205.32389389394311
 31
0.0
 73
     3
  0
CIRCLE
  5
27F
  8
DATA
  6
CONTINUOUS
 62
     7
 10
-123.0000000000078
 20
-212.0268763013749
 30
0.0
 40
1.449999999999988
  0
CIRCLE
  5
280
  8
DATA
  6
CONTINUOUS
 62
     7
 10
-105.0000000000078
 20
-212.0268763013749
 30
0.0
 40
1.449999999999988
  0
CIRCLE
  5
281
  8
DATA
  6
CONTINUOUS
 62
     7
 10
-87.000000000007873
 20
-212.0268763013749
 30
0.0
 40
1.449999999999988
  0
TEXT
  5
282
  8
DATA
 62
     7
 10
-96.223114734642948
 20
-204.65810166184451
 30
0.0
 40
1.6288411458333321
  1
PROCESS
 41
0.7
 11
-96.223114734642948
 21
-203.02926051601119
 31
0.0
 73
     3
  0
TEXT
  5
283
  8
DATA
 62
     7
 10
-95.649978458096641
 20
-206.9527350397764
 30
0.0
 40
1.6288411458333321
  1
BYPASS
 41
0.7
 11
-95.649978458096641
 21
-205.32389389394311
 31
0.0
 73
     3
  0
TEXT
  5
284
  8
DATA
 62
     7
 10
-72.300492628970645
 20
-215.55230967039731
 30
0.0
 40
1.6288411458333321
  1
DRIVE
 41
0.7
 11
-72.300492628970645
 21
-213.92346852456399
 31
0.0
 73
     3
  0
CIRCLE
  5
285
  8
DATA
  6
CONTINUOUS
 62
     7
 10
-70.097928823240082
 20
-202.50752508766161
 30
0.0
 40
4.75
  0
CIRCLE
  5
286
  8
DATA
  6
CONTINUOUS
 62
     7
 10
-70.097928823240082
 20
-202.50752508766161
 30
0.0
 40
6.6499999999999764
  0
CIRCLE
  5
287
  8
DATA
  6
CONTINUOUS
 62
     7
 10
-70.097928823240082
 20
-202.50752508766161
 30
0.0
 40
6.25
  0
POLYLINE
  5
288
  8
DATA
  6
CONTINUOUS
 62
     7
 66
     1
 10
0.0
 20
0.0
 30
0.0
 70
   129
  0
VERTEX
  5
A67
  8
DATA
  6
CONTINUOUS
 62
     7
 10
-69.883859178270555
 20
-195.2911909803629
 30
0.0
  0
VERTEX
  5
A68
  8
DATA
  6
CONTINUOUS
 62
     7
 10
-69.883859178270555
 20
-195.2911909803629
 30
0.0
 42
-0.4142135623730475
  0
VERTEX
  5
A69
  8
DATA
  6
CONTINUOUS
 62
     7
 10
-69.183859178270623
 20
-195.991190980363
 30
0.0
  0
VERTEX
  5
A6A
  8
DATA
  6
CONTINUOUS
 62
     7
 10
-69.183859178270566
 20
-201.75119098036311
 30
0.0
  0
VERTEX
  5
A6B
  8
DATA
  6
CONTINUOUS
 62
     7
 10
-69.183859178270566
 20
-201.75119098036311
 30
0.0
 42
-0.4142135623730713
  0
VERTEX
  5
A6C
  8
DATA
  6
CONTINUOUS
 62
     7
 10
-69.883859178270555
 20
-202.45119098036309
 30
0.0
  0
VERTEX
  5
A6D
  8
DATA
  6
CONTINUOUS
 62
     7
 10
-70.083859178270487
 20
-202.45119098036309
 30
0.0
  0
VERTEX
  5
A6E
  8
DATA
  6
CONTINUOUS
 62
     7
 10
-70.083859178270544
 20
-202.45119098036309
 30
0.0
 42
-0.4142135623730832
  0
VERTEX
  5
A6F
  8
DATA
  6
CONTINUOUS
 62
     7
 10
-70.783859178270532
 20
-201.75119098036299
 30
0.0
  0
VERTEX
  5
A70
  8
DATA
  6
CONTINUOUS
 62
     7
 10
-70.783859178270433
 20
-195.991190980363
 30
0.0
  0
VERTEX
  5
A71
  8
DATA
  6
CONTINUOUS
 62
     7
 10
-70.783859178270433
 20
-195.991190980363
 30
0.0
 42
-0.4142135623730713
  0
VERTEX
  5
A72
  8
DATA
  6
CONTINUOUS
 62
     7
 10
-70.083859178270373
 20
-195.29119098036301
 30
0.0
  0
SEQEND
  5
A73
  8
DATA
  6
CONTINUOUS
 62
     7
  0
LINE
  5
296
  8
DATA
  6
CONTINUOUS
 62
     7
 10
-74.780075766686551
 20
-201.70752508766159
 30
0.0
 11
-76.296517372256702
 21
-201.70752508766159
 31
0.0
  0
LINE
  5
297
  8
DATA
  6
CONTINUOUS
 62
     7
 10
-74.780075766686551
 20
-203.30752508766159
 30
0.0
 11
-76.296517372256702
 21
-203.30752508766159
 31
0.0
  0
LINE
  5
298
  8
DATA
  6
CONTINUOUS
 62
     7
 10
-65.415781879793599
 20
-201.70752508766159
 30
0.0
 11
-63.899340274223462
 21
-201.70752508766159
 31
0.0
  0
LINE
  5
299
  8
DATA
  6
CONTINUOUS
 62
     7
 10
-65.415781879793599
 20
-203.30752508766159
 30
0.0
 11
-63.899340274223462
 21
-203.30752508766159
 31
0.0
  0
LINE
  5
29A
  8
DATA
  6
CONTINUOUS
 62
     7
 10
-73.974392102408814
 20
-199.76243265839119
 30
0.0
 11
-75.046678244984221
 21
-198.69014651581591
 31
0.0
  0
LINE
  5
29B
  8
DATA
  6
CONTINUOUS
 62
     7
 10
-72.843021252514816
 20
-198.6310618084884
 30
0.0
 11
-73.915307395085762
 21
-197.55877566591741
 31
0.0
  0
LINE
  5
29C
  8
DATA
  6
CONTINUOUS
 62
     7
 10
-67.352836393969724
 20
-198.6310618084928
 30
0.0
 11
-66.280550251394359
 21
-197.55877566591741
 31
0.0
  0
LINE
  5
29D
  8
DATA
  6
CONTINUOUS
 62
     7
 10
-65.1491794014959
 20
-198.690146515816
 30
0.0
 11
-66.221465544066888
 21
-199.76243265838701
 31
0.0
  0
LINE
  5
29E
  8
DATA
  6
CONTINUOUS
 62
     7
 10
-65.1491794014959
 20
-206.3249036595073
 30
0.0
 11
-66.221465544066888
 21
-205.2526175169364
 31
0.0
  0
LINE
  5
29F
  8
DATA
  6
CONTINUOUS
 62
     7
 10
-66.28055025139443
 20
-207.4562745094056
 30
0.0
 11
-67.352836393969724
 21
-206.38398836683049
 31
0.0
  0
ARC
  5
2A0
  8
DATA
  6
CONTINUOUS
 62
     7
 10
-70.173948558289354
 20
-202.42936123018359
 30
0.0
 40
7.6000000000000378
 50
300.65928338484542
 51
240.88271410567211
  0
LINE
  5
2A1
  8
DATA
  6
CONTINUOUS
 62
     7
 10
-77.773546601040564
 20
-202.50752508766161
 30
0.0
 11
-78.747928823238198
 21
-202.50752508766161
 31
0.0
  0
LINE
  5
2A2
  8
DATA
  6
CONTINUOUS
 62
     7
 10
-61.447928823240098
 20
-202.50752508766161
 30
0.0
 11
-62.574350515538143
 21
-202.50752508766161
 31
0.0
  0
LINE
  5
2A3
  8
DATA
  6
CONTINUOUS
 62
     7
 10
-73.872100742980763
 20
-209.0689147105638
 30
0.0
 11
-74.39795082993156
 21
-210.01301046449879
 31
0.0
  0
LINE
  5
2A4
  8
DATA
  6
CONTINUOUS
 62
     7
 10
-75.446447771401822
 20
-207.9030028011785
 30
0.0
 11
-76.176876002379231
 21
-208.66129638608089
 31
0.0
  0
LINE
  5
2A5
  8
DATA
  6
CONTINUOUS
 62
     7
 10
-76.699566029388066
 20
-206.32504045477799
 30
0.0
 11
-77.58642384586426
 21
-206.8370680538535
 31
0.0
  0
LINE
  5
2A6
  8
DATA
  6
CONTINUOUS
 62
     7
 10
-77.44805018060886
 20
-204.6310527590218
 30
0.0
 11
-78.404538871946343
 21
-204.9205583445206
 31
0.0
  0
LINE
  5
2A7
  8
DATA
  6
CONTINUOUS
 62
     7
 10
-77.773546601040564
 20
-202.50752508766161
 30
0.0
 11
-78.747928823238198
 21
-202.50752508766161
 31
0.0
  0
LINE
  5
2A8
  8
DATA
  6
CONTINUOUS
 62
     7
 10
-77.51552095749679
 20
-200.4643384040543
 30
0.0
 11
-79.215520957496764
 21
-200.21042139814199
 31
0.0
  0
LINE
  5
2A9
  8
DATA
  6
CONTINUOUS
 62
     7
 10
-76.777731991840014
 20
-198.66770675870859
 30
0.0
 11
-77.594703932183336
 21
-198.19233529277281
 31
0.0
  0
LINE
  5
2AA
  8
DATA
  6
CONTINUOUS
 62
     7
 10
-75.632924857624573
 20
-197.1416795299269
 30
0.0
 11
-76.298392960902191
 21
-196.4762114266494
 31
0.0
  0
LINE
  5
2AB
  8
DATA
  6
CONTINUOUS
 62
     7
 10
-74.011389989657204
 20
-195.86932744515701
 30
0.0
 11
-74.48345894571321
 21
-195.05168002859199
 31
0.0
  0
LINE
  5
2AC
  8
DATA
  6
CONTINUOUS
 62
     7
 10
-71.969297476335569
 20
-195.04446297339641
 30
0.0
 11
-72.195112877210263
 21
-194.11560522128309
 31
0.0
  0
LINE
  5
2AD
  8
DATA
  6
CONTINUOUS
 62
     7
 10
-67.960330110032729
 20
-195.1588802718434
 30
0.0
 11
-67.669984925031272
 21
-194.20526103336911
 31
0.0
  0
LINE
  5
2AE
  8
DATA
  6
CONTINUOUS
 62
     7
 10
-66.250618096819849
 20
-195.9203307271008
 30
0.0
 11
-65.723210422528567
 21
-195.0453311130648
 31
0.0
  0
LINE
  5
2AF
  8
DATA
  6
CONTINUOUS
 62
     7
 10
-64.772518577508222
 20
-197.08290874628011
 30
0.0
 11
-64.047860195195952
 21
-196.3383608931403
 31
0.0
  0
LINE
  5
2B0
  8
DATA
  6
CONTINUOUS
 62
     7
 10
-63.490410197056981
 20
-198.8113071988075
 30
0.0
 11
-62.552457529742099
 21
-198.27806141492849
 31
0.0
  0
LINE
  5
2B1
  8
DATA
  6
CONTINUOUS
 62
     7
 10
-62.829005627490872
 20
-200.476974653881
 30
0.0
 11
-61.129005627490884
 21
-200.1840701371631
 31
0.0
  0
LINE
  5
2B2
  8
DATA
  6
CONTINUOUS
 62
     7
 10
-61.819896939455262
 20
-204.780422200716
 30
0.0
 11
-62.860198216497352
 21
-204.4955306177045
 31
0.0
  0
LINE
  5
2B3
  8
DATA
  6
CONTINUOUS
 62
     7
 10
-63.621142296297812
 20
-206.2791313652427
 30
0.0
 11
-62.625210029596033
 21
-206.86424103331399
 31
0.0
  0
LINE
  5
2B4
  8
DATA
  6
CONTINUOUS
 62
     7
 10
-63.897464685577702
 20
-208.53883874867401
 30
0.0
 11
-64.717082633378439
 21
-207.7192208008733
 31
0.0
  0
LINE
  5
2B5
  8
DATA
  6
CONTINUOUS
 62
     7
 10
-65.712398700770251
 20
-209.96337014672571
 30
0.0
 11
-66.298467300122525
 21
-208.96699421297811
 31
0.0
  0
LINE
  5
2B6
  8
DATA
  6
CONTINUOUS
 62
     7
 10
-69.954323346929826
 20
-194.8325352636011
 30
0.0
 11
-69.954323346929826
 21
-193.3325352636011
 31
0.0
  0
LINE
  5
2B7
  8
DATA
  6
CONTINUOUS
 62
     7
 10
-73.880407989858256
 20
-205.37009427189591
 30
0.0
 11
-74.917975038464974
 21
-206.4760100746422
 31
0.0
  0
LINE
  5
2B8
  8
DATA
  6
CONTINUOUS
 62
     7
 10
-73.75112147952207
 20
-207.5707487521274
 30
0.0
 11
-72.713554430919615
 21
-206.46483294938579
 31
0.0
  0
LINE
  5
2B9
  8
DATA
  6
CONTINUOUS
 62
     7
 10
-70.783859178270532
 20
-207.20773780072571
 30
0.0
 11
-70.783859178270532
 21
-208.71977102194739
 31
0.0
  0
LINE
  5
2BA
  8
DATA
  6
CONTINUOUS
 62
     7
 10
-69.183859178270623
 20
-207.1687456020922
 30
0.0
 11
-69.183859178270623
 21
-208.69032192114639
 31
0.0
  0
TEXT
  5
2BB
  8
DATA
 62
     7
 10
-70.422021314954392
 20
-193.10248707689439
 30
0.0
 40
1.4293081054687491
  1
5
 41
0.7
 11
-70.422021314954392
 21
-191.6731789714257
 31
0.0
 73
     3
  0
TEXT
  5
2BC
  8
DATA
 62
     7
 10
-75.612052180031782
 20
-194.36952346028849
 30
0.0
 40
1.4293081054687491
  1
4
 41
0.7
 11
-75.612052180031782
 21
-192.9402153548198
 31
0.0
 73
     3
  0
TEXT
  5
2BD
  8
DATA
 62
     7
 10
-79.222720999138531
 20
-198.4418378431516
 30
0.0
 40
1.4293081054687491
  1
3
 41
0.7
 11
-79.222720999138531
 21
-197.01252973768291
 31
0.0
 73
     3
  0
TEXT
  5
2BE
  8
DATA
 62
     7
 10
-80.406192511278405
 20
-203.13883846329861
 30
0.0
 40
1.4293081054687491
  1
2
 41
0.7
 11
-80.406192511278405
 21
-201.70953035782981
 31
0.0
 73
     3
  0
TEXT
  5
2BF
  8
DATA
 62
     7
 10
-65.29855714617851
 20
-194.64096606854261
 30
0.0
 40
1.4293081054687491
  1
6
 41
0.7
 11
-65.29855714617851
 21
-193.21165796307389
 31
0.0
 73
     3
  0
TEXT
  5
2C0
  8
DATA
 62
     7
 10
-61.899999999999991
 20
-198.518655
 30
0.0
 40
1.4293081054687491
  1
7
 41
0.7
 11
-61.899999999999991
 21
-197.0893468945313
 31
0.0
 73
     3
  0
TEXT
  5
2C1
  8
DATA
 62
     7
 10
-60.614343738224782
 20
-203.1973425000001
 30
0.0
 40
1.4293081054687491
  1
8
 41
0.7
 11
-60.614343738224782
 21
-201.7680343945313
 31
0.0
 73
     3
  0
TEXT
  5
2C2
  8
DATA
 62
     7
 10
-65.626710441259263
 20
-211.91865499999989
 30
0.0
 40
1.4293081054687491
  1
10
 41
0.7
 11
-65.626710441259263
 21
-210.4893468945312
 31
0.0
 73
     3
  0
TEXT
  5
2C3
  8
DATA
 62
     7
 10
-61.783992345063432
 20
-207.918655
 30
0.0
 40
1.4293081054687491
  1
9
 41
0.7
 11
-61.783992345063432
 21
-206.48934689453131
 31
0.0
 73
     3
  0
TEXT
  5
2C4
  8
DATA
 62
     7
 10
-47.988654332312947
 20
-215.55230967039731
 30
0.0
 40
1.6288411458333321
  1
DENSITY
 41
0.7
 11
-47.988654332312947
 21
-213.92346852456399
 31
0.0
 73
     3
  0
CIRCLE
  5
2C5
  8
DATA
  6
CONTINUOUS
 62
     7
 10
-45.097928823240082
 20
-202.50752508766161
 30
0.0
 40
4.75
  0
CIRCLE
  5
2C6
  8
DATA
  6
CONTINUOUS
 62
     7
 10
-45.097928823240082
 20
-202.50752508766161
 30
0.0
 40
6.6499999999999764
  0
CIRCLE
  5
2C7
  8
DATA
  6
CONTINUOUS
 62
     7
 10
-45.097928823240082
 20
-202.50752508766161
 30
0.0
 40
6.25
  0
POLYLINE
  5
2C8
  8
DATA
  6
CONTINUOUS
 62
     7
 66
     1
 10
0.0
 20
0.0
 30
0.0
 70
   129
  0
VERTEX
  5
A74
  8
DATA
  6
CONTINUOUS
 62
     7
 10
-44.883859178270562
 20
-195.2911909803629
 30
0.0
  0
VERTEX
  5
A75
  8
DATA
  6
CONTINUOUS
 62
     7
 10
-44.883859178270562
 20
-195.2911909803629
 30
0.0
 42
-0.4142135623730475
  0
VERTEX
  5
A76
  8
DATA
  6
CONTINUOUS
 62
     7
 10
-44.183859178270623
 20
-195.991190980363
 30
0.0
  0
VERTEX
  5
A77
  8
DATA
  6
CONTINUOUS
 62
     7
 10
-44.183859178270552
 20
-201.75119098036311
 30
0.0
  0
VERTEX
  5
A78
  8
DATA
  6
CONTINUOUS
 62
     7
 10
-44.183859178270552
 20
-201.75119098036311
 30
0.0
 42
-0.4142135623730713
  0
VERTEX
  5
A79
  8
DATA
  6
CONTINUOUS
 62
     7
 10
-44.883859178270562
 20
-202.45119098036309
 30
0.0
  0
VERTEX
  5
A7A
  8
DATA
  6
CONTINUOUS
 62
     7
 10
-45.083859178270487
 20
-202.45119098036309
 30
0.0
  0
VERTEX
  5
A7B
  8
DATA
  6
CONTINUOUS
 62
     7
 10
-45.083859178270536
 20
-202.45119098036309
 30
0.0
 42
-0.4142135623730832
  0
VERTEX
  5
A7C
  8
DATA
  6
CONTINUOUS
 62
     7
 10
-45.783859178270532
 20
-201.75119098036299
 30
0.0
  0
VERTEX
  5
A7D
  8
DATA
  6
CONTINUOUS
 62
     7
 10
-45.783859178270419
 20
-195.991190980363
 30
0.0
  0
VERTEX
  5
A7E
  8
DATA
  6
CONTINUOUS
 62
     7
 10
-45.783859178270419
 20
-195.991190980363
 30
0.0
 42
-0.4142135623730237
  0
VERTEX
  5
A7F
  8
DATA
  6
CONTINUOUS
 62
     7
 10
-45.083859178270373
 20
-195.29119098036301
 30
0.0
  0
SEQEND
  5
A80
  8
DATA
  6
CONTINUOUS
 62
     7
  0
LINE
  5
2D6
  8
DATA
  6
CONTINUOUS
 62
     7
 10
-49.780075766686537
 20
-201.70752508766159
 30
0.0
 11
-51.296517372256702
 21
-201.70752508766159
 31
0.0
  0
LINE
  5
2D7
  8
DATA
  6
CONTINUOUS
 62
     7
 10
-49.780075766686537
 20
-203.30752508766159
 30
0.0
 11
-51.296517372256702
 21
-203.30752508766159
 31
0.0
  0
LINE
  5
2D8
  8
DATA
  6
CONTINUOUS
 62
     7
 10
-40.415781879793613
 20
-201.70752508766159
 30
0.0
 11
-38.899340274223448
 21
-201.70752508766159
 31
0.0
  0
LINE
  5
2D9
  8
DATA
  6
CONTINUOUS
 62
     7
 10
-40.415781879793613
 20
-203.30752508766159
 30
0.0
 11
-38.899340274223448
 21
-203.30752508766159
 31
0.0
  0
LINE
  5
2DA
  8
DATA
  6
CONTINUOUS
 62
     7
 10
-48.974392102408864
 20
-199.76243265839119
 30
0.0
 11
-50.046678244984207
 21
-198.69014651581591
 31
0.0
  0
LINE
  5
2DB
  8
DATA
  6
CONTINUOUS
 62
     7
 10
-47.843021252514824
 20
-198.6310618084884
 30
0.0
 11
-48.915307395085748
 21
-197.55877566591741
 31
0.0
  0
LINE
  5
2DC
  8
DATA
  6
CONTINUOUS
 62
     7
 10
-42.352836393969703
 20
-198.6310618084928
 30
0.0
 11
-41.280550251394359
 21
-197.55877566591741
 31
0.0
  0
LINE
  5
2DD
  8
DATA
  6
CONTINUOUS
 62
     7
 10
-40.149179401495893
 20
-198.690146515816
 30
0.0
 11
-41.221465544066881
 21
-199.76243265838701
 31
0.0
  0
LINE
  5
2DE
  8
DATA
  6
CONTINUOUS
 62
     7
 10
-40.149179401495893
 20
-206.3249036595073
 30
0.0
 11
-41.221465544066881
 21
-205.2526175169364
 31
0.0
  0
LINE
  5
2DF
  8
DATA
  6
CONTINUOUS
 62
     7
 10
-41.280550251394402
 20
-207.4562745094056
 30
0.0
 11
-42.352836393969703
 21
-206.38398836683049
 31
0.0
  0
ARC
  5
2E0
  8
DATA
  6
CONTINUOUS
 62
     7
 10
-45.173948558289347
 20
-202.42936123018359
 30
0.0
 40
7.6000000000000378
 50
300.65928338484542
 51
240.88271410567211
  0
LINE
  5
2E1
  8
DATA
  6
CONTINUOUS
 62
     7
 10
-52.773546601040557
 20
-202.50752508766161
 30
0.0
 11
-53.747928823238183
 21
-202.50752508766161
 31
0.0
  0
LINE
  5
2E2
  8
DATA
  6
CONTINUOUS
 62
     7
 10
-36.447928823240098
 20
-202.50752508766161
 30
0.0
 11
-37.57435051553815
 21
-202.50752508766161
 31
0.0
  0
LINE
  5
2E3
  8
DATA
  6
CONTINUOUS
 62
     7
 10
-48.872100742980777
 20
-209.0689147105638
 30
0.0
 11
-49.397950829931602
 21
-210.01301046449879
 31
0.0
  0
LINE
  5
2E4
  8
DATA
  6
CONTINUOUS
 62
     7
 10
-50.44644777140185
 20
-207.9030028011785
 30
0.0
 11
-51.176876002379252
 21
-208.66129638608089
 31
0.0
  0
LINE
  5
2E5
  8
DATA
  6
CONTINUOUS
 62
     7
 10
-51.699566029388073
 20
-206.32504045477799
 30
0.0
 11
-52.58642384586426
 21
-206.8370680538535
 31
0.0
  0
LINE
  5
2E6
  8
DATA
  6
CONTINUOUS
 62
     7
 10
-52.448050180608867
 20
-204.6310527590218
 30
0.0
 11
-53.404538871946343
 21
-204.9205583445206
 31
0.0
  0
LINE
  5
2E7
  8
DATA
  6
CONTINUOUS
 62
     7
 10
-52.773546601040557
 20
-202.50752508766161
 30
0.0
 11
-53.747928823238183
 21
-202.50752508766161
 31
0.0
  0
LINE
  5
2E8
  8
DATA
  6
CONTINUOUS
 62
     7
 10
-52.515520957496797
 20
-200.4643384040543
 30
0.0
 11
-54.215520957496778
 21
-200.21042139814199
 31
0.0
  0
LINE
  5
2E9
  8
DATA
  6
CONTINUOUS
 62
     7
 10
-51.777731991840021
 20
-198.66770675870859
 30
0.0
 11
-52.59470393218335
 21
-198.19233529277281
 31
0.0
  0
LINE
  5
2EA
  8
DATA
  6
CONTINUOUS
 62
     7
 10
-50.63292485762458
 20
-197.1416795299269
 30
0.0
 11
-51.29839296090217
 21
-196.4762114266494
 31
0.0
  0
LINE
  5
2EB
  8
DATA
  6
CONTINUOUS
 62
     7
 10
-49.011389989657189
 20
-195.86932744515701
 30
0.0
 11
-49.48345894571321
 21
-195.05168002859199
 31
0.0
  0
LINE
  5
2EC
  8
DATA
  6
CONTINUOUS
 62
     7
 10
-46.969297476335569
 20
-195.04446297339641
 30
0.0
 11
-47.195112877210249
 21
-194.11560522128309
 31
0.0
  0
LINE
  5
2ED
  8
DATA
  6
CONTINUOUS
 62
     7
 10
-42.960330110032729
 20
-195.1588802718434
 30
0.0
 11
-42.669984925031272
 21
-194.20526103336911
 31
0.0
  0
LINE
  5
2EE
  8
DATA
  6
CONTINUOUS
 62
     7
 10
-41.250618096819849
 20
-195.9203307271008
 30
0.0
 11
-40.723210422528567
 21
-195.0453311130648
 31
0.0
  0
LINE
  5
2EF
  8
DATA
  6
CONTINUOUS
 62
     7
 10
-39.772518577508222
 20
-197.08290874628011
 30
0.0
 11
-39.047860195195952
 21
-196.3383608931403
 31
0.0
  0
LINE
  5
2F0
  8
DATA
  6
CONTINUOUS
 62
     7
 10
-38.490410197056988
 20
-198.8113071988075
 30
0.0
 11
-37.552457529742099
 21
-198.27806141492849
 31
0.0
  0
LINE
  5
2F1
  8
DATA
  6
CONTINUOUS
 62
     7
 10
-37.829005627490872
 20
-200.476974653881
 30
0.0
 11
-36.129005627490884
 21
-200.1840701371631
 31
0.0
  0
LINE
  5
2F2
  8
DATA
  6
CONTINUOUS
 62
     7
 10
-36.819896939455283
 20
-204.780422200716
 30
0.0
 11
-37.860198216497352
 21
-204.4955306177045
 31
0.0
  0
LINE
  5
2F3
  8
DATA
  6
CONTINUOUS
 62
     7
 10
-38.621142296297833
 20
-206.2791313652427
 30
0.0
 11
-37.62521002959604
 21
-206.86424103331399
 31
0.0
  0
LINE
  5
2F4
  8
DATA
  6
CONTINUOUS
 62
     7
 10
-38.897464685577702
 20
-208.53883874867401
 30
0.0
 11
-39.717082633378439
 21
-207.7192208008733
 31
0.0
  0
LINE
  5
2F5
  8
DATA
  6
CONTINUOUS
 62
     7
 10
-40.712398700770237
 20
-209.96337014672571
 30
0.0
 11
-41.298467300122518
 21
-208.96699421297811
 31
0.0
  0
LINE
  5
2F6
  8
DATA
  6
CONTINUOUS
 62
     7
 10
-44.954323346929812
 20
-194.8325352636011
 30
0.0
 11
-44.954323346929812
 21
-193.3325352636011
 31
0.0
  0
TEXT
  5
2F7
  8
DATA
 62
     7
 10
-51.64386522587246
 20
-212.22295564807359
 30
0.0
 40
1.4293081054687491
  1
OFF
 41
0.7
 11
-51.64386522587246
 21
-210.7936475426049
 31
0.0
 73
     3
  0
LINE
  5
2F8
  8
DATA
  6
CONTINUOUS
 62
     7
 10
-48.880407989858291
 20
-205.37009427189591
 30
0.0
 11
-49.917975038465002
 21
-206.4760100746422
 31
0.0
  0
LINE
  5
2F9
  8
DATA
  6
CONTINUOUS
 62
     7
 10
-48.75112147952207
 20
-207.5707487521274
 30
0.0
 11
-47.713554430919622
 21
-206.46483294938579
 31
0.0
  0
LINE
  5
2FA
  8
DATA
  6
CONTINUOUS
 62
     7
 10
-45.783859178270532
 20
-207.20773780072571
 30
0.0
 11
-45.783859178270532
 21
-208.71977102194739
 31
0.0
  0
LINE
  5
2FB
  8
DATA
  6
CONTINUOUS
 62
     7
 10
-44.183859178270623
 20
-207.1687456020922
 30
0.0
 11
-44.183859178270623
 21
-208.69032192114639
 31
0.0
  0
TEXT
  5
2FC
  8
DATA
 62
     7
 10
-45.422021314954392
 20
-193.10248707689439
 30
0.0
 40
1.4293081054687491
  1
5
 41
0.7
 11
-45.422021314954392
 21
-191.6731789714257
 31
0.0
 73
     3
  0
TEXT
  5
2FD
  8
DATA
 62
     7
 10
-50.612052180031768
 20
-194.36952346028849
 30
0.0
 40
1.4293081054687491
  1
4
 41
0.7
 11
-50.612052180031768
 21
-192.9402153548198
 31
0.0
 73
     3
  0
TEXT
  5
2FE
  8
DATA
 62
     7
 10
-54.222720999138517
 20
-198.4418378431516
 30
0.0
 40
1.4293081054687491
  1
3
 41
0.7
 11
-54.222720999138517
 21
-197.01252973768291
 31
0.0
 73
     3
  0
TEXT
  5
2FF
  8
DATA
 62
     7
 10
-54.118172920442859
 20
-207.79736914092169
 30
0.0
 40
1.4293081054687491
  1
1
 41
0.7
 11
-54.118172920442859
 21
-206.368061035453
 31
0.0
 73
     3
  0
TEXT
  5
300
  8
DATA
 62
     7
 10
-55.406192511278412
 20
-203.13883846329861
 30
0.0
 40
1.4293081054687491
  1
2
 41
0.7
 11
-55.406192511278412
 21
-201.70953035782981
 31
0.0
 73
     3
  0
TEXT
  5
301
  8
DATA
 62
     7
 10
-40.29855714617851
 20
-194.64096606854261
 30
0.0
 40
1.4293081054687491
  1
6
 41
0.7
 11
-40.29855714617851
 21
-193.21165796307389
 31
0.0
 73
     3
  0
TEXT
  5
302
  8
DATA
 62
     7
 10
-36.899999999999991
 20
-198.518655
 30
0.0
 40
1.4293081054687491
  1
7
 41
0.7
 11
-36.899999999999991
 21
-197.0893468945313
 31
0.0
 73
     3
  0
TEXT
  5
303
  8
DATA
 62
     7
 10
-35.614343738224782
 20
-203.1973425000001
 30
0.0
 40
1.4293081054687491
  1
8
 41
0.7
 11
-35.614343738224782
 21
-201.7680343945313
 31
0.0
 73
     3
  0
TEXT
  5
304
  8
DATA
 62
     7
 10
-40.62671044125927
 20
-211.91865499999989
 30
0.0
 40
1.4293081054687491
  1
10
 41
0.7
 11
-40.62671044125927
 21
-210.4893468945312
 31
0.0
 73
     3
  0
TEXT
  5
305
  8
DATA
 62
     7
 10
-36.783992345063432
 20
-207.918655
 30
0.0
 40
1.4293081054687491
  1
9
 41
0.7
 11
-36.783992345063432
 21
-206.48934689453131
 31
0.0
 73
     3
  0
LINE
  5
306
  8
DATA
  6
CONTINUOUS
 62
     7
 10
-31.000000000007859
 20
-206.5000000000249
 30
0.0
 11
9.9999999999921414
 21
-206.5000000000249
 31
0.0
  0
LINE
  5
307
  8
DATA
  6
CONTINUOUS
 62
     7
 10
-31.000000000007859
 20
-215.0000000000249
 30
0.0
 11
9.9999999999921414
 21
-215.0000000000249
 31
0.0
  0
LINE
  5
308
  8
DATA
  6
CONTINUOUS
 62
     7
 10
-32.000000000007851
 20
-214.0000000000249
 30
0.0
 11
-32.000000000007851
 21
-207.5000000000249
 31
0.0
  0
CIRCLE
  5
309
  8
DATA
  6
CONTINUOUS
 62
     7
 10
-23.250000000007859
 20
-211.641278378132
 30
0.0
 40
1.449999999999988
  0
CIRCLE
  5
30A
  8
DATA
  6
CONTINUOUS
 62
     7
 10
-28.250000000007859
 20
-211.641278378132
 30
0.0
 40
1.449999999999988
  0
CIRCLE
  5
30B
  8
DATA
  6
CONTINUOUS
 62
     7
 10
-18.250000000007851
 20
-211.641278378132
 30
0.0
 40
1.449999999999988
  0
CIRCLE
  5
30C
  8
DATA
  6
CONTINUOUS
 62
     7
 10
-13.25000000000786
 20
-211.641278378132
 30
0.0
 40
1.449999999999988
  0
TEXT
  5
30D
  8
DATA
 62
     7
 10
-20.299155429299908
 20
-205.9006030168994
 30
0.0
 40
1.6288411458333321
  1
GAIN REDUCTION dB
 41
0.7
 11
-20.299155429299908
 21
-204.2717618710661
 31
0.0
 73
     3
  0
TEXT
  5
30E
  8
DATA
 62
     7
 10
-24.090836862484672
 20
-209.49029478110859
 30
0.0
 40
1.1401888020833331
  1
25
 41
0.7
 11
-24.090836862484672
 21
-208.3501059790253
 31
0.0
 73
     3
  0
TEXT
  5
30F
  8
DATA
 62
     7
 10
-28.84392650173216
 20
-209.49389355665181
 30
0.0
 40
1.1401888020833331
  1
30
 41
0.7
 11
-28.84392650173216
 21
-208.35370475456841
 31
0.0
 73
     3
  0
TEXT
  5
310
  8
DATA
 62
     7
 10
-19.08362463959703
 20
-209.46660900836321
 30
0.0
 40
1.1401888020833331
  1
20
 41
0.7
 11
-19.08362463959703
 21
-208.32642020627981
 31
0.0
 73
     3
  0
TEXT
  5
311
  8
DATA
 62
     7
 10
-14.199287083843579
 20
-209.4497347057835
 30
0.0
 40
1.1401888020833331
  1
15
 41
0.7
 11
-14.199287083843579
 21
-208.30954590370021
 31
0.0
 73
     3
  0
ARC
  5
312
  8
DATA
  6
CONTINUOUS
 62
     7
 10
-31.000000000007859
 20
-207.5000000000249
 30
0.0
 40
1.0
 50
90.0
 51
180.0
  0
ARC
  5
313
  8
DATA
  6
CONTINUOUS
 62
     7
 10
-31.000000000007859
 20
-214.0000000000249
 30
0.0
 40
1.0
 50
180.0
 51
270.0
  0
LINE
  5
314
  8
DATA
  6
CONTINUOUS
 62
     7
 10
10.99999999999214
 20
-214.0000000000249
 30
0.0
 11
10.99999999999214
 21
-207.5000000000249
 31
0.0
  0
ARC
  5
315
  8
DATA
  6
CONTINUOUS
 62
     7
 10
9.9999999999921414
 20
-207.5000000000249
 30
0.0
 40
1.0
 50
0.0
 51
90.0
  0
ARC
  5
316
  8
DATA
  6
CONTINUOUS
 62
     7
 10
9.9999999999921414
 20
-214.0000000000249
 30
0.0
 40
1.0
 50
270.0
 51
0.0
  0
CIRCLE
  5
317
  8
DATA
  6
CONTINUOUS
 62
     7
 10
-8.2500000000078568
 20
-211.641278378132
 30
0.0
 40
1.449999999999988
  0
CIRCLE
  5
318
  8
DATA
  6
CONTINUOUS
 62
     7
 10
-3.2500000000078582
 20
-211.641278378132
 30
0.0
 40
1.449999999999988
  0
CIRCLE
  5
319
  8
DATA
  6
CONTINUOUS
 62
     7
 10
1.7499999999921401
 20
-211.641278378132
 30
0.0
 40
1.449999999999988
  0
CIRCLE
  5
31A
  8
DATA
  6
CONTINUOUS
 62
     7
 10
6.7499999999921378
 20
-211.641278378132
 30
0.0
 40
1.449999999999988
  0
TEXT
  5
31B
  8
DATA
 62
     7
 10
-9.1083899282373721
 20
-209.4497347057835
 30
0.0
 40
1.1401888020833331
  1
12
 41
0.7
 11
-9.1083899282373721
 21
-208.30954590370021
 31
0.0
 73
     3
  0
TEXT
  5
31C
  8
DATA
 62
     7
 10
-3.6534892288938301
 20
-209.4497347057835
 30
0.0
 40
1.1401888020833331
  1
9
 41
0.7
 11
-3.6534892288938301
 21
-208.30954590370021
 31
0.0
 73
     3
  0
TEXT
  5
31D
  8
DATA
 62
     7
 10
1.5266457590087441
 20
-209.4497347057835
 30
0.0
 40
1.1401888020833331
  1
6
 41
0.7
 11
1.5266457590087441
 21
-208.30954590370021
 31
0.0
 73
     3
  0
TEXT
  5
31E
  8
DATA
 62
     7
 10
6.4854544582717031
 20
-209.4497347057835
 30
0.0
 40
1.1401888020833331
  1
3
 41
0.7
 11
6.4854544582717031
 21
-208.30954590370021
 31
0.0
 73
     3
  0
TEXT
  5
31F
  8
DATA
 62
     7
 10
-39.290412261949491
 20
-222.24088309238579
 30
0.0
 40
2.1174934895833322
  1
COMPRESSOR
 41
0.7
 11
-39.290412261949491
 21
-220.12338960280249
 31
0.0
 73
     3
  0
TEXT
  5
320
  8
DATA
 62
     7
 10
24.017006725386
 20
-215.55230967039731
 30
0.0
 40
1.6288411458333321
  1
FREQUENCY
 41
0.7
 11
24.017006725386
 21
-213.92346852456399
 31
0.0
 73
     3
  0
CIRCLE
  5
321
  8
DATA
  6
CONTINUOUS
 62
     7
 10
28.902071176759922
 20
-202.50752508766161
 30
0.0
 40
4.75
  0
CIRCLE
  5
322
  8
DATA
  6
CONTINUOUS
 62
     7
 10
28.902071176759922
 20
-202.50752508766161
 30
0.0
 40
6.6499999999999764
  0
CIRCLE
  5
323
  8
DATA
  6
CONTINUOUS
 62
     7
 10
28.902071176759922
 20
-202.50752508766161
 30
0.0
 40
6.25
  0
POLYLINE
  5
324
  8
DATA
  6
CONTINUOUS
 62
     7
 66
     1
 10
0.0
 20
0.0
 30
0.0
 70
   129
  0
VERTEX
  5
A81
  8
DATA
  6
CONTINUOUS
 62
     7
 10
29.116140821729449
 20
-195.2911909803629
 30
0.0
  0
VERTEX
  5
A82
  8
DATA
  6
CONTINUOUS
 62
     7
 10
29.116140821729449
 20
-195.2911909803629
 30
0.0
 42
-0.4142135623730594
  0
VERTEX
  5
A83
  8
DATA
  6
CONTINUOUS
 62
     7
 10
29.81614082172937
 20
-195.991190980363
 30
0.0
  0
VERTEX
  5
A84
  8
DATA
  6
CONTINUOUS
 62
     7
 10
29.816140821729441
 20
-201.75119098036311
 30
0.0
  0
VERTEX
  5
A85
  8
DATA
  6
CONTINUOUS
 62
     7
 10
29.816140821729441
 20
-201.75119098036311
 30
0.0
 42
-0.4142135623730713
  0
VERTEX
  5
A86
  8
DATA
  6
CONTINUOUS
 62
     7
 10
29.116140821729449
 20
-202.45119098036309
 30
0.0
  0
VERTEX
  5
A87
  8
DATA
  6
CONTINUOUS
 62
     7
 10
28.91614082172952
 20
-202.45119098036309
 30
0.0
  0
VERTEX
  5
A88
  8
DATA
  6
CONTINUOUS
 62
     7
 10
28.916140821729471
 20
-202.45119098036309
 30
0.0
 42
-0.4142135623730774
  0
VERTEX
  5
A89
  8
DATA
  6
CONTINUOUS
 62
     7
 10
28.216140821729471
 20
-201.75119098036299
 30
0.0
  0
VERTEX
  5
A8A
  8
DATA
  6
CONTINUOUS
 62
     7
 10
28.216140821729581
 20
-195.991190980363
 30
0.0
  0
VERTEX
  5
A8B
  8
DATA
  6
CONTINUOUS
 62
     7
 10
28.216140821729581
 20
-195.991190980363
 30
0.0
 42
-0.4142135623730475
  0
VERTEX
  5
A8C
  8
DATA
  6
CONTINUOUS
 62
     7
 10
28.916140821729631
 20
-195.29119098036301
 30
0.0
  0
SEQEND
  5
A8D
  8
DATA
  6
CONTINUOUS
 62
     7
  0
LINE
  5
332
  8
DATA
  6
CONTINUOUS
 62
     7
 10
24.219924233313449
 20
-201.70752508766159
 30
0.0
 11
22.703482627743298
 21
-201.70752508766159
 31
0.0
  0
LINE
  5
333
  8
DATA
  6
CONTINUOUS
 62
     7
 10
24.219924233313449
 20
-203.30752508766159
 30
0.0
 11
22.703482627743298
 21
-203.30752508766159
 31
0.0
  0
LINE
  5
334
  8
DATA
  6
CONTINUOUS
 62
     7
 10
33.584218120206387
 20
-201.70752508766159
 30
0.0
 11
35.100659725776531
 21
-201.70752508766159
 31
0.0
  0
LINE
  5
335
  8
DATA
  6
CONTINUOUS
 62
     7
 10
33.584218120206387
 20
-203.30752508766159
 30
0.0
 11
35.100659725776531
 21
-203.30752508766159
 31
0.0
  0
LINE
  5
336
  8
DATA
  6
CONTINUOUS
 62
     7
 10
25.02560789759114
 20
-199.76243265839119
 30
0.0
 11
23.953321755015772
 21
-198.69014651581591
 31
0.0
  0
LINE
  5
337
  8
DATA
  6
CONTINUOUS
 62
     7
 10
26.15697874748518
 20
-198.6310618084884
 30
0.0
 11
25.084692604914249
 21
-197.55877566591741
 31
0.0
  0
LINE
  5
338
  8
DATA
  6
CONTINUOUS
 62
     7
 10
31.64716360603029
 20
-198.6310618084928
 30
0.0
 11
32.719449748605641
 21
-197.55877566591741
 31
0.0
  0
LINE
  5
339
  8
DATA
  6
CONTINUOUS
 62
     7
 10
33.850820598504107
 20
-198.690146515816
 30
0.0
 11
32.778534455933134
 21
-199.76243265838701
 31
0.0
  0
LINE
  5
33A
  8
DATA
  6
CONTINUOUS
 62
     7
 10
33.850820598504107
 20
-206.3249036595073
 30
0.0
 11
32.778534455933134
 21
-205.2526175169364
 31
0.0
  0
LINE
  5
33B
  8
DATA
  6
CONTINUOUS
 62
     7
 10
32.719449748605577
 20
-207.4562745094056
 30
0.0
 11
31.64716360603029
 21
-206.38398836683049
 31
0.0
  0
ARC
  5
33C
  8
DATA
  6
CONTINUOUS
 62
     7
 10
28.82605144171065
 20
-202.42936123018359
 30
0.0
 40
7.6000000000000378
 50
300.65928338484542
 51
240.88271410567211
  0
LINE
  5
33D
  8
DATA
  6
CONTINUOUS
 62
     7
 10
21.226453398959439
 20
-202.50752508766161
 30
0.0
 11
20.25207117676182
 21
-202.50752508766161
 31
0.0
  0
LINE
  5
33E
  8
DATA
  6
CONTINUOUS
 62
     7
 10
37.552071176759902
 20
-202.50752508766161
 30
0.0
 11
36.42564948446185
 21
-202.50752508766161
 31
0.0
  0
LINE
  5
33F
  8
DATA
  6
CONTINUOUS
 62
     7
 10
25.12789925701923
 20
-209.0689147105638
 30
0.0
 11
24.602049170068408
 21
-210.01301046449879
 31
0.0
  0
LINE
  5
340
  8
DATA
  6
CONTINUOUS
 62
     7
 10
23.55355222859815
 20
-207.9030028011785
 30
0.0
 11
22.823123997620758
 21
-208.66129638608089
 31
0.0
  0
LINE
  5
341
  8
DATA
  6
CONTINUOUS
 62
     7
 10
22.30043397061193
 20
-206.32504045477799
 30
0.0
 11
21.413576154135729
 21
-206.8370680538535
 31
0.0
  0
LINE
  5
342
  8
DATA
  6
CONTINUOUS
 62
     7
 10
21.55194981939114
 20
-204.6310527590218
 30
0.0
 11
20.59546112805366
 21
-204.9205583445206
 31
0.0
  0
LINE
  5
343
  8
DATA
  6
CONTINUOUS
 62
     7
 10
21.226453398959439
 20
-202.50752508766161
 30
0.0
 11
20.25207117676182
 21
-202.50752508766161
 31
0.0
  0
LINE
  5
344
  8
DATA
  6
CONTINUOUS
 62
     7
 10
21.4844790425032
 20
-200.4643384040543
 30
0.0
 11
19.784479042503211
 21
-200.21042139814199
 31
0.0
  0
LINE
  5
345
  8
DATA
  6
CONTINUOUS
 62
     7
 10
22.222268008159961
 20
-198.66770675870859
 30
0.0
 11
21.40529606781665
 21
-198.19233529277281
 31
0.0
  0
LINE
  5
346
  8
DATA
  6
CONTINUOUS
 62
     7
 10
23.367075142375409
 20
-197.1416795299269
 30
0.0
 11
22.701607039097819
 21
-196.4762114266494
 31
0.0
  0
LINE
  5
347
  8
DATA
  6
CONTINUOUS
 62
     7
 10
24.988610010342811
 20
-195.86932744515701
 30
0.0
 11
24.51654105428678
 21
-195.05168002859199
 31
0.0
  0
LINE
  5
348
  8
DATA
  6
CONTINUOUS
 62
     7
 10
27.030702523664431
 20
-195.04446297339641
 30
0.0
 11
26.80488712278974
 21
-194.11560522128309
 31
0.0
  0
LINE
  5
349
  8
DATA
  6
CONTINUOUS
 62
     7
 10
31.039669889967271
 20
-195.1588802718434
 30
0.0
 11
31.330015074968731
 21
-194.20526103336911
 31
0.0
  0
LINE
  5
34A
  8
DATA
  6
CONTINUOUS
 62
     7
 10
32.749381903180137
 20
-195.9203307271008
 30
0.0
 11
33.276789577471433
 21
-195.0453311130648
 31
0.0
  0
LINE
  5
34B
  8
DATA
  6
CONTINUOUS
 62
     7
 10
34.227481422491778
 20
-197.08290874628011
 30
0.0
 11
34.952139804804048
 21
-196.3383608931403
 31
0.0
  0
LINE
  5
34C
  8
DATA
  6
CONTINUOUS
 62
     7
 10
35.509589802942997
 20
-198.8113071988075
 30
0.0
 11
36.447542470257922
 21
-198.27806141492849
 31
0.0
  0
LINE
  5
34D
  8
DATA
  6
CONTINUOUS
 62
     7
 10
36.170994372509142
 20
-200.476974653881
 30
0.0
 11
37.870994372509116
 21
-200.1840701371631
 31
0.0
  0
LINE
  5
34E
  8
DATA
  6
CONTINUOUS
 62
     7
 10
37.180103060544717
 20
-204.780422200716
 30
0.0
 11
36.139801783502648
 21
-204.4955306177045
 31
0.0
  0
LINE
  5
34F
  8
DATA
  6
CONTINUOUS
 62
     7
 10
35.378857703702181
 20
-206.2791313652427
 30
0.0
 11
36.374789970403967
 21
-206.86424103331399
 31
0.0
  0
LINE
  5
350
  8
DATA
  6
CONTINUOUS
 62
     7
 10
35.102535314422298
 20
-208.53883874867401
 30
0.0
 11
34.282917366621547
 21
-207.7192208008733
 31
0.0
  0
LINE
  5
351
  8
DATA
  6
CONTINUOUS
 62
     7
 10
33.287601299229763
 20
-209.96337014672571
 30
0.0
 11
32.701532699877461
 21
-208.96699421297811
 31
0.0
  0
LINE
  5
352
  8
DATA
  6
CONTINUOUS
 62
     7
 10
29.045676653070181
 20
-194.8325352636011
 30
0.0
 11
29.045676653070181
 21
-193.3325352636011
 31
0.0
  0
TEXT
  5
353
  8
DATA
 62
     7
 10
22.35613477412754
 20
-212.22295564807359
 30
0.0
 40
1.4293081054687491
  1
800
 41
0.7
 11
22.35613477412754
 21
-210.7936475426049
 31
0.0
 73
     3
  0
LINE
  5
354
  8
DATA
  6
CONTINUOUS
 62
     7
 10
25.119592010141719
 20
-205.37009427189591
 30
0.0
 11
24.082024961535001
 21
-206.4760100746422
 31
0.0
  0
LINE
  5
355
  8
DATA
  6
CONTINUOUS
 62
     7
 10
25.24887852047793
 20
-207.5707487521274
 30
0.0
 11
26.286445569080389
 21
-206.46483294938579
 31
0.0
  0
LINE
  5
356
  8
DATA
  6
CONTINUOUS
 62
     7
 10
28.216140821729471
 20
-207.20773780072571
 30
0.0
 11
28.216140821729471
 21
-208.71977102194739
 31
0.0
  0
LINE
  5
357
  8
DATA
  6
CONTINUOUS
 62
     7
 10
29.81614082172937
 20
-207.1687456020922
 30
0.0
 11
29.81614082172937
 21
-208.69032192114639
 31
0.0
  0
TEXT
  5
358
  8
DATA
 62
     7
 10
28.577978685045611
 20
-193.10248707689439
 30
0.0
 40
1.4293081054687491
  1
4k
 41
0.7
 11
28.577978685045611
 21
-191.6731789714257
 31
0.0
 73
     3
  0
TEXT
  5
359
  8
DATA
 62
     7
 10
19.777279000861469
 20
-198.4418378431516
 30
0.0
 40
1.4293081054687491
  1
1k
 41
0.7
 11
19.777279000861469
 21
-197.01252973768291
 31
0.0
 73
     3
  0
TEXT
  5
35A
  8
DATA
 62
     7
 10
37.100000000000009
 20
-198.518655
 30
0.0
 40
1.4293081054687491
  1
8k
 41
0.7
 11
37.100000000000009
 21
-197.0893468945313
 31
0.0
 73
     3
  0
TEXT
  5
35B
  8
DATA
 62
     7
 10
33.37328955874073
 20
-211.91865499999989
 30
0.0
 40
1.4293081054687491
  1
10k
 41
0.7
 11
33.37328955874073
 21
-210.4893468945312
 31
0.0
 73
     3
  0
TEXT
  5
35C
  8
DATA
 62
     7
 10
49.362920265455998
 20
-215.55230967039731
 30
0.0
 40
1.6288411458333321
  1
THRESHOLD
 41
0.7
 11
49.362920265455998
 21
-213.92346852456399
 31
0.0
 73
     3
  0
CIRCLE
  5
35D
  8
DATA
  6
CONTINUOUS
 62
     7
 10
53.902071176759911
 20
-202.50752508766161
 30
0.0
 40
4.75
  0
CIRCLE
  5
35E
  8
DATA
  6
CONTINUOUS
 62
     7
 10
53.902071176759911
 20
-202.50752508766161
 30
0.0
 40
6.6499999999999764
  0
CIRCLE
  5
35F
  8
DATA
  6
CONTINUOUS
 62
     7
 10
53.902071176759911
 20
-202.50752508766161
 30
0.0
 40
6.25
  0
POLYLINE
  5
360
  8
DATA
  6
CONTINUOUS
 62
     7
 66
     1
 10
0.0
 20
0.0
 30
0.0
 70
   129
  0
VERTEX
  5
A8E
  8
DATA
  6
CONTINUOUS
 62
     7
 10
54.116140821729452
 20
-195.2911909803629
 30
0.0
  0
VERTEX
  5
A8F
  8
DATA
  6
CONTINUOUS
 62
     7
 10
54.116140821729452
 20
-195.2911909803629
 30
0.0
 42
-0.4142135623730445
  0
VERTEX
  5
A90
  8
DATA
  6
CONTINUOUS
 62
     7
 10
54.816140821729391
 20
-195.991190980363
 30
0.0
  0
VERTEX
  5
A91
  8
DATA
  6
CONTINUOUS
 62
     7
 10
54.816140821729441
 20
-201.75119098036311
 30
0.0
  0
VERTEX
  5
A92
  8
DATA
  6
CONTINUOUS
 62
     7
 10
54.816140821729441
 20
-201.75119098036311
 30
0.0
 42
-0.4142135623730713
  0
VERTEX
  5
A93
  8
DATA
  6
CONTINUOUS
 62
     7
 10
54.116140821729452
 20
-202.45119098036309
 30
0.0
  0
VERTEX
  5
A94
  8
DATA
  6
CONTINUOUS
 62
     7
 10
53.916140821729492
 20
-202.45119098036309
 30
0.0
  0
VERTEX
  5
A95
  8
DATA
  6
CONTINUOUS
 62
     7
 10
53.916140821729471
 20
-202.45119098036309
 30
0.0
 42
-0.4142135623730774
  0
VERTEX
  5
A96
  8
DATA
  6
CONTINUOUS
 62
     7
 10
53.216140821729461
 20
-201.75119098036299
 30
0.0
  0
VERTEX
  5
A97
  8
DATA
  6
CONTINUOUS
 62
     7
 10
53.216140821729567
 20
-195.991190980363
 30
0.0
  0
VERTEX
  5
A98
  8
DATA
  6
CONTINUOUS
 62
     7
 10
53.216140821729567
 20
-195.991190980363
 30
0.0
 42
-0.4142135623730475
  0
VERTEX
  5
A99
  8
DATA
  6
CONTINUOUS
 62
     7
 10
53.91614082172962
 20
-195.29119098036301
 30
0.0
  0
SEQEND
  5
A9A
  8
DATA
  6
CONTINUOUS
 62
     7
  0
LINE
  5
36E
  8
DATA
  6
CONTINUOUS
 62
     7
 10
49.219924233313463
 20
-201.70752508766159
 30
0.0
 11
47.703482627743291
 21
-201.70752508766159
 31
0.0
  0
LINE
  5
36F
  8
DATA
  6
CONTINUOUS
 62
     7
 10
49.219924233313463
 20
-203.30752508766159
 30
0.0
 11
47.703482627743291
 21
-203.30752508766159
 31
0.0
  0
LINE
  5
370
  8
DATA
  6
CONTINUOUS
 62
     7
 10
58.584218120206387
 20
-201.70752508766159
 30
0.0
 11
60.100659725776531
 21
-201.70752508766159
 31
0.0
  0
LINE
  5
371
  8
DATA
  6
CONTINUOUS
 62
     7
 10
58.584218120206387
 20
-203.30752508766159
 30
0.0
 11
60.100659725776531
 21
-203.30752508766159
 31
0.0
  0
LINE
  5
372
  8
DATA
  6
CONTINUOUS
 62
     7
 10
50.025607897591136
 20
-199.76243265839119
 30
0.0
 11
48.953321755015793
 21
-198.69014651581591
 31
0.0
  0
LINE
  5
373
  8
DATA
  6
CONTINUOUS
 62
     7
 10
51.156978747485176
 20
-198.6310618084884
 30
0.0
 11
50.084692604914238
 21
-197.55877566591741
 31
0.0
  0
LINE
  5
374
  8
DATA
  6
CONTINUOUS
 62
     7
 10
56.647163606030283
 20
-198.6310618084928
 30
0.0
 11
57.719449748605641
 21
-197.55877566591741
 31
0.0
  0
LINE
  5
375
  8
DATA
  6
CONTINUOUS
 62
     7
 10
58.850820598504107
 20
-198.690146515816
 30
0.0
 11
57.778534455933141
 21
-199.76243265838701
 31
0.0
  0
LINE
  5
376
  8
DATA
  6
CONTINUOUS
 62
     7
 10
58.850820598504107
 20
-206.3249036595073
 30
0.0
 11
57.778534455933141
 21
-205.2526175169364
 31
0.0
  0
LINE
  5
377
  8
DATA
  6
CONTINUOUS
 62
     7
 10
57.719449748605577
 20
-207.4562745094056
 30
0.0
 11
56.647163606030283
 21
-206.38398836683049
 31
0.0
  0
ARC
  5
378
  8
DATA
  6
CONTINUOUS
 62
     7
 10
53.826051441710653
 20
-202.42936123018359
 30
0.0
 40
7.6000000000000378
 50
300.65928338484542
 51
240.88271410567211
  0
LINE
  5
379
  8
DATA
  6
CONTINUOUS
 62
     7
 10
46.226453398959407
 20
-202.50752508766161
 30
0.0
 11
45.252071176761788
 21
-202.50752508766161
 31
0.0
  0
LINE
  5
37A
  8
DATA
  6
CONTINUOUS
 62
     7
 10
62.552071176759902
 20
-202.50752508766161
 30
0.0
 11
61.42564948446185
 21
-202.50752508766161
 31
0.0
  0
LINE
  5
37B
  8
DATA
  6
CONTINUOUS
 62
     7
 10
50.127899257019209
 20
-209.0689147105638
 30
0.0
 11
49.602049170068412
 21
-210.01301046449879
 31
0.0
  0
LINE
  5
37C
  8
DATA
  6
CONTINUOUS
 62
     7
 10
48.553552228598129
 20
-207.9030028011785
 30
0.0
 11
47.823123997620762
 21
-208.66129638608089
 31
0.0
  0
LINE
  5
37D
  8
DATA
  6
CONTINUOUS
 62
     7
 10
47.300433970611927
 20
-206.32504045477799
 30
0.0
 11
46.413576154135718
 21
-206.8370680538535
 31
0.0
  0
LINE
  5
37E
  8
DATA
  6
CONTINUOUS
 62
     7
 10
46.551949819391133
 20
-204.6310527590218
 30
0.0
 11
45.595461128053657
 21
-204.9205583445206
 31
0.0
  0
LINE
  5
37F
  8
DATA
  6
CONTINUOUS
 62
     7
 10
46.226453398959407
 20
-202.50752508766161
 30
0.0
 11
45.252071176761788
 21
-202.50752508766161
 31
0.0
  0
LINE
  5
380
  8
DATA
  6
CONTINUOUS
 62
     7
 10
46.484479042503203
 20
-200.4643384040543
 30
0.0
 11
44.784479042503207
 21
-200.21042139814199
 31
0.0
  0
LINE
  5
381
  8
DATA
  6
CONTINUOUS
 62
     7
 10
47.222268008159958
 20
-198.66770675870859
 30
0.0
 11
46.405296067816629
 21
-198.19233529277281
 31
0.0
  0
LINE
  5
382
  8
DATA
  6
CONTINUOUS
 62
     7
 10
48.367075142375413
 20
-197.1416795299269
 30
0.0
 11
47.701607039097823
 21
-196.4762114266494
 31
0.0
  0
LINE
  5
383
  8
DATA
  6
CONTINUOUS
 62
     7
 10
49.988610010342811
 20
-195.86932744515701
 30
0.0
 11
49.516541054286783
 21
-195.05168002859199
 31
0.0
  0
LINE
  5
384
  8
DATA
  6
CONTINUOUS
 62
     7
 10
52.030702523664402
 20
-195.04446297339641
 30
0.0
 11
51.804887122789737
 21
-194.11560522128309
 31
0.0
  0
LINE
  5
385
  8
DATA
  6
CONTINUOUS
 62
     7
 10
56.039669889967271
 20
-195.1588802718434
 30
0.0
 11
56.330015074968728
 21
-194.20526103336911
 31
0.0
  0
LINE
  5
386
  8
DATA
  6
CONTINUOUS
 62
     7
 10
57.749381903180151
 20
-195.9203307271008
 30
0.0
 11
58.276789577471419
 21
-195.0453311130648
 31
0.0
  0
LINE
  5
387
  8
DATA
  6
CONTINUOUS
 62
     7
 10
59.227481422491778
 20
-197.08290874628011
 30
0.0
 11
59.952139804804041
 21
-196.3383608931403
 31
0.0
  0
LINE
  5
388
  8
DATA
  6
CONTINUOUS
 62
     7
 10
60.509589802943012
 20
-198.8113071988075
 30
0.0
 11
61.447542470257922
 21
-198.27806141492849
 31
0.0
  0
LINE
  5
389
  8
DATA
  6
CONTINUOUS
 62
     7
 10
61.170994372509142
 20
-200.476974653881
 30
0.0
 11
62.870994372509116
 21
-200.1840701371631
 31
0.0
  0
LINE
  5
38A
  8
DATA
  6
CONTINUOUS
 62
     7
 10
62.180103060544731
 20
-204.780422200716
 30
0.0
 11
61.139801783502641
 21
-204.4955306177045
 31
0.0
  0
LINE
  5
38B
  8
DATA
  6
CONTINUOUS
 62
     7
 10
60.378857703702167
 20
-206.2791313652427
 30
0.0
 11
61.37478997040396
 21
-206.86424103331399
 31
0.0
  0
LINE
  5
38C
  8
DATA
  6
CONTINUOUS
 62
     7
 10
60.10253531442229
 20
-208.53883874867401
 30
0.0
 11
59.282917366621561
 21
-207.7192208008733
 31
0.0
  0
LINE
  5
38D
  8
DATA
  6
CONTINUOUS
 62
     7
 10
58.287601299229763
 20
-209.96337014672571
 30
0.0
 11
57.701532699877461
 21
-208.96699421297811
 31
0.0
  0
LINE
  5
38E
  8
DATA
  6
CONTINUOUS
 62
     7
 10
54.045676653070181
 20
-194.8325352636011
 30
0.0
 11
54.045676653070181
 21
-193.3325352636011
 31
0.0
  0
TEXT
  5
38F
  8
DATA
 62
     7
 10
47.35613477412754
 20
-212.22295564807359
 30
0.0
 40
1.4293081054687491
  1
OFF
 41
0.7
 11
47.35613477412754
 21
-210.7936475426049
 31
0.0
 73
     3
  0
LINE
  5
390
  8
DATA
  6
CONTINUOUS
 62
     7
 10
50.119592010141709
 20
-205.37009427189591
 30
0.0
 11
49.082024961534991
 21
-206.4760100746422
 31
0.0
  0
LINE
  5
391
  8
DATA
  6
CONTINUOUS
 62
     7
 10
50.24887852047793
 20
-207.5707487521274
 30
0.0
 11
51.286445569080392
 21
-206.46483294938579
 31
0.0
  0
LINE
  5
392
  8
DATA
  6
CONTINUOUS
 62
     7
 10
53.216140821729461
 20
-207.20773780072571
 30
0.0
 11
53.216140821729461
 21
-208.71977102194739
 31
0.0
  0
LINE
  5
393
  8
DATA
  6
CONTINUOUS
 62
     7
 10
54.816140821729391
 20
-207.1687456020922
 30
0.0
 11
54.816140821729391
 21
-208.69032192114639
 31
0.0
  0
TEXT
  5
394
  8
DATA
 62
     7
 10
53.577978685045608
 20
-193.10248707689439
 30
0.0
 40
1.4293081054687491
  1
5
 41
0.7
 11
53.577978685045608
 21
-191.6731789714257
 31
0.0
 73
     3
  0
TEXT
  5
395
  8
DATA
 62
     7
 10
48.387947819968211
 20
-194.36952346028849
 30
0.0
 40
1.4293081054687491
  1
4
 41
0.7
 11
48.387947819968211
 21
-192.9402153548198
 31
0.0
 73
     3
  0
TEXT
  5
396
  8
DATA
 62
     7
 10
44.777279000861469
 20
-198.4418378431516
 30
0.0
 40
1.4293081054687491
  1
3
 41
0.7
 11
44.777279000861469
 21
-197.01252973768291
 31
0.0
 73
     3
  0
TEXT
  5
397
  8
DATA
 62
     7
 10
44.881827079557127
 20
-207.79736914092169
 30
0.0
 40
1.4293081054687491
  1
1
 41
0.7
 11
44.881827079557127
 21
-206.368061035453
 31
0.0
 73
     3
  0
TEXT
  5
398
  8
DATA
 62
     7
 10
43.593807488721602
 20
-203.13883846329861
 30
0.0
 40
1.4293081054687491
  1
2
 41
0.7
 11
43.593807488721602
 21
-201.70953035782981
 31
0.0
 73
     3
  0
TEXT
  5
399
  8
DATA
 62
     7
 10
58.70144285382149
 20
-194.64096606854261
 30
0.0
 40
1.4293081054687491
  1
6
 41
0.7
 11
58.70144285382149
 21
-193.21165796307389
 31
0.0
 73
     3
  0
TEXT
  5
39A
  8
DATA
 62
     7
 10
62.100000000000001
 20
-198.518655
 30
0.0
 40
1.4293081054687491
  1
7
 41
0.7
 11
62.100000000000001
 21
-197.0893468945313
 31
0.0
 73
     3
  0
TEXT
  5
39B
  8
DATA
 62
     7
 10
63.385656261775218
 20
-203.1973425000001
 30
0.0
 40
1.4293081054687491
  1
8
 41
0.7
 11
63.385656261775218
 21
-201.7680343945313
 31
0.0
 73
     3
  0
TEXT
  5
39C
  8
DATA
 62
     7
 10
58.373289558740723
 20
-211.91865499999989
 30
0.0
 40
1.4293081054687491
  1
10
 41
0.7
 11
58.373289558740723
 21
-210.4893468945312
 31
0.0
 73
     3
  0
TEXT
  5
39D
  8
DATA
 62
     7
 10
62.216007654936583
 20
-207.918655
 30
0.0
 40
1.4293081054687491
  1
9
 41
0.7
 11
62.216007654936583
 21
-206.48934689453131
 31
0.0
 73
     3
  0
TEXT
  5
39E
  8
DATA
 62
     7
 10
-70.82407278964628
 20
-213.129625398201
 30
0.0
 40
1.6288411458333321
  1
Hz
 41
0.7
 11
-70.82407278964628
 21
-211.50078425236771
 31
0.0
 73
     3
  0
TEXT
  5
39F
  8
DATA
 62
     7
 10
-76.643865225872446
 20
-212.22295564807359
 30
0.0
 40
1.4293081054687491
  1
OFF
 41
0.7
 11
-76.643865225872446
 21
-210.7936475426049
 31
0.0
 73
     3
  0
TEXT
  5
3A0
  8
DATA
 62
     7
 10
-79.118172920442859
 20
-207.79736914092169
 30
0.0
 40
1.4293081054687491
  1
1
 41
0.7
 11
-79.118172920442859
 21
-206.368061035453
 31
0.0
 73
     3
  0
TEXT
  5
3A1
  8
DATA
 62
     7
 10
28.17592721035372
 20
-213.129625398201
 30
0.0
 40
1.6288411458333321
  1
Hz
 41
0.7
 11
28.17592721035372
 21
-211.50078425236771
 31
0.0
 73
     3
  0
LINE
  5
3A2
  8
DATA
  6
CONTINUOUS
 62
     7
 10
75.312813696182133
 20
-214.0000000000249
 30
0.0
 11
75.312813696182133
 21
-207.5000000000249
 31
0.0
  0
ARC
  5
3A3
  8
DATA
  6
CONTINUOUS
 62
     7
 10
74.312813696182133
 20
-207.5000000000249
 30
0.0
 40
1.0
 50
0.0
 51
90.0
  0
ARC
  5
3A4
  8
DATA
  6
CONTINUOUS
 62
     7
 10
74.312813696182133
 20
-214.0000000000249
 30
0.0
 40
1.0
 50
270.0
 51
0.0
  0
CIRCLE
  5
3A5
  8
DATA
  6
CONTINUOUS
 62
     7
 10
67.967712311011184
 20
-211.641278378132
 30
0.0
 40
1.449999999999988
  0
CIRCLE
  5
3A6
  8
DATA
  6
CONTINUOUS
 62
     7
 10
72.967712311011255
 20
-211.641278378132
 30
0.0
 40
1.449999999999988
  0
TEXT
  5
3A7
  8
DATA
 62
     7
 10
67.556666112438521
 20
-209.4497347057835
 30
0.0
 40
1.1401888020833331
  1
1
 41
0.7
 11
67.556666112438521
 21
-208.30954590370021
 31
0.0
 73
     3
  0
TEXT
  5
3A8
  8
DATA
 62
     7
 10
72.381790809371822
 20
-209.4497347057835
 30
0.0
 40
1.1401888020833331
  1
6
 41
0.7
 11
72.381790809371822
 21
-208.30954590370021
 31
0.0
 73
     3
  0
LINE
  5
3A9
  8
DATA
  6
CONTINUOUS
 62
     7
 10
65.568390268746953
 20
-214.0000000000249
 30
0.0
 11
65.568390268746953
 21
-207.5000000000249
 31
0.0
  0
ARC
  5
3AA
  8
DATA
  6
CONTINUOUS
 62
     7
 10
66.568390268746953
 20
-207.5000000000249
 30
0.0
 40
1.0
 50
90.0
 51
180.0
  0
ARC
  5
3AB
  8
DATA
  6
CONTINUOUS
 62
     7
 10
66.568390268746953
 20
-214.0000000000249
 30
0.0
 40
1.0
 50
180.0
 51
270.0
  0
LINE
  5
3AC
  8
DATA
  6
CONTINUOUS
 62
     7
 10
66.568390268746953
 20
-215.0000000000249
 30
0.0
 11
74.312813696182133
 21
-215.0000000000249
 31
0.0
  0
LINE
  5
3AD
  8
DATA
  6
CONTINUOUS
 62
     7
 10
74.312813696182133
 20
-206.5000000000249
 30
0.0
 11
66.568390268746953
 21
-206.5000000000249
 31
0.0
  0
TEXT
  5
3AE
  8
DATA
 62
     7
 10
83.862920265455998
 20
-215.55230967039731
 30
0.0
 40
1.6288411458333321
  1
LF DETAIL
 41
0.7
 11
83.862920265455998
 21
-213.92346852456399
 31
0.0
 73
     3
  0
CIRCLE
  5
3AF
  8
DATA
  6
CONTINUOUS
 62
     7
 10
88.402071176759904
 20
-202.50752508766161
 30
0.0
 40
4.75
  0
CIRCLE
  5
3B0
  8
DATA
  6
CONTINUOUS
 62
     7
 10
88.402071176759904
 20
-202.50752508766161
 30
0.0
 40
6.6499999999999764
  0
CIRCLE
  5
3B1
  8
DATA
  6
CONTINUOUS
 62
     7
 10
88.402071176759904
 20
-202.50752508766161
 30
0.0
 40
6.25
  0
POLYLINE
  5
3B2
  8
DATA
  6
CONTINUOUS
 62
     7
 66
     1
 10
0.0
 20
0.0
 30
0.0
 70
   129
  0
VERTEX
  5
A9B
  8
DATA
  6
CONTINUOUS
 62
     7
 10
88.616140821729431
 20
-195.2911909803629
 30
0.0
  0
VERTEX
  5
A9C
  8
DATA
  6
CONTINUOUS
 62
     7
 10
88.616140821729431
 20
-195.2911909803629
 30
0.0
 42
-0.4142135623730586
  0
VERTEX
  5
A9D
  8
DATA
  6
CONTINUOUS
 62
     7
 10
89.316140821729377
 20
-195.991190980363
 30
0.0
  0
VERTEX
  5
A9E
  8
DATA
  6
CONTINUOUS
 62
     7
 10
89.316140821729434
 20
-201.75119098036311
 30
0.0
  0
VERTEX
  5
A9F
  8
DATA
  6
CONTINUOUS
 62
     7
 10
89.316140821729434
 20
-201.75119098036311
 30
0.0
 42
-0.4142135623730713
  0
VERTEX
  5
AA0
  8
DATA
  6
CONTINUOUS
 62
     7
 10
88.616140821729431
 20
-202.45119098036309
 30
0.0
  0
VERTEX
  5
AA1
  8
DATA
  6
CONTINUOUS
 62
     7
 10
88.416140821729499
 20
-202.45119098036309
 30
0.0
  0
VERTEX
  5
AA2
  8
DATA
  6
CONTINUOUS
 62
     7
 10
88.416140821729471
 20
-202.45119098036309
 30
0.0
 42
-0.414213562373076
  0
VERTEX
  5
AA3
  8
DATA
  6
CONTINUOUS
 62
     7
 10
87.716140821729468
 20
-201.75119098036299
 30
0.0
  0
VERTEX
  5
AA4
  8
DATA
  6
CONTINUOUS
 62
     7
 10
87.716140821729567
 20
-195.991190980363
 30
0.0
  0
VERTEX
  5
AA5
  8
DATA
  6
CONTINUOUS
 62
     7
 10
87.716140821729567
 20
-195.991190980363
 30
0.0
 42
-0.4142135623730475
  0
VERTEX
  5
AA6
  8
DATA
  6
CONTINUOUS
 62
     7
 10
88.416140821729627
 20
-195.29119098036301
 30
0.0
  0
SEQEND
  5
AA7
  8
DATA
  6
CONTINUOUS
 62
     7
  0
LINE
  5
3C0
  8
DATA
  6
CONTINUOUS
 62
     7
 10
83.719924233313449
 20
-201.70752508766159
 30
0.0
 11
82.203482627743284
 21
-201.70752508766159
 31
0.0
  0
LINE
  5
3C1
  8
DATA
  6
CONTINUOUS
 62
     7
 10
83.719924233313449
 20
-203.30752508766159
 30
0.0
 11
82.203482627743284
 21
-203.30752508766159
 31
0.0
  0
LINE
  5
3C2
  8
DATA
  6
CONTINUOUS
 62
     7
 10
93.084218120206387
 20
-201.70752508766159
 30
0.0
 11
94.600659725776524
 21
-201.70752508766159
 31
0.0
  0
LINE
  5
3C3
  8
DATA
  6
CONTINUOUS
 62
     7
 10
93.084218120206387
 20
-203.30752508766159
 30
0.0
 11
94.600659725776524
 21
-203.30752508766159
 31
0.0
  0
LINE
  5
3C4
  8
DATA
  6
CONTINUOUS
 62
     7
 10
84.525607897591144
 20
-199.76243265839119
 30
0.0
 11
83.453321755015807
 21
-198.69014651581591
 31
0.0
  0
LINE
  5
3C5
  8
DATA
  6
CONTINUOUS
 62
     7
 10
85.656978747485184
 20
-198.6310618084884
 30
0.0
 11
84.584692604914267
 21
-197.55877566591741
 31
0.0
  0
LINE
  5
3C6
  8
DATA
  6
CONTINUOUS
 62
     7
 10
91.147163606030276
 20
-198.6310618084928
 30
0.0
 11
92.219449748605626
 21
-197.55877566591741
 31
0.0
  0
LINE
  5
3C7
  8
DATA
  6
CONTINUOUS
 62
     7
 10
93.350820598504114
 20
-198.690146515816
 30
0.0
 11
92.278534455933126
 21
-199.76243265838701
 31
0.0
  0
LINE
  5
3C8
  8
DATA
  6
CONTINUOUS
 62
     7
 10
93.350820598504114
 20
-206.3249036595073
 30
0.0
 11
92.278534455933126
 21
-205.2526175169364
 31
0.0
  0
LINE
  5
3C9
  8
DATA
  6
CONTINUOUS
 62
     7
 10
92.219449748605555
 20
-207.4562745094056
 30
0.0
 11
91.147163606030276
 21
-206.38398836683049
 31
0.0
  0
ARC
  5
3CA
  8
DATA
  6
CONTINUOUS
 62
     7
 10
88.326051441710646
 20
-202.42936123018359
 30
0.0
 40
7.6000000000000378
 50
300.65928338484542
 51
240.88271410567211
  0
LINE
  5
3CB
  8
DATA
  6
CONTINUOUS
 62
     7
 10
80.726453398959421
 20
-202.50752508766161
 30
0.0
 11
79.752071176761802
 21
-202.50752508766161
 31
0.0
  0
LINE
  5
3CC
  8
DATA
  6
CONTINUOUS
 62
     7
 10
97.052071176759839
 20
-202.50752508766161
 30
0.0
 11
95.925649484461843
 21
-202.50752508766161
 31
0.0
  0
LINE
  5
3CD
  8
DATA
  6
CONTINUOUS
 62
     7
 10
84.627899257019209
 20
-209.0689147105638
 30
0.0
 11
84.102049170068426
 21
-210.01301046449879
 31
0.0
  0
LINE
  5
3CE
  8
DATA
  6
CONTINUOUS
 62
     7
 10
83.053552228598107
 20
-207.9030028011785
 30
0.0
 11
82.323123997620755
 21
-208.66129638608089
 31
0.0
  0
LINE
  5
3CF
  8
DATA
  6
CONTINUOUS
 62
     7
 10
81.800433970611934
 20
-206.32504045477799
 30
0.0
 11
80.913576154135697
 21
-206.8370680538535
 31
0.0
  0
LINE
  5
3D0
  8
DATA
  6
CONTINUOUS
 62
     7
 10
81.05194981939114
 20
-204.6310527590218
 30
0.0
 11
80.095461128053657
 21
-204.9205583445206
 31
0.0
  0
LINE
  5
3D1
  8
DATA
  6
CONTINUOUS
 62
     7
 10
80.726453398959421
 20
-202.50752508766161
 30
0.0
 11
79.752071176761802
 21
-202.50752508766161
 31
0.0
  0
LINE
  5
3D2
  8
DATA
  6
CONTINUOUS
 62
     7
 10
80.984479042503196
 20
-200.4643384040543
 30
0.0
 11
79.284479042503207
 21
-200.21042139814199
 31
0.0
  0
LINE
  5
3D3
  8
DATA
  6
CONTINUOUS
 62
     7
 10
81.722268008159958
 20
-198.66770675870859
 30
0.0
 11
80.905296067816664
 21
-198.19233529277281
 31
0.0
  0
LINE
  5
3D4
  8
DATA
  6
CONTINUOUS
 62
     7
 10
82.86707514237537
 20
-197.1416795299269
 30
0.0
 11
82.201607039097809
 21
-196.4762114266494
 31
0.0
  0
LINE
  5
3D5
  8
DATA
  6
CONTINUOUS
 62
     7
 10
84.488610010342811
 20
-195.86932744515701
 30
0.0
 11
84.016541054286733
 21
-195.05168002859199
 31
0.0
  0
LINE
  5
3D6
  8
DATA
  6
CONTINUOUS
 62
     7
 10
86.530702523664431
 20
-195.04446297339641
 30
0.0
 11
86.304887122789737
 21
-194.11560522128309
 31
0.0
  0
LINE
  5
3D7
  8
DATA
  6
CONTINUOUS
 62
     7
 10
90.539669889967286
 20
-195.1588802718434
 30
0.0
 11
90.830015074968742
 21
-194.20526103336911
 31
0.0
  0
LINE
  5
3D8
  8
DATA
  6
CONTINUOUS
 62
     7
 10
92.249381903180165
 20
-195.9203307271008
 30
0.0
 11
92.776789577471448
 21
-195.0453311130648
 31
0.0
  0
LINE
  5
3D9
  8
DATA
  6
CONTINUOUS
 62
     7
 10
93.727481422491763
 20
-197.08290874628011
 30
0.0
 11
94.452139804804034
 21
-196.3383608931403
 31
0.0
  0
LINE
  5
3DA
  8
DATA
  6
CONTINUOUS
 62
     7
 10
95.009589802942969
 20
-198.8113071988075
 30
0.0
 11
95.947542470257929
 21
-198.27806141492849
 31
0.0
  0
LINE
  5
3DB
  8
DATA
  6
CONTINUOUS
 62
     7
 10
95.670994372509114
 20
-200.476974653881
 30
0.0
 11
97.370994372509116
 21
-200.1840701371631
 31
0.0
  0
LINE
  5
3DC
  8
DATA
  6
CONTINUOUS
 62
     7
 10
96.680103060544738
 20
-204.780422200716
 30
0.0
 11
95.639801783502648
 21
-204.4955306177045
 31
0.0
  0
LINE
  5
3DD
  8
DATA
  6
CONTINUOUS
 62
     7
 10
94.878857703702167
 20
-206.2791313652427
 30
0.0
 11
95.874789970403953
 21
-206.86424103331399
 31
0.0
  0
LINE
  5
3DE
  8
DATA
  6
CONTINUOUS
 62
     7
 10
94.602535314422283
 20
-208.53883874867401
 30
0.0
 11
93.782917366621575
 21
-207.7192208008733
 31
0.0
  0
LINE
  5
3DF
  8
DATA
  6
CONTINUOUS
 62
     7
 10
92.787601299229763
 20
-209.96337014672571
 30
0.0
 11
92.201532699877433
 21
-208.96699421297811
 31
0.0
  0
LINE
  5
3E0
  8
DATA
  6
CONTINUOUS
 62
     7
 10
88.545676653070188
 20
-194.8325352636011
 30
0.0
 11
88.545676653070188
 21
-193.3325352636011
 31
0.0
  0
TEXT
  5
3E1
  8
DATA
 62
     7
 10
81.856134774127554
 20
-212.22295564807359
 30
0.0
 40
1.4293081054687491
  1
OFF
 41
0.7
 11
81.856134774127554
 21
-210.7936475426049
 31
0.0
 73
     3
  0
LINE
  5
3E2
  8
DATA
  6
CONTINUOUS
 62
     7
 10
84.619592010141702
 20
-205.37009427189591
 30
0.0
 11
83.582024961534998
 21
-206.4760100746422
 31
0.0
  0
LINE
  5
3E3
  8
DATA
  6
CONTINUOUS
 62
     7
 10
84.74887852047793
 20
-207.5707487521274
 30
0.0
 11
85.786445569080342
 21
-206.46483294938579
 31
0.0
  0
LINE
  5
3E4
  8
DATA
  6
CONTINUOUS
 62
     7
 10
87.716140821729468
 20
-207.20773780072571
 30
0.0
 11
87.716140821729468
 21
-208.71977102194739
 31
0.0
  0
LINE
  5
3E5
  8
DATA
  6
CONTINUOUS
 62
     7
 10
89.316140821729377
 20
-207.1687456020922
 30
0.0
 11
89.316140821729377
 21
-208.69032192114639
 31
0.0
  0
TEXT
  5
3E6
  8
DATA
 62
     7
 10
88.077978685045565
 20
-193.10248707689439
 30
0.0
 40
1.4293081054687491
  1
5
 41
0.7
 11
88.077978685045565
 21
-191.6731789714257
 31
0.0
 73
     3
  0
TEXT
  5
3E7
  8
DATA
 62
     7
 10
82.887947819968218
 20
-194.36952346028849
 30
0.0
 40
1.4293081054687491
  1
4
 41
0.7
 11
82.887947819968218
 21
-192.9402153548198
 31
0.0
 73
     3
  0
TEXT
  5
3E8
  8
DATA
 62
     7
 10
79.277279000861455
 20
-198.4418378431516
 30
0.0
 40
1.4293081054687491
  1
3
 41
0.7
 11
79.277279000861455
 21
-197.01252973768291
 31
0.0
 73
     3
  0
TEXT
  5
3E9
  8
DATA
 62
     7
 10
79.381827079557141
 20
-207.79736914092169
 30
0.0
 40
1.4293081054687491
  1
1
 41
0.7
 11
79.381827079557141
 21
-206.368061035453
 31
0.0
 73
     3
  0
TEXT
  5
3EA
  8
DATA
 62
     7
 10
78.093807488721581
 20
-203.13883846329861
 30
0.0
 40
1.4293081054687491
  1
2
 41
0.7
 11
78.093807488721581
 21
-201.70953035782981
 31
0.0
 73
     3
  0
TEXT
  5
3EB
  8
DATA
 62
     7
 10
93.20144285382149
 20
-194.64096606854261
 30
0.0
 40
1.4293081054687491
  1
6
 41
0.7
 11
93.20144285382149
 21
-193.21165796307389
 31
0.0
 73
     3
  0
TEXT
  5
3EC
  8
DATA
 62
     7
 10
96.600000000000037
 20
-198.518655
 30
0.0
 40
1.4293081054687491
  1
7
 41
0.7
 11
96.600000000000037
 21
-197.0893468945313
 31
0.0
 73
     3
  0
TEXT
  5
3ED
  8
DATA
 62
     7
 10
97.885656261775225
 20
-203.1973425000001
 30
0.0
 40
1.4293081054687491
  1
8
 41
0.7
 11
97.885656261775225
 21
-201.7680343945313
 31
0.0
 73
     3
  0
TEXT
  5
3EE
  8
DATA
 62
     7
 10
92.873289558740709
 20
-211.91865499999989
 30
0.0
 40
1.4293081054687491
  1
10
 41
0.7
 11
92.873289558740709
 21
-210.4893468945312
 31
0.0
 73
     3
  0
TEXT
  5
3EF
  8
DATA
 62
     7
 10
96.716007654936575
 20
-207.918655
 30
0.0
 40
1.4293081054687491
  1
9
 41
0.7
 11
96.716007654936575
 21
-206.48934689453131
 31
0.0
 73
     3
  0
TEXT
  5
3F0
  8
DATA
 62
     7
 10
40.994387282287242
 20
-222.24088309238579
 30
0.0
 40
2.1174934895833322
  1
DE-ESSER
 41
0.7
 11
40.994387282287242
 21
-220.12338960280249
 31
0.0
 73
     3
  0
TEXT
  5
3F1
  8
DATA
 62
     7
 10
111.02292026545599
 20
-215.55230967039731
 30
0.0
 40
1.6288411458333321
  1
HF DETAIL
 41
0.7
 11
111.02292026545599
 21
-213.92346852456399
 31
0.0
 73
     3
  0
CIRCLE
  5
3F2
  8
DATA
  6
CONTINUOUS
 62
     7
 10
115.5620711767599
 20
-202.50752508766161
 30
0.0
 40
4.75
  0
CIRCLE
  5
3F3
  8
DATA
  6
CONTINUOUS
 62
     7
 10
115.5620711767599
 20
-202.50752508766161
 30
0.0
 40
6.6499999999999764
  0
CIRCLE
  5
3F4
  8
DATA
  6
CONTINUOUS
 62
     7
 10
115.5620711767599
 20
-202.50752508766161
 30
0.0
 40
6.25
  0
POLYLINE
  5
3F5
  8
DATA
  6
CONTINUOUS
 62
     7
 66
     1
 10
0.0
 20
0.0
 30
0.0
 70
   129
  0
VERTEX
  5
AA8
  8
DATA
  6
CONTINUOUS
 62
     7
 10
115.7761408217294
 20
-195.2911909803629
 30
0.0
  0
VERTEX
  5
AA9
  8
DATA
  6
CONTINUOUS
 62
     7
 10
115.7761408217294
 20
-195.2911909803629
 30
0.0
 42
-0.4142135623730363
  0
VERTEX
  5
AAA
  8
DATA
  6
CONTINUOUS
 62
     7
 10
116.4761408217293
 20
-195.991190980363
 30
0.0
  0
VERTEX
  5
AAB
  8
DATA
  6
CONTINUOUS
 62
     7
 10
116.4761408217294
 20
-201.75119098036311
 30
0.0
  0
VERTEX
  5
AAC
  8
DATA
  6
CONTINUOUS
 62
     7
 10
116.4761408217294
 20
-201.75119098036311
 30
0.0
 42
-0.4142135623730713
  0
VERTEX
  5
AAD
  8
DATA
  6
CONTINUOUS
 62
     7
 10
115.7761408217294
 20
-202.45119098036309
 30
0.0
  0
VERTEX
  5
AAE
  8
DATA
  6
CONTINUOUS
 62
     7
 10
115.5761408217295
 20
-202.45119098036309
 30
0.0
  0
VERTEX
  5
AAF
  8
DATA
  6
CONTINUOUS
 62
     7
 10
115.5761408217295
 20
-202.45119098036309
 30
0.0
 42
-0.4142135623730891
  0
VERTEX
  5
AB0
  8
DATA
  6
CONTINUOUS
 62
     7
 10
114.87614082172939
 20
-201.75119098036299
 30
0.0
  0
VERTEX
  5
AB1
  8
DATA
  6
CONTINUOUS
 62
     7
 10
114.87614082172961
 20
-195.991190980363
 30
0.0
  0
VERTEX
  5
AB2
  8
DATA
  6
CONTINUOUS
 62
     7
 10
114.87614082172961
 20
-195.991190980363
 30
0.0
 42
-0.4142135623730475
  0
VERTEX
  5
AB3
  8
DATA
  6
CONTINUOUS
 62
     7
 10
115.5761408217296
 20
-195.29119098036301
 30
0.0
  0
SEQEND
  5
AB4
  8
DATA
  6
CONTINUOUS
 62
     7
  0
LINE
  5
403
  8
DATA
  6
CONTINUOUS
 62
     7
 10
110.8799242333134
 20
-201.70752508766159
 30
0.0
 11
109.36348262774329
 21
-201.70752508766159
 31
0.0
  0
LINE
  5
404
  8
DATA
  6
CONTINUOUS
 62
     7
 10
110.8799242333134
 20
-203.30752508766159
 30
0.0
 11
109.36348262774329
 21
-203.30752508766159
 31
0.0
  0
LINE
  5
405
  8
DATA
  6
CONTINUOUS
 62
     7
 10
120.2442181202064
 20
-201.70752508766159
 30
0.0
 11
121.76065972577651
 21
-201.70752508766159
 31
0.0
  0
LINE
  5
406
  8
DATA
  6
CONTINUOUS
 62
     7
 10
120.2442181202064
 20
-203.30752508766159
 30
0.0
 11
121.76065972577651
 21
-203.30752508766159
 31
0.0
  0
LINE
  5
407
  8
DATA
  6
CONTINUOUS
 62
     7
 10
111.6856078975911
 20
-199.76243265839119
 30
0.0
 11
110.6133217550157
 21
-198.69014651581591
 31
0.0
  0
LINE
  5
408
  8
DATA
  6
CONTINUOUS
 62
     7
 10
112.81697874748509
 20
-198.6310618084884
 30
0.0
 11
111.74469260491421
 21
-197.55877566591741
 31
0.0
  0
LINE
  5
409
  8
DATA
  6
CONTINUOUS
 62
     7
 10
118.3071636060303
 20
-198.6310618084928
 30
0.0
 11
119.37944974860559
 21
-197.55877566591741
 31
0.0
  0
LINE
  5
40A
  8
DATA
  6
CONTINUOUS
 62
     7
 10
120.5108205985041
 20
-198.690146515816
 30
0.0
 11
119.43853445593309
 21
-199.76243265838701
 31
0.0
  0
LINE
  5
40B
  8
DATA
  6
CONTINUOUS
 62
     7
 10
120.5108205985041
 20
-206.3249036595073
 30
0.0
 11
119.43853445593309
 21
-205.2526175169364
 31
0.0
  0
LINE
  5
40C
  8
DATA
  6
CONTINUOUS
 62
     7
 10
119.37944974860559
 20
-207.4562745094056
 30
0.0
 11
118.3071636060303
 21
-206.38398836683049
 31
0.0
  0
ARC
  5
40D
  8
DATA
  6
CONTINUOUS
 62
     7
 10
115.4860514417106
 20
-202.42936123018359
 30
0.0
 40
7.6000000000000378
 50
300.65928338484542
 51
240.88271410567211
  0
LINE
  5
40E
  8
DATA
  6
CONTINUOUS
 62
     7
 10
107.8864533989594
 20
-202.50752508766161
 30
0.0
 11
106.9120711767618
 21
-202.50752508766161
 31
0.0
  0
LINE
  5
40F
  8
DATA
  6
CONTINUOUS
 62
     7
 10
124.21207117675981
 20
-202.50752508766161
 30
0.0
 11
123.0856494844618
 21
-202.50752508766161
 31
0.0
  0
LINE
  5
410
  8
DATA
  6
CONTINUOUS
 62
     7
 10
111.78789925701921
 20
-209.0689147105638
 30
0.0
 11
111.26204917006839
 21
-210.01301046449879
 31
0.0
  0
LINE
  5
411
  8
DATA
  6
CONTINUOUS
 62
     7
 10
110.2135522285981
 20
-207.9030028011785
 30
0.0
 11
109.48312399762079
 21
-208.66129638608089
 31
0.0
  0
LINE
  5
412
  8
DATA
  6
CONTINUOUS
 62
     7
 10
108.9604339706119
 20
-206.32504045477799
 30
0.0
 11
108.07357615413569
 21
-206.8370680538535
 31
0.0
  0
LINE
  5
413
  8
DATA
  6
CONTINUOUS
 62
     7
 10
108.21194981939109
 20
-204.6310527590218
 30
0.0
 11
107.2554611280535
 21
-204.9205583445206
 31
0.0
  0
LINE
  5
414
  8
DATA
  6
CONTINUOUS
 62
     7
 10
107.8864533989594
 20
-202.50752508766161
 30
0.0
 11
106.9120711767618
 21
-202.50752508766161
 31
0.0
  0
LINE
  5
415
  8
DATA
  6
CONTINUOUS
 62
     7
 10
108.14447904250321
 20
-200.4643384040543
 30
0.0
 11
106.4444790425032
 21
-200.21042139814199
 31
0.0
  0
LINE
  5
416
  8
DATA
  6
CONTINUOUS
 62
     7
 10
108.8822680081599
 20
-198.66770675870859
 30
0.0
 11
108.0652960678166
 21
-198.19233529277281
 31
0.0
  0
LINE
  5
417
  8
DATA
  6
CONTINUOUS
 62
     7
 10
110.02707514237539
 20
-197.1416795299269
 30
0.0
 11
109.36160703909781
 21
-196.4762114266494
 31
0.0
  0
LINE
  5
418
  8
DATA
  6
CONTINUOUS
 62
     7
 10
111.64861001034279
 20
-195.86932744515701
 30
0.0
 11
111.1765410542868
 21
-195.05168002859199
 31
0.0
  0
LINE
  5
419
  8
DATA
  6
CONTINUOUS
 62
     7
 10
113.6907025236644
 20
-195.04446297339641
 30
0.0
 11
113.4648871227897
 21
-194.11560522128309
 31
0.0
  0
LINE
  5
41A
  8
DATA
  6
CONTINUOUS
 62
     7
 10
117.6996698899673
 20
-195.1588802718434
 30
0.0
 11
117.9900150749687
 21
-194.20526103336911
 31
0.0
  0
LINE
  5
41B
  8
DATA
  6
CONTINUOUS
 62
     7
 10
119.4093819031801
 20
-195.9203307271008
 30
0.0
 11
119.9367895774714
 21
-195.0453311130648
 31
0.0
  0
LINE
  5
41C
  8
DATA
  6
CONTINUOUS
 62
     7
 10
120.8874814224917
 20
-197.08290874628011
 30
0.0
 11
121.612139804804
 21
-196.3383608931403
 31
0.0
  0
LINE
  5
41D
  8
DATA
  6
CONTINUOUS
 62
     7
 10
122.16958980294299
 20
-198.8113071988075
 30
0.0
 11
123.1075424702579
 21
-198.27806141492849
 31
0.0
  0
LINE
  5
41E
  8
DATA
  6
CONTINUOUS
 62
     7
 10
122.8309943725091
 20
-200.476974653881
 30
0.0
 11
124.5309943725091
 21
-200.1840701371631
 31
0.0
  0
LINE
  5
41F
  8
DATA
  6
CONTINUOUS
 62
     7
 10
123.84010306054471
 20
-204.780422200716
 30
0.0
 11
122.7998017835026
 21
-204.4955306177045
 31
0.0
  0
LINE
  5
420
  8
DATA
  6
CONTINUOUS
 62
     7
 10
122.03885770370211
 20
-206.2791313652427
 30
0.0
 11
123.03478997040391
 21
-206.86424103331399
 31
0.0
  0
LINE
  5
421
  8
DATA
  6
CONTINUOUS
 62
     7
 10
121.76253531442229
 20
-208.53883874867401
 30
0.0
 11
120.9429173666215
 21
-207.7192208008733
 31
0.0
  0
LINE
  5
422
  8
DATA
  6
CONTINUOUS
 62
     7
 10
119.9476012992297
 20
-209.96337014672571
 30
0.0
 11
119.3615326998774
 21
-208.96699421297811
 31
0.0
  0
LINE
  5
423
  8
DATA
  6
CONTINUOUS
 62
     7
 10
115.70567665307
 20
-194.8325352636011
 30
0.0
 11
115.70567665307
 21
-193.3325352636011
 31
0.0
  0
TEXT
  5
424
  8
DATA
 62
     7
 10
109.01613477412749
 20
-212.22295564807359
 30
0.0
 40
1.4293081054687491
  1
OFF
 41
0.7
 11
109.01613477412749
 21
-210.7936475426049
 31
0.0
 73
     3
  0
LINE
  5
425
  8
DATA
  6
CONTINUOUS
 62
     7
 10
111.7795920101417
 20
-205.37009427189591
 30
0.0
 11
110.74202496153499
 21
-206.4760100746422
 31
0.0
  0
LINE
  5
426
  8
DATA
  6
CONTINUOUS
 62
     7
 10
111.9088785204779
 20
-207.5707487521274
 30
0.0
 11
112.9464455690804
 21
-206.46483294938579
 31
0.0
  0
LINE
  5
427
  8
DATA
  6
CONTINUOUS
 62
     7
 10
114.87614082172939
 20
-207.20773780072571
 30
0.0
 11
114.87614082172939
 21
-208.71977102194739
 31
0.0
  0
LINE
  5
428
  8
DATA
  6
CONTINUOUS
 62
     7
 10
116.4761408217293
 20
-207.1687456020922
 30
0.0
 11
116.4761408217293
 21
-208.69032192114639
 31
0.0
  0
TEXT
  5
429
  8
DATA
 62
     7
 10
115.2379786850456
 20
-193.10248707689439
 30
0.0
 40
1.4293081054687491
  1
5
 41
0.7
 11
115.2379786850456
 21
-191.6731789714257
 31
0.0
 73
     3
  0
TEXT
  5
42A
  8
DATA
 62
     7
 10
110.0479478199682
 20
-194.36952346028849
 30
0.0
 40
1.4293081054687491
  1
4
 41
0.7
 11
110.0479478199682
 21
-192.9402153548198
 31
0.0
 73
     3
  0
TEXT
  5
42B
  8
DATA
 62
     7
 10
106.43727900086149
 20
-198.4418378431516
 30
0.0
 40
1.4293081054687491
  1
3
 41
0.7
 11
106.43727900086149
 21
-197.01252973768291
 31
0.0
 73
     3
  0
TEXT
  5
42C
  8
DATA
 62
     7
 10
106.54182707955709
 20
-207.79736914092169
 30
0.0
 40
1.4293081054687491
  1
1
 41
0.7
 11
106.54182707955709
 21
-206.368061035453
 31
0.0
 73
     3
  0
TEXT
  5
42D
  8
DATA
 62
     7
 10
105.25380748872161
 20
-203.13883846329861
 30
0.0
 40
1.4293081054687491
  1
2
 41
0.7
 11
105.25380748872161
 21
-201.70953035782981
 31
0.0
 73
     3
  0
TEXT
  5
42E
  8
DATA
 62
     7
 10
120.3614428538215
 20
-194.64096606854261
 30
0.0
 40
1.4293081054687491
  1
6
 41
0.7
 11
120.3614428538215
 21
-193.21165796307389
 31
0.0
 73
     3
  0
TEXT
  5
42F
  8
DATA
 62
     7
 10
123.76000000000001
 20
-198.518655
 30
0.0
 40
1.4293081054687491
  1
7
 41
0.7
 11
123.76000000000001
 21
-197.0893468945313
 31
0.0
 73
     3
  0
TEXT
  5
430
  8
DATA
 62
     7
 10
125.04565626177521
 20
-203.1973425000001
 30
0.0
 40
1.4293081054687491
  1
8
 41
0.7
 11
125.04565626177521
 21
-201.7680343945313
 31
0.0
 73
     3
  0
TEXT
  5
431
  8
DATA
 62
     7
 10
120.03328955874071
 20
-211.91865499999989
 30
0.0
 40
1.4293081054687491
  1
10
 41
0.7
 11
120.03328955874071
 21
-210.4893468945312
 31
0.0
 73
     3
  0
TEXT
  5
432
  8
DATA
 62
     7
 10
123.8760076549365
 20
-207.918655
 30
0.0
 40
1.4293081054687491
  1
9
 41
0.7
 11
123.8760076549365
 21
-206.48934689453131
 31
0.0
 73
     3
  0
TEXT
  5
433
  8
DATA
 62
     7
 10
96.712405452660022
 20
-222.24088309238579
 30
0.0
 40
2.1174934895833322
  1
ENHANCER
 41
0.7
 11
96.712405452660022
 21
-220.12338960280249
 31
0.0
 73
     3
  0
TEXT
  5
434
  8
DATA
 62
     7
 10
136.52292026545601
 20
-215.55230967039731
 30
0.0
 40
1.6288411458333321
  1
THRESHOLD
 41
0.7
 11
136.52292026545601
 21
-213.92346852456399
 31
0.0
 73
     3
  0
CIRCLE
  5
435
  8
DATA
  6
CONTINUOUS
 62
     7
 10
141.0620711767599
 20
-202.50752508766161
 30
0.0
 40
4.75
  0
CIRCLE
  5
436
  8
DATA
  6
CONTINUOUS
 62
     7
 10
141.0620711767599
 20
-202.50752508766161
 30
0.0
 40
6.6499999999999764
  0
CIRCLE
  5
437
  8
DATA
  6
CONTINUOUS
 62
     7
 10
141.0620711767599
 20
-202.50752508766161
 30
0.0
 40
6.25
  0
POLYLINE
  5
438
  8
DATA
  6
CONTINUOUS
 62
     7
 66
     1
 10
0.0
 20
0.0
 30
0.0
 70
   129
  0
VERTEX
  5
AB5
  8
DATA
  6
CONTINUOUS
 62
     7
 10
141.2761408217294
 20
-195.2911909803629
 30
0.0
  0
VERTEX
  5
AB6
  8
DATA
  6
CONTINUOUS
 62
     7
 10
141.2761408217294
 20
-195.2911909803629
 30
0.0
 42
-0.4142135623730594
  0
VERTEX
  5
AB7
  8
DATA
  6
CONTINUOUS
 62
     7
 10
141.97614082172939
 20
-195.991190980363
 30
0.0
  0
VERTEX
  5
AB8
  8
DATA
  6
CONTINUOUS
 62
     7
 10
141.97614082172939
 20
-201.75119098036311
 30
0.0
  0
VERTEX
  5
AB9
  8
DATA
  6
CONTINUOUS
 62
     7
 10
141.97614082172939
 20
-201.75119098036311
 30
0.0
 42
-0.4142135623730713
  0
VERTEX
  5
ABA
  8
DATA
  6
CONTINUOUS
 62
     7
 10
141.2761408217294
 20
-202.45119098036309
 30
0.0
  0
VERTEX
  5
ABB
  8
DATA
  6
CONTINUOUS
 62
     7
 10
141.0761408217295
 20
-202.45119098036309
 30
0.0
  0
VERTEX
  5
ABC
  8
DATA
  6
CONTINUOUS
 62
     7
 10
141.0761408217295
 20
-202.45119098036309
 30
0.0
 42
-0.4142135623730891
  0
VERTEX
  5
ABD
  8
DATA
  6
CONTINUOUS
 62
     7
 10
140.37614082172939
 20
-201.75119098036299
 30
0.0
  0
VERTEX
  5
ABE
  8
DATA
  6
CONTINUOUS
 62
     7
 10
140.37614082172951
 20
-195.991190980363
 30
0.0
  0
VERTEX
  5
ABF
  8
DATA
  6
CONTINUOUS
 62
     7
 10
140.37614082172951
 20
-195.991190980363
 30
0.0
 42
-0.4142135623730475
  0
VERTEX
  5
AC0
  8
DATA
  6
CONTINUOUS
 62
     7
 10
141.07614082172961
 20
-195.29119098036301
 30
0.0
  0
SEQEND
  5
AC1
  8
DATA
  6
CONTINUOUS
 62
     7
  0
LINE
  5
446
  8
DATA
  6
CONTINUOUS
 62
     7
 10
136.3799242333134
 20
-201.70752508766159
 30
0.0
 11
134.86348262774331
 21
-201.70752508766159
 31
0.0
  0
LINE
  5
447
  8
DATA
  6
CONTINUOUS
 62
     7
 10
136.3799242333134
 20
-203.30752508766159
 30
0.0
 11
134.86348262774331
 21
-203.30752508766159
 31
0.0
  0
LINE
  5
448
  8
DATA
  6
CONTINUOUS
 62
     7
 10
145.74421812020631
 20
-201.70752508766159
 30
0.0
 11
147.26065972577641
 21
-201.70752508766159
 31
0.0
  0
LINE
  5
449
  8
DATA
  6
CONTINUOUS
 62
     7
 10
145.74421812020631
 20
-203.30752508766159
 30
0.0
 11
147.26065972577641
 21
-203.30752508766159
 31
0.0
  0
LINE
  5
44A
  8
DATA
  6
CONTINUOUS
 62
     7
 10
137.1856078975911
 20
-199.76243265839119
 30
0.0
 11
136.1133217550157
 21
-198.69014651581591
 31
0.0
  0
LINE
  5
44B
  8
DATA
  6
CONTINUOUS
 62
     7
 10
138.31697874748511
 20
-198.6310618084884
 30
0.0
 11
137.24469260491421
 21
-197.55877566591741
 31
0.0
  0
LINE
  5
44C
  8
DATA
  6
CONTINUOUS
 62
     7
 10
143.8071636060302
 20
-198.6310618084928
 30
0.0
 11
144.87944974860559
 21
-197.55877566591741
 31
0.0
  0
LINE
  5
44D
  8
DATA
  6
CONTINUOUS
 62
     7
 10
146.0108205985041
 20
-198.690146515816
 30
0.0
 11
144.93853445593311
 21
-199.76243265838701
 31
0.0
  0
LINE
  5
44E
  8
DATA
  6
CONTINUOUS
 62
     7
 10
146.0108205985041
 20
-206.3249036595073
 30
0.0
 11
144.93853445593311
 21
-205.2526175169364
 31
0.0
  0
LINE
  5
44F
  8
DATA
  6
CONTINUOUS
 62
     7
 10
144.87944974860551
 20
-207.4562745094056
 30
0.0
 11
143.8071636060302
 21
-206.38398836683049
 31
0.0
  0
ARC
  5
450
  8
DATA
  6
CONTINUOUS
 62
     7
 10
140.9860514417106
 20
-202.42936123018359
 30
0.0
 40
7.6000000000000378
 50
300.65928338484542
 51
240.88271410567211
  0
LINE
  5
451
  8
DATA
  6
CONTINUOUS
 62
     7
 10
133.38645339895939
 20
-202.50752508766161
 30
0.0
 11
132.4120711767618
 21
-202.50752508766161
 31
0.0
  0
LINE
  5
452
  8
DATA
  6
CONTINUOUS
 62
     7
 10
149.71207117675991
 20
-202.50752508766161
 30
0.0
 11
148.58564948446181
 21
-202.50752508766161
 31
0.0
  0
LINE
  5
453
  8
DATA
  6
CONTINUOUS
 62
     7
 10
137.28789925701921
 20
-209.0689147105638
 30
0.0
 11
136.76204917006839
 21
-210.01301046449879
 31
0.0
  0
LINE
  5
454
  8
DATA
  6
CONTINUOUS
 62
     7
 10
135.7135522285981
 20
-207.9030028011785
 30
0.0
 11
134.98312399762071
 21
-208.66129638608089
 31
0.0
  0
LINE
  5
455
  8
DATA
  6
CONTINUOUS
 62
     7
 10
134.46043397061189
 20
-206.32504045477799
 30
0.0
 11
133.57357615413571
 21
-206.8370680538535
 31
0.0
  0
LINE
  5
456
  8
DATA
  6
CONTINUOUS
 62
     7
 10
133.71194981939101
 20
-204.6310527590218
 30
0.0
 11
132.75546112805361
 21
-204.9205583445206
 31
0.0
  0
LINE
  5
457
  8
DATA
  6
CONTINUOUS
 62
     7
 10
133.38645339895939
 20
-202.50752508766161
 30
0.0
 11
132.4120711767618
 21
-202.50752508766161
 31
0.0
  0
LINE
  5
458
  8
DATA
  6
CONTINUOUS
 62
     7
 10
133.64447904250321
 20
-200.4643384040543
 30
0.0
 11
131.94447904250319
 21
-200.21042139814199
 31
0.0
  0
LINE
  5
459
  8
DATA
  6
CONTINUOUS
 62
     7
 10
134.38226800815991
 20
-198.66770675870859
 30
0.0
 11
133.5652960678166
 21
-198.19233529277281
 31
0.0
  0
LINE
  5
45A
  8
DATA
  6
CONTINUOUS
 62
     7
 10
135.52707514237539
 20
-197.1416795299269
 30
0.0
 11
134.86160703909781
 21
-196.4762114266494
 31
0.0
  0
LINE
  5
45B
  8
DATA
  6
CONTINUOUS
 62
     7
 10
137.14861001034279
 20
-195.86932744515701
 30
0.0
 11
136.6765410542867
 21
-195.05168002859199
 31
0.0
  0
LINE
  5
45C
  8
DATA
  6
CONTINUOUS
 62
     7
 10
139.19070252366441
 20
-195.04446297339641
 30
0.0
 11
138.96488712278969
 21
-194.11560522128309
 31
0.0
  0
LINE
  5
45D
  8
DATA
  6
CONTINUOUS
 62
     7
 10
143.1996698899672
 20
-195.1588802718434
 30
0.0
 11
143.49001507496871
 21
-194.20526103336911
 31
0.0
  0
LINE
  5
45E
  8
DATA
  6
CONTINUOUS
 62
     7
 10
144.9093819031801
 20
-195.9203307271008
 30
0.0
 11
145.43678957747139
 21
-195.0453311130648
 31
0.0
  0
LINE
  5
45F
  8
DATA
  6
CONTINUOUS
 62
     7
 10
146.38748142249159
 20
-197.08290874628011
 30
0.0
 11
147.112139804804
 21
-196.3383608931403
 31
0.0
  0
LINE
  5
460
  8
DATA
  6
CONTINUOUS
 62
     7
 10
147.66958980294299
 20
-198.8113071988075
 30
0.0
 11
148.6075424702579
 21
-198.27806141492849
 31
0.0
  0
LINE
  5
461
  8
DATA
  6
CONTINUOUS
 62
     7
 10
148.33099437250911
 20
-200.476974653881
 30
0.0
 11
150.0309943725091
 21
-200.1840701371631
 31
0.0
  0
LINE
  5
462
  8
DATA
  6
CONTINUOUS
 62
     7
 10
149.34010306054469
 20
-204.780422200716
 30
0.0
 11
148.2998017835026
 21
-204.4955306177045
 31
0.0
  0
LINE
  5
463
  8
DATA
  6
CONTINUOUS
 62
     7
 10
147.53885770370221
 20
-206.2791313652427
 30
0.0
 11
148.53478997040401
 21
-206.86424103331399
 31
0.0
  0
LINE
  5
464
  8
DATA
  6
CONTINUOUS
 62
     7
 10
147.26253531442231
 20
-208.53883874867401
 30
0.0
 11
146.44291736662149
 21
-207.7192208008733
 31
0.0
  0
LINE
  5
465
  8
DATA
  6
CONTINUOUS
 62
     7
 10
145.44760129922969
 20
-209.96337014672571
 30
0.0
 11
144.86153269987739
 21
-208.96699421297811
 31
0.0
  0
LINE
  5
466
  8
DATA
  6
CONTINUOUS
 62
     7
 10
141.2056766530701
 20
-194.8325352636011
 30
0.0
 11
141.2056766530701
 21
-193.3325352636011
 31
0.0
  0
TEXT
  5
467
  8
DATA
 62
     7
 10
134.51613477412749
 20
-212.22295564807359
 30
0.0
 40
1.4293081054687491
  1
OFF
 41
0.7
 11
134.51613477412749
 21
-210.7936475426049
 31
0.0
 73
     3
  0
LINE
  5
468
  8
DATA
  6
CONTINUOUS
 62
     7
 10
137.2795920101417
 20
-205.37009427189591
 30
0.0
 11
136.24202496153501
 21
-206.4760100746422
 31
0.0
  0
LINE
  5
469
  8
DATA
  6
CONTINUOUS
 62
     7
 10
137.40887852047791
 20
-207.5707487521274
 30
0.0
 11
138.44644556908031
 21
-206.46483294938579
 31
0.0
  0
LINE
  5
46A
  8
DATA
  6
CONTINUOUS
 62
     7
 10
140.37614082172939
 20
-207.20773780072571
 30
0.0
 11
140.37614082172939
 21
-208.71977102194739
 31
0.0
  0
LINE
  5
46B
  8
DATA
  6
CONTINUOUS
 62
     7
 10
141.97614082172939
 20
-207.1687456020922
 30
0.0
 11
141.97614082172939
 21
-208.69032192114639
 31
0.0
  0
TEXT
  5
46C
  8
DATA
 62
     7
 10
140.73797868504559
 20
-193.10248707689439
 30
0.0
 40
1.4293081054687491
  1
-15
 41
0.7
 11
140.73797868504559
 21
-191.6731789714257
 31
0.0
 73
     3
  0
TEXT
  5
46D
  8
DATA
 62
     7
 10
129.03565626177519
 20
-199.63996750000001
 30
0.0
 40
1.4293081054687491
  1
-30
 41
0.7
 11
129.03565626177519
 21
-198.21065939453129
 31
0.0
 73
     3
  0
TEXT
  5
46E
  8
DATA
 62
     7
 10
149.25999999999999
 20
-198.518655
 30
0.0
 40
1.4293081054687491
  1
-5
 41
0.7
 11
149.25999999999999
 21
-197.0893468945313
 31
0.0
 73
     3
  0
TEXT
  5
46F
  8
DATA
 62
     7
 10
145.53328955874071
 20
-211.91865499999989
 30
0.0
 40
1.4293081054687491
  1
+15
 41
0.7
 11
145.53328955874071
 21
-210.4893468945312
 31
0.0
 73
     3
  0
TEXT
  5
470
  8
DATA
 62
     7
 10
157.96292026545581
 20
-215.55230967039731
 30
0.0
 40
1.6288411458333321
  1
RATIO
 41
0.7
 11
157.96292026545581
 21
-213.92346852456399
 31
0.0
 73
     3
  0
CIRCLE
  5
471
  8
DATA
  6
CONTINUOUS
 62
     7
 10
162.5020711767599
 20
-202.50752508766161
 30
0.0
 40
4.75
  0
CIRCLE
  5
472
  8
DATA
  6
CONTINUOUS
 62
     7
 10
162.5020711767599
 20
-202.50752508766161
 30
0.0
 40
6.6499999999999764
  0
CIRCLE
  5
473
  8
DATA
  6
CONTINUOUS
 62
     7
 10
162.5020711767599
 20
-202.50752508766161
 30
0.0
 40
6.25
  0
POLYLINE
  5
474
  8
DATA
  6
CONTINUOUS
 62
     7
 66
     1
 10
0.0
 20
0.0
 30
0.0
 70
   129
  0
VERTEX
  5
AC2
  8
DATA
  6
CONTINUOUS
 62
     7
 10
162.7161408217294
 20
-195.2911909803629
 30
0.0
  0
VERTEX
  5
AC3
  8
DATA
  6
CONTINUOUS
 62
     7
 10
162.7161408217294
 20
-195.2911909803629
 30
0.0
 42
-0.4142135623730416
  0
VERTEX
  5
AC4
  8
DATA
  6
CONTINUOUS
 62
     7
 10
163.41614082172941
 20
-195.991190980363
 30
0.0
  0
VERTEX
  5
AC5
  8
DATA
  6
CONTINUOUS
 62
     7
 10
163.41614082172941
 20
-201.75119098036311
 30
0.0
  0
VERTEX
  5
AC6
  8
DATA
  6
CONTINUOUS
 62
     7
 10
163.41614082172941
 20
-201.75119098036311
 30
0.0
 42
-0.4142135623730713
  0
VERTEX
  5
AC7
  8
DATA
  6
CONTINUOUS
 62
     7
 10
162.7161408217294
 20
-202.45119098036309
 30
0.0
  0
VERTEX
  5
AC8
  8
DATA
  6
CONTINUOUS
 62
     7
 10
162.51614082172941
 20
-202.45119098036309
 30
0.0
  0
VERTEX
  5
AC9
  8
DATA
  6
CONTINUOUS
 62
     7
 10
162.51614082172941
 20
-202.45119098036309
 30
0.0
 42
-0.4142135623730891
  0
VERTEX
  5
ACA
  8
DATA
  6
CONTINUOUS
 62
     7
 10
161.81614082172939
 20
-201.75119098036299
 30
0.0
  0
VERTEX
  5
ACB
  8
DATA
  6
CONTINUOUS
 62
     7
 10
161.8161408217295
 20
-195.991190980363
 30
0.0
  0
VERTEX
  5
ACC
  8
DATA
  6
CONTINUOUS
 62
     7
 10
161.8161408217295
 20
-195.991190980363
 30
0.0
 42
-0.4142135623730475
  0
VERTEX
  5
ACD
  8
DATA
  6
CONTINUOUS
 62
     7
 10
162.51614082172961
 20
-195.29119098036301
 30
0.0
  0
SEQEND
  5
ACE
  8
DATA
  6
CONTINUOUS
 62
     7
  0
LINE
  5
482
  8
DATA
  6
CONTINUOUS
 62
     7
 10
157.8199242333134
 20
-201.70752508766159
 30
0.0
 11
156.30348262774319
 21
-201.70752508766159
 31
0.0
  0
LINE
  5
483
  8
DATA
  6
CONTINUOUS
 62
     7
 10
157.8199242333134
 20
-203.30752508766159
 30
0.0
 11
156.30348262774319
 21
-203.30752508766159
 31
0.0
  0
LINE
  5
484
  8
DATA
  6
CONTINUOUS
 62
     7
 10
167.18421812020631
 20
-201.70752508766159
 30
0.0
 11
168.7006597257764
 21
-201.70752508766159
 31
0.0
  0
LINE
  5
485
  8
DATA
  6
CONTINUOUS
 62
     7
 10
167.18421812020631
 20
-203.30752508766159
 30
0.0
 11
168.7006597257764
 21
-203.30752508766159
 31
0.0
  0
LINE
  5
486
  8
DATA
  6
CONTINUOUS
 62
     7
 10
158.6256078975911
 20
-199.76243265839119
 30
0.0
 11
157.5533217550157
 21
-198.69014651581591
 31
0.0
  0
LINE
  5
487
  8
DATA
  6
CONTINUOUS
 62
     7
 10
159.75697874748511
 20
-198.6310618084884
 30
0.0
 11
158.68469260491409
 21
-197.55877566591741
 31
0.0
  0
LINE
  5
488
  8
DATA
  6
CONTINUOUS
 62
     7
 10
165.2471636060302
 20
-198.6310618084928
 30
0.0
 11
166.31944974860559
 21
-197.55877566591741
 31
0.0
  0
LINE
  5
489
  8
DATA
  6
CONTINUOUS
 62
     7
 10
167.45082059850409
 20
-198.690146515816
 30
0.0
 11
166.37853445593311
 21
-199.76243265838701
 31
0.0
  0
LINE
  5
48A
  8
DATA
  6
CONTINUOUS
 62
     7
 10
167.45082059850409
 20
-206.3249036595073
 30
0.0
 11
166.37853445593311
 21
-205.2526175169364
 31
0.0
  0
LINE
  5
48B
  8
DATA
  6
CONTINUOUS
 62
     7
 10
166.31944974860551
 20
-207.4562745094056
 30
0.0
 11
165.2471636060302
 21
-206.38398836683049
 31
0.0
  0
ARC
  5
48C
  8
DATA
  6
CONTINUOUS
 62
     7
 10
162.4260514417106
 20
-202.42936123018359
 30
0.0
 40
7.6000000000000378
 50
300.65928338484542
 51
240.88271410567211
  0
LINE
  5
48D
  8
DATA
  6
CONTINUOUS
 62
     7
 10
154.82645339895939
 20
-202.50752508766161
 30
0.0
 11
153.8520711767618
 21
-202.50752508766161
 31
0.0
  0
LINE
  5
48E
  8
DATA
  6
CONTINUOUS
 62
     7
 10
171.15207117675979
 20
-202.50752508766161
 30
0.0
 11
170.02564948446181
 21
-202.50752508766161
 31
0.0
  0
LINE
  5
48F
  8
DATA
  6
CONTINUOUS
 62
     7
 10
158.7278992570192
 20
-209.0689147105638
 30
0.0
 11
158.20204917006839
 21
-210.01301046449879
 31
0.0
  0
LINE
  5
490
  8
DATA
  6
CONTINUOUS
 62
     7
 10
157.1535522285981
 20
-207.9030028011785
 30
0.0
 11
156.42312399762071
 21
-208.66129638608089
 31
0.0
  0
LINE
  5
491
  8
DATA
  6
CONTINUOUS
 62
     7
 10
155.90043397061191
 20
-206.32504045477799
 30
0.0
 11
155.01357615413571
 21
-206.8370680538535
 31
0.0
  0
LINE
  5
492
  8
DATA
  6
CONTINUOUS
 62
     7
 10
155.15194981939109
 20
-204.6310527590218
 30
0.0
 11
154.19546112805361
 21
-204.9205583445206
 31
0.0
  0
LINE
  5
493
  8
DATA
  6
CONTINUOUS
 62
     7
 10
154.82645339895939
 20
-202.50752508766161
 30
0.0
 11
153.8520711767618
 21
-202.50752508766161
 31
0.0
  0
LINE
  5
494
  8
DATA
  6
CONTINUOUS
 62
     7
 10
155.08447904250309
 20
-200.4643384040543
 30
0.0
 11
153.38447904250319
 21
-200.21042139814199
 31
0.0
  0
LINE
  5
495
  8
DATA
  6
CONTINUOUS
 62
     7
 10
155.82226800815991
 20
-198.66770675870859
 30
0.0
 11
155.0052960678166
 21
-198.19233529277281
 31
0.0
  0
LINE
  5
496
  8
DATA
  6
CONTINUOUS
 62
     7
 10
156.96707514237539
 20
-197.1416795299269
 30
0.0
 11
156.3016070390978
 21
-196.4762114266494
 31
0.0
  0
LINE
  5
497
  8
DATA
  6
CONTINUOUS
 62
     7
 10
158.58861001034279
 20
-195.86932744515701
 30
0.0
 11
158.1165410542867
 21
-195.05168002859199
 31
0.0
  0
LINE
  5
498
  8
DATA
  6
CONTINUOUS
 62
     7
 10
160.63070252366441
 20
-195.04446297339641
 30
0.0
 11
160.40488712278969
 21
-194.11560522128309
 31
0.0
  0
LINE
  5
499
  8
DATA
  6
CONTINUOUS
 62
     7
 10
164.63966988996719
 20
-195.1588802718434
 30
0.0
 11
164.93001507496871
 21
-194.20526103336911
 31
0.0
  0
LINE
  5
49A
  8
DATA
  6
CONTINUOUS
 62
     7
 10
166.34938190317999
 20
-195.9203307271008
 30
0.0
 11
166.87678957747141
 21
-195.0453311130648
 31
0.0
  0
LINE
  5
49B
  8
DATA
  6
CONTINUOUS
 62
     7
 10
167.8274814224917
 20
-197.08290874628011
 30
0.0
 11
168.552139804804
 21
-196.3383608931403
 31
0.0
  0
LINE
  5
49C
  8
DATA
  6
CONTINUOUS
 62
     7
 10
169.10958980294299
 20
-198.8113071988075
 30
0.0
 11
170.04754247025781
 21
-198.27806141492849
 31
0.0
  0
LINE
  5
49D
  8
DATA
  6
CONTINUOUS
 62
     7
 10
169.77099437250911
 20
-200.476974653881
 30
0.0
 11
171.4709943725091
 21
-200.1840701371631
 31
0.0
  0
LINE
  5
49E
  8
DATA
  6
CONTINUOUS
 62
     7
 10
170.78010306054469
 20
-204.780422200716
 30
0.0
 11
169.7398017835026
 21
-204.4955306177045
 31
0.0
  0
LINE
  5
49F
  8
DATA
  6
CONTINUOUS
 62
     7
 10
168.97885770370209
 20
-206.2791313652427
 30
0.0
 11
169.974789970404
 21
-206.86424103331399
 31
0.0
  0
LINE
  5
4A0
  8
DATA
  6
CONTINUOUS
 62
     7
 10
168.70253531442219
 20
-208.53883874867401
 30
0.0
 11
167.88291736662151
 21
-207.7192208008733
 31
0.0
  0
LINE
  5
4A1
  8
DATA
  6
CONTINUOUS
 62
     7
 10
166.88760129922969
 20
-209.96337014672571
 30
0.0
 11
166.30153269987741
 21
-208.96699421297811
 31
0.0
  0
LINE
  5
4A2
  8
DATA
  6
CONTINUOUS
 62
     7
 10
162.6456766530701
 20
-194.8325352636011
 30
0.0
 11
162.6456766530701
 21
-193.3325352636011
 31
0.0
  0
TEXT
  5
4A3
  8
DATA
 62
     7
 10
155.95613477412741
 20
-212.22295564807359
 30
0.0
 40
1.4293081054687491
  1
MIN
 41
0.7
 11
155.95613477412741
 21
-210.7936475426049
 31
0.0
 73
     3
  0
LINE
  5
4A4
  8
DATA
  6
CONTINUOUS
 62
     7
 10
158.7195920101417
 20
-205.37009427189591
 30
0.0
 11
157.68202496153501
 21
-206.4760100746422
 31
0.0
  0
LINE
  5
4A5
  8
DATA
  6
CONTINUOUS
 62
     7
 10
158.84887852047791
 20
-207.5707487521274
 30
0.0
 11
159.88644556908031
 21
-206.46483294938579
 31
0.0
  0
LINE
  5
4A6
  8
DATA
  6
CONTINUOUS
 62
     7
 10
161.81614082172939
 20
-207.20773780072571
 30
0.0
 11
161.81614082172939
 21
-208.71977102194739
 31
0.0
  0
LINE
  5
4A7
  8
DATA
  6
CONTINUOUS
 62
     7
 10
163.41614082172941
 20
-207.1687456020922
 30
0.0
 11
163.41614082172941
 21
-208.69032192114639
 31
0.0
  0
TEXT
  5
4A8
  8
DATA
 62
     7
 10
161.30050024967821
 20
-192.93795987026309
 30
0.0
 40
1.4293081054687491
  1
2:1
 41
0.7
 11
161.30050024967821
 21
-191.50865176479439
 31
0.0
 73
     3
  0
TEXT
  5
4A9
  8
DATA
 62
     7
 10
151.98696380528239
 20
-198.1242364614717
 30
0.0
 40
1.4293081054687491
  1
5:1
 41
0.7
 11
151.98696380528239
 21
-196.694928356003
 31
0.0
 73
     3
  0
TEXT
  5
4AA
  8
DATA
 62
     7
 10
170.69999999999999
 20
-198.518655
 30
0.0
 40
1.4293081054687491
  1
5:1
 41
0.7
 11
170.69999999999999
 21
-197.0893468945313
 31
0.0
 73
     3
  0
TEXT
  5
4AB
  8
DATA
 62
     7
 10
166.34262504710091
 20
-212.16865499999989
 30
0.0
 40
1.4293081054687491
  1
10:1
 41
0.7
 11
166.34262504710091
 21
-210.73934689453111
 31
0.0
 73
     3
  0
TEXT
  5
4AC
  8
DATA
 62
     7
 10
197.82887753853359
 20
-215.55230967039731
 30
0.0
 40
1.6288411458333321
  1
OUTPUT
 41
0.7
 11
197.82887753853359
 21
-213.92346852456399
 31
0.0
 73
     3
  0
CIRCLE
  5
4AD
  8
DATA
  6
CONTINUOUS
 62
     7
 10
201.0620711767599
 20
-202.50752508766161
 30
0.0
 40
4.75
  0
CIRCLE
  5
4AE
  8
DATA
  6
CONTINUOUS
 62
     7
 10
201.0620711767599
 20
-202.50752508766161
 30
0.0
 40
6.6499999999999764
  0
CIRCLE
  5
4AF
  8
DATA
  6
CONTINUOUS
 62
     7
 10
201.0620711767599
 20
-202.50752508766161
 30
0.0
 40
6.25
  0
POLYLINE
  5
4B0
  8
DATA
  6
CONTINUOUS
 62
     7
 66
     1
 10
0.0
 20
0.0
 30
0.0
 70
   129
  0
VERTEX
  5
ACF
  8
DATA
  6
CONTINUOUS
 62
     7
 10
201.2761408217294
 20
-195.2911909803629
 30
0.0
  0
VERTEX
  5
AD0
  8
DATA
  6
CONTINUOUS
 62
     7
 10
201.2761408217294
 20
-195.2911909803629
 30
0.0
 42
-0.4142135623730475
  0
VERTEX
  5
AD1
  8
DATA
  6
CONTINUOUS
 62
     7
 10
201.97614082172939
 20
-195.991190980363
 30
0.0
  0
VERTEX
  5
AD2
  8
DATA
  6
CONTINUOUS
 62
     7
 10
201.97614082172939
 20
-201.75119098036311
 30
0.0
  0
VERTEX
  5
AD3
  8
DATA
  6
CONTINUOUS
 62
     7
 10
201.97614082172939
 20
-201.75119098036311
 30
0.0
 42
-0.4142135623730713
  0
VERTEX
  5
AD4
  8
DATA
  6
CONTINUOUS
 62
     7
 10
201.2761408217294
 20
-202.45119098036309
 30
0.0
  0
VERTEX
  5
AD5
  8
DATA
  6
CONTINUOUS
 62
     7
 10
201.0761408217295
 20
-202.45119098036309
 30
0.0
  0
VERTEX
  5
AD6
  8
DATA
  6
CONTINUOUS
 62
     7
 10
201.0761408217295
 20
-202.45119098036309
 30
0.0
 42
-0.4142135623730891
  0
VERTEX
  5
AD7
  8
DATA
  6
CONTINUOUS
 62
     7
 10
200.37614082172939
 20
-201.75119098036299
 30
0.0
  0
VERTEX
  5
AD8
  8
DATA
  6
CONTINUOUS
 62
     7
 10
200.37614082172959
 20
-195.991190980363
 30
0.0
  0
VERTEX
  5
AD9
  8
DATA
  6
CONTINUOUS
 62
     7
 10
200.37614082172959
 20
-195.991190980363
 30
0.0
 42
-0.4142135623730475
  0
VERTEX
  5
ADA
  8
DATA
  6
CONTINUOUS
 62
     7
 10
201.07614082172961
 20
-195.29119098036301
 30
0.0
  0
SEQEND
  5
ADB
  8
DATA
  6
CONTINUOUS
 62
     7
  0
LINE
  5
4BE
  8
DATA
  6
CONTINUOUS
 62
     7
 10
196.3799242333134
 20
-201.70752508766159
 30
0.0
 11
194.8634826277432
 21
-201.70752508766159
 31
0.0
  0
LINE
  5
4BF
  8
DATA
  6
CONTINUOUS
 62
     7
 10
196.3799242333134
 20
-203.30752508766159
 30
0.0
 11
194.8634826277432
 21
-203.30752508766159
 31
0.0
  0
LINE
  5
4C0
  8
DATA
  6
CONTINUOUS
 62
     7
 10
205.7442181202064
 20
-201.70752508766159
 30
0.0
 11
207.26065972577649
 21
-201.70752508766159
 31
0.0
  0
LINE
  5
4C1
  8
DATA
  6
CONTINUOUS
 62
     7
 10
205.7442181202064
 20
-203.30752508766159
 30
0.0
 11
207.26065972577649
 21
-203.30752508766159
 31
0.0
  0
LINE
  5
4C2
  8
DATA
  6
CONTINUOUS
 62
     7
 10
197.18560789759121
 20
-199.76243265839119
 30
0.0
 11
196.11332175501559
 21
-198.69014651581591
 31
0.0
  0
LINE
  5
4C3
  8
DATA
  6
CONTINUOUS
 62
     7
 10
198.31697874748519
 20
-198.6310618084884
 30
0.0
 11
197.24469260491409
 21
-197.55877566591741
 31
0.0
  0
LINE
  5
4C4
  8
DATA
  6
CONTINUOUS
 62
     7
 10
203.8071636060302
 20
-198.6310618084928
 30
0.0
 11
204.87944974860559
 21
-197.55877566591741
 31
0.0
  0
LINE
  5
4C5
  8
DATA
  6
CONTINUOUS
 62
     7
 10
206.0108205985041
 20
-198.690146515816
 30
0.0
 11
204.93853445593311
 21
-199.76243265838701
 31
0.0
  0
LINE
  5
4C6
  8
DATA
  6
CONTINUOUS
 62
     7
 10
206.0108205985041
 20
-206.3249036595073
 30
0.0
 11
204.93853445593311
 21
-205.2526175169364
 31
0.0
  0
LINE
  5
4C7
  8
DATA
  6
CONTINUOUS
 62
     7
 10
204.87944974860559
 20
-207.4562745094056
 30
0.0
 11
203.8071636060302
 21
-206.38398836683049
 31
0.0
  0
ARC
  5
4C8
  8
DATA
  6
CONTINUOUS
 62
     7
 10
200.9860514417106
 20
-202.42936123018359
 30
0.0
 40
7.6000000000000378
 50
300.65928338484542
 51
240.88271410567211
  0
LINE
  5
4C9
  8
DATA
  6
CONTINUOUS
 62
     7
 10
193.38645339895939
 20
-202.50752508766161
 30
0.0
 11
192.4120711767618
 21
-202.50752508766161
 31
0.0
  0
LINE
  5
4CA
  8
DATA
  6
CONTINUOUS
 62
     7
 10
209.71207117675991
 20
-202.50752508766161
 30
0.0
 11
208.5856494844619
 21
-202.50752508766161
 31
0.0
  0
LINE
  5
4CB
  8
DATA
  6
CONTINUOUS
 62
     7
 10
197.28789925701921
 20
-209.0689147105638
 30
0.0
 11
196.76204917006839
 21
-210.01301046449879
 31
0.0
  0
LINE
  5
4CC
  8
DATA
  6
CONTINUOUS
 62
     7
 10
195.7135522285981
 20
-207.9030028011785
 30
0.0
 11
194.98312399762071
 21
-208.66129638608089
 31
0.0
  0
LINE
  5
4CD
  8
DATA
  6
CONTINUOUS
 62
     7
 10
194.46043397061189
 20
-206.32504045477799
 30
0.0
 11
193.57357615413571
 21
-206.8370680538535
 31
0.0
  0
LINE
  5
4CE
  8
DATA
  6
CONTINUOUS
 62
     7
 10
193.71194981939109
 20
-204.6310527590218
 30
0.0
 11
192.75546112805361
 21
-204.9205583445206
 31
0.0
  0
LINE
  5
4CF
  8
DATA
  6
CONTINUOUS
 62
     7
 10
193.38645339895939
 20
-202.50752508766161
 30
0.0
 11
192.4120711767618
 21
-202.50752508766161
 31
0.0
  0
LINE
  5
4D0
  8
DATA
  6
CONTINUOUS
 62
     7
 10
193.64447904250321
 20
-200.4643384040543
 30
0.0
 11
191.94447904250319
 21
-200.21042139814199
 31
0.0
  0
LINE
  5
4D1
  8
DATA
  6
CONTINUOUS
 62
     7
 10
194.38226800815991
 20
-198.66770675870859
 30
0.0
 11
193.5652960678164
 21
-198.19233529277281
 31
0.0
  0
LINE
  5
4D2
  8
DATA
  6
CONTINUOUS
 62
     7
 10
195.52707514237531
 20
-197.1416795299269
 30
0.0
 11
194.86160703909781
 21
-196.4762114266494
 31
0.0
  0
LINE
  5
4D3
  8
DATA
  6
CONTINUOUS
 62
     7
 10
197.14861001034279
 20
-195.86932744515701
 30
0.0
 11
196.67654105428679
 21
-195.05168002859199
 31
0.0
  0
LINE
  5
4D4
  8
DATA
  6
CONTINUOUS
 62
     7
 10
199.19070252366441
 20
-195.04446297339641
 30
0.0
 11
198.96488712278969
 21
-194.11560522128309
 31
0.0
  0
LINE
  5
4D5
  8
DATA
  6
CONTINUOUS
 62
     7
 10
203.1996698899672
 20
-195.1588802718434
 30
0.0
 11
203.49001507496871
 21
-194.20526103336911
 31
0.0
  0
LINE
  5
4D6
  8
DATA
  6
CONTINUOUS
 62
     7
 10
204.9093819031801
 20
-195.9203307271008
 30
0.0
 11
205.43678957747139
 21
-195.0453311130648
 31
0.0
  0
LINE
  5
4D7
  8
DATA
  6
CONTINUOUS
 62
     7
 10
206.3874814224917
 20
-197.08290874628011
 30
0.0
 11
207.112139804804
 21
-196.3383608931403
 31
0.0
  0
LINE
  5
4D8
  8
DATA
  6
CONTINUOUS
 62
     7
 10
207.66958980294299
 20
-198.8113071988075
 30
0.0
 11
208.6075424702579
 21
-198.27806141492849
 31
0.0
  0
LINE
  5
4D9
  8
DATA
  6
CONTINUOUS
 62
     7
 10
208.33099437250911
 20
-200.476974653881
 30
0.0
 11
210.0309943725091
 21
-200.1840701371631
 31
0.0
  0
LINE
  5
4DA
  8
DATA
  6
CONTINUOUS
 62
     7
 10
209.34010306054469
 20
-204.780422200716
 30
0.0
 11
208.2998017835026
 21
-204.4955306177045
 31
0.0
  0
LINE
  5
4DB
  8
DATA
  6
CONTINUOUS
 62
     7
 10
207.53885770370209
 20
-206.2791313652427
 30
0.0
 11
208.53478997040401
 21
-206.86424103331399
 31
0.0
  0
LINE
  5
4DC
  8
DATA
  6
CONTINUOUS
 62
     7
 10
207.26253531442231
 20
-208.53883874867401
 30
0.0
 11
206.44291736662149
 21
-207.7192208008733
 31
0.0
  0
LINE
  5
4DD
  8
DATA
  6
CONTINUOUS
 62
     7
 10
205.4476012992298
 20
-209.96337014672571
 30
0.0
 11
204.8615326998775
 21
-208.96699421297811
 31
0.0
  0
LINE
  5
4DE
  8
DATA
  6
CONTINUOUS
 62
     7
 10
201.2056766530701
 20
-194.8325352636011
 30
0.0
 11
201.2056766530701
 21
-193.3325352636011
 31
0.0
  0
TEXT
  5
4DF
  8
DATA
 62
     7
 10
194.51613477412741
 20
-212.22295564807359
 30
0.0
 40
1.4293081054687491
  1
-30
 41
0.7
 11
194.51613477412741
 21
-210.7936475426049
 31
0.0
 73
     3
  0
LINE
  5
4E0
  8
DATA
  6
CONTINUOUS
 62
     7
 10
197.27959201014161
 20
-205.37009427189591
 30
0.0
 11
196.2420249615349
 21
-206.4760100746422
 31
0.0
  0
LINE
  5
4E1
  8
DATA
  6
CONTINUOUS
 62
     7
 10
197.40887852047791
 20
-207.5707487521274
 30
0.0
 11
198.4464455690804
 21
-206.46483294938579
 31
0.0
  0
LINE
  5
4E2
  8
DATA
  6
CONTINUOUS
 62
     7
 10
200.37614082172939
 20
-207.20773780072571
 30
0.0
 11
200.37614082172939
 21
-208.71977102194739
 31
0.0
  0
LINE
  5
4E3
  8
DATA
  6
CONTINUOUS
 62
     7
 10
201.97614082172939
 20
-207.1687456020922
 30
0.0
 11
201.97614082172939
 21
-208.69032192114639
 31
0.0
  0
TEXT
  5
4E4
  8
DATA
 62
     7
 10
200.77126753417099
 20
-193.10248707689439
 30
0.0
 40
1.4293081054687491
  1
0
 41
0.7
 11
200.77126753417099
 21
-191.6731789714257
 31
0.0
 73
     3
  0
TEXT
  5
4E5
  8
DATA
 62
     7
 10
189.0356562617751
 20
-199.63996750000001
 30
0.0
 40
1.4293081054687491
  1
-10
 41
0.7
 11
189.0356562617751
 21
-198.21065939453129
 31
0.0
 73
     3
  0
TEXT
  5
4E6
  8
DATA
 62
     7
 10
209.25999999999999
 20
-198.518655
 30
0.0
 40
1.4293081054687491
  1
+5
 41
0.7
 11
209.25999999999999
 21
-197.0893468945313
 31
0.0
 73
     3
  0
TEXT
  5
4E7
  8
DATA
 62
     7
 10
205.53328955874071
 20
-211.91865499999989
 30
0.0
 40
1.4293081054687491
  1
+10
 41
0.7
 11
205.53328955874071
 21
-210.4893468945312
 31
0.0
 73
     3
  0
LINE
  5
4E8
  8
DATA
  6
CONTINUOUS
 62
     7
 10
187.4999999999921
 20
-217.0000000000249
 30
0.0
 11
187.4999999999921
 21
-188.0000000000249
 31
0.0
  0
ARC
  5
4E9
  8
DATA
  6
CONTINUOUS
 62
     7
 10
185.4999999999921
 20
-188.0000000000249
 30
0.0
 40
2.0
 50
0.0
 51
90.0
  0
ARC
  5
4EA
  8
DATA
  6
CONTINUOUS
 62
     7
 10
185.4999999999921
 20
-217.0000000000249
 30
0.0
 40
2.0
 50
270.0
 51
0.0
  0
LINE
  5
4EB
  8
DATA
  6
CONTINUOUS
 62
     7
 10
188.4999999999921
 20
-217.0000000000249
 30
0.0
 11
188.4999999999921
 21
-188.0000000000249
 31
0.0
  0
LINE
  5
4EC
  8
DATA
  6
CONTINUOUS
 62
     7
 10
217.9959506646
 20
-186.0000000000249
 30
0.0
 11
190.4999999999921
 21
-186.0000000000249
 31
0.0
  0
LINE
  5
4ED
  8
DATA
  6
CONTINUOUS
 62
     7
 10
217.9959506646
 20
-219.0000000000249
 30
0.0
 11
190.4999999999921
 21
-219.0000000000249
 31
0.0
  0
ARC
  5
4EE
  8
DATA
  6
CONTINUOUS
 62
     7
 10
190.4999999999921
 20
-188.0000000000249
 30
0.0
 40
2.0
 50
90.0
 51
180.0
  0
ARC
  5
4EF
  8
DATA
  6
CONTINUOUS
 62
     7
 10
190.4999999999921
 20
-217.0000000000249
 30
0.0
 40
2.0
 50
180.0
 51
270.0
  0
LINE
  5
4F0
  8
DATA
  6
CONTINUOUS
 62
     7
 10
186.3128136961821
 20
-214.0000000000249
 30
0.0
 11
186.3128136961821
 21
-207.5000000000249
 31
0.0
  0
ARC
  5
4F1
  8
DATA
  6
CONTINUOUS
 62
     7
 10
185.3128136961821
 20
-207.5000000000249
 30
0.0
 40
1.0
 50
0.0
 51
90.0
  0
ARC
  5
4F2
  8
DATA
  6
CONTINUOUS
 62
     7
 10
185.3128136961821
 20
-214.0000000000249
 30
0.0
 40
1.0
 50
270.0
 51
0.0
  0
CIRCLE
  5
4F3
  8
DATA
  6
CONTINUOUS
 62
     7
 10
178.96771231101121
 20
-211.641278378132
 30
0.0
 40
1.449999999999988
  0
CIRCLE
  5
4F4
  8
DATA
  6
CONTINUOUS
 62
     7
 10
183.9677123110113
 20
-211.641278378132
 30
0.0
 40
1.449999999999988
  0
TEXT
  5
4F5
  8
DATA
 62
     7
 10
178.4269550662124
 20
-209.71643470578351
 30
0.0
 40
1.710283203124999
  1
-
 41
0.7
 11
178.4269550662124
 21
-208.0061515026585
 31
0.0
 73
     3
  0
TEXT
  5
4F6
  8
DATA
 62
     7
 10
183.58506345109441
 20
-209.71643470578351
 30
0.0
 40
1.710283203124999
  1
+
 41
0.7
 11
183.58506345109441
 21
-208.0061515026585
 31
0.0
 73
     3
  0
LINE
  5
4F7
  8
DATA
  6
CONTINUOUS
 62
     7
 10
176.5683902687469
 20
-214.0000000000249
 30
0.0
 11
176.5683902687469
 21
-207.5000000000249
 31
0.0
  0
ARC
  5
4F8
  8
DATA
  6
CONTINUOUS
 62
     7
 10
177.56839026874701
 20
-207.5000000000249
 30
0.0
 40
1.0
 50
90.0
 51
180.0
  0
ARC
  5
4F9
  8
DATA
  6
CONTINUOUS
 62
     7
 10
177.56839026874701
 20
-214.0000000000249
 30
0.0
 40
1.0
 50
180.0
 51
270.0
  0
LINE
  5
4FA
  8
DATA
  6
CONTINUOUS
 62
     7
 10
177.56839026874701
 20
-215.0000000000249
 30
0.0
 11
185.3128136961821
 21
-215.0000000000249
 31
0.0
  0
LINE
  5
4FB
  8
DATA
  6
CONTINUOUS
 62
     7
 10
185.3128136961821
 20
-206.5000000000249
 30
0.0
 11
177.56839026874701
 21
-206.5000000000249
 31
0.0
  0
TEXT
  5
4FC
  8
DATA
 62
     7
 10
176.7277253911565
 20
-205.45226468112239
 30
0.0
 40
1.6288411458333321
  1
THRESHOLD
 41
0.7
 11
176.7277253911565
 21
-203.82342353528909
 31
0.0
 73
     3
  0
TEXT
  5
4FD
  8
DATA
 62
     7
 10
199.77666024767441
 20
-213.129625398201
 30
0.0
 40
1.6288411458333321
  1
dB
 41
0.7
 11
199.77666024767441
 21
-211.50078425236771
 31
0.0
 73
     3
  0
LINE
  5
4FE
  8
DATA
  6
CONTINUOUS
 62
     7
 10
218.88114074475911
 20
-214.0000000000249
 30
0.0
 11
218.88114074475911
 21
-207.5000000000249
 31
0.0
  0
ARC
  5
4FF
  8
DATA
  6
CONTINUOUS
 62
     7
 10
217.88114074475911
 20
-207.5000000000249
 30
0.0
 40
1.0
 50
0.0
 51
90.0
  0
ARC
  5
500
  8
DATA
  6
CONTINUOUS
 62
     7
 10
217.88114074475911
 20
-214.0000000000249
 30
0.0
 40
1.0
 50
270.0
 51
0.0
  0
CIRCLE
  5
501
  8
DATA
  6
CONTINUOUS
 62
     7
 10
215.78940734270489
 20
-211.641278378132
 30
0.0
 40
1.449999999999988
  0
LINE
  5
502
  8
DATA
  6
CONTINUOUS
 62
     7
 10
213.69767394065079
 20
-215.0000000000249
 30
0.0
 11
217.88114074475911
 21
-215.0000000000249
 31
0.0
  0
LINE
  5
503
  8
DATA
  6
CONTINUOUS
 62
     7
 10
217.88114074475911
 20
-206.5000000000249
 30
0.0
 11
213.69767394065079
 21
-206.5000000000249
 31
0.0
  0
TEXT
  5
504
  8
DATA
 62
     7
 10
213.89550935584441
 20
-209.5203333333333
 30
0.0
 40
1.6288411458333321
  1
CLIP
 41
0.7
 11
213.89550935584441
 21
-207.89149218750001
 31
0.0
 73
     3
  0
LINE
  5
505
  8
DATA
  6
CONTINUOUS
 62
     7
 10
212.69767394065079
 20
-214.0000000000249
 30
0.0
 11
212.69767394065079
 21
-207.5000000000249
 31
0.0
  0
ARC
  5
506
  8
DATA
  6
CONTINUOUS
 62
     7
 10
213.69767394065079
 20
-207.5000000000249
 30
0.0
 40
1.0
 50
90.0
 51
180.0
  0
ARC
  5
507
  8
DATA
  6
CONTINUOUS
 62
     7
 10
213.69767394065079
 20
-214.0000000000249
 30
0.0
 40
1.0
 50
180.0
 51
270.0
  0
TEXT
  5
508
  8
DATA
 62
     7
 10
146.71240545265999
 20
-222.24088309238579
 30
0.0
 40
2.1174934895833322
  1
EXPANDER/GATE
 41
0.7
 11
146.71240545265999
 21
-220.12338960280249
 31
0.0
 73
     3
  0
TEXT
  5
509
  8
DATA
 62
     7
 10
197.54772659908539
 20
-222.24088309238579
 30
0.0
 40
2.1174934895833322
  1
OUTPUT
 41
0.7
 11
197.54772659908539
 21
-220.12338960280249
 31
0.0
 73
     3
  0
LINE
  5
50A
  8
DATA
  6
CONTINUOUS
 62
     7
 10
-74.405810932452837
 20
-75.00802258075673
 30
0.0
 11
-74.405810932452837
 21
-76.508022580756673
 31
0.0
  0
LINE
  5
50B
  8
DATA
  6
CONTINUOUS
 62
     7
 10
-65.605810932452826
 20
-75.000000000103171
 30
0.0
 11
-65.605810932452826
 21
-76.508022580756673
 31
0.0
  0
LINE
  5
50C
  8
DATA
  6
CONTINUOUS
 62
     7
 10
-74.733549631944413
 20
-76.508022580756673
 30
0.0
 11
-76.660657468077375
 21
-76.508022580756673
 31
0.0
  0
LINE
  5
50D
  8
DATA
  6
CONTINUOUS
 62
     7
 10
-76.660657468077375
 20
-76.508022580756673
 30
0.0
 11
-76.360657468077363
 21
-80.008022580756673
 31
0.0
  0
LINE
  5
50E
  8
DATA
  6
CONTINUOUS
 62
     7
 10
-76.360657468077363
 20
-80.008022580756673
 30
0.0
 11
-74.733549631944413
 21
-91.508022580756801
 31
0.0
  0
LINE
  5
50F
  8
DATA
  6
CONTINUOUS
 62
     7
 10
-63.674414563806543
 20
-80.008022580756673
 30
0.0
 11
-65.27807223296125
 21
-91.508022580756801
 31
0.0
  0
LINE
  5
510
  8
DATA
  6
CONTINUOUS
 62
     7
 10
-65.27807223296125
 20
-76.508022580756673
 30
0.0
 11
-74.733549631944413
 21
-76.508022580756673
 31
0.0
  0
LINE
  5
511
  8
DATA
  6
CONTINUOUS
 62
     7
 10
-63.350964396828218
 20
-76.508022580756673
 30
0.0
 11
-63.650964396828222
 21
-80.008022580756673
 31
0.0
  0
LINE
  5
512
  8
DATA
  6
CONTINUOUS
 62
     7
 10
-65.27807223296125
 20
-76.508022580756673
 30
0.0
 11
-63.350964396828218
 21
-76.508022580756673
 31
0.0
  0
LINE
  5
513
  8
DATA
  6
CONTINUOUS
 62
     7
 10
-71.905810932452908
 20
-91.508022580756915
 30
0.0
 11
-72.517536015941928
 21
-80.008022580756574
 31
0.0
  0
LINE
  5
514
  8
DATA
  6
CONTINUOUS
 62
     7
 10
-73.605810932452925
 20
-91.508022580756915
 30
0.0
 11
-74.217536015941974
 21
-80.008022580756574
 31
0.0
  0
LINE
  5
515
  8
DATA
  6
CONTINUOUS
 62
     7
 10
-68.105810932452883
 20
-91.508022580756915
 30
0.0
 11
-67.517536015941872
 21
-80.008022580756574
 31
0.0
  0
LINE
  5
516
  8
DATA
  6
CONTINUOUS
 62
     7
 10
-66.405810932452837
 20
-91.508022580756915
 30
0.0
 11
-65.817536015941883
 21
-80.008022580756574
 31
0.0
  0
LINE
  5
517
  8
DATA
  6
CONTINUOUS
 62
     7
 10
-69.355810932452826
 20
-80.008022580756673
 30
0.0
 11
-63.650964396828222
 21
-80.008022580756673
 31
0.0
  0
LINE
  5
518
  8
DATA
  6
CONTINUOUS
 62
     7
 10
-70.655810932452781
 20
-80.008022580756673
 30
0.0
 11
-76.360657468077363
 21
-80.008022580756673
 31
0.0
  0
LINE
  5
519
  8
DATA
  6
CONTINUOUS
 62
     7
 10
-69.355810932452826
 20
-91.508022580756801
 30
0.0
 11
-65.278072232961293
 21
-91.508022580756801
 31
0.0
  0
LINE
  5
51A
  8
DATA
  6
CONTINUOUS
 62
     7
 10
-70.655810932452781
 20
-91.508022580756801
 30
0.0
 11
-74.733549631944371
 21
-91.508022580756801
 31
0.0
  0
LINE
  5
51B
  8
DATA
  6
CONTINUOUS
 62
     7
 10
-70.655810932452781
 20
-80.008022580756673
 30
0.0
 11
-76.360657468077363
 21
-80.008022580756673
 31
0.0
  0
LINE
  5
51C
  8
DATA
  6
CONTINUOUS
 62
     7
 10
-69.355810932452826
 20
-80.008022580756673
 30
0.0
 11
-63.650964396828222
 21
-80.008022580756673
 31
0.0
  0
LINE
  5
51D
  8
DATA
  6
CONTINUOUS
 62
     7
 10
-70.655810932452781
 20
-91.508022580756801
 30
0.0
 11
-74.733549631944413
 21
-91.508022580756801
 31
0.0
  0
LINE
  5
51E
  8
DATA
  6
CONTINUOUS
 62
     7
 10
-69.355810932452826
 20
-91.508022580756801
 30
0.0
 11
-65.27807223296125
 21
-91.508022580756801
 31
0.0
  0
ARC
  5
51F
  8
DATA
  6
CONTINUOUS
 62
     7
 10
-70.005810932452789
 20
-91.075100648987956
 30
0.0
 40
0.9248994851090245
 50
225.34960338810239
 51
314.65039661189741
  0
LINE
  5
520
  8
DATA
  6
CONTINUOUS
 62
     7
 10
-70.655810932452781
 20
-91.733081695486433
 30
0.0
 11
-70.655810932452781
 21
-76.508022580756673
 31
0.0
  0
LINE
  5
521
  8
DATA
  6
CONTINUOUS
 62
     7
 10
-69.355810932452826
 20
-91.733081695486433
 30
0.0
 11
-69.355810932452826
 21
-76.508022580756673
 31
0.0
  0
LINE
  5
522
  8
DATA
  6
CONTINUOUS
 62
     7
 10
24.48418906754716
 20
-75.00802258075673
 30
0.0
 11
24.48418906754716
 21
-76.508022580756673
 31
0.0
  0
LINE
  5
523
  8
DATA
  6
CONTINUOUS
 62
     7
 10
33.284189067547182
 20
-75.000000000103171
 30
0.0
 11
33.284189067547182
 21
-76.508022580756673
 31
0.0
  0
LINE
  5
524
  8
DATA
  6
CONTINUOUS
 62
     7
 10
24.15645036805557
 20
-76.508022580756673
 30
0.0
 11
22.229342531922612
 21
-76.508022580756673
 31
0.0
  0
LINE
  5
525
  8
DATA
  6
CONTINUOUS
 62
     7
 10
22.229342531922612
 20
-76.508022580756673
 30
0.0
 11
22.52934253192263
 21
-80.008022580756673
 31
0.0
  0
LINE
  5
526
  8
DATA
  6
CONTINUOUS
 62
     7
 10
22.52934253192263
 20
-80.008022580756673
 30
0.0
 11
24.15645036805557
 21
-91.508022580756801
 31
0.0
  0
LINE
  5
527
  8
DATA
  6
CONTINUOUS
 62
     7
 10
35.215585436193471
 20
-80.008022580756673
 30
0.0
 11
33.611927767038772
 21
-91.508022580756801
 31
0.0
  0
LINE
  5
528
  8
DATA
  6
CONTINUOUS
 62
     7
 10
33.611927767038772
 20
-76.508022580756673
 30
0.0
 11
24.15645036805557
 21
-76.508022580756673
 31
0.0
  0
LINE
  5
529
  8
DATA
  6
CONTINUOUS
 62
     7
 10
35.539035603171783
 20
-76.508022580756673
 30
0.0
 11
35.239035603171772
 21
-80.008022580756673
 31
0.0
  0
LINE
  5
52A
  8
DATA
  6
CONTINUOUS
 62
     7
 10
33.611927767038772
 20
-76.508022580756673
 30
0.0
 11
35.539035603171783
 21
-76.508022580756673
 31
0.0
  0
LINE
  5
52B
  8
DATA
  6
CONTINUOUS
 62
     7
 10
26.98418906754711
 20
-91.508022580756915
 30
0.0
 11
26.372463984058069
 21
-80.008022580756574
 31
0.0
  0
LINE
  5
52C
  8
DATA
  6
CONTINUOUS
 62
     7
 10
25.284189067547061
 20
-91.508022580756915
 30
0.0
 11
24.672463984058041
 21
-80.008022580756574
 31
0.0
  0
LINE
  5
52D
  8
DATA
  6
CONTINUOUS
 62
     7
 10
30.784189067547121
 20
-91.508022580756915
 30
0.0
 11
31.372463984058129
 21
-80.008022580756574
 31
0.0
  0
LINE
  5
52E
  8
DATA
  6
CONTINUOUS
 62
     7
 10
32.48418906754717
 20
-91.508022580756915
 30
0.0
 11
33.072463984058118
 21
-80.008022580756574
 31
0.0
  0
LINE
  5
52F
  8
DATA
  6
CONTINUOUS
 62
     7
 10
29.534189067547182
 20
-80.008022580756673
 30
0.0
 11
35.239035603171772
 21
-80.008022580756673
 31
0.0
  0
LINE
  5
530
  8
DATA
  6
CONTINUOUS
 62
     7
 10
28.23418906754722
 20
-80.008022580756673
 30
0.0
 11
22.52934253192263
 21
-80.008022580756673
 31
0.0
  0
LINE
  5
531
  8
DATA
  6
CONTINUOUS
 62
     7
 10
29.534189067547182
 20
-91.508022580756801
 30
0.0
 11
33.611927767038722
 21
-91.508022580756801
 31
0.0
  0
LINE
  5
532
  8
DATA
  6
CONTINUOUS
 62
     7
 10
28.23418906754722
 20
-91.508022580756801
 30
0.0
 11
24.15645036805563
 21
-91.508022580756801
 31
0.0
  0
LINE
  5
533
  8
DATA
  6
CONTINUOUS
 62
     7
 10
28.23418906754722
 20
-80.008022580756673
 30
0.0
 11
22.52934253192263
 21
-80.008022580756673
 31
0.0
  0
LINE
  5
534
  8
DATA
  6
CONTINUOUS
 62
     7
 10
29.534189067547182
 20
-80.008022580756673
 30
0.0
 11
35.239035603171772
 21
-80.008022580756673
 31
0.0
  0
LINE
  5
535
  8
DATA
  6
CONTINUOUS
 62
     7
 10
28.23418906754722
 20
-91.508022580756801
 30
0.0
 11
24.15645036805557
 21
-91.508022580756801
 31
0.0
  0
LINE
  5
536
  8
DATA
  6
CONTINUOUS
 62
     7
 10
29.534189067547182
 20
-91.508022580756801
 30
0.0
 11
33.611927767038772
 21
-91.508022580756801
 31
0.0
  0
ARC
  5
537
  8
DATA
  6
CONTINUOUS
 62
     7
 10
28.884189067547201
 20
-91.075100648987956
 30
0.0
 40
0.9248994851090245
 50
225.34960338810239
 51
314.65039661189741
  0
LINE
  5
538
  8
DATA
  6
CONTINUOUS
 62
     7
 10
28.23418906754722
 20
-91.733081695486433
 30
0.0
 11
28.23418906754722
 21
-76.508022580756673
 31
0.0
  0
LINE
  5
539
  8
DATA
  6
CONTINUOUS
 62
     7
 10
29.534189067547182
 20
-91.733081695486433
 30
0.0
 11
29.534189067547182
 21
-76.508022580756673
 31
0.0
  0
LINE
  5
53A
  8
DATA
  6
CONTINUOUS
 62
     7
 10
49.484189067547142
 20
-75.00802258075673
 30
0.0
 11
49.484189067547142
 21
-76.508022580756673
 31
0.0
  0
LINE
  5
53B
  8
DATA
  6
CONTINUOUS
 62
     7
 10
58.284189067547182
 20
-75.000000000103171
 30
0.0
 11
58.284189067547182
 21
-76.508022580756673
 31
0.0
  0
LINE
  5
53C
  8
DATA
  6
CONTINUOUS
 62
     7
 10
49.156450368055573
 20
-76.508022580756673
 30
0.0
 11
47.22934253192259
 21
-76.508022580756673
 31
0.0
  0
LINE
  5
53D
  8
DATA
  6
CONTINUOUS
 62
     7
 10
47.22934253192259
 20
-76.508022580756673
 30
0.0
 11
47.529342531922588
 21
-80.008022580756673
 31
0.0
  0
LINE
  5
53E
  8
DATA
  6
CONTINUOUS
 62
     7
 10
47.529342531922588
 20
-80.008022580756673
 30
0.0
 11
49.156450368055573
 21
-91.508022580756801
 31
0.0
  0
LINE
  5
53F
  8
DATA
  6
CONTINUOUS
 62
     7
 10
60.21558543619345
 20
-80.008022580756673
 30
0.0
 11
58.611927767038772
 21
-91.508022580756801
 31
0.0
  0
LINE
  5
540
  8
DATA
  6
CONTINUOUS
 62
     7
 10
58.611927767038772
 20
-76.508022580756673
 30
0.0
 11
49.156450368055573
 21
-76.508022580756673
 31
0.0
  0
LINE
  5
541
  8
DATA
  6
CONTINUOUS
 62
     7
 10
60.539035603171769
 20
-76.508022580756673
 30
0.0
 11
60.239035603171779
 21
-80.008022580756673
 31
0.0
  0
LINE
  5
542
  8
DATA
  6
CONTINUOUS
 62
     7
 10
58.611927767038772
 20
-76.508022580756673
 30
0.0
 11
60.539035603171769
 21
-76.508022580756673
 31
0.0
  0
LINE
  5
543
  8
DATA
  6
CONTINUOUS
 62
     7
 10
51.984189067547113
 20
-91.508022580756915
 30
0.0
 11
51.372463984058072
 21
-80.008022580756574
 31
0.0
  0
LINE
  5
544
  8
DATA
  6
CONTINUOUS
 62
     7
 10
50.284189067547061
 20
-91.508022580756915
 30
0.0
 11
49.67246398405802
 21
-80.008022580756574
 31
0.0
  0
LINE
  5
545
  8
DATA
  6
CONTINUOUS
 62
     7
 10
55.784189067547118
 20
-91.508022580756915
 30
0.0
 11
56.372463984058129
 21
-80.008022580756574
 31
0.0
  0
LINE
  5
546
  8
DATA
  6
CONTINUOUS
 62
     7
 10
57.484189067547142
 20
-91.508022580756915
 30
0.0
 11
58.07246398405811
 21
-80.008022580756574
 31
0.0
  0
LINE
  5
547
  8
DATA
  6
CONTINUOUS
 62
     7
 10
54.534189067547182
 20
-80.008022580756673
 30
0.0
 11
60.239035603171779
 21
-80.008022580756673
 31
0.0
  0
LINE
  5
548
  8
DATA
  6
CONTINUOUS
 62
     7
 10
53.234189067547213
 20
-80.008022580756673
 30
0.0
 11
47.529342531922588
 21
-80.008022580756673
 31
0.0
  0
LINE
  5
549
  8
DATA
  6
CONTINUOUS
 62
     7
 10
54.534189067547182
 20
-91.508022580756801
 30
0.0
 11
58.611927767038701
 21
-91.508022580756801
 31
0.0
  0
LINE
  5
54A
  8
DATA
  6
CONTINUOUS
 62
     7
 10
53.234189067547213
 20
-91.508022580756801
 30
0.0
 11
49.15645036805563
 21
-91.508022580756801
 31
0.0
  0
LINE
  5
54B
  8
DATA
  6
CONTINUOUS
 62
     7
 10
53.234189067547213
 20
-80.008022580756673
 30
0.0
 11
47.529342531922588
 21
-80.008022580756673
 31
0.0
  0
LINE
  5
54C
  8
DATA
  6
CONTINUOUS
 62
     7
 10
54.534189067547182
 20
-80.008022580756673
 30
0.0
 11
60.239035603171779
 21
-80.008022580756673
 31
0.0
  0
LINE
  5
54D
  8
DATA
  6
CONTINUOUS
 62
     7
 10
53.234189067547213
 20
-91.508022580756801
 30
0.0
 11
49.156450368055573
 21
-91.508022580756801
 31
0.0
  0
LINE
  5
54E
  8
DATA
  6
CONTINUOUS
 62
     7
 10
54.534189067547182
 20
-91.508022580756801
 30
0.0
 11
58.611927767038772
 21
-91.508022580756801
 31
0.0
  0
ARC
  5
54F
  8
DATA
  6
CONTINUOUS
 62
     7
 10
53.884189067547197
 20
-91.075100648987956
 30
0.0
 40
0.9248994851090245
 50
225.34960338810239
 51
314.65039661189741
  0
LINE
  5
550
  8
DATA
  6
CONTINUOUS
 62
     7
 10
53.234189067547213
 20
-91.733081695486433
 30
0.0
 11
53.234189067547213
 21
-76.508022580756673
 31
0.0
  0
LINE
  5
551
  8
DATA
  6
CONTINUOUS
 62
     7
 10
54.534189067547182
 20
-91.733081695486433
 30
0.0
 11
54.534189067547182
 21
-76.508022580756673
 31
0.0
  0
LINE
  5
552
  8
DATA
  6
CONTINUOUS
 62
     7
 10
83.984189067547163
 20
-75.00802258075673
 30
0.0
 11
83.984189067547163
 21
-76.508022580756673
 31
0.0
  0
LINE
  5
553
  8
DATA
  6
CONTINUOUS
 62
     7
 10
92.784189067547146
 20
-75.000000000103171
 30
0.0
 11
92.784189067547146
 21
-76.508022580756673
 31
0.0
  0
LINE
  5
554
  8
DATA
  6
CONTINUOUS
 62
     7
 10
83.656450368055559
 20
-76.508022580756673
 30
0.0
 11
81.729342531922612
 21
-76.508022580756673
 31
0.0
  0
LINE
  5
555
  8
DATA
  6
CONTINUOUS
 62
     7
 10
81.729342531922612
 20
-76.508022580756673
 30
0.0
 11
82.029342531922623
 21
-80.008022580756673
 31
0.0
  0
LINE
  5
556
  8
DATA
  6
CONTINUOUS
 62
     7
 10
82.029342531922623
 20
-80.008022580756673
 30
0.0
 11
83.656450368055559
 21
-91.508022580756801
 31
0.0
  0
LINE
  5
557
  8
DATA
  6
CONTINUOUS
 62
     7
 10
94.715585436193436
 20
-80.008022580756673
 30
0.0
 11
93.111927767038765
 21
-91.508022580756801
 31
0.0
  0
LINE
  5
558
  8
DATA
  6
CONTINUOUS
 62
     7
 10
93.111927767038765
 20
-76.508022580756673
 30
0.0
 11
83.656450368055559
 21
-76.508022580756673
 31
0.0
  0
LINE
  5
559
  8
DATA
  6
CONTINUOUS
 62
     7
 10
95.039035603171783
 20
-76.508022580756673
 30
0.0
 11
94.739035603171772
 21
-80.008022580756673
 31
0.0
  0
LINE
  5
55A
  8
DATA
  6
CONTINUOUS
 62
     7
 10
93.111927767038765
 20
-76.508022580756673
 30
0.0
 11
95.039035603171783
 21
-76.508022580756673
 31
0.0
  0
LINE
  5
55B
  8
DATA
  6
CONTINUOUS
 62
     7
 10
86.484189067547092
 20
-91.508022580756915
 30
0.0
 11
85.872463984058086
 21
-80.008022580756574
 31
0.0
  0
LINE
  5
55C
  8
DATA
  6
CONTINUOUS
 62
     7
 10
84.784189067547061
 20
-91.508022580756915
 30
0.0
 11
84.172463984058012
 21
-80.008022580756574
 31
0.0
  0
LINE
  5
55D
  8
DATA
  6
CONTINUOUS
 62
     7
 10
90.284189067547146
 20
-91.508022580756915
 30
0.0
 11
90.872463984058129
 21
-80.008022580756574
 31
0.0
  0
LINE
  5
55E
  8
DATA
  6
CONTINUOUS
 62
     7
 10
91.984189067547149
 20
-91.508022580756915
 30
0.0
 11
92.572463984058132
 21
-80.008022580756574
 31
0.0
  0
LINE
  5
55F
  8
DATA
  6
CONTINUOUS
 62
     7
 10
89.034189067547175
 20
-80.008022580756673
 30
0.0
 11
94.739035603171772
 21
-80.008022580756673
 31
0.0
  0
LINE
  5
560
  8
DATA
  6
CONTINUOUS
 62
     7
 10
87.73418906754722
 20
-80.008022580756673
 30
0.0
 11
82.029342531922623
 21
-80.008022580756673
 31
0.0
  0
LINE
  5
561
  8
DATA
  6
CONTINUOUS
 62
     7
 10
89.034189067547175
 20
-91.508022580756801
 30
0.0
 11
93.111927767038722
 21
-91.508022580756801
 31
0.0
  0
LINE
  5
562
  8
DATA
  6
CONTINUOUS
 62
     7
 10
87.73418906754722
 20
-91.508022580756801
 30
0.0
 11
83.65645036805563
 21
-91.508022580756801
 31
0.0
  0
LINE
  5
563
  8
DATA
  6
CONTINUOUS
 62
     7
 10
87.73418906754722
 20
-80.008022580756673
 30
0.0
 11
82.029342531922623
 21
-80.008022580756673
 31
0.0
  0
LINE
  5
564
  8
DATA
  6
CONTINUOUS
 62
     7
 10
89.034189067547175
 20
-80.008022580756673
 30
0.0
 11
94.739035603171772
 21
-80.008022580756673
 31
0.0
  0
LINE
  5
565
  8
DATA
  6
CONTINUOUS
 62
     7
 10
87.73418906754722
 20
-91.508022580756801
 30
0.0
 11
83.656450368055559
 21
-91.508022580756801
 31
0.0
  0
LINE
  5
566
  8
DATA
  6
CONTINUOUS
 62
     7
 10
89.034189067547175
 20
-91.508022580756801
 30
0.0
 11
93.111927767038765
 21
-91.508022580756801
 31
0.0
  0
ARC
  5
567
  8
DATA
  6
CONTINUOUS
 62
     7
 10
88.384189067547183
 20
-91.075100648987956
 30
0.0
 40
0.9248994851090245
 50
225.34960338810239
 51
314.65039661189741
  0
LINE
  5
568
  8
DATA
  6
CONTINUOUS
 62
     7
 10
87.73418906754722
 20
-91.733081695486433
 30
0.0
 11
87.73418906754722
 21
-76.508022580756673
 31
0.0
  0
LINE
  5
569
  8
DATA
  6
CONTINUOUS
 62
     7
 10
89.034189067547175
 20
-91.733081695486433
 30
0.0
 11
89.034189067547175
 21
-76.508022580756673
 31
0.0
  0
LINE
  5
56A
  8
DATA
  6
CONTINUOUS
 62
     7
 10
111.1441890675471
 20
-75.00802258075673
 30
0.0
 11
111.1441890675471
 21
-76.508022580756673
 31
0.0
  0
LINE
  5
56B
  8
DATA
  6
CONTINUOUS
 62
     7
 10
119.9441890675471
 20
-75.000000000103171
 30
0.0
 11
119.9441890675471
 21
-76.508022580756673
 31
0.0
  0
LINE
  5
56C
  8
DATA
  6
CONTINUOUS
 62
     7
 10
110.8164503680555
 20
-76.508022580756673
 30
0.0
 11
108.88934253192259
 21
-76.508022580756673
 31
0.0
  0
LINE
  5
56D
  8
DATA
  6
CONTINUOUS
 62
     7
 10
108.88934253192259
 20
-76.508022580756673
 30
0.0
 11
109.18934253192261
 21
-80.008022580756673
 31
0.0
  0
LINE
  5
56E
  8
DATA
  6
CONTINUOUS
 62
     7
 10
109.18934253192261
 20
-80.008022580756673
 30
0.0
 11
110.8164503680555
 21
-91.508022580756801
 31
0.0
  0
LINE
  5
56F
  8
DATA
  6
CONTINUOUS
 62
     7
 10
121.8755854361934
 20
-80.008022580756673
 30
0.0
 11
120.2719277670387
 21
-91.508022580756801
 31
0.0
  0
LINE
  5
570
  8
DATA
  6
CONTINUOUS
 62
     7
 10
120.2719277670387
 20
-76.508022580756673
 30
0.0
 11
110.8164503680555
 21
-76.508022580756673
 31
0.0
  0
LINE
  5
571
  8
DATA
  6
CONTINUOUS
 62
     7
 10
122.19903560317179
 20
-76.508022580756673
 30
0.0
 11
121.8990356031717
 21
-80.008022580756673
 31
0.0
  0
LINE
  5
572
  8
DATA
  6
CONTINUOUS
 62
     7
 10
120.2719277670387
 20
-76.508022580756673
 30
0.0
 11
122.19903560317179
 21
-76.508022580756673
 31
0.0
  0
LINE
  5
573
  8
DATA
  6
CONTINUOUS
 62
     7
 10
113.6441890675471
 20
-91.508022580756915
 30
0.0
 11
113.032463984058
 21
-80.008022580756574
 31
0.0
  0
LINE
  5
574
  8
DATA
  6
CONTINUOUS
 62
     7
 10
111.944189067547
 20
-91.508022580756915
 30
0.0
 11
111.33246398405799
 21
-80.008022580756574
 31
0.0
  0
LINE
  5
575
  8
DATA
  6
CONTINUOUS
 62
     7
 10
117.4441890675471
 20
-91.508022580756915
 30
0.0
 11
118.0324639840581
 21
-80.008022580756574
 31
0.0
  0
LINE
  5
576
  8
DATA
  6
CONTINUOUS
 62
     7
 10
119.1441890675471
 20
-91.508022580756915
 30
0.0
 11
119.7324639840581
 21
-80.008022580756574
 31
0.0
  0
LINE
  5
577
  8
DATA
  6
CONTINUOUS
 62
     7
 10
116.1941890675471
 20
-80.008022580756673
 30
0.0
 11
121.8990356031717
 21
-80.008022580756673
 31
0.0
  0
LINE
  5
578
  8
DATA
  6
CONTINUOUS
 62
     7
 10
114.8941890675472
 20
-80.008022580756673
 30
0.0
 11
109.18934253192261
 21
-80.008022580756673
 31
0.0
  0
LINE
  5
579
  8
DATA
  6
CONTINUOUS
 62
     7
 10
116.1941890675471
 20
-91.508022580756801
 30
0.0
 11
120.2719277670387
 21
-91.508022580756801
 31
0.0
  0
LINE
  5
57A
  8
DATA
  6
CONTINUOUS
 62
     7
 10
114.8941890675472
 20
-91.508022580756801
 30
0.0
 11
110.8164503680556
 21
-91.508022580756801
 31
0.0
  0
LINE
  5
57B
  8
DATA
  6
CONTINUOUS
 62
     7
 10
114.8941890675472
 20
-80.008022580756673
 30
0.0
 11
109.18934253192261
 21
-80.008022580756673
 31
0.0
  0
LINE
  5
57C
  8
DATA
  6
CONTINUOUS
 62
     7
 10
116.1941890675471
 20
-80.008022580756673
 30
0.0
 11
121.8990356031717
 21
-80.008022580756673
 31
0.0
  0
LINE
  5
57D
  8
DATA
  6
CONTINUOUS
 62
     7
 10
114.8941890675472
 20
-91.508022580756801
 30
0.0
 11
110.8164503680555
 21
-91.508022580756801
 31
0.0
  0
LINE
  5
57E
  8
DATA
  6
CONTINUOUS
 62
     7
 10
116.1941890675471
 20
-91.508022580756801
 30
0.0
 11
120.2719277670387
 21
-91.508022580756801
 31
0.0
  0
ARC
  5
57F
  8
DATA
  6
CONTINUOUS
 62
     7
 10
115.54418906754719
 20
-91.075100648987956
 30
0.0
 40
0.9248994851090245
 50
225.34960338810239
 51
314.65039661189741
  0
LINE
  5
580
  8
DATA
  6
CONTINUOUS
 62
     7
 10
114.8941890675472
 20
-91.733081695486433
 30
0.0
 11
114.8941890675472
 21
-76.508022580756673
 31
0.0
  0
LINE
  5
581
  8
DATA
  6
CONTINUOUS
 62
     7
 10
116.1941890675471
 20
-91.733081695486433
 30
0.0
 11
116.1941890675471
 21
-76.508022580756673
 31
0.0
  0
LINE
  5
582
  8
DATA
  6
CONTINUOUS
 62
     7
 10
136.6441890675471
 20
-75.00802258075673
 30
0.0
 11
136.6441890675471
 21
-76.508022580756673
 31
0.0
  0
LINE
  5
583
  8
DATA
  6
CONTINUOUS
 62
     7
 10
145.44418906754709
 20
-75.000000000103171
 30
0.0
 11
145.44418906754709
 21
-76.508022580756673
 31
0.0
  0
LINE
  5
584
  8
DATA
  6
CONTINUOUS
 62
     7
 10
136.31645036805551
 20
-76.508022580756673
 30
0.0
 11
134.38934253192261
 21
-76.508022580756673
 31
0.0
  0
LINE
  5
585
  8
DATA
  6
CONTINUOUS
 62
     7
 10
134.38934253192261
 20
-76.508022580756673
 30
0.0
 11
134.68934253192259
 21
-80.008022580756673
 31
0.0
  0
LINE
  5
586
  8
DATA
  6
CONTINUOUS
 62
     7
 10
134.68934253192259
 20
-80.008022580756673
 30
0.0
 11
136.31645036805551
 21
-91.508022580756801
 31
0.0
  0
LINE
  5
587
  8
DATA
  6
CONTINUOUS
 62
     7
 10
147.3755854361934
 20
-80.008022580756673
 30
0.0
 11
145.7719277670387
 21
-91.508022580756801
 31
0.0
  0
LINE
  5
588
  8
DATA
  6
CONTINUOUS
 62
     7
 10
145.7719277670387
 20
-76.508022580756673
 30
0.0
 11
136.31645036805551
 21
-76.508022580756673
 31
0.0
  0
LINE
  5
589
  8
DATA
  6
CONTINUOUS
 62
     7
 10
147.69903560317181
 20
-76.508022580756673
 30
0.0
 11
147.39903560317171
 21
-80.008022580756673
 31
0.0
  0
LINE
  5
58A
  8
DATA
  6
CONTINUOUS
 62
     7
 10
145.7719277670387
 20
-76.508022580756673
 30
0.0
 11
147.69903560317181
 21
-76.508022580756673
 31
0.0
  0
LINE
  5
58B
  8
DATA
  6
CONTINUOUS
 62
     7
 10
139.1441890675471
 20
-91.508022580756915
 30
0.0
 11
138.53246398405801
 21
-80.008022580756574
 31
0.0
  0
LINE
  5
58C
  8
DATA
  6
CONTINUOUS
 62
     7
 10
137.444189067547
 20
-91.508022580756915
 30
0.0
 11
136.83246398405799
 21
-80.008022580756574
 31
0.0
  0
LINE
  5
58D
  8
DATA
  6
CONTINUOUS
 62
     7
 10
142.94418906754709
 20
-91.508022580756915
 30
0.0
 11
143.5324639840581
 21
-80.008022580756574
 31
0.0
  0
LINE
  5
58E
  8
DATA
  6
CONTINUOUS
 62
     7
 10
144.6441890675471
 20
-91.508022580756915
 30
0.0
 11
145.23246398405811
 21
-80.008022580756574
 31
0.0
  0
LINE
  5
58F
  8
DATA
  6
CONTINUOUS
 62
     7
 10
141.69418906754709
 20
-80.008022580756673
 30
0.0
 11
147.39903560317171
 21
-80.008022580756673
 31
0.0
  0
LINE
  5
590
  8
DATA
  6
CONTINUOUS
 62
     7
 10
140.39418906754719
 20
-80.008022580756673
 30
0.0
 11
134.68934253192259
 21
-80.008022580756673
 31
0.0
  0
LINE
  5
591
  8
DATA
  6
CONTINUOUS
 62
     7
 10
141.69418906754709
 20
-91.508022580756801
 30
0.0
 11
145.7719277670387
 21
-91.508022580756801
 31
0.0
  0
LINE
  5
592
  8
DATA
  6
CONTINUOUS
 62
     7
 10
140.39418906754719
 20
-91.508022580756801
 30
0.0
 11
136.3164503680556
 21
-91.508022580756801
 31
0.0
  0
LINE
  5
593
  8
DATA
  6
CONTINUOUS
 62
     7
 10
140.39418906754719
 20
-80.008022580756673
 30
0.0
 11
134.68934253192259
 21
-80.008022580756673
 31
0.0
  0
LINE
  5
594
  8
DATA
  6
CONTINUOUS
 62
     7
 10
141.69418906754709
 20
-80.008022580756673
 30
0.0
 11
147.39903560317171
 21
-80.008022580756673
 31
0.0
  0
LINE
  5
595
  8
DATA
  6
CONTINUOUS
 62
     7
 10
140.39418906754719
 20
-91.508022580756801
 30
0.0
 11
136.31645036805551
 21
-91.508022580756801
 31
0.0
  0
LINE
  5
596
  8
DATA
  6
CONTINUOUS
 62
     7
 10
141.69418906754709
 20
-91.508022580756801
 30
0.0
 11
145.7719277670387
 21
-91.508022580756801
 31
0.0
  0
ARC
  5
597
  8
DATA
  6
CONTINUOUS
 62
     7
 10
141.04418906754719
 20
-91.075100648987956
 30
0.0
 40
0.9248994851090245
 50
225.34960338810239
 51
314.65039661189741
  0
LINE
  5
598
  8
DATA
  6
CONTINUOUS
 62
     7
 10
140.39418906754719
 20
-91.733081695486433
 30
0.0
 11
140.39418906754719
 21
-76.508022580756673
 31
0.0
  0
LINE
  5
599
  8
DATA
  6
CONTINUOUS
 62
     7
 10
141.69418906754709
 20
-91.733081695486433
 30
0.0
 11
141.69418906754709
 21
-76.508022580756673
 31
0.0
  0
LINE
  5
59A
  8
DATA
  6
CONTINUOUS
 62
     7
 10
158.0841890675471
 20
-75.00802258075673
 30
0.0
 11
158.0841890675471
 21
-76.508022580756673
 31
0.0
  0
LINE
  5
59B
  8
DATA
  6
CONTINUOUS
 62
     7
 10
166.88418906754711
 20
-75.000000000103171
 30
0.0
 11
166.88418906754711
 21
-76.508022580756673
 31
0.0
  0
LINE
  5
59C
  8
DATA
  6
CONTINUOUS
 62
     7
 10
157.75645036805551
 20
-76.508022580756673
 30
0.0
 11
155.82934253192241
 21
-76.508022580756673
 31
0.0
  0
LINE
  5
59D
  8
DATA
  6
CONTINUOUS
 62
     7
 10
155.82934253192241
 20
-76.508022580756673
 30
0.0
 11
156.12934253192259
 21
-80.008022580756673
 31
0.0
  0
LINE
  5
59E
  8
DATA
  6
CONTINUOUS
 62
     7
 10
156.12934253192259
 20
-80.008022580756673
 30
0.0
 11
157.75645036805551
 21
-91.508022580756801
 31
0.0
  0
LINE
  5
59F
  8
DATA
  6
CONTINUOUS
 62
     7
 10
168.8155854361934
 20
-80.008022580756673
 30
0.0
 11
167.2119277670387
 21
-91.508022580756801
 31
0.0
  0
LINE
  5
5A0
  8
DATA
  6
CONTINUOUS
 62
     7
 10
167.2119277670387
 20
-76.508022580756673
 30
0.0
 11
157.75645036805551
 21
-76.508022580756673
 31
0.0
  0
LINE
  5
5A1
  8
DATA
  6
CONTINUOUS
 62
     7
 10
169.13903560317181
 20
-76.508022580756673
 30
0.0
 11
168.83903560317171
 21
-80.008022580756673
 31
0.0
  0
LINE
  5
5A2
  8
DATA
  6
CONTINUOUS
 62
     7
 10
167.2119277670387
 20
-76.508022580756673
 30
0.0
 11
169.13903560317181
 21
-76.508022580756673
 31
0.0
  0
LINE
  5
5A3
  8
DATA
  6
CONTINUOUS
 62
     7
 10
160.5841890675471
 20
-91.508022580756915
 30
0.0
 11
159.97246398405809
 21
-80.008022580756574
 31
0.0
  0
LINE
  5
5A4
  8
DATA
  6
CONTINUOUS
 62
     7
 10
158.884189067547
 20
-91.508022580756915
 30
0.0
 11
158.27246398405799
 21
-80.008022580756574
 31
0.0
  0
LINE
  5
5A5
  8
DATA
  6
CONTINUOUS
 62
     7
 10
164.38418906754711
 20
-91.508022580756915
 30
0.0
 11
164.97246398405809
 21
-80.008022580756574
 31
0.0
  0
LINE
  5
5A6
  8
DATA
  6
CONTINUOUS
 62
     7
 10
166.0841890675471
 20
-91.508022580756915
 30
0.0
 11
166.67246398405811
 21
-80.008022580756574
 31
0.0
  0
LINE
  5
5A7
  8
DATA
  6
CONTINUOUS
 62
     7
 10
163.13418906754711
 20
-80.008022580756673
 30
0.0
 11
168.83903560317171
 21
-80.008022580756673
 31
0.0
  0
LINE
  5
5A8
  8
DATA
  6
CONTINUOUS
 62
     7
 10
161.83418906754719
 20
-80.008022580756673
 30
0.0
 11
156.12934253192259
 21
-80.008022580756673
 31
0.0
  0
LINE
  5
5A9
  8
DATA
  6
CONTINUOUS
 62
     7
 10
163.13418906754711
 20
-91.508022580756801
 30
0.0
 11
167.2119277670387
 21
-91.508022580756801
 31
0.0
  0
LINE
  5
5AA
  8
DATA
  6
CONTINUOUS
 62
     7
 10
161.83418906754719
 20
-91.508022580756801
 30
0.0
 11
157.7564503680556
 21
-91.508022580756801
 31
0.0
  0
LINE
  5
5AB
  8
DATA
  6
CONTINUOUS
 62
     7
 10
161.83418906754719
 20
-80.008022580756673
 30
0.0
 11
156.12934253192259
 21
-80.008022580756673
 31
0.0
  0
LINE
  5
5AC
  8
DATA
  6
CONTINUOUS
 62
     7
 10
163.13418906754711
 20
-80.008022580756673
 30
0.0
 11
168.83903560317171
 21
-80.008022580756673
 31
0.0
  0
LINE
  5
5AD
  8
DATA
  6
CONTINUOUS
 62
     7
 10
161.83418906754719
 20
-91.508022580756801
 30
0.0
 11
157.75645036805551
 21
-91.508022580756801
 31
0.0
  0
LINE
  5
5AE
  8
DATA
  6
CONTINUOUS
 62
     7
 10
163.13418906754711
 20
-91.508022580756801
 30
0.0
 11
167.2119277670387
 21
-91.508022580756801
 31
0.0
  0
ARC
  5
5AF
  8
DATA
  6
CONTINUOUS
 62
     7
 10
162.48418906754719
 20
-91.075100648987956
 30
0.0
 40
0.9248994851090245
 50
225.34960338810239
 51
314.65039661189741
  0
LINE
  5
5B0
  8
DATA
  6
CONTINUOUS
 62
     7
 10
161.83418906754719
 20
-91.733081695486433
 30
0.0
 11
161.83418906754719
 21
-76.508022580756673
 31
0.0
  0
LINE
  5
5B1
  8
DATA
  6
CONTINUOUS
 62
     7
 10
163.13418906754711
 20
-91.733081695486433
 30
0.0
 11
163.13418906754711
 21
-76.508022580756673
 31
0.0
  0
LINE
  5
5B2
  8
DATA
  6
CONTINUOUS
 62
     7
 10
196.75418906754709
 20
-75.00802258075673
 30
0.0
 11
196.75418906754709
 21
-76.508022580756673
 31
0.0
  0
LINE
  5
5B3
  8
DATA
  6
CONTINUOUS
 62
     7
 10
205.55418906754721
 20
-75.000000000103171
 30
0.0
 11
205.55418906754721
 21
-76.508022580756673
 31
0.0
  0
LINE
  5
5B4
  8
DATA
  6
CONTINUOUS
 62
     7
 10
196.42645036805561
 20
-76.508022580756673
 30
0.0
 11
194.49934253192239
 21
-76.508022580756673
 31
0.0
  0
LINE
  5
5B5
  8
DATA
  6
CONTINUOUS
 62
     7
 10
194.49934253192239
 20
-76.508022580756673
 30
0.0
 11
194.7993425319226
 21
-80.008022580756673
 31
0.0
  0
LINE
  5
5B6
  8
DATA
  6
CONTINUOUS
 62
     7
 10
194.7993425319226
 20
-80.008022580756673
 30
0.0
 11
196.42645036805561
 21
-91.508022580756801
 31
0.0
  0
LINE
  5
5B7
  8
DATA
  6
CONTINUOUS
 62
     7
 10
207.48558543619339
 20
-80.008022580756673
 30
0.0
 11
205.8819277670388
 21
-91.508022580756801
 31
0.0
  0
LINE
  5
5B8
  8
DATA
  6
CONTINUOUS
 62
     7
 10
205.8819277670388
 20
-76.508022580756673
 30
0.0
 11
196.42645036805561
 21
-76.508022580756673
 31
0.0
  0
LINE
  5
5B9
  8
DATA
  6
CONTINUOUS
 62
     7
 10
207.80903560317179
 20
-76.508022580756673
 30
0.0
 11
207.5090356031717
 21
-80.008022580756673
 31
0.0
  0
LINE
  5
5BA
  8
DATA
  6
CONTINUOUS
 62
     7
 10
205.8819277670388
 20
-76.508022580756673
 30
0.0
 11
207.80903560317179
 21
-76.508022580756673
 31
0.0
  0
LINE
  5
5BB
  8
DATA
  6
CONTINUOUS
 62
     7
 10
199.25418906754709
 20
-91.508022580756915
 30
0.0
 11
198.642463984058
 21
-80.008022580756574
 31
0.0
  0
LINE
  5
5BC
  8
DATA
  6
CONTINUOUS
 62
     7
 10
197.5541890675469
 20
-91.508022580756915
 30
0.0
 11
196.94246398405801
 21
-80.008022580756574
 31
0.0
  0
LINE
  5
5BD
  8
DATA
  6
CONTINUOUS
 62
     7
 10
203.0541890675471
 20
-91.508022580756915
 30
0.0
 11
203.64246398405811
 21
-80.008022580756574
 31
0.0
  0
LINE
  5
5BE
  8
DATA
  6
CONTINUOUS
 62
     7
 10
204.75418906754709
 20
-91.508022580756915
 30
0.0
 11
205.3424639840581
 21
-80.008022580756574
 31
0.0
  0
LINE
  5
5BF
  8
DATA
  6
CONTINUOUS
 62
     7
 10
201.80418906754721
 20
-80.008022580756673
 30
0.0
 11
207.5090356031717
 21
-80.008022580756673
 31
0.0
  0
LINE
  5
5C0
  8
DATA
  6
CONTINUOUS
 62
     7
 10
200.5041890675472
 20
-80.008022580756673
 30
0.0
 11
194.7993425319226
 21
-80.008022580756673
 31
0.0
  0
LINE
  5
5C1
  8
DATA
  6
CONTINUOUS
 62
     7
 10
201.80418906754721
 20
-91.508022580756801
 30
0.0
 11
205.88192776703869
 21
-91.508022580756801
 31
0.0
  0
LINE
  5
5C2
  8
DATA
  6
CONTINUOUS
 62
     7
 10
200.5041890675472
 20
-91.508022580756801
 30
0.0
 11
196.42645036805561
 21
-91.508022580756801
 31
0.0
  0
LINE
  5
5C3
  8
DATA
  6
CONTINUOUS
 62
     7
 10
200.5041890675472
 20
-80.008022580756673
 30
0.0
 11
194.7993425319226
 21
-80.008022580756673
 31
0.0
  0
LINE
  5
5C4
  8
DATA
  6
CONTINUOUS
 62
     7
 10
201.80418906754721
 20
-80.008022580756673
 30
0.0
 11
207.5090356031717
 21
-80.008022580756673
 31
0.0
  0
LINE
  5
5C5
  8
DATA
  6
CONTINUOUS
 62
     7
 10
200.5041890675472
 20
-91.508022580756801
 30
0.0
 11
196.42645036805561
 21
-91.508022580756801
 31
0.0
  0
LINE
  5
5C6
  8
DATA
  6
CONTINUOUS
 62
     7
 10
201.80418906754721
 20
-91.508022580756801
 30
0.0
 11
205.8819277670388
 21
-91.508022580756801
 31
0.0
  0
ARC
  5
5C7
  8
DATA
  6
CONTINUOUS
 62
     7
 10
201.15418906754721
 20
-91.075100648987956
 30
0.0
 40
0.9248994851090245
 50
225.34960338810239
 51
314.65039661189741
  0
LINE
  5
5C8
  8
DATA
  6
CONTINUOUS
 62
     7
 10
200.5041890675472
 20
-91.733081695486433
 30
0.0
 11
200.5041890675472
 21
-76.508022580756673
 31
0.0
  0
LINE
  5
5C9
  8
DATA
  6
CONTINUOUS
 62
     7
 10
201.80418906754721
 20
-91.733081695486433
 30
0.0
 11
201.80418906754721
 21
-76.508022580756673
 31
0.0
  0
LINE
  5
5CA
  8
DATA
  6
CONTINUOUS
 62
     7
 10
-132.50000000000779
 20
-79.000000000103171
 30
0.0
 11
-132.50000000000779
 21
-75.000000000103171
 31
0.0
  0
LINE
  5
5CB
  8
DATA
  6
CONTINUOUS
 62
     7
 10
-127.5000000000078
 20
-79.000000000103171
 30
0.0
 11
-127.5000000000078
 21
-75.000000000103171
 31
0.0
  0
LINE
  5
5CC
  8
DATA
  6
CONTINUOUS
 62
     7
 10
-114.5000000000078
 20
-79.000000000103171
 30
0.0
 11
-114.5000000000078
 21
-75.000000000103171
 31
0.0
  0
LINE
  5
5CD
  8
DATA
  6
CONTINUOUS
 62
     7
 10
-109.5000000000078
 20
-79.000000000103171
 30
0.0
 11
-109.5000000000078
 21
-75.000000000103171
 31
0.0
  0
LINE
  5
5CE
  8
DATA
  6
CONTINUOUS
 62
     7
 10
-96.500000000007873
 20
-79.000000000103171
 30
0.0
 11
-96.500000000007873
 21
-75.000000000103171
 31
0.0
  0
LINE
  5
5CF
  8
DATA
  6
CONTINUOUS
 62
     7
 10
-91.500000000007844
 20
-79.000000000103171
 30
0.0
 11
-91.500000000007844
 21
-75.000000000103171
 31
0.0
  0
LINE
  5
5D0
  8
DATA
  6
CONTINUOUS
 62
     7
 10
-132.50000000000779
 20
-79.000000000103171
 30
0.0
 11
-127.5000000000078
 21
-79.000000000103171
 31
0.0
  0
LINE
  5
5D1
  8
DATA
  6
CONTINUOUS
 62
     7
 10
-114.5000000000078
 20
-79.000000000103171
 30
0.0
 11
-109.5000000000078
 21
-79.000000000103171
 31
0.0
  0
LINE
  5
5D2
  8
DATA
  6
CONTINUOUS
 62
     7
 10
-96.500000000007873
 20
-79.000000000103171
 30
0.0
 11
-91.500000000007844
 21
-79.000000000103171
 31
0.0
  0
ARC
  5
5D3
  8
DATA
  6
CONTINUOUS
 62
     7
 10
-151.25000000000779
 20
-74.588328661351056
 30
0.0
 40
1.4499999999999791
 50
196.49378083933061
 51
343.50621916066939
  0
ARC
  5
5D4
  8
DATA
  6
CONTINUOUS
 62
     7
 10
-156.25000000000779
 20
-74.588328661351056
 30
0.0
 40
1.4500000000000051
 50
196.4937808393303
 51
343.50621916066939
  0
ARC
  5
5D5
  8
DATA
  6
CONTINUOUS
 62
     7
 10
-146.25000000000779
 20
-74.588328661351056
 30
0.0
 40
1.4499999999999891
 50
196.4937808392765
 51
343.50621916072339
  0
ARC
  5
5D6
  8
DATA
  6
CONTINUOUS
 62
     7
 10
-141.25000000000779
 20
-74.588328661351056
 30
0.0
 40
1.4499999999999971
 50
196.49378083932919
 51
343.50621916067081
  0
ARC
  5
5D7
  8
DATA
  6
CONTINUOUS
 62
     7
 10
-123.0000000000078
 20
-74.973926584594011
 30
0.0
 40
1.4499999999999891
 50
181.03032909244919
 51
358.96967090755078
  0
ARC
  5
5D8
  8
DATA
  6
CONTINUOUS
 62
     7
 10
-105.0000000000078
 20
-74.973926584594011
 30
0.0
 40
1.4499999999999891
 50
181.03032909244811
 51
358.9696709075518
  0
ARC
  5
5D9
  8
DATA
  6
CONTINUOUS
 62
     7
 10
-87.000000000007873
 20
-74.973926584594011
 30
0.0
 40
1.4499999999999891
 50
181.03032909244811
 51
358.9696709075518
  0
ARC
  5
5DA
  8
DATA
  6
CONTINUOUS
 62
     7
 10
-23.250000000007859
 20
-74.588328661351056
 30
0.0
 40
1.4499999999999811
 50
196.4937808392896
 51
343.50621916070929
  0
ARC
  5
5DB
  8
DATA
  6
CONTINUOUS
 62
     7
 10
-28.250000000007859
 20
-74.588328661351056
 30
0.0
 40
1.449999999999984
 50
196.4937808393037
 51
343.50621916069639
  0
ARC
  5
5DC
  8
DATA
  6
CONTINUOUS
 62
     7
 10
-18.250000000007851
 20
-74.588328661351056
 30
0.0
 40
1.449999999999984
 50
196.4937808393037
 51
343.50621916069639
  0
ARC
  5
5DD
  8
DATA
  6
CONTINUOUS
 62
     7
 10
-13.25000000000786
 20
-74.588328661351056
 30
0.0
 40
1.449999999999984
 50
196.4937808393037
 51
343.50621916069662
  0
ARC
  5
5DE
  8
DATA
  6
CONTINUOUS
 62
     7
 10
-8.2500000000078568
 20
-74.588328661351056
 30
0.0
 40
1.4499999999999811
 50
196.4937808392896
 51
343.50621916071037
  0
ARC
  5
5DF
  8
DATA
  6
CONTINUOUS
 62
     7
 10
-3.2500000000078582
 20
-74.588328661351056
 30
0.0
 40
1.4499999999999891
 50
196.49378083929639
 51
343.50621916070349
  0
ARC
  5
5E0
  8
DATA
  6
CONTINUOUS
 62
     7
 10
1.7499999999921401
 20
-74.588328661351056
 30
0.0
 40
1.4499999999999811
 50
196.4937808392896
 51
343.50621916071037
  0
ARC
  5
5E1
  8
DATA
  6
CONTINUOUS
 62
     7
 10
6.7499999999921378
 20
-74.588328661351056
 30
0.0
 40
1.4499999999999811
 50
196.4937808392896
 51
343.50621916071037
  0
ARC
  5
5E2
  8
DATA
  6
CONTINUOUS
 62
     7
 10
178.96771231101121
 20
-74.588328661351056
 30
0.0
 40
1.4499999999999811
 50
196.4937808392896
 51
343.50621916071037
  0
ARC
  5
5E3
  8
DATA
  6
CONTINUOUS
 62
     7
 10
183.9677123110113
 20
-74.588328661351056
 30
0.0
 40
1.4499999999999811
 50
196.4937808392896
 51
343.50621916071037
  0
ARC
  5
5E4
  8
DATA
  6
CONTINUOUS
 62
     7
 10
215.78940734270489
 20
-74.588328661351056
 30
0.0
 40
1.4499999999999971
 50
196.4937808392836
 51
343.50621916071651
  0
LINE
  5
5E5
  8
DATA
  6
CONTINUOUS
 62
     7
 10
15.200558169180409
 20
-78.000000000103171
 30
0.0
 11
17.80055816918043
 21
-78.000000000103171
 31
0.0
  0
LINE
  5
5E6
  8
DATA
  6
CONTINUOUS
 62
     7
 10
13.700558169180409
 20
-76.500000000103171
 30
0.0
 11
13.700558169180409
 21
-75.000000000103171
 31
0.0
  0
LINE
  5
5E7
  8
DATA
  6
CONTINUOUS
 62
     7
 10
19.30055816918043
 20
-76.500000000103171
 30
0.0
 11
19.30055816918043
 21
-75.000000000103171
 31
0.0
  0
ARC
  5
5E8
  8
DATA
  6
CONTINUOUS
 62
     7
 10
15.200558169180409
 20
-76.500000000103171
 30
0.0
 40
1.5
 50
180.0
 51
270.0
  0
ARC
  5
5E9
  8
DATA
  6
CONTINUOUS
 62
     7
 10
17.80055816918043
 20
-76.500000000103171
 30
0.0
 40
1.5
 50
270.0
 51
0.0
  0
LINE
  5
5EA
  8
DATA
  6
CONTINUOUS
 62
     7
 10
-128.02154251066381
 20
238.0061643223286
 30
0.0
 11
-128.02154251066381
 21
210.00616432232869
 31
0.0
  0
ARC
  5
5EB
  8
DATA
  6
CONTINUOUS
 62
     7
 10
-131.02154251066381
 20
238.0061643223286
 30
0.0
 40
3.0
 50
0.0
 51
90.0
  0
ARC
  5
5EC
  8
DATA
  6
CONTINUOUS
 62
     7
 10
-131.02154251066381
 20
210.00616432232869
 30
0.0
 40
3.0
 50
270.0
 51
0.0
  0
LINE
  5
5ED
  8
DATA
  6
CONTINUOUS
 62
     7
 10
-131.02154251066381
 20
241.0061643223286
 30
0.0
 11
-179.02154251066381
 21
241.0061643223286
 31
0.0
  0
LINE
  5
5EE
  8
DATA
  6
CONTINUOUS
 62
     7
 10
-131.02154251066381
 20
207.00616432232869
 30
0.0
 11
-179.02154251066381
 21
207.00616432232869
 31
0.0
  0
TEXT
  5
5EF
  8
DATA
 62
     7
 10
-160.08680911517169
 20
239.7089987582616
 30
0.0
 40
2.462499999999999
  1
MIC INPUT
 50
180.0
 41
0.7
 11
-160.08680911517169
 21
237.24649875826159
 31
0.0
 73
     3
  0
LINE
  5
5F0
  8
DATA
  6
CONTINUOUS
 62
     7
 10
-125.52154251066381
 20
238.0061643223286
 30
0.0
 11
-125.52154251066381
 21
210.00616432232869
 31
0.0
  0
LINE
  5
5F1
  8
DATA
  6
CONTINUOUS
 62
     7
 10
-102.52154251066381
 20
238.0061643223286
 30
0.0
 11
-102.52154251066381
 21
210.00616432232869
 31
0.0
  0
LINE
  5
5F2
  8
DATA
  6
CONTINUOUS
 62
     7
 10
-100.02154251066381
 20
238.0061643223286
 30
0.0
 11
-100.02154251066381
 21
210.00616432232869
 31
0.0
  0
LINE
  5
5F3
  8
DATA
  6
CONTINUOUS
 62
     7
 10
-77.021542510663821
 20
238.0061643223286
 30
0.0
 11
-77.021542510663821
 21
210.00616432232869
 31
0.0
  0
LINE
  5
5F4
  8
DATA
  6
CONTINUOUS
 62
     7
 10
-122.52154251066381
 20
241.0061643223286
 30
0.0
 11
-105.52154251066381
 21
241.0061643223286
 31
0.0
  0
LINE
  5
5F5
  8
DATA
  6
CONTINUOUS
 62
     7
 10
-122.52154251066381
 20
207.00616432232869
 30
0.0
 11
-105.52154251066381
 21
207.00616432232869
 31
0.0
  0
ARC
  5
5F6
  8
DATA
  6
CONTINUOUS
 62
     7
 10
-122.52154251066381
 20
238.0061643223286
 30
0.0
 40
3.0
 50
90.0
 51
180.0
  0
ARC
  5
5F7
  8
DATA
  6
CONTINUOUS
 62
     7
 10
-105.52154251066381
 20
238.0061643223286
 30
0.0
 40
3.0
 50
0.0
 51
90.0
  0
ARC
  5
5F8
  8
DATA
  6
CONTINUOUS
 62
     7
 10
-122.52154251066381
 20
210.00616432232869
 30
0.0
 40
3.0
 50
180.0
 51
270.0
  0
ARC
  5
5F9
  8
DATA
  6
CONTINUOUS
 62
     7
 10
-105.52154251066381
 20
210.00616432232869
 30
0.0
 40
3.0
 50
270.0
 51
0.0
  0
LINE
  5
5FA
  8
DATA
  6
CONTINUOUS
 62
     7
 10
-97.021542510663821
 20
241.0061643223286
 30
0.0
 11
-80.021542510663821
 21
241.0061643223286
 31
0.0
  0
LINE
  5
5FB
  8
DATA
  6
CONTINUOUS
 62
     7
 10
-97.021542510663821
 20
207.00616432232869
 30
0.0
 11
-80.021542510663821
 21
207.00616432232869
 31
0.0
  0
ARC
  5
5FC
  8
DATA
  6
CONTINUOUS
 62
     7
 10
-80.021542510663821
 20
238.0061643223286
 30
0.0
 40
3.0
 50
0.0
 51
90.0
  0
ARC
  5
5FD
  8
DATA
  6
CONTINUOUS
 62
     7
 10
-97.021542510663821
 20
238.0061643223286
 30
0.0
 40
3.0
 50
90.0
 51
180.0
  0
ARC
  5
5FE
  8
DATA
  6
CONTINUOUS
 62
     7
 10
-97.021542510663821
 20
210.00616432232869
 30
0.0
 40
3.0
 50
180.0
 51
270.0
  0
ARC
  5
5FF
  8
DATA
  6
CONTINUOUS
 62
     7
 10
-80.021542510663821
 20
210.00616432232869
 30
0.0
 40
3.0
 50
270.0
 51
0.0
  0
CIRCLE
  5
600
  8
DATA
  6
CONTINUOUS
 62
     7
 10
-114.02154251066381
 20
231.00616432232869
 30
0.0
 40
4.5
  0
CIRCLE
  5
601
  8
DATA
  6
CONTINUOUS
 62
     7
 10
-114.02154251066381
 20
231.00616432232869
 30
0.0
 40
3.125
  0
POLYLINE
  5
602
  8
DATA
  6
CONTINUOUS
 62
     7
 66
     1
 10
0.0
 20
0.0
 30
0.0
 70
     1
  0
VERTEX
  5
ADC
  8
DATA
  6
CONTINUOUS
 62
     7
 10
-118.351669529586
 20
238.50616432232869
 30
0.0
  0
VERTEX
  5
ADD
  8
DATA
  6
CONTINUOUS
 62
     7
 10
-122.6817965485083
 20
231.00616432232869
 30
0.0
  0
VERTEX
  5
ADE
  8
DATA
  6
CONTINUOUS
 62
     7
 10
-118.3516695295861
 20
223.50616432232869
 30
0.0
  0
VERTEX
  5
ADF
  8
DATA
  6
CONTINUOUS
 62
     7
 10
-109.69141549174169
 20
223.5061643223286
 30
0.0
  0
VERTEX
  5
AE0
  8
DATA
  6
CONTINUOUS
 62
     7
 10
-105.3612884728195
 20
231.0061643223286
 30
0.0
  0
VERTEX
  5
AE1
  8
DATA
  6
CONTINUOUS
 62
     7
 10
-109.69141549174169
 20
238.5061643223286
 30
0.0
  0
SEQEND
  5
AE2
  8
DATA
  6
CONTINUOUS
 62
     7
  0
CIRCLE
  5
60B
  8
DATA
  6
CONTINUOUS
 62
     7
 10
-88.521542510663849
 20
231.00616432232869
 30
0.0
 40
4.5
  0
CIRCLE
  5
60C
  8
DATA
  6
CONTINUOUS
 62
     7
 10
-88.521542510663849
 20
231.00616432232869
 30
0.0
 40
3.125
  0
POLYLINE
  5
60D
  8
DATA
  6
CONTINUOUS
 62
     7
 66
     1
 10
0.0
 20
0.0
 30
0.0
 70
     1
  0
VERTEX
  5
AE3
  8
DATA
  6
CONTINUOUS
 62
     7
 10
-92.851669529586033
 20
238.50616432232869
 30
0.0
  0
VERTEX
  5
AE4
  8
DATA
  6
CONTINUOUS
 62
     7
 10
-97.181796548508274
 20
231.00616432232869
 30
0.0
  0
VERTEX
  5
AE5
  8
DATA
  6
CONTINUOUS
 62
     7
 10
-92.851669529586104
 20
223.50616432232869
 30
0.0
  0
VERTEX
  5
AE6
  8
DATA
  6
CONTINUOUS
 62
     7
 10
-84.191415491741736
 20
223.5061643223286
 30
0.0
  0
VERTEX
  5
AE7
  8
DATA
  6
CONTINUOUS
 62
     7
 10
-79.861288472819481
 20
231.0061643223286
 30
0.0
  0
VERTEX
  5
AE8
  8
DATA
  6
CONTINUOUS
 62
     7
 10
-84.191415491741651
 20
238.5061643223286
 30
0.0
  0
SEQEND
  5
AE9
  8
DATA
  6
CONTINUOUS
 62
     7
  0
TEXT
  5
616
  8
DATA
 62
     7
 10
-109.17090174551799
 20
220.08795997785569
 30
0.0
 40
2.462499999999999
  1
INSERT
 50
180.0
 41
0.7
 11
-109.17090174551799
 21
217.62545997785571
 31
0.0
 73
     3
  0
TEXT
  5
617
  8
DATA
 62
     7
 10
-83.803798128897441
 20
220.08795997785569
 30
0.0
 40
2.462499999999999
  1
OUTPUT
 50
180.0
 41
0.7
 11
-83.803798128897441
 21
217.62545997785571
 31
0.0
 73
     3
  0
TEXT
  5
618
  8
DATA
 62
     7
 10
217.94441373289001
 20
240.12544339991479
 30
0.0
 40
2.171788194444443
  1
120V～60Hz
 50
180.0
 41
0.7
 11
217.94441373289001
 21
237.9536552054704
 31
0.0
 73
     3
  0
LINE
  5
619
  8
DATA
  6
CONTINUOUS
 62
     7
 10
-74.521542510663821
 20
238.0061643223286
 30
0.0
 11
-74.521542510663821
 21
210.00616432232869
 31
0.0
  0
LINE
  5
61A
  8
DATA
  6
CONTINUOUS
 62
     7
 10
-44.521542510663821
 20
238.0061643223286
 30
0.0
 11
-44.521542510663821
 21
210.00616432232869
 31
0.0
  0
LINE
  5
61B
  8
DATA
  6
CONTINUOUS
 62
     7
 10
-71.521542510663821
 20
241.0061643223286
 30
0.0
 11
-47.521542510663807
 21
241.0061643223286
 31
0.0
  0
LINE
  5
61C
  8
DATA
  6
CONTINUOUS
 62
     7
 10
-71.521542510663821
 20
207.00616432232869
 30
0.0
 11
-47.521542510663807
 21
207.00616432232869
 31
0.0
  0
ARC
  5
61D
  8
DATA
  6
CONTINUOUS
 62
     7
 10
-71.521542510663821
 20
238.0061643223286
 30
0.0
 40
3.0
 50
90.0
 51
180.0
  0
ARC
  5
61E
  8
DATA
  6
CONTINUOUS
 62
     7
 10
-47.521542510663807
 20
238.0061643223286
 30
0.0
 40
3.0
 50
0.0
 51
90.0
  0
ARC
  5
61F
  8
DATA
  6
CONTINUOUS
 62
     7
 10
-71.521542510663821
 20
210.00616432232869
 30
0.0
 40
3.0
 50
180.0
 51
270.0
  0
ARC
  5
620
  8
DATA
  6
CONTINUOUS
 62
     7
 10
-47.521542510663807
 20
210.00616432232869
 30
0.0
 40
3.0
 50
270.0
 51
0.0
  0
TEXT
  5
621
  8
DATA
 62
     7
 10
-50.787820959266398
 20
215.60072541800699
 30
0.0
 40
2.4432617187500001
  1
LINE INPUT/
 50
180.0
 41
0.7
 11
-50.787820959266398
 21
213.15746369925699
 31
0.0
 73
     3
  0
TEXT
  5
622
  8
DATA
 62
     7
 10
-54.912445262588207
 20
219.64042486066441
 30
0.0
 40
2.4432617187500001
  1
OUTPUT
 50
180.0
 41
0.7
 11
-54.912445262588207
 21
217.19716314191439
 31
0.0
 73
     3
  0
LINE
  5
623
  8
DATA
  6
CONTINUOUS
 62
     7
 10
258.00000000022101
 20
-72.000000000103114
 30
0.0
 11
258.00000000022101
 21
-75.000000000103171
 31
0.0
  0
TEXT
  5
624
  8
DATA
 62
     7
 10
69.199999999999989
 20
-205.9786666666667
 30
0.0
 40
1.6288411458333321
  1
dB
 41
0.7
 11
69.199999999999989
 21
-204.34982552083341
 31
0.0
 73
     3
  0
LINE
  5
625
  8
DATA
  6
CONTINUOUS
 62
     7
 10
347.49999999985062
 20
-210.8480498649719
 30
0.0
 11
349.99999999985062
 21
-210.8480498649719
 31
0.0
  0
LINE
  5
626
  8
DATA
  6
CONTINUOUS
 62
     7
 10
347.49999999985062
 20
-218.33410765857269
 30
0.0
 11
349.99999999985062
 21
-218.33410765857269
 31
0.0
  0
LINE
  5
627
  8
DATA
  6
CONTINUOUS
 62
     7
 10
346.99999999985062
 20
-211.33694070764651
 30
0.0
 11
346.99999999985062
 21
-217.83410765857269
 31
0.0
  0
ARC
  5
628
  8
DATA
  6
CONTINUOUS
 62
     7
 10
347.49999999985062
 20
-211.3480498649719
 30
0.0
 40
0.5
 50
90.0
 51
180.0
  0
ARC
  5
629
  8
DATA
  6
CONTINUOUS
 62
     7
 10
347.49999999985062
 20
-217.83410765857269
 30
0.0
 40
0.5
 50
180.0
 51
270.0
  0
LINE
  5
62A
  8
DATA
  6
CONTINUOUS
 62
     7
 10
-49.405810932452837
 20
-75.00802258075673
 30
0.0
 11
-49.405810932452837
 21
-76.508022580756673
 31
0.0
  0
LINE
  5
62B
  8
DATA
  6
CONTINUOUS
 62
     7
 10
-40.605810932452812
 20
-75.000000000103171
 30
0.0
 11
-40.605810932452812
 21
-76.508022580756673
 31
0.0
  0
LINE
  5
62C
  8
DATA
  6
CONTINUOUS
 62
     7
 10
-49.73354963194442
 20
-76.508022580756673
 30
0.0
 11
-51.660657468077382
 21
-76.508022580756673
 31
0.0
  0
LINE
  5
62D
  8
DATA
  6
CONTINUOUS
 62
     7
 10
-51.660657468077382
 20
-76.508022580756673
 30
0.0
 11
-51.360657468077378
 21
-80.008022580756673
 31
0.0
  0
LINE
  5
62E
  8
DATA
  6
CONTINUOUS
 62
     7
 10
-51.360657468077378
 20
-80.008022580756673
 30
0.0
 11
-49.73354963194442
 21
-91.508022580756801
 31
0.0
  0
LINE
  5
62F
  8
DATA
  6
CONTINUOUS
 62
     7
 10
-38.674414563806529
 20
-80.008022580756673
 30
0.0
 11
-40.278072232961243
 21
-91.508022580756801
 31
0.0
  0
LINE
  5
630
  8
DATA
  6
CONTINUOUS
 62
     7
 10
-40.278072232961243
 20
-76.508022580756673
 30
0.0
 11
-49.73354963194442
 21
-76.508022580756673
 31
0.0
  0
LINE
  5
631
  8
DATA
  6
CONTINUOUS
 62
     7
 10
-38.350964396828218
 20
-76.508022580756673
 30
0.0
 11
-38.650964396828229
 21
-80.008022580756673
 31
0.0
  0
LINE
  5
632
  8
DATA
  6
CONTINUOUS
 62
     7
 10
-40.278072232961243
 20
-76.508022580756673
 30
0.0
 11
-38.350964396828218
 21
-76.508022580756673
 31
0.0
  0
LINE
  5
633
  8
DATA
  6
CONTINUOUS
 62
     7
 10
-46.905810932452901
 20
-91.508022580756915
 30
0.0
 11
-47.517536015941928
 21
-80.008022580756574
 31
0.0
  0
LINE
  5
634
  8
DATA
  6
CONTINUOUS
 62
     7
 10
-48.605810932452933
 20
-91.508022580756915
 30
0.0
 11
-49.217536015941967
 21
-80.008022580756574
 31
0.0
  0
LINE
  5
635
  8
DATA
  6
CONTINUOUS
 62
     7
 10
-43.105810932452869
 20
-91.508022580756915
 30
0.0
 11
-42.51753601594185
 21
-80.008022580756574
 31
0.0
  0
LINE
  5
636
  8
DATA
  6
CONTINUOUS
 62
     7
 10
-41.405810932452837
 20
-91.508022580756915
 30
0.0
 11
-40.817536015941883
 21
-80.008022580756574
 31
0.0
  0
LINE
  5
637
  8
DATA
  6
CONTINUOUS
 62
     7
 10
-44.355810932452833
 20
-80.008022580756673
 30
0.0
 11
-38.650964396828229
 21
-80.008022580756673
 31
0.0
  0
LINE
  5
638
  8
DATA
  6
CONTINUOUS
 62
     7
 10
-45.655810932452781
 20
-80.008022580756673
 30
0.0
 11
-51.360657468077378
 21
-80.008022580756673
 31
0.0
  0
LINE
  5
639
  8
DATA
  6
CONTINUOUS
 62
     7
 10
-44.355810932452833
 20
-91.508022580756801
 30
0.0
 11
-40.278072232961279
 21
-91.508022580756801
 31
0.0
  0
LINE
  5
63A
  8
DATA
  6
CONTINUOUS
 62
     7
 10
-45.655810932452781
 20
-91.508022580756801
 30
0.0
 11
-49.733549631944371
 21
-91.508022580756801
 31
0.0
  0
LINE
  5
63B
  8
DATA
  6
CONTINUOUS
 62
     7
 10
-45.655810932452781
 20
-80.008022580756673
 30
0.0
 11
-51.360657468077378
 21
-80.008022580756673
 31
0.0
  0
LINE
  5
63C
  8
DATA
  6
CONTINUOUS
 62
     7
 10
-44.355810932452833
 20
-80.008022580756673
 30
0.0
 11
-38.650964396828229
 21
-80.008022580756673
 31
0.0
  0
LINE
  5
63D
  8
DATA
  6
CONTINUOUS
 62
     7
 10
-45.655810932452781
 20
-91.508022580756801
 30
0.0
 11
-49.73354963194442
 21
-91.508022580756801
 31
0.0
  0
LINE
  5
63E
  8
DATA
  6
CONTINUOUS
 62
     7
 10
-44.355810932452833
 20
-91.508022580756801
 30
0.0
 11
-40.278072232961243
 21
-91.508022580756801
 31
0.0
  0
ARC
  5
63F
  8
DATA
  6
CONTINUOUS
 62
     7
 10
-45.005810932452789
 20
-91.075100648987956
 30
0.0
 40
0.9248994851090245
 50
225.34960338810239
 51
314.65039661189741
  0
LINE
  5
640
  8
DATA
  6
CONTINUOUS
 62
     7
 10
-45.655810932452781
 20
-91.733081695486433
 30
0.0
 11
-45.655810932452781
 21
-76.508022580756673
 31
0.0
  0
LINE
  5
641
  8
DATA
  6
CONTINUOUS
 62
     7
 10
-44.355810932452833
 20
-91.733081695486433
 30
0.0
 11
-44.355810932452833
 21
-76.508022580756673
 31
0.0
  0
LINE
  5
642
  8
DATA
  6
CONTINUOUS
 62
     7
 10
-145.52154251066381
 20
78.828766053990293
 30
0.0
 11
-136.52154251066381
 21
78.828766053990293
 31
0.0
  0
LINE
  5
643
  8
DATA
  6
CONTINUOUS
 62
     7
 10
-118.52154251066391
 20
78.828766053990293
 30
0.0
 11
-109.52154251066391
 21
78.828766053990293
 31
0.0
  0
LINE
  5
644
  8
DATA
  6
CONTINUOUS
 62
     7
 10
-93.021542510663878
 20
78.828766053990293
 30
0.0
 11
-84.021542510663878
 21
78.828766053990293
 31
0.0
  0
CIRCLE
  5
645
  8
DATA
  6
CONTINUOUS
 62
     7
 10
16.961983085055682
 20
-219.62956052301209
 30
0.0
 40
2.8000000000000109
  0
POLYLINE
  5
646
  8
DATA
  6
CONTINUOUS
 62
     7
 66
     1
 10
0.0
 20
0.0
 30
0.0
 70
     1
  0
VERTEX
  5
AEA
  8
DATA
  6
CONTINUOUS
 62
     7
 10
18.361983085055702
 20
-219.62956052301209
 30
0.0
  0
VERTEX
  5
AEB
  8
DATA
  6
CONTINUOUS
 62
     7
 10
17.661983085055731
 20
-220.8419960883104
 30
0.0
  0
VERTEX
  5
AEC
  8
DATA
  6
CONTINUOUS
 62
     7
 10
16.261983085055679
 20
-220.8419960883104
 30
0.0
  0
VERTEX
  5
AED
  8
DATA
  6
CONTINUOUS
 62
     7
 10
15.561983085055701
 20
-219.62956052301209
 30
0.0
  0
VERTEX
  5
AEE
  8
DATA
  6
CONTINUOUS
 62
     7
 10
16.261983085055679
 20
-218.4171249577139
 30
0.0
  0
VERTEX
  5
AEF
  8
DATA
  6
CONTINUOUS
 62
     7
 10
17.661983085055731
 20
-218.4171249577139
 30
0.0
  0
SEQEND
  5
AF0
  8
DATA
  6
CONTINUOUS
 62
     7
  0
ARC
  5
64F
  8
DATA
  6
CONTINUOUS
 62
     7
 10
67.967712311011184
 20
-74.923716143921226
 30
0.0
 40
1.4499999999999871
 50
183.01569773658349
 51
356.98430226341623
  0
ARC
  5
650
  8
DATA
  6
CONTINUOUS
 62
     7
 10
72.967712311011255
 20
-74.923716143921226
 30
0.0
 40
1.4499999999999871
 50
183.01569773658349
 51
356.98430226341623
  0
LINE
  5
651
  8
DATA
  6
CONTINUOUS
 62
     7
 10
-145.52154251066381
 20
78.828766053990293
 30
0.0
 11
-145.52154251066381
 21
74.999999999896275
 31
0.0
  0
LINE
  5
652
  8
DATA
  6
CONTINUOUS
 62
     7
 10
-136.52154251066381
 20
78.828766053990293
 30
0.0
 11
-136.52154251066381
 21
74.999999999896275
 31
0.0
  0
LINE
  5
653
  8
DATA
  6
CONTINUOUS
 62
     7
 10
-118.52154251066391
 20
78.828766053990293
 30
0.0
 11
-118.52154251066391
 21
74.999999999896275
 31
0.0
  0
LINE
  5
654
  8
DATA
  6
CONTINUOUS
 62
     7
 10
-109.52154251066391
 20
78.828766053990293
 30
0.0
 11
-109.52154251066391
 21
74.999999999896275
 31
0.0
  0
LINE
  5
655
  8
DATA
  6
CONTINUOUS
 62
     7
 10
-93.021542510663878
 20
78.828766053990293
 30
0.0
 11
-93.021542510663878
 21
74.999999999896275
 31
0.0
  0
LINE
  5
656
  8
DATA
  6
CONTINUOUS
 62
     7
 10
-84.021542510663878
 20
78.828766053990293
 30
0.0
 11
-84.021542510663878
 21
74.999999999896275
 31
0.0
  0
ENDSEC
  0
EOF
