  0
SECTION
  2
HEADER
  9
$ACADVER
  1
AC1009
  9
$INSBASE
 10
0.0
 20
0.0
 30
0.0
  9
$EXTMIN
 10
-80.010985489947416
 20
-131.71201227911089
 30
-0.0015258207003583
  9
$EXTMAX
 10
280.01098716632811
 20
403.5481165140169
 30
0.0000000349246037
  9
$LIMMIN
 10
0.0
 20
0.0
  9
$LIMMAX
 10
0.0
 20
0.0
  9
$ORTHOMODE
 70
     0
  9
$REGENMODE
 70
     1
  9
$FILLMODE
 70
     1
  9
$QTEXTMODE
 70
     0
  9
$MIRRTEXT
 70
     1
  9
$DRAGMODE
 70
     2
  9
$LTSCALE
 40
10.16
  9
$OSMODE
 70
   231
  9
$ATTMODE
 70
     1
  9
$TEXTSIZE
 40
0.0
  9
$TRACEWID
 40
1.0
  9
$TEXTSTYLE
  7
STANDARD
  9
$CLAYER
  8
DATA
  9
$CELTYPE
  6
BYLAYER
  9
$CECOLOR
 62
   256
  9
$DIMSCALE
 40
1.0
  9
$DIMASZ
 40
0.18
  9
$DIMEXO
 40
0.0625
  9
$DIMDLI
 40
0.38
  9
$DIMRND
 40
0.0
  9
$DIMDLE
 40
0.0
  9
$DIMEXE
 40
0.18
  9
$DIMTP
 40
0.0
  9
$DIMTM
 40
0.0
  9
$DIMTXT
 40
0.18
  9
$DIMCEN
 40
0.09
  9
$DIMTSZ
 40
0.0
  9
$DIMTOL
 70
     0
  9
$DIMLIM
 70
     0
  9
$DIMTIH
 70
     1
  9
$DIMTOH
 70
     1
  9
$DIMSE1
 70
     0
  9
$DIMSE2
 70
     0
  9
$DIMTAD
 70
     0
  9
$DIMZIN
 70
     0
  9
$DIMBLK
  1

  9
$DIMASO
 70
     1
  9
$DIMSHO
 70
     1
  9
$DIMPOST
  1

  9
$DIMAPOST
  1

  9
$DIMALT
 70
     0
  9
$DIMALTD
 70
     2
  9
$DIMALTF
 40
25.399999999999999
  9
$DIMLFAC
 40
1.0
  9
$DIMTOFL
 70
     0
  9
$DIMTVP
 40
0.0
  9
$DIMTIX
 70
     0
  9
$DIMSOXD
 70
     0
  9
$DIMSAH
 70
     0
  9
$DIMBLK1
  1

  9
$DIMBLK2
  1

  9
$DIMSTYLE
  2
STANDARD
  9
$DIMCLRD
 70
     0
  9
$DIMCLRE
 70
     0
  9
$DIMCLRT
 70
     0
  9
$DIMTFAC
 40
1.0
  9
$DIMGAP
 40
0.09
  9
$LUNITS
 70
     2
  9
$LUPREC
 70
     4
  9
$SKETCHINC
 40
0.1
  9
$FILLETRAD
 40
0.0
  9
$AUNITS
 70
     0
  9
$AUPREC
 70
     0
  9
$MENU
  1
acad
  9
$ELEVATION
 40
0.0
  9
$PELEVATION
 40
0.0
  9
$THICKNESS
 40
0.0
  9
$LIMCHECK
 70
     0
  9
$BLIPMODE
 70
     0
  9
$CHAMFERA
 40
0.0
  9
$CHAMFERB
 40
0.0
  9
$SKPOLY
 70
     0
  9
$TDCREATE
 40
2454274.7311111111
  9
$TDUPDATE
 40
2454274.732298322
  9
$TDINDWG
 40
0.0002459144
  9
$TDUSRTIMER
 40
0.000245544
  9
$USRTIMER
 70
     1
  9
$ANGBASE
 50
0.0
  9
$ANGDIR
 70
     0
  9
$PDMODE
 70
     1
  9
$PDSIZE
 40
-2.0
  9
$PLINEWID
 40
0.0
  9
$COORDS
 70
     1
  9
$SPLFRAME
 70
     0
  9
$SPLINETYPE
 70
     6
  9
$SPLINESEGS
 70
     8
  9
$ATTDIA
 70
     0
  9
$ATTREQ
 70
     1
  9
$HANDLING
 70
     1
  9
$HANDSEED
  5
4E6
  9
$SURFTAB1
 70
     6
  9
$SURFTAB2
 70
     6
  9
$SURFTYPE
 70
     6
  9
$SURFU
 70
     6
  9
$SURFV
 70
     6
  9
$UCSNAME
  2

  9
$UCSORG
 10
0.0
 20
0.0
 30
0.0
  9
$UCSXDIR
 10
1.0
 20
0.0
 30
0.0
  9
$UCSYDIR
 10
0.0
 20
1.0
 30
0.0
  9
$PUCSNAME
  2

  9
$PUCSORG
 10
0.0
 20
0.0
 30
0.0
  9
$PUCSXDIR
 10
1.0
 20
0.0
 30
0.0
  9
$PUCSYDIR
 10
0.0
 20
1.0
 30
0.0
  9
$USERI1
 70
     0
  9
$USERI2
 70
     0
  9
$USERI3
 70
     0
  9
$USERI4
 70
     0
  9
$USERI5
 70
     0
  9
$USERR1
 40
0.0
  9
$USERR2
 40
0.0
  9
$USERR3
 40
0.0
  9
$USERR4
 40
0.0
  9
$USERR5
 40
0.0
  9
$WORLDVIEW
 70
     1
  9
$SHADEDGE
 70
     3
  9
$SHADEDIF
 70
    70
  9
$TILEMODE
 70
     1
  9
$MAXACTVP
 70
    64
  9
$PLIMCHECK
 70
     0
  9
$PEXTMIN
 10
1.0000000000000000E+020
 20
1.0000000000000000E+020
 30
1.0000000000000000E+020
  9
$PEXTMAX
 10
-1.0000000000000000E+020
 20
-1.0000000000000000E+020
 30
-1.0000000000000000E+020
  9
$PLIMMIN
 10
0.0
 20
0.0
  9
$PLIMMAX
 10
12.0
 20
9.0
  9
$UNITMODE
 70
     0
  9
$VISRETAIN
 70
     0
  9
$PLINEGEN
 70
     1
  9
$PSLTSCALE
 70
     0
  0
ENDSEC
  0
SECTION
  2
TABLES
  0
TABLE
  2
VPORT
 70
     1
  0
VPORT
  2
*ACTIVE
 70
     0
 10
0.0
 20
0.0
 11
1.0
 21
1.0
 12
100.0000008381904
 22
135.91805211745299
 13
0.0
 23
0.0
 14
1.0
 24
1.0
 15
0.0
 25
0.0
 16
0.0
 26
0.0
 36
1.0
 17
0.0
 27
0.0
 37
0.0
 40
539.70212156319542
 41
1.6703601108033239
 42
50.0
 43
0.0
 44
0.0
 50
0.0
 51
0.0
 71
     0
 72
  2000
 73
     1
 74
     1
 75
     0
 76
     0
 77
     0
 78
     0
  0
ENDTAB
  0
TABLE
  2
LTYPE
 70
    11
  0
LTYPE
  2
CONTINUOUS
 70
     0
  3
Solid line
 72
    65
 73
     0
 40
0.0
  0
ENDTAB
  0
TABLE
  2
LAYER
 70
     5
  0
LAYER
  2
0
 70
     0
 62
     7
  6
CONTINUOUS
  0
LAYER
  2
DATA
 70
     0
 62
     7
  6
CONTINUOUS
  0
LAYER
  2
HIBINO-BASE
 70
     0
 62
     7
  6
CONTINUOUS
  0
LAYER
  2
SPEC
 70
     0
 62
     7
  6
CONTINUOUS
  0
LAYER
  2
DIMNSIONS
 70
     0
 62
     7
  6
CONTINUOUS
  0
ENDTAB
  0
TABLE
  2
STYLE
 70
     2
  0
STYLE
  2
STANDARD
 70
     0
 40
0.0
 41
1.0
 50
0.0
 71
     0
 42
0.0
  3
txt
  4
BIGFONT.SHX
  0
ENDTAB
  0
TABLE
  2
VIEW
 70
     0
  0
ENDTAB
  0
TABLE
  2
UCS
 70
     0
  0
ENDTAB
  0
TABLE
  2
APPID
 70
     1
  0
APPID
  2
ACAD
 70
     0
  0
ENDTAB
  0
TABLE
  2
DIMSTYLE
 70
     1
  0
DIMSTYLE
  2
STANDARD
 70
     0
  3

  4

  5

  6

  7

 40
1.0
 41
0.18
 42
0.0625
 43
0.38
 44
0.18
 45
0.0
 46
0.0
 47
0.0
 48
0.0
140
0.18
141
0.09
142
0.0
143
25.399999999999999
144
1.0
145
0.0
146
1.0
147
0.09
 71
     0
 72
     0
 73
     1
 74
     1
 75
     0
 76
     0
 77
     0
 78
     0
170
     0
171
     2
172
     0
173
     0
174
     0
175
     0
176
     0
177
     0
178
     0
  0
ENDTAB
  0
ENDSEC
  0
SECTION
  2
BLOCKS
  0
BLOCK
  8
0
  2
$MODEL_SPACE
 70
     0
 10
0.0
 20
0.0
 30
0.0
  3
$MODEL_SPACE
  1

  0
ENDBLK
  5
3E6
  8
0
  0
BLOCK
 67
     1
  8
0
  2
$PAPER_SPACE
 70
     0
 10
0.0
 20
0.0
 30
0.0
  3
$PAPER_SPACE
  1

  0
ENDBLK
  5
3E2
 67
     1
  8
0
  0
ENDSEC
  0
SECTION
  2
ENTITIES
  0
LINE
  5
2C
  8
HIBINO-BASE
  6
CONTINUOUS
 62
     7
 10
-79.999999999999986
 20
403.53181499999999
 30
0.0
 11
279.99999999999989
 21
403.53181499999999
 31
0.0
  0
LINE
  5
2D
  8
HIBINO-BASE
  6
CONTINUOUS
 62
     7
 10
279.99999999999989
 20
-116.46818500000001
 30
0.0
 11
-79.999999999999986
 21
-116.46818500000001
 31
0.0
  0
LINE
  5
2E
  8
HIBINO-BASE
  6
CONTINUOUS
 62
     7
 10
-79.999999999999986
 20
-116.46818500000001
 30
0.0
 11
-79.999999999999986
 21
403.53181499999999
 31
0.0
  0
TEXT
  5
2F
  8
HIBINO-BASE
 62
     7
 10
-65.631999999999991
 20
-129.2855405999999
 30
0.0
 40
7.2000883593749991
  1
Hibino Corporation
 41
0.7
 11
-65.631999999999991
 21
-122.0854522406249
 31
0.0
 73
     3
  0
LINE
  5
30
  8
HIBINO-BASE
  6
CONTINUOUS
 62
     7
 10
279.99999999999989
 20
403.53181499999999
 30
0.0
 11
279.99999999999989
 21
-116.46818500000001
 31
0.0
  0
LINE
  5
31
  8
HIBINO-BASE
  6
CONTINUOUS
 62
     7
 10
100.0
 20
-71.468184999999977
 30
0.0
 11
279.99999999999989
 21
-71.468184999999977
 31
0.0
  0
LINE
  5
32
  8
HIBINO-BASE
  6
CONTINUOUS
 62
     7
 10
100.0
 20
-116.46818500000001
 30
0.0
 11
100.0
 21
-71.468184999999977
 31
0.0
  0
TEXT
  5
33
  8
HIBINO-BASE
 62
     7
 10
101.8
 20
-76.485571666666644
 30
0.0
 40
3.2576822916666659
  1
NOTE
 41
0.7
 11
101.8
 21
-73.227889374999975
 31
0.0
 73
     3
  0
LINE
  5
34
  8
HIBINO-BASE
  6
CONTINUOUS
 62
     7
 10
170.0
 20
-116.46818500000001
 30
0.0
 11
170.0
 21
-71.468184999999977
 31
0.0
  0
TEXT
  5
35
  8
HIBINO-BASE
 62
     7
 10
171.7999999999999
 20
-76.485571666666644
 30
0.0
 40
3.2576822916666659
  1
TITLE
 41
0.7
 11
171.7999999999999
 21
-73.227889374999975
 31
0.0
 73
     3
  0
TEXT
  5
36
  8
HIBINO-BASE
 62
     7
 10
200.13677999999999
 20
-129.2855405999999
 30
0.0
 40
7.2000883593749991
  1
ヒビノ株式会社
 41
0.7
 11
200.13677999999999
 21
-122.0854522406249
 31
0.0
 73
     3
  0
LINE
  5
37
  8
HIBINO-BASE
  6
CONTINUOUS
 62
     7
 10
100.0
 20
-96.468184999999963
 30
0.0
 11
279.99999999999989
 21
-96.468184999999963
 31
0.0
  0
TEXT
  5
38
  8
HIBINO-BASE
 62
     7
 10
196.80000000000001
 20
-101.3729316666666
 30
0.0
 40
3.2576822916666659
  1
DRAWN
 41
0.7
 11
196.80000000000001
 21
-98.115249375000005
 31
0.0
 73
     3
  0
TEXT
  5
39
  8
HIBINO-BASE
 62
     7
 10
146.7999999999999
 20
-101.3729316666666
 30
0.0
 40
3.2576822916666659
  1
DATE
 41
0.7
 11
146.7999999999999
 21
-98.115249375000005
 31
0.0
 73
     3
  0
TEXT
  5
3A
  8
HIBINO-BASE
 62
     7
 10
126.8
 20
-101.3729316666666
 30
0.0
 40
3.2576822916666659
  1
SCALE
 41
0.7
 11
126.8
 21
-98.115249375000005
 31
0.0
 73
     3
  0
TEXT
  5
3B
  8
HIBINO-BASE
 62
     7
 10
171.7999999999999
 20
-101.3729316666666
 30
0.0
 40
3.2576822916666659
  1
DESIGN
 41
0.7
 11
171.7999999999999
 21
-98.115249375000005
 31
0.0
 73
     3
  0
TEXT
  5
3C
  8
HIBINO-BASE
 62
     7
 10
246.7999999999999
 20
-101.3729316666666
 30
0.0
 40
3.2576822916666659
  1
DRAWING NO.
 41
0.7
 11
246.7999999999999
 21
-98.115249375000005
 31
0.0
 73
     3
  0
TEXT
  5
3D
  8
HIBINO-BASE
 62
     7
 10
221.7999999999999
 20
-101.3729316666666
 30
0.0
 40
3.2576822916666659
  1
CHECK
 41
0.7
 11
221.7999999999999
 21
-98.115249375000005
 31
0.0
 73
     3
  0
LINE
  5
3E
  8
HIBINO-BASE
  6
CONTINUOUS
 62
     7
 10
128.74999999999989
 20
-113.96818500000001
 30
0.0
 11
136.25
 21
-106.46818499999991
 31
0.0
  0
TEXT
  5
3F
  8
HIBINO-BASE
 62
     7
 10
127.5
 20
-108.68607166666661
 30
0.0
 40
3.2576822916666659
  1
1
 41
0.7
 11
127.5
 21
-105.42838937499999
 31
0.0
 73
     3
  0
LINE
  5
40
  8
HIBINO-BASE
  6
CONTINUOUS
 62
     7
 10
125.0
 20
-116.46818500000001
 30
0.0
 11
125.0
 21
-96.468184999999963
 31
0.0
  0
LINE
  5
41
  8
HIBINO-BASE
  6
CONTINUOUS
 62
     7
 10
145.0
 20
-116.46818500000001
 30
0.0
 11
145.0
 21
-96.468184999999963
 31
0.0
  0
LINE
  5
42
  8
HIBINO-BASE
  6
CONTINUOUS
 62
     7
 10
195.0
 20
-96.468184999999963
 30
0.0
 11
195.0
 21
-116.46818500000001
 31
0.0
  0
LINE
  5
43
  8
HIBINO-BASE
  6
CONTINUOUS
 62
     7
 10
245.0
 20
-96.468184999999963
 30
0.0
 11
245.0
 21
-116.46818500000001
 31
0.0
  0
LINE
  5
44
  8
HIBINO-BASE
  6
CONTINUOUS
 62
     7
 10
220.0
 20
-116.46818500000001
 30
0.0
 11
220.0
 21
-96.468184999999963
 31
0.0
  0
TEXT
  5
45
  8
HIBINO-BASE
 62
     7
 10
146.71307999999999
 20
-110.7408916666666
 30
0.0
 40
3.2576822916666659
  1
'07.06.
 41
0.7
 11
146.71307999999999
 21
-107.483209375
 31
0.0
 73
     3
  0
TEXT
  5
46
  8
HIBINO-BASE
 62
     7
 10
135.0
 20
-112.43607166666661
 30
0.0
 40
3.2576822916666659
  1
2
 41
0.7
 11
135.0
 21
-109.17838937499999
 31
0.0
 73
     3
  0
TEXT
  5
47
  8
HIBINO-BASE
 62
     7
 10
198.0116200220692
 20
-110.7408916666666
 30
0.0
 40
3.2576822916666659
  1
N.Sasaki
 41
0.7
 11
198.0116200220692
 21
-107.483209375
 31
0.0
 73
     3
  0
TEXT
  5
48
  8
HIBINO-BASE
 62
     7
 10
107.76666666666659
 20
-112.51618499999999
 30
0.0
 40
6.5153645833333318
  1
A4
 41
0.7
 11
107.76666666666659
 21
-106.0008204166666
 31
0.0
 73
     3
  0
TEXT
  5
49
  8
HIBINO-BASE
 62
     7
 10
101.9166666666666
 20
-101.707095
 30
0.0
 40
3.2576822916666659
  1
PAPER SIZE
 41
0.7
 11
101.9166666666666
 21
-98.449412708333327
 31
0.0
 73
     3
  0
LINE
  5
4A
  8
SPEC
  6
CONTINUOUS
 62
     7
 10
-65.000000000000014
 20
383.53181499999999
 30
0.0
 11
230.0
 21
383.53181499999999
 31
0.0
  0
LINE
  5
4B
  8
SPEC
  6
CONTINUOUS
 62
     7
 10
-65.000000000000014
 20
376.03181499999999
 30
0.0
 11
230.0
 21
376.03181499999999
 31
0.0
  0
LINE
  5
4C
  8
SPEC
  6
CONTINUOUS
 62
     7
 10
-65.000000000000014
 20
383.53181499999999
 30
0.0
 11
-65.000000000000014
 21
376.03181499999999
 31
0.0
  0
TEXT
  5
4D
  8
SPEC
 62
     7
 10
-62.500000000000021
 20
386.318355
 30
0.0
 40
4.8865234375000002
  1
仕様
 41
0.7
 11
-62.500000000000021
 21
391.20487843749999
 31
0.0
 73
     3
  0
LINE
  5
4E
  8
SPEC
  6
CONTINUOUS
 62
     7
 10
-0.0000000000000142
 20
383.53181499999999
 30
0.0
 11
-0.0000000000000142
 21
353.53181499999988
 31
0.0
  0
LINE
  5
4F
  8
SPEC
  6
CONTINUOUS
 62
     7
 10
-65.000000000000014
 20
368.53181499999999
 30
0.0
 11
230.0
 21
368.53181499999999
 31
0.0
  0
LINE
  5
50
  8
SPEC
  6
CONTINUOUS
 62
     7
 10
-65.000000000000014
 20
368.53181499999999
 30
0.0
 11
-65.000000000000014
 21
376.03181499999999
 31
0.0
  0
LINE
  5
51
  8
SPEC
  6
CONTINUOUS
 62
     7
 10
-65.000000000000014
 20
361.03181499999999
 30
0.0
 11
230.0
 21
361.03181499999999
 31
0.0
  0
LINE
  5
52
  8
SPEC
  6
CONTINUOUS
 62
     7
 10
-65.000000000000014
 20
353.53181499999988
 30
0.0
 11
230.0
 21
353.53181499999988
 31
0.0
  0
TEXT
  5
53
  8
SPEC
 62
     7
 10
-60.341501329869423
 20
355.46513134674308
 30
0.0
 40
3.8006293402777769
  1
重量
 41
0.7
 11
-60.341501329869423
 21
359.26576068702087
 31
0.0
 73
     3
  0
LINE
  5
54
  8
SPEC
  6
CONTINUOUS
 62
     7
 10
-65.000000000000014
 20
368.53181499999999
 30
0.0
 11
-65.000000000000014
 21
353.5
 31
0.0
  0
LINE
  5
55
  8
SPEC
  6
CONTINUOUS
 62
     7
 10
230.0
 20
353.53181499999988
 30
0.0
 11
230.0
 21
383.53181499999999
 31
0.0
  0
TEXT
  5
56
  8
SPEC
 62
     7
 10
4.8337741214088927
 20
370.23789723128709
 30
0.0
 40
3.8006293402777769
  1
640/641,1260/1261
 41
0.7
 11
4.8337741214088927
 21
374.03852657156489
 31
0.0
 73
     3
  0
TEXT
  5
57
  8
SPEC
 62
     7
 10
-60.134219424513518
 20
377.81942295191789
 30
0.0
 40
3.8006293402777769
  1
ZC-7
 41
0.7
 11
-60.134219424513518
 21
381.62005229219568
 31
0.0
 73
     3
  0
TEXT
  5
58
  8
SPEC
 62
     7
 10
-60.301026803348137
 20
370.43608258297621
 30
0.0
 40
3.8006293402777769
  1
対応機種
 41
0.7
 11
-60.301026803348137
 21
374.23671192325401
 31
0.0
 73
     3
  0
TEXT
  5
59
  8
SPEC
 62
     7
 10
-60.717644220756
 20
363.0444335053304
 30
0.0
 40
3.8006293402777769
  1
コネクタの形状
 41
0.7
 11
-60.717644220756
 21
366.8450628456082
 31
0.0
 73
     3
  0
TEXT
  5
5A
  8
SPEC
 62
     7
 10
4.8798024884953151
 20
362.87760411649759
 30
0.0
 40
3.8006293402777769
  1
RJ-45
 41
0.7
 11
4.8798024884953151
 21
366.67823345677539
 31
0.0
 73
     3
  0
TEXT
  5
5B
  8
DIMNSIONS
 62
     7
 10
60.0
 20
-91.929204999999968
 30
0.0
 40
4.8865234375000002
  1
(単位：mm)
 41
0.7
 11
60.0
 21
-87.042681562499979
 31
0.0
 73
     3
  0
LINE
  5
5C
  8
DIMNSIONS
  6
CONTINUOUS
 62
     7
 10
-7.3400785897470779
 20
190.43010623004531
 30
0.0
 11
-66.500000000000014
 21
190.43010623004531
 31
0.0
  0
LINE
  5
5D
  8
DIMNSIONS
  6
CONTINUOUS
 62
     7
 10
-20.49007858974711
 20
167.59999999999999
 30
0.0
 11
-66.500000000000014
 21
167.59999999999999
 31
0.0
  0
LINE
  5
5E
  8
DIMNSIONS
  6
CONTINUOUS
 62
     7
 10
-62.500000000000021
 20
190.43010623004531
 30
0.0
 11
-62.500000000000021
 21
167.59999999999999
 31
0.0
  0
LINE
  5
5F
  8
DIMNSIONS
  6
CONTINUOUS
 62
     7
 10
-62.500000000000021
 20
190.43010623004531
 30
0.0
 11
-61.159920409699531
 21
185.42886111285779
 31
0.0
  0
LINE
  5
60
  8
DIMNSIONS
  6
CONTINUOUS
 62
     7
 10
-62.500000000000021
 20
190.43010623004531
 30
0.0
 11
-63.840079590300498
 21
185.42886111285779
 31
0.0
  0
LINE
  5
61
  8
DIMNSIONS
  6
CONTINUOUS
 62
     7
 10
-62.500000000000021
 20
167.59999999999999
 30
0.0
 11
-63.840079590300498
 21
172.60124511718749
 31
0.0
  0
LINE
  5
62
  8
DIMNSIONS
  6
CONTINUOUS
 62
     7
 10
-62.500000000000021
 20
167.59999999999999
 30
0.0
 11
-61.159920409699531
 21
172.60124511718749
 31
0.0
  0
TEXT
  5
63
  8
DIMNSIONS
 62
     7
 10
-64.487777777777765
 20
175.48727533724491
 30
0.0
 40
5.4294704861111107
  1
23
 50
90.0
 41
0.7
 11
-69.917248263888879
 21
175.48727533724491
 31
0.0
 73
     3
  0
LINE
  5
64
  8
DIMNSIONS
  6
CONTINUOUS
 62
     7
 10
-38.990078589747341
 20
175.0
 30
0.0
 11
-54.000000000000021
 21
175.0
 31
0.0
  0
LINE
  5
65
  8
DIMNSIONS
  6
CONTINUOUS
 62
     7
 10
-35.490078589747341
 20
168.59999999999999
 30
0.0
 11
-54.000000000000021
 21
168.59999999999999
 31
0.0
  0
LINE
  5
66
  8
DIMNSIONS
  6
CONTINUOUS
 62
     7
 10
-50.000000000000021
 20
168.59999999999999
 30
0.0
 11
-50.000000000000021
 21
175.0
 31
0.0
  0
LINE
  5
67
  8
DIMNSIONS
  6
CONTINUOUS
 62
     7
 10
-50.000000000000021
 20
175.0
 30
0.0
 11
-50.000000000000021
 21
184.77777777777769
 31
0.0
  0
LINE
  5
68
  8
DIMNSIONS
  6
CONTINUOUS
 62
     7
 10
-50.000000000000021
 20
175.0
 30
0.0
 11
-51.340079590300498
 21
180.00124511718741
 31
0.0
  0
LINE
  5
69
  8
DIMNSIONS
  6
CONTINUOUS
 62
     7
 10
-50.000000000000021
 20
175.0
 30
0.0
 11
-48.659920409699531
 21
180.00124511718741
 31
0.0
  0
LINE
  5
6A
  8
DIMNSIONS
  6
CONTINUOUS
 62
     7
 10
-50.000000000000021
 20
168.59999999999999
 30
0.0
 11
-50.000000000000021
 21
158.59999999999999
 31
0.0
  0
LINE
  5
6B
  8
DIMNSIONS
  6
CONTINUOUS
 62
     7
 10
-50.000000000000021
 20
168.59999999999999
 30
0.0
 11
-48.659920409699531
 21
163.5987548828125
 31
0.0
  0
LINE
  5
6C
  8
DIMNSIONS
  6
CONTINUOUS
 62
     7
 10
-50.000000000000021
 20
168.59999999999999
 30
0.0
 11
-51.340079590300498
 21
163.5987548828125
 31
0.0
  0
TEXT
  5
6D
  8
DIMNSIONS
 62
     7
 10
-51.987777777777772
 20
181.25
 30
0.0
 40
5.4294704861111107
  1
6
 50
90.0
 41
0.7
 11
-57.417248263888887
 21
181.25
 31
0.0
 73
     3
  0
LINE
  5
6E
  8
DIMNSIONS
  6
CONTINUOUS
 62
     7
 10
20.50992141025295
 20
167.59999999999999
 30
0.0
 11
54.0
 21
167.59999999999999
 31
0.0
  0
LINE
  5
6F
  8
DIMNSIONS
  6
CONTINUOUS
 62
     7
 10
-3.6000000000000929
 20
163.59999999999999
 30
0.0
 11
54.0
 21
163.59999999999999
 31
0.0
  0
LINE
  5
70
  8
DIMNSIONS
  6
CONTINUOUS
 62
     7
 10
50.0
 20
163.59999999999999
 30
0.0
 11
50.0
 21
167.59999999999999
 31
0.0
  0
LINE
  5
71
  8
DIMNSIONS
  6
CONTINUOUS
 62
     7
 10
50.0
 20
167.59999999999999
 30
0.0
 11
50.0
 21
177.59999999999999
 31
0.0
  0
LINE
  5
72
  8
DIMNSIONS
  6
CONTINUOUS
 62
     7
 10
50.0
 20
167.59999999999999
 30
0.0
 11
48.659920409699531
 21
172.60124511718749
 31
0.0
  0
LINE
  5
73
  8
DIMNSIONS
  6
CONTINUOUS
 62
     7
 10
50.0
 20
167.59999999999999
 30
0.0
 11
51.340079590300469
 21
172.60124511718749
 31
0.0
  0
LINE
  5
74
  8
DIMNSIONS
  6
CONTINUOUS
 62
     7
 10
50.0
 20
163.59999999999999
 30
0.0
 11
50.0
 21
152.7222222222222
 31
0.0
  0
LINE
  5
75
  8
DIMNSIONS
  6
CONTINUOUS
 62
     7
 10
50.0
 20
163.59999999999999
 30
0.0
 11
51.340079590300469
 21
158.5987548828125
 31
0.0
  0
LINE
  5
76
  8
DIMNSIONS
  6
CONTINUOUS
 62
     7
 10
50.0
 20
163.59999999999999
 30
0.0
 11
48.659920409699531
 21
158.5987548828125
 31
0.0
  0
TEXT
  5
77
  8
DIMNSIONS
 62
     7
 10
48.012222222222221
 20
152.7222222222222
 30
0.0
 40
5.4294704861111107
  1
4
 50
90.0
 41
0.7
 11
42.582751736111113
 21
152.7222222222222
 31
0.0
 73
     3
  0
LINE
  5
78
  8
DIMNSIONS
  6
CONTINUOUS
 62
     7
 10
-39.000000000000071
 20
132.25
 30
0.0
 11
-66.500000000000014
 21
132.25
 31
0.0
  0
LINE
  5
79
  8
DIMNSIONS
  6
CONTINUOUS
 62
     7
 10
-39.000000000000071
 20
17.749999999999979
 30
0.0
 11
-66.500000000000014
 21
17.749999999999979
 31
0.0
  0
LINE
  5
7A
  8
DIMNSIONS
  6
CONTINUOUS
 62
     7
 10
-62.500000000000021
 20
132.25
 30
0.0
 11
-62.500000000000021
 21
17.749999999999979
 31
0.0
  0
LINE
  5
7B
  8
DIMNSIONS
  6
CONTINUOUS
 62
     7
 10
-62.500000000000021
 20
132.25
 30
0.0
 11
-61.159920409699531
 21
127.24875488281251
 31
0.0
  0
LINE
  5
7C
  8
DIMNSIONS
  6
CONTINUOUS
 62
     7
 10
-62.500000000000021
 20
132.25
 30
0.0
 11
-63.840079590300498
 21
127.24875488281251
 31
0.0
  0
LINE
  5
7D
  8
DIMNSIONS
  6
CONTINUOUS
 62
     7
 10
-62.500000000000021
 20
17.749999999999979
 30
0.0
 11
-63.840079590300498
 21
22.75124511718748
 31
0.0
  0
LINE
  5
7E
  8
DIMNSIONS
  6
CONTINUOUS
 62
     7
 10
-62.500000000000021
 20
17.749999999999979
 30
0.0
 11
-61.159920409699531
 21
22.75124511718748
 31
0.0
  0
TEXT
  5
7F
  8
DIMNSIONS
 62
     7
 10
-64.487777777777765
 20
69.708333333333343
 30
0.0
 40
5.4294704861111107
  1
115
 50
90.0
 41
0.7
 11
-69.917248263888879
 21
69.708333333333343
 31
0.0
 73
     3
  0
LINE
  5
80
  8
DIMNSIONS
  6
CONTINUOUS
 62
     7
 10
-7.5000000000000702
 20
123.34999999999999
 30
0.0
 11
-54.000000000000021
 21
123.34999999999999
 31
0.0
  0
LINE
  5
81
  8
DIMNSIONS
  6
CONTINUOUS
 62
     7
 10
-7.5000000000000702
 20
26.650000000000009
 30
0.0
 11
-54.000000000000021
 21
26.650000000000009
 31
0.0
  0
LINE
  5
82
  8
DIMNSIONS
  6
CONTINUOUS
 62
     7
 10
-50.000000000000021
 20
123.34999999999999
 30
0.0
 11
-50.000000000000021
 21
26.650000000000009
 31
0.0
  0
LINE
  5
83
  8
DIMNSIONS
  6
CONTINUOUS
 62
     7
 10
-50.000000000000021
 20
123.34999999999999
 30
0.0
 11
-48.659920409699531
 21
118.3487548828125
 31
0.0
  0
LINE
  5
84
  8
DIMNSIONS
  6
CONTINUOUS
 62
     7
 10
-50.000000000000021
 20
123.34999999999999
 30
0.0
 11
-51.340079590300498
 21
118.3487548828125
 31
0.0
  0
LINE
  5
85
  8
DIMNSIONS
  6
CONTINUOUS
 62
     7
 10
-50.000000000000021
 20
26.650000000000009
 30
0.0
 11
-51.340079590300498
 21
31.6512451171875
 31
0.0
  0
LINE
  5
86
  8
DIMNSIONS
  6
CONTINUOUS
 62
     7
 10
-50.000000000000021
 20
26.650000000000009
 30
0.0
 11
-48.659920409699531
 21
31.6512451171875
 31
0.0
  0
TEXT
  5
87
  8
DIMNSIONS
 62
     7
 10
-51.987777777777772
 20
67.944444444444471
 30
0.0
 40
5.4294704861111107
  1
96.7
 50
90.0
 41
0.7
 11
-57.417248263888887
 21
67.944444444444471
 31
0.0
 73
     3
  0
LINE
  5
88
  8
DIMNSIONS
  6
CONTINUOUS
 62
     7
 10
-35.000000000000071
 20
13.74999999999998
 30
0.0
 11
-35.000000000000071
 21
-16.5
 31
0.0
  0
LINE
  5
89
  8
DIMNSIONS
  6
CONTINUOUS
 62
     7
 10
35.00000000000005
 20
13.75
 30
0.0
 11
35.00000000000005
 21
-16.5
 31
0.0
  0
LINE
  5
8A
  8
DIMNSIONS
  6
CONTINUOUS
 62
     7
 10
-35.000000000000071
 20
-12.5
 30
0.0
 11
35.00000000000005
 21
-12.5
 31
0.0
  0
LINE
  5
8B
  8
DIMNSIONS
  6
CONTINUOUS
 62
     7
 10
-35.000000000000071
 20
-12.5
 30
0.0
 11
-29.99875488281258
 21
-11.159920409699501
 31
0.0
  0
LINE
  5
8C
  8
DIMNSIONS
  6
CONTINUOUS
 62
     7
 10
-35.000000000000071
 20
-12.5
 30
0.0
 11
-29.99875488281258
 21
-13.840079590300491
 31
0.0
  0
LINE
  5
8D
  8
DIMNSIONS
  6
CONTINUOUS
 62
     7
 10
35.00000000000005
 20
-12.5
 30
0.0
 11
29.998754882812548
 21
-13.840079590300491
 31
0.0
  0
LINE
  5
8E
  8
DIMNSIONS
  6
CONTINUOUS
 62
     7
 10
35.00000000000005
 20
-12.5
 30
0.0
 11
29.998754882812548
 21
-11.159920409699501
 31
0.0
  0
TEXT
  5
8F
  8
DIMNSIONS
 62
     7
 10
-3.5277777777777861
 20
-10.51222222222224
 30
0.0
 40
5.4294704861111107
  1
70
 41
0.7
 11
-3.5277777777777848
 21
-5.0827517361111347
 31
0.0
 73
     3
  0
LINE
  5
90
  8
DIMNSIONS
  6
CONTINUOUS
 62
     7
 10
98.084081598536201
 20
41.749999999999993
 30
0.0
 11
116.5
 21
41.749999999999993
 31
0.0
  0
LINE
  5
91
  8
DIMNSIONS
  6
CONTINUOUS
 62
     7
 10
98.084081598536201
 20
108.25
 30
0.0
 11
116.5
 21
108.25
 31
0.0
  0
LINE
  5
92
  8
DIMNSIONS
  6
CONTINUOUS
 62
     7
 10
112.5
 20
41.749999999999993
 30
0.0
 11
112.5
 21
108.25
 31
0.0
  0
LINE
  5
93
  8
DIMNSIONS
  6
CONTINUOUS
 62
     7
 10
112.5
 20
41.749999999999993
 30
0.0
 11
111.1599204096995
 21
46.75124511718748
 31
0.0
  0
LINE
  5
94
  8
DIMNSIONS
  6
CONTINUOUS
 62
     7
 10
112.5
 20
41.749999999999993
 30
0.0
 11
113.8400795903005
 21
46.75124511718748
 31
0.0
  0
LINE
  5
95
  8
DIMNSIONS
  6
CONTINUOUS
 62
     7
 10
112.5
 20
108.25
 30
0.0
 11
113.8400795903005
 21
103.24875488281251
 31
0.0
  0
LINE
  5
96
  8
DIMNSIONS
  6
CONTINUOUS
 62
     7
 10
112.5
 20
108.25
 30
0.0
 11
111.1599204096995
 21
103.24875488281251
 31
0.0
  0
TEXT
  5
97
  8
DIMNSIONS
 62
     7
 10
110.51222222222221
 20
71.472222222222229
 30
0.0
 40
5.4294704861111107
  1
67
 50
90.0
 41
0.7
 11
105.08275173611111
 21
71.472222222222229
 31
0.0
 73
     3
  0
LINE
  5
98
  8
DIMNSIONS
  6
CONTINUOUS
 62
     7
 10
165.49999999999969
 20
33.299999999999997
 30
0.0
 11
133.5
 21
33.299999999999997
 31
0.0
  0
LINE
  5
99
  8
DIMNSIONS
  6
CONTINUOUS
 62
     7
 10
165.49999999999969
 20
116.7
 30
0.0
 11
133.5
 21
116.7
 31
0.0
  0
LINE
  5
9A
  8
DIMNSIONS
  6
CONTINUOUS
 62
     7
 10
137.5
 20
33.299999999999997
 30
0.0
 11
137.5
 21
116.7
 31
0.0
  0
LINE
  5
9B
  8
DIMNSIONS
  6
CONTINUOUS
 62
     7
 10
137.5
 20
33.299999999999997
 30
0.0
 11
136.15992040969951
 21
38.301245117187491
 31
0.0
  0
LINE
  5
9C
  8
DIMNSIONS
  6
CONTINUOUS
 62
     7
 10
137.5
 20
33.299999999999997
 30
0.0
 11
138.84007959030049
 21
38.301245117187491
 31
0.0
  0
LINE
  5
9D
  8
DIMNSIONS
  6
CONTINUOUS
 62
     7
 10
137.5
 20
116.7
 30
0.0
 11
138.84007959030049
 21
111.69875488281249
 31
0.0
  0
LINE
  5
9E
  8
DIMNSIONS
  6
CONTINUOUS
 62
     7
 10
137.5
 20
116.7
 30
0.0
 11
136.15992040969951
 21
111.69875488281249
 31
0.0
  0
TEXT
  5
9F
  8
DIMNSIONS
 62
     7
 10
135.51222222222219
 20
67.944444444444471
 30
0.0
 40
5.4294704861111107
  1
83.4
 50
90.0
 41
0.7
 11
130.08275173611111
 21
67.944444444444471
 31
0.0
 73
     3
  0
LINE
  5
A0
  8
DIMNSIONS
  6
CONTINUOUS
 62
     7
 10
158.25
 20
18.199999999999989
 30
0.0
 11
158.25
 21
8.5
 31
0.0
  0
LINE
  5
A1
  8
DIMNSIONS
  6
CONTINUOUS
 62
     7
 10
191.75
 20
18.200000000000049
 30
0.0
 11
191.75
 21
8.5
 31
0.0
  0
LINE
  5
A2
  8
DIMNSIONS
  6
CONTINUOUS
 62
     7
 10
158.25
 20
12.5
 30
0.0
 11
191.75
 21
12.5
 31
0.0
  0
LINE
  5
A3
  8
DIMNSIONS
  6
CONTINUOUS
 62
     7
 10
158.25
 20
12.5
 30
0.0
 11
163.25124511718741
 21
13.840079590300491
 31
0.0
  0
LINE
  5
A4
  8
DIMNSIONS
  6
CONTINUOUS
 62
     7
 10
158.25
 20
12.5
 30
0.0
 11
163.25124511718741
 21
11.159920409699501
 31
0.0
  0
LINE
  5
A5
  8
DIMNSIONS
  6
CONTINUOUS
 62
     7
 10
191.75
 20
12.5
 30
0.0
 11
186.74875488281239
 21
11.159920409699501
 31
0.0
  0
LINE
  5
A6
  8
DIMNSIONS
  6
CONTINUOUS
 62
     7
 10
191.75
 20
12.5
 30
0.0
 11
186.74875488281239
 21
13.840079590300491
 31
0.0
  0
TEXT
  5
A7
  8
DIMNSIONS
 62
     7
 10
171.4722222222222
 20
14.487777777777779
 30
0.0
 40
5.4294704861111107
  1
34
 41
0.7
 11
171.4722222222222
 21
19.91724826388889
 31
0.0
 73
     3
  0
LINE
  5
A8
  8
DIMNSIONS
  6
CONTINUOUS
 62
     7
 10
153.25
 20
36.0
 30
0.0
 11
153.25
 21
-16.5
 31
0.0
  0
LINE
  5
A9
  8
DIMNSIONS
  6
CONTINUOUS
 62
     7
 10
196.75000000000011
 20
36.0
 30
0.0
 11
196.75000000000011
 21
-16.5
 31
0.0
  0
LINE
  5
AA
  8
DIMNSIONS
  6
CONTINUOUS
 62
     7
 10
153.25
 20
-12.5
 30
0.0
 11
196.75000000000011
 21
-12.5
 31
0.0
  0
LINE
  5
AB
  8
DIMNSIONS
  6
CONTINUOUS
 62
     7
 10
153.25
 20
-12.5
 30
0.0
 11
158.25124511718749
 21
-11.159920409699501
 31
0.0
  0
LINE
  5
AC
  8
DIMNSIONS
  6
CONTINUOUS
 62
     7
 10
153.25
 20
-12.5
 30
0.0
 11
158.25124511718749
 21
-13.840079590300491
 31
0.0
  0
LINE
  5
AD
  8
DIMNSIONS
  6
CONTINUOUS
 62
     7
 10
196.75000000000011
 20
-12.5
 30
0.0
 11
191.74875488281251
 21
-13.840079590300491
 31
0.0
  0
LINE
  5
AE
  8
DIMNSIONS
  6
CONTINUOUS
 62
     7
 10
196.75000000000011
 20
-12.5
 30
0.0
 11
191.74875488281251
 21
-11.159920409699501
 31
0.0
  0
TEXT
  5
AF
  8
DIMNSIONS
 62
     7
 10
171.47222222222231
 20
-10.51222222222224
 30
0.0
 40
5.4294704861111107
  1
44
 41
0.7
 11
171.47222222222231
 21
-5.0827517361111347
 31
0.0
 73
     3
  0
LINE
  5
B0
  8
DIMNSIONS
  6
CONTINUOUS
 62
     7
 10
179.03656212703191
 20
118.9749810893279
 30
0.0
 11
187.5
 21
137.55000000000001
 31
0.0
  0
LINE
  5
B1
  8
DIMNSIONS
  6
CONTINUOUS
 62
     7
 10
179.03656212703191
 20
118.9749810893279
 30
0.0
 11
179.93565507705861
 21
124.0739905909609
 31
0.0
  0
LINE
  5
B2
  8
DIMNSIONS
  6
CONTINUOUS
 62
     7
 10
179.03656212703191
 20
118.9749810893279
 30
0.0
 11
182.3647042129351
 21
122.941306376867
 31
0.0
  0
LINE
  5
B3
  8
DIMNSIONS
  6
CONTINUOUS
 62
     7
 10
187.5
 20
137.55000000000001
 30
0.0
 11
216.1944444444444
 21
137.55000000000001
 31
0.0
  0
TEXT
  5
B4
  8
DIMNSIONS
 62
     7
 10
191.5
 20
139.53777777777779
 30
0.0
 40
5.4294704861111107
  1
2-5×11
 41
0.7
 11
191.5
 21
144.96724826388891
 31
0.0
 73
     3
  0
TEXT
  5
B5
  8
DATA
 62
     7
 10
-60.0
 20
-107.99218500000001
 30
0.0
 40
3.2576822916666659
  1
仕様および外観は予告なく変更されることがありますので、ご了承ください。
 41
0.7
 11
-60.0
 21
-104.7345027083333
 31
0.0
 73
     3
  0
TEXT
  5
B6
  8
DATA
 62
     7
 10
200.0
 20
-79.706404999999975
 30
0.0
 40
4.8865234375000002
  1
dbx
 41
0.7
 11
200.0
 21
-74.819881562499972
 31
0.0
 73
     3
  0
TEXT
  5
B7
  8
DATA
 62
     7
 10
200.0
 20
-94.206404999999947
 30
0.0
 40
4.8865234375000002
  1
ZC-7
 41
0.7
 11
200.0
 21
-89.319881562499944
 31
0.0
 73
     3
  0
TEXT
  5
B8
  8
DATA
 62
     7
 10
195.0
 20
-86.787314999999964
 30
0.0
 40
3.5291558159722221
  1
ゾーンコントローラ
 41
0.7
 11
195.0
 21
-83.258159184027761
 31
0.0
 73
     3
  0
LINE
  5
B9
  8
DATA
  6
CONTINUOUS
 62
     7
 10
237.88072677760741
 20
40.086906984528937
 30
0.0
 11
237.5
 21
40.086906984528937
 31
0.0
  0
LINE
  5
BA
  8
DATA
  6
CONTINUOUS
 62
     7
 10
237.5
 20
53.569660780686029
 30
0.0
 11
237.88072677760741
 21
53.569660780686029
 31
0.0
  0
LINE
  5
BB
  8
DATA
  6
CONTINUOUS
 62
     7
 10
237.88072677760741
 20
96.430339219313964
 30
0.0
 11
237.5
 21
96.430339219313964
 31
0.0
  0
LINE
  5
BC
  8
DATA
  6
CONTINUOUS
 62
     7
 10
237.5
 20
109.91309301547111
 30
0.0
 11
237.88072677760741
 21
109.91309301547111
 31
0.0
  0
LINE
  5
BD
  8
DATA
  6
CONTINUOUS
 62
     7
 10
239.22566305257291
 20
49.518672788928207
 30
0.0
 11
242.4742332155754
 21
49.518672788928207
 31
0.0
  0
LINE
  5
BE
  8
DATA
  6
CONTINUOUS
 62
     7
 10
242.4742332155754
 20
44.137894976286717
 30
0.0
 11
239.22566305257291
 21
44.137894976286717
 31
0.0
  0
LINE
  5
BF
  8
DATA
  6
CONTINUOUS
 62
     7
 10
240.17839515515601
 20
100.4813272110718
 30
0.0
 11
239.22566305257291
 21
100.4813272110718
 31
0.0
  0
LINE
  5
C0
  8
DATA
  6
CONTINUOUS
 62
     7
 10
235.9770928895704
 20
127.79038392097409
 30
0.0
 11
237.5
 21
127.79038392097409
 31
0.0
  0
LINE
  5
C1
  8
DATA
  6
CONTINUOUS
 62
     7
 10
235.9770928895704
 20
127.79038392097409
 30
0.0
 11
235.9770928895704
 21
22.209616079025881
 31
0.0
  0
LINE
  5
C2
  8
DATA
  6
CONTINUOUS
 62
     7
 10
235.9770928895704
 20
22.209616079025881
 30
0.0
 11
237.5
 21
22.209616079025881
 31
0.0
  0
LINE
  5
C3
  8
DATA
  6
CONTINUOUS
 62
     7
 10
237.5
 20
127.79038392097409
 30
0.0
 11
237.5
 21
22.209616079025881
 31
0.0
  0
LINE
  5
C4
  8
DATA
  6
CONTINUOUS
 62
     7
 10
252.79768470875959
 20
91.623406161911348
 30
0.0
 11
251.57839515515599
 21
91.623406161911348
 31
0.0
  0
LINE
  5
C5
  8
DATA
  6
CONTINUOUS
 62
     7
 10
252.79768470875959
 20
92.131156611252038
 30
0.0
 11
252.79768470875959
 21
91.623406161911348
 31
0.0
  0
LINE
  5
C6
  8
DATA
  6
CONTINUOUS
 62
     7
 10
252.79768470875959
 20
92.131156611252038
 30
0.0
 11
251.57839515515599
 21
92.131156611252038
 31
0.0
  0
LINE
  5
C7
  8
DATA
  6
CONTINUOUS
 62
     7
 10
252.79768470875959
 20
99.745003688215107
 30
0.0
 11
252.79768470875959
 21
99.23759747646686
 31
0.0
  0
LINE
  5
C8
  8
DATA
  6
CONTINUOUS
 62
     7
 10
252.79768470875959
 20
99.23759747646686
 30
0.0
 11
251.57839515515599
 21
99.23759747646686
 31
0.0
  0
LINE
  5
C9
  8
DATA
  6
CONTINUOUS
 62
     7
 10
252.79768470875959
 20
99.745003688215107
 30
0.0
 11
251.57839515515599
 21
99.745003688215107
 31
0.0
  0
LINE
  5
CA
  8
DATA
  6
CONTINUOUS
 62
     7
 10
252.79768470875959
 20
94.668876145178146
 30
0.0
 11
252.79768470875959
 21
94.161469933429871
 31
0.0
  0
LINE
  5
CB
  8
DATA
  6
CONTINUOUS
 62
     7
 10
252.79768470875959
 20
94.668876145178146
 30
0.0
 11
251.57839515515599
 21
94.668876145178146
 31
0.0
  0
LINE
  5
CC
  8
DATA
  6
CONTINUOUS
 62
     7
 10
252.79768470875959
 20
94.161469933429871
 30
0.0
 11
251.57839515515599
 21
94.161469933429871
 31
0.0
  0
LINE
  5
CD
  8
DATA
  6
CONTINUOUS
 62
     7
 10
252.79768470875959
 20
97.206939916696641
 30
0.0
 11
251.57839515515599
 21
97.206939916696641
 31
0.0
  0
LINE
  5
CE
  8
DATA
  6
CONTINUOUS
 62
     7
 10
252.79768470875959
 20
97.206939916696641
 30
0.0
 11
252.79768470875959
 21
96.699533704948365
 31
0.0
  0
LINE
  5
CF
  8
DATA
  6
CONTINUOUS
 62
     7
 10
252.79768470875959
 20
96.699533704948365
 30
0.0
 11
251.57839515515599
 21
96.699533704948365
 31
0.0
  0
LINE
  5
D0
  8
DATA
  6
CONTINUOUS
 62
     7
 10
252.79768470875959
 20
89.593092839733558
 30
0.0
 11
252.79768470875959
 21
89.085342390392896
 31
0.0
  0
LINE
  5
D1
  8
DATA
  6
CONTINUOUS
 62
     7
 10
252.79768470875959
 20
89.085342390392896
 30
0.0
 11
251.57839515515599
 21
89.085342390392896
 31
0.0
  0
LINE
  5
D2
  8
DATA
  6
CONTINUOUS
 62
     7
 10
252.79768470875959
 20
89.593092839733558
 30
0.0
 11
251.57839515515599
 21
89.593092839733558
 31
0.0
  0
LINE
  5
D3
  8
DATA
  6
CONTINUOUS
 62
     7
 10
252.79768470875959
 20
102.2830674597336
 30
0.0
 11
251.57839515515599
 21
102.2830674597336
 31
0.0
  0
LINE
  5
D4
  8
DATA
  6
CONTINUOUS
 62
     7
 10
252.79768470875959
 20
101.7753170103929
 30
0.0
 11
251.57839515515599
 21
101.7753170103929
 31
0.0
  0
LINE
  5
D5
  8
DATA
  6
CONTINUOUS
 62
     7
 10
252.79768470875959
 20
102.2830674597336
 30
0.0
 11
252.79768470875959
 21
101.7753170103929
 31
0.0
  0
LINE
  5
D6
  8
DATA
  6
CONTINUOUS
 62
     7
 10
237.88072677760741
 20
40.086906984528937
 30
0.0
 11
237.88072677760741
 21
53.569660780686029
 31
0.0
  0
LINE
  5
D7
  8
DATA
  6
CONTINUOUS
 62
     7
 10
237.88175949038569
 20
43.45045250351815
 30
0.0
 11
237.88072677760741
 21
43.418438407390347
 31
0.0
  0
LINE
  5
D8
  8
DATA
  6
CONTINUOUS
 62
     7
 10
237.9385586931925
 20
43.643914030656731
 30
0.0
 11
237.88175949038569
 21
43.45045250351815
 31
0.0
  0
LINE
  5
D9
  8
DATA
  6
CONTINUOUS
 62
     7
 10
238.07522101752431
 20
43.811901975930148
 30
0.0
 11
237.9385586931925
 21
43.643914030656731
 31
0.0
  0
LINE
  5
DA
  8
DATA
  6
CONTINUOUS
 62
     7
 10
237.88175949038569
 20
46.824325150290441
 30
0.0
 11
237.88072677760741
 21
46.828111763810902
 31
0.0
  0
LINE
  5
DB
  8
DATA
  6
CONTINUOUS
 62
     7
 10
237.9385586931925
 20
46.800916993981851
 30
0.0
 11
237.88175949038569
 21
46.824325150290441
 31
0.0
  0
LINE
  5
DC
  8
DATA
  6
CONTINUOUS
 62
     7
 10
238.07522101752431
 20
46.780262738415388
 30
0.0
 11
237.9385586931925
 21
46.800916993981851
 31
0.0
  0
LINE
  5
DD
  8
DATA
  6
CONTINUOUS
 62
     7
 10
237.88175949038569
 20
50.20611526169678
 30
0.0
 11
237.88072677760741
 21
50.238129357824583
 31
0.0
  0
LINE
  5
DE
  8
DATA
  6
CONTINUOUS
 62
     7
 10
237.90000408280241
 20
50.106286359792549
 30
0.0
 11
237.88175949038569
 21
50.20611526169678
 31
0.0
  0
LINE
  5
DF
  8
DATA
  6
CONTINUOUS
 62
     7
 10
237.9385586931925
 20
50.01265373455815
 30
0.0
 11
237.90000408280241
 21
50.106286359792549
 31
0.0
  0
LINE
  5
E0
  8
DATA
  6
CONTINUOUS
 62
     7
 10
237.9984560343355
 20
49.923151960436982
 30
0.0
 11
237.9385586931925
 21
50.01265373455815
 31
0.0
  0
LINE
  5
E1
  8
DATA
  6
CONTINUOUS
 62
     7
 10
238.07522101752431
 20
49.844665789284747
 30
0.0
 11
237.9984560343355
 21
49.923151960436982
 31
0.0
  0
LINE
  5
E2
  8
DATA
  6
CONTINUOUS
 62
     7
 10
237.88175949038569
 20
46.832242614924439
 30
0.0
 11
237.88072677760741
 21
46.828111763810902
 31
0.0
  0
LINE
  5
E3
  8
DATA
  6
CONTINUOUS
 62
     7
 10
237.90000408280241
 20
46.844290930671342
 30
0.0
 11
237.88175949038569
 21
46.832242614924439
 31
0.0
  0
LINE
  5
E4
  8
DATA
  6
CONTINUOUS
 62
     7
 10
237.9385586931925
 20
46.855650771233073
 30
0.0
 11
237.90000408280241
 21
46.844290930671342
 31
0.0
  0
LINE
  5
E5
  8
DATA
  6
CONTINUOUS
 62
     7
 10
237.9984560343355
 20
46.866666374201642
 30
0.0
 11
237.9385586931925
 21
46.855650771233073
 31
0.0
  0
LINE
  5
E6
  8
DATA
  6
CONTINUOUS
 62
     7
 10
238.07522101752431
 20
46.876305026799542
 30
0.0
 11
237.9984560343355
 21
46.866666374201642
 31
0.0
  0
LINE
  5
E7
  8
DATA
  6
CONTINUOUS
 62
     7
 10
239.22566305257291
 20
44.808814044602009
 30
0.0
 11
238.07522101752431
 21
43.811901975930148
 31
0.0
  0
LINE
  5
E8
  8
DATA
  6
CONTINUOUS
 62
     7
 10
239.22566305257291
 20
44.808814044602009
 30
0.0
 11
239.22566305257291
 21
46.658746868166389
 31
0.0
  0
LINE
  5
E9
  8
DATA
  6
CONTINUOUS
 62
     7
 10
239.22566305257291
 20
46.658746868166389
 30
0.0
 11
238.07522101752431
 21
46.780262738415388
 31
0.0
  0
LINE
  5
EA
  8
DATA
  6
CONTINUOUS
 62
     7
 10
239.22566305257291
 20
46.997476659455721
 30
0.0
 11
239.22566305257291
 21
48.847753720612907
 31
0.0
  0
LINE
  5
EB
  8
DATA
  6
CONTINUOUS
 62
     7
 10
239.22566305257291
 20
48.847753720612907
 30
0.0
 11
238.07522101752431
 21
49.844665789284747
 31
0.0
  0
LINE
  5
EC
  8
DATA
  6
CONTINUOUS
 62
     7
 10
239.22566305257291
 20
46.997476659455721
 30
0.0
 11
238.07522101752431
 21
46.876305026799542
 31
0.0
  0
LINE
  5
ED
  8
DATA
  6
CONTINUOUS
 62
     7
 10
239.22566305257291
 20
44.569224680031731
 30
0.0
 11
238.07522101752431
 21
43.744087170153762
 31
0.0
  0
LINE
  5
EE
  8
DATA
  6
CONTINUOUS
 62
     7
 10
239.06008477044861
 20
44.665266968415501
 30
0.0
 11
239.22566305257291
 21
44.569224680031731
 31
0.0
  0
LINE
  5
EF
  8
DATA
  6
CONTINUOUS
 62
     7
 10
237.88175949038569
 20
43.444944702033823
 30
0.0
 11
237.88072677760741
 21
43.418438407390347
 31
0.0
  0
LINE
  5
F0
  8
DATA
  6
CONTINUOUS
 62
     7
 10
237.9385586931925
 20
43.605015182673263
 30
0.0
 11
237.88175949038569
 21
43.444944702033823
 31
0.0
  0
LINE
  5
F1
  8
DATA
  6
CONTINUOUS
 62
     7
 10
238.07522101752431
 20
43.744087170153762
 30
0.0
 11
237.9385586931925
 21
43.605015182673263
 31
0.0
  0
LINE
  5
F2
  8
DATA
  6
CONTINUOUS
 62
     7
 10
237.88175949038569
 20
42.047340075373668
 30
0.0
 11
237.88072677760741
 21
42.00603156424075
 31
0.0
  0
LINE
  5
F3
  8
DATA
  6
CONTINUOUS
 62
     7
 10
237.9385586931925
 20
42.29760080531981
 30
0.0
 11
237.88175949038569
 21
42.047340075373668
 31
0.0
  0
LINE
  5
F4
  8
DATA
  6
CONTINUOUS
 62
     7
 10
238.07522101752431
 20
42.514470488766968
 30
0.0
 11
237.9385586931925
 21
42.29760080531981
 31
0.0
  0
LINE
  5
F5
  8
DATA
  6
CONTINUOUS
 62
     7
 10
237.88175949038569
 20
50.211623063181051
 30
0.0
 11
237.88072677760741
 21
50.238129357824583
 31
0.0
  0
LINE
  5
F6
  8
DATA
  6
CONTINUOUS
 62
     7
 10
237.9385586931925
 20
50.051552582541667
 30
0.0
 11
237.88175949038569
 21
50.211623063181051
 31
0.0
  0
LINE
  5
F7
  8
DATA
  6
CONTINUOUS
 62
     7
 10
238.07522101752431
 20
49.912480595061169
 30
0.0
 11
237.9385586931925
 21
50.051552582541667
 31
0.0
  0
LINE
  5
F8
  8
DATA
  6
CONTINUOUS
 62
     7
 10
239.06008477044861
 20
48.991300796799422
 30
0.0
 11
239.22566305257291
 21
49.087343085183178
 31
0.0
  0
LINE
  5
F9
  8
DATA
  6
CONTINUOUS
 62
     7
 10
239.22566305257291
 20
49.087343085183178
 30
0.0
 11
238.07522101752431
 21
49.912480595061169
 31
0.0
  0
LINE
  5
FA
  8
DATA
  6
CONTINUOUS
 62
     7
 10
237.88175949038569
 20
51.609227689841212
 30
0.0
 11
237.88072677760741
 21
51.650536200974123
 31
0.0
  0
LINE
  5
FB
  8
DATA
  6
CONTINUOUS
 62
     7
 10
237.9385586931925
 20
51.359311197487891
 30
0.0
 11
237.88175949038569
 21
51.609227689841212
 31
0.0
  0
LINE
  5
FC
  8
DATA
  6
CONTINUOUS
 62
     7
 10
238.07522101752431
 20
51.142097276447927
 30
0.0
 11
237.9385586931925
 21
51.359311197487891
 31
0.0
  0
LINE
  5
FD
  8
DATA
  6
CONTINUOUS
 62
     7
 10
239.22566305257291
 20
43.80295179851818
 30
0.0
 11
238.07522101752431
 21
42.514470488766968
 31
0.0
  0
LINE
  5
FE
  8
DATA
  6
CONTINUOUS
 62
     7
 10
239.22566305257291
 20
43.80295179851818
 30
0.0
 11
239.22566305257291
 21
44.569224680031731
 31
0.0
  0
LINE
  5
FF
  8
DATA
  6
CONTINUOUS
 62
     7
 10
239.22566305257291
 20
49.853615966696722
 30
0.0
 11
238.07522101752431
 21
51.142097276447927
 31
0.0
  0
LINE
  5
100
  8
DATA
  6
CONTINUOUS
 62
     7
 10
239.22566305257291
 20
49.087343085183178
 30
0.0
 11
239.22566305257291
 21
49.853615966696722
 31
0.0
  0
LINE
  5
101
  8
DATA
  6
CONTINUOUS
 62
     7
 10
237.88175949038569
 20
42.047340075373668
 30
0.0
 11
237.88072677760741
 21
42.00603156424075
 31
0.0
  0
LINE
  5
102
  8
DATA
  6
CONTINUOUS
 62
     7
 10
237.9385586931925
 20
42.29760080531981
 30
0.0
 11
237.88175949038569
 21
42.047340075373668
 31
0.0
  0
LINE
  5
103
  8
DATA
  6
CONTINUOUS
 62
     7
 10
238.07522101752431
 20
42.514470488766968
 30
0.0
 11
237.9385586931925
 21
42.29760080531981
 31
0.0
  0
LINE
  5
104
  8
DATA
  6
CONTINUOUS
 62
     7
 10
237.88175949038569
 20
51.609227689841212
 30
0.0
 11
237.88072677760741
 21
51.650536200974123
 31
0.0
  0
LINE
  5
105
  8
DATA
  6
CONTINUOUS
 62
     7
 10
237.9385586931925
 20
51.359311197487891
 30
0.0
 11
237.88175949038569
 21
51.609227689841212
 31
0.0
  0
LINE
  5
106
  8
DATA
  6
CONTINUOUS
 62
     7
 10
238.07522101752431
 20
51.142097276447927
 30
0.0
 11
237.9385586931925
 21
51.359311197487891
 31
0.0
  0
LINE
  5
107
  8
DATA
  6
CONTINUOUS
 62
     7
 10
237.88072677760741
 20
96.430339219313964
 30
0.0
 11
237.88072677760741
 21
109.91309301547111
 31
0.0
  0
LINE
  5
108
  8
DATA
  6
CONTINUOUS
 62
     7
 10
237.88175949038569
 20
106.54954749648179
 30
0.0
 11
237.88072677760741
 21
106.58156159261
 31
0.0
  0
LINE
  5
109
  8
DATA
  6
CONTINUOUS
 62
     7
 10
237.90000408280241
 20
106.4497185945776
 30
0.0
 11
237.88175949038569
 21
106.54954749648179
 31
0.0
  0
LINE
  5
10A
  8
DATA
  6
CONTINUOUS
 62
     7
 10
237.9385586931925
 20
106.3560859693432
 30
0.0
 11
237.90000408280241
 21
106.4497185945776
 31
0.0
  0
LINE
  5
10B
  8
DATA
  6
CONTINUOUS
 62
     7
 10
237.9984560343355
 20
106.2662399576293
 30
0.0
 11
237.9385586931925
 21
106.3560859693432
 31
0.0
  0
LINE
  5
10C
  8
DATA
  6
CONTINUOUS
 62
     7
 10
238.07522101752431
 20
106.1880980240698
 30
0.0
 11
237.9984560343355
 21
106.2662399576293
 31
0.0
  0
LINE
  5
10D
  8
DATA
  6
CONTINUOUS
 62
     7
 10
237.88175949038569
 20
103.17567484970949
 30
0.0
 11
237.88072677760741
 21
103.17154399859631
 31
0.0
  0
LINE
  5
10E
  8
DATA
  6
CONTINUOUS
 62
     7
 10
237.90000408280241
 20
103.1877231654564
 30
0.0
 11
237.88175949038569
 21
103.17567484970949
 31
0.0
  0
LINE
  5
10F
  8
DATA
  6
CONTINUOUS
 62
     7
 10
237.9385586931925
 20
103.1990830060181
 30
0.0
 11
237.90000408280241
 21
103.1877231654564
 31
0.0
  0
LINE
  5
110
  8
DATA
  6
CONTINUOUS
 62
     7
 10
237.9984560343355
 20
103.2100986089867
 30
0.0
 11
237.9385586931925
 21
103.1990830060181
 31
0.0
  0
LINE
  5
111
  8
DATA
  6
CONTINUOUS
 62
     7
 10
238.07522101752431
 20
103.2197372615846
 30
0.0
 11
237.9984560343355
 21
103.2100986089867
 31
0.0
  0
LINE
  5
112
  8
DATA
  6
CONTINUOUS
 62
     7
 10
237.88175949038569
 20
99.793884738303262
 30
0.0
 11
237.88072677760741
 21
99.761870642175424
 31
0.0
  0
LINE
  5
113
  8
DATA
  6
CONTINUOUS
 62
     7
 10
237.9385586931925
 20
99.987346265441843
 30
0.0
 11
237.88175949038569
 21
99.793884738303262
 31
0.0
  0
LINE
  5
114
  8
DATA
  6
CONTINUOUS
 62
     7
 10
238.07522101752431
 20
100.1553342107152
 30
0.0
 11
237.9385586931925
 21
99.987346265441843
 31
0.0
  0
LINE
  5
115
  8
DATA
  6
CONTINUOUS
 62
     7
 10
237.88175949038569
 20
103.1677573850755
 30
0.0
 11
237.88072677760741
 21
103.17154399859631
 31
0.0
  0
LINE
  5
116
  8
DATA
  6
CONTINUOUS
 62
     7
 10
237.9385586931925
 20
103.1440049911741
 30
0.0
 11
237.88175949038569
 21
103.1677573850755
 31
0.0
  0
LINE
  5
117
  8
DATA
  6
CONTINUOUS
 62
     7
 10
238.07522101752431
 20
103.1236949732008
 30
0.0
 11
237.9385586931925
 21
103.1440049911741
 31
0.0
  0
LINE
  5
118
  8
DATA
  6
CONTINUOUS
 62
     7
 10
239.22566305257291
 20
103.3409088942408
 30
0.0
 11
239.22566305257291
 21
105.191185955398
 31
0.0
  0
LINE
  5
119
  8
DATA
  6
CONTINUOUS
 62
     7
 10
239.22566305257291
 20
105.191185955398
 30
0.0
 11
238.07522101752431
 21
106.1880980240698
 31
0.0
  0
LINE
  5
11A
  8
DATA
  6
CONTINUOUS
 62
     7
 10
239.22566305257291
 20
103.3409088942408
 30
0.0
 11
238.07522101752431
 21
103.2197372615846
 31
0.0
  0
LINE
  5
11B
  8
DATA
  6
CONTINUOUS
 62
     7
 10
239.22566305257291
 20
101.1522462793871
 30
0.0
 11
238.07522101752431
 21
100.1553342107152
 31
0.0
  0
LINE
  5
11C
  8
DATA
  6
CONTINUOUS
 62
     7
 10
239.22566305257291
 20
101.1522462793871
 30
0.0
 11
239.22566305257291
 21
103.0021791029515
 31
0.0
  0
LINE
  5
11D
  8
DATA
  6
CONTINUOUS
 62
     7
 10
239.22566305257291
 20
103.0021791029515
 30
0.0
 11
238.07522101752431
 21
103.1236949732008
 31
0.0
  0
LINE
  5
11E
  8
DATA
  6
CONTINUOUS
 62
     7
 10
239.22566305257291
 20
100.91265691481679
 30
0.0
 11
238.07522101752431
 21
100.0875194049388
 31
0.0
  0
LINE
  5
11F
  8
DATA
  6
CONTINUOUS
 62
     7
 10
239.06008477044861
 20
101.00869920320051
 30
0.0
 11
239.22566305257291
 21
100.91265691481679
 31
0.0
  0
LINE
  5
120
  8
DATA
  6
CONTINUOUS
 62
     7
 10
237.88175949038569
 20
99.788376936818963
 30
0.0
 11
237.88072677760741
 21
99.761870642175424
 31
0.0
  0
LINE
  5
121
  8
DATA
  6
CONTINUOUS
 62
     7
 10
237.9385586931925
 20
99.948447417458311
 30
0.0
 11
237.88175949038569
 21
99.788376936818963
 31
0.0
  0
LINE
  5
122
  8
DATA
  6
CONTINUOUS
 62
     7
 10
238.07522101752431
 20
100.0875194049388
 30
0.0
 11
237.9385586931925
 21
99.948447417458311
 31
0.0
  0
LINE
  5
123
  8
DATA
  6
CONTINUOUS
 62
     7
 10
237.88175949038569
 20
98.390772310158809
 30
0.0
 11
237.88072677760741
 21
98.349463799025884
 31
0.0
  0
LINE
  5
124
  8
DATA
  6
CONTINUOUS
 62
     7
 10
237.9385586931925
 20
98.64068880251213
 30
0.0
 11
237.88175949038569
 21
98.390772310158809
 31
0.0
  0
LINE
  5
125
  8
DATA
  6
CONTINUOUS
 62
     7
 10
238.07522101752431
 20
98.857902723552087
 30
0.0
 11
237.9385586931925
 21
98.64068880251213
 31
0.0
  0
LINE
  5
126
  8
DATA
  6
CONTINUOUS
 62
     7
 10
237.88175949038569
 20
106.55505529796611
 30
0.0
 11
237.88072677760741
 21
106.58156159261
 31
0.0
  0
LINE
  5
127
  8
DATA
  6
CONTINUOUS
 62
     7
 10
237.9385586931925
 20
106.3949848173267
 30
0.0
 11
237.88175949038569
 21
106.55505529796611
 31
0.0
  0
LINE
  5
128
  8
DATA
  6
CONTINUOUS
 62
     7
 10
238.07522101752431
 20
106.2559128298462
 30
0.0
 11
237.9385586931925
 21
106.3949848173267
 31
0.0
  0
LINE
  5
129
  8
DATA
  6
CONTINUOUS
 62
     7
 10
239.06008477044861
 20
105.33473303158451
 30
0.0
 11
239.22566305257291
 21
105.43077531996821
 31
0.0
  0
LINE
  5
12A
  8
DATA
  6
CONTINUOUS
 62
     7
 10
239.22566305257291
 20
105.43077531996821
 30
0.0
 11
238.07522101752431
 21
106.2559128298462
 31
0.0
  0
LINE
  5
12B
  8
DATA
  6
CONTINUOUS
 62
     7
 10
237.88175949038569
 20
107.9526599246263
 30
0.0
 11
237.88072677760741
 21
107.9939684357592
 31
0.0
  0
LINE
  5
12C
  8
DATA
  6
CONTINUOUS
 62
     7
 10
237.9385586931925
 20
107.7023991946802
 30
0.0
 11
237.88175949038569
 21
107.9526599246263
 31
0.0
  0
LINE
  5
12D
  8
DATA
  6
CONTINUOUS
 62
     7
 10
238.07522101752431
 20
107.485529511233
 30
0.0
 11
237.9385586931925
 21
107.7023991946802
 31
0.0
  0
LINE
  5
12E
  8
DATA
  6
CONTINUOUS
 62
     7
 10
239.22566305257291
 20
100.14638403330321
 30
0.0
 11
238.07522101752431
 21
98.857902723552087
 31
0.0
  0
LINE
  5
12F
  8
DATA
  6
CONTINUOUS
 62
     7
 10
239.22566305257291
 20
100.14638403330321
 30
0.0
 11
239.22566305257291
 21
100.91265691481679
 31
0.0
  0
LINE
  5
130
  8
DATA
  6
CONTINUOUS
 62
     7
 10
239.22566305257291
 20
106.19704820148181
 30
0.0
 11
238.07522101752431
 21
107.485529511233
 31
0.0
  0
LINE
  5
131
  8
DATA
  6
CONTINUOUS
 62
     7
 10
239.22566305257291
 20
105.43077531996821
 30
0.0
 11
239.22566305257291
 21
106.19704820148181
 31
0.0
  0
LINE
  5
132
  8
DATA
  6
CONTINUOUS
 62
     7
 10
237.88175949038569
 20
98.390772310158809
 30
0.0
 11
237.88072677760741
 21
98.349463799025884
 31
0.0
  0
LINE
  5
133
  8
DATA
  6
CONTINUOUS
 62
     7
 10
237.9385586931925
 20
98.64068880251213
 30
0.0
 11
237.88175949038569
 21
98.390772310158809
 31
0.0
  0
LINE
  5
134
  8
DATA
  6
CONTINUOUS
 62
     7
 10
238.07522101752431
 20
98.857902723552087
 30
0.0
 11
237.9385586931925
 21
98.64068880251213
 31
0.0
  0
LINE
  5
135
  8
DATA
  6
CONTINUOUS
 62
     7
 10
237.88175949038569
 20
107.9526599246263
 30
0.0
 11
237.88072677760741
 21
107.9939684357592
 31
0.0
  0
LINE
  5
136
  8
DATA
  6
CONTINUOUS
 62
     7
 10
237.9385586931925
 20
107.7023991946802
 30
0.0
 11
237.88175949038569
 21
107.9526599246263
 31
0.0
  0
LINE
  5
137
  8
DATA
  6
CONTINUOUS
 62
     7
 10
238.07522101752431
 20
107.485529511233
 30
0.0
 11
237.9385586931925
 21
107.7023991946802
 31
0.0
  0
LINE
  5
138
  8
DATA
  6
CONTINUOUS
 62
     7
 10
230.9695789509953
 20
108.25
 30
0.0
 11
230.9695789509953
 21
41.749999999999993
 31
0.0
  0
LINE
  5
139
  8
DATA
  6
CONTINUOUS
 62
     7
 10
250.00488511858799
 20
109.89725808620381
 30
0.0
 11
251.57839515515599
 21
109.89725808620381
 31
0.0
  0
LINE
  5
13A
  8
DATA
  6
CONTINUOUS
 62
     7
 10
250.00488511858799
 20
109.89725808620381
 30
0.0
 11
250.00488511858799
 21
40.102397676203474
 31
0.0
  0
LINE
  5
13B
  8
DATA
  6
CONTINUOUS
 62
     7
 10
250.00488511858799
 20
40.102397676203474
 30
0.0
 11
251.57839515515599
 21
40.102397676203474
 31
0.0
  0
LINE
  5
13C
  8
DATA
  6
CONTINUOUS
 62
     7
 10
251.57839515515599
 20
109.89725808620381
 30
0.0
 11
251.57839515515599
 21
40.102397676203474
 31
0.0
  0
LINE
  5
13D
  8
DATA
  6
CONTINUOUS
 62
     7
 10
238.07522101752431
 20
43.811901975930148
 30
0.0
 11
238.07522101752431
 21
46.780262738415388
 31
0.0
  0
LINE
  5
13E
  8
DATA
  6
CONTINUOUS
 62
     7
 10
238.07522101752431
 20
46.876305026799542
 30
0.0
 11
238.07522101752431
 21
49.844665789284747
 31
0.0
  0
LINE
  5
13F
  8
DATA
  6
CONTINUOUS
 62
     7
 10
238.07522101752431
 20
42.514470488766968
 30
0.0
 11
238.07522101752431
 21
43.744087170153762
 31
0.0
  0
LINE
  5
140
  8
DATA
  6
CONTINUOUS
 62
     7
 10
238.07522101752431
 20
49.912480595061169
 30
0.0
 11
238.07522101752431
 21
51.142097276447927
 31
0.0
  0
LINE
  5
141
  8
DATA
  6
CONTINUOUS
 62
     7
 10
238.07522101752431
 20
103.2197372615846
 30
0.0
 11
238.07522101752431
 21
106.1880980240698
 31
0.0
  0
LINE
  5
142
  8
DATA
  6
CONTINUOUS
 62
     7
 10
238.07522101752431
 20
100.1553342107152
 30
0.0
 11
238.07522101752431
 21
103.1236949732008
 31
0.0
  0
LINE
  5
143
  8
DATA
  6
CONTINUOUS
 62
     7
 10
238.07522101752431
 20
98.857902723552087
 30
0.0
 11
238.07522101752431
 21
100.0875194049388
 31
0.0
  0
LINE
  5
144
  8
DATA
  6
CONTINUOUS
 62
     7
 10
238.07522101752431
 20
106.2559128298462
 30
0.0
 11
238.07522101752431
 21
107.485529511233
 31
0.0
  0
POLYLINE
  5
145
  8
DATA
  6
CONTINUOUS
 62
     7
 66
     1
 10
0.0
 20
0.0
 30
0.0
 70
     1
  0
VERTEX
  5
403
  8
DATA
  6
CONTINUOUS
 62
     7
 10
-35.000000000000071
 20
132.25
 30
0.0
  0
VERTEX
  5
404
  8
DATA
  6
CONTINUOUS
 62
     7
 10
35.00000000000005
 20
132.25
 30
0.0
  0
VERTEX
  5
405
  8
DATA
  6
CONTINUOUS
 62
     7
 10
35.00000000000005
 20
17.75
 30
0.0
  0
VERTEX
  5
406
  8
DATA
  6
CONTINUOUS
 62
     7
 10
-35.000000000000071
 20
17.75
 30
0.0
  0
SEQEND
  5
407
  8
DATA
  6
CONTINUOUS
 62
     7
  0
CIRCLE
  5
14C
  8
DATA
  6
CONTINUOUS
 62
     7
 10
-0.0000000000000711
 20
123.34999999999999
 30
0.0
 40
3.5
  0
LINE
  5
14D
  8
DATA
  6
CONTINUOUS
 62
     7
 10
14.499999999999931
 20
41.749999999999993
 30
0.0
 11
-14.500000000000069
 21
41.749999999999993
 31
0.0
  0
LINE
  5
14E
  8
DATA
  6
CONTINUOUS
 62
     7
 10
16.499999999999929
 20
106.25
 30
0.0
 11
16.499999999999929
 21
43.75
 31
0.0
  0
LINE
  5
14F
  8
DATA
  6
CONTINUOUS
 62
     7
 10
-14.500000000000069
 20
108.25
 30
0.0
 11
14.499999999999931
 21
108.25
 31
0.0
  0
LINE
  5
150
  8
DATA
  6
CONTINUOUS
 62
     7
 10
-16.500000000000071
 20
43.75
 30
0.0
 11
-16.500000000000071
 21
106.25
 31
0.0
  0
TEXT
  5
151
  8
DATA
 62
     7
 10
-9.2040405563102592
 20
48.097902118268252
 30
0.0
 40
1.357367621527777
  1
PROFESSIONAL PRODUCTS  
 41
0.7
 11
-9.2040405563102592
 21
49.45526973979603
 31
0.0
 73
     3
  0
TEXT
  5
152
  8
DATA
 62
     7
 10
-4.129267202913482
 20
43.454011605761281
 30
0.0
 40
3.078125
  1
ZC-7
 41
0.7
 11
-4.129267202913482
 21
46.532136605761281
 31
0.0
 73
     3
  0
LINE
  5
153
  8
DATA
  6
CONTINUOUS
 62
     7
 10
191.75
 20
22.200000000000049
 30
0.0
 11
158.25
 21
22.199999999999989
 31
0.0
  0
POLYLINE
  5
154
  8
DATA
  6
CONTINUOUS
 62
     7
 66
     1
 10
0.0
 20
0.0
 30
0.0
 70
     1
  0
VERTEX
  5
408
  8
DATA
  6
CONTINUOUS
 62
     7
 10
153.25
 20
110.0
 30
0.0
  0
VERTEX
  5
409
  8
DATA
  6
CONTINUOUS
 62
     7
 10
196.75000000000011
 20
110.0
 30
0.0
  0
VERTEX
  5
40A
  8
DATA
  6
CONTINUOUS
 62
     7
 10
196.75000000000011
 20
40.0
 30
0.0
  0
VERTEX
  5
40B
  8
DATA
  6
CONTINUOUS
 62
     7
 10
153.25
 20
40.0
 30
0.0
  0
SEQEND
  5
40C
  8
DATA
  6
CONTINUOUS
 62
     7
  0
POLYLINE
  5
15B
  8
DATA
  6
CONTINUOUS
 62
     7
 66
     1
 10
0.0
 20
0.0
 30
0.0
  0
VERTEX
  5
40D
  8
DATA
  6
CONTINUOUS
 62
     7
 10
156.87536788056141
 20
58.140916940344162
 30
0.0
  0
VERTEX
  5
40E
  8
DATA
  6
CONTINUOUS
 62
     7
 10
156.87536788056141
 20
53.540916940344161
 30
0.0
  0
VERTEX
  5
40F
  8
DATA
  6
CONTINUOUS
 62
     7
 10
168.5753678805614
 20
53.540916940344161
 30
0.0
  0
VERTEX
  5
410
  8
DATA
  6
CONTINUOUS
 62
     7
 10
168.5753678805614
 20
67.24091694034432
 30
0.0
  0
VERTEX
  5
411
  8
DATA
  6
CONTINUOUS
 62
     7
 10
156.87536788056141
 20
67.24091694034432
 30
0.0
  0
VERTEX
  5
412
  8
DATA
  6
CONTINUOUS
 62
     7
 10
156.87536788056141
 20
62.640916940344191
 30
0.0
  0
SEQEND
  5
413
  8
DATA
  6
CONTINUOUS
 62
     7
  0
LINE
  5
164
  8
DATA
  6
CONTINUOUS
 62
     7
 10
155.87536788056141
 20
62.640916940344191
 30
0.0
 11
156.87536788056141
 21
62.640916940344191
 31
0.0
  0
LINE
  5
165
  8
DATA
  6
CONTINUOUS
 62
     7
 10
155.87536788056141
 20
58.140916940344162
 30
0.0
 11
155.87536788056141
 21
62.640916940344191
 31
0.0
  0
LINE
  5
166
  8
DATA
  6
CONTINUOUS
 62
     7
 10
156.87536788056141
 20
58.140916940344162
 30
0.0
 11
155.87536788056141
 21
58.140916940344162
 31
0.0
  0
LINE
  5
167
  8
DATA
  6
CONTINUOUS
 62
     7
 10
160.5753678805614
 20
66.440916940344295
 30
0.0
 11
168.5753678805614
 21
66.440916940344295
 31
0.0
  0
LINE
  5
168
  8
DATA
  6
CONTINUOUS
 62
     7
 10
160.5753678805614
 20
54.340916940344151
 30
0.0
 11
168.5753678805614
 21
54.340916940344151
 31
0.0
  0
LINE
  5
169
  8
DATA
  6
CONTINUOUS
 62
     7
 10
160.5753678805614
 20
54.340916940344151
 30
0.0
 11
160.5753678805614
 21
58.240916940344142
 31
0.0
  0
LINE
  5
16A
  8
DATA
  6
CONTINUOUS
 62
     7
 10
160.5753678805614
 20
58.240916940344142
 30
0.0
 11
157.12569074059181
 21
58.240916940344142
 31
0.0
  0
LINE
  5
16B
  8
DATA
  6
CONTINUOUS
 62
     7
 10
160.5753678805614
 20
66.440916940344295
 30
0.0
 11
160.5753678805614
 21
62.540916940344182
 31
0.0
  0
LINE
  5
16C
  8
DATA
  6
CONTINUOUS
 62
     7
 10
160.5753678805614
 20
62.540916940344182
 30
0.0
 11
157.12569074059181
 21
62.540916940344182
 31
0.0
  0
LINE
  5
16D
  8
DATA
  6
CONTINUOUS
 62
     7
 10
157.12569074059181
 20
58.240916940344142
 30
0.0
 11
157.12569074059181
 21
62.540916940344182
 31
0.0
  0
CIRCLE
  5
16E
  8
DATA
  6
CONTINUOUS
 62
     7
 10
175.00000000000011
 20
123.34999999999999
 30
0.0
 40
1.399999999999977
  0
CIRCLE
  5
16F
  8
DATA
  6
CONTINUOUS
 62
     7
 10
175.00000000000011
 20
26.650000000000009
 30
0.0
 40
1.399999999999977
  0
LINE
  5
170
  8
DATA
  6
CONTINUOUS
 62
     7
 10
196.60000000000011
 20
107.07159722538501
 30
0.0
 11
197.2000000000001
 21
107.07159722538501
 31
0.0
  0
LINE
  5
171
  8
DATA
  6
CONTINUOUS
 62
     7
 10
197.2000000000001
 20
103.871597225385
 30
0.0
 11
196.60000000000011
 21
103.871597225385
 31
0.0
  0
LINE
  5
172
  8
DATA
  6
CONTINUOUS
 62
     7
 10
197.2000000000001
 20
109.4715972253849
 30
0.0
 11
197.2000000000001
 21
101.471597225385
 31
0.0
  0
LINE
  5
173
  8
DATA
  6
CONTINUOUS
 62
     7
 10
197.90000000000009
 20
109.4715972253849
 30
0.0
 11
197.90000000000009
 21
101.471597225385
 31
0.0
  0
LINE
  5
174
  8
DATA
  6
CONTINUOUS
 62
     7
 10
197.90000000000009
 20
108.971597225385
 30
0.0
 11
200.10000000000019
 21
108.971597225385
 31
0.0
  0
LINE
  5
175
  8
DATA
  6
CONTINUOUS
 62
     7
 10
197.90000000000009
 20
101.971597225385
 30
0.0
 11
200.10000000000019
 21
101.971597225385
 31
0.0
  0
LINE
  5
176
  8
DATA
  6
CONTINUOUS
 62
     7
 10
200.10000000000019
 20
101.971597225385
 30
0.0
 11
200.10000000000019
 21
108.971597225385
 31
0.0
  0
LINE
  5
177
  8
DATA
  6
CONTINUOUS
 62
     7
 10
197.90000000000009
 20
109.4715972253849
 30
0.0
 11
197.2000000000001
 21
109.4715972253849
 31
0.0
  0
LINE
  5
178
  8
DATA
  6
CONTINUOUS
 62
     7
 10
197.90000000000009
 20
101.471597225385
 30
0.0
 11
197.2000000000001
 21
101.471597225385
 31
0.0
  0
LINE
  5
179
  8
DATA
  6
CONTINUOUS
 62
     7
 10
197.2000000000001
 20
105.471597225385
 30
0.0
 11
197.90000000000009
 21
105.471597225385
 31
0.0
  0
LINE
  5
17A
  8
DATA
  6
CONTINUOUS
 62
     7
 10
87.119273222392621
 20
40.086906984528937
 30
0.0
 11
87.5
 21
40.086906984528937
 31
0.0
  0
LINE
  5
17B
  8
DATA
  6
CONTINUOUS
 62
     7
 10
87.5
 20
53.569660780686029
 30
0.0
 11
87.119273222392621
 21
53.569660780686029
 31
0.0
  0
LINE
  5
17C
  8
DATA
  6
CONTINUOUS
 62
     7
 10
87.119273222392621
 20
96.430339219313964
 30
0.0
 11
87.5
 21
96.430339219313964
 31
0.0
  0
LINE
  5
17D
  8
DATA
  6
CONTINUOUS
 62
     7
 10
78.808312032595992
 20
105.8617607861205
 30
0.0
 11
77.19559189792119
 21
105.8617607861205
 31
0.0
  0
LINE
  5
17E
  8
DATA
  6
CONTINUOUS
 62
     7
 10
89.022907110429557
 20
127.79038392097409
 30
0.0
 11
87.5
 21
127.79038392097409
 31
0.0
  0
LINE
  5
17F
  8
DATA
  6
CONTINUOUS
 62
     7
 10
89.022907110429557
 20
22.209616079025881
 30
0.0
 11
87.5
 21
22.209616079025881
 31
0.0
  0
LINE
  5
180
  8
DATA
  6
CONTINUOUS
 62
     7
 10
87.5
 20
127.79038392097409
 30
0.0
 11
87.5
 21
109.596074589127
 31
0.0
  0
LINE
  5
181
  8
DATA
  6
CONTINUOUS
 62
     7
 10
87.5
 20
101.4603587664041
 30
0.0
 11
87.5
 21
22.209616079025881
 31
0.0
  0
LINE
  5
182
  8
DATA
  6
CONTINUOUS
 62
     7
 10
87.119273222392621
 20
40.086906984528937
 30
0.0
 11
87.119273222392621
 21
53.569660780686029
 31
0.0
  0
LINE
  5
183
  8
DATA
  6
CONTINUOUS
 62
     7
 10
87.118240509614353
 20
43.45045250351815
 30
0.0
 11
87.119273222392621
 21
43.418438407390347
 31
0.0
  0
LINE
  5
184
  8
DATA
  6
CONTINUOUS
 62
     7
 10
87.061441306807581
 20
43.643914030656731
 30
0.0
 11
87.118240509614353
 21
43.45045250351815
 31
0.0
  0
LINE
  5
185
  8
DATA
  6
CONTINUOUS
 62
     7
 10
86.924778982475743
 20
43.811901975930148
 30
0.0
 11
87.061441306807581
 21
43.643914030656731
 31
0.0
  0
LINE
  5
186
  8
DATA
  6
CONTINUOUS
 62
     7
 10
87.118240509614353
 20
46.824325150290441
 30
0.0
 11
87.119273222392621
 21
46.828111763810902
 31
0.0
  0
LINE
  5
187
  8
DATA
  6
CONTINUOUS
 62
     7
 10
87.061441306807581
 20
46.800916993981851
 30
0.0
 11
87.118240509614353
 21
46.824325150290441
 31
0.0
  0
LINE
  5
188
  8
DATA
  6
CONTINUOUS
 62
     7
 10
86.924778982475743
 20
46.780262738415388
 30
0.0
 11
87.061441306807581
 21
46.800916993981851
 31
0.0
  0
LINE
  5
189
  8
DATA
  6
CONTINUOUS
 62
     7
 10
87.118240509614353
 20
50.20611526169678
 30
0.0
 11
87.119273222392621
 21
50.238129357824583
 31
0.0
  0
LINE
  5
18A
  8
DATA
  6
CONTINUOUS
 62
     7
 10
87.099995917197589
 20
50.106286359792549
 30
0.0
 11
87.118240509614353
 21
50.20611526169678
 31
0.0
  0
LINE
  5
18B
  8
DATA
  6
CONTINUOUS
 62
     7
 10
87.061441306807581
 20
50.01265373455815
 30
0.0
 11
87.099995917197589
 21
50.106286359792549
 31
0.0
  0
LINE
  5
18C
  8
DATA
  6
CONTINUOUS
 62
     7
 10
87.001543965664496
 20
49.923151960436982
 30
0.0
 11
87.061441306807581
 21
50.01265373455815
 31
0.0
  0
LINE
  5
18D
  8
DATA
  6
CONTINUOUS
 62
     7
 10
86.924778982475743
 20
49.844665789284747
 30
0.0
 11
87.001543965664496
 21
49.923151960436982
 31
0.0
  0
LINE
  5
18E
  8
DATA
  6
CONTINUOUS
 62
     7
 10
87.118240509614353
 20
46.832242614924439
 30
0.0
 11
87.119273222392621
 21
46.828111763810902
 31
0.0
  0
LINE
  5
18F
  8
DATA
  6
CONTINUOUS
 62
     7
 10
87.099995917197589
 20
46.844290930671342
 30
0.0
 11
87.118240509614353
 21
46.832242614924439
 31
0.0
  0
LINE
  5
190
  8
DATA
  6
CONTINUOUS
 62
     7
 10
87.061441306807581
 20
46.855650771233073
 30
0.0
 11
87.099995917197589
 21
46.844290930671342
 31
0.0
  0
LINE
  5
191
  8
DATA
  6
CONTINUOUS
 62
     7
 10
87.001543965664496
 20
46.866666374201642
 30
0.0
 11
87.061441306807581
 21
46.855650771233073
 31
0.0
  0
LINE
  5
192
  8
DATA
  6
CONTINUOUS
 62
     7
 10
86.924778982475743
 20
46.876305026799542
 30
0.0
 11
87.001543965664496
 21
46.866666374201642
 31
0.0
  0
LINE
  5
193
  8
DATA
  6
CONTINUOUS
 62
     7
 10
85.774336947427074
 20
44.808814044602009
 30
0.0
 11
86.924778982475743
 21
43.811901975930148
 31
0.0
  0
LINE
  5
194
  8
DATA
  6
CONTINUOUS
 62
     7
 10
85.774336947427074
 20
44.808814044602009
 30
0.0
 11
85.774336947427074
 21
46.658746868166389
 31
0.0
  0
LINE
  5
195
  8
DATA
  6
CONTINUOUS
 62
     7
 10
85.774336947427074
 20
46.658746868166389
 30
0.0
 11
86.924778982475743
 21
46.780262738415388
 31
0.0
  0
LINE
  5
196
  8
DATA
  6
CONTINUOUS
 62
     7
 10
85.774336947427074
 20
46.997476659455721
 30
0.0
 11
85.774336947427074
 21
48.847753720612907
 31
0.0
  0
LINE
  5
197
  8
DATA
  6
CONTINUOUS
 62
     7
 10
85.774336947427074
 20
48.847753720612907
 30
0.0
 11
86.924778982475743
 21
49.844665789284747
 31
0.0
  0
LINE
  5
198
  8
DATA
  6
CONTINUOUS
 62
     7
 10
85.774336947427074
 20
46.997476659455721
 30
0.0
 11
86.924778982475743
 21
46.876305026799542
 31
0.0
  0
LINE
  5
199
  8
DATA
  6
CONTINUOUS
 62
     7
 10
85.774336947427074
 20
44.569224680031731
 30
0.0
 11
86.924778982475743
 21
43.744087170153762
 31
0.0
  0
LINE
  5
19A
  8
DATA
  6
CONTINUOUS
 62
     7
 10
85.939915229551502
 20
44.665266968415501
 30
0.0
 11
85.774336947427074
 21
44.569224680031731
 31
0.0
  0
LINE
  5
19B
  8
DATA
  6
CONTINUOUS
 62
     7
 10
87.118240509614353
 20
43.444944702033823
 30
0.0
 11
87.119273222392621
 21
43.418438407390347
 31
0.0
  0
LINE
  5
19C
  8
DATA
  6
CONTINUOUS
 62
     7
 10
87.061441306807581
 20
43.605015182673263
 30
0.0
 11
87.118240509614353
 21
43.444944702033823
 31
0.0
  0
LINE
  5
19D
  8
DATA
  6
CONTINUOUS
 62
     7
 10
86.924778982475743
 20
43.744087170153762
 30
0.0
 11
87.061441306807581
 21
43.605015182673263
 31
0.0
  0
LINE
  5
19E
  8
DATA
  6
CONTINUOUS
 62
     7
 10
87.118240509614353
 20
42.047340075373668
 30
0.0
 11
87.119273222392621
 21
42.00603156424075
 31
0.0
  0
LINE
  5
19F
  8
DATA
  6
CONTINUOUS
 62
     7
 10
87.061441306807581
 20
42.29760080531981
 30
0.0
 11
87.118240509614353
 21
42.047340075373668
 31
0.0
  0
LINE
  5
1A0
  8
DATA
  6
CONTINUOUS
 62
     7
 10
86.924778982475743
 20
42.514470488766968
 30
0.0
 11
87.061441306807581
 21
42.29760080531981
 31
0.0
  0
LINE
  5
1A1
  8
DATA
  6
CONTINUOUS
 62
     7
 10
87.118240509614353
 20
50.211623063181051
 30
0.0
 11
87.119273222392621
 21
50.238129357824583
 31
0.0
  0
LINE
  5
1A2
  8
DATA
  6
CONTINUOUS
 62
     7
 10
87.061441306807581
 20
50.051552582541667
 30
0.0
 11
87.118240509614353
 21
50.211623063181051
 31
0.0
  0
LINE
  5
1A3
  8
DATA
  6
CONTINUOUS
 62
     7
 10
86.924778982475743
 20
49.912480595061169
 30
0.0
 11
87.061441306807581
 21
50.051552582541667
 31
0.0
  0
LINE
  5
1A4
  8
DATA
  6
CONTINUOUS
 62
     7
 10
85.939915229551502
 20
48.991300796799422
 30
0.0
 11
85.774336947427074
 21
49.087343085183178
 31
0.0
  0
LINE
  5
1A5
  8
DATA
  6
CONTINUOUS
 62
     7
 10
85.774336947427074
 20
49.087343085183178
 30
0.0
 11
86.924778982475743
 21
49.912480595061169
 31
0.0
  0
LINE
  5
1A6
  8
DATA
  6
CONTINUOUS
 62
     7
 10
87.118240509614353
 20
51.609227689841212
 30
0.0
 11
87.119273222392621
 21
51.650536200974123
 31
0.0
  0
LINE
  5
1A7
  8
DATA
  6
CONTINUOUS
 62
     7
 10
87.061441306807581
 20
51.359311197487891
 30
0.0
 11
87.118240509614353
 21
51.609227689841212
 31
0.0
  0
LINE
  5
1A8
  8
DATA
  6
CONTINUOUS
 62
     7
 10
86.924778982475743
 20
51.142097276447927
 30
0.0
 11
87.061441306807581
 21
51.359311197487891
 31
0.0
  0
LINE
  5
1A9
  8
DATA
  6
CONTINUOUS
 62
     7
 10
85.774336947427074
 20
43.80295179851818
 30
0.0
 11
86.924778982475743
 21
42.514470488766968
 31
0.0
  0
LINE
  5
1AA
  8
DATA
  6
CONTINUOUS
 62
     7
 10
85.774336947427074
 20
43.80295179851818
 30
0.0
 11
85.774336947427074
 21
44.569224680031731
 31
0.0
  0
LINE
  5
1AB
  8
DATA
  6
CONTINUOUS
 62
     7
 10
85.774336947427074
 20
49.853615966696722
 30
0.0
 11
86.924778982475743
 21
51.142097276447927
 31
0.0
  0
LINE
  5
1AC
  8
DATA
  6
CONTINUOUS
 62
     7
 10
85.774336947427074
 20
49.087343085183178
 30
0.0
 11
85.774336947427074
 21
49.853615966696722
 31
0.0
  0
LINE
  5
1AD
  8
DATA
  6
CONTINUOUS
 62
     7
 10
87.118240509614353
 20
42.047340075373668
 30
0.0
 11
87.119273222392621
 21
42.00603156424075
 31
0.0
  0
LINE
  5
1AE
  8
DATA
  6
CONTINUOUS
 62
     7
 10
87.061441306807581
 20
42.29760080531981
 30
0.0
 11
87.118240509614353
 21
42.047340075373668
 31
0.0
  0
LINE
  5
1AF
  8
DATA
  6
CONTINUOUS
 62
     7
 10
86.924778982475743
 20
42.514470488766968
 30
0.0
 11
87.061441306807581
 21
42.29760080531981
 31
0.0
  0
LINE
  5
1B0
  8
DATA
  6
CONTINUOUS
 62
     7
 10
87.118240509614353
 20
51.609227689841212
 30
0.0
 11
87.119273222392621
 21
51.650536200974123
 31
0.0
  0
LINE
  5
1B1
  8
DATA
  6
CONTINUOUS
 62
     7
 10
87.061441306807581
 20
51.359311197487891
 30
0.0
 11
87.118240509614353
 21
51.609227689841212
 31
0.0
  0
LINE
  5
1B2
  8
DATA
  6
CONTINUOUS
 62
     7
 10
86.924778982475743
 20
51.142097276447927
 30
0.0
 11
87.061441306807581
 21
51.359311197487891
 31
0.0
  0
LINE
  5
1B3
  8
DATA
  6
CONTINUOUS
 62
     7
 10
87.119273222392621
 20
96.430339219313964
 30
0.0
 11
87.119273222392621
 21
101.4603587664041
 31
0.0
  0
LINE
  5
1B4
  8
DATA
  6
CONTINUOUS
 62
     7
 10
87.118240509614353
 20
99.793884738303262
 30
0.0
 11
87.119273222392621
 21
99.761870642175424
 31
0.0
  0
LINE
  5
1B5
  8
DATA
  6
CONTINUOUS
 62
     7
 10
87.061441306807581
 20
99.987346265441843
 30
0.0
 11
87.118240509614353
 21
99.793884738303262
 31
0.0
  0
LINE
  5
1B6
  8
DATA
  6
CONTINUOUS
 62
     7
 10
86.924778982475743
 20
100.1553342107152
 30
0.0
 11
87.061441306807581
 21
99.987346265441843
 31
0.0
  0
LINE
  5
1B7
  8
DATA
  6
CONTINUOUS
 62
     7
 10
85.774336947427074
 20
101.1522462793871
 30
0.0
 11
86.924778982475743
 21
100.1553342107152
 31
0.0
  0
LINE
  5
1B8
  8
DATA
  6
CONTINUOUS
 62
     7
 10
85.774336947427074
 20
101.1522462793871
 30
0.0
 11
85.774336947427074
 21
101.4603587664041
 31
0.0
  0
LINE
  5
1B9
  8
DATA
  6
CONTINUOUS
 62
     7
 10
85.774336947427074
 20
100.91265691481679
 30
0.0
 11
86.924778982475743
 21
100.0875194049388
 31
0.0
  0
LINE
  5
1BA
  8
DATA
  6
CONTINUOUS
 62
     7
 10
85.939915229551502
 20
101.00869920320051
 30
0.0
 11
85.774336947427074
 21
100.91265691481679
 31
0.0
  0
LINE
  5
1BB
  8
DATA
  6
CONTINUOUS
 62
     7
 10
87.118240509614353
 20
99.788376936818963
 30
0.0
 11
87.119273222392621
 21
99.761870642175424
 31
0.0
  0
LINE
  5
1BC
  8
DATA
  6
CONTINUOUS
 62
     7
 10
87.061441306807581
 20
99.948447417458311
 30
0.0
 11
87.118240509614353
 21
99.788376936818963
 31
0.0
  0
LINE
  5
1BD
  8
DATA
  6
CONTINUOUS
 62
     7
 10
86.924778982475743
 20
100.0875194049388
 30
0.0
 11
87.061441306807581
 21
99.948447417458311
 31
0.0
  0
LINE
  5
1BE
  8
DATA
  6
CONTINUOUS
 62
     7
 10
87.118240509614353
 20
98.390772310158809
 30
0.0
 11
87.119273222392621
 21
98.349463799025884
 31
0.0
  0
LINE
  5
1BF
  8
DATA
  6
CONTINUOUS
 62
     7
 10
87.061441306807581
 20
98.64068880251213
 30
0.0
 11
87.118240509614353
 21
98.390772310158809
 31
0.0
  0
LINE
  5
1C0
  8
DATA
  6
CONTINUOUS
 62
     7
 10
86.924778982475743
 20
98.857902723552087
 30
0.0
 11
87.061441306807581
 21
98.64068880251213
 31
0.0
  0
LINE
  5
1C1
  8
DATA
  6
CONTINUOUS
 62
     7
 10
85.774336947427074
 20
100.14638403330321
 30
0.0
 11
86.924778982475743
 21
98.857902723552087
 31
0.0
  0
LINE
  5
1C2
  8
DATA
  6
CONTINUOUS
 62
     7
 10
85.774336947427074
 20
100.14638403330321
 30
0.0
 11
85.774336947427074
 21
100.91265691481679
 31
0.0
  0
LINE
  5
1C3
  8
DATA
  6
CONTINUOUS
 62
     7
 10
87.118240509614353
 20
98.390772310158809
 30
0.0
 11
87.119273222392621
 21
98.349463799025884
 31
0.0
  0
LINE
  5
1C4
  8
DATA
  6
CONTINUOUS
 62
     7
 10
87.061441306807581
 20
98.64068880251213
 30
0.0
 11
87.118240509614353
 21
98.390772310158809
 31
0.0
  0
LINE
  5
1C5
  8
DATA
  6
CONTINUOUS
 62
     7
 10
86.924778982475743
 20
98.857902723552087
 30
0.0
 11
87.061441306807581
 21
98.64068880251213
 31
0.0
  0
LINE
  5
1C6
  8
DATA
  6
CONTINUOUS
 62
     7
 10
94.084081598536187
 20
108.25
 30
0.0
 11
94.084081598536187
 21
41.749999999999993
 31
0.0
  0
LINE
  5
1C7
  8
DATA
  6
CONTINUOUS
 62
     7
 10
89.022907110429557
 20
127.79038392097409
 30
0.0
 11
89.022907110429557
 21
22.209616079025881
 31
0.0
  0
LINE
  5
1C8
  8
DATA
  6
CONTINUOUS
 62
     7
 10
75.048775430943451
 20
109.89725808620381
 30
0.0
 11
73.475265394375512
 21
109.89725808620381
 31
0.0
  0
LINE
  5
1C9
  8
DATA
  6
CONTINUOUS
 62
     7
 10
75.048775430943451
 20
109.89725808620381
 30
0.0
 11
75.048775430943451
 21
40.102397676203474
 31
0.0
  0
LINE
  5
1CA
  8
DATA
  6
CONTINUOUS
 62
     7
 10
75.048775430943451
 20
40.102397676203474
 30
0.0
 11
73.475265394375512
 21
40.102397676203474
 31
0.0
  0
LINE
  5
1CB
  8
DATA
  6
CONTINUOUS
 62
     7
 10
73.475265394375512
 20
109.89725808620381
 30
0.0
 11
73.475265394375512
 21
40.102397676203474
 31
0.0
  0
LINE
  5
1CC
  8
DATA
  6
CONTINUOUS
 62
     7
 10
86.924778982475743
 20
43.811901975930148
 30
0.0
 11
86.924778982475743
 21
46.780262738415388
 31
0.0
  0
LINE
  5
1CD
  8
DATA
  6
CONTINUOUS
 62
     7
 10
86.924778982475743
 20
46.876305026799542
 30
0.0
 11
86.924778982475743
 21
49.844665789284747
 31
0.0
  0
LINE
  5
1CE
  8
DATA
  6
CONTINUOUS
 62
     7
 10
86.924778982475743
 20
42.514470488766968
 30
0.0
 11
86.924778982475743
 21
43.744087170153762
 31
0.0
  0
LINE
  5
1CF
  8
DATA
  6
CONTINUOUS
 62
     7
 10
86.924778982475743
 20
49.912480595061169
 30
0.0
 11
86.924778982475743
 21
51.142097276447927
 31
0.0
  0
LINE
  5
1D0
  8
DATA
  6
CONTINUOUS
 62
     7
 10
86.924778982475743
 20
100.1553342107152
 30
0.0
 11
86.924778982475743
 21
101.4603587664041
 31
0.0
  0
LINE
  5
1D1
  8
DATA
  6
CONTINUOUS
 62
     7
 10
86.924778982475743
 20
98.857902723552087
 30
0.0
 11
86.924778982475743
 21
100.0875194049388
 31
0.0
  0
LINE
  5
1D2
  8
DATA
  6
CONTINUOUS
 62
     7
 10
87.5
 20
101.4603587664041
 30
0.0
 11
79.455903065578752
 21
101.4603587664041
 31
0.0
  0
LINE
  5
1D3
  8
DATA
  6
CONTINUOUS
 62
     7
 10
87.5
 20
109.596074589127
 30
0.0
 11
79.022907110429685
 21
109.596074589127
 31
0.0
  0
LINE
  5
1D4
  8
DATA
  6
CONTINUOUS
 62
     7
 10
87.5
 20
101.4603587664041
 30
0.0
 11
79.022907110429685
 21
101.4603587664041
 31
0.0
  0
LINE
  5
1D5
  8
DATA
  6
CONTINUOUS
 62
     7
 10
79.022907110429685
 20
101.4603587664041
 30
0.0
 11
79.022907110429685
 21
104.11011167695391
 31
0.0
  0
LINE
  5
1D6
  8
DATA
  6
CONTINUOUS
 62
     7
 10
79.022907110429685
 20
106.81060585585431
 30
0.0
 11
79.022907110429685
 21
109.596074589127
 31
0.0
  0
CIRCLE
  5
1D7
  8
DATA
  6
CONTINUOUS
 62
     7
 10
82.788120623290624
 20
105.4603587664041
 30
0.0
 40
4.0
  0
POLYLINE
  5
1D8
  8
DATA
  6
CONTINUOUS
 62
     7
 66
     1
 10
0.0
 20
0.0
 30
0.0
  0
VERTEX
  5
414
  8
DATA
  6
CONTINUOUS
 62
     7
 10
80.486634581832817
 20
102.77406800968851
 30
0.0
  0
VERTEX
  5
415
  8
DATA
  6
CONTINUOUS
 62
     7
 10
79.211401986730436
 20
103.57875914687401
 30
0.0
  0
VERTEX
  5
416
  8
DATA
  6
CONTINUOUS
 62
     7
 10
79.370248234746313
 20
107.6170881580895
 30
0.0
  0
VERTEX
  5
417
  8
DATA
  6
CONTINUOUS
 62
     7
 10
82.946966871306543
 20
109.49868777761959
 30
0.0
  0
VERTEX
  5
418
  8
DATA
  6
CONTINUOUS
 62
     7
 10
83.989341160682955
 20
108.8409337682627
 30
0.0
  0
SEQEND
  5
419
  8
DATA
  6
CONTINUOUS
 62
     7
  0
POLYLINE
  5
1E0
  8
DATA
  6
CONTINUOUS
 62
     7
 66
     1
 10
0.0
 20
0.0
 30
0.0
  0
VERTEX
  5
41A
  8
DATA
  6
CONTINUOUS
 62
     7
 10
81.586900085898435
 20
102.0797837645455
 30
0.0
  0
VERTEX
  5
41B
  8
DATA
  6
CONTINUOUS
 62
     7
 10
82.629274375274804
 20
101.4220297551886
 30
0.0
  0
VERTEX
  5
41C
  8
DATA
  6
CONTINUOUS
 62
     7
 10
86.205993011835005
 20
103.3036293747188
 30
0.0
  0
VERTEX
  5
41D
  8
DATA
  6
CONTINUOUS
 62
     7
 10
86.364839259850839
 20
107.34195838593421
 30
0.0
  0
VERTEX
  5
41E
  8
DATA
  6
CONTINUOUS
 62
     7
 10
85.089606664748473
 20
108.14664952311971
 30
0.0
  0
SEQEND
  5
41F
  8
DATA
  6
CONTINUOUS
 62
     7
  0
LINE
  5
1E8
  8
DATA
  6
CONTINUOUS
 62
     7
 10
80.486634581832817
 20
102.77406800968851
 30
0.0
 11
83.989341160682955
 21
108.8409337682627
 31
0.0
  0
LINE
  5
1E9
  8
DATA
  6
CONTINUOUS
 62
     7
 10
81.586900085898364
 20
102.0797837645455
 30
0.0
 11
85.089606664748473
 21
108.14664952311971
 31
0.0
  0
LINE
  5
1EA
  8
DATA
  6
CONTINUOUS
 62
     7
 10
240.17839515515601
 20
104.01413207911941
 30
0.0
 11
240.17839515515601
 21
87.514132079119435
 31
0.0
  0
LINE
  5
1EB
  8
DATA
  6
CONTINUOUS
 62
     7
 10
240.17839515515601
 20
87.514132079119435
 30
0.0
 11
250.00488511858799
 21
87.514132079119435
 31
0.0
  0
LINE
  5
1EC
  8
DATA
  6
CONTINUOUS
 62
     7
 10
250.00488511858799
 20
104.01413207911941
 30
0.0
 11
240.17839515515601
 21
104.01413207911941
 31
0.0
  0
POLYLINE
  5
1ED
  8
DATA
  6
CONTINUOUS
 62
     7
 66
     1
 10
0.0
 20
0.0
 30
0.0
 70
     1
  0
VERTEX
  5
420
  8
DATA
  6
CONTINUOUS
 62
     7
 10
243.27839515515601
 20
102.71413207911949
 30
0.0
  0
VERTEX
  5
421
  8
DATA
  6
CONTINUOUS
 62
     7
 10
246.77839515515601
 20
102.71413207911949
 30
0.0
  0
VERTEX
  5
422
  8
DATA
  6
CONTINUOUS
 62
     7
 10
246.77839515515601
 20
101.4141320791195
 30
0.0
  0
VERTEX
  5
423
  8
DATA
  6
CONTINUOUS
 62
     7
 10
243.27839515515601
 20
101.4141320791195
 30
0.0
  0
SEQEND
  5
424
  8
DATA
  6
CONTINUOUS
 62
     7
  0
LINE
  5
1F4
  8
DATA
  6
CONTINUOUS
 62
     7
 10
245.47839515515591
 20
101.4141320791195
 30
0.0
 11
245.47839515515591
 21
102.71413207911949
 31
0.0
  0
POLYLINE
  5
1F5
  8
DATA
  6
CONTINUOUS
 62
     7
 66
     1
 10
0.0
 20
0.0
 30
0.0
 70
     1
  0
VERTEX
  5
425
  8
DATA
  6
CONTINUOUS
 62
     7
 10
243.27839515515601
 20
100.3141320791194
 30
0.0
  0
VERTEX
  5
426
  8
DATA
  6
CONTINUOUS
 62
     7
 10
246.77839515515601
 20
100.3141320791194
 30
0.0
  0
VERTEX
  5
427
  8
DATA
  6
CONTINUOUS
 62
     7
 10
246.77839515515601
 20
99.014132079119506
 30
0.0
  0
VERTEX
  5
428
  8
DATA
  6
CONTINUOUS
 62
     7
 10
243.27839515515601
 20
99.014132079119506
 30
0.0
  0
SEQEND
  5
429
  8
DATA
  6
CONTINUOUS
 62
     7
  0
LINE
  5
1FC
  8
DATA
  6
CONTINUOUS
 62
     7
 10
245.47839515515591
 20
99.014132079119506
 30
0.0
 11
245.47839515515591
 21
100.3141320791194
 31
0.0
  0
POLYLINE
  5
1FD
  8
DATA
  6
CONTINUOUS
 62
     7
 66
     1
 10
0.0
 20
0.0
 30
0.0
 70
     1
  0
VERTEX
  5
42A
  8
DATA
  6
CONTINUOUS
 62
     7
 10
243.27839515515601
 20
97.914132079119511
 30
0.0
  0
VERTEX
  5
42B
  8
DATA
  6
CONTINUOUS
 62
     7
 10
246.77839515515601
 20
97.914132079119511
 30
0.0
  0
VERTEX
  5
42C
  8
DATA
  6
CONTINUOUS
 62
     7
 10
246.77839515515601
 20
96.614132079119486
 30
0.0
  0
VERTEX
  5
42D
  8
DATA
  6
CONTINUOUS
 62
     7
 10
243.27839515515601
 20
96.614132079119486
 30
0.0
  0
SEQEND
  5
42E
  8
DATA
  6
CONTINUOUS
 62
     7
  0
LINE
  5
204
  8
DATA
  6
CONTINUOUS
 62
     7
 10
245.47839515515591
 20
96.614132079119486
 30
0.0
 11
245.47839515515591
 21
97.914132079119511
 31
0.0
  0
POLYLINE
  5
205
  8
DATA
  6
CONTINUOUS
 62
     7
 66
     1
 10
0.0
 20
0.0
 30
0.0
 70
     1
  0
VERTEX
  5
42F
  8
DATA
  6
CONTINUOUS
 62
     7
 10
243.27839515515601
 20
95.514132079119491
 30
0.0
  0
VERTEX
  5
430
  8
DATA
  6
CONTINUOUS
 62
     7
 10
246.77839515515601
 20
95.514132079119491
 30
0.0
  0
VERTEX
  5
431
  8
DATA
  6
CONTINUOUS
 62
     7
 10
246.77839515515601
 20
94.214132079119437
 30
0.0
  0
VERTEX
  5
432
  8
DATA
  6
CONTINUOUS
 62
     7
 10
243.27839515515601
 20
94.214132079119437
 30
0.0
  0
SEQEND
  5
433
  8
DATA
  6
CONTINUOUS
 62
     7
  0
LINE
  5
20C
  8
DATA
  6
CONTINUOUS
 62
     7
 10
245.47839515515591
 20
94.214132079119437
 30
0.0
 11
245.47839515515591
 21
95.514132079119491
 31
0.0
  0
POLYLINE
  5
20D
  8
DATA
  6
CONTINUOUS
 62
     7
 66
     1
 10
0.0
 20
0.0
 30
0.0
 70
     1
  0
VERTEX
  5
434
  8
DATA
  6
CONTINUOUS
 62
     7
 10
243.27839515515601
 20
93.114132079119486
 30
0.0
  0
VERTEX
  5
435
  8
DATA
  6
CONTINUOUS
 62
     7
 10
246.77839515515601
 20
93.114132079119486
 30
0.0
  0
VERTEX
  5
436
  8
DATA
  6
CONTINUOUS
 62
     7
 10
246.77839515515601
 20
91.81413207911946
 30
0.0
  0
VERTEX
  5
437
  8
DATA
  6
CONTINUOUS
 62
     7
 10
243.27839515515601
 20
91.81413207911946
 30
0.0
  0
SEQEND
  5
438
  8
DATA
  6
CONTINUOUS
 62
     7
  0
LINE
  5
214
  8
DATA
  6
CONTINUOUS
 62
     7
 10
245.47839515515591
 20
91.81413207911946
 30
0.0
 11
245.47839515515591
 21
93.114132079119486
 31
0.0
  0
POLYLINE
  5
215
  8
DATA
  6
CONTINUOUS
 62
     7
 66
     1
 10
0.0
 20
0.0
 30
0.0
 70
     1
  0
VERTEX
  5
439
  8
DATA
  6
CONTINUOUS
 62
     7
 10
243.27839515515601
 20
90.714132079119452
 30
0.0
  0
VERTEX
  5
43A
  8
DATA
  6
CONTINUOUS
 62
     7
 10
246.77839515515601
 20
90.714132079119452
 30
0.0
  0
VERTEX
  5
43B
  8
DATA
  6
CONTINUOUS
 62
     7
 10
246.77839515515601
 20
89.414132079119483
 30
0.0
  0
VERTEX
  5
43C
  8
DATA
  6
CONTINUOUS
 62
     7
 10
243.27839515515601
 20
89.414132079119483
 30
0.0
  0
SEQEND
  5
43D
  8
DATA
  6
CONTINUOUS
 62
     7
  0
LINE
  5
21C
  8
DATA
  6
CONTINUOUS
 62
     7
 10
245.47839515515591
 20
89.414132079119483
 30
0.0
 11
245.47839515515591
 21
90.714132079119452
 31
0.0
  0
TEXT
  5
21D
  8
DATA
 62
     7
 10
242.0790838115411
 20
90.679776671853489
 30
0.0
 40
0.9234375000000001
  1
ON
 50
90.0
 41
0.7
 11
241.15564631154109
 21
90.679776671853489
 31
0.0
 73
     3
  0
TEXT
  5
21E
  8
DATA
 62
     7
 10
248.51440554838391
 20
89.66884777625026
 30
0.0
 40
0.9234375000000001
  1
1
 50
90.0
 41
0.7
 11
247.5909680483839
 21
89.66884777625026
 31
0.0
 73
     3
  0
TEXT
  5
21F
  8
DATA
 62
     7
 10
248.51440554838391
 20
92.068847776250266
 30
0.0
 40
0.9234375000000001
  1
2
 50
90.0
 41
0.7
 11
247.5909680483839
 21
92.068847776250266
 31
0.0
 73
     3
  0
TEXT
  5
220
  8
DATA
 62
     7
 10
248.51440554838391
 20
94.468847776250215
 30
0.0
 40
0.9234375000000001
  1
3
 50
90.0
 41
0.7
 11
247.5909680483839
 21
94.468847776250215
 31
0.0
 73
     3
  0
TEXT
  5
221
  8
DATA
 62
     7
 10
248.51440554838391
 20
96.868847776250263
 30
0.0
 40
0.9234375000000001
  1
4
 50
90.0
 41
0.7
 11
247.5909680483839
 21
96.868847776250263
 31
0.0
 73
     3
  0
TEXT
  5
222
  8
DATA
 62
     7
 10
248.51440554838391
 20
99.268847776250283
 30
0.0
 40
0.9234375000000001
  1
5
 50
90.0
 41
0.7
 11
247.5909680483839
 21
99.268847776250283
 31
0.0
 73
     3
  0
TEXT
  5
223
  8
DATA
 62
     7
 10
248.51440554838391
 20
101.6688477762503
 30
0.0
 40
0.9234375000000001
  1
6
 50
90.0
 41
0.7
 11
247.5909680483839
 21
101.6688477762503
 31
0.0
 73
     3
  0
CIRCLE
  5
224
  8
DATA
  6
CONTINUOUS
 62
     7
 10
-0.0000000000000711
 20
26.650000000000009
 30
0.0
 40
3.5
  0
POLYLINE
  5
225
  8
DATA
  6
CONTINUOUS
 62
     7
 66
     1
 10
0.0
 20
0.0
 30
0.0
 70
     1
  0
VERTEX
  5
43E
  8
DATA
  6
CONTINUOUS
 62
     7
 10
-31.000000000000071
 20
128.25
 30
0.0
  0
VERTEX
  5
43F
  8
DATA
  6
CONTINUOUS
 62
     7
 10
31.00000000000005
 20
128.25
 30
0.0
  0
VERTEX
  5
440
  8
DATA
  6
CONTINUOUS
 62
     7
 10
31.00000000000005
 20
21.75000000000005
 30
0.0
  0
VERTEX
  5
441
  8
DATA
  6
CONTINUOUS
 62
     7
 10
-31.000000000000071
 20
21.75000000000005
 30
0.0
  0
SEQEND
  5
442
  8
DATA
  6
CONTINUOUS
 62
     7
  0
LINE
  5
22C
  8
DATA
  6
CONTINUOUS
 62
     7
 10
-31.000000000000071
 20
128.25
 30
0.0
 11
-35.000000000000071
 21
132.25
 31
0.0
  0
LINE
  5
22D
  8
DATA
  6
CONTINUOUS
 62
     7
 10
31.00000000000005
 20
128.25
 30
0.0
 11
35.00000000000005
 21
132.25
 31
0.0
  0
LINE
  5
22E
  8
DATA
  6
CONTINUOUS
 62
     7
 10
31.00000000000005
 20
21.75000000000006
 30
0.0
 11
35.00000000000005
 21
17.75
 31
0.0
  0
LINE
  5
22F
  8
DATA
  6
CONTINUOUS
 62
     7
 10
-31.000000000000071
 20
21.75000000000005
 30
0.0
 11
-35.000000000000071
 21
17.749999999999979
 31
0.0
  0
LINE
  5
230
  8
DATA
  6
CONTINUOUS
 62
     7
 10
-0.5000000000000711
 20
119.8858983848622
 30
0.0
 11
-0.5000000000000711
 21
126.8141016151377
 31
0.0
  0
LINE
  5
231
  8
DATA
  6
CONTINUOUS
 62
     7
 10
0.499999999999929
 20
126.8141016151377
 30
0.0
 11
0.499999999999929
 21
119.8858983848622
 31
0.0
  0
LINE
  5
232
  8
DATA
  6
CONTINUOUS
 62
     7
 10
-0.5000000000000711
 20
23.18589838486227
 30
0.0
 11
-0.5000000000000711
 21
30.114101615137798
 31
0.0
  0
LINE
  5
233
  8
DATA
  6
CONTINUOUS
 62
     7
 10
0.499999999999929
 20
30.114101615137798
 30
0.0
 11
0.499999999999929
 21
23.18589838486227
 31
0.0
  0
LINE
  5
234
  8
DATA
  6
CONTINUOUS
 62
     7
 10
14.999999999999931
 20
41.25
 30
0.0
 11
-15.000000000000069
 21
41.25
 31
0.0
  0
LINE
  5
235
  8
DATA
  6
CONTINUOUS
 62
     7
 10
16.999999999999929
 20
106.75
 30
0.0
 11
16.999999999999929
 21
43.25
 31
0.0
  0
LINE
  5
236
  8
DATA
  6
CONTINUOUS
 62
     7
 10
-15.000000000000069
 20
108.75
 30
0.0
 11
14.999999999999931
 21
108.75
 31
0.0
  0
LINE
  5
237
  8
DATA
  6
CONTINUOUS
 62
     7
 10
-17.000000000000071
 20
43.25
 30
0.0
 11
-17.000000000000071
 21
106.75
 31
0.0
  0
LINE
  5
238
  8
DATA
  6
CONTINUOUS
 62
     7
 10
-2.66819352122981
 20
182.2833573066512
 30
0.0
 11
-2.66819352122981
 21
176.3481247370963
 31
0.0
  0
LINE
  5
239
  8
DATA
  6
CONTINUOUS
 62
     7
 10
2.688487659917925
 20
182.2833573066512
 30
0.0
 11
2.688487659917925
 21
176.3481247370963
 31
0.0
  0
LINE
  5
23A
  8
DATA
  6
CONTINUOUS
 62
     7
 10
-2.66819352122981
 20
176.3481247370963
 30
0.0
 11
-2.66819352122981
 21
175.0
 31
0.0
  0
LINE
  5
23B
  8
DATA
  6
CONTINUOUS
 62
     7
 10
2.688487659917925
 20
176.3481247370963
 30
0.0
 11
2.688487659917925
 21
175.0
 31
0.0
  0
LINE
  5
23C
  8
DATA
  6
CONTINUOUS
 62
     7
 10
-34.990078589747341
 20
175.0
 30
0.0
 11
35.00992141025295
 21
175.0
 31
0.0
  0
LINE
  5
23D
  8
DATA
  6
CONTINUOUS
 62
     7
 10
-20.058355919500809
 20
178.35698672943539
 30
0.0
 11
-20.658355919500782
 21
178.35698672943539
 31
0.0
  0
LINE
  5
23E
  8
DATA
  6
CONTINUOUS
 62
     7
 10
-20.658355919500782
 20
181.55698672943541
 30
0.0
 11
-20.058355919500809
 21
181.55698672943541
 31
0.0
  0
LINE
  5
23F
  8
DATA
  6
CONTINUOUS
 62
     7
 10
-20.658355919500782
 20
175.95698672943541
 30
0.0
 11
-20.658355919500782
 21
183.95698672943541
 31
0.0
  0
LINE
  5
240
  8
DATA
  6
CONTINUOUS
 62
     7
 10
-21.358355919500831
 20
175.95698672943541
 30
0.0
 11
-21.358355919500831
 21
183.95698672943541
 31
0.0
  0
LINE
  5
241
  8
DATA
  6
CONTINUOUS
 62
     7
 10
-21.358355919500831
 20
176.45698672943541
 30
0.0
 11
-23.558355919500809
 21
176.45698672943541
 31
0.0
  0
LINE
  5
242
  8
DATA
  6
CONTINUOUS
 62
     7
 10
-21.358355919500831
 20
183.45698672943541
 30
0.0
 11
-23.558355919500809
 21
183.45698672943541
 31
0.0
  0
LINE
  5
243
  8
DATA
  6
CONTINUOUS
 62
     7
 10
-23.558355919500809
 20
183.45698672943541
 30
0.0
 11
-23.558355919500809
 21
176.45698672943541
 31
0.0
  0
LINE
  5
244
  8
DATA
  6
CONTINUOUS
 62
     7
 10
-21.358355919500831
 20
175.95698672943541
 30
0.0
 11
-20.658355919500782
 21
175.95698672943541
 31
0.0
  0
LINE
  5
245
  8
DATA
  6
CONTINUOUS
 62
     7
 10
-21.358355919500831
 20
183.95698672943541
 30
0.0
 11
-20.658355919500782
 21
183.95698672943541
 31
0.0
  0
LINE
  5
246
  8
DATA
  6
CONTINUOUS
 62
     7
 10
-20.658355919500782
 20
179.95698672943541
 30
0.0
 11
-21.358355919500831
 21
179.95698672943541
 31
0.0
  0
LINE
  5
247
  8
DATA
  6
CONTINUOUS
 62
     7
 10
31.50992141025295
 20
168.59999999999999
 30
0.0
 11
-31.490078589747341
 21
168.59999999999999
 31
0.0
  0
POLYLINE
  5
248
  8
DATA
  6
CONTINUOUS
 62
     7
 66
     1
 10
0.0
 20
0.0
 30
0.0
 70
     1
  0
VERTEX
  5
443
  8
DATA
  6
CONTINUOUS
 62
     7
 10
19.879909246522669
 20
182.8854597284396
 30
0.0
  0
VERTEX
  5
444
  8
DATA
  6
CONTINUOUS
 62
     7
 10
21.379909246522669
 20
182.8854597284396
 30
0.0
  0
VERTEX
  5
445
  8
DATA
  6
CONTINUOUS
 62
     7
 10
21.379909246522669
 20
181.38545972843971
 30
0.0
  0
VERTEX
  5
446
  8
DATA
  6
CONTINUOUS
 62
     7
 10
19.879909246522669
 20
181.38545972843971
 30
0.0
  0
SEQEND
  5
447
  8
DATA
  6
CONTINUOUS
 62
     7
  0
LINE
  5
24F
  8
DATA
  6
CONTINUOUS
 62
     7
 10
-19.34007858974714
 20
183.10000000000011
 30
0.0
 11
-19.34007858974714
 21
175.0
 31
0.0
  0
LINE
  5
250
  8
DATA
  6
CONTINUOUS
 62
     7
 10
-17.140078589747091
 20
175.0
 30
0.0
 11
-17.140078589747091
 21
183.10000000000011
 31
0.0
  0
LINE
  5
251
  8
DATA
  6
CONTINUOUS
 62
     7
 10
-19.34007858974714
 20
183.10000000000011
 30
0.0
 11
-17.140078589747091
 21
183.10000000000011
 31
0.0
  0
LINE
  5
252
  8
DATA
  6
CONTINUOUS
 62
     7
 10
-20.358355919500831
 20
181.55698672943541
 30
0.0
 11
-19.34007858974714
 21
181.55698672943541
 31
0.0
  0
LINE
  5
253
  8
DATA
  6
CONTINUOUS
 62
     7
 10
-20.058355919500809
 20
178.35698672943539
 30
0.0
 11
-19.34007858974714
 21
178.35698672943539
 31
0.0
  0
POLYLINE
  5
254
  8
DATA
  6
CONTINUOUS
 62
     7
 66
     1
 10
0.0
 20
0.0
 30
0.0
 70
     1
  0
VERTEX
  5
448
  8
DATA
  6
CONTINUOUS
 62
     7
 10
-16.49007858974711
 20
168.59999999999999
 30
0.0
  0
VERTEX
  5
449
  8
DATA
  6
CONTINUOUS
 62
     7
 10
16.50992141025295
 20
168.59999999999999
 30
0.0
  0
VERTEX
  5
44A
  8
DATA
  6
CONTINUOUS
 62
     7
 10
16.50992141025295
 20
167.59999999999999
 30
0.0
  0
VERTEX
  5
44B
  8
DATA
  6
CONTINUOUS
 62
     7
 10
-16.49007858974711
 20
167.59999999999999
 30
0.0
  0
SEQEND
  5
44C
  8
DATA
  6
CONTINUOUS
 62
     7
  0
LINE
  5
25B
  8
DATA
  6
CONTINUOUS
 62
     7
 10
-34.990078589747341
 20
172.09999999999999
 30
0.0
 11
-34.990078589747341
 21
175.0
 31
0.0
  0
LINE
  5
25C
  8
DATA
  6
CONTINUOUS
 62
     7
 10
35.00992141025295
 20
172.09999999999999
 30
0.0
 11
35.00992141025295
 21
175.0
 31
0.0
  0
POLYLINE
  5
25D
  8
DATA
  6
CONTINUOUS
 62
     7
 66
     1
 10
0.0
 20
0.0
 30
0.0
 70
     1
  0
VERTEX
  5
44D
  8
DATA
  6
CONTINUOUS
 62
     7
 10
-21.59007858974708
 20
187.98545972843971
 30
0.0
  0
VERTEX
  5
44E
  8
DATA
  6
CONTINUOUS
 62
     7
 10
21.609921410252969
 20
187.98545972843971
 30
0.0
  0
VERTEX
  5
44F
  8
DATA
  6
CONTINUOUS
 62
     7
 10
21.609921410252969
 20
186.38545972843971
 30
0.0
  0
VERTEX
  5
450
  8
DATA
  6
CONTINUOUS
 62
     7
 10
-21.59007858974708
 20
186.38545972843971
 30
0.0
  0
SEQEND
  5
451
  8
DATA
  6
CONTINUOUS
 62
     7
  0
POLYLINE
  5
264
  8
DATA
  6
CONTINUOUS
 62
     7
 66
     1
 10
0.0
 20
0.0
 30
0.0
 70
     1
  0
VERTEX
  5
452
  8
DATA
  6
CONTINUOUS
 62
     7
 10
14.67990924652262
 20
186.38545972843971
 30
0.0
  0
VERTEX
  5
453
  8
DATA
  6
CONTINUOUS
 62
     7
 10
19.879909246522669
 20
186.38545972843971
 30
0.0
  0
VERTEX
  5
454
  8
DATA
  6
CONTINUOUS
 62
     7
 10
19.879909246522669
 20
176.68545972843961
 30
0.0
  0
VERTEX
  5
455
  8
DATA
  6
CONTINUOUS
 62
     7
 10
14.67990924652262
 20
176.68545972843961
 30
0.0
  0
SEQEND
  5
456
  8
DATA
  6
CONTINUOUS
 62
     7
  0
LINE
  5
26B
  8
DATA
  6
CONTINUOUS
 62
     7
 10
98.084081598536201
 20
57.839456464796967
 30
0.0
 11
98.084081598536201
 21
63.639456464796993
 31
0.0
  0
LINE
  5
26C
  8
DATA
  6
CONTINUOUS
 62
     7
 10
98.084081598536201
 20
63.639456464796993
 30
0.0
 11
94.172911496537466
 21
63.639456464796993
 31
0.0
  0
LINE
  5
26D
  8
DATA
  6
CONTINUOUS
 62
     7
 10
98.084081598536201
 20
57.839456464796967
 30
0.0
 11
94.084081598536187
 21
57.839456464796967
 31
0.0
  0
POLYLINE
  5
26E
  8
DATA
  6
CONTINUOUS
 62
     7
 66
     1
 10
0.0
 20
0.0
 30
0.0
 70
     1
  0
VERTEX
  5
457
  8
DATA
  6
CONTINUOUS
 62
     7
 10
75.048775430943451
 20
64.989456464796973
 30
0.0
  0
VERTEX
  5
458
  8
DATA
  6
CONTINUOUS
 62
     7
 10
83.548775430943437
 20
64.989456464796973
 30
0.0
  0
VERTEX
  5
459
  8
DATA
  6
CONTINUOUS
 62
     7
 10
83.548775430943437
 20
56.489456464796973
 30
0.0
  0
VERTEX
  5
45A
  8
DATA
  6
CONTINUOUS
 62
     7
 10
75.048775430943451
 20
56.489456464796973
 30
0.0
  0
SEQEND
  5
45B
  8
DATA
  6
CONTINUOUS
 62
     7
  0
LINE
  5
275
  8
DATA
  6
CONTINUOUS
 62
     7
 10
83.548775430943437
 20
62.689456464797011
 30
0.0
 11
87.5
 21
62.689456464797011
 31
0.0
  0
LINE
  5
276
  8
DATA
  6
CONTINUOUS
 62
     7
 10
83.548775430943437
 20
58.789456464796991
 30
0.0
 11
87.5
 21
58.789456464796991
 31
0.0
  0
LINE
  5
277
  8
DATA
  6
CONTINUOUS
 62
     7
 10
230.9695789509953
 20
57.839456464796967
 30
0.0
 11
230.9695789509953
 21
63.639456464796993
 31
0.0
  0
LINE
  5
278
  8
DATA
  6
CONTINUOUS
 62
     7
 10
226.96957895099521
 20
57.839456464796967
 30
0.0
 11
226.96957895099521
 21
63.639456464796993
 31
0.0
  0
LINE
  5
279
  8
DATA
  6
CONTINUOUS
 62
     7
 10
226.96957895099521
 20
63.639456464796993
 30
0.0
 11
230.9695789509953
 21
63.639456464796993
 31
0.0
  0
LINE
  5
27A
  8
DATA
  6
CONTINUOUS
 62
     7
 10
226.96957895099521
 20
57.839456464796967
 30
0.0
 11
230.9695789509953
 21
57.839456464796967
 31
0.0
  0
LINE
  5
27B
  8
DATA
  6
CONTINUOUS
 62
     7
 10
-13.4000000000001
 20
163.59999999999999
 30
0.0
 11
-7.600000000000092
 21
163.59999999999999
 31
0.0
  0
LINE
  5
27C
  8
DATA
  6
CONTINUOUS
 62
     7
 10
-13.4000000000001
 20
163.59999999999999
 30
0.0
 11
-13.4000000000001
 21
167.59999999999999
 31
0.0
  0
LINE
  5
27D
  8
DATA
  6
CONTINUOUS
 62
     7
 10
-7.600000000000092
 20
163.59999999999999
 30
0.0
 11
-7.600000000000092
 21
167.66832415238201
 31
0.0
  0
LINE
  5
27E
  8
DATA
  6
CONTINUOUS
 62
     7
 10
-2.66819352122981
 20
182.2833573066512
 30
0.0
 11
-2.66819352122981
 21
186.38545972843971
 31
0.0
  0
LINE
  5
27F
  8
DATA
  6
CONTINUOUS
 62
     7
 10
2.688487659917925
 20
182.2833573066512
 30
0.0
 11
2.688487659917925
 21
186.38545972843971
 31
0.0
  0
POLYLINE
  5
280
  8
DATA
  6
CONTINUOUS
 62
     7
 66
     1
 10
0.0
 20
0.0
 30
0.0
 70
     1
  0
VERTEX
  5
45C
  8
DATA
  6
CONTINUOUS
 62
     7
 10
3.3599214102529649
 20
187.98545972843971
 30
0.0
  0
VERTEX
  5
45D
  8
DATA
  6
CONTINUOUS
 62
     7
 10
3.3599214102529649
 20
190.43010623004531
 30
0.0
  0
VERTEX
  5
45E
  8
DATA
  6
CONTINUOUS
 62
     7
 10
-3.3400785897470802
 20
190.43010623004531
 30
0.0
  0
VERTEX
  5
45F
  8
DATA
  6
CONTINUOUS
 62
     7
 10
-3.3400785897470802
 20
187.98545972843971
 30
0.0
  0
SEQEND
  5
460
  8
DATA
  6
CONTINUOUS
 62
     7
  0
LINE
  5
287
  8
DATA
  6
CONTINUOUS
 62
     7
 10
78.808312032595893
 20
105.8617607861205
 30
0.0
 11
75.048775430943451
 21
105.8617607861205
 31
0.0
  0
LINE
  5
288
  8
DATA
  6
CONTINUOUS
 62
     7
 10
79.211296402759899
 20
100.4813272110718
 30
0.0
 11
75.048775430943451
 21
100.4813272110718
 31
0.0
  0
POLYLINE
  5
289
  8
DATA
  6
CONTINUOUS
 62
     7
 66
     1
 10
0.0
 20
0.0
 30
0.0
 70
     1
  0
VERTEX
  5
461
  8
DATA
  6
CONTINUOUS
 62
     7
 10
73.475265394375512
 20
106.5215439985961
 30
0.0
  0
VERTEX
  5
462
  8
DATA
  6
CONTINUOUS
 62
     7
 10
71.084081598536159
 20
106.5215439985961
 30
0.0
  0
VERTEX
  5
463
  8
DATA
  6
CONTINUOUS
 62
     7
 10
71.084081598536159
 20
99.821543998596198
 30
0.0
  0
VERTEX
  5
464
  8
DATA
  6
CONTINUOUS
 62
     7
 10
73.475265394375512
 20
99.821543998596198
 30
0.0
  0
SEQEND
  5
465
  8
DATA
  6
CONTINUOUS
 62
     7
  0
POLYLINE
  5
290
  8
DATA
  6
CONTINUOUS
 62
     7
 66
     1
 10
0.0
 20
0.0
 30
0.0
 70
   128
  0
VERTEX
  5
466
  8
DATA
  6
CONTINUOUS
 62
     7
 10
72.475265394375512
 20
50.178283882607452
 30
0.0
  0
VERTEX
  5
467
  8
DATA
  6
CONTINUOUS
 62
     7
 10
71.084081598536159
 20
50.178283882607452
 30
0.0
  0
VERTEX
  5
468
  8
DATA
  6
CONTINUOUS
 62
     7
 10
71.084081598536159
 20
43.478283882607457
 30
0.0
  0
VERTEX
  5
469
  8
DATA
  6
CONTINUOUS
 62
     7
 10
72.475265394375512
 20
43.478283882607457
 30
0.0
  0
SEQEND
  5
46A
  8
DATA
  6
CONTINUOUS
 62
     7
  0
LINE
  5
296
  8
DATA
  6
CONTINUOUS
 62
     7
 10
71.084081598536159
 20
106.5215439985961
 30
0.0
 11
71.084081598536159
 21
99.821543998596198
 31
0.0
  0
CIRCLE
  5
297
  8
DATA
  6
CONTINUOUS
 62
     7
 10
174.9502632584533
 20
103.18278245757701
 30
0.0
 40
3.3503691950977061
  0
POLYLINE
  5
298
  8
DATA
  6
CONTINUOUS
 62
     7
 66
     1
 10
0.0
 20
0.0
 30
0.0
  0
VERTEX
  5
46B
  8
DATA
  6
CONTINUOUS
 62
     7
 10
175.4502632584533
 20
103.68278245757701
 30
0.0
  0
VERTEX
  5
46C
  8
DATA
  6
CONTINUOUS
 62
     7
 10
175.4502632584533
 20
105.68278245757701
 30
0.0
  0
VERTEX
  5
46D
  8
DATA
  6
CONTINUOUS
 62
     7
 10
174.4502632584533
 20
105.68278245757701
 30
0.0
  0
VERTEX
  5
46E
  8
DATA
  6
CONTINUOUS
 62
     7
 10
174.4502632584533
 20
103.68278245757701
 30
0.0
  0
SEQEND
  5
46F
  8
DATA
  6
CONTINUOUS
 62
     7
  0
POLYLINE
  5
29F
  8
DATA
  6
CONTINUOUS
 62
     7
 66
     1
 10
0.0
 20
0.0
 30
0.0
  0
VERTEX
  5
470
  8
DATA
  6
CONTINUOUS
 62
     7
 10
175.4502632584533
 20
102.68278245757701
 30
0.0
  0
VERTEX
  5
471
  8
DATA
  6
CONTINUOUS
 62
     7
 10
175.4502632584533
 20
100.68278245757701
 30
0.0
  0
VERTEX
  5
472
  8
DATA
  6
CONTINUOUS
 62
     7
 10
174.4502632584533
 20
100.68278245757701
 30
0.0
  0
VERTEX
  5
473
  8
DATA
  6
CONTINUOUS
 62
     7
 10
174.4502632584533
 20
102.68278245757701
 30
0.0
  0
SEQEND
  5
474
  8
DATA
  6
CONTINUOUS
 62
     7
  0
POLYLINE
  5
2A6
  8
DATA
  6
CONTINUOUS
 62
     7
 66
     1
 10
0.0
 20
0.0
 30
0.0
  0
VERTEX
  5
475
  8
DATA
  6
CONTINUOUS
 62
     7
 10
174.4502632584533
 20
102.68278245757701
 30
0.0
  0
VERTEX
  5
476
  8
DATA
  6
CONTINUOUS
 62
     7
 10
172.4502632584533
 20
102.68278245757701
 30
0.0
  0
VERTEX
  5
477
  8
DATA
  6
CONTINUOUS
 62
     7
 10
172.4502632584533
 20
103.68278245757701
 30
0.0
  0
VERTEX
  5
478
  8
DATA
  6
CONTINUOUS
 62
     7
 10
174.4502632584533
 20
103.68278245757701
 30
0.0
  0
SEQEND
  5
479
  8
DATA
  6
CONTINUOUS
 62
     7
  0
POLYLINE
  5
2AD
  8
DATA
  6
CONTINUOUS
 62
     7
 66
     1
 10
0.0
 20
0.0
 30
0.0
  0
VERTEX
  5
47A
  8
DATA
  6
CONTINUOUS
 62
     7
 10
175.4502632584533
 20
102.68278245757701
 30
0.0
  0
VERTEX
  5
47B
  8
DATA
  6
CONTINUOUS
 62
     7
 10
177.4502632584533
 20
102.68278245757701
 30
0.0
  0
VERTEX
  5
47C
  8
DATA
  6
CONTINUOUS
 62
     7
 10
177.4502632584533
 20
103.68278245757701
 30
0.0
  0
VERTEX
  5
47D
  8
DATA
  6
CONTINUOUS
 62
     7
 10
175.4502632584533
 20
103.68278245757701
 30
0.0
  0
SEQEND
  5
47E
  8
DATA
  6
CONTINUOUS
 62
     7
  0
CIRCLE
  5
2B4
  8
DATA
  6
CONTINUOUS
 62
     7
 10
174.9502632584533
 20
46.842782457577023
 30
0.0
 40
3.3503691950977061
  0
POLYLINE
  5
2B5
  8
DATA
  6
CONTINUOUS
 62
     7
 66
     1
 10
0.0
 20
0.0
 30
0.0
  0
VERTEX
  5
47F
  8
DATA
  6
CONTINUOUS
 62
     7
 10
175.4502632584533
 20
47.342782457577009
 30
0.0
  0
VERTEX
  5
480
  8
DATA
  6
CONTINUOUS
 62
     7
 10
175.4502632584533
 20
49.342782457577023
 30
0.0
  0
VERTEX
  5
481
  8
DATA
  6
CONTINUOUS
 62
     7
 10
174.4502632584533
 20
49.342782457577023
 30
0.0
  0
VERTEX
  5
482
  8
DATA
  6
CONTINUOUS
 62
     7
 10
174.4502632584533
 20
47.342782457577009
 30
0.0
  0
SEQEND
  5
483
  8
DATA
  6
CONTINUOUS
 62
     7
  0
POLYLINE
  5
2BC
  8
DATA
  6
CONTINUOUS
 62
     7
 66
     1
 10
0.0
 20
0.0
 30
0.0
  0
VERTEX
  5
484
  8
DATA
  6
CONTINUOUS
 62
     7
 10
175.4502632584533
 20
46.342782457577009
 30
0.0
  0
VERTEX
  5
485
  8
DATA
  6
CONTINUOUS
 62
     7
 10
175.4502632584533
 20
44.342782457577023
 30
0.0
  0
VERTEX
  5
486
  8
DATA
  6
CONTINUOUS
 62
     7
 10
174.4502632584533
 20
44.342782457577023
 30
0.0
  0
VERTEX
  5
487
  8
DATA
  6
CONTINUOUS
 62
     7
 10
174.4502632584533
 20
46.342782457577009
 30
0.0
  0
SEQEND
  5
488
  8
DATA
  6
CONTINUOUS
 62
     7
  0
POLYLINE
  5
2C3
  8
DATA
  6
CONTINUOUS
 62
     7
 66
     1
 10
0.0
 20
0.0
 30
0.0
  0
VERTEX
  5
489
  8
DATA
  6
CONTINUOUS
 62
     7
 10
174.4502632584533
 20
46.342782457577009
 30
0.0
  0
VERTEX
  5
48A
  8
DATA
  6
CONTINUOUS
 62
     7
 10
172.4502632584533
 20
46.342782457577009
 30
0.0
  0
VERTEX
  5
48B
  8
DATA
  6
CONTINUOUS
 62
     7
 10
172.4502632584533
 20
47.342782457577009
 30
0.0
  0
VERTEX
  5
48C
  8
DATA
  6
CONTINUOUS
 62
     7
 10
174.4502632584533
 20
47.342782457577009
 30
0.0
  0
SEQEND
  5
48D
  8
DATA
  6
CONTINUOUS
 62
     7
  0
POLYLINE
  5
2CA
  8
DATA
  6
CONTINUOUS
 62
     7
 66
     1
 10
0.0
 20
0.0
 30
0.0
  0
VERTEX
  5
48E
  8
DATA
  6
CONTINUOUS
 62
     7
 10
175.4502632584533
 20
46.342782457577009
 30
0.0
  0
VERTEX
  5
48F
  8
DATA
  6
CONTINUOUS
 62
     7
 10
177.4502632584533
 20
46.342782457577009
 30
0.0
  0
VERTEX
  5
490
  8
DATA
  6
CONTINUOUS
 62
     7
 10
177.4502632584533
 20
47.342782457577009
 30
0.0
  0
VERTEX
  5
491
  8
DATA
  6
CONTINUOUS
 62
     7
 10
175.4502632584533
 20
47.342782457577009
 30
0.0
  0
SEQEND
  5
492
  8
DATA
  6
CONTINUOUS
 62
     7
  0
LINE
  5
2D1
  8
DATA
  6
CONTINUOUS
 62
     7
 10
245.8423641467715
 20
105.8617607861205
 30
0.0
 11
250.00488511858799
 21
105.8617607861205
 31
0.0
  0
LINE
  5
2D2
  8
DATA
  6
CONTINUOUS
 62
     7
 10
253.9695789509953
 20
99.821174803498437
 30
0.0
 11
253.9695789509953
 21
106.52191319369381
 31
0.0
  0
LINE
  5
2D3
  8
DATA
  6
CONTINUOUS
 62
     7
 10
253.9695789509953
 20
43.481174803498469
 30
0.0
 11
253.9695789509953
 21
50.181913193693852
 31
0.0
  0
LINE
  5
2D4
  8
DATA
  6
CONTINUOUS
 62
     7
 10
253.9695789509953
 20
106.52191319369381
 30
0.0
 11
251.57839515515599
 21
106.52191319369381
 31
0.0
  0
LINE
  5
2D5
  8
DATA
  6
CONTINUOUS
 62
     7
 10
253.9695789509953
 20
99.821174803498437
 30
0.0
 11
251.57839515515599
 21
99.821174803498437
 31
0.0
  0
LINE
  5
2D6
  8
DATA
  6
CONTINUOUS
 62
     7
 10
253.9695789509953
 20
50.181913193693852
 30
0.0
 11
252.57839515515599
 21
50.181913193693852
 31
0.0
  0
LINE
  5
2D7
  8
DATA
  6
CONTINUOUS
 62
     7
 10
253.9695789509953
 20
43.481174803498469
 30
0.0
 11
252.57839515515599
 21
43.481174803498469
 31
0.0
  0
LINE
  5
2D8
  8
DATA
  6
CONTINUOUS
 62
     7
 10
98.084081598536201
 20
68.839456464796967
 30
0.0
 11
98.084081598536201
 21
74.639456464796979
 31
0.0
  0
LINE
  5
2D9
  8
DATA
  6
CONTINUOUS
 62
     7
 10
98.084081598536201
 20
74.639456464796979
 30
0.0
 11
94.172911496537466
 21
74.639456464796979
 31
0.0
  0
LINE
  5
2DA
  8
DATA
  6
CONTINUOUS
 62
     7
 10
98.084081598536201
 20
68.839456464796967
 30
0.0
 11
94.084081598536187
 21
68.839456464796967
 31
0.0
  0
POLYLINE
  5
2DB
  8
DATA
  6
CONTINUOUS
 62
     7
 66
     1
 10
0.0
 20
0.0
 30
0.0
 70
     1
  0
VERTEX
  5
493
  8
DATA
  6
CONTINUOUS
 62
     7
 10
75.048775430943451
 20
75.989456464796973
 30
0.0
  0
VERTEX
  5
494
  8
DATA
  6
CONTINUOUS
 62
     7
 10
83.548775430943437
 20
75.989456464796973
 30
0.0
  0
VERTEX
  5
495
  8
DATA
  6
CONTINUOUS
 62
     7
 10
83.548775430943437
 20
67.489456464796973
 30
0.0
  0
VERTEX
  5
496
  8
DATA
  6
CONTINUOUS
 62
     7
 10
75.048775430943451
 20
67.489456464796973
 30
0.0
  0
SEQEND
  5
497
  8
DATA
  6
CONTINUOUS
 62
     7
  0
LINE
  5
2E2
  8
DATA
  6
CONTINUOUS
 62
     7
 10
83.548775430943437
 20
73.689456464796976
 30
0.0
 11
87.5
 21
73.689456464796976
 31
0.0
  0
LINE
  5
2E3
  8
DATA
  6
CONTINUOUS
 62
     7
 10
83.548775430943437
 20
69.789456464796999
 30
0.0
 11
87.5
 21
69.789456464796999
 31
0.0
  0
LINE
  5
2E4
  8
DATA
  6
CONTINUOUS
 62
     7
 10
98.084081598536201
 20
79.839456464796982
 30
0.0
 11
98.084081598536201
 21
85.639456464796979
 31
0.0
  0
LINE
  5
2E5
  8
DATA
  6
CONTINUOUS
 62
     7
 10
98.084081598536201
 20
85.639456464796979
 30
0.0
 11
94.172911496537466
 21
85.639456464796979
 31
0.0
  0
LINE
  5
2E6
  8
DATA
  6
CONTINUOUS
 62
     7
 10
98.084081598536201
 20
79.839456464796982
 30
0.0
 11
94.084081598536187
 21
79.839456464796982
 31
0.0
  0
POLYLINE
  5
2E7
  8
DATA
  6
CONTINUOUS
 62
     7
 66
     1
 10
0.0
 20
0.0
 30
0.0
 70
     1
  0
VERTEX
  5
498
  8
DATA
  6
CONTINUOUS
 62
     7
 10
75.048775430943451
 20
86.989456464796973
 30
0.0
  0
VERTEX
  5
499
  8
DATA
  6
CONTINUOUS
 62
     7
 10
83.548775430943437
 20
86.989456464796973
 30
0.0
  0
VERTEX
  5
49A
  8
DATA
  6
CONTINUOUS
 62
     7
 10
83.548775430943437
 20
78.489456464796973
 30
0.0
  0
VERTEX
  5
49B
  8
DATA
  6
CONTINUOUS
 62
     7
 10
75.048775430943451
 20
78.489456464796973
 30
0.0
  0
SEQEND
  5
49C
  8
DATA
  6
CONTINUOUS
 62
     7
  0
LINE
  5
2EE
  8
DATA
  6
CONTINUOUS
 62
     7
 10
83.548775430943437
 20
84.689456464796976
 30
0.0
 11
87.5
 21
84.689456464796976
 31
0.0
  0
LINE
  5
2EF
  8
DATA
  6
CONTINUOUS
 62
     7
 10
83.548775430943437
 20
80.789456464797027
 30
0.0
 11
87.5
 21
80.789456464797027
 31
0.0
  0
LINE
  5
2F0
  8
DATA
  6
CONTINUOUS
 62
     7
 10
98.084081598536201
 20
90.839456464796982
 30
0.0
 11
98.084081598536201
 21
96.639456464797007
 31
0.0
  0
LINE
  5
2F1
  8
DATA
  6
CONTINUOUS
 62
     7
 10
98.084081598536201
 20
96.639456464797007
 30
0.0
 11
94.172911496537466
 21
96.639456464797007
 31
0.0
  0
LINE
  5
2F2
  8
DATA
  6
CONTINUOUS
 62
     7
 10
98.084081598536201
 20
90.839456464796982
 30
0.0
 11
94.084081598536187
 21
90.839456464796982
 31
0.0
  0
POLYLINE
  5
2F3
  8
DATA
  6
CONTINUOUS
 62
     7
 66
     1
 10
0.0
 20
0.0
 30
0.0
 70
     1
  0
VERTEX
  5
49D
  8
DATA
  6
CONTINUOUS
 62
     7
 10
75.048775430943451
 20
97.989456464796987
 30
0.0
  0
VERTEX
  5
49E
  8
DATA
  6
CONTINUOUS
 62
     7
 10
83.548775430943437
 20
97.989456464796987
 30
0.0
  0
VERTEX
  5
49F
  8
DATA
  6
CONTINUOUS
 62
     7
 10
83.548775430943437
 20
89.489456464796973
 30
0.0
  0
VERTEX
  5
4A0
  8
DATA
  6
CONTINUOUS
 62
     7
 10
75.048775430943451
 20
89.489456464796973
 30
0.0
  0
SEQEND
  5
4A1
  8
DATA
  6
CONTINUOUS
 62
     7
  0
LINE
  5
2FA
  8
DATA
  6
CONTINUOUS
 62
     7
 10
83.548775430943437
 20
95.689456464797004
 30
0.0
 11
87.5
 21
95.689456464797004
 31
0.0
  0
LINE
  5
2FB
  8
DATA
  6
CONTINUOUS
 62
     7
 10
83.548775430943437
 20
91.789456464796999
 30
0.0
 11
87.5
 21
91.789456464796999
 31
0.0
  0
POLYLINE
  5
2FC
  8
DATA
  6
CONTINUOUS
 62
     7
 66
     1
 10
0.0
 20
0.0
 30
0.0
  0
VERTEX
  5
4A2
  8
DATA
  6
CONTINUOUS
 62
     7
 10
156.87536788056141
 20
73.718011940191815
 30
0.0
  0
VERTEX
  5
4A3
  8
DATA
  6
CONTINUOUS
 62
     7
 10
156.87536788056141
 20
69.118011940191792
 30
0.0
  0
VERTEX
  5
4A4
  8
DATA
  6
CONTINUOUS
 62
     7
 10
168.5753678805614
 20
69.118011940191792
 30
0.0
  0
VERTEX
  5
4A5
  8
DATA
  6
CONTINUOUS
 62
     7
 10
168.5753678805614
 20
82.818011940191951
 30
0.0
  0
VERTEX
  5
4A6
  8
DATA
  6
CONTINUOUS
 62
     7
 10
156.87536788056141
 20
82.818011940191951
 30
0.0
  0
VERTEX
  5
4A7
  8
DATA
  6
CONTINUOUS
 62
     7
 10
156.87536788056141
 20
78.218011940191843
 30
0.0
  0
SEQEND
  5
4A8
  8
DATA
  6
CONTINUOUS
 62
     7
  0
LINE
  5
305
  8
DATA
  6
CONTINUOUS
 62
     7
 10
155.87536788056141
 20
78.218011940191843
 30
0.0
 11
156.87536788056141
 21
78.218011940191843
 31
0.0
  0
LINE
  5
306
  8
DATA
  6
CONTINUOUS
 62
     7
 10
155.87536788056141
 20
73.718011940191815
 30
0.0
 11
155.87536788056141
 21
78.218011940191843
 31
0.0
  0
LINE
  5
307
  8
DATA
  6
CONTINUOUS
 62
     7
 10
156.87536788056141
 20
73.718011940191815
 30
0.0
 11
155.87536788056141
 21
73.718011940191815
 31
0.0
  0
LINE
  5
308
  8
DATA
  6
CONTINUOUS
 62
     7
 10
160.5753678805614
 20
82.018011940191954
 30
0.0
 11
168.5753678805614
 21
82.018011940191954
 31
0.0
  0
LINE
  5
309
  8
DATA
  6
CONTINUOUS
 62
     7
 10
160.5753678805614
 20
69.918011940191789
 30
0.0
 11
168.5753678805614
 21
69.918011940191789
 31
0.0
  0
LINE
  5
30A
  8
DATA
  6
CONTINUOUS
 62
     7
 10
160.5753678805614
 20
69.918011940191789
 30
0.0
 11
160.5753678805614
 21
73.818011940191809
 31
0.0
  0
LINE
  5
30B
  8
DATA
  6
CONTINUOUS
 62
     7
 10
160.5753678805614
 20
73.818011940191809
 30
0.0
 11
157.12569074059181
 21
73.818011940191809
 31
0.0
  0
LINE
  5
30C
  8
DATA
  6
CONTINUOUS
 62
     7
 10
160.5753678805614
 20
82.018011940191954
 30
0.0
 11
160.5753678805614
 21
78.118011940191806
 31
0.0
  0
LINE
  5
30D
  8
DATA
  6
CONTINUOUS
 62
     7
 10
160.5753678805614
 20
78.118011940191806
 30
0.0
 11
157.12569074059181
 21
78.118011940191806
 31
0.0
  0
LINE
  5
30E
  8
DATA
  6
CONTINUOUS
 62
     7
 10
157.12569074059181
 20
73.818011940191809
 30
0.0
 11
157.12569074059181
 21
78.118011940191806
 31
0.0
  0
LINE
  5
30F
  8
DATA
  6
CONTINUOUS
 62
     7
 10
230.9695789509953
 20
68.839456464796967
 30
0.0
 11
230.9695789509953
 21
74.639456464796979
 31
0.0
  0
LINE
  5
310
  8
DATA
  6
CONTINUOUS
 62
     7
 10
226.96957895099521
 20
68.839456464796967
 30
0.0
 11
226.96957895099521
 21
74.639456464796979
 31
0.0
  0
LINE
  5
311
  8
DATA
  6
CONTINUOUS
 62
     7
 10
226.96957895099521
 20
74.639456464796979
 30
0.0
 11
230.9695789509953
 21
74.639456464796979
 31
0.0
  0
LINE
  5
312
  8
DATA
  6
CONTINUOUS
 62
     7
 10
226.96957895099521
 20
68.839456464796967
 30
0.0
 11
230.9695789509953
 21
68.839456464796967
 31
0.0
  0
LINE
  5
313
  8
DATA
  6
CONTINUOUS
 62
     7
 10
230.9695789509953
 20
79.839456464796982
 30
0.0
 11
230.9695789509953
 21
85.639456464796979
 31
0.0
  0
LINE
  5
314
  8
DATA
  6
CONTINUOUS
 62
     7
 10
226.96957895099521
 20
79.839456464796982
 30
0.0
 11
226.96957895099521
 21
85.639456464796979
 31
0.0
  0
LINE
  5
315
  8
DATA
  6
CONTINUOUS
 62
     7
 10
226.96957895099521
 20
85.639456464796979
 30
0.0
 11
230.9695789509953
 21
85.639456464796979
 31
0.0
  0
LINE
  5
316
  8
DATA
  6
CONTINUOUS
 62
     7
 10
226.96957895099521
 20
79.839456464796982
 30
0.0
 11
230.9695789509953
 21
79.839456464796982
 31
0.0
  0
LINE
  5
317
  8
DATA
  6
CONTINUOUS
 62
     7
 10
230.9695789509953
 20
90.839456464796982
 30
0.0
 11
230.9695789509953
 21
96.639456464797007
 31
0.0
  0
LINE
  5
318
  8
DATA
  6
CONTINUOUS
 62
     7
 10
226.96957895099521
 20
90.839456464796982
 30
0.0
 11
226.96957895099521
 21
96.639456464797007
 31
0.0
  0
LINE
  5
319
  8
DATA
  6
CONTINUOUS
 62
     7
 10
226.96957895099521
 20
96.639456464797007
 30
0.0
 11
230.9695789509953
 21
96.639456464797007
 31
0.0
  0
LINE
  5
31A
  8
DATA
  6
CONTINUOUS
 62
     7
 10
226.96957895099521
 20
90.839456464796982
 30
0.0
 11
230.9695789509953
 21
90.839456464796982
 31
0.0
  0
LINE
  5
31B
  8
DATA
  6
CONTINUOUS
 62
     7
 10
234.01504893426301
 20
41.749999999999993
 30
0.0
 11
234.01504893426301
 21
108.25
 31
0.0
  0
LINE
  5
31C
  8
DATA
  6
CONTINUOUS
 62
     7
 10
245.8423641467715
 20
105.8617607861205
 30
0.0
 11
239.22566305257291
 21
105.8617607861205
 31
0.0
  0
LINE
  5
31D
  8
DATA
  6
CONTINUOUS
 62
     7
 10
242.4742332155754
 20
49.518672788928207
 30
0.0
 11
250.00488511858799
 21
49.518672788928207
 31
0.0
  0
LINE
  5
31E
  8
DATA
  6
CONTINUOUS
 62
     7
 10
242.4742332155754
 20
44.137894976286717
 30
0.0
 11
250.00488511858799
 21
44.137894976286717
 31
0.0
  0
LINE
  5
31F
  8
DATA
  6
CONTINUOUS
 62
     7
 10
235.9770928895704
 20
105.8617607861205
 30
0.0
 11
234.01504893426301
 21
105.8617607861205
 31
0.0
  0
LINE
  5
320
  8
DATA
  6
CONTINUOUS
 62
     7
 10
235.9770928895704
 20
100.4813272110718
 30
0.0
 11
234.01504893426301
 21
100.4813272110718
 31
0.0
  0
LINE
  5
321
  8
DATA
  6
CONTINUOUS
 62
     7
 10
235.9770928895704
 20
49.518672788928207
 30
0.0
 11
234.01504893426301
 21
49.518672788928207
 31
0.0
  0
LINE
  5
322
  8
DATA
  6
CONTINUOUS
 62
     7
 10
235.9770928895704
 20
44.137894976286717
 30
0.0
 11
234.01504893426301
 21
44.137894976286717
 31
0.0
  0
LINE
  5
323
  8
DATA
  6
CONTINUOUS
 62
     7
 10
237.5
 20
63.639456464796993
 30
0.0
 11
241.00488511858799
 21
63.639456464796993
 31
0.0
  0
LINE
  5
324
  8
DATA
  6
CONTINUOUS
 62
     7
 10
241.00488511858799
 20
57.839456464796967
 30
0.0
 11
237.5
 21
57.839456464796967
 31
0.0
  0
LINE
  5
325
  8
DATA
  6
CONTINUOUS
 62
     7
 10
237.5
 20
74.639456464796979
 30
0.0
 11
241.00488511858799
 21
74.639456464796979
 31
0.0
  0
LINE
  5
326
  8
DATA
  6
CONTINUOUS
 62
     7
 10
237.5
 20
68.839456464796967
 30
0.0
 11
250.00488511858799
 21
68.839456464796967
 31
0.0
  0
LINE
  5
327
  8
DATA
  6
CONTINUOUS
 62
     7
 10
237.5
 20
85.639456464796979
 30
0.0
 11
250.00488511858799
 21
85.639456464796979
 31
0.0
  0
LINE
  5
328
  8
DATA
  6
CONTINUOUS
 62
     7
 10
237.5
 20
79.839456464796982
 30
0.0
 11
241.00488511858799
 21
79.839456464796982
 31
0.0
  0
LINE
  5
329
  8
DATA
  6
CONTINUOUS
 62
     7
 10
240.17839515515601
 20
90.839456464796982
 30
0.0
 11
237.5
 21
90.839456464796982
 31
0.0
  0
LINE
  5
32A
  8
DATA
  6
CONTINUOUS
 62
     7
 10
240.17839515515601
 20
96.639456464797007
 30
0.0
 11
237.88072677760741
 21
96.639456464797007
 31
0.0
  0
LINE
  5
32B
  8
DATA
  6
CONTINUOUS
 62
     7
 10
91.038611615268309
 20
108.25
 30
0.0
 11
91.038611615268309
 21
41.749999999999993
 31
0.0
  0
LINE
  5
32C
  8
DATA
  6
CONTINUOUS
 62
     7
 10
84.54147128926337
 20
49.518672788928207
 30
0.0
 11
85.774336947427074
 21
49.518672788928207
 31
0.0
  0
LINE
  5
32D
  8
DATA
  6
CONTINUOUS
 62
     7
 10
84.54147128926337
 20
44.137894976286717
 30
0.0
 11
85.774336947427074
 21
44.137894976286717
 31
0.0
  0
LINE
  5
32E
  8
DATA
  6
CONTINUOUS
 62
     7
 10
79.211296402759899
 20
100.4813272110718
 30
0.0
 11
85.87291149653754
 21
100.4813272110718
 31
0.0
  0
LINE
  5
32F
  8
DATA
  6
CONTINUOUS
 62
     7
 10
89.022907110429557
 20
105.8617607861205
 30
0.0
 11
91.038611615268309
 21
105.8617607861205
 31
0.0
  0
LINE
  5
330
  8
DATA
  6
CONTINUOUS
 62
     7
 10
91.038611615268309
 20
100.4813272110718
 30
0.0
 11
89.022907110429557
 21
100.4813272110718
 31
0.0
  0
LINE
  5
331
  8
DATA
  6
CONTINUOUS
 62
     7
 10
91.038611615268309
 20
49.518672788928207
 30
0.0
 11
89.022907110429557
 21
49.518672788928207
 31
0.0
  0
LINE
  5
332
  8
DATA
  6
CONTINUOUS
 62
     7
 10
91.038611615268309
 20
44.137894976286717
 30
0.0
 11
89.022907110429557
 21
44.137894976286717
 31
0.0
  0
POLYLINE
  5
333
  8
DATA
  6
CONTINUOUS
 62
     7
 66
     1
 10
0.0
 20
0.0
 30
0.0
 70
     1
  0
VERTEX
  5
4A9
  8
DATA
  6
CONTINUOUS
 62
     7
 10
-13.4000000000001
 20
63.650000000000013
 30
0.0
  0
VERTEX
  5
4AA
  8
DATA
  6
CONTINUOUS
 62
     7
 10
-7.600000000000092
 20
63.650000000000013
 30
0.0
  0
VERTEX
  5
4AB
  8
DATA
  6
CONTINUOUS
 62
     7
 10
-7.600000000000092
 20
57.850000000000001
 30
0.0
  0
VERTEX
  5
4AC
  8
DATA
  6
CONTINUOUS
 62
     7
 10
-13.4000000000001
 20
57.850000000000001
 30
0.0
  0
SEQEND
  5
4AD
  8
DATA
  6
CONTINUOUS
 62
     7
  0
POLYLINE
  5
33A
  8
DATA
  6
CONTINUOUS
 62
     7
 66
     1
 10
0.0
 20
0.0
 30
0.0
 70
     1
  0
VERTEX
  5
4AE
  8
DATA
  6
CONTINUOUS
 62
     7
 10
-13.4000000000001
 20
74.650000000000006
 30
0.0
  0
VERTEX
  5
4AF
  8
DATA
  6
CONTINUOUS
 62
     7
 10
-7.600000000000092
 20
74.650000000000006
 30
0.0
  0
VERTEX
  5
4B0
  8
DATA
  6
CONTINUOUS
 62
     7
 10
-7.600000000000092
 20
68.849999999999994
 30
0.0
  0
VERTEX
  5
4B1
  8
DATA
  6
CONTINUOUS
 62
     7
 10
-13.4000000000001
 20
68.849999999999994
 30
0.0
  0
SEQEND
  5
4B2
  8
DATA
  6
CONTINUOUS
 62
     7
  0
POLYLINE
  5
341
  8
DATA
  6
CONTINUOUS
 62
     7
 66
     1
 10
0.0
 20
0.0
 30
0.0
 70
     1
  0
VERTEX
  5
4B3
  8
DATA
  6
CONTINUOUS
 62
     7
 10
-13.4000000000001
 20
85.650000000000006
 30
0.0
  0
VERTEX
  5
4B4
  8
DATA
  6
CONTINUOUS
 62
     7
 10
-7.600000000000092
 20
85.650000000000006
 30
0.0
  0
VERTEX
  5
4B5
  8
DATA
  6
CONTINUOUS
 62
     7
 10
-7.600000000000092
 20
79.84999999999998
 30
0.0
  0
VERTEX
  5
4B6
  8
DATA
  6
CONTINUOUS
 62
     7
 10
-13.4000000000001
 20
79.84999999999998
 30
0.0
  0
SEQEND
  5
4B7
  8
DATA
  6
CONTINUOUS
 62
     7
  0
POLYLINE
  5
348
  8
DATA
  6
CONTINUOUS
 62
     7
 66
     1
 10
0.0
 20
0.0
 30
0.0
 70
     1
  0
VERTEX
  5
4B8
  8
DATA
  6
CONTINUOUS
 62
     7
 10
-13.4000000000001
 20
96.650000000000006
 30
0.0
  0
VERTEX
  5
4B9
  8
DATA
  6
CONTINUOUS
 62
     7
 10
-7.600000000000092
 20
96.650000000000006
 30
0.0
  0
VERTEX
  5
4BA
  8
DATA
  6
CONTINUOUS
 62
     7
 10
-7.600000000000092
 20
90.849999999999994
 30
0.0
  0
VERTEX
  5
4BB
  8
DATA
  6
CONTINUOUS
 62
     7
 10
-13.4000000000001
 20
90.849999999999994
 30
0.0
  0
SEQEND
  5
4BC
  8
DATA
  6
CONTINUOUS
 62
     7
  0
POLYLINE
  5
34F
  8
DATA
  6
CONTINUOUS
 62
     7
 66
     1
 10
0.0
 20
0.0
 30
0.0
 70
     1
  0
VERTEX
  5
4BD
  8
DATA
  6
CONTINUOUS
 62
     7
 10
-3.5000000000000711
 20
63.75
 30
0.0
  0
VERTEX
  5
4BE
  8
DATA
  6
CONTINUOUS
 62
     7
 10
13.999999999999931
 20
63.75
 30
0.0
  0
VERTEX
  5
4BF
  8
DATA
  6
CONTINUOUS
 62
     7
 10
13.999999999999931
 20
57.75
 30
0.0
  0
VERTEX
  5
4C0
  8
DATA
  6
CONTINUOUS
 62
     7
 10
-3.5000000000000711
 20
57.75
 30
0.0
  0
SEQEND
  5
4C1
  8
DATA
  6
CONTINUOUS
 62
     7
  0
TEXT
  5
356
  8
DATA
 62
     7
 10
-6.535275630020478
 20
59.593156753599168
 30
0.0
 40
2.1717881944444439
  1
D
 41
0.7
 11
-6.535275630020478
 21
61.764944948043613
 31
0.0
 73
     3
  0
POLYLINE
  5
357
  8
DATA
  6
CONTINUOUS
 62
     7
 66
     1
 10
0.0
 20
0.0
 30
0.0
 70
     1
  0
VERTEX
  5
4C2
  8
DATA
  6
CONTINUOUS
 62
     7
 10
-3.5000000000000711
 20
74.75
 30
0.0
  0
VERTEX
  5
4C3
  8
DATA
  6
CONTINUOUS
 62
     7
 10
13.999999999999931
 20
74.75
 30
0.0
  0
VERTEX
  5
4C4
  8
DATA
  6
CONTINUOUS
 62
     7
 10
13.999999999999931
 20
68.75
 30
0.0
  0
VERTEX
  5
4C5
  8
DATA
  6
CONTINUOUS
 62
     7
 10
-3.5000000000000711
 20
68.75
 30
0.0
  0
SEQEND
  5
4C6
  8
DATA
  6
CONTINUOUS
 62
     7
  0
TEXT
  5
35E
  8
DATA
 62
     7
 10
-6.535275630020478
 20
70.665138716702785
 30
0.0
 40
2.1717881944444439
  1
C
 41
0.7
 11
-6.535275630020478
 21
72.836926911147231
 31
0.0
 73
     3
  0
POLYLINE
  5
35F
  8
DATA
  6
CONTINUOUS
 62
     7
 66
     1
 10
0.0
 20
0.0
 30
0.0
 70
     1
  0
VERTEX
  5
4C7
  8
DATA
  6
CONTINUOUS
 62
     7
 10
-3.5000000000000711
 20
85.750000000000014
 30
0.0
  0
VERTEX
  5
4C8
  8
DATA
  6
CONTINUOUS
 62
     7
 10
13.999999999999931
 20
85.750000000000014
 30
0.0
  0
VERTEX
  5
4C9
  8
DATA
  6
CONTINUOUS
 62
     7
 10
13.999999999999931
 20
79.75
 30
0.0
  0
VERTEX
  5
4CA
  8
DATA
  6
CONTINUOUS
 62
     7
 10
-3.5000000000000711
 20
79.75
 30
0.0
  0
SEQEND
  5
4CB
  8
DATA
  6
CONTINUOUS
 62
     7
  0
TEXT
  5
366
  8
DATA
 62
     7
 10
-6.535275630020478
 20
81.569162765897985
 30
0.0
 40
2.1717881944444439
  1
B
 41
0.7
 11
-6.535275630020478
 21
83.740950960342445
 31
0.0
 73
     3
  0
POLYLINE
  5
367
  8
DATA
  6
CONTINUOUS
 62
     7
 66
     1
 10
0.0
 20
0.0
 30
0.0
 70
     1
  0
VERTEX
  5
4CC
  8
DATA
  6
CONTINUOUS
 62
     7
 10
-3.5000000000000711
 20
96.75
 30
0.0
  0
VERTEX
  5
4CD
  8
DATA
  6
CONTINUOUS
 62
     7
 10
13.999999999999931
 20
96.75
 30
0.0
  0
VERTEX
  5
4CE
  8
DATA
  6
CONTINUOUS
 62
     7
 10
13.999999999999931
 20
90.750000000000014
 30
0.0
  0
VERTEX
  5
4CF
  8
DATA
  6
CONTINUOUS
 62
     7
 10
-3.5000000000000711
 20
90.750000000000014
 30
0.0
  0
SEQEND
  5
4D0
  8
DATA
  6
CONTINUOUS
 62
     7
  0
TEXT
  5
36E
  8
DATA
 62
     7
 10
-6.5112816423192754
 20
92.785108655208774
 30
0.0
 40
2.1717881944444439
  1
A
 41
0.7
 11
-6.5112816423192754
 21
94.956896849653219
 31
0.0
 73
     3
  0
LINE
  5
36F
  8
DATA
  6
CONTINUOUS
 62
     7
 10
72.475265394375512
 20
50.178283882607452
 30
0.0
 11
73.475265394375512
 21
50.178283882607452
 31
0.0
  0
LINE
  5
370
  8
DATA
  6
CONTINUOUS
 62
     7
 10
72.475265394375512
 20
43.478283882607457
 30
0.0
 11
73.475265394375512
 21
43.478283882607457
 31
0.0
  0
LINE
  5
371
  8
DATA
  6
CONTINUOUS
 62
     7
 10
84.54147128926337
 20
49.518672788928207
 30
0.0
 11
75.048775430943451
 21
49.518672788928207
 31
0.0
  0
LINE
  5
372
  8
DATA
  6
CONTINUOUS
 62
     7
 10
84.54147128926337
 20
44.137894976286717
 30
0.0
 11
75.048775430943451
 21
44.137894976286717
 31
0.0
  0
LINE
  5
373
  8
DATA
  6
CONTINUOUS
 62
     7
 10
252.57839515515599
 20
50.181913193693852
 30
0.0
 11
251.57839515515599
 21
50.181913193693852
 31
0.0
  0
LINE
  5
374
  8
DATA
  6
CONTINUOUS
 62
     7
 10
252.57839515515599
 20
43.481174803498469
 30
0.0
 11
251.57839515515599
 21
43.481174803498469
 31
0.0
  0
LINE
  5
375
  8
DATA
  6
CONTINUOUS
 62
     7
 10
241.00488511858799
 20
69.106773481210936
 30
0.0
 11
250.00488511858799
 21
69.106773481210936
 31
0.0
  0
LINE
  5
376
  8
DATA
  6
CONTINUOUS
 62
     7
 10
242.57178789421189
 20
67.22967848136345
 30
0.0
 11
250.00488511858799
 21
67.22967848136345
 31
0.0
  0
LINE
  5
377
  8
DATA
  6
CONTINUOUS
 62
     7
 10
241.00488511858799
 20
53.529678481363277
 30
0.0
 11
250.00488511858799
 21
53.529678481363277
 31
0.0
  0
LINE
  5
378
  8
DATA
  6
CONTINUOUS
 62
     7
 10
241.00488511858799
 20
53.529678481363277
 30
0.0
 11
241.00488511858799
 21
67.22967848136345
 31
0.0
  0
LINE
  5
379
  8
DATA
  6
CONTINUOUS
 62
     7
 10
241.00488511858799
 20
69.106773481210936
 30
0.0
 11
241.00488511858799
 21
82.78011747657844
 31
0.0
  0
LINE
  5
37A
  8
DATA
  6
CONTINUOUS
 62
     7
 10
242.57178789421189
 20
67.22967848136345
 30
0.0
 11
241.00488511858799
 21
67.22967848136345
 31
0.0
  0
LINE
  5
37B
  8
DATA
  6
CONTINUOUS
 62
     7
 10
241.00488511858799
 20
82.78011747657844
 30
0.0
 11
250.00488511858799
 21
82.78011747657844
 31
0.0
  0
LINE
  5
37C
  8
DATA
  6
CONTINUOUS
 62
     7
 10
252.57839515515599
 20
53.529678481363277
 30
0.0
 11
252.57839515515599
 21
67.22967848136345
 31
0.0
  0
LINE
  5
37D
  8
DATA
  6
CONTINUOUS
 62
     7
 10
252.57839515515599
 20
69.106773481210936
 30
0.0
 11
252.57839515515599
 21
82.78011747657844
 31
0.0
  0
LINE
  5
37E
  8
DATA
  6
CONTINUOUS
 62
     7
 10
252.57839515515599
 20
82.78011747657844
 30
0.0
 11
251.57839515515599
 21
82.78011747657844
 31
0.0
  0
LINE
  5
37F
  8
DATA
  6
CONTINUOUS
 62
     7
 10
252.57839515515599
 20
53.529678481363277
 30
0.0
 11
251.57839515515599
 21
53.529678481363277
 31
0.0
  0
LINE
  5
380
  8
DATA
  6
CONTINUOUS
 62
     7
 10
251.57839515515599
 20
69.106773481210936
 30
0.0
 11
252.57839515515599
 21
69.106773481210936
 31
0.0
  0
LINE
  5
381
  8
DATA
  6
CONTINUOUS
 62
     7
 10
252.57839515515599
 20
67.22967848136345
 30
0.0
 11
251.57839515515599
 21
67.22967848136345
 31
0.0
  0
POLYLINE
  5
382
  8
DATA
  6
CONTINUOUS
 62
     7
 66
     1
 10
0.0
 20
0.0
 30
0.0
  0
VERTEX
  5
4D1
  8
DATA
  6
CONTINUOUS
 62
     7
 10
-2.66819352122981
 20
178.38545972843971
 30
0.0
  0
VERTEX
  5
4D2
  8
DATA
  6
CONTINUOUS
 62
     7
 10
-9.5805353352960321
 20
178.38545972843971
 30
0.0
  0
VERTEX
  5
4D3
  8
DATA
  6
CONTINUOUS
 62
     7
 10
-9.5805353352960321
 20
186.38545972843971
 30
0.0
  0
VERTEX
  5
4D4
  8
DATA
  6
CONTINUOUS
 62
     7
 10
-2.66819352122981
 20
186.38545972843971
 30
0.0
  0
SEQEND
  5
4D5
  8
DATA
  6
CONTINUOUS
 62
     7
  0
LINE
  5
389
  8
DATA
  6
CONTINUOUS
 62
     7
 10
-7.600000000000092
 20
175.0
 30
0.0
 11
-7.600000000000092
 21
178.38545972843971
 31
0.0
  0
LINE
  5
38A
  8
DATA
  6
CONTINUOUS
 62
     7
 10
-9.5805353352960321
 20
182.38545972843971
 30
0.0
 11
-15.132574801714281
 21
182.38545972843971
 31
0.0
  0
LINE
  5
38B
  8
DATA
  6
CONTINUOUS
 62
     7
 10
-9.5805353352960321
 20
178.38545972843971
 30
0.0
 11
-9.5805353352960321
 21
175.0
 31
0.0
  0
LINE
  5
38C
  8
DATA
  6
CONTINUOUS
 62
     7
 10
-15.132574801714281
 20
182.38545972843971
 30
0.0
 11
-13.7325748017143
 21
175.0
 31
0.0
  0
LINE
  5
38D
  8
DATA
  6
CONTINUOUS
 62
     7
 10
-4.3325748017143288
 20
175.0
 30
0.0
 11
-4.3325748017143288
 21
178.38545972843971
 31
0.0
  0
LINE
  5
38E
  8
DATA
  6
CONTINUOUS
 62
     7
 10
191.69999999999999
 20
127.8
 30
0.0
 11
158.2999999999999
 21
127.8
 31
0.0
  0
ARC
  5
38F
  8
DATA
  6
CONTINUOUS
 62
     7
 10
-31.490078589747341
 20
172.09999999999999
 30
0.0
 40
3.5
 50
180.0
 51
270.0
  0
ARC
  5
390
  8
DATA
  6
CONTINUOUS
 62
     7
 10
31.50992141025295
 20
172.09999999999999
 30
0.0
 40
3.5
 50
270.0
 51
0.0
  0
LINE
  5
391
  8
DATA
  6
CONTINUOUS
 62
     7
 10
158.25
 20
22.199999999999989
 30
0.0
 11
158.25
 21
40.0
 31
0.0
  0
LINE
  5
392
  8
DATA
  6
CONTINUOUS
 62
     7
 10
158.25
 20
127.8
 30
0.0
 11
158.25
 21
110.0
 31
0.0
  0
LINE
  5
393
  8
DATA
  6
CONTINUOUS
 62
     7
 10
191.75
 20
40.0
 30
0.0
 11
191.75
 21
22.200000000000049
 31
0.0
  0
LINE
  5
394
  8
DATA
  6
CONTINUOUS
 62
     7
 10
191.75
 20
110.0
 30
0.0
 11
191.75
 21
127.8
 31
0.0
  0
LINE
  5
395
  8
DATA
  6
CONTINUOUS
 62
     7
 10
178.0
 20
30.800000000000001
 30
0.0
 11
172.0
 21
30.800000000000001
 31
0.0
  0
LINE
  5
396
  8
DATA
  6
CONTINUOUS
 62
     7
 10
172.0
 20
35.799999999999997
 30
0.0
 11
178.0
 21
35.799999999999997
 31
0.0
  0
ARC
  5
397
  8
DATA
  6
CONTINUOUS
 62
     7
 10
172.0
 20
33.299999999999997
 30
0.0
 40
2.5
 50
90.0
 51
270.0
  0
ARC
  5
398
  8
DATA
  6
CONTINUOUS
 62
     7
 10
178.0
 20
33.299999999999997
 30
0.0
 40
2.5
 50
270.0
 51
90.0
  0
LINE
  5
399
  8
DATA
  6
CONTINUOUS
 62
     7
 10
178.0
 20
114.2
 30
0.0
 11
172.0
 21
114.2
 31
0.0
  0
LINE
  5
39A
  8
DATA
  6
CONTINUOUS
 62
     7
 10
172.0
 20
119.2
 30
0.0
 11
178.0
 21
119.2
 31
0.0
  0
ARC
  5
39B
  8
DATA
  6
CONTINUOUS
 62
     7
 10
172.0
 20
116.7
 30
0.0
 40
2.5
 50
90.0
 51
270.0
  0
ARC
  5
39C
  8
DATA
  6
CONTINUOUS
 62
     7
 10
178.0
 20
116.7
 30
0.0
 40
2.5
 50
270.0
 51
90.0
  0
ARC
  5
39D
  8
DATA
  6
CONTINUOUS
 62
     7
 10
-15.000000000000069
 20
106.75
 30
0.0
 40
2.0
 50
90.0
 51
180.0
  0
ARC
  5
39E
  8
DATA
  6
CONTINUOUS
 62
     7
 10
-14.500000000000069
 20
106.25
 30
0.0
 40
2.0
 50
90.0
 51
180.0
  0
ARC
  5
39F
  8
DATA
  6
CONTINUOUS
 62
     7
 10
14.499999999999931
 20
106.25
 30
0.0
 40
2.0
 50
0.0
 51
90.0
  0
ARC
  5
3A0
  8
DATA
  6
CONTINUOUS
 62
     7
 10
14.999999999999931
 20
106.75
 30
0.0
 40
2.0
 50
0.0
 51
90.0
  0
ARC
  5
3A1
  8
DATA
  6
CONTINUOUS
 62
     7
 10
-14.500000000000069
 20
43.75
 30
0.0
 40
2.0
 50
180.0
 51
270.0
  0
ARC
  5
3A2
  8
DATA
  6
CONTINUOUS
 62
     7
 10
-15.000000000000069
 20
43.25
 30
0.0
 40
2.0
 50
180.0
 51
270.0
  0
ARC
  5
3A3
  8
DATA
  6
CONTINUOUS
 62
     7
 10
14.499999999999931
 20
43.75
 30
0.0
 40
2.0
 50
270.0
 51
0.0
  0
ARC
  5
3A4
  8
DATA
  6
CONTINUOUS
 62
     7
 10
14.999999999999931
 20
43.25
 30
0.0
 40
2.0
 50
270.0
 51
0.0
  0
LINE
  5
3A5
  8
DATA
  6
CONTINUOUS
 62
     7
 10
91.038611615268309
 20
108.25
 30
0.0
 11
94.084081598536187
 21
108.25
 31
0.0
  0
LINE
  5
3A6
  8
DATA
  6
CONTINUOUS
 62
     7
 10
91.038611615268309
 20
106.25
 30
0.0
 11
94.084081598536187
 21
106.25
 31
0.0
  0
LINE
  5
3A7
  8
DATA
  6
CONTINUOUS
 62
     7
 10
91.038611615268309
 20
41.749999999999993
 30
0.0
 11
94.084081598536187
 21
41.749999999999993
 31
0.0
  0
LINE
  5
3A8
  8
DATA
  6
CONTINUOUS
 62
     7
 10
91.038611615268309
 20
43.75
 30
0.0
 11
94.084081598536187
 21
43.75
 31
0.0
  0
LINE
  5
3A9
  8
DATA
  6
CONTINUOUS
 62
     7
 10
230.9695789509953
 20
108.25
 30
0.0
 11
234.01504893426301
 21
108.25
 31
0.0
  0
LINE
  5
3AA
  8
DATA
  6
CONTINUOUS
 62
     7
 10
230.9695789509953
 20
106.25
 30
0.0
 11
234.01504893426301
 21
106.25
 31
0.0
  0
LINE
  5
3AB
  8
DATA
  6
CONTINUOUS
 62
     7
 10
230.9695789509953
 20
41.749999999999993
 30
0.0
 11
234.01504893426301
 21
41.749999999999993
 31
0.0
  0
LINE
  5
3AC
  8
DATA
  6
CONTINUOUS
 62
     7
 10
230.9695789509953
 20
43.75
 30
0.0
 11
234.01504893426301
 21
43.75
 31
0.0
  0
ENDSEC
  0
EOF
